  0
SECTION
  2
HEADER
  9
$ACADVER
  1
AC1014
  9
$ACADMAINTVER
 70
           0
  9
$DWGCODEPAGE
  3
DOS932
  9
$INSBASE
 10
0.0
 20
0.0
 30
0.0
  9
$EXTMIN
 10
1.000000000000E+20
 20
1.000000000000E+20
 30
1.000000000000E+20
  9
$EXTMAX
 10
-1.000000000000E+20
 20
-1.000000000000E+20
 30
-1.000000000000E+20
  9
$LIMMIN
 10
0.0
 20
0.0
  9
$LIMMAX
 10
0.0
 20
0.0
  9
$ORTHOMODE
 70
           0
  9
$REGENMODE
 70
           1
  9
$FILLMODE
 70
           1
  9
$QTEXTMODE
 70
           0
  9
$MIRRTEXT
 70
           1
  9
$DRAGMODE
 70
           2
  9
$LTSCALE
 40
1.0
  9
$OSMODE
 70
           0
  9
$ATTMODE
 70
           1
  9
$TEXTSIZE
 40
0.2
  9
$TRACEWID
 40
0.05
  9
$TEXTSTYLE
  7
STANDARD
  9
$CLAYER
  8
0
  9
$CELTYPE
  6
CONTINUOUS
  9
$CECOLOR
 62
         256
  9
$CELTSCALE
 40
1.0
  9
$DELOBJ
 70
           1
  9
$DISPSILH
 70
           0
  9
$DIMSCALE
 40
1.0
  9
$DIMASZ
 40
0.18
  9
$DIMEXO
 40
0.0625
  9
$DIMDLI
 40
0.38
  9
$DIMRND
 40
0.0
  9
$DIMDLE
 40
0.0
  9
$DIMEXE
 40
0.18
  9
$DIMTP
 40
0.0
  9
$DIMTM
 40
0.0
  9
$DIMTXT
 40
0.18
  9
$DIMCEN
 40
0.09
  9
$DIMTSZ
 40
0.0
  9
$DIMTOL
 70
           0
  9
$DIMLIM
 70
           0
  9
$DIMTIH
 70
           1
  9
$DIMTOH
 70
           1
  9
$DIMSE1
 70
           0
  9
$DIMSE2
 70
           0
  9
$DIMTAD
 70
           0
  9
$DIMZIN
 70
           0
  9
$DIMBLK
  1

  9
$DIMASO
 70
           1
  9
$DIMSHO
 70
           1
  9
$DIMPOST
  1

  9
$DIMAPOST
  1

  9
$DIMALT
 70
           0
  9
$DIMALTD
 70
           2
  9
$DIMALTF
 40
25.4
  9
$DIMLFAC
 40
1.0
  9
$DIMTOFL
 70
           0
  9
$DIMTVP
 40
0.0
  9
$DIMTIX
 70
           0
  9
$DIMSOXD
 70
           0
  9
$DIMSAH
 70
           0
  9
$DIMBLK1
  1

  9
$DIMBLK2
  1

  9
$DIMSTYLE
  2
STANDARD
  9
$DIMCLRD
 70
           0
  9
$DIMCLRE
 70
           0
  9
$DIMCLRT
 70
           0
  9
$DIMTFAC
 40
1.0
  9
$DIMGAP
 40
0.09
  9
$DIMJUST
 70
           0
  9
$DIMSD1
 70
           0
  9
$DIMSD2
 70
           0
  9
$DIMTOLJ
 70
           1
  9
$DIMTZIN
 70
           0
  9
$DIMALTZ
 70
           0
  9
$DIMALTTZ
 70
           0
  9
$DIMFIT
 70
           3
  9
$DIMUPT
 70
           0
  9
$DIMUNIT
 70
           2
  9
$DIMDEC
 70
           4
  9
$DIMTDEC
 70
           4
  9
$DIMALTU
 70
           2
  9
$DIMALTTD
 70
           2
  9
$DIMTXSTY
  7
STANDARD
  9
$DIMAUNIT
 70
           0
  9
$LUNITS
 70
           2
  9
$LUPREC
 70
           4
  9
$SKETCHINC
 40
0.1
  9
$FILLETRAD
 40
0.0
  9
$AUNITS
 70
           0
  9
$AUPREC
 70
           0
  9
$MENU
  1
acad
  9
$ELEVATION
 40
0.0
  9
$PELEVATION
 40
0.0
  9
$THICKNESS
 40
0.0
  9
$LIMCHECK
 70
           0
  9
$BLIPMODE
 70
           1
  9
$CHAMFERA
 40
0.0
  9
$CHAMFERB
 40
0.0
  9
$CHAMFERC
 40
0.0
  9
$CHAMFERD
 40
0.0
  9
$SKPOLY
 70
           0
  9
$TDCREATE
 40
0.000000000
  9
$TDUPDATE
 40
0.000000000
  9
$TDINDWG
 40
0.0000000000
  9
$TDUSRTIMER
 40
0.0000000000
  9
$USRTIMER
 70
           1
  9
$ANGBASE
 50
0.0
  9
$ANGDIR
 70
           0
  9
$PDMODE
 70
           0
  9
$PDSIZE
 40
0.0
  9
$PLINEWID
 40
0.0
  9
$COORDS
 70
           0
  9
$SPLFRAME
 70
           0
  9
$SPLINETYPE
 70
           6
  9
$SPLINESEGS
 70
           8
  9
$ATTDIA
 70
           0
  9
$ATTREQ
 70
           1
  9
$HANDLING
 70
           1
  9
$HANDSEED
  5
560
  9
$SURFTAB1
 70
           6
  9
$SURFTAB2
 70
           6
  9
$SURFTYPE
 70
           6
  9
$SURFU
 70
           6
  9
$SURFV
 70
           6
  9
$UCSNAME
  2

  9
$UCSORG
 10
0.0
 20
0.0
 30
0.0
  9
$UCSXDIR
 10
1.0
 20
0.0
 30
0.0
  9
$UCSYDIR
 10
0.0
 20
1.0
 30
0.0
  9
$PUCSNAME
  2

  9
$PUCSORG
 10
0.0
 20
0.0
 30
0.0
  9
$PUCSXDIR
 10
1.0
 20
0.0
 30
0.0
  9
$PUCSYDIR
 10
0.0
 20
1.0
 30
0.0
  9
$USERI1
 70
           0
  9
$USERI2
 70
           0
  9
$USERI3
 70
           0
  9
$USERI4
 70
           0
  9
$USERI5
 70
           0
  9
$USERR1
 40
0.0
  9
$USERR2
 40
0.0
  9
$USERR3
 40
0.0
  9
$USERR4
 40
0.0
  9
$USERR5
 40
0.0
  9
$WORLDVIEW
 70
           1
  9
$SHADEDGE
 70
           3
  9
$SHADEDIF
 70
          70
  9
$TILEMODE
 70
           1
  9
$MAXACTVP
 70
          16
  9
$PINSBASE
 10
0.0
 20
0.0
 30
0.0
  9
$PLIMCHECK
 70
           0
  9
$PEXTMIN
 10
1.000000000000E+20
 20
1.000000000000E+20
 30
1.000000000000E+20
  9
$PEXTMAX
 10
-1.000000000000E+20
 20
-1.000000000000E+20
 30
-1.000000000000E+20
  9
$PLIMMIN
 10
0.0
 20
0.0
  9
$PLIMMAX
 10
12.0
 20
9.0
  9
$UNITMODE
 70
           0
  9
$VISRETAIN
 70
           0
  9
$PLINEGEN
 70
           1
  9
$PSLTSCALE
 70
           0
  9
$TREEDEPTH
 70
        3020
  9
$PICKSTYLE
 70
           1
  9
$CMLSTYLE
  2
STANDARD
  9
$CMLJUST
 70
           0
  9
$CMLSCALE
 40
1.0
  9
$PROXYGRAPHICS
 70
           0
  9
$MEASUREMENT
 70
           0
  0
ENDSEC
  0
SECTION
  2
CLASSES
  0
CLASS
  1
LWPOLYLINE
  2
AcDbPolyline
  3
"AutoCAD"
 90
        0
280
           0
281
           1
  0
CLASS
  1
IMAGE
  2
AcDbRasterImage
  3
ISM
 90
      127
280
           0
281
           1
  0
CLASS
  1
OLE2FRAME
  2
AcDbOle2Frame
  3
""
 90
        0
280
           0
281
           1
  0
CLASS
  1
HATCH
  2
AcDbHatch
  3
"ACAD_SEDONA"
 90
        0
280
           0
281
           1
  0
CLASS
  1
DICTIONARYVAR
  2
AcDbDictionaryVar
  3
"AutoCAD"
 90
        0
280
           0
281
           0
  0
CLASS
  1
RASTERVARIABLES
  2
AcDbRasterVariables
  3
ISM
 90
        0
280
           0
281
           0
  0
CLASS
  1
IMAGEDEF
  2
AcDbRasterImageDef
  3
ISM
 90
        0
280
           0
281
           0
  0
CLASS
  1
IMAGEDEF_REACTOR
  2
AcDbRasterImageDefReactor
  3
ISM
 90
        1
280
           0
281
           0
  0
CLASS
  1
IDBUFFER
  2
AcDbIdBuffer
  3
"Acad"
 90
        0
280
           0
281
           0
  0
CLASS
  1
SPATIAL_FILTER
  2
AcDbSpatialFilter
  3
"Acad"
 90
        0
280
           0
281
           0
  0
CLASS
  1
XRECORD
  2
AcDbXrecord
  3
"<Built In>"
 90
        0
280
           0
281
           0
  0
CLASS
  1
SORTENTSTABLE
  2
AcDbSortentsTable
  3
"AutoCAD"
 90
        0
280
           0
281
           0
  0
CLASS
  1
LAYER_INDEX
  2
AcDbLayerIndex
  3
"Acad"
 90
        0
280
           0
281
           0
  0
CLASS
  1
SPATIAL_INDEX
  2
AcDbSpatialIndex
  3
"Acad"
 90
        0
280
           0
281
           0
  0
CLASS
  1
OBJECT_PTR
  2
CAseDLPNTableRecord
  3
"ASE-LPNTableRecord"
 90
        1
280
           0
281
           0
  0
CLASS
  1
LAYOUT
  2
AcDbLayout
  3
"AutoCAD 2000"
 90
        1
280
           0
281
           0
  0
CLASS
  1
PLOTSETTINGS
  2
AcDbPlotSettings
  3
"AutoCAD 2000"
 90
        1
280
           0
281
           0
  0
CLASS
  1
ACDBDICTIONARYWDFLT
  2
AcDbDictionaryWithDefault
  3
"AutoCAD 2000"
 90
        1
280
           0
281
           0
  0
CLASS
  1
ACDBPLACEHOLDER
  2
AcDbPlaceHolder
  3
"AutoCAD 2000"
 90
        1
280
           0
281
           0
  0
CLASS
  1
VBA_PROJECT
  2
AcDbVbaProject
  3
"acadvba"
 90
        1
280
           0
281
           0
  0
CLASS
  1
WIPEOUT
  2
AcDbWipeout
  3
WipeOut|AutoCAD Express Tool|expresstools@autodesk.com
 90
      127
280
           0
281
           1
  0
CLASS
  1
WIPEOUTVARIABLES
  2
AcDbWipeoutVariables
  3
WipeOut|AutoCAD Express Tool|expresstools@autodesk.com
 90
        0
280
           0
281
           0
  0
CLASS
  1
RTEXT
  2
RText
  3
RText|AutoCAD Express Tool|expresstools@autodesk.com
 90
        0
280
           0
281
           1
  0
CLASS
  1
ARCALIGNEDTEXT
  2
AcDbArcAlignedText
  3
ATEXT|AutoCAD Express Tool|expresstools@autodesk.com
 90
        0
280
           0
281
           1
  0
ENDSEC
  0
SECTION
  2
TABLES
  0
TABLE
  2
VPORT
  5
7
100
AcDbSymbolTable
 70
           1
  0
VPORT
  5
15
100
AcDbSymbolTableRecord
100
AcDbViewportTableRecord
  2
*ACTIVE
 70
           0
 10
0.0
 20
0.0
 11
1.0
 21
1.0
 12
6.591288
 22
4.579184
 13
0.0
 23
0.0
 14
1.0
 24
1.0
 15
0.0
 25
0.0
 16
0.0
 26
0.0
 36
1.0
 17
0.0
 27
0.0
 37
0.0
 40
9.158369
 41
0.688564
 42
50.0
 43
0.0
 44
0.0
 50
0.0
 51
0.0
 71
           0
 72
         100
 73
           1
 74
           1
 75
           0
 76
           0
 77
           0
 78
           0
  0
ENDTAB
  0
TABLE
  2
LTYPE
  5
4
100
AcDbSymbolTable
 70
          10
  0
LTYPE
  5
11
100
AcDbSymbolTableRecord
100
AcDbLinetypeTableRecord
  2
BYBLOCK
 70
          64
  3

 72
          65
 73
           0
 40
0.0
  0
LTYPE
  5
12
100
AcDbSymbolTableRecord
100
AcDbLinetypeTableRecord
  2
BYLAYER
 70
          64
  3

 72
          65
 73
           0
 40
0.0
  0
LTYPE
  5
13
100
AcDbSymbolTableRecord
100
AcDbLinetypeTableRecord
  2
CONTINUOUS
 70
          64
  3
Solid line
 72
          65
 73
           0
 40
0.0
  0
LTYPE
  5
1D
100
AcDbSymbolTableRecord
100
AcDbLinetypeTableRecord
  2
DASHED
 70
          64
  3
Dashed
 72
          65
 73
           2
 40
15.0
 49
12.0
 74
           0
 49
-3.0
 74
           0
  0
LTYPE
  5
1E
100
AcDbSymbolTableRecord
100
AcDbLinetypeTableRecord
  2
DOTTED
 70
          64
  3
Dotted
 72
          65
 73
           2
 40
3.5
 49
0.5
 74
           0
 49
-3.0
 74
           0
  0
LTYPE
  5
1F
100
AcDbSymbolTableRecord
100
AcDbLinetypeTableRecord
  2
DOT_CENTER
 70
          64
  3
Dot_Center
 72
          65
 73
           4
 40
2.0
 49
1.25
 74
           0
 49
-0.25
 74
           0
 49
0.25
 74
           0
 49
-0.25
 74
           0
  0
LTYPE
  5
20
100
AcDbSymbolTableRecord
100
AcDbLinetypeTableRecord
  2
LONG_DASHED
 70
          64
  3
Long_Dashed
 72
          65
 73
           2
 40
2.0
 49
1.5
 74
           0
 49
-0.5
 74
           0
  0
LTYPE
  5
21
100
AcDbSymbolTableRecord
100
AcDbLinetypeTableRecord
  2
DASH_CENTER
 70
          64
  3
Dash_Center
 72
          65
 73
           4
 40
36.0
 49
24.0
 74
           0
 49
-3.0
 74
           0
 49
6.0
 74
           0
 49
-3.0
 74
           0
  0
LTYPE
  5
22
100
AcDbSymbolTableRecord
100
AcDbLinetypeTableRecord
  2
PHANTOM
 70
          64
  3
Phantom
 72
          65
 73
           6
 40
2.5
 49
1.25
 74
           0
 49
-0.25
 74
           0
 49
0.25
 74
           0
 49
-0.25
 74
           0
 49
0.25
 74
           0
 49
-0.25
 74
           0
  0
LTYPE
  5
23
100
AcDbSymbolTableRecord
100
AcDbLinetypeTableRecord
  2
CENTER_DASH_DASH
 70
          64
  3
Center_Dash_Dash
 72
          65
 73
           6
 40
22.0
 49
12.0
 74
           0
 49
-3.0
 74
           0
 49
0.5
 74
           0
 49
-3.0
 74
           0
 49
0.5
 74
           0
 49
-3.0
 74
           0
  0
ENDTAB
  0
TABLE
  2
LAYER
  5
2
100
AcDbSymbolTable
 70
           2
  0
LAYER
  5
14
100
AcDbSymbolTableRecord
100
AcDbLayerTableRecord
  2
0
 70
           0
 62
           7
  6
CONTINUOUS
  0
LAYER
  5
24
100
AcDbSymbolTableRecord
100
AcDbLayerTableRecord
  2
1
 70
           0
 62
           7
  6
CONTINUOUS
  0
ENDTAB
  0
TABLE
  2
STYLE
  5
3
100
AcDbSymbolTable
 70
           2
  0
STYLE
  5
17
100
AcDbSymbolTableRecord
100
AcDbTextStyleTableRecord
  2
STANDARD
 70
           0
 40
0.0
 41
1.0
 50
0.0
 71
           0
 42
0.0
  3
txt
  4

  0
STYLE
  5
65
100
AcDbSymbolTableRecord
100
AcDbTextStyleTableRecord
  2
CONVERTER_1
 70
           0
 40
0.0
 41
0.9
 50
0.0
 71
           0
 42
0.0
  3
txt.shx
  4

  0
ENDTAB
  0
TABLE
  2
VIEW
  5
5
100
AcDbSymbolTable
 70
           0
  0
ENDTAB
  0
TABLE
  2
UCS
  5
6
100
AcDbSymbolTable
 70
           0
  0
ENDTAB
  0
TABLE
  2
APPID
  5
8
100
AcDbSymbolTable
 70
           1
  0
APPID
  5
16
100
AcDbSymbolTableRecord
100
AcDbRegAppTableRecord
  2
ACAD
 70
           0
  0
ENDTAB
  0
TABLE
  2
DIMSTYLE
  5
9
100
AcDbSymbolTable
 70
           1
  0
DIMSTYLE
105
18
100
AcDbSymbolTableRecord
100
AcDbDimStyleTableRecord
  2
STANDARD
 70
           0
  3

  4

  5

  6

  7

 40
1.0
 41
0.18
 42
0.0625
 43
0.38
 44
0.18
 45
0.0
 46
0.0
 47
0.0
 48
0.0
 71
           0
 72
           0
 73
           1
 74
           1
 75
           0
 76
           0
 77
           0
 78
           0
140
0.18
141
0.09
142
0.0
143
25.4
144
1.0
145
0.0
146
1.0
147
0.09
170
           0
171
           2
172
           0
173
           0
174
           0
175
           0
176
           0
177
           0
178
           0
270
           2
271
           4
272
           4
273
           2
274
           2
275
           0
280
           0
281
           0
282
           0
283
           1
284
           0
285
           0
286
           0
287
           0
288
           0
340
17
  0
ENDTAB
  0
TABLE
  2
BLOCK_RECORD
  5
1
100
AcDbSymbolTable
 70
           8
  0
BLOCK_RECORD
  5
A
100
AcDbSymbolTableRecord
100
AcDbBlockTableRecord
  2
*MODEL_SPACE
  0
BLOCK_RECORD
  5
B
100
AcDbSymbolTableRecord
100
AcDbBlockTableRecord
  2
*PAPER_SPACE
  0
BLOCK_RECORD
  5
25
100
AcDbSymbolTableRecord
100
AcDbBlockTableRecord
  2
KOZU0023__S
  0
BLOCK_RECORD
  5
27
100
AcDbSymbolTableRecord
100
AcDbBlockTableRecord
  2
KOZU0041__S
  0
BLOCK_RECORD
  5
29
100
AcDbSymbolTableRecord
100
AcDbBlockTableRecord
  2
KOZU0051__S
  0
BLOCK_RECORD
  5
2B
100
AcDbSymbolTableRecord
100
AcDbBlockTableRecord
  2
KOZU0049__S
  0
BLOCK_RECORD
  5
2D
100
AcDbSymbolTableRecord
100
AcDbBlockTableRecord
  2
KOZU0048__S
  0
BLOCK_RECORD
  5
30
100
AcDbSymbolTableRecord
100
AcDbBlockTableRecord
  2
KOZU0043__S
  0
BLOCK_RECORD
  5
32
100
AcDbSymbolTableRecord
100
AcDbBlockTableRecord
  2
KOZU0039__S
  0
BLOCK_RECORD
  5
34
100
AcDbSymbolTableRecord
100
AcDbBlockTableRecord
  2
KOZU0010__S
  0
ENDTAB
  0
ENDSEC
  0
SECTION
  2
BLOCKS
  0
BLOCK
  5
D
100
AcDbEntity
  8
0
100
AcDbBlockBegin
  2
*MODEL_SPACE
 70
           0
 10
0.0
 20
0.0
 30
0.0
  3
*MODEL_SPACE
  1

  0
ENDBLK
  5
E
100
AcDbEntity
  8
0
100
AcDbBlockEnd
  0
BLOCK
  5
F
100
AcDbEntity
 67
           1
  8
0
100
AcDbBlockBegin
  2
*PAPER_SPACE
 70
           0
 10
0.0
 20
0.0
 30
0.0
  3
*PAPER_SPACE
  1

  0
ENDBLK
  5
10
100
AcDbEntity
 67
           1
  8
0
100
AcDbBlockEnd
  0
BLOCK
  5
26
100
AcDbEntity
  8
0
100
AcDbBlockBegin
  2
KOZU0023__S
 70
           0
 10
0.0
 20
0.0
 30
0.0
  3
KOZU0023__S
  1

  0
ARC
  5
4B
100
AcDbEntity
  8
0
  6
CONTINUOUS
 62
           7
100
AcDbCircle
 10
0.0
 20
-9.169013851722
 40
39.169013851722
100
AcDbArc
 50
72.412046226007
 51
107.587953773993
  0
ARC
  5
4A
100
AcDbEntity
  8
0
  6
CONTINUOUS
 62
           7
100
AcDbCircle
 10
-23.671361036775
 20
-6.422534629303
 40
36.560341350271
100
AcDbArc
 50
71.111347820428
 51
85.023726763522
  0
ARC
  5
49
100
AcDbEntity
  8
0
  6
CONTINUOUS
 62
           7
100
AcDbCircle
 10
23.671361036775
 20
-6.422534629303
 40
36.560341350271
100
AcDbArc
 50
94.976273236478
 51
108.888652179571
  0
LINE
  5
48
100
AcDbEntity
  8
0
  6
CONTINUOUS
 62
           7
100
AcDbLine
 10
20.5
 20
30.0
 11
23.671361036775
 21
28.169013851721
  0
LINE
  5
47
100
AcDbEntity
  8
0
  6
CONTINUOUS
 62
           7
100
AcDbLine
 10
20.5
 20
30.0
 11
-20.5
 21
30.0
  0
LINE
  5
46
100
AcDbEntity
  8
0
  6
CONTINUOUS
 62
           7
100
AcDbLine
 10
23.671361036775
 20
28.169013851721
 11
23.671361036775
 21
2.0
  0
LINE
  5
45
100
AcDbEntity
  8
0
  6
CONTINUOUS
 62
           7
100
AcDbLine
 10
-23.671361036775
 20
28.169013851721
 11
-23.671361036775
 21
2.0
  0
LINE
  5
44
100
AcDbEntity
  8
0
  6
CONTINUOUS
 62
           7
100
AcDbLine
 10
-20.5
 20
30.0
 11
-23.671361036775
 21
28.169013851721
  0
LINE
  5
43
100
AcDbEntity
  8
0
  6
CONTINUOUS
 62
           7
100
AcDbLine
 10
11.835680518387
 20
28.169013851721
 11
11.835680518387
 21
2.0
  0
LINE
  5
42
100
AcDbEntity
  8
0
  6
CONTINUOUS
 62
           7
100
AcDbLine
 10
-11.835680518387
 20
28.169013851721
 11
-11.835680518387
 21
2.0
  0
LINE
  5
41
100
AcDbEntity
  8
0
  6
CONTINUOUS
 62
           6
100
AcDbLine
 10
0.0
 20
33.583206176758
 11
0.0
 21
0.0
  0
ENDBLK
  5
4C
100
AcDbEntity
  8
0
100
AcDbBlockEnd
  0
BLOCK
  5
28
100
AcDbEntity
  8
0
100
AcDbBlockBegin
  2
KOZU0041__S
 70
           0
 10
0.0
 20
0.0
 30
0.0
  3
KOZU0041__S
  1

  0
CIRCLE
  5
55
100
AcDbEntity
  8
0
  6
CONTINUOUS
 62
           7
100
AcDbCircle
 10
0.0
 20
0.0
 40
15.268253352772
  0
CIRCLE
  5
54
100
AcDbEntity
  8
0
  6
CONTINUOUS
 62
           7
100
AcDbCircle
 10
0.0
 20
0.0
 40
20.5
  0
CIRCLE
  5
53
100
AcDbEntity
  8
0
  6
CONTINUOUS
 62
           7
100
AcDbCircle
 10
0.0
 20
0.0
 40
10.5
  0
LINE
  5
52
100
AcDbEntity
  8
0
  6
CONTINUOUS
 62
           7
100
AcDbLine
 10
23.671361036775
 20
0.0
 11
11.835680518387
 21
-20.5
  0
LINE
  5
51
100
AcDbEntity
  8
0
  6
CONTINUOUS
 62
           7
100
AcDbLine
 10
11.835680518388
 20
20.500000000001
 11
23.671361036775
 21
0.0
  0
LINE
  5
50
100
AcDbEntity
  8
0
  6
CONTINUOUS
 62
           7
100
AcDbLine
 10
-11.835680518388
 20
20.5
 11
11.835680518388
 21
20.500000000001
  0
LINE
  5
4F
100
AcDbEntity
  8
0
  6
CONTINUOUS
 62
           7
100
AcDbLine
 10
-23.671361036775
 20
0.0
 11
-11.835680518388
 21
20.5
  0
LINE
  5
4E
100
AcDbEntity
  8
0
  6
CONTINUOUS
 62
           7
100
AcDbLine
 10
-11.835680518388
 20
-20.500000000001
 11
11.835680518387
 21
-20.5
  0
LINE
  5
4D
100
AcDbEntity
  8
0
  6
CONTINUOUS
 62
           7
100
AcDbLine
 10
-23.671361036775
 20
0.0
 11
-11.835680518388
 21
-20.500000000001
  0
ENDBLK
  5
56
100
AcDbEntity
  8
0
100
AcDbBlockEnd
  0
BLOCK
  5
2A
100
AcDbEntity
  8
0
100
AcDbBlockBegin
  2
KOZU0051__S
 70
           0
 10
0.0
 20
0.0
 30
0.0
  3
KOZU0051__S
  1

  0
TEXT
  5
67
100
AcDbEntity
  8
0
 62
           7
100
AcDbText
 10
45.394598709123
 20
-11.795253800281
 40
10.0
  1
ANEST
 41
0.9
  7
CONVERTER_1
100
AcDbText
  0
TEXT
  5
66
100
AcDbEntity
  8
0
 62
           7
100
AcDbText
 10
45.394598709123
 20
-26.795253800281
 40
10.0
  1
IWATA
 41
0.9
  7
CONVERTER_1
100
AcDbText
  0
SPLINE
  5
64
100
AcDbEntity
  8
0
  6
CONTINUOUS
 62
           7
100
AcDbSpline
210
0.0
220
0.0
230
1.0
 70
           0
 71
           3
 72
          52
 73
          49
 74
          95
 42
0.00000000001
 43
0.00000000001
 44
0.00000000001
 40
0.0
 40
0.0
 40
0.0
 40
0.1163482236432987
 40
0.2115107157676096
 40
0.2961053253177638
 40
0.3806805414782435
 40
0.465209875052392
 40
0.5497608922858833
 40
0.6344107079433685
 40
0.7191232299279134
 40
0.8038223887401164
 40
0.8884722233185256
 40
0.9730810941259672
 40
1.0576758923875951
 40
1.1422685419701524
 40
1.2268594846594472
 40
1.31144908577311
 40
1.3960376647518402
 40
1.4806255097574121
 40
1.5652128812557986
 40
1.6498121695493095
 40
1.7344353843881217
 40
1.8190558020349417
 40
1.9036441895163969
 40
1.9882100826360323
 40
2.0727670342091598
 40
2.1573168318010283
 40
2.2418607857919817
 40
2.3264005805854593
 40
2.4109381065234583
 40
2.4954753270427492
 40
2.5800141591118209
 40
2.6645563678847428
 40
2.7491034719596472
 40
2.833656656623893
 40
2.918216692784231
 40
3.0027838591828422
 40
3.0873578691548262
 40
3.1719377891994833
 40
3.2565218172679158
 40
3.3411071037934499
 40
3.4256932396597621
 40
3.5102869052975274
 40
3.5948969732181357
 40
3.6795265950556022
 40
3.764173114806697
 40
3.8488278485123217
 40
3.944069729500336
 40
4.0605034460712508
 40
4.0605034460712508
 40
4.0605034460712508
 10
25.336609975260401
 20
-12.914285021701399
 30
0.0
 10
25.387494997385001
 20
-12.8763305317056
 30
0.0
 10
25.478064478713499
 20
-12.821768906407
 30
0.0
 10
25.553019585617701
 20
-12.782560896466901
 30
0.0
 10
25.630062045578399
 20
-12.747612087703001
 30
0.0
 10
25.708779021697701
 20
-12.7167476536239
 30
0.0
 10
25.788864800993
 20
-12.6897715568679
 30
0.0
 10
25.870188309467
 20
-12.6664735306796
 30
0.0
 10
25.952555901924502
 20
-12.646713539459499
 30
0.0
 10
26.035689721506198
 20
-12.6303944283492
 30
0.0
 10
26.119369469897599
 20
-12.6174310077964
 30
0.0
 10
26.203432759250902
 20
-12.6077251649172
 30
0.0
 10
26.287759532481498
 20
-12.600981450523999
 30
0.0
 10
26.372253242418999
 20
-12.596871657048499
 30
0.0
 10
26.456825387741201
 20
-12.5950529919354
 30
0.0
 10
26.541415493371701
 20
-12.595170862604199
 30
0.0
 10
26.6259875525603
 20
-12.596864431130101
 30
0.0
 10
26.710525789365001
 20
-12.5997696911635
 30
0.0
 10
26.795030122114898
 20
-12.6035207942195
 30
0.0
 10
26.879511521365
 20
-12.6077500952464
 30
0.0
 10
26.964011654153602
 20
-12.6120875143222
 30
0.0
 10
27.048548643990699
 20
-12.6161604694146
 30
0.0
 10
27.1330859416945
 20
-12.6195640376403
 30
0.0
 10
27.2176209153046
 20
-12.6220319225314
 30
0.0
 10
27.302165800832601
 20
-12.6236722646131
 30
0.0
 10
27.386714035720601
 20
-12.624579862812199
 30
0.0
 10
27.4712600753194
 20
-12.624855541131501
 30
0.0
 10
27.555801114003501
 20
-12.6246019794271
 30
0.0
 10
27.640336561184501
 20
-12.6239234020138
 30
0.0
 10
27.724867542288301
 20
-12.622924642534
 30
0.0
 10
27.809396380923701
 20
-12.621710369679301
 30
0.0
 10
27.893926085113598
 20
-12.6203843423809
 30
0.0
 10
27.978459847635101
 20
-12.619048718033801
 30
0.0
 10
28.063000571180002
 20
-12.617803409016201
 30
0.0
 10
28.147550427280201
 20
-12.6167454880514
 30
0.0
 10
28.232110456795098
 20
-12.6159686345548
 30
0.0
 10
28.316680217236399
 20
-12.6155626581583
 30
0.0
 10
28.401257487389799
 20
-12.6156128816604
 30
0.0
 10
28.485838000176798
 20
-12.616200649552001
 30
0.0
 10
28.570415032285499
 20
-12.6173975781966
 30
0.0
 10
28.654978784902202
 20
-12.619296561658899
 30
0.0
 10
28.739528681944702
 20
-12.6218083895085
 30
0.0
 10
28.824085503110599
 20
-12.624515092476599
 30
0.0
 10
28.908668117390398
 20
-12.627030345839801
 30
0.0
 10
28.993285800710598
 20
-12.6289404508979
 30
0.0
 10
29.077935441693501
 20
-12.6297795978513
 30
0.0
 10
29.1625872948878
 20
-12.628976015926099
 30
0.0
 10
29.2683430600859
 20
-12.6250640130874
 30
0.0
 10
29.331542700954898
 20
-12.618695828993101
 30
0.0
 11
25.336609975260401
 21
-12.914285021701399
 31
0.0
 11
25.387228900722072
 21
-12.878315813109579
 31
0.0
 11
25.437315632857878
 21
-12.846317167325715
 31
0.0
 11
25.477797480003368
 21
-12.822716841551721
 31
0.0
 11
25.517745329728584
 21
-12.801012386067171
 31
0.0
 11
25.553832433145345
 21
-12.782804666961228
 31
0.0
 11
25.591545231617399
 21
-12.765084488843934
 31
0.0
 11
25.63027513385563
 21
-12.748121086935058
 31
0.0
 11
25.669431212648341
 21
-12.732175683490297
 31
0.0
 11
25.708951508025152
 21
-12.717233081438689
 31
0.0
 11
25.748816776056866
 21
-12.703261335016656
 31
0.0
 11
25.789012297595018
 21
-12.690233448631655
 31
0.0
 11
25.829502812337211
 21
-12.67812934577416
 31
0.0
 11
25.87030907217137
 21
-12.666918400066677
 31
0.0
 11
25.911356857414276
 21
-12.656597193133347
 31
0.0
 11
25.95264868794283
 21
-12.647144403082994
 31
0.0
 11
25.994126090508033
 21
-12.638553340279621
 31
0.0
 11
26.035761828854156
 21
-12.630813256800359
 31
0.0
 11
26.077541781896194
 21
-12.623910830223416
 31
0.0
 11
26.119423002177356
 21
-12.617837439418823
 31
0.0
 11
26.161411287018041
 21
-12.612576911859087
 31
0.0
 11
26.203469114521042
 21
-12.608095067244795
 31
0.0
 11
26.245599652564326
 21
-12.604353027285693
 31
0.0
 11
26.287781410378063
 21
-12.601310614005692
 31
0.0
 11
26.330006923984925
 21
-12.598926527689079
 31
0.0
 11
26.372263287631803
 21
-12.597158039275943
 31
0.0
 11
26.414539741704289
 21
-12.595962315317692
 31
0.0
 11
26.456827823284101
 21
-12.595295056731413
 31
0.0
 11
26.499120775949699
 21
-12.595111927737149
 31
0.0
 11
26.541413385285349
 21
-12.595367826232192
 31
0.0
 11
26.583701778448287
 21
-12.596017651983221
 31
0.0
 11
26.6259834344791
 21
-12.597015895423116
 31
0.0
 11
26.668256854347533
 21
-12.598317067449047
 31
0.0
 11
26.710521626769435
 21
-12.599875424429264
 31
0.0
 11
26.752778074000204
 21
-12.601645247941011
 31
0.0
 11
26.795026541178288
 21
-12.603580533041475
 31
0.0
 11
26.83726784648313
 21
-12.605635295785882
 31
0.0
 11
26.879511625797932
 21
-12.607763496106724
 31
0.0
 11
26.921755613978576
 21
-12.609918498148208
 31
0.0
 11
26.964014942488735
 21
-12.612054388079777
 31
0.0
 11
27.00628084766916
 21
-12.614124025526499
 31
0.0
 11
27.048550857420807
 21
-12.61607688500505
 31
0.0
 11
27.090825294032676
 21
-12.617862575664507
 31
0.0
 11
27.133089056676994
 21
-12.619447198780566
 31
0.0
 11
27.175359049286314
 21
-12.620798144177162
 31
0.0
 11
27.2176241182284
 21
-12.621928531543691
 31
0.0
 11
27.259895593018076
 21
-12.622852136934799
 31
0.0
 11
27.302167225336618
 21
-12.623580687267852
 31
0.0
 11
27.344441706663197
 21
-12.624126082910406
 31
0.0
 11
27.386714573627543
 21
-12.624500878817537
 31
0.0
 11
27.428988516405781
 21
-12.624717706735343
 31
0.0
 11
27.471260075373781
 21
-12.62478938653976
 31
0.0
 11
27.513531634450537
 21
-12.624728757160687
 31
0.0
 11
27.555800816810958
 21
-12.624548850545601
 31
0.0
 11
27.598069404786312
 21
-12.624262686167521
 31
0.0
 11
27.640336163810154
 21
-12.623883377891733
 31
0.0
 11
27.682602128085307
 21
-12.623424021371815
 31
0.0
 11
27.724867192856067
 21
-12.622897704583348
 31
0.0
 11
27.767131558762344
 21
-12.622317511893577
 31
0.0
 11
27.809396177390113
 21
-12.621696405130816
 31
0.0
 11
27.851660388950691
 21
-12.621047369271093
 31
0.0
 11
27.893926075471107
 21
-12.620383150893517
 31
0.0
 11
27.936191742706548
 21
-12.61971654954117
 31
0.0
 11
27.978460031851586
 21
-12.619060017880871
 31
0.0
 11
28.020728689429596
 21
-12.618426085914709
 31
0.0
 11
28.063000904570629
 21
-12.61782684347784
 31
0.0
 11
28.105273786492901
 21
-12.61727446996424
 31
0.0
 11
28.147550825151669
 21
-12.616780630936459
 31
0.0
 11
28.18982865955337
 21
-12.616357077678794
 31
0.0
 11
28.232110799820678
 21
-12.616015000339498
 31
0.0
 11
28.274393626139151
 21
-12.615765654569598
 31
0.0
 11
28.316680358850387
 21
-12.615619684979542
 31
0.0
 11
28.3589673747896
 21
-12.61558776903197
 31
0.0
 11
28.401257266591074
 21
-12.615680072705551
 31
0.0
 11
28.443546716795097
 21
-12.615906758469441
 31
0.0
 11
28.485837229698483
 21
-12.616276791748936
 31
0.0
 11
28.528126201645236
 21
-12.616799109422301
 31
0.0
 11
28.570413240632508
 21
-12.617485332744062
 31
0.0
 11
28.612696696313776
 21
-12.618347065160737
 31
0.0
 11
28.654976529497247
 21
-12.619373152041158
 31
0.0
 11
28.697251851870817
 21
-12.620552419686099
 31
0.0
 11
28.739528052475112
 21
-12.62183270212609
 31
0.0
 11
28.781802994140257
 21
-12.623161609801272
 31
0.0
 11
28.824086481070886
 21
-12.624491092151692
 31
0.0
 11
28.866371923922092
 21
-12.625772573852288
 31
0.0
 11
28.908670223573143
 21
-12.626954642140765
 31
0.0
 11
28.950972735589676
 21
-12.627985303031167
 31
0.0
 11
28.993288226187051
 21
-12.628806552211302
 31
0.0
 11
29.035608567737331
 21
-12.629360004018238
 31
0.0
 11
29.077312471041452
 21
-12.629580163131187
 31
0.0
 11
29.117770433041475
 21
-12.629401452803911
 31
0.0
 11
29.163279086947817
 21
-12.628642330906768
 31
0.0
 11
29.210171324974166
 21
-12.627215838970962
 31
0.0
 11
29.269600036525219
 21
-12.624009923534716
 31
0.0
 11
29.331542700954898
 21
-12.618695828993101
 31
0.0
  0
SPLINE
  5
63
100
AcDbEntity
  8
0
  6
CONTINUOUS
 62
           7
100
AcDbSpline
210
0.0
220
0.0
230
1.0
 70
           0
 71
           3
 72
          52
 73
          49
 74
          95
 42
0.00000000001
 43
0.00000000001
 44
0.00000000001
 40
0.0
 40
0.0
 40
0.0
 40
1.0091537252773597
 40
1.8793976260663532
 40
2.6810186043073587
 40
3.4827891506035744
 40
4.2845363294284633
 40
5.0861369625347805
 40
5.8889383514139464
 40
6.694380328837596
 40
7.4998405232987846
 40
8.3030480063065344
 40
9.1052093125174114
 40
9.9071953968205388
 40
10.709062162402631
 40
11.510900021126034
 40
12.312743503257686
 40
13.114531915579112
 40
13.916202766007924
 40
14.717824049174983
 40
15.519468505612256
 40
16.321131147819532
 40
17.122807700997782
 40
17.924496133234889
 40
18.726186973851856
 40
19.527878852615622
 40
20.329571436890994
 40
21.131263946852513
 40
21.932956106863845
 40
22.734647963194
 40
23.53633956084122
 40
24.338030941344936
 40
25.139722143115875
 40
25.941413201336459
 40
26.743104147937046
 40
27.544807351679253
 40
28.34652226658508
 40
29.148211310445785
 40
29.949875603924831
 40
30.751553278566981
 40
31.553243756312305
 40
32.354934146301318
 40
33.156624487020459
 40
33.95831482743985
 40
34.760005217601602
 40
35.561695699758204
 40
36.363362969347804
 40
37.265195024302116
 40
38.367426566948517
 40
38.367426566948517
 40
38.367426566948517
 10
27.6665280525174
 20
-2.02296015190975
 30
0.0
 10
27.1347206702318
 20
-2.11458594344486
 30
0.0
 10
26.1959093672451
 20
-2.0947042196267298
 30
0.0
 10
25.394618217191599
 20
-2.0779638332834098
 30
0.0
 10
24.593531846912899
 20
-2.0447175821575598
 30
0.0
 10
23.7935590478662
 20
-1.99113724247977
 30
0.0
 10
22.995185426224399
 20
-1.9178616912764099
 30
0.0
 10
22.196250543154701
 20
-1.85413972065288
 30
0.0
 10
21.392334183434901
 20
-1.8727064634652599
 30
0.0
 10
20.615676904962498
 20
-2.09100495439663
 30
0.0
 10
19.9162045214863
 20
-2.4877709042517502
 30
0.0
 10
19.2805183905283
 20
-2.9771630498849699
 30
0.0
 10
18.694499737795098
 20
-3.52479992471577
 30
0.0
 10
18.147618490427199
 20
-4.1112811842880301
 30
0.0
 10
17.6325527845595
 20
-4.7258123661237201
 30
0.0
 10
17.1445516256194
 20
-5.3620525074490502
 30
0.0
 10
16.679818195297699
 20
-6.0154912037978097
 30
0.0
 10
16.2321275884565
 20
-6.6805800344303599
 30
0.0
 10
15.793250087557
 20
-7.3513771862050197
 30
0.0
 10
15.353538560891
 20
-8.0216494123239794
 30
0.0
 10
14.9051241977392
 20
-8.6861651341889292
 30
0.0
 10
14.4499635500332
 20
-9.3460879955498299
 30
0.0
 10
13.990134773625201
 20
-10.0027908889867
 30
0.0
 10
13.527535936209199
 20
-10.6575502390791
 30
0.0
 10
13.0640557914005
 20
-11.311687130191901
 30
0.0
 10
12.601185654036099
 20
-11.966257260843999
 30
0.0
 10
12.1388745486005
 20
-12.621222619584101
 30
0.0
 10
11.677070552282901
 20
-13.276545174272499
 30
0.0
 10
11.2157208948485
 20
-13.9321872646955
 30
0.0
 10
10.754772332164199
 20
-14.5881110639454
 30
0.0
 10
10.294171197103401
 20
-15.2442785898059
 30
0.0
 10
9.8338634402390106
 20
-15.9006517157832
 30
0.0
 10
9.3737946731536308
 20
-16.557192182176301
 30
0.0
 10
8.9139102121007294
 20
-17.213861607141901
 30
0.0
 10
8.4541551222593103
 20
-17.8706214977298
 30
0.0
 10
7.9944601114876299
 20
-18.5274534812959
 30
0.0
 10
7.5347846848502504
 20
-19.1842977201742
 30
0.0
 10
7.0751017369926901
 20
-19.841074990500701
 30
0.0
 10
6.6153262134317599
 20
-20.497788742027801
 30
0.0
 10
6.1553884638329404
 20
-21.1544202759593
 30
0.0
 10
5.6952478122099102
 20
-21.810909514317199
 30
0.0
 10
5.2348488289478796
 20
-22.467217521016
 30
0.0
 10
4.77413618994541
 20
-23.123305354787099
 30
0.0
 10
4.3130547303014
 20
-23.779134074848201
 30
0.0
 10
3.8515494851138499
 20
-24.4346647373922
 30
0.0
 10
3.38956580437593
 20
-25.089858446322499
 30
0.0
 10
2.92707595067994
 20
-25.7446379825662
 30
0.0
 10
2.3482520830445202
 20
-26.5625666023234
 30
0.0
 10
2.0002232056318401
 20
-27.052814681278601
 30
0.0
 11
27.6665280525174
 21
-2.02296015190975
 31
0.0
 11
27.141647438592095
 21
-2.0890105931189211
 31
0.0
 11
26.630620361387379
 21
-2.103910333676215
 31
0.0
 11
26.200314524012541
 21
-2.0948273096637711
 31
0.0
 11
25.778819000172593
 21
-2.0859904657254109
 31
0.0
 11
25.390541957549775
 21
-2.0758150976640413
 31
0.0
 11
24.994112395643306
 21
-2.0613422583639327
 31
0.0
 11
24.593678927001157
 21
-2.0421761111486179
 31
0.0
 11
24.193539618535539
 21
-2.0179270219154186
 31
0.0
 11
23.793748366426581
 21
-1.9886744062666404
 31
0.0
 11
23.394335751438369
 21
-1.9544961181916025
 31
0.0
 11
22.995180888828298
 21
-1.9190610129733632
 31
0.0
 11
22.596016951426012
 21
-1.8860245511490299
 31
0.0
 11
22.195867594901298
 21
-1.8644279605167282
 31
0.0
 11
21.794952341869774
 21
-1.8634078496121225
 31
0.0
 11
21.39590766109723
 21
-1.8976688127872896
 31
0.0
 11
21.004009935649357
 21
-1.981854474606517
 31
0.0
 11
20.625203675687601
 21
-2.1133825300022169
 31
0.0
 11
20.265450957176057
 21
-2.2896657366090913
 31
0.0
 11
19.924003581538546
 21
-2.4994584960508126
 31
0.0
 11
19.598154326005528
 21
-2.7326264390906601
 31
0.0
 11
19.286667041413214
 21
-2.9844909838751281
 31
0.0
 11
18.987477058590727
 21
-3.2510113966399139
 31
0.0
 11
18.699378826415455
 21
-3.5296684040565363
 31
0.0
 11
18.421038771480902
 21
-3.8180623701546921
 31
0.0
 11
18.151589186946417
 21
-4.1147942631036942
 31
0.0
 11
17.890080995450372
 21
-4.4185523136840228
 31
0.0
 11
17.635934906315502
 21
-4.7285270918025146
 31
0.0
 11
17.38855306069264
 21
-5.0439313212785946
 31
0.0
 11
17.147458310689728
 21
-5.364204852891203
 31
0.0
 11
16.912176930827471
 21
-5.688783075388117
 31
0.0
 11
16.681942450371125
 21
-6.0169563708696501
 31
0.0
 11
16.455956480061637
 21
-6.3480600004948595
 31
0.0
 11
16.233223427707276
 21
-6.6813022622077458
 31
0.0
 11
16.012682053854469
 21
-7.0159889794754084
 31
0.0
 11
15.79314493273551
 21
-7.3513129517905327
 31
0.0
 11
15.573397501973568
 21
-7.6865084552766838
 31
0.0
 11
15.352452136544219
 21
-8.020927696123147
 31
0.0
 11
15.129333922421308
 21
-8.3539035045679455
 31
0.0
 11
14.904282041582396
 21
-8.6855893687468644
 31
0.0
 11
14.677545848429883
 21
-9.0161237020416642
 31
0.0
 11
14.449380953430536
 21
-9.3456841756773716
 31
0.0
 11
14.220050865225854
 21
-9.6744370095681642
 31
0.0
 11
13.989789028705051
 21
-10.002547214957231
 31
0.0
 11
13.758835702343957
 21
-10.330170072287354
 31
0.0
 11
13.527425897153151
 21
-10.657472255828278
 31
0.0
 11
13.295796013850257
 21
-10.984618472867558
 31
0.0
 11
13.064132105301058
 21
-11.311741196189828
 31
0.0
 11
12.832620824552968
 21
-11.638972051507942
 31
0.0
 11
12.601255555807462
 21
-11.966306632147045
 31
0.0
 11
12.370030090604679
 21
-12.293739955392251
 31
0.0
 11
12.138937921962839
 21
-12.621267290750792
 31
0.0
 11
11.907972500045684
 21
-12.94888396844272
 31
0.0
 11
11.677127321121835
 21
-13.276585149640267
 31
0.0
 11
11.446395679875854
 21
-13.604366281573355
 31
0.0
 11
11.215771011473869
 21
-13.932222507049193
 31
0.0
 11
10.985246576322629
 21
-14.260149217232401
 31
0.0
 11
10.754815743523899
 21
-14.588141554107672
 31
0.0
 11
10.524471733444576
 21
-14.916194871307493
 31
0.0
 11
10.2942078551667
 21
-15.244304310074389
 31
0.0
 11
10.064017293015418
 21
-15.572465189378267
 31
0.0
 11
9.8338933023987121
 21
-15.900672649828593
 31
0.0
 11
9.6038290361014091
 21
-16.228921978369691
 31
0.0
 11
9.373817702257087
 21
-16.557208315059633
 31
0.0
 11
9.1438524266196719
 21
-16.885526917516238
 31
0.0
 11
8.9139268188248337
 21
-17.213872293484101
 31
0.0
 11
8.6840344244782006
 21
-17.542239042136377
 31
0.0
 11
8.4541634911618679
 21
-17.870629282099966
 31
0.0
 11
8.2243092956506469
 21
-18.199035090803886
 31
0.0
 11
7.9944620520864547
 21
-18.527455738311669
 31
0.0
 11
7.7646186897199128
 21
-18.855880899850987
 31
0.0
 11
7.5347819305906851
 21
-19.184291941188157
 31
0.0
 11
7.304939662942326
 21
-19.512691424553239
 31
0.0
 11
7.0750897576840064
 21
-19.841067632854944
 31
0.0
 11
6.8452158938083176
 21
-20.169429125865136
 31
0.0
 11
6.6153068739088878
 21
-20.497777124317548
 31
0.0
 11
6.3853591749637175
 21
-20.826101887349459
 31
0.0
 11
6.1553635570147014
 21
-21.154401838092951
 31
0.0
 11
5.9253181254292056
 21
-21.482664913103747
 31
0.0
 11
5.6952155158385445
 21
-21.810886867372123
 31
0.0
 11
5.4650483135051537
 21
-22.139063527750359
 31
0.0
 11
5.2348096202011218
 21
-22.467190001936316
 31
0.0
 11
5.0044925094035797
 21
-22.795261437962878
 31
0.0
 11
4.77409008914249
 21
-23.12327296304543
 31
0.0
 11
4.5435954672755674
 21
-23.451219704644622
 31
0.0
 11
4.3130017622063876
 21
-23.779096810413879
 31
0.0
 11
4.0823021209471824
 21
-24.106899387314485
 31
0.0
 11
3.8514888479354661
 21
-24.434623799182631
 31
0.0
 11
3.6205543005669822
 21
-24.762266334631647
 31
0.0
 11
3.3929009640507948
 21
-25.084995277680424
 31
0.0
 11
3.1719179468843368
 21
-25.397997883445065
 31
0.0
 11
2.9231685165188397
 21
-25.749995278100087
 31
0.0
 11
2.666604217831142
 21
-26.112707263822884
 31
0.0
 11
2.3408328973880077
 21
-26.572663787437069
 31
0.0
 11
2.0002232056318401
 21
-27.052814681278601
 31
0.0
  0
LINE
  5
62
100
AcDbEntity
  8
0
  6
CONTINUOUS
 62
           7
100
AcDbLine
 10
29.608528
 20
-27.053301
 11
40.999392
 21
-27.053301
  0
LINE
  5
61
100
AcDbEntity
  8
0
  6
CONTINUOUS
 62
           7
100
AcDbLine
 10
40.999392
 20
-27.053301
 11
40.999392
 21
-2.059823
  0
LINE
  5
60
100
AcDbEntity
  8
0
  6
CONTINUOUS
 62
           7
100
AcDbLine
 10
40.999392
 20
-2.059823
 11
29.608528
 21
-2.059823
  0
LINE
  5
5F
100
AcDbEntity
  8
0
  6
CONTINUOUS
 62
           7
100
AcDbLine
 10
29.608528
 20
-2.059823
 11
29.608528
 21
-27.053301
  0
LINE
  5
5E
100
AcDbEntity
  8
0
  6
CONTINUOUS
 62
           7
100
AcDbLine
 10
104.499909
 20
-64.499767
 11
0.0
 21
-64.499767
  0
LINE
  5
5D
100
AcDbEntity
  8
0
  6
CONTINUOUS
 62
           7
100
AcDbLine
 10
0.0
 20
-64.499767
 11
0.0
 21
0.0
  0
LINE
  5
5C
100
AcDbEntity
  8
0
  6
CONTINUOUS
 62
           7
100
AcDbLine
 10
0.0
 20
0.0
 11
104.499909
 21
0.0
  0
LINE
  5
5B
100
AcDbEntity
  8
0
  6
CONTINUOUS
 62
           7
100
AcDbLine
 10
104.499909
 20
0.0
 11
104.499909
 21
-64.499767
  0
LINE
  5
5A
100
AcDbEntity
  8
0
  6
CONTINUOUS
 62
           7
100
AcDbLine
 10
15.535657826823
 20
-27.05330140625
 11
25.33660997526
 21
-12.914285021701
  0
LINE
  5
59
100
AcDbEntity
  8
0
  6
CONTINUOUS
 62
           7
100
AcDbLine
 10
29.331542700955
 20
-12.618695828993
 11
27.666528052517
 21
-2.02296015191
  0
LINE
  5
58
100
AcDbEntity
  8
0
  6
CONTINUOUS
 62
           7
100
AcDbLine
 10
1.999877661892
 20
-27.05330140625
 11
15.535657826823
 21
-27.05330140625
  0
POINT
  5
57
100
AcDbEntity
  8
0
 62
           6
100
AcDbPoint
 10
104.499909
 20
0.0
  0
ENDBLK
  5
68
100
AcDbEntity
  8
0
100
AcDbBlockEnd
  0
BLOCK
  5
2C
100
AcDbEntity
  8
0
100
AcDbBlockBegin
  2
KOZU0049__S
 70
           0
 10
0.0
 20
0.0
 30
0.0
  3
KOZU0049__S
  1

  0
CIRCLE
  5
72
100
AcDbEntity
  8
0
  6
CONTINUOUS
 62
           7
100
AcDbCircle
 10
0.0
 20
0.0
 40
35.0
  0
CIRCLE
  5
71
100
AcDbEntity
  8
0
  6
CONTINUOUS
 62
           7
100
AcDbCircle
 10
0.0
 20
0.0
 40
26.4
  0
CIRCLE
  5
70
100
AcDbEntity
  8
0
  6
CONTINUOUS
 62
           7
100
AcDbCircle
 10
0.0
 20
31.0
 40
2.25
  0
CIRCLE
  5
6F
100
AcDbEntity
  8
0
  6
CONTINUOUS
 62
           7
100
AcDbCircle
 10
-26.846787517318
 20
-15.5
 40
2.25
  0
CIRCLE
  5
6E
100
AcDbEntity
  8
0
  6
CONTINUOUS
 62
           7
100
AcDbCircle
 10
26.846787517318
 20
-15.5
 40
2.25
  0
ARC
  5
6D
100
AcDbEntity
  8
0
  6
CONTINUOUS
 62
           7
100
AcDbCircle
 10
0.0
 20
0.0
 40
25.0
100
AcDbArc
 50
179.999981330665
 51
0.0
  0
ARC
  5
6C
100
AcDbEntity
  8
0
  6
CONTINUOUS
 62
           7
100
AcDbCircle
 10
0.0
 20
0.0
 40
25.0
100
AcDbArc
 50
0.0
 51
179.999964027821
  0
ARC
  5
6B
100
AcDbEntity
  8
0
  6
CONTINUOUS
 62
           7
100
AcDbCircle
 10
0.0
 20
0.0
 40
12.0
100
AcDbArc
 50
29.538518672261
 51
60.461481327738
  0
LINE
  5
6A
100
AcDbEntity
  8
0
  6
CONTINUOUS
 62
           7
100
AcDbLine
 10
-17.677669529664
 20
-17.677669529664
 11
10.440293447125
 21
5.916102833616
  0
LINE
  5
69
100
AcDbEntity
  8
0
  6
CONTINUOUS
 62
           7
100
AcDbLine
 10
-17.677669529664
 20
-17.677669529664
 11
5.916102833616
 21
10.440293447125
  0
ENDBLK
  5
73
100
AcDbEntity
  8
0
100
AcDbBlockEnd
  0
BLOCK
  5
2E
100
AcDbEntity
  8
0
100
AcDbBlockBegin
  2
KOZU0048__S
 70
           0
 10
0.0
 20
0.0
 30
0.0
  3
KOZU0048__S
  1

  0
CIRCLE
  5
80
100
AcDbEntity
  8
0
  6
CONTINUOUS
 62
           7
100
AcDbCircle
 10
0.0
 20
31.000022426247
 40
1.8
  0
CIRCLE
  5
7F
100
AcDbEntity
  8
0
  6
CONTINUOUS
 62
           7
100
AcDbCircle
 10
-26.846732693214
 20
-15.499992139638
 40
1.8
  0
CIRCLE
  5
7E
100
AcDbEntity
  8
0
  6
CONTINUOUS
 62
           7
100
AcDbCircle
 10
-25.0
 20
50.0
 40
8.5
  0
CIRCLE
  5
7D
100
AcDbEntity
  8
0
  6
CONTINUOUS
 62
           7
100
AcDbCircle
 10
-25.0
 20
74.999999999999
 40
8.5
  0
CIRCLE
  5
7C
100
AcDbEntity
  8
0
  6
CONTINUOUS
 62
           7
100
AcDbCircle
 10
26.846808987159
 20
-15.50003028661
 40
1.8
  0
LINE
  5
7B
100
AcDbEntity
  8
0
  6
CONTINUOUS
 62
           7
100
AcDbLine
 10
32.0
 20
77.5
 11
18.0
 21
77.5
  0
LINE
  5
7A
100
AcDbEntity
  8
0
  6
CONTINUOUS
 62
           7
100
AcDbLine
 10
29.25
 20
74.0
 11
20.75
 21
74.0
  0
LINE
  5
79
100
AcDbEntity
  8
0
  6
CONTINUOUS
 62
           7
100
AcDbLine
 10
18.0
 20
77.5
 11
18.0
 21
47.5
  0
LINE
  5
78
100
AcDbEntity
  8
0
  6
CONTINUOUS
 62
           7
100
AcDbLine
 10
32.0
 20
77.5
 11
32.0
 21
47.5
  0
LINE
  5
77
100
AcDbEntity
  8
0
  6
CONTINUOUS
 62
           7
100
AcDbLine
 10
20.75
 20
74.0
 11
20.75
 21
51.0
  0
LINE
  5
76
100
AcDbEntity
  8
0
  6
CONTINUOUS
 62
           7
100
AcDbLine
 10
32.0
 20
47.5
 11
18.0
 21
47.5
  0
LINE
  5
75
100
AcDbEntity
  8
0
  6
CONTINUOUS
 62
           7
100
AcDbLine
 10
29.25
 20
51.0
 11
20.75
 21
51.0
  0
LINE
  5
74
100
AcDbEntity
  8
0
  6
CONTINUOUS
 62
           7
100
AcDbLine
 10
29.25
 20
74.0
 11
29.25
 21
51.0
  0
INSERT
  5
2F
100
AcDbEntity
  8
0
100
AcDbBlockReference
  2
KOZU0049__S
 10
0.0
 20
0.0
  0
ENDBLK
  5
81
100
AcDbEntity
  8
0
100
AcDbBlockEnd
  0
BLOCK
  5
31
100
AcDbEntity
  8
0
100
AcDbBlockBegin
  2
KOZU0043__S
 70
           0
 10
0.0
 20
0.0
 30
0.0
  3
KOZU0043__S
  1

  0
LINE
  5
3B8
100
AcDbEntity
  8
0
  6
CONTINUOUS
 62
           7
100
AcDbLine
 10
-44.0
 20
719.000000000001
 11
494.000000000001
 21
719.000000000001
  0
LINE
  5
3B7
100
AcDbEntity
  8
0
  6
CONTINUOUS
 62
           7
100
AcDbLine
 10
-29.0
 20
-8.0
 11
479.000000000001
 21
-8.0
  0
LINE
  5
3B6
100
AcDbEntity
  8
0
  6
CONTINUOUS
 62
           7
100
AcDbLine
 10
479.0
 20
7.000000000001
 11
479.000000000001
 21
-8.0
  0
LINE
  5
3B5
100
AcDbEntity
  8
0
  6
CONTINUOUS
 62
           7
100
AcDbLine
 10
-44.0
 20
719.000000000001
 11
-44.0
 21
7.000000000001
  0
LINE
  5
3B4
100
AcDbEntity
  8
0
  6
CONTINUOUS
 62
           7
100
AcDbLine
 10
-44.0
 20
7.000000000001
 11
494.000000000001
 21
7.0
  0
LINE
  5
3B3
100
AcDbEntity
  8
0
  6
CONTINUOUS
 62
           7
100
AcDbLine
 10
494.000000000001
 20
719.000000000001
 11
494.000000000001
 21
7.0
  0
LINE
  5
3B2
100
AcDbEntity
  8
0
  6
CONTINUOUS
 62
           7
100
AcDbLine
 10
-28.999999999999
 20
7.000000000001
 11
-29.0
 21
-8.0
  0
LINE
  5
3B1
100
AcDbEntity
  8
0
  6
CONTINUOUS
 62
           7
100
AcDbLine
 10
5.000002682209
 20
11.999999999999
 11
15.00000268221
 21
11.999999999999
  0
LINE
  5
3B0
100
AcDbEntity
  8
0
  6
CONTINUOUS
 62
           7
100
AcDbLine
 10
28.000002682209
 20
12.0
 11
28.000002682209
 21
62.0
  0
LINE
  5
3AF
100
AcDbEntity
  8
0
  6
CONTINUOUS
 62
           7
100
AcDbLine
 10
31.000002682209
 20
12.0
 11
31.000002682209
 21
62.0
  0
LINE
  5
3AE
100
AcDbEntity
  8
0
  6
CONTINUOUS
 62
           7
100
AcDbLine
 10
54.000002682209
 20
12.0
 11
54.000002682209
 21
62.0
  0
LINE
  5
3AD
100
AcDbEntity
  8
0
  6
CONTINUOUS
 62
           7
100
AcDbLine
 10
18.00000268221
 20
61.999999999999
 11
28.000002682209
 21
62.0
  0
LINE
  5
3AC
100
AcDbEntity
  8
0
  6
CONTINUOUS
 62
           7
100
AcDbLine
 10
31.000002682209
 20
12.0
 11
41.000002682209
 21
11.999999999999
  0
LINE
  5
3AB
100
AcDbEntity
  8
0
  6
CONTINUOUS
 62
           7
100
AcDbLine
 10
18.00000268221
 20
11.999999999999
 11
28.000002682209
 21
12.0
  0
LINE
  5
3AA
100
AcDbEntity
  8
0
  6
CONTINUOUS
 62
           7
100
AcDbLine
 10
5.000002682209
 20
61.999999999999
 11
15.00000268221
 21
61.999999999999
  0
LINE
  5
3A9
100
AcDbEntity
  8
0
  6
CONTINUOUS
 62
           7
100
AcDbLine
 10
41.000002682209
 20
11.999999999999
 11
41.000002682209
 21
62.0
  0
LINE
  5
3A8
100
AcDbEntity
  8
0
  6
CONTINUOUS
 62
           7
100
AcDbLine
 10
31.000002682209
 20
62.0
 11
41.000002682209
 21
62.0
  0
LINE
  5
3A7
100
AcDbEntity
  8
0
  6
CONTINUOUS
 62
           7
100
AcDbLine
 10
67.000002682209
 20
12.0
 11
67.000002682209
 21
62.0
  0
LINE
  5
3A6
100
AcDbEntity
  8
0
  6
CONTINUOUS
 62
           7
100
AcDbLine
 10
80.000002682209
 20
12.0
 11
80.000002682209
 21
62.0
  0
LINE
  5
3A5
100
AcDbEntity
  8
0
  6
CONTINUOUS
 62
           7
100
AcDbLine
 10
44.000002682209
 20
61.999999999999
 11
54.000002682209
 21
62.0
  0
LINE
  5
3A4
100
AcDbEntity
  8
0
  6
CONTINUOUS
 62
           7
100
AcDbLine
 10
83.000002682209
 20
61.999999999999
 11
93.000002682209
 21
61.999999999999
  0
LINE
  5
3A3
100
AcDbEntity
  8
0
  6
CONTINUOUS
 62
           7
100
AcDbLine
 10
57.000002682209
 20
11.999999999999
 11
67.000002682209
 21
12.0
  0
LINE
  5
3A2
100
AcDbEntity
  8
0
  6
CONTINUOUS
 62
           7
100
AcDbLine
 10
57.000002682209
 20
11.999999999999
 11
57.000002682209
 21
62.0
  0
LINE
  5
3A1
100
AcDbEntity
  8
0
  6
CONTINUOUS
 62
           7
100
AcDbLine
 10
57.000002682209
 20
62.0
 11
67.000002682209
 21
62.0
  0
LINE
  5
3A0
100
AcDbEntity
  8
0
  6
CONTINUOUS
 62
           7
100
AcDbLine
 10
83.000002682209
 20
11.999999999999
 11
93.000002682209
 21
11.999999999999
  0
LINE
  5
39F
100
AcDbEntity
  8
0
  6
CONTINUOUS
 62
           7
100
AcDbLine
 10
93.000002682209
 20
11.999999999999
 11
93.000002682209
 21
61.999999999999
  0
LINE
  5
39E
100
AcDbEntity
  8
0
  6
CONTINUOUS
 62
           7
100
AcDbLine
 10
70.000002682209
 20
11.999999999999
 11
80.000002682209
 21
12.0
  0
LINE
  5
39D
100
AcDbEntity
  8
0
  6
CONTINUOUS
 62
           7
100
AcDbLine
 10
70.000002682209
 20
61.999999999999
 11
80.000002682209
 21
62.0
  0
LINE
  5
39C
100
AcDbEntity
  8
0
  6
CONTINUOUS
 62
           7
100
AcDbLine
 10
70.000002682209
 20
11.999999999999
 11
70.000002682209
 21
61.999999999999
  0
LINE
  5
39B
100
AcDbEntity
  8
0
  6
CONTINUOUS
 62
           7
100
AcDbLine
 10
5.000002682209
 20
11.999999999999
 11
5.000002682209
 21
61.999999999999
  0
LINE
  5
39A
100
AcDbEntity
  8
0
  6
CONTINUOUS
 62
           7
100
AcDbLine
 10
83.000002682209
 20
11.999999999999
 11
83.000002682209
 21
61.999999999999
  0
LINE
  5
399
100
AcDbEntity
  8
0
  6
CONTINUOUS
 62
           7
100
AcDbLine
 10
15.00000268221
 20
11.999999999999
 11
15.00000268221
 21
61.999999999999
  0
LINE
  5
398
100
AcDbEntity
  8
0
  6
CONTINUOUS
 62
           7
100
AcDbLine
 10
44.000002682209
 20
12.0
 11
44.000002682209
 21
61.999999999999
  0
LINE
  5
397
100
AcDbEntity
  8
0
  6
CONTINUOUS
 62
           7
100
AcDbLine
 10
106.000002682209
 20
12.0
 11
106.000002682209
 21
62.0
  0
LINE
  5
396
100
AcDbEntity
  8
0
  6
CONTINUOUS
 62
           7
100
AcDbLine
 10
44.000002682209
 20
12.0
 11
54.000002682209
 21
12.0
  0
LINE
  5
395
100
AcDbEntity
  8
0
  6
CONTINUOUS
 62
           7
100
AcDbLine
 10
18.00000268221
 20
11.999999999999
 11
18.00000268221
 21
61.999999999999
  0
LINE
  5
394
100
AcDbEntity
  8
0
  6
CONTINUOUS
 62
           7
100
AcDbLine
 10
226.000002682209
 20
12.0
 11
226.000002682209
 21
62.0
  0
LINE
  5
393
100
AcDbEntity
  8
0
  6
CONTINUOUS
 62
           7
100
AcDbLine
 10
213.00000268221
 20
11.999999999999
 11
223.00000268221
 21
11.999999999999
  0
LINE
  5
392
100
AcDbEntity
  8
0
  6
CONTINUOUS
 62
           7
100
AcDbLine
 10
135.00000268221
 20
11.999999999999
 11
145.00000268221
 21
11.999999999999
  0
LINE
  5
391
100
AcDbEntity
  8
0
  6
CONTINUOUS
 62
           7
100
AcDbLine
 10
213.00000268221
 20
11.999999999999
 11
213.000002682209
 21
62.0
  0
LINE
  5
390
100
AcDbEntity
  8
0
  6
CONTINUOUS
 62
           7
100
AcDbLine
 10
265.000002682209
 20
12.0
 11
265.000002682209
 21
62.0
  0
LINE
  5
38F
100
AcDbEntity
  8
0
  6
CONTINUOUS
 62
           7
100
AcDbLine
 10
148.000002682209
 20
12.0
 11
148.000002682209
 21
62.0
  0
LINE
  5
38E
100
AcDbEntity
  8
0
  6
CONTINUOUS
 62
           7
100
AcDbLine
 10
200.000002682209
 20
12.0
 11
200.000002682209
 21
62.0
  0
LINE
  5
38D
100
AcDbEntity
  8
0
  6
CONTINUOUS
 62
           7
100
AcDbLine
 10
148.000002682209
 20
12.0
 11
158.00000268221
 21
11.999999999999
  0
LINE
  5
38C
100
AcDbEntity
  8
0
  6
CONTINUOUS
 62
           7
100
AcDbLine
 10
158.00000268221
 20
11.999999999999
 11
158.000002682209
 21
62.0
  0
LINE
  5
38B
100
AcDbEntity
  8
0
  6
CONTINUOUS
 62
           7
100
AcDbLine
 10
148.000002682209
 20
62.0
 11
158.000002682209
 21
62.0
  0
LINE
  5
38A
100
AcDbEntity
  8
0
  6
CONTINUOUS
 62
           7
100
AcDbLine
 10
252.000002682209
 20
12.0
 11
252.000002682209
 21
62.0
  0
LINE
  5
389
100
AcDbEntity
  8
0
  6
CONTINUOUS
 62
           7
100
AcDbLine
 10
135.00000268221
 20
61.999999999999
 11
145.00000268221
 21
61.999999999999
  0
LINE
  5
388
100
AcDbEntity
  8
0
  6
CONTINUOUS
 62
           7
100
AcDbLine
 10
226.000002682209
 20
12.0
 11
236.00000268221
 21
11.999999999999
  0
LINE
  5
387
100
AcDbEntity
  8
0
  6
CONTINUOUS
 62
           7
100
AcDbLine
 10
200.000002682209
 20
12.0
 11
210.00000268221
 21
11.999999999999
  0
LINE
  5
386
100
AcDbEntity
  8
0
  6
CONTINUOUS
 62
           7
100
AcDbLine
 10
213.000002682209
 20
62.0
 11
223.00000268221
 21
61.999999999999
  0
LINE
  5
385
100
AcDbEntity
  8
0
  6
CONTINUOUS
 62
           7
100
AcDbLine
 10
132.000002682209
 20
12.0
 11
132.000002682209
 21
62.0
  0
LINE
  5
384
100
AcDbEntity
  8
0
  6
CONTINUOUS
 62
           7
100
AcDbLine
 10
122.000002682209
 20
61.999999999999
 11
132.000002682209
 21
62.0
  0
LINE
  5
383
100
AcDbEntity
  8
0
  6
CONTINUOUS
 62
           7
100
AcDbLine
 10
109.000002682209
 20
11.999999999999
 11
119.000002682209
 21
11.999999999999
  0
LINE
  5
382
100
AcDbEntity
  8
0
  6
CONTINUOUS
 62
           7
100
AcDbLine
 10
109.000002682209
 20
61.999999999999
 11
119.000002682209
 21
61.999999999999
  0
LINE
  5
381
100
AcDbEntity
  8
0
  6
CONTINUOUS
 62
           7
100
AcDbLine
 10
122.000002682209
 20
11.999999999999
 11
132.000002682209
 21
12.0
  0
LINE
  5
380
100
AcDbEntity
  8
0
  6
CONTINUOUS
 62
           7
100
AcDbLine
 10
122.000002682209
 20
11.999999999999
 11
122.000002682209
 21
61.999999999999
  0
LINE
  5
37F
100
AcDbEntity
  8
0
  6
CONTINUOUS
 62
           7
100
AcDbLine
 10
252.000002682209
 20
62.0
 11
262.000002682209
 21
61.999999999999
  0
LINE
  5
37E
100
AcDbEntity
  8
0
  6
CONTINUOUS
 62
           7
100
AcDbLine
 10
265.000002682209
 20
12.0
 11
275.00000268221
 21
11.999999999999
  0
LINE
  5
37D
100
AcDbEntity
  8
0
  6
CONTINUOUS
 62
           7
100
AcDbLine
 10
239.000002682209
 20
11.999999999999
 11
249.000002682209
 21
11.999999999999
  0
LINE
  5
37C
100
AcDbEntity
  8
0
  6
CONTINUOUS
 62
           7
100
AcDbLine
 10
252.000002682209
 20
12.0
 11
262.000002682209
 21
11.999999999999
  0
LINE
  5
37B
100
AcDbEntity
  8
0
  6
CONTINUOUS
 62
           7
100
AcDbLine
 10
265.000002682209
 20
62.0
 11
275.00000268221
 21
61.999999999999
  0
LINE
  5
37A
100
AcDbEntity
  8
0
  6
CONTINUOUS
 62
           7
100
AcDbLine
 10
278.000002682209
 20
12.0
 11
278.000002682209
 21
62.0
  0
LINE
  5
379
100
AcDbEntity
  8
0
  6
CONTINUOUS
 62
           7
100
AcDbLine
 10
249.000002682209
 20
11.999999999999
 11
249.000002682209
 21
62.0
  0
LINE
  5
378
100
AcDbEntity
  8
0
  6
CONTINUOUS
 62
           7
100
AcDbLine
 10
239.000002682209
 20
11.999999999999
 11
239.000002682209
 21
62.0
  0
LINE
  5
377
100
AcDbEntity
  8
0
  6
CONTINUOUS
 62
           7
100
AcDbLine
 10
275.00000268221
 20
11.999999999999
 11
275.00000268221
 21
61.999999999999
  0
LINE
  5
376
100
AcDbEntity
  8
0
  6
CONTINUOUS
 62
           7
100
AcDbLine
 10
288.000002682209
 20
12.0
 11
288.000002682209
 21
62.0
  0
LINE
  5
375
100
AcDbEntity
  8
0
  6
CONTINUOUS
 62
           7
100
AcDbLine
 10
109.000002682209
 20
11.999999999999
 11
109.000002682209
 21
61.999999999999
  0
LINE
  5
374
100
AcDbEntity
  8
0
  6
CONTINUOUS
 62
           7
100
AcDbLine
 10
96.000002682209
 20
61.999999999999
 11
106.000002682209
 21
62.0
  0
LINE
  5
373
100
AcDbEntity
  8
0
  6
CONTINUOUS
 62
           7
100
AcDbLine
 10
96.000002682209
 20
11.999999999999
 11
106.000002682209
 21
12.0
  0
LINE
  5
372
100
AcDbEntity
  8
0
  6
CONTINUOUS
 62
           7
100
AcDbLine
 10
119.000002682209
 20
11.999999999999
 11
119.000002682209
 21
61.999999999999
  0
LINE
  5
371
100
AcDbEntity
  8
0
  6
CONTINUOUS
 62
           7
100
AcDbLine
 10
96.000002682209
 20
11.999999999999
 11
96.000002682209
 21
61.999999999999
  0
LINE
  5
370
100
AcDbEntity
  8
0
  6
CONTINUOUS
 62
           7
100
AcDbLine
 10
249.000002682209
 20
132.0
 11
249.000002682209
 21
182.0
  0
LINE
  5
36F
100
AcDbEntity
  8
0
  6
CONTINUOUS
 62
           7
100
AcDbLine
 10
226.00000268221
 20
181.999999999999
 11
236.00000268221
 21
181.999999999999
  0
LINE
  5
36E
100
AcDbEntity
  8
0
  6
CONTINUOUS
 62
           7
100
AcDbLine
 10
239.000002682209
 20
132.0
 11
239.000002682209
 21
182.0
  0
LINE
  5
36D
100
AcDbEntity
  8
0
  6
CONTINUOUS
 62
           7
100
AcDbLine
 10
226.00000268221
 20
131.999999999999
 11
236.00000268221
 21
131.999999999999
  0
LINE
  5
36C
100
AcDbEntity
  8
0
  6
CONTINUOUS
 62
           7
100
AcDbLine
 10
236.00000268221
 20
131.999999999999
 11
236.00000268221
 21
181.999999999999
  0
LINE
  5
36B
100
AcDbEntity
  8
0
  6
CONTINUOUS
 62
           7
100
AcDbLine
 10
226.00000268221
 20
131.999999999999
 11
226.00000268221
 21
181.999999999999
  0
LINE
  5
36A
100
AcDbEntity
  8
0
  6
CONTINUOUS
 62
           7
100
AcDbLine
 10
343.00000268221
 20
71.999999999999
 11
353.00000268221
 21
71.999999999999
  0
LINE
  5
369
100
AcDbEntity
  8
0
  6
CONTINUOUS
 62
           7
100
AcDbLine
 10
356.00000268221
 20
121.999999999999
 11
366.00000268221
 21
121.999999999999
  0
LINE
  5
368
100
AcDbEntity
  8
0
  6
CONTINUOUS
 62
           7
100
AcDbLine
 10
356.00000268221
 20
71.999999999999
 11
366.00000268221
 21
71.999999999999
  0
LINE
  5
367
100
AcDbEntity
  8
0
  6
CONTINUOUS
 62
           7
100
AcDbLine
 10
356.00000268221
 20
71.999999999999
 11
356.00000268221
 21
121.999999999999
  0
LINE
  5
366
100
AcDbEntity
  8
0
  6
CONTINUOUS
 62
           7
100
AcDbLine
 10
366.00000268221
 20
71.999999999999
 11
366.00000268221
 21
121.999999999999
  0
LINE
  5
365
100
AcDbEntity
  8
0
  6
CONTINUOUS
 62
           7
100
AcDbLine
 10
343.00000268221
 20
121.999999999999
 11
353.00000268221
 21
121.999999999999
  0
LINE
  5
364
100
AcDbEntity
  8
0
  6
CONTINUOUS
 62
           7
100
AcDbLine
 10
343.00000268221
 20
71.999999999999
 11
343.00000268221
 21
121.999999999999
  0
LINE
  5
363
100
AcDbEntity
  8
0
  6
CONTINUOUS
 62
           7
100
AcDbLine
 10
5.000002682209
 20
71.999999999999
 11
15.00000268221
 21
71.999999999999
  0
LINE
  5
362
100
AcDbEntity
  8
0
  6
CONTINUOUS
 62
           7
100
AcDbLine
 10
135.000002682209
 20
72.0
 11
135.000002682209
 21
122.0
  0
LINE
  5
361
100
AcDbEntity
  8
0
  6
CONTINUOUS
 62
           7
100
AcDbLine
 10
145.000002682209
 20
72.0
 11
145.000002682209
 21
122.0
  0
LINE
  5
360
100
AcDbEntity
  8
0
  6
CONTINUOUS
 62
           7
100
AcDbLine
 10
15.00000268221
 20
71.999999999999
 11
15.000002682209
 21
122.0
  0
LINE
  5
35F
100
AcDbEntity
  8
0
  6
CONTINUOUS
 62
           7
100
AcDbLine
 10
5.000002682209
 20
71.999999999999
 11
5.000002682209
 21
122.0
  0
LINE
  5
35E
100
AcDbEntity
  8
0
  6
CONTINUOUS
 62
           7
100
AcDbLine
 10
5.000002682209
 20
122.0
 11
15.000002682209
 21
122.0
  0
LINE
  5
35D
100
AcDbEntity
  8
0
  6
CONTINUOUS
 62
           7
100
AcDbLine
 10
317.000002682209
 20
121.999999999999
 11
327.000002682209
 21
121.999999999999
  0
LINE
  5
35C
100
AcDbEntity
  8
0
  6
CONTINUOUS
 62
           7
100
AcDbLine
 10
353.00000268221
 20
71.999999999999
 11
353.00000268221
 21
121.999999999999
  0
LINE
  5
35B
100
AcDbEntity
  8
0
  6
CONTINUOUS
 62
           7
100
AcDbLine
 10
330.00000268221
 20
121.999999999999
 11
340.00000268221
 21
121.999999999999
  0
LINE
  5
35A
100
AcDbEntity
  8
0
  6
CONTINUOUS
 62
           7
100
AcDbLine
 10
330.00000268221
 20
71.999999999999
 11
340.00000268221
 21
71.999999999999
  0
LINE
  5
359
100
AcDbEntity
  8
0
  6
CONTINUOUS
 62
           7
100
AcDbLine
 10
330.00000268221
 20
71.999999999999
 11
330.00000268221
 21
121.999999999999
  0
LINE
  5
358
100
AcDbEntity
  8
0
  6
CONTINUOUS
 62
           7
100
AcDbLine
 10
340.00000268221
 20
71.999999999999
 11
340.00000268221
 21
121.999999999999
  0
LINE
  5
357
100
AcDbEntity
  8
0
  6
CONTINUOUS
 62
           7
100
AcDbLine
 10
317.000002682209
 20
71.999999999999
 11
327.000002682209
 21
71.999999999999
  0
LINE
  5
356
100
AcDbEntity
  8
0
  6
CONTINUOUS
 62
           7
100
AcDbLine
 10
96.000002682209
 20
181.999999999999
 11
106.00000268221
 21
181.999999999999
  0
LINE
  5
355
100
AcDbEntity
  8
0
  6
CONTINUOUS
 62
           7
100
AcDbLine
 10
83.000002682209
 20
181.999999999999
 11
93.000002682209
 21
181.999999999999
  0
LINE
  5
354
100
AcDbEntity
  8
0
  6
CONTINUOUS
 62
           7
100
AcDbLine
 10
106.000002682209
 20
132.0
 11
106.00000268221
 21
181.999999999999
  0
LINE
  5
353
100
AcDbEntity
  8
0
  6
CONTINUOUS
 62
           7
100
AcDbLine
 10
96.000002682209
 20
132.0
 11
96.000002682209
 21
181.999999999999
  0
LINE
  5
352
100
AcDbEntity
  8
0
  6
CONTINUOUS
 62
           7
100
AcDbLine
 10
96.000002682209
 20
132.0
 11
106.000002682209
 21
132.0
  0
LINE
  5
351
100
AcDbEntity
  8
0
  6
CONTINUOUS
 62
           7
100
AcDbLine
 10
119.000002682209
 20
132.0
 11
119.000002682209
 21
182.0
  0
LINE
  5
350
100
AcDbEntity
  8
0
  6
CONTINUOUS
 62
           7
100
AcDbLine
 10
54.000002682209
 20
72.0
 11
54.000002682209
 21
122.0
  0
LINE
  5
34F
100
AcDbEntity
  8
0
  6
CONTINUOUS
 62
           7
100
AcDbLine
 10
31.00000268221
 20
71.999999999999
 11
41.000002682209
 21
71.999999999999
  0
LINE
  5
34E
100
AcDbEntity
  8
0
  6
CONTINUOUS
 62
           7
100
AcDbLine
 10
31.00000268221
 20
121.999999999999
 11
41.000002682209
 21
121.999999999999
  0
LINE
  5
34D
100
AcDbEntity
  8
0
  6
CONTINUOUS
 62
           7
100
AcDbLine
 10
44.000002682209
 20
72.0
 11
44.000002682209
 21
122.0
  0
LINE
  5
34C
100
AcDbEntity
  8
0
  6
CONTINUOUS
 62
           7
100
AcDbLine
 10
122.000002682209
 20
131.999999999999
 11
132.000002682209
 21
131.999999999999
  0
LINE
  5
34B
100
AcDbEntity
  8
0
  6
CONTINUOUS
 62
           7
100
AcDbLine
 10
109.000002682209
 20
132.0
 11
109.000002682209
 21
182.0
  0
LINE
  5
34A
100
AcDbEntity
  8
0
  6
CONTINUOUS
 62
           7
100
AcDbLine
 10
109.000002682209
 20
132.0
 11
119.000002682209
 21
132.0
  0
LINE
  5
349
100
AcDbEntity
  8
0
  6
CONTINUOUS
 62
           7
100
AcDbLine
 10
109.000002682209
 20
182.0
 11
119.000002682209
 21
182.0
  0
LINE
  5
348
100
AcDbEntity
  8
0
  6
CONTINUOUS
 62
           7
100
AcDbLine
 10
132.000002682209
 20
131.999999999999
 11
132.000002682209
 21
182.0
  0
LINE
  5
347
100
AcDbEntity
  8
0
  6
CONTINUOUS
 62
           7
100
AcDbLine
 10
122.000002682209
 20
131.999999999999
 11
122.000002682209
 21
182.0
  0
LINE
  5
346
100
AcDbEntity
  8
0
  6
CONTINUOUS
 62
           7
100
AcDbLine
 10
122.000002682209
 20
182.0
 11
132.000002682209
 21
182.0
  0
LINE
  5
345
100
AcDbEntity
  8
0
  6
CONTINUOUS
 62
           7
100
AcDbLine
 10
83.000002682209
 20
132.0
 11
83.000002682209
 21
181.999999999999
  0
LINE
  5
344
100
AcDbEntity
  8
0
  6
CONTINUOUS
 62
           7
100
AcDbLine
 10
70.000002682209
 20
132.0
 11
70.000002682209
 21
182.0
  0
LINE
  5
343
100
AcDbEntity
  8
0
  6
CONTINUOUS
 62
           7
100
AcDbLine
 10
70.000002682209
 20
132.0
 11
80.000002682209
 21
131.999999999999
  0
LINE
  5
342
100
AcDbEntity
  8
0
  6
CONTINUOUS
 62
           7
100
AcDbLine
 10
70.000002682209
 20
182.0
 11
80.000002682209
 21
181.999999999999
  0
LINE
  5
341
100
AcDbEntity
  8
0
  6
CONTINUOUS
 62
           7
100
AcDbLine
 10
93.000002682209
 20
132.0
 11
93.000002682209
 21
181.999999999999
  0
LINE
  5
340
100
AcDbEntity
  8
0
  6
CONTINUOUS
 62
           7
100
AcDbLine
 10
83.000002682209
 20
132.0
 11
93.000002682209
 21
132.0
  0
LINE
  5
33F
100
AcDbEntity
  8
0
  6
CONTINUOUS
 62
           7
100
AcDbLine
 10
57.000002682209
 20
181.999999999999
 11
67.000002682209
 21
181.999999999999
  0
LINE
  5
33E
100
AcDbEntity
  8
0
  6
CONTINUOUS
 62
           7
100
AcDbLine
 10
44.000002682209
 20
181.999999999999
 11
54.000002682209
 21
181.999999999999
  0
LINE
  5
33D
100
AcDbEntity
  8
0
  6
CONTINUOUS
 62
           7
100
AcDbLine
 10
67.000002682209
 20
132.0
 11
67.000002682209
 21
181.999999999999
  0
LINE
  5
33C
100
AcDbEntity
  8
0
  6
CONTINUOUS
 62
           7
100
AcDbLine
 10
57.000002682209
 20
132.0
 11
57.000002682209
 21
181.999999999999
  0
LINE
  5
33B
100
AcDbEntity
  8
0
  6
CONTINUOUS
 62
           7
100
AcDbLine
 10
57.000002682209
 20
132.0
 11
67.000002682209
 21
132.0
  0
LINE
  5
33A
100
AcDbEntity
  8
0
  6
CONTINUOUS
 62
           7
100
AcDbLine
 10
80.000002682209
 20
131.999999999999
 11
80.000002682209
 21
181.999999999999
  0
LINE
  5
339
100
AcDbEntity
  8
0
  6
CONTINUOUS
 62
           7
100
AcDbLine
 10
44.000002682209
 20
132.0
 11
44.000002682209
 21
181.999999999999
  0
LINE
  5
338
100
AcDbEntity
  8
0
  6
CONTINUOUS
 62
           7
100
AcDbLine
 10
41.000002682209
 20
132.0
 11
41.000002682209
 21
182.0
  0
LINE
  5
337
100
AcDbEntity
  8
0
  6
CONTINUOUS
 62
           7
100
AcDbLine
 10
31.000002682209
 20
132.0
 11
31.000002682209
 21
182.0
  0
LINE
  5
336
100
AcDbEntity
  8
0
  6
CONTINUOUS
 62
           7
100
AcDbLine
 10
31.000002682209
 20
132.0
 11
41.000002682209
 21
132.0
  0
LINE
  5
335
100
AcDbEntity
  8
0
  6
CONTINUOUS
 62
           7
100
AcDbLine
 10
31.000002682209
 20
182.0
 11
41.000002682209
 21
182.0
  0
LINE
  5
334
100
AcDbEntity
  8
0
  6
CONTINUOUS
 62
           7
100
AcDbLine
 10
54.000002682209
 20
132.0
 11
54.000002682209
 21
181.999999999999
  0
LINE
  5
333
100
AcDbEntity
  8
0
  6
CONTINUOUS
 62
           7
100
AcDbLine
 10
44.000002682209
 20
132.0
 11
54.000002682209
 21
132.0
  0
LINE
  5
332
100
AcDbEntity
  8
0
  6
CONTINUOUS
 62
           7
100
AcDbLine
 10
278.000002682209
 20
62.0
 11
288.000002682209
 21
62.0
  0
LINE
  5
331
100
AcDbEntity
  8
0
  6
CONTINUOUS
 62
           7
100
AcDbLine
 10
291.00000268221
 20
61.999999999999
 11
301.00000268221
 21
61.999999999999
  0
LINE
  5
330
100
AcDbEntity
  8
0
  6
CONTINUOUS
 62
           7
100
AcDbLine
 10
291.00000268221
 20
11.999999999999
 11
301.00000268221
 21
11.999999999999
  0
LINE
  5
32F
100
AcDbEntity
  8
0
  6
CONTINUOUS
 62
           7
100
AcDbLine
 10
291.00000268221
 20
11.999999999999
 11
291.00000268221
 21
61.999999999999
  0
LINE
  5
32E
100
AcDbEntity
  8
0
  6
CONTINUOUS
 62
           7
100
AcDbLine
 10
301.00000268221
 20
11.999999999999
 11
301.00000268221
 21
61.999999999999
  0
LINE
  5
32D
100
AcDbEntity
  8
0
  6
CONTINUOUS
 62
           7
100
AcDbLine
 10
278.000002682209
 20
12.0
 11
288.000002682209
 21
12.0
  0
LINE
  5
32C
100
AcDbEntity
  8
0
  6
CONTINUOUS
 62
           7
100
AcDbLine
 10
122.000002682209
 20
121.999999999999
 11
132.000002682209
 21
121.999999999999
  0
LINE
  5
32B
100
AcDbEntity
  8
0
  6
CONTINUOUS
 62
           7
100
AcDbLine
 10
109.000002682209
 20
121.999999999999
 11
119.000002682209
 21
121.999999999999
  0
LINE
  5
32A
100
AcDbEntity
  8
0
  6
CONTINUOUS
 62
           7
100
AcDbLine
 10
132.000002682209
 20
72.0
 11
132.000002682209
 21
121.999999999999
  0
LINE
  5
329
100
AcDbEntity
  8
0
  6
CONTINUOUS
 62
           7
100
AcDbLine
 10
122.000002682209
 20
72.0
 11
122.000002682209
 21
121.999999999999
  0
LINE
  5
328
100
AcDbEntity
  8
0
  6
CONTINUOUS
 62
           7
100
AcDbLine
 10
122.000002682209
 20
72.0
 11
132.000002682209
 21
72.0
  0
LINE
  5
327
100
AcDbEntity
  8
0
  6
CONTINUOUS
 62
           7
100
AcDbLine
 10
356.00000268221
 20
61.999999999999
 11
366.00000268221
 21
61.999999999999
  0
LINE
  5
326
100
AcDbEntity
  8
0
  6
CONTINUOUS
 62
           7
100
AcDbLine
 10
187.000002682209
 20
72.0
 11
187.000002682209
 21
122.0
  0
LINE
  5
325
100
AcDbEntity
  8
0
  6
CONTINUOUS
 62
           7
100
AcDbLine
 10
200.000002682209
 20
72.0
 11
200.000002682209
 21
122.0
  0
LINE
  5
324
100
AcDbEntity
  8
0
  6
CONTINUOUS
 62
           7
100
AcDbLine
 10
210.000002682209
 20
72.0
 11
210.000002682209
 21
122.0
  0
LINE
  5
323
100
AcDbEntity
  8
0
  6
CONTINUOUS
 62
           7
100
AcDbLine
 10
187.000002682209
 20
122.0
 11
197.000002682209
 21
121.999999999999
  0
LINE
  5
322
100
AcDbEntity
  8
0
  6
CONTINUOUS
 62
           7
100
AcDbLine
 10
187.000002682209
 20
72.0
 11
197.000002682209
 21
71.999999999999
  0
LINE
  5
321
100
AcDbEntity
  8
0
  6
CONTINUOUS
 62
           7
100
AcDbLine
 10
197.000002682209
 20
71.999999999999
 11
197.000002682209
 21
121.999999999999
  0
LINE
  5
320
100
AcDbEntity
  8
0
  6
CONTINUOUS
 62
           7
100
AcDbLine
 10
340.000002682209
 20
12.0
 11
340.000002682209
 21
62.0
  0
LINE
  5
31F
100
AcDbEntity
  8
0
  6
CONTINUOUS
 62
           7
100
AcDbLine
 10
353.000002682209
 20
12.0
 11
353.000002682209
 21
62.0
  0
LINE
  5
31E
100
AcDbEntity
  8
0
  6
CONTINUOUS
 62
           7
100
AcDbLine
 10
330.00000268221
 20
61.999999999999
 11
340.000002682209
 21
62.0
  0
LINE
  5
31D
100
AcDbEntity
  8
0
  6
CONTINUOUS
 62
           7
100
AcDbLine
 10
330.00000268221
 20
11.999999999999
 11
340.000002682209
 21
12.0
  0
LINE
  5
31C
100
AcDbEntity
  8
0
  6
CONTINUOUS
 62
           7
100
AcDbLine
 10
330.00000268221
 20
11.999999999999
 11
330.00000268221
 21
61.999999999999
  0
LINE
  5
31B
100
AcDbEntity
  8
0
  6
CONTINUOUS
 62
           7
100
AcDbLine
 10
317.000002682209
 20
61.999999999999
 11
327.000002682209
 21
61.999999999999
  0
LINE
  5
31A
100
AcDbEntity
  8
0
  6
CONTINUOUS
 62
           7
100
AcDbLine
 10
304.000002682209
 20
11.999999999999
 11
314.000002682209
 21
11.999999999999
  0
LINE
  5
319
100
AcDbEntity
  8
0
  6
CONTINUOUS
 62
           7
100
AcDbLine
 10
317.000002682209
 20
11.999999999999
 11
327.000002682209
 21
11.999999999999
  0
LINE
  5
318
100
AcDbEntity
  8
0
  6
CONTINUOUS
 62
           7
100
AcDbLine
 10
317.000002682209
 20
11.999999999999
 11
317.000002682209
 21
61.999999999999
  0
LINE
  5
317
100
AcDbEntity
  8
0
  6
CONTINUOUS
 62
           7
100
AcDbLine
 10
327.000002682209
 20
11.999999999999
 11
327.000002682209
 21
61.999999999999
  0
LINE
  5
316
100
AcDbEntity
  8
0
  6
CONTINUOUS
 62
           7
100
AcDbLine
 10
304.000002682209
 20
61.999999999999
 11
314.000002682209
 21
61.999999999999
  0
LINE
  5
315
100
AcDbEntity
  8
0
  6
CONTINUOUS
 62
           7
100
AcDbLine
 10
304.000002682209
 20
11.999999999999
 11
304.000002682209
 21
61.999999999999
  0
LINE
  5
314
100
AcDbEntity
  8
0
  6
CONTINUOUS
 62
           7
100
AcDbLine
 10
343.00000268221
 20
11.999999999999
 11
353.000002682209
 21
12.0
  0
LINE
  5
313
100
AcDbEntity
  8
0
  6
CONTINUOUS
 62
           7
100
AcDbLine
 10
356.00000268221
 20
11.999999999999
 11
366.00000268221
 21
11.999999999999
  0
LINE
  5
312
100
AcDbEntity
  8
0
  6
CONTINUOUS
 62
           7
100
AcDbLine
 10
356.00000268221
 20
11.999999999999
 11
356.00000268221
 21
61.999999999999
  0
LINE
  5
311
100
AcDbEntity
  8
0
  6
CONTINUOUS
 62
           7
100
AcDbLine
 10
366.00000268221
 20
11.999999999999
 11
366.00000268221
 21
61.999999999999
  0
LINE
  5
310
100
AcDbEntity
  8
0
  6
CONTINUOUS
 62
           7
100
AcDbLine
 10
343.00000268221
 20
61.999999999999
 11
353.000002682209
 21
62.0
  0
LINE
  5
30F
100
AcDbEntity
  8
0
  6
CONTINUOUS
 62
           7
100
AcDbLine
 10
343.00000268221
 20
11.999999999999
 11
343.00000268221
 21
61.999999999999
  0
LINE
  5
30E
100
AcDbEntity
  8
0
  6
CONTINUOUS
 62
           7
100
AcDbLine
 10
109.000002682209
 20
72.0
 11
109.000002682209
 21
121.999999999999
  0
LINE
  5
30D
100
AcDbEntity
  8
0
  6
CONTINUOUS
 62
           7
100
AcDbLine
 10
96.000002682209
 20
72.0
 11
96.000002682209
 21
122.0
  0
LINE
  5
30C
100
AcDbEntity
  8
0
  6
CONTINUOUS
 62
           7
100
AcDbLine
 10
96.000002682209
 20
72.0
 11
106.00000268221
 21
71.999999999999
  0
LINE
  5
30B
100
AcDbEntity
  8
0
  6
CONTINUOUS
 62
           7
100
AcDbLine
 10
96.000002682209
 20
122.0
 11
106.00000268221
 21
121.999999999999
  0
LINE
  5
30A
100
AcDbEntity
  8
0
  6
CONTINUOUS
 62
           7
100
AcDbLine
 10
119.000002682209
 20
72.0
 11
119.000002682209
 21
121.999999999999
  0
LINE
  5
309
100
AcDbEntity
  8
0
  6
CONTINUOUS
 62
           7
100
AcDbLine
 10
109.000002682209
 20
72.0
 11
119.000002682209
 21
72.0
  0
LINE
  5
308
100
AcDbEntity
  8
0
  6
CONTINUOUS
 62
           7
100
AcDbLine
 10
83.000002682209
 20
121.999999999999
 11
93.000002682209
 21
121.999999999999
  0
LINE
  5
307
100
AcDbEntity
  8
0
  6
CONTINUOUS
 62
           7
100
AcDbLine
 10
70.000002682209
 20
121.999999999999
 11
80.000002682209
 21
121.999999999999
  0
LINE
  5
306
100
AcDbEntity
  8
0
  6
CONTINUOUS
 62
           7
100
AcDbLine
 10
93.000002682209
 20
72.0
 11
93.000002682209
 21
121.999999999999
  0
LINE
  5
305
100
AcDbEntity
  8
0
  6
CONTINUOUS
 62
           7
100
AcDbLine
 10
83.000002682209
 20
72.0
 11
83.000002682209
 21
121.999999999999
  0
LINE
  5
304
100
AcDbEntity
  8
0
  6
CONTINUOUS
 62
           7
100
AcDbLine
 10
83.000002682209
 20
72.0
 11
93.000002682209
 21
72.0
  0
LINE
  5
303
100
AcDbEntity
  8
0
  6
CONTINUOUS
 62
           7
100
AcDbLine
 10
106.00000268221
 20
71.999999999999
 11
106.00000268221
 21
121.999999999999
  0
LINE
  5
302
100
AcDbEntity
  8
0
  6
CONTINUOUS
 62
           7
100
AcDbLine
 10
187.000002682209
 20
131.999999999999
 11
197.000002682209
 21
131.999999999999
  0
LINE
  5
301
100
AcDbEntity
  8
0
  6
CONTINUOUS
 62
           7
100
AcDbLine
 10
200.00000268221
 20
181.999999999999
 11
210.00000268221
 21
181.999999999999
  0
LINE
  5
300
100
AcDbEntity
  8
0
  6
CONTINUOUS
 62
           7
100
AcDbLine
 10
200.00000268221
 20
131.999999999999
 11
210.00000268221
 21
131.999999999999
  0
LINE
  5
2FF
100
AcDbEntity
  8
0
  6
CONTINUOUS
 62
           7
100
AcDbLine
 10
200.00000268221
 20
131.999999999999
 11
200.00000268221
 21
181.999999999999
  0
LINE
  5
2FE
100
AcDbEntity
  8
0
  6
CONTINUOUS
 62
           7
100
AcDbLine
 10
210.00000268221
 20
131.999999999999
 11
210.00000268221
 21
181.999999999999
  0
LINE
  5
2FD
100
AcDbEntity
  8
0
  6
CONTINUOUS
 62
           7
100
AcDbLine
 10
187.000002682209
 20
181.999999999999
 11
197.000002682209
 21
181.999999999999
  0
LINE
  5
2FC
100
AcDbEntity
  8
0
  6
CONTINUOUS
 62
           7
100
AcDbLine
 10
187.000002682209
 20
131.999999999999
 11
187.000002682209
 21
181.999999999999
  0
LINE
  5
2FB
100
AcDbEntity
  8
0
  6
CONTINUOUS
 62
           7
100
AcDbLine
 10
314.000002682209
 20
72.0
 11
314.000002682209
 21
122.0
  0
LINE
  5
2FA
100
AcDbEntity
  8
0
  6
CONTINUOUS
 62
           7
100
AcDbLine
 10
317.000002682209
 20
71.999999999999
 11
317.000002682209
 21
121.999999999999
  0
LINE
  5
2F9
100
AcDbEntity
  8
0
  6
CONTINUOUS
 62
           7
100
AcDbLine
 10
327.000002682209
 20
71.999999999999
 11
327.000002682209
 21
121.999999999999
  0
LINE
  5
2F8
100
AcDbEntity
  8
0
  6
CONTINUOUS
 62
           7
100
AcDbLine
 10
304.000002682209
 20
121.999999999999
 11
314.000002682209
 21
122.0
  0
LINE
  5
2F7
100
AcDbEntity
  8
0
  6
CONTINUOUS
 62
           7
100
AcDbLine
 10
304.000002682209
 20
71.999999999999
 11
314.000002682209
 21
72.0
  0
LINE
  5
2F6
100
AcDbEntity
  8
0
  6
CONTINUOUS
 62
           7
100
AcDbLine
 10
304.000002682209
 20
71.999999999999
 11
304.000002682209
 21
121.999999999999
  0
LINE
  5
2F5
100
AcDbEntity
  8
0
  6
CONTINUOUS
 62
           7
100
AcDbLine
 10
291.00000268221
 20
121.999999999999
 11
301.00000268221
 21
121.999999999999
  0
LINE
  5
2F4
100
AcDbEntity
  8
0
  6
CONTINUOUS
 62
           7
100
AcDbLine
 10
278.000002682209
 20
72.0
 11
278.000002682209
 21
122.0
  0
LINE
  5
2F3
100
AcDbEntity
  8
0
  6
CONTINUOUS
 62
           7
100
AcDbLine
 10
291.00000268221
 20
71.999999999999
 11
301.00000268221
 21
71.999999999999
  0
LINE
  5
2F2
100
AcDbEntity
  8
0
  6
CONTINUOUS
 62
           7
100
AcDbLine
 10
291.00000268221
 20
71.999999999999
 11
291.00000268221
 21
121.999999999999
  0
LINE
  5
2F1
100
AcDbEntity
  8
0
  6
CONTINUOUS
 62
           7
100
AcDbLine
 10
301.00000268221
 20
71.999999999999
 11
301.00000268221
 21
121.999999999999
  0
LINE
  5
2F0
100
AcDbEntity
  8
0
  6
CONTINUOUS
 62
           7
100
AcDbLine
 10
278.000002682209
 20
122.0
 11
288.00000268221
 21
121.999999999999
  0
LINE
  5
2EF
100
AcDbEntity
  8
0
  6
CONTINUOUS
 62
           7
100
AcDbLine
 10
278.000002682209
 20
72.0
 11
288.00000268221
 21
71.999999999999
  0
LINE
  5
2EE
100
AcDbEntity
  8
0
  6
CONTINUOUS
 62
           7
100
AcDbLine
 10
288.00000268221
 20
71.999999999999
 11
288.00000268221
 21
121.999999999999
  0
LINE
  5
2ED
100
AcDbEntity
  8
0
  6
CONTINUOUS
 62
           7
100
AcDbLine
 10
226.00000268221
 20
121.999999999999
 11
236.00000268221
 21
121.999999999999
  0
LINE
  5
2EC
100
AcDbEntity
  8
0
  6
CONTINUOUS
 62
           7
100
AcDbLine
 10
262.000002682209
 20
72.0
 11
262.000002682209
 21
122.0
  0
LINE
  5
2EB
100
AcDbEntity
  8
0
  6
CONTINUOUS
 62
           7
100
AcDbLine
 10
239.000002682209
 20
121.999999999999
 11
249.000002682209
 21
121.999999999999
  0
LINE
  5
2EA
100
AcDbEntity
  8
0
  6
CONTINUOUS
 62
           7
100
AcDbLine
 10
239.000002682209
 20
71.999999999999
 11
249.000002682209
 21
71.999999999999
  0
LINE
  5
2E9
100
AcDbEntity
  8
0
  6
CONTINUOUS
 62
           7
100
AcDbLine
 10
239.000002682209
 20
71.999999999999
 11
239.000002682209
 21
121.999999999999
  0
LINE
  5
2E8
100
AcDbEntity
  8
0
  6
CONTINUOUS
 62
           7
100
AcDbLine
 10
249.000002682209
 20
71.999999999999
 11
249.000002682209
 21
121.999999999999
  0
LINE
  5
2E7
100
AcDbEntity
  8
0
  6
CONTINUOUS
 62
           7
100
AcDbLine
 10
226.00000268221
 20
71.999999999999
 11
236.00000268221
 21
71.999999999999
  0
LINE
  5
2E6
100
AcDbEntity
  8
0
  6
CONTINUOUS
 62
           7
100
AcDbLine
 10
252.000002682209
 20
71.999999999999
 11
262.000002682209
 21
72.0
  0
LINE
  5
2E5
100
AcDbEntity
  8
0
  6
CONTINUOUS
 62
           7
100
AcDbLine
 10
265.00000268221
 20
121.999999999999
 11
275.00000268221
 21
121.999999999999
  0
LINE
  5
2E4
100
AcDbEntity
  8
0
  6
CONTINUOUS
 62
           7
100
AcDbLine
 10
265.00000268221
 20
71.999999999999
 11
275.00000268221
 21
71.999999999999
  0
LINE
  5
2E3
100
AcDbEntity
  8
0
  6
CONTINUOUS
 62
           7
100
AcDbLine
 10
265.00000268221
 20
71.999999999999
 11
265.00000268221
 21
121.999999999999
  0
LINE
  5
2E2
100
AcDbEntity
  8
0
  6
CONTINUOUS
 62
           7
100
AcDbLine
 10
275.00000268221
 20
71.999999999999
 11
275.00000268221
 21
121.999999999999
  0
LINE
  5
2E1
100
AcDbEntity
  8
0
  6
CONTINUOUS
 62
           7
100
AcDbLine
 10
252.000002682209
 20
121.999999999999
 11
262.000002682209
 21
122.0
  0
LINE
  5
2E0
100
AcDbEntity
  8
0
  6
CONTINUOUS
 62
           7
100
AcDbLine
 10
252.000002682209
 20
71.999999999999
 11
252.000002682209
 21
121.999999999999
  0
LINE
  5
2DF
100
AcDbEntity
  8
0
  6
CONTINUOUS
 62
           7
100
AcDbLine
 10
213.000002682209
 20
132.0
 11
213.000002682209
 21
182.0
  0
LINE
  5
2DE
100
AcDbEntity
  8
0
  6
CONTINUOUS
 62
           7
100
AcDbLine
 10
213.000002682209
 20
182.0
 11
223.00000268221
 21
181.999999999999
  0
LINE
  5
2DD
100
AcDbEntity
  8
0
  6
CONTINUOUS
 62
           7
100
AcDbLine
 10
213.000002682209
 20
132.0
 11
223.00000268221
 21
131.999999999999
  0
LINE
  5
2DC
100
AcDbEntity
  8
0
  6
CONTINUOUS
 62
           7
100
AcDbLine
 10
223.00000268221
 20
131.999999999999
 11
223.00000268221
 21
181.999999999999
  0
LINE
  5
2DB
100
AcDbEntity
  8
0
  6
CONTINUOUS
 62
           7
100
AcDbLine
 10
70.000002682209
 20
72.0
 11
70.000002682209
 21
121.999999999999
  0
LINE
  5
2DA
100
AcDbEntity
  8
0
  6
CONTINUOUS
 62
           7
100
AcDbLine
 10
67.000002682209
 20
72.0
 11
67.000002682209
 21
122.0
  0
LINE
  5
2D9
100
AcDbEntity
  8
0
  6
CONTINUOUS
 62
           7
100
AcDbLine
 10
57.000002682209
 20
72.0
 11
57.000002682209
 21
122.0
  0
LINE
  5
2D8
100
AcDbEntity
  8
0
  6
CONTINUOUS
 62
           7
100
AcDbLine
 10
57.000002682209
 20
72.0
 11
67.000002682209
 21
72.0
  0
LINE
  5
2D7
100
AcDbEntity
  8
0
  6
CONTINUOUS
 62
           7
100
AcDbLine
 10
57.000002682209
 20
122.0
 11
67.000002682209
 21
122.0
  0
LINE
  5
2D6
100
AcDbEntity
  8
0
  6
CONTINUOUS
 62
           7
100
AcDbLine
 10
80.000002682209
 20
72.0
 11
80.000002682209
 21
121.999999999999
  0
LINE
  5
2D5
100
AcDbEntity
  8
0
  6
CONTINUOUS
 62
           7
100
AcDbLine
 10
70.000002682209
 20
72.0
 11
80.000002682209
 21
72.0
  0
LINE
  5
2D4
100
AcDbEntity
  8
0
  6
CONTINUOUS
 62
           7
100
AcDbLine
 10
226.00000268221
 20
71.999999999999
 11
226.00000268221
 21
121.999999999999
  0
LINE
  5
2D3
100
AcDbEntity
  8
0
  6
CONTINUOUS
 62
           7
100
AcDbLine
 10
314.000002682209
 20
11.999999999999
 11
314.000002682209
 21
61.999999999999
  0
LINE
  5
2D2
100
AcDbEntity
  8
0
  6
CONTINUOUS
 62
           7
100
AcDbLine
 10
301.000002682209
 20
132.0
 11
301.000002682209
 21
182.0
  0
LINE
  5
2D1
100
AcDbEntity
  8
0
  6
CONTINUOUS
 62
           7
100
AcDbLine
 10
304.000002682209
 20
132.0
 11
304.000002682209
 21
182.0
  0
LINE
  5
2D0
100
AcDbEntity
  8
0
  6
CONTINUOUS
 62
           7
100
AcDbLine
 10
314.000002682209
 20
132.0
 11
314.000002682209
 21
182.0
  0
LINE
  5
2CF
100
AcDbEntity
  8
0
  6
CONTINUOUS
 62
           7
100
AcDbLine
 10
291.00000268221
 20
181.999999999999
 11
301.000002682209
 21
182.0
  0
LINE
  5
2CE
100
AcDbEntity
  8
0
  6
CONTINUOUS
 62
           7
100
AcDbLine
 10
291.00000268221
 20
131.999999999999
 11
301.000002682209
 21
132.0
  0
LINE
  5
2CD
100
AcDbEntity
  8
0
  6
CONTINUOUS
 62
           7
100
AcDbLine
 10
291.00000268221
 20
131.999999999999
 11
291.00000268221
 21
181.999999999999
  0
LINE
  5
2CC
100
AcDbEntity
  8
0
  6
CONTINUOUS
 62
           7
100
AcDbLine
 10
278.00000268221
 20
181.999999999999
 11
288.00000268221
 21
181.999999999999
  0
LINE
  5
2CB
100
AcDbEntity
  8
0
  6
CONTINUOUS
 62
           7
100
AcDbLine
 10
239.000002682209
 20
182.0
 11
249.000002682209
 21
182.0
  0
LINE
  5
2CA
100
AcDbEntity
  8
0
  6
CONTINUOUS
 62
           7
100
AcDbLine
 10
275.000002682209
 20
132.0
 11
275.000002682209
 21
182.0
  0
LINE
  5
2C9
100
AcDbEntity
  8
0
  6
CONTINUOUS
 62
           7
100
AcDbLine
 10
252.000002682209
 20
181.999999999999
 11
262.000002682209
 21
181.999999999999
  0
LINE
  5
2C8
100
AcDbEntity
  8
0
  6
CONTINUOUS
 62
           7
100
AcDbLine
 10
252.000002682209
 20
131.999999999999
 11
262.000002682209
 21
131.999999999999
  0
LINE
  5
2C7
100
AcDbEntity
  8
0
  6
CONTINUOUS
 62
           7
100
AcDbLine
 10
252.000002682209
 20
131.999999999999
 11
252.000002682209
 21
181.999999999999
  0
LINE
  5
2C6
100
AcDbEntity
  8
0
  6
CONTINUOUS
 62
           7
100
AcDbLine
 10
262.000002682209
 20
131.999999999999
 11
262.000002682209
 21
181.999999999999
  0
LINE
  5
2C5
100
AcDbEntity
  8
0
  6
CONTINUOUS
 62
           7
100
AcDbLine
 10
239.000002682209
 20
132.0
 11
249.000002682209
 21
132.0
  0
LINE
  5
2C4
100
AcDbEntity
  8
0
  6
CONTINUOUS
 62
           7
100
AcDbLine
 10
265.00000268221
 20
131.999999999999
 11
275.000002682209
 21
132.0
  0
LINE
  5
2C3
100
AcDbEntity
  8
0
  6
CONTINUOUS
 62
           7
100
AcDbLine
 10
278.00000268221
 20
131.999999999999
 11
288.00000268221
 21
131.999999999999
  0
LINE
  5
2C2
100
AcDbEntity
  8
0
  6
CONTINUOUS
 62
           7
100
AcDbLine
 10
278.00000268221
 20
131.999999999999
 11
278.00000268221
 21
181.999999999999
  0
LINE
  5
2C1
100
AcDbEntity
  8
0
  6
CONTINUOUS
 62
           7
100
AcDbLine
 10
288.00000268221
 20
131.999999999999
 11
288.00000268221
 21
181.999999999999
  0
LINE
  5
2C0
100
AcDbEntity
  8
0
  6
CONTINUOUS
 62
           7
100
AcDbLine
 10
265.00000268221
 20
181.999999999999
 11
275.000002682209
 21
182.0
  0
LINE
  5
2BF
100
AcDbEntity
  8
0
  6
CONTINUOUS
 62
           7
100
AcDbLine
 10
265.00000268221
 20
131.999999999999
 11
265.00000268221
 21
181.999999999999
  0
LINE
  5
2BE
100
AcDbEntity
  8
0
  6
CONTINUOUS
 62
           7
100
AcDbLine
 10
161.000002682209
 20
72.0
 11
161.000002682209
 21
122.0
  0
LINE
  5
2BD
100
AcDbEntity
  8
0
  6
CONTINUOUS
 62
           7
100
AcDbLine
 10
174.000002682209
 20
72.0
 11
174.000002682209
 21
122.0
  0
LINE
  5
2BC
100
AcDbEntity
  8
0
  6
CONTINUOUS
 62
           7
100
AcDbLine
 10
184.000002682209
 20
72.0
 11
184.000002682209
 21
122.0
  0
LINE
  5
2BB
100
AcDbEntity
  8
0
  6
CONTINUOUS
 62
           7
100
AcDbLine
 10
161.000002682209
 20
122.0
 11
171.00000268221
 21
121.999999999999
  0
LINE
  5
2BA
100
AcDbEntity
  8
0
  6
CONTINUOUS
 62
           7
100
AcDbLine
 10
161.000002682209
 20
72.0
 11
171.00000268221
 21
71.999999999999
  0
LINE
  5
2B9
100
AcDbEntity
  8
0
  6
CONTINUOUS
 62
           7
100
AcDbLine
 10
171.00000268221
 20
71.999999999999
 11
171.00000268221
 21
121.999999999999
  0
LINE
  5
2B8
100
AcDbEntity
  8
0
  6
CONTINUOUS
 62
           7
100
AcDbLine
 10
236.00000268221
 20
11.999999999999
 11
236.000002682209
 21
62.0
  0
LINE
  5
2B7
100
AcDbEntity
  8
0
  6
CONTINUOUS
 62
           7
100
AcDbLine
 10
223.00000268221
 20
11.999999999999
 11
223.00000268221
 21
61.999999999999
  0
LINE
  5
2B6
100
AcDbEntity
  8
0
  6
CONTINUOUS
 62
           7
100
AcDbLine
 10
226.000002682209
 20
62.0
 11
236.000002682209
 21
62.0
  0
LINE
  5
2B5
100
AcDbEntity
  8
0
  6
CONTINUOUS
 62
           7
100
AcDbLine
 10
200.000002682209
 20
62.0
 11
210.00000268221
 21
61.999999999999
  0
LINE
  5
2B4
100
AcDbEntity
  8
0
  6
CONTINUOUS
 62
           7
100
AcDbLine
 10
210.00000268221
 20
11.999999999999
 11
210.00000268221
 21
61.999999999999
  0
LINE
  5
2B3
100
AcDbEntity
  8
0
  6
CONTINUOUS
 62
           7
100
AcDbLine
 10
239.000002682209
 20
62.0
 11
249.000002682209
 21
62.0
  0
LINE
  5
2B2
100
AcDbEntity
  8
0
  6
CONTINUOUS
 62
           7
100
AcDbLine
 10
262.000002682209
 20
11.999999999999
 11
262.000002682209
 21
61.999999999999
  0
LINE
  5
2B1
100
AcDbEntity
  8
0
  6
CONTINUOUS
 62
           7
100
AcDbLine
 10
145.00000268221
 20
11.999999999999
 11
145.00000268221
 21
61.999999999999
  0
LINE
  5
2B0
100
AcDbEntity
  8
0
  6
CONTINUOUS
 62
           7
100
AcDbLine
 10
135.00000268221
 20
11.999999999999
 11
135.00000268221
 21
61.999999999999
  0
LINE
  5
2AF
100
AcDbEntity
  8
0
  6
CONTINUOUS
 62
           7
100
AcDbLine
 10
135.000002682209
 20
122.0
 11
145.000002682209
 21
122.0
  0
LINE
  5
2AE
100
AcDbEntity
  8
0
  6
CONTINUOUS
 62
           7
100
AcDbLine
 10
148.00000268221
 20
121.999999999999
 11
158.00000268221
 21
121.999999999999
  0
LINE
  5
2AD
100
AcDbEntity
  8
0
  6
CONTINUOUS
 62
           7
100
AcDbLine
 10
148.00000268221
 20
71.999999999999
 11
158.00000268221
 21
71.999999999999
  0
LINE
  5
2AC
100
AcDbEntity
  8
0
  6
CONTINUOUS
 62
           7
100
AcDbLine
 10
148.00000268221
 20
71.999999999999
 11
148.00000268221
 21
121.999999999999
  0
LINE
  5
2AB
100
AcDbEntity
  8
0
  6
CONTINUOUS
 62
           7
100
AcDbLine
 10
158.00000268221
 20
71.999999999999
 11
158.00000268221
 21
121.999999999999
  0
LINE
  5
2AA
100
AcDbEntity
  8
0
  6
CONTINUOUS
 62
           7
100
AcDbLine
 10
135.000002682209
 20
72.0
 11
145.000002682209
 21
72.0
  0
LINE
  5
2A9
100
AcDbEntity
  8
0
  6
CONTINUOUS
 62
           7
100
AcDbLine
 10
184.000002682209
 20
132.0
 11
184.000002682209
 21
182.0
  0
LINE
  5
2A8
100
AcDbEntity
  8
0
  6
CONTINUOUS
 62
           7
100
AcDbLine
 10
161.00000268221
 20
131.999999999999
 11
171.00000268221
 21
131.999999999999
  0
LINE
  5
2A7
100
AcDbEntity
  8
0
  6
CONTINUOUS
 62
           7
100
AcDbLine
 10
174.000002682209
 20
131.999999999999
 11
184.000002682209
 21
132.0
  0
LINE
  5
2A6
100
AcDbEntity
  8
0
  6
CONTINUOUS
 62
           7
100
AcDbLine
 10
174.000002682209
 20
181.999999999999
 11
184.000002682209
 21
182.0
  0
LINE
  5
2A5
100
AcDbEntity
  8
0
  6
CONTINUOUS
 62
           7
100
AcDbLine
 10
161.00000268221
 20
181.999999999999
 11
171.00000268221
 21
181.999999999999
  0
LINE
  5
2A4
100
AcDbEntity
  8
0
  6
CONTINUOUS
 62
           7
100
AcDbLine
 10
200.000002682209
 20
122.0
 11
210.000002682209
 21
122.0
  0
LINE
  5
2A3
100
AcDbEntity
  8
0
  6
CONTINUOUS
 62
           7
100
AcDbLine
 10
236.00000268221
 20
71.999999999999
 11
236.00000268221
 21
121.999999999999
  0
LINE
  5
2A2
100
AcDbEntity
  8
0
  6
CONTINUOUS
 62
           7
100
AcDbLine
 10
213.00000268221
 20
121.999999999999
 11
223.00000268221
 21
121.999999999999
  0
LINE
  5
2A1
100
AcDbEntity
  8
0
  6
CONTINUOUS
 62
           7
100
AcDbLine
 10
213.00000268221
 20
71.999999999999
 11
223.00000268221
 21
71.999999999999
  0
LINE
  5
2A0
100
AcDbEntity
  8
0
  6
CONTINUOUS
 62
           7
100
AcDbLine
 10
213.00000268221
 20
71.999999999999
 11
213.00000268221
 21
121.999999999999
  0
LINE
  5
29F
100
AcDbEntity
  8
0
  6
CONTINUOUS
 62
           7
100
AcDbLine
 10
223.00000268221
 20
71.999999999999
 11
223.00000268221
 21
121.999999999999
  0
LINE
  5
29E
100
AcDbEntity
  8
0
  6
CONTINUOUS
 62
           7
100
AcDbLine
 10
200.000002682209
 20
72.0
 11
210.000002682209
 21
72.0
  0
LINE
  5
29D
100
AcDbEntity
  8
0
  6
CONTINUOUS
 62
           7
100
AcDbLine
 10
174.000002682209
 20
72.0
 11
184.000002682209
 21
72.0
  0
LINE
  5
29C
100
AcDbEntity
  8
0
  6
CONTINUOUS
 62
           7
100
AcDbLine
 10
148.00000268221
 20
131.999999999999
 11
158.00000268221
 21
131.999999999999
  0
LINE
  5
29B
100
AcDbEntity
  8
0
  6
CONTINUOUS
 62
           7
100
AcDbLine
 10
174.000002682209
 20
12.0
 11
174.000002682209
 21
62.0
  0
LINE
  5
29A
100
AcDbEntity
  8
0
  6
CONTINUOUS
 62
           7
100
AcDbLine
 10
174.000002682209
 20
12.0
 11
184.000002682209
 21
11.999999999999
  0
LINE
  5
299
100
AcDbEntity
  8
0
  6
CONTINUOUS
 62
           7
100
AcDbLine
 10
161.00000268221
 20
11.999999999999
 11
171.00000268221
 21
11.999999999999
  0
LINE
  5
298
100
AcDbEntity
  8
0
  6
CONTINUOUS
 62
           7
100
AcDbLine
 10
174.000002682209
 20
62.0
 11
184.000002682209
 21
61.999999999999
  0
LINE
  5
297
100
AcDbEntity
  8
0
  6
CONTINUOUS
 62
           7
100
AcDbLine
 10
161.00000268221
 20
61.999999999999
 11
171.00000268221
 21
61.999999999999
  0
LINE
  5
296
100
AcDbEntity
  8
0
  6
CONTINUOUS
 62
           7
100
AcDbLine
 10
197.000002682209
 20
12.0
 11
197.000002682209
 21
62.0
  0
LINE
  5
295
100
AcDbEntity
  8
0
  6
CONTINUOUS
 62
           7
100
AcDbLine
 10
161.00000268221
 20
11.999999999999
 11
161.00000268221
 21
61.999999999999
  0
LINE
  5
294
100
AcDbEntity
  8
0
  6
CONTINUOUS
 62
           7
100
AcDbLine
 10
187.000002682209
 20
11.999999999999
 11
197.000002682209
 21
12.0
  0
LINE
  5
293
100
AcDbEntity
  8
0
  6
CONTINUOUS
 62
           7
100
AcDbLine
 10
187.000002682209
 20
61.999999999999
 11
197.000002682209
 21
62.0
  0
LINE
  5
292
100
AcDbEntity
  8
0
  6
CONTINUOUS
 62
           7
100
AcDbLine
 10
171.00000268221
 20
11.999999999999
 11
171.00000268221
 21
61.999999999999
  0
LINE
  5
291
100
AcDbEntity
  8
0
  6
CONTINUOUS
 62
           7
100
AcDbLine
 10
187.000002682209
 20
11.999999999999
 11
187.000002682209
 21
61.999999999999
  0
LINE
  5
290
100
AcDbEntity
  8
0
  6
CONTINUOUS
 62
           7
100
AcDbLine
 10
184.000002682209
 20
11.999999999999
 11
184.000002682209
 21
61.999999999999
  0
LINE
  5
28F
100
AcDbEntity
  8
0
  6
CONTINUOUS
 62
           7
100
AcDbLine
 10
145.000002682209
 20
132.0
 11
145.000002682209
 21
182.0
  0
LINE
  5
28E
100
AcDbEntity
  8
0
  6
CONTINUOUS
 62
           7
100
AcDbLine
 10
148.00000268221
 20
131.999999999999
 11
148.000002682209
 21
182.0
  0
LINE
  5
28D
100
AcDbEntity
  8
0
  6
CONTINUOUS
 62
           7
100
AcDbLine
 10
158.00000268221
 20
131.999999999999
 11
158.000002682209
 21
182.0
  0
LINE
  5
28C
100
AcDbEntity
  8
0
  6
CONTINUOUS
 62
           7
100
AcDbLine
 10
135.00000268221
 20
181.999999999999
 11
145.000002682209
 21
182.0
  0
LINE
  5
28B
100
AcDbEntity
  8
0
  6
CONTINUOUS
 62
           7
100
AcDbLine
 10
135.00000268221
 20
131.999999999999
 11
145.000002682209
 21
132.0
  0
LINE
  5
28A
100
AcDbEntity
  8
0
  6
CONTINUOUS
 62
           7
100
AcDbLine
 10
135.00000268221
 20
131.999999999999
 11
135.00000268221
 21
181.999999999999
  0
LINE
  5
289
100
AcDbEntity
  8
0
  6
CONTINUOUS
 62
           7
100
AcDbLine
 10
15.000002682209
 20
132.0
 11
15.000002682209
 21
182.0
  0
LINE
  5
288
100
AcDbEntity
  8
0
  6
CONTINUOUS
 62
           7
100
AcDbLine
 10
18.00000268221
 20
131.999999999999
 11
28.00000268221
 21
131.999999999999
  0
LINE
  5
287
100
AcDbEntity
  8
0
  6
CONTINUOUS
 62
           7
100
AcDbLine
 10
5.000002682209
 20
132.0
 11
5.000002682209
 21
182.0
  0
LINE
  5
286
100
AcDbEntity
  8
0
  6
CONTINUOUS
 62
           7
100
AcDbLine
 10
5.000002682209
 20
132.0
 11
15.000002682209
 21
132.0
  0
LINE
  5
285
100
AcDbEntity
  8
0
  6
CONTINUOUS
 62
           7
100
AcDbLine
 10
5.000002682209
 20
182.0
 11
15.000002682209
 21
182.0
  0
LINE
  5
284
100
AcDbEntity
  8
0
  6
CONTINUOUS
 62
           7
100
AcDbLine
 10
28.00000268221
 20
131.999999999999
 11
28.000002682209
 21
182.0
  0
LINE
  5
283
100
AcDbEntity
  8
0
  6
CONTINUOUS
 62
           7
100
AcDbLine
 10
18.00000268221
 20
131.999999999999
 11
18.000002682209
 21
182.0
  0
LINE
  5
282
100
AcDbEntity
  8
0
  6
CONTINUOUS
 62
           7
100
AcDbLine
 10
18.000002682209
 20
182.0
 11
28.000002682209
 21
182.0
  0
LINE
  5
281
100
AcDbEntity
  8
0
  6
CONTINUOUS
 62
           7
100
AcDbLine
 10
148.000002682209
 20
182.0
 11
158.000002682209
 21
182.0
  0
LINE
  5
280
100
AcDbEntity
  8
0
  6
CONTINUOUS
 62
           7
100
AcDbLine
 10
161.00000268221
 20
131.999999999999
 11
161.00000268221
 21
181.999999999999
  0
LINE
  5
27F
100
AcDbEntity
  8
0
  6
CONTINUOUS
 62
           7
100
AcDbLine
 10
174.000002682209
 20
131.999999999999
 11
174.000002682209
 21
181.999999999999
  0
LINE
  5
27E
100
AcDbEntity
  8
0
  6
CONTINUOUS
 62
           7
100
AcDbLine
 10
197.000002682209
 20
131.999999999999
 11
197.000002682209
 21
181.999999999999
  0
LINE
  5
27D
100
AcDbEntity
  8
0
  6
CONTINUOUS
 62
           7
100
AcDbLine
 10
171.00000268221
 20
131.999999999999
 11
171.00000268221
 21
181.999999999999
  0
LINE
  5
27C
100
AcDbEntity
  8
0
  6
CONTINUOUS
 62
           7
100
AcDbLine
 10
41.000002682209
 20
71.999999999999
 11
41.000002682209
 21
121.999999999999
  0
LINE
  5
27B
100
AcDbEntity
  8
0
  6
CONTINUOUS
 62
           7
100
AcDbLine
 10
28.000002682209
 20
72.0
 11
28.000002682209
 21
122.0
  0
LINE
  5
27A
100
AcDbEntity
  8
0
  6
CONTINUOUS
 62
           7
100
AcDbLine
 10
18.000002682209
 20
72.0
 11
18.000002682209
 21
122.0
  0
LINE
  5
279
100
AcDbEntity
  8
0
  6
CONTINUOUS
 62
           7
100
AcDbLine
 10
18.000002682209
 20
72.0
 11
28.000002682209
 21
72.0
  0
LINE
  5
278
100
AcDbEntity
  8
0
  6
CONTINUOUS
 62
           7
100
AcDbLine
 10
18.000002682209
 20
122.0
 11
28.000002682209
 21
122.0
  0
LINE
  5
277
100
AcDbEntity
  8
0
  6
CONTINUOUS
 62
           7
100
AcDbLine
 10
31.00000268221
 20
71.999999999999
 11
31.00000268221
 21
121.999999999999
  0
LINE
  5
276
100
AcDbEntity
  8
0
  6
CONTINUOUS
 62
           7
100
AcDbLine
 10
44.000002682209
 20
122.0
 11
54.000002682209
 21
122.0
  0
LINE
  5
275
100
AcDbEntity
  8
0
  6
CONTINUOUS
 62
           7
100
AcDbLine
 10
44.000002682209
 20
72.0
 11
54.000002682209
 21
72.0
  0
LINE
  5
274
100
AcDbEntity
  8
0
  6
CONTINUOUS
 62
           7
100
AcDbLine
 10
174.000002682209
 20
122.0
 11
184.000002682209
 21
122.0
  0
LINE
  5
273
100
AcDbEntity
  8
0
  6
CONTINUOUS
 62
           7
100
AcDbLine
 10
304.000002682209
 20
132.0
 11
314.000002682209
 21
132.0
  0
LINE
  5
272
100
AcDbEntity
  8
0
  6
CONTINUOUS
 62
           7
100
AcDbLine
 10
304.000002682209
 20
182.0
 11
314.000002682209
 21
182.0
  0
LINE
  5
271
100
AcDbEntity
  8
0
  6
CONTINUOUS
 62
           7
100
AcDbLine
 10
327.000002682209
 20
132.0
 11
327.000002682209
 21
182.0
  0
LINE
  5
270
100
AcDbEntity
  8
0
  6
CONTINUOUS
 62
           7
100
AcDbLine
 10
317.000002682209
 20
132.0
 11
317.000002682209
 21
182.0
  0
LINE
  5
26F
100
AcDbEntity
  8
0
  6
CONTINUOUS
 62
           7
100
AcDbLine
 10
317.000002682209
 20
132.0
 11
327.000002682209
 21
132.0
  0
LINE
  5
26E
100
AcDbEntity
  8
0
  6
CONTINUOUS
 62
           7
100
AcDbLine
 10
317.000002682209
 20
182.0
 11
327.000002682209
 21
182.0
  0
LINE
  5
26D
100
AcDbEntity
  8
0
  6
CONTINUOUS
 62
           7
100
AcDbLine
 10
340.000002682209
 20
132.0
 11
340.000002682209
 21
182.0
  0
LINE
  5
26C
100
AcDbEntity
  8
0
  6
CONTINUOUS
 62
           7
100
AcDbLine
 10
330.000002682209
 20
132.0
 11
330.000002682209
 21
182.0
  0
LINE
  5
26B
100
AcDbEntity
  8
0
  6
CONTINUOUS
 62
           7
100
AcDbLine
 10
330.000002682209
 20
132.0
 11
340.000002682209
 21
132.0
  0
LINE
  5
26A
100
AcDbEntity
  8
0
  6
CONTINUOUS
 62
           7
100
AcDbLine
 10
330.000002682209
 20
182.0
 11
340.000002682209
 21
182.0
  0
LINE
  5
269
100
AcDbEntity
  8
0
  6
CONTINUOUS
 62
           7
100
AcDbLine
 10
353.000002682209
 20
132.0
 11
353.000002682209
 21
182.0
  0
LINE
  5
268
100
AcDbEntity
  8
0
  6
CONTINUOUS
 62
           7
100
AcDbLine
 10
343.000002682209
 20
132.0
 11
343.000002682209
 21
182.0
  0
LINE
  5
267
100
AcDbEntity
  8
0
  6
CONTINUOUS
 62
           7
100
AcDbLine
 10
343.000002682209
 20
132.0
 11
353.000002682209
 21
132.0
  0
LINE
  5
266
100
AcDbEntity
  8
0
  6
CONTINUOUS
 62
           7
100
AcDbLine
 10
343.000002682209
 20
182.0
 11
353.000002682209
 21
182.0
  0
LINE
  5
265
100
AcDbEntity
  8
0
  6
CONTINUOUS
 62
           7
100
AcDbLine
 10
366.000002682209
 20
132.0
 11
366.000002682209
 21
182.0
  0
LINE
  5
264
100
AcDbEntity
  8
0
  6
CONTINUOUS
 62
           7
100
AcDbLine
 10
356.000002682209
 20
132.0
 11
356.000002682209
 21
182.0
  0
LINE
  5
263
100
AcDbEntity
  8
0
  6
CONTINUOUS
 62
           7
100
AcDbLine
 10
356.000002682209
 20
132.0
 11
366.000002682209
 21
132.0
  0
LINE
  5
262
100
AcDbEntity
  8
0
  6
CONTINUOUS
 62
           7
100
AcDbLine
 10
356.000002682209
 20
182.0
 11
366.000002682209
 21
182.0
  0
LINE
  5
261
100
AcDbEntity
  8
0
  6
CONTINUOUS
 62
           7
100
AcDbLine
 10
122.000002682209
 20
241.999999999999
 11
132.000002682209
 21
241.999999999999
  0
LINE
  5
260
100
AcDbEntity
  8
0
  6
CONTINUOUS
 62
           7
100
AcDbLine
 10
122.000002682209
 20
191.999999999999
 11
132.000002682209
 21
191.999999999999
  0
LINE
  5
25F
100
AcDbEntity
  8
0
  6
CONTINUOUS
 62
           7
100
AcDbLine
 10
122.000002682209
 20
191.999999999999
 11
122.000002682209
 21
241.999999999999
  0
LINE
  5
25E
100
AcDbEntity
  8
0
  6
CONTINUOUS
 62
           7
100
AcDbLine
 10
132.000002682209
 20
191.999999999999
 11
132.000002682209
 21
241.999999999999
  0
LINE
  5
25D
100
AcDbEntity
  8
0
  6
CONTINUOUS
 62
           7
100
AcDbLine
 10
109.000002682209
 20
241.999999999999
 11
119.000002682209
 21
241.999999999999
  0
LINE
  5
25C
100
AcDbEntity
  8
0
  6
CONTINUOUS
 62
           7
100
AcDbLine
 10
109.000002682209
 20
191.999999999999
 11
119.000002682209
 21
191.999999999999
  0
LINE
  5
25B
100
AcDbEntity
  8
0
  6
CONTINUOUS
 62
           7
100
AcDbLine
 10
109.000002682209
 20
191.999999999999
 11
109.000002682209
 21
241.999999999999
  0
LINE
  5
25A
100
AcDbEntity
  8
0
  6
CONTINUOUS
 62
           7
100
AcDbLine
 10
119.000002682209
 20
191.999999999999
 11
119.000002682209
 21
241.999999999999
  0
LINE
  5
259
100
AcDbEntity
  8
0
  6
CONTINUOUS
 62
           7
100
AcDbLine
 10
96.000002682209
 20
241.999999999999
 11
106.00000268221
 21
241.999999999999
  0
LINE
  5
258
100
AcDbEntity
  8
0
  6
CONTINUOUS
 62
           7
100
AcDbLine
 10
96.000002682209
 20
191.999999999999
 11
106.00000268221
 21
191.999999999999
  0
LINE
  5
257
100
AcDbEntity
  8
0
  6
CONTINUOUS
 62
           7
100
AcDbLine
 10
96.000002682209
 20
191.999999999999
 11
96.000002682209
 21
241.999999999999
  0
LINE
  5
256
100
AcDbEntity
  8
0
  6
CONTINUOUS
 62
           7
100
AcDbLine
 10
106.00000268221
 20
191.999999999999
 11
106.00000268221
 21
241.999999999999
  0
LINE
  5
255
100
AcDbEntity
  8
0
  6
CONTINUOUS
 62
           7
100
AcDbLine
 10
83.000002682209
 20
241.999999999999
 11
93.000002682209
 21
241.999999999999
  0
LINE
  5
254
100
AcDbEntity
  8
0
  6
CONTINUOUS
 62
           7
100
AcDbLine
 10
83.000002682209
 20
191.999999999999
 11
93.000002682209
 21
191.999999999999
  0
LINE
  5
253
100
AcDbEntity
  8
0
  6
CONTINUOUS
 62
           7
100
AcDbLine
 10
83.000002682209
 20
191.999999999999
 11
83.000002682209
 21
241.999999999999
  0
LINE
  5
252
100
AcDbEntity
  8
0
  6
CONTINUOUS
 62
           7
100
AcDbLine
 10
93.000002682209
 20
191.999999999999
 11
93.000002682209
 21
241.999999999999
  0
LINE
  5
251
100
AcDbEntity
  8
0
  6
CONTINUOUS
 62
           7
100
AcDbLine
 10
70.000002682209
 20
241.999999999999
 11
80.000002682209
 21
241.999999999999
  0
LINE
  5
250
100
AcDbEntity
  8
0
  6
CONTINUOUS
 62
           7
100
AcDbLine
 10
70.000002682209
 20
191.999999999999
 11
80.000002682209
 21
191.999999999999
  0
LINE
  5
24F
100
AcDbEntity
  8
0
  6
CONTINUOUS
 62
           7
100
AcDbLine
 10
70.000002682209
 20
191.999999999999
 11
70.000002682209
 21
241.999999999999
  0
LINE
  5
24E
100
AcDbEntity
  8
0
  6
CONTINUOUS
 62
           7
100
AcDbLine
 10
80.000002682209
 20
191.999999999999
 11
80.000002682209
 21
241.999999999999
  0
LINE
  5
24D
100
AcDbEntity
  8
0
  6
CONTINUOUS
 62
           7
100
AcDbLine
 10
57.000002682209
 20
241.999999999999
 11
67.000002682209
 21
241.999999999999
  0
LINE
  5
24C
100
AcDbEntity
  8
0
  6
CONTINUOUS
 62
           7
100
AcDbLine
 10
57.000002682209
 20
191.999999999999
 11
67.000002682209
 21
191.999999999999
  0
LINE
  5
24B
100
AcDbEntity
  8
0
  6
CONTINUOUS
 62
           7
100
AcDbLine
 10
57.000002682209
 20
191.999999999999
 11
57.000002682209
 21
241.999999999999
  0
LINE
  5
24A
100
AcDbEntity
  8
0
  6
CONTINUOUS
 62
           7
100
AcDbLine
 10
67.000002682209
 20
191.999999999999
 11
67.000002682209
 21
241.999999999999
  0
LINE
  5
249
100
AcDbEntity
  8
0
  6
CONTINUOUS
 62
           7
100
AcDbLine
 10
44.000002682209
 20
241.999999999999
 11
54.000002682209
 21
241.999999999999
  0
LINE
  5
248
100
AcDbEntity
  8
0
  6
CONTINUOUS
 62
           7
100
AcDbLine
 10
44.000002682209
 20
191.999999999999
 11
54.000002682209
 21
191.999999999999
  0
LINE
  5
247
100
AcDbEntity
  8
0
  6
CONTINUOUS
 62
           7
100
AcDbLine
 10
44.000002682209
 20
191.999999999999
 11
44.000002682209
 21
241.999999999999
  0
LINE
  5
246
100
AcDbEntity
  8
0
  6
CONTINUOUS
 62
           7
100
AcDbLine
 10
54.000002682209
 20
191.999999999999
 11
54.000002682209
 21
241.999999999999
  0
LINE
  5
245
100
AcDbEntity
  8
0
  6
CONTINUOUS
 62
           7
100
AcDbLine
 10
31.00000268221
 20
241.999999999999
 11
41.000002682209
 21
241.999999999999
  0
LINE
  5
244
100
AcDbEntity
  8
0
  6
CONTINUOUS
 62
           7
100
AcDbLine
 10
31.00000268221
 20
191.999999999999
 11
41.000002682209
 21
191.999999999999
  0
LINE
  5
243
100
AcDbEntity
  8
0
  6
CONTINUOUS
 62
           7
100
AcDbLine
 10
31.00000268221
 20
191.999999999999
 11
31.00000268221
 21
241.999999999999
  0
LINE
  5
242
100
AcDbEntity
  8
0
  6
CONTINUOUS
 62
           7
100
AcDbLine
 10
41.000002682209
 20
191.999999999999
 11
41.000002682209
 21
241.999999999999
  0
LINE
  5
241
100
AcDbEntity
  8
0
  6
CONTINUOUS
 62
           7
100
AcDbLine
 10
18.00000268221
 20
241.999999999999
 11
28.00000268221
 21
241.999999999999
  0
LINE
  5
240
100
AcDbEntity
  8
0
  6
CONTINUOUS
 62
           7
100
AcDbLine
 10
18.00000268221
 20
191.999999999999
 11
28.00000268221
 21
191.999999999999
  0
LINE
  5
23F
100
AcDbEntity
  8
0
  6
CONTINUOUS
 62
           7
100
AcDbLine
 10
18.00000268221
 20
191.999999999999
 11
18.00000268221
 21
241.999999999999
  0
LINE
  5
23E
100
AcDbEntity
  8
0
  6
CONTINUOUS
 62
           7
100
AcDbLine
 10
28.00000268221
 20
191.999999999999
 11
28.00000268221
 21
241.999999999999
  0
LINE
  5
23D
100
AcDbEntity
  8
0
  6
CONTINUOUS
 62
           7
100
AcDbLine
 10
5.000002682209
 20
241.999999999999
 11
15.00000268221
 21
241.999999999999
  0
LINE
  5
23C
100
AcDbEntity
  8
0
  6
CONTINUOUS
 62
           7
100
AcDbLine
 10
5.000002682209
 20
191.999999999999
 11
15.00000268221
 21
191.999999999999
  0
LINE
  5
23B
100
AcDbEntity
  8
0
  6
CONTINUOUS
 62
           7
100
AcDbLine
 10
5.000002682209
 20
191.999999999999
 11
5.000002682209
 21
241.999999999999
  0
LINE
  5
23A
100
AcDbEntity
  8
0
  6
CONTINUOUS
 62
           7
100
AcDbLine
 10
15.00000268221
 20
191.999999999999
 11
15.00000268221
 21
241.999999999999
  0
LINE
  5
239
100
AcDbEntity
  8
0
  6
CONTINUOUS
 62
           7
100
AcDbLine
 10
145.000002682209
 20
192.0
 11
145.000002682209
 21
242.0
  0
LINE
  5
238
100
AcDbEntity
  8
0
  6
CONTINUOUS
 62
           7
100
AcDbLine
 10
135.000002682209
 20
192.0
 11
135.000002682209
 21
242.0
  0
LINE
  5
237
100
AcDbEntity
  8
0
  6
CONTINUOUS
 62
           7
100
AcDbLine
 10
135.000002682209
 20
192.0
 11
145.000002682209
 21
192.0
  0
LINE
  5
236
100
AcDbEntity
  8
0
  6
CONTINUOUS
 62
           7
100
AcDbLine
 10
135.000002682209
 20
242.0
 11
145.000002682209
 21
242.0
  0
LINE
  5
235
100
AcDbEntity
  8
0
  6
CONTINUOUS
 62
           7
100
AcDbLine
 10
158.000002682209
 20
192.0
 11
158.000002682209
 21
242.0
  0
LINE
  5
234
100
AcDbEntity
  8
0
  6
CONTINUOUS
 62
           7
100
AcDbLine
 10
148.000002682209
 20
192.0
 11
148.000002682209
 21
242.0
  0
LINE
  5
233
100
AcDbEntity
  8
0
  6
CONTINUOUS
 62
           7
100
AcDbLine
 10
148.000002682209
 20
192.0
 11
158.000002682209
 21
192.0
  0
LINE
  5
232
100
AcDbEntity
  8
0
  6
CONTINUOUS
 62
           7
100
AcDbLine
 10
148.000002682209
 20
242.0
 11
158.000002682209
 21
242.0
  0
LINE
  5
231
100
AcDbEntity
  8
0
  6
CONTINUOUS
 62
           7
100
AcDbLine
 10
171.000002682209
 20
192.0
 11
171.000002682209
 21
242.0
  0
LINE
  5
230
100
AcDbEntity
  8
0
  6
CONTINUOUS
 62
           7
100
AcDbLine
 10
161.000002682209
 20
192.0
 11
161.000002682209
 21
242.0
  0
LINE
  5
22F
100
AcDbEntity
  8
0
  6
CONTINUOUS
 62
           7
100
AcDbLine
 10
161.000002682209
 20
192.0
 11
171.000002682209
 21
192.0
  0
LINE
  5
22E
100
AcDbEntity
  8
0
  6
CONTINUOUS
 62
           7
100
AcDbLine
 10
161.000002682209
 20
242.0
 11
171.000002682209
 21
242.0
  0
LINE
  5
22D
100
AcDbEntity
  8
0
  6
CONTINUOUS
 62
           7
100
AcDbLine
 10
184.000002682209
 20
192.0
 11
184.000002682209
 21
242.0
  0
LINE
  5
22C
100
AcDbEntity
  8
0
  6
CONTINUOUS
 62
           7
100
AcDbLine
 10
174.000002682209
 20
192.0
 11
174.000002682209
 21
242.0
  0
LINE
  5
22B
100
AcDbEntity
  8
0
  6
CONTINUOUS
 62
           7
100
AcDbLine
 10
174.000002682209
 20
192.0
 11
184.000002682209
 21
192.0
  0
LINE
  5
22A
100
AcDbEntity
  8
0
  6
CONTINUOUS
 62
           7
100
AcDbLine
 10
174.000002682209
 20
242.0
 11
184.000002682209
 21
242.0
  0
LINE
  5
229
100
AcDbEntity
  8
0
  6
CONTINUOUS
 62
           7
100
AcDbLine
 10
197.000002682209
 20
192.0
 11
197.000002682209
 21
242.0
  0
LINE
  5
228
100
AcDbEntity
  8
0
  6
CONTINUOUS
 62
           7
100
AcDbLine
 10
187.000002682209
 20
192.0
 11
187.000002682209
 21
242.0
  0
LINE
  5
227
100
AcDbEntity
  8
0
  6
CONTINUOUS
 62
           7
100
AcDbLine
 10
187.000002682209
 20
192.0
 11
197.000002682209
 21
192.0
  0
LINE
  5
226
100
AcDbEntity
  8
0
  6
CONTINUOUS
 62
           7
100
AcDbLine
 10
187.000002682209
 20
242.0
 11
197.000002682209
 21
242.0
  0
LINE
  5
225
100
AcDbEntity
  8
0
  6
CONTINUOUS
 62
           7
100
AcDbLine
 10
210.000002682209
 20
192.0
 11
210.000002682209
 21
242.0
  0
LINE
  5
224
100
AcDbEntity
  8
0
  6
CONTINUOUS
 62
           7
100
AcDbLine
 10
200.000002682209
 20
192.0
 11
200.000002682209
 21
242.0
  0
LINE
  5
223
100
AcDbEntity
  8
0
  6
CONTINUOUS
 62
           7
100
AcDbLine
 10
200.000002682209
 20
192.0
 11
210.000002682209
 21
192.0
  0
LINE
  5
222
100
AcDbEntity
  8
0
  6
CONTINUOUS
 62
           7
100
AcDbLine
 10
200.000002682209
 20
242.0
 11
210.000002682209
 21
242.0
  0
LINE
  5
221
100
AcDbEntity
  8
0
  6
CONTINUOUS
 62
           7
100
AcDbLine
 10
223.000002682209
 20
192.0
 11
223.000002682209
 21
242.0
  0
LINE
  5
220
100
AcDbEntity
  8
0
  6
CONTINUOUS
 62
           7
100
AcDbLine
 10
213.000002682209
 20
192.0
 11
213.000002682209
 21
242.0
  0
LINE
  5
21F
100
AcDbEntity
  8
0
  6
CONTINUOUS
 62
           7
100
AcDbLine
 10
213.000002682209
 20
192.0
 11
223.000002682209
 21
192.0
  0
LINE
  5
21E
100
AcDbEntity
  8
0
  6
CONTINUOUS
 62
           7
100
AcDbLine
 10
213.000002682209
 20
242.0
 11
223.000002682209
 21
242.0
  0
LINE
  5
21D
100
AcDbEntity
  8
0
  6
CONTINUOUS
 62
           7
100
AcDbLine
 10
236.000002682209
 20
192.0
 11
236.000002682209
 21
242.0
  0
LINE
  5
21C
100
AcDbEntity
  8
0
  6
CONTINUOUS
 62
           7
100
AcDbLine
 10
226.000002682209
 20
192.0
 11
226.000002682209
 21
242.0
  0
LINE
  5
21B
100
AcDbEntity
  8
0
  6
CONTINUOUS
 62
           7
100
AcDbLine
 10
226.000002682209
 20
192.0
 11
236.000002682209
 21
192.0
  0
LINE
  5
21A
100
AcDbEntity
  8
0
  6
CONTINUOUS
 62
           7
100
AcDbLine
 10
226.000002682209
 20
242.0
 11
236.000002682209
 21
242.0
  0
LINE
  5
219
100
AcDbEntity
  8
0
  6
CONTINUOUS
 62
           7
100
AcDbLine
 10
249.000002682209
 20
192.0
 11
249.000002682209
 21
242.0
  0
LINE
  5
218
100
AcDbEntity
  8
0
  6
CONTINUOUS
 62
           7
100
AcDbLine
 10
239.000002682209
 20
192.0
 11
239.000002682209
 21
242.0
  0
LINE
  5
217
100
AcDbEntity
  8
0
  6
CONTINUOUS
 62
           7
100
AcDbLine
 10
239.000002682209
 20
192.0
 11
249.000002682209
 21
192.0
  0
LINE
  5
216
100
AcDbEntity
  8
0
  6
CONTINUOUS
 62
           7
100
AcDbLine
 10
239.000002682209
 20
242.0
 11
249.000002682209
 21
242.0
  0
LINE
  5
215
100
AcDbEntity
  8
0
  6
CONTINUOUS
 62
           7
100
AcDbLine
 10
262.000002682209
 20
192.0
 11
262.000002682209
 21
242.0
  0
LINE
  5
214
100
AcDbEntity
  8
0
  6
CONTINUOUS
 62
           7
100
AcDbLine
 10
252.000002682209
 20
192.0
 11
252.000002682209
 21
242.0
  0
LINE
  5
213
100
AcDbEntity
  8
0
  6
CONTINUOUS
 62
           7
100
AcDbLine
 10
252.000002682209
 20
192.0
 11
262.000002682209
 21
192.0
  0
LINE
  5
212
100
AcDbEntity
  8
0
  6
CONTINUOUS
 62
           7
100
AcDbLine
 10
252.000002682209
 20
242.0
 11
262.000002682209
 21
242.0
  0
LINE
  5
211
100
AcDbEntity
  8
0
  6
CONTINUOUS
 62
           7
100
AcDbLine
 10
275.000002682209
 20
192.0
 11
275.000002682209
 21
242.0
  0
LINE
  5
210
100
AcDbEntity
  8
0
  6
CONTINUOUS
 62
           7
100
AcDbLine
 10
265.000002682209
 20
192.0
 11
265.000002682209
 21
242.0
  0
LINE
  5
20F
100
AcDbEntity
  8
0
  6
CONTINUOUS
 62
           7
100
AcDbLine
 10
265.000002682209
 20
192.0
 11
275.000002682209
 21
192.0
  0
LINE
  5
20E
100
AcDbEntity
  8
0
  6
CONTINUOUS
 62
           7
100
AcDbLine
 10
265.000002682209
 20
242.0
 11
275.000002682209
 21
242.0
  0
LINE
  5
20D
100
AcDbEntity
  8
0
  6
CONTINUOUS
 62
           7
100
AcDbLine
 10
288.000002682209
 20
192.0
 11
288.000002682209
 21
242.0
  0
LINE
  5
20C
100
AcDbEntity
  8
0
  6
CONTINUOUS
 62
           7
100
AcDbLine
 10
278.000002682209
 20
192.0
 11
278.000002682209
 21
242.0
  0
LINE
  5
20B
100
AcDbEntity
  8
0
  6
CONTINUOUS
 62
           7
100
AcDbLine
 10
278.000002682209
 20
192.0
 11
288.000002682209
 21
192.0
  0
LINE
  5
20A
100
AcDbEntity
  8
0
  6
CONTINUOUS
 62
           7
100
AcDbLine
 10
278.000002682209
 20
242.0
 11
288.000002682209
 21
242.0
  0
LINE
  5
209
100
AcDbEntity
  8
0
  6
CONTINUOUS
 62
           7
100
AcDbLine
 10
301.000002682209
 20
192.0
 11
301.000002682209
 21
242.0
  0
LINE
  5
208
100
AcDbEntity
  8
0
  6
CONTINUOUS
 62
           7
100
AcDbLine
 10
291.000002682209
 20
192.0
 11
291.000002682209
 21
242.0
  0
LINE
  5
207
100
AcDbEntity
  8
0
  6
CONTINUOUS
 62
           7
100
AcDbLine
 10
291.000002682209
 20
192.0
 11
301.000002682209
 21
192.0
  0
LINE
  5
206
100
AcDbEntity
  8
0
  6
CONTINUOUS
 62
           7
100
AcDbLine
 10
291.000002682209
 20
242.0
 11
301.000002682209
 21
242.0
  0
LINE
  5
205
100
AcDbEntity
  8
0
  6
CONTINUOUS
 62
           7
100
AcDbLine
 10
314.000002682209
 20
192.0
 11
314.000002682209
 21
242.0
  0
LINE
  5
204
100
AcDbEntity
  8
0
  6
CONTINUOUS
 62
           7
100
AcDbLine
 10
304.000002682209
 20
192.0
 11
304.000002682209
 21
242.0
  0
LINE
  5
203
100
AcDbEntity
  8
0
  6
CONTINUOUS
 62
           7
100
AcDbLine
 10
304.000002682209
 20
192.0
 11
314.000002682209
 21
192.0
  0
LINE
  5
202
100
AcDbEntity
  8
0
  6
CONTINUOUS
 62
           7
100
AcDbLine
 10
304.000002682209
 20
242.0
 11
314.000002682209
 21
242.0
  0
LINE
  5
201
100
AcDbEntity
  8
0
  6
CONTINUOUS
 62
           7
100
AcDbLine
 10
327.000002682209
 20
192.0
 11
327.000002682209
 21
242.0
  0
LINE
  5
200
100
AcDbEntity
  8
0
  6
CONTINUOUS
 62
           7
100
AcDbLine
 10
317.000002682209
 20
192.0
 11
317.000002682209
 21
242.0
  0
LINE
  5
1FF
100
AcDbEntity
  8
0
  6
CONTINUOUS
 62
           7
100
AcDbLine
 10
317.000002682209
 20
192.0
 11
327.000002682209
 21
192.0
  0
LINE
  5
1FE
100
AcDbEntity
  8
0
  6
CONTINUOUS
 62
           7
100
AcDbLine
 10
317.000002682209
 20
242.0
 11
327.000002682209
 21
242.0
  0
LINE
  5
1FD
100
AcDbEntity
  8
0
  6
CONTINUOUS
 62
           7
100
AcDbLine
 10
340.000002682209
 20
192.0
 11
340.000002682209
 21
242.0
  0
LINE
  5
1FC
100
AcDbEntity
  8
0
  6
CONTINUOUS
 62
           7
100
AcDbLine
 10
330.000002682209
 20
192.0
 11
330.000002682209
 21
242.0
  0
LINE
  5
1FB
100
AcDbEntity
  8
0
  6
CONTINUOUS
 62
           7
100
AcDbLine
 10
330.000002682209
 20
192.0
 11
340.000002682209
 21
192.0
  0
LINE
  5
1FA
100
AcDbEntity
  8
0
  6
CONTINUOUS
 62
           7
100
AcDbLine
 10
330.000002682209
 20
242.0
 11
340.000002682209
 21
242.0
  0
LINE
  5
1F9
100
AcDbEntity
  8
0
  6
CONTINUOUS
 62
           7
100
AcDbLine
 10
353.000002682209
 20
192.0
 11
353.000002682209
 21
242.0
  0
LINE
  5
1F8
100
AcDbEntity
  8
0
  6
CONTINUOUS
 62
           7
100
AcDbLine
 10
343.000002682209
 20
192.0
 11
343.000002682209
 21
242.0
  0
LINE
  5
1F7
100
AcDbEntity
  8
0
  6
CONTINUOUS
 62
           7
100
AcDbLine
 10
343.000002682209
 20
192.0
 11
353.000002682209
 21
192.0
  0
LINE
  5
1F6
100
AcDbEntity
  8
0
  6
CONTINUOUS
 62
           7
100
AcDbLine
 10
343.000002682209
 20
242.0
 11
353.000002682209
 21
242.0
  0
LINE
  5
1F5
100
AcDbEntity
  8
0
  6
CONTINUOUS
 62
           7
100
AcDbLine
 10
366.000002682209
 20
192.0
 11
366.000002682209
 21
242.0
  0
LINE
  5
1F4
100
AcDbEntity
  8
0
  6
CONTINUOUS
 62
           7
100
AcDbLine
 10
356.000002682209
 20
192.0
 11
356.000002682209
 21
242.0
  0
LINE
  5
1F3
100
AcDbEntity
  8
0
  6
CONTINUOUS
 62
           7
100
AcDbLine
 10
356.000002682209
 20
192.0
 11
366.000002682209
 21
192.0
  0
LINE
  5
1F2
100
AcDbEntity
  8
0
  6
CONTINUOUS
 62
           7
100
AcDbLine
 10
356.000002682209
 20
242.0
 11
366.000002682209
 21
242.0
  0
LINE
  5
1F1
100
AcDbEntity
  8
0
  6
CONTINUOUS
 62
           7
100
AcDbLine
 10
122.000002682209
 20
301.999999999999
 11
132.000002682209
 21
301.999999999999
  0
LINE
  5
1F0
100
AcDbEntity
  8
0
  6
CONTINUOUS
 62
           7
100
AcDbLine
 10
122.000002682209
 20
251.999999999999
 11
132.000002682209
 21
251.999999999999
  0
LINE
  5
1EF
100
AcDbEntity
  8
0
  6
CONTINUOUS
 62
           7
100
AcDbLine
 10
122.000002682209
 20
251.999999999999
 11
122.000002682209
 21
301.999999999999
  0
LINE
  5
1EE
100
AcDbEntity
  8
0
  6
CONTINUOUS
 62
           7
100
AcDbLine
 10
132.000002682209
 20
251.999999999999
 11
132.000002682209
 21
301.999999999999
  0
LINE
  5
1ED
100
AcDbEntity
  8
0
  6
CONTINUOUS
 62
           7
100
AcDbLine
 10
109.000002682209
 20
301.999999999999
 11
119.000002682209
 21
301.999999999999
  0
LINE
  5
1EC
100
AcDbEntity
  8
0
  6
CONTINUOUS
 62
           7
100
AcDbLine
 10
109.000002682209
 20
251.999999999999
 11
119.000002682209
 21
251.999999999999
  0
LINE
  5
1EB
100
AcDbEntity
  8
0
  6
CONTINUOUS
 62
           7
100
AcDbLine
 10
109.000002682209
 20
251.999999999999
 11
109.000002682209
 21
301.999999999999
  0
LINE
  5
1EA
100
AcDbEntity
  8
0
  6
CONTINUOUS
 62
           7
100
AcDbLine
 10
119.000002682209
 20
251.999999999999
 11
119.000002682209
 21
301.999999999999
  0
LINE
  5
1E9
100
AcDbEntity
  8
0
  6
CONTINUOUS
 62
           7
100
AcDbLine
 10
96.000002682209
 20
301.999999999999
 11
106.00000268221
 21
301.999999999999
  0
LINE
  5
1E8
100
AcDbEntity
  8
0
  6
CONTINUOUS
 62
           7
100
AcDbLine
 10
96.000002682209
 20
251.999999999999
 11
106.00000268221
 21
251.999999999999
  0
LINE
  5
1E7
100
AcDbEntity
  8
0
  6
CONTINUOUS
 62
           7
100
AcDbLine
 10
96.000002682209
 20
251.999999999999
 11
96.000002682209
 21
301.999999999999
  0
LINE
  5
1E6
100
AcDbEntity
  8
0
  6
CONTINUOUS
 62
           7
100
AcDbLine
 10
106.00000268221
 20
251.999999999999
 11
106.00000268221
 21
301.999999999999
  0
LINE
  5
1E5
100
AcDbEntity
  8
0
  6
CONTINUOUS
 62
           7
100
AcDbLine
 10
83.000002682209
 20
301.999999999999
 11
93.000002682209
 21
301.999999999999
  0
LINE
  5
1E4
100
AcDbEntity
  8
0
  6
CONTINUOUS
 62
           7
100
AcDbLine
 10
83.000002682209
 20
251.999999999999
 11
93.000002682209
 21
251.999999999999
  0
LINE
  5
1E3
100
AcDbEntity
  8
0
  6
CONTINUOUS
 62
           7
100
AcDbLine
 10
83.000002682209
 20
251.999999999999
 11
83.000002682209
 21
301.999999999999
  0
LINE
  5
1E2
100
AcDbEntity
  8
0
  6
CONTINUOUS
 62
           7
100
AcDbLine
 10
93.000002682209
 20
251.999999999999
 11
93.000002682209
 21
301.999999999999
  0
LINE
  5
1E1
100
AcDbEntity
  8
0
  6
CONTINUOUS
 62
           7
100
AcDbLine
 10
70.000002682209
 20
301.999999999999
 11
80.000002682209
 21
301.999999999999
  0
LINE
  5
1E0
100
AcDbEntity
  8
0
  6
CONTINUOUS
 62
           7
100
AcDbLine
 10
70.000002682209
 20
251.999999999999
 11
80.000002682209
 21
251.999999999999
  0
LINE
  5
1DF
100
AcDbEntity
  8
0
  6
CONTINUOUS
 62
           7
100
AcDbLine
 10
70.000002682209
 20
251.999999999999
 11
70.000002682209
 21
301.999999999999
  0
LINE
  5
1DE
100
AcDbEntity
  8
0
  6
CONTINUOUS
 62
           7
100
AcDbLine
 10
80.000002682209
 20
251.999999999999
 11
80.000002682209
 21
301.999999999999
  0
LINE
  5
1DD
100
AcDbEntity
  8
0
  6
CONTINUOUS
 62
           7
100
AcDbLine
 10
57.000002682209
 20
301.999999999999
 11
67.000002682209
 21
301.999999999999
  0
LINE
  5
1DC
100
AcDbEntity
  8
0
  6
CONTINUOUS
 62
           7
100
AcDbLine
 10
57.000002682209
 20
251.999999999999
 11
67.000002682209
 21
251.999999999999
  0
LINE
  5
1DB
100
AcDbEntity
  8
0
  6
CONTINUOUS
 62
           7
100
AcDbLine
 10
57.000002682209
 20
251.999999999999
 11
57.000002682209
 21
301.999999999999
  0
LINE
  5
1DA
100
AcDbEntity
  8
0
  6
CONTINUOUS
 62
           7
100
AcDbLine
 10
67.000002682209
 20
251.999999999999
 11
67.000002682209
 21
301.999999999999
  0
LINE
  5
1D9
100
AcDbEntity
  8
0
  6
CONTINUOUS
 62
           7
100
AcDbLine
 10
44.000002682209
 20
301.999999999999
 11
54.000002682209
 21
301.999999999999
  0
LINE
  5
1D8
100
AcDbEntity
  8
0
  6
CONTINUOUS
 62
           7
100
AcDbLine
 10
44.000002682209
 20
251.999999999999
 11
54.000002682209
 21
251.999999999999
  0
LINE
  5
1D7
100
AcDbEntity
  8
0
  6
CONTINUOUS
 62
           7
100
AcDbLine
 10
44.000002682209
 20
251.999999999999
 11
44.000002682209
 21
301.999999999999
  0
LINE
  5
1D6
100
AcDbEntity
  8
0
  6
CONTINUOUS
 62
           7
100
AcDbLine
 10
54.000002682209
 20
251.999999999999
 11
54.000002682209
 21
301.999999999999
  0
LINE
  5
1D5
100
AcDbEntity
  8
0
  6
CONTINUOUS
 62
           7
100
AcDbLine
 10
31.00000268221
 20
301.999999999999
 11
41.000002682209
 21
301.999999999999
  0
LINE
  5
1D4
100
AcDbEntity
  8
0
  6
CONTINUOUS
 62
           7
100
AcDbLine
 10
31.00000268221
 20
251.999999999999
 11
41.000002682209
 21
251.999999999999
  0
LINE
  5
1D3
100
AcDbEntity
  8
0
  6
CONTINUOUS
 62
           7
100
AcDbLine
 10
31.00000268221
 20
251.999999999999
 11
31.00000268221
 21
301.999999999999
  0
LINE
  5
1D2
100
AcDbEntity
  8
0
  6
CONTINUOUS
 62
           7
100
AcDbLine
 10
41.000002682209
 20
251.999999999999
 11
41.000002682209
 21
301.999999999999
  0
LINE
  5
1D1
100
AcDbEntity
  8
0
  6
CONTINUOUS
 62
           7
100
AcDbLine
 10
18.00000268221
 20
301.999999999999
 11
28.00000268221
 21
301.999999999999
  0
LINE
  5
1D0
100
AcDbEntity
  8
0
  6
CONTINUOUS
 62
           7
100
AcDbLine
 10
18.00000268221
 20
251.999999999999
 11
28.00000268221
 21
251.999999999999
  0
LINE
  5
1CF
100
AcDbEntity
  8
0
  6
CONTINUOUS
 62
           7
100
AcDbLine
 10
18.00000268221
 20
251.999999999999
 11
18.00000268221
 21
301.999999999999
  0
LINE
  5
1CE
100
AcDbEntity
  8
0
  6
CONTINUOUS
 62
           7
100
AcDbLine
 10
28.00000268221
 20
251.999999999999
 11
28.00000268221
 21
301.999999999999
  0
LINE
  5
1CD
100
AcDbEntity
  8
0
  6
CONTINUOUS
 62
           7
100
AcDbLine
 10
5.000002682209
 20
301.999999999999
 11
15.00000268221
 21
301.999999999999
  0
LINE
  5
1CC
100
AcDbEntity
  8
0
  6
CONTINUOUS
 62
           7
100
AcDbLine
 10
5.000002682209
 20
251.999999999999
 11
15.00000268221
 21
251.999999999999
  0
LINE
  5
1CB
100
AcDbEntity
  8
0
  6
CONTINUOUS
 62
           7
100
AcDbLine
 10
5.000002682209
 20
251.999999999999
 11
5.000002682209
 21
301.999999999999
  0
LINE
  5
1CA
100
AcDbEntity
  8
0
  6
CONTINUOUS
 62
           7
100
AcDbLine
 10
15.00000268221
 20
251.999999999999
 11
15.00000268221
 21
301.999999999999
  0
LINE
  5
1C9
100
AcDbEntity
  8
0
  6
CONTINUOUS
 62
           7
100
AcDbLine
 10
145.000002682209
 20
252.0
 11
145.000002682209
 21
302.0
  0
LINE
  5
1C8
100
AcDbEntity
  8
0
  6
CONTINUOUS
 62
           7
100
AcDbLine
 10
135.000002682209
 20
252.0
 11
135.000002682209
 21
302.0
  0
LINE
  5
1C7
100
AcDbEntity
  8
0
  6
CONTINUOUS
 62
           7
100
AcDbLine
 10
135.000002682209
 20
252.0
 11
145.000002682209
 21
252.0
  0
LINE
  5
1C6
100
AcDbEntity
  8
0
  6
CONTINUOUS
 62
           7
100
AcDbLine
 10
135.000002682209
 20
302.0
 11
145.000002682209
 21
302.0
  0
LINE
  5
1C5
100
AcDbEntity
  8
0
  6
CONTINUOUS
 62
           7
100
AcDbLine
 10
158.000002682209
 20
252.0
 11
158.000002682209
 21
302.0
  0
LINE
  5
1C4
100
AcDbEntity
  8
0
  6
CONTINUOUS
 62
           7
100
AcDbLine
 10
148.000002682209
 20
252.0
 11
148.000002682209
 21
302.0
  0
LINE
  5
1C3
100
AcDbEntity
  8
0
  6
CONTINUOUS
 62
           7
100
AcDbLine
 10
148.000002682209
 20
252.0
 11
158.000002682209
 21
252.0
  0
LINE
  5
1C2
100
AcDbEntity
  8
0
  6
CONTINUOUS
 62
           7
100
AcDbLine
 10
148.000002682209
 20
302.0
 11
158.000002682209
 21
302.0
  0
LINE
  5
1C1
100
AcDbEntity
  8
0
  6
CONTINUOUS
 62
           7
100
AcDbLine
 10
171.000002682209
 20
252.0
 11
171.000002682209
 21
302.0
  0
LINE
  5
1C0
100
AcDbEntity
  8
0
  6
CONTINUOUS
 62
           7
100
AcDbLine
 10
161.000002682209
 20
252.0
 11
161.000002682209
 21
302.0
  0
LINE
  5
1BF
100
AcDbEntity
  8
0
  6
CONTINUOUS
 62
           7
100
AcDbLine
 10
161.000002682209
 20
252.0
 11
171.000002682209
 21
252.0
  0
LINE
  5
1BE
100
AcDbEntity
  8
0
  6
CONTINUOUS
 62
           7
100
AcDbLine
 10
161.000002682209
 20
302.0
 11
171.000002682209
 21
302.0
  0
LINE
  5
1BD
100
AcDbEntity
  8
0
  6
CONTINUOUS
 62
           7
100
AcDbLine
 10
184.000002682209
 20
252.0
 11
184.000002682209
 21
302.0
  0
LINE
  5
1BC
100
AcDbEntity
  8
0
  6
CONTINUOUS
 62
           7
100
AcDbLine
 10
174.000002682209
 20
252.0
 11
174.000002682209
 21
302.0
  0
LINE
  5
1BB
100
AcDbEntity
  8
0
  6
CONTINUOUS
 62
           7
100
AcDbLine
 10
174.000002682209
 20
252.0
 11
184.000002682209
 21
252.0
  0
LINE
  5
1BA
100
AcDbEntity
  8
0
  6
CONTINUOUS
 62
           7
100
AcDbLine
 10
174.000002682209
 20
302.0
 11
184.000002682209
 21
302.0
  0
LINE
  5
1B9
100
AcDbEntity
  8
0
  6
CONTINUOUS
 62
           7
100
AcDbLine
 10
197.000002682209
 20
252.0
 11
197.000002682209
 21
302.0
  0
LINE
  5
1B8
100
AcDbEntity
  8
0
  6
CONTINUOUS
 62
           7
100
AcDbLine
 10
187.000002682209
 20
252.0
 11
187.000002682209
 21
302.0
  0
LINE
  5
1B7
100
AcDbEntity
  8
0
  6
CONTINUOUS
 62
           7
100
AcDbLine
 10
187.000002682209
 20
252.0
 11
197.000002682209
 21
252.0
  0
LINE
  5
1B6
100
AcDbEntity
  8
0
  6
CONTINUOUS
 62
           7
100
AcDbLine
 10
187.000002682209
 20
302.0
 11
197.000002682209
 21
302.0
  0
LINE
  5
1B5
100
AcDbEntity
  8
0
  6
CONTINUOUS
 62
           7
100
AcDbLine
 10
210.000002682209
 20
252.0
 11
210.000002682209
 21
302.0
  0
LINE
  5
1B4
100
AcDbEntity
  8
0
  6
CONTINUOUS
 62
           7
100
AcDbLine
 10
200.000002682209
 20
252.0
 11
200.000002682209
 21
302.0
  0
LINE
  5
1B3
100
AcDbEntity
  8
0
  6
CONTINUOUS
 62
           7
100
AcDbLine
 10
200.000002682209
 20
252.0
 11
210.000002682209
 21
252.0
  0
LINE
  5
1B2
100
AcDbEntity
  8
0
  6
CONTINUOUS
 62
           7
100
AcDbLine
 10
200.000002682209
 20
302.0
 11
210.000002682209
 21
302.0
  0
LINE
  5
1B1
100
AcDbEntity
  8
0
  6
CONTINUOUS
 62
           7
100
AcDbLine
 10
223.000002682209
 20
252.0
 11
223.000002682209
 21
302.0
  0
LINE
  5
1B0
100
AcDbEntity
  8
0
  6
CONTINUOUS
 62
           7
100
AcDbLine
 10
213.000002682209
 20
252.0
 11
213.000002682209
 21
302.0
  0
LINE
  5
1AF
100
AcDbEntity
  8
0
  6
CONTINUOUS
 62
           7
100
AcDbLine
 10
213.000002682209
 20
252.0
 11
223.000002682209
 21
252.0
  0
LINE
  5
1AE
100
AcDbEntity
  8
0
  6
CONTINUOUS
 62
           7
100
AcDbLine
 10
213.000002682209
 20
302.0
 11
223.000002682209
 21
302.0
  0
LINE
  5
1AD
100
AcDbEntity
  8
0
  6
CONTINUOUS
 62
           7
100
AcDbLine
 10
236.000002682209
 20
252.0
 11
236.000002682209
 21
302.0
  0
LINE
  5
1AC
100
AcDbEntity
  8
0
  6
CONTINUOUS
 62
           7
100
AcDbLine
 10
226.000002682209
 20
252.0
 11
226.000002682209
 21
302.0
  0
LINE
  5
1AB
100
AcDbEntity
  8
0
  6
CONTINUOUS
 62
           7
100
AcDbLine
 10
226.000002682209
 20
252.0
 11
236.000002682209
 21
252.0
  0
LINE
  5
1AA
100
AcDbEntity
  8
0
  6
CONTINUOUS
 62
           7
100
AcDbLine
 10
226.000002682209
 20
302.0
 11
236.000002682209
 21
302.0
  0
LINE
  5
1A9
100
AcDbEntity
  8
0
  6
CONTINUOUS
 62
           7
100
AcDbLine
 10
249.000002682209
 20
252.0
 11
249.000002682209
 21
302.0
  0
LINE
  5
1A8
100
AcDbEntity
  8
0
  6
CONTINUOUS
 62
           7
100
AcDbLine
 10
239.000002682209
 20
252.0
 11
239.000002682209
 21
302.0
  0
LINE
  5
1A7
100
AcDbEntity
  8
0
  6
CONTINUOUS
 62
           7
100
AcDbLine
 10
239.000002682209
 20
252.0
 11
249.000002682209
 21
252.0
  0
LINE
  5
1A6
100
AcDbEntity
  8
0
  6
CONTINUOUS
 62
           7
100
AcDbLine
 10
239.000002682209
 20
302.0
 11
249.000002682209
 21
302.0
  0
LINE
  5
1A5
100
AcDbEntity
  8
0
  6
CONTINUOUS
 62
           7
100
AcDbLine
 10
262.000002682209
 20
252.0
 11
262.000002682209
 21
302.0
  0
LINE
  5
1A4
100
AcDbEntity
  8
0
  6
CONTINUOUS
 62
           7
100
AcDbLine
 10
252.000002682209
 20
252.0
 11
252.000002682209
 21
302.0
  0
LINE
  5
1A3
100
AcDbEntity
  8
0
  6
CONTINUOUS
 62
           7
100
AcDbLine
 10
252.000002682209
 20
252.0
 11
262.000002682209
 21
252.0
  0
LINE
  5
1A2
100
AcDbEntity
  8
0
  6
CONTINUOUS
 62
           7
100
AcDbLine
 10
252.000002682209
 20
302.0
 11
262.000002682209
 21
302.0
  0
LINE
  5
1A1
100
AcDbEntity
  8
0
  6
CONTINUOUS
 62
           7
100
AcDbLine
 10
275.000002682209
 20
252.0
 11
275.000002682209
 21
302.0
  0
LINE
  5
1A0
100
AcDbEntity
  8
0
  6
CONTINUOUS
 62
           7
100
AcDbLine
 10
265.000002682209
 20
252.0
 11
265.000002682209
 21
302.0
  0
LINE
  5
19F
100
AcDbEntity
  8
0
  6
CONTINUOUS
 62
           7
100
AcDbLine
 10
265.000002682209
 20
252.0
 11
275.000002682209
 21
252.0
  0
LINE
  5
19E
100
AcDbEntity
  8
0
  6
CONTINUOUS
 62
           7
100
AcDbLine
 10
265.000002682209
 20
302.0
 11
275.000002682209
 21
302.0
  0
LINE
  5
19D
100
AcDbEntity
  8
0
  6
CONTINUOUS
 62
           7
100
AcDbLine
 10
288.000002682209
 20
252.0
 11
288.000002682209
 21
302.0
  0
LINE
  5
19C
100
AcDbEntity
  8
0
  6
CONTINUOUS
 62
           7
100
AcDbLine
 10
278.000002682209
 20
252.0
 11
278.000002682209
 21
302.0
  0
LINE
  5
19B
100
AcDbEntity
  8
0
  6
CONTINUOUS
 62
           7
100
AcDbLine
 10
278.000002682209
 20
252.0
 11
288.000002682209
 21
252.0
  0
LINE
  5
19A
100
AcDbEntity
  8
0
  6
CONTINUOUS
 62
           7
100
AcDbLine
 10
278.000002682209
 20
302.0
 11
288.000002682209
 21
302.0
  0
LINE
  5
199
100
AcDbEntity
  8
0
  6
CONTINUOUS
 62
           7
100
AcDbLine
 10
301.000002682209
 20
252.0
 11
301.000002682209
 21
302.0
  0
LINE
  5
198
100
AcDbEntity
  8
0
  6
CONTINUOUS
 62
           7
100
AcDbLine
 10
291.000002682209
 20
252.0
 11
291.000002682209
 21
302.0
  0
LINE
  5
197
100
AcDbEntity
  8
0
  6
CONTINUOUS
 62
           7
100
AcDbLine
 10
291.000002682209
 20
252.0
 11
301.000002682209
 21
252.0
  0
LINE
  5
196
100
AcDbEntity
  8
0
  6
CONTINUOUS
 62
           7
100
AcDbLine
 10
291.000002682209
 20
302.0
 11
301.000002682209
 21
302.0
  0
LINE
  5
195
100
AcDbEntity
  8
0
  6
CONTINUOUS
 62
           7
100
AcDbLine
 10
314.000002682209
 20
252.0
 11
314.000002682209
 21
302.0
  0
LINE
  5
194
100
AcDbEntity
  8
0
  6
CONTINUOUS
 62
           7
100
AcDbLine
 10
304.000002682209
 20
252.0
 11
304.000002682209
 21
302.0
  0
LINE
  5
193
100
AcDbEntity
  8
0
  6
CONTINUOUS
 62
           7
100
AcDbLine
 10
304.000002682209
 20
252.0
 11
314.000002682209
 21
252.0
  0
LINE
  5
192
100
AcDbEntity
  8
0
  6
CONTINUOUS
 62
           7
100
AcDbLine
 10
304.000002682209
 20
302.0
 11
314.000002682209
 21
302.0
  0
LINE
  5
191
100
AcDbEntity
  8
0
  6
CONTINUOUS
 62
           7
100
AcDbLine
 10
327.000002682209
 20
252.0
 11
327.000002682209
 21
302.0
  0
LINE
  5
190
100
AcDbEntity
  8
0
  6
CONTINUOUS
 62
           7
100
AcDbLine
 10
317.000002682209
 20
252.0
 11
317.000002682209
 21
302.0
  0
LINE
  5
18F
100
AcDbEntity
  8
0
  6
CONTINUOUS
 62
           7
100
AcDbLine
 10
317.000002682209
 20
252.0
 11
327.000002682209
 21
252.0
  0
LINE
  5
18E
100
AcDbEntity
  8
0
  6
CONTINUOUS
 62
           7
100
AcDbLine
 10
317.000002682209
 20
302.0
 11
327.000002682209
 21
302.0
  0
LINE
  5
18D
100
AcDbEntity
  8
0
  6
CONTINUOUS
 62
           7
100
AcDbLine
 10
340.000002682209
 20
252.0
 11
340.000002682209
 21
302.0
  0
LINE
  5
18C
100
AcDbEntity
  8
0
  6
CONTINUOUS
 62
           7
100
AcDbLine
 10
330.000002682209
 20
252.0
 11
330.000002682209
 21
302.0
  0
LINE
  5
18B
100
AcDbEntity
  8
0
  6
CONTINUOUS
 62
           7
100
AcDbLine
 10
330.000002682209
 20
252.0
 11
340.000002682209
 21
252.0
  0
LINE
  5
18A
100
AcDbEntity
  8
0
  6
CONTINUOUS
 62
           7
100
AcDbLine
 10
330.000002682209
 20
302.0
 11
340.000002682209
 21
302.0
  0
LINE
  5
189
100
AcDbEntity
  8
0
  6
CONTINUOUS
 62
           7
100
AcDbLine
 10
353.000002682209
 20
252.0
 11
353.000002682209
 21
302.0
  0
LINE
  5
188
100
AcDbEntity
  8
0
  6
CONTINUOUS
 62
           7
100
AcDbLine
 10
343.000002682209
 20
252.0
 11
343.000002682209
 21
302.0
  0
LINE
  5
187
100
AcDbEntity
  8
0
  6
CONTINUOUS
 62
           7
100
AcDbLine
 10
343.000002682209
 20
252.0
 11
353.000002682209
 21
252.0
  0
LINE
  5
186
100
AcDbEntity
  8
0
  6
CONTINUOUS
 62
           7
100
AcDbLine
 10
343.000002682209
 20
302.0
 11
353.000002682209
 21
302.0
  0
LINE
  5
185
100
AcDbEntity
  8
0
  6
CONTINUOUS
 62
           7
100
AcDbLine
 10
366.000002682209
 20
252.0
 11
366.000002682209
 21
302.0
  0
LINE
  5
184
100
AcDbEntity
  8
0
  6
CONTINUOUS
 62
           7
100
AcDbLine
 10
356.000002682209
 20
252.0
 11
356.000002682209
 21
302.0
  0
LINE
  5
183
100
AcDbEntity
  8
0
  6
CONTINUOUS
 62
           7
100
AcDbLine
 10
356.000002682209
 20
252.0
 11
366.000002682209
 21
252.0
  0
LINE
  5
182
100
AcDbEntity
  8
0
  6
CONTINUOUS
 62
           7
100
AcDbLine
 10
356.000002682209
 20
302.0
 11
366.000002682209
 21
302.0
  0
LINE
  5
181
100
AcDbEntity
  8
0
  6
CONTINUOUS
 62
           7
100
AcDbLine
 10
122.000002682209
 20
361.999999999999
 11
132.000002682209
 21
361.999999999999
  0
LINE
  5
180
100
AcDbEntity
  8
0
  6
CONTINUOUS
 62
           7
100
AcDbLine
 10
122.000002682209
 20
311.999999999999
 11
132.000002682209
 21
311.999999999999
  0
LINE
  5
17F
100
AcDbEntity
  8
0
  6
CONTINUOUS
 62
           7
100
AcDbLine
 10
122.000002682209
 20
311.999999999999
 11
122.000002682209
 21
361.999999999999
  0
LINE
  5
17E
100
AcDbEntity
  8
0
  6
CONTINUOUS
 62
           7
100
AcDbLine
 10
132.000002682209
 20
311.999999999999
 11
132.000002682209
 21
361.999999999999
  0
LINE
  5
17D
100
AcDbEntity
  8
0
  6
CONTINUOUS
 62
           7
100
AcDbLine
 10
109.000002682209
 20
361.999999999999
 11
119.000002682209
 21
361.999999999999
  0
LINE
  5
17C
100
AcDbEntity
  8
0
  6
CONTINUOUS
 62
           7
100
AcDbLine
 10
109.000002682209
 20
311.999999999999
 11
119.000002682209
 21
311.999999999999
  0
LINE
  5
17B
100
AcDbEntity
  8
0
  6
CONTINUOUS
 62
           7
100
AcDbLine
 10
109.000002682209
 20
311.999999999999
 11
109.000002682209
 21
361.999999999999
  0
LINE
  5
17A
100
AcDbEntity
  8
0
  6
CONTINUOUS
 62
           7
100
AcDbLine
 10
119.000002682209
 20
311.999999999999
 11
119.000002682209
 21
361.999999999999
  0
LINE
  5
179
100
AcDbEntity
  8
0
  6
CONTINUOUS
 62
           7
100
AcDbLine
 10
96.000002682209
 20
361.999999999999
 11
106.00000268221
 21
361.999999999999
  0
LINE
  5
178
100
AcDbEntity
  8
0
  6
CONTINUOUS
 62
           7
100
AcDbLine
 10
96.000002682209
 20
311.999999999999
 11
106.00000268221
 21
311.999999999999
  0
LINE
  5
177
100
AcDbEntity
  8
0
  6
CONTINUOUS
 62
           7
100
AcDbLine
 10
96.000002682209
 20
311.999999999999
 11
96.000002682209
 21
361.999999999999
  0
LINE
  5
176
100
AcDbEntity
  8
0
  6
CONTINUOUS
 62
           7
100
AcDbLine
 10
106.00000268221
 20
311.999999999999
 11
106.00000268221
 21
361.999999999999
  0
LINE
  5
175
100
AcDbEntity
  8
0
  6
CONTINUOUS
 62
           7
100
AcDbLine
 10
83.000002682209
 20
361.999999999999
 11
93.000002682209
 21
361.999999999999
  0
LINE
  5
174
100
AcDbEntity
  8
0
  6
CONTINUOUS
 62
           7
100
AcDbLine
 10
83.000002682209
 20
311.999999999999
 11
93.000002682209
 21
311.999999999999
  0
LINE
  5
173
100
AcDbEntity
  8
0
  6
CONTINUOUS
 62
           7
100
AcDbLine
 10
83.000002682209
 20
311.999999999999
 11
83.000002682209
 21
361.999999999999
  0
LINE
  5
172
100
AcDbEntity
  8
0
  6
CONTINUOUS
 62
           7
100
AcDbLine
 10
93.000002682209
 20
311.999999999999
 11
93.000002682209
 21
361.999999999999
  0
LINE
  5
171
100
AcDbEntity
  8
0
  6
CONTINUOUS
 62
           7
100
AcDbLine
 10
70.000002682209
 20
361.999999999999
 11
80.000002682209
 21
361.999999999999
  0
LINE
  5
170
100
AcDbEntity
  8
0
  6
CONTINUOUS
 62
           7
100
AcDbLine
 10
70.000002682209
 20
311.999999999999
 11
80.000002682209
 21
311.999999999999
  0
LINE
  5
16F
100
AcDbEntity
  8
0
  6
CONTINUOUS
 62
           7
100
AcDbLine
 10
70.000002682209
 20
311.999999999999
 11
70.000002682209
 21
361.999999999999
  0
LINE
  5
16E
100
AcDbEntity
  8
0
  6
CONTINUOUS
 62
           7
100
AcDbLine
 10
80.000002682209
 20
311.999999999999
 11
80.000002682209
 21
361.999999999999
  0
LINE
  5
16D
100
AcDbEntity
  8
0
  6
CONTINUOUS
 62
           7
100
AcDbLine
 10
57.000002682209
 20
361.999999999999
 11
67.000002682209
 21
361.999999999999
  0
LINE
  5
16C
100
AcDbEntity
  8
0
  6
CONTINUOUS
 62
           7
100
AcDbLine
 10
57.000002682209
 20
311.999999999999
 11
67.000002682209
 21
311.999999999999
  0
LINE
  5
16B
100
AcDbEntity
  8
0
  6
CONTINUOUS
 62
           7
100
AcDbLine
 10
57.000002682209
 20
311.999999999999
 11
57.000002682209
 21
361.999999999999
  0
LINE
  5
16A
100
AcDbEntity
  8
0
  6
CONTINUOUS
 62
           7
100
AcDbLine
 10
67.000002682209
 20
311.999999999999
 11
67.000002682209
 21
361.999999999999
  0
LINE
  5
169
100
AcDbEntity
  8
0
  6
CONTINUOUS
 62
           7
100
AcDbLine
 10
44.000002682209
 20
361.999999999999
 11
54.000002682209
 21
361.999999999999
  0
LINE
  5
168
100
AcDbEntity
  8
0
  6
CONTINUOUS
 62
           7
100
AcDbLine
 10
44.000002682209
 20
311.999999999999
 11
54.000002682209
 21
311.999999999999
  0
LINE
  5
167
100
AcDbEntity
  8
0
  6
CONTINUOUS
 62
           7
100
AcDbLine
 10
44.000002682209
 20
311.999999999999
 11
44.000002682209
 21
361.999999999999
  0
LINE
  5
166
100
AcDbEntity
  8
0
  6
CONTINUOUS
 62
           7
100
AcDbLine
 10
54.000002682209
 20
311.999999999999
 11
54.000002682209
 21
361.999999999999
  0
LINE
  5
165
100
AcDbEntity
  8
0
  6
CONTINUOUS
 62
           7
100
AcDbLine
 10
31.00000268221
 20
361.999999999999
 11
41.000002682209
 21
361.999999999999
  0
LINE
  5
164
100
AcDbEntity
  8
0
  6
CONTINUOUS
 62
           7
100
AcDbLine
 10
31.00000268221
 20
311.999999999999
 11
41.000002682209
 21
311.999999999999
  0
LINE
  5
163
100
AcDbEntity
  8
0
  6
CONTINUOUS
 62
           7
100
AcDbLine
 10
31.00000268221
 20
311.999999999999
 11
31.00000268221
 21
361.999999999999
  0
LINE
  5
162
100
AcDbEntity
  8
0
  6
CONTINUOUS
 62
           7
100
AcDbLine
 10
41.000002682209
 20
311.999999999999
 11
41.000002682209
 21
361.999999999999
  0
LINE
  5
161
100
AcDbEntity
  8
0
  6
CONTINUOUS
 62
           7
100
AcDbLine
 10
18.00000268221
 20
361.999999999999
 11
28.00000268221
 21
361.999999999999
  0
LINE
  5
160
100
AcDbEntity
  8
0
  6
CONTINUOUS
 62
           7
100
AcDbLine
 10
18.00000268221
 20
311.999999999999
 11
28.00000268221
 21
311.999999999999
  0
LINE
  5
15F
100
AcDbEntity
  8
0
  6
CONTINUOUS
 62
           7
100
AcDbLine
 10
18.00000268221
 20
311.999999999999
 11
18.00000268221
 21
361.999999999999
  0
LINE
  5
15E
100
AcDbEntity
  8
0
  6
CONTINUOUS
 62
           7
100
AcDbLine
 10
28.00000268221
 20
311.999999999999
 11
28.00000268221
 21
361.999999999999
  0
LINE
  5
15D
100
AcDbEntity
  8
0
  6
CONTINUOUS
 62
           7
100
AcDbLine
 10
5.000002682209
 20
361.999999999999
 11
15.00000268221
 21
361.999999999999
  0
LINE
  5
15C
100
AcDbEntity
  8
0
  6
CONTINUOUS
 62
           7
100
AcDbLine
 10
5.000002682209
 20
311.999999999999
 11
15.00000268221
 21
311.999999999999
  0
LINE
  5
15B
100
AcDbEntity
  8
0
  6
CONTINUOUS
 62
           7
100
AcDbLine
 10
5.000002682209
 20
311.999999999999
 11
5.000002682209
 21
361.999999999999
  0
LINE
  5
15A
100
AcDbEntity
  8
0
  6
CONTINUOUS
 62
           7
100
AcDbLine
 10
15.00000268221
 20
311.999999999999
 11
15.00000268221
 21
361.999999999999
  0
LINE
  5
159
100
AcDbEntity
  8
0
  6
CONTINUOUS
 62
           7
100
AcDbLine
 10
145.000002682209
 20
312.0
 11
145.000002682209
 21
362.0
  0
LINE
  5
158
100
AcDbEntity
  8
0
  6
CONTINUOUS
 62
           7
100
AcDbLine
 10
135.000002682209
 20
312.0
 11
135.000002682209
 21
362.0
  0
LINE
  5
157
100
AcDbEntity
  8
0
  6
CONTINUOUS
 62
           7
100
AcDbLine
 10
135.000002682209
 20
312.0
 11
145.000002682209
 21
312.0
  0
LINE
  5
156
100
AcDbEntity
  8
0
  6
CONTINUOUS
 62
           7
100
AcDbLine
 10
135.000002682209
 20
362.0
 11
145.000002682209
 21
362.0
  0
LINE
  5
155
100
AcDbEntity
  8
0
  6
CONTINUOUS
 62
           7
100
AcDbLine
 10
158.000002682209
 20
312.0
 11
158.000002682209
 21
362.0
  0
LINE
  5
154
100
AcDbEntity
  8
0
  6
CONTINUOUS
 62
           7
100
AcDbLine
 10
148.000002682209
 20
312.0
 11
148.000002682209
 21
362.0
  0
LINE
  5
153
100
AcDbEntity
  8
0
  6
CONTINUOUS
 62
           7
100
AcDbLine
 10
148.000002682209
 20
312.0
 11
158.000002682209
 21
312.0
  0
LINE
  5
152
100
AcDbEntity
  8
0
  6
CONTINUOUS
 62
           7
100
AcDbLine
 10
148.000002682209
 20
362.0
 11
158.000002682209
 21
362.0
  0
LINE
  5
151
100
AcDbEntity
  8
0
  6
CONTINUOUS
 62
           7
100
AcDbLine
 10
171.000002682209
 20
312.0
 11
171.000002682209
 21
362.0
  0
LINE
  5
150
100
AcDbEntity
  8
0
  6
CONTINUOUS
 62
           7
100
AcDbLine
 10
161.000002682209
 20
312.0
 11
161.000002682209
 21
362.0
  0
LINE
  5
14F
100
AcDbEntity
  8
0
  6
CONTINUOUS
 62
           7
100
AcDbLine
 10
161.000002682209
 20
312.0
 11
171.000002682209
 21
312.0
  0
LINE
  5
14E
100
AcDbEntity
  8
0
  6
CONTINUOUS
 62
           7
100
AcDbLine
 10
161.000002682209
 20
362.0
 11
171.000002682209
 21
362.0
  0
LINE
  5
14D
100
AcDbEntity
  8
0
  6
CONTINUOUS
 62
           7
100
AcDbLine
 10
184.000002682209
 20
312.0
 11
184.000002682209
 21
362.0
  0
LINE
  5
14C
100
AcDbEntity
  8
0
  6
CONTINUOUS
 62
           7
100
AcDbLine
 10
174.000002682209
 20
312.0
 11
174.000002682209
 21
362.0
  0
LINE
  5
14B
100
AcDbEntity
  8
0
  6
CONTINUOUS
 62
           7
100
AcDbLine
 10
174.000002682209
 20
312.0
 11
184.000002682209
 21
312.0
  0
LINE
  5
14A
100
AcDbEntity
  8
0
  6
CONTINUOUS
 62
           7
100
AcDbLine
 10
174.000002682209
 20
362.0
 11
184.000002682209
 21
362.0
  0
LINE
  5
149
100
AcDbEntity
  8
0
  6
CONTINUOUS
 62
           7
100
AcDbLine
 10
197.000002682209
 20
312.0
 11
197.000002682209
 21
362.0
  0
LINE
  5
148
100
AcDbEntity
  8
0
  6
CONTINUOUS
 62
           7
100
AcDbLine
 10
187.000002682209
 20
312.0
 11
187.000002682209
 21
362.0
  0
LINE
  5
147
100
AcDbEntity
  8
0
  6
CONTINUOUS
 62
           7
100
AcDbLine
 10
187.000002682209
 20
312.0
 11
197.000002682209
 21
312.0
  0
LINE
  5
146
100
AcDbEntity
  8
0
  6
CONTINUOUS
 62
           7
100
AcDbLine
 10
187.000002682209
 20
362.0
 11
197.000002682209
 21
362.0
  0
LINE
  5
145
100
AcDbEntity
  8
0
  6
CONTINUOUS
 62
           7
100
AcDbLine
 10
210.000002682209
 20
312.0
 11
210.000002682209
 21
362.0
  0
LINE
  5
144
100
AcDbEntity
  8
0
  6
CONTINUOUS
 62
           7
100
AcDbLine
 10
200.000002682209
 20
312.0
 11
200.000002682209
 21
362.0
  0
LINE
  5
143
100
AcDbEntity
  8
0
  6
CONTINUOUS
 62
           7
100
AcDbLine
 10
200.000002682209
 20
312.0
 11
210.000002682209
 21
312.0
  0
LINE
  5
142
100
AcDbEntity
  8
0
  6
CONTINUOUS
 62
           7
100
AcDbLine
 10
200.000002682209
 20
362.0
 11
210.000002682209
 21
362.0
  0
LINE
  5
141
100
AcDbEntity
  8
0
  6
CONTINUOUS
 62
           7
100
AcDbLine
 10
223.000002682209
 20
312.0
 11
223.000002682209
 21
362.0
  0
LINE
  5
140
100
AcDbEntity
  8
0
  6
CONTINUOUS
 62
           7
100
AcDbLine
 10
213.000002682209
 20
312.0
 11
213.000002682209
 21
362.0
  0
LINE
  5
13F
100
AcDbEntity
  8
0
  6
CONTINUOUS
 62
           7
100
AcDbLine
 10
213.000002682209
 20
312.0
 11
223.000002682209
 21
312.0
  0
LINE
  5
13E
100
AcDbEntity
  8
0
  6
CONTINUOUS
 62
           7
100
AcDbLine
 10
213.000002682209
 20
362.0
 11
223.000002682209
 21
362.0
  0
LINE
  5
13D
100
AcDbEntity
  8
0
  6
CONTINUOUS
 62
           7
100
AcDbLine
 10
236.000002682209
 20
312.0
 11
236.000002682209
 21
362.0
  0
LINE
  5
13C
100
AcDbEntity
  8
0
  6
CONTINUOUS
 62
           7
100
AcDbLine
 10
226.000002682209
 20
312.0
 11
226.000002682209
 21
362.0
  0
LINE
  5
13B
100
AcDbEntity
  8
0
  6
CONTINUOUS
 62
           7
100
AcDbLine
 10
226.000002682209
 20
312.0
 11
236.000002682209
 21
312.0
  0
LINE
  5
13A
100
AcDbEntity
  8
0
  6
CONTINUOUS
 62
           7
100
AcDbLine
 10
226.000002682209
 20
362.0
 11
236.000002682209
 21
362.0
  0
LINE
  5
139
100
AcDbEntity
  8
0
  6
CONTINUOUS
 62
           7
100
AcDbLine
 10
249.000002682209
 20
312.0
 11
249.000002682209
 21
362.0
  0
LINE
  5
138
100
AcDbEntity
  8
0
  6
CONTINUOUS
 62
           7
100
AcDbLine
 10
239.000002682209
 20
312.0
 11
239.000002682209
 21
362.0
  0
LINE
  5
137
100
AcDbEntity
  8
0
  6
CONTINUOUS
 62
           7
100
AcDbLine
 10
239.000002682209
 20
312.0
 11
249.000002682209
 21
312.0
  0
LINE
  5
136
100
AcDbEntity
  8
0
  6
CONTINUOUS
 62
           7
100
AcDbLine
 10
239.000002682209
 20
362.0
 11
249.000002682209
 21
362.0
  0
LINE
  5
135
100
AcDbEntity
  8
0
  6
CONTINUOUS
 62
           7
100
AcDbLine
 10
262.000002682209
 20
312.0
 11
262.000002682209
 21
362.0
  0
LINE
  5
134
100
AcDbEntity
  8
0
  6
CONTINUOUS
 62
           7
100
AcDbLine
 10
252.000002682209
 20
312.0
 11
252.000002682209
 21
362.0
  0
LINE
  5
133
100
AcDbEntity
  8
0
  6
CONTINUOUS
 62
           7
100
AcDbLine
 10
252.000002682209
 20
312.0
 11
262.000002682209
 21
312.0
  0
LINE
  5
132
100
AcDbEntity
  8
0
  6
CONTINUOUS
 62
           7
100
AcDbLine
 10
252.000002682209
 20
362.0
 11
262.000002682209
 21
362.0
  0
LINE
  5
131
100
AcDbEntity
  8
0
  6
CONTINUOUS
 62
           7
100
AcDbLine
 10
275.000002682209
 20
312.0
 11
275.000002682209
 21
362.0
  0
LINE
  5
130
100
AcDbEntity
  8
0
  6
CONTINUOUS
 62
           7
100
AcDbLine
 10
265.000002682209
 20
312.0
 11
265.000002682209
 21
362.0
  0
LINE
  5
12F
100
AcDbEntity
  8
0
  6
CONTINUOUS
 62
           7
100
AcDbLine
 10
265.000002682209
 20
312.0
 11
275.000002682209
 21
312.0
  0
LINE
  5
12E
100
AcDbEntity
  8
0
  6
CONTINUOUS
 62
           7
100
AcDbLine
 10
265.000002682209
 20
362.0
 11
275.000002682209
 21
362.0
  0
LINE
  5
12D
100
AcDbEntity
  8
0
  6
CONTINUOUS
 62
           7
100
AcDbLine
 10
288.000002682209
 20
312.0
 11
288.000002682209
 21
362.0
  0
LINE
  5
12C
100
AcDbEntity
  8
0
  6
CONTINUOUS
 62
           7
100
AcDbLine
 10
278.000002682209
 20
312.0
 11
278.000002682209
 21
362.0
  0
LINE
  5
12B
100
AcDbEntity
  8
0
  6
CONTINUOUS
 62
           7
100
AcDbLine
 10
278.000002682209
 20
312.0
 11
288.000002682209
 21
312.0
  0
LINE
  5
12A
100
AcDbEntity
  8
0
  6
CONTINUOUS
 62
           7
100
AcDbLine
 10
278.000002682209
 20
362.0
 11
288.000002682209
 21
362.0
  0
LINE
  5
129
100
AcDbEntity
  8
0
  6
CONTINUOUS
 62
           7
100
AcDbLine
 10
301.000002682209
 20
312.0
 11
301.000002682209
 21
362.0
  0
LINE
  5
128
100
AcDbEntity
  8
0
  6
CONTINUOUS
 62
           7
100
AcDbLine
 10
291.000002682209
 20
312.0
 11
291.000002682209
 21
362.0
  0
LINE
  5
127
100
AcDbEntity
  8
0
  6
CONTINUOUS
 62
           7
100
AcDbLine
 10
291.000002682209
 20
312.0
 11
301.000002682209
 21
312.0
  0
LINE
  5
126
100
AcDbEntity
  8
0
  6
CONTINUOUS
 62
           7
100
AcDbLine
 10
291.000002682209
 20
362.0
 11
301.000002682209
 21
362.0
  0
LINE
  5
125
100
AcDbEntity
  8
0
  6
CONTINUOUS
 62
           7
100
AcDbLine
 10
314.000002682209
 20
312.0
 11
314.000002682209
 21
362.0
  0
LINE
  5
124
100
AcDbEntity
  8
0
  6
CONTINUOUS
 62
           7
100
AcDbLine
 10
304.000002682209
 20
312.0
 11
304.000002682209
 21
362.0
  0
LINE
  5
123
100
AcDbEntity
  8
0
  6
CONTINUOUS
 62
           7
100
AcDbLine
 10
304.000002682209
 20
312.0
 11
314.000002682209
 21
312.0
  0
LINE
  5
122
100
AcDbEntity
  8
0
  6
CONTINUOUS
 62
           7
100
AcDbLine
 10
304.000002682209
 20
362.0
 11
314.000002682209
 21
362.0
  0
LINE
  5
121
100
AcDbEntity
  8
0
  6
CONTINUOUS
 62
           7
100
AcDbLine
 10
327.000002682209
 20
312.0
 11
327.000002682209
 21
362.0
  0
LINE
  5
120
100
AcDbEntity
  8
0
  6
CONTINUOUS
 62
           7
100
AcDbLine
 10
317.000002682209
 20
312.0
 11
317.000002682209
 21
362.0
  0
LINE
  5
11F
100
AcDbEntity
  8
0
  6
CONTINUOUS
 62
           7
100
AcDbLine
 10
317.000002682209
 20
312.0
 11
327.000002682209
 21
312.0
  0
LINE
  5
11E
100
AcDbEntity
  8
0
  6
CONTINUOUS
 62
           7
100
AcDbLine
 10
317.000002682209
 20
362.0
 11
327.000002682209
 21
362.0
  0
LINE
  5
11D
100
AcDbEntity
  8
0
  6
CONTINUOUS
 62
           7
100
AcDbLine
 10
340.000002682209
 20
312.0
 11
340.000002682209
 21
362.0
  0
LINE
  5
11C
100
AcDbEntity
  8
0
  6
CONTINUOUS
 62
           7
100
AcDbLine
 10
330.000002682209
 20
312.0
 11
330.000002682209
 21
362.0
  0
LINE
  5
11B
100
AcDbEntity
  8
0
  6
CONTINUOUS
 62
           7
100
AcDbLine
 10
330.000002682209
 20
312.0
 11
340.000002682209
 21
312.0
  0
LINE
  5
11A
100
AcDbEntity
  8
0
  6
CONTINUOUS
 62
           7
100
AcDbLine
 10
330.000002682209
 20
362.0
 11
340.000002682209
 21
362.0
  0
LINE
  5
119
100
AcDbEntity
  8
0
  6
CONTINUOUS
 62
           7
100
AcDbLine
 10
353.000002682209
 20
312.0
 11
353.000002682209
 21
362.0
  0
LINE
  5
118
100
AcDbEntity
  8
0
  6
CONTINUOUS
 62
           7
100
AcDbLine
 10
343.000002682209
 20
312.0
 11
343.000002682209
 21
362.0
  0
LINE
  5
117
100
AcDbEntity
  8
0
  6
CONTINUOUS
 62
           7
100
AcDbLine
 10
343.000002682209
 20
312.0
 11
353.000002682209
 21
312.0
  0
LINE
  5
116
100
AcDbEntity
  8
0
  6
CONTINUOUS
 62
           7
100
AcDbLine
 10
343.000002682209
 20
362.0
 11
353.000002682209
 21
362.0
  0
LINE
  5
115
100
AcDbEntity
  8
0
  6
CONTINUOUS
 62
           7
100
AcDbLine
 10
366.000002682209
 20
312.0
 11
366.000002682209
 21
362.0
  0
LINE
  5
114
100
AcDbEntity
  8
0
  6
CONTINUOUS
 62
           7
100
AcDbLine
 10
356.000002682209
 20
312.0
 11
356.000002682209
 21
362.0
  0
LINE
  5
113
100
AcDbEntity
  8
0
  6
CONTINUOUS
 62
           7
100
AcDbLine
 10
356.000002682209
 20
312.0
 11
366.000002682209
 21
312.0
  0
LINE
  5
112
100
AcDbEntity
  8
0
  6
CONTINUOUS
 62
           7
100
AcDbLine
 10
356.000002682209
 20
362.0
 11
366.000002682209
 21
362.0
  0
LINE
  5
111
100
AcDbEntity
  8
0
  6
CONTINUOUS
 62
           7
100
AcDbLine
 10
379.000002682209
 20
12.0
 11
379.000002682209
 21
62.0
  0
LINE
  5
110
100
AcDbEntity
  8
0
  6
CONTINUOUS
 62
           7
100
AcDbLine
 10
369.000002682209
 20
12.0
 11
369.000002682209
 21
62.0
  0
LINE
  5
10F
100
AcDbEntity
  8
0
  6
CONTINUOUS
 62
           7
100
AcDbLine
 10
369.000002682209
 20
12.0
 11
379.000002682209
 21
12.0
  0
LINE
  5
10E
100
AcDbEntity
  8
0
  6
CONTINUOUS
 62
           7
100
AcDbLine
 10
369.000002682209
 20
62.0
 11
379.000002682209
 21
62.0
  0
LINE
  5
10D
100
AcDbEntity
  8
0
  6
CONTINUOUS
 62
           7
100
AcDbLine
 10
379.000002682209
 20
72.0
 11
379.000002682209
 21
122.0
  0
LINE
  5
10C
100
AcDbEntity
  8
0
  6
CONTINUOUS
 62
           7
100
AcDbLine
 10
369.000002682209
 20
72.0
 11
369.000002682209
 21
122.0
  0
LINE
  5
10B
100
AcDbEntity
  8
0
  6
CONTINUOUS
 62
           7
100
AcDbLine
 10
369.000002682209
 20
72.0
 11
379.000002682209
 21
72.0
  0
LINE
  5
10A
100
AcDbEntity
  8
0
  6
CONTINUOUS
 62
           7
100
AcDbLine
 10
369.000002682209
 20
122.0
 11
379.000002682209
 21
122.0
  0
LINE
  5
109
100
AcDbEntity
  8
0
  6
CONTINUOUS
 62
           7
100
AcDbLine
 10
379.000002682209
 20
132.0
 11
379.000002682209
 21
182.0
  0
LINE
  5
108
100
AcDbEntity
  8
0
  6
CONTINUOUS
 62
           7
100
AcDbLine
 10
369.000002682209
 20
132.0
 11
369.000002682209
 21
182.0
  0
LINE
  5
107
100
AcDbEntity
  8
0
  6
CONTINUOUS
 62
           7
100
AcDbLine
 10
369.000002682209
 20
132.0
 11
379.000002682209
 21
132.0
  0
LINE
  5
106
100
AcDbEntity
  8
0
  6
CONTINUOUS
 62
           7
100
AcDbLine
 10
369.000002682209
 20
182.0
 11
379.000002682209
 21
182.0
  0
LINE
  5
105
100
AcDbEntity
  8
0
  6
CONTINUOUS
 62
           7
100
AcDbLine
 10
379.000002682209
 20
192.0
 11
379.000002682209
 21
242.0
  0
LINE
  5
104
100
AcDbEntity
  8
0
  6
CONTINUOUS
 62
           7
100
AcDbLine
 10
369.000002682209
 20
192.0
 11
369.000002682209
 21
242.0
  0
LINE
  5
103
100
AcDbEntity
  8
0
  6
CONTINUOUS
 62
           7
100
AcDbLine
 10
369.000002682209
 20
192.0
 11
379.000002682209
 21
192.0
  0
LINE
  5
102
100
AcDbEntity
  8
0
  6
CONTINUOUS
 62
           7
100
AcDbLine
 10
369.000002682209
 20
242.0
 11
379.000002682209
 21
242.0
  0
LINE
  5
101
100
AcDbEntity
  8
0
  6
CONTINUOUS
 62
           7
100
AcDbLine
 10
379.000002682209
 20
252.0
 11
379.000002682209
 21
302.0
  0
LINE
  5
100
100
AcDbEntity
  8
0
  6
CONTINUOUS
 62
           7
100
AcDbLine
 10
369.000002682209
 20
252.0
 11
369.000002682209
 21
302.0
  0
LINE
  5
FF
100
AcDbEntity
  8
0
  6
CONTINUOUS
 62
           7
100
AcDbLine
 10
369.000002682209
 20
252.0
 11
379.000002682209
 21
252.0
  0
LINE
  5
FE
100
AcDbEntity
  8
0
  6
CONTINUOUS
 62
           7
100
AcDbLine
 10
369.000002682209
 20
302.0
 11
379.000002682209
 21
302.0
  0
LINE
  5
FD
100
AcDbEntity
  8
0
  6
CONTINUOUS
 62
           7
100
AcDbLine
 10
379.000002682209
 20
312.0
 11
379.000002682209
 21
362.0
  0
LINE
  5
FC
100
AcDbEntity
  8
0
  6
CONTINUOUS
 62
           7
100
AcDbLine
 10
369.000002682209
 20
312.0
 11
369.000002682209
 21
362.0
  0
LINE
  5
FB
100
AcDbEntity
  8
0
  6
CONTINUOUS
 62
           7
100
AcDbLine
 10
369.000002682209
 20
312.0
 11
379.000002682209
 21
312.0
  0
LINE
  5
FA
100
AcDbEntity
  8
0
  6
CONTINUOUS
 62
           7
100
AcDbLine
 10
369.000002682209
 20
362.0
 11
379.000002682209
 21
362.0
  0
LINE
  5
F9
100
AcDbEntity
  8
0
  6
CONTINUOUS
 62
           7
100
AcDbLine
 10
392.000002682209
 20
12.0
 11
392.000002682209
 21
62.0
  0
LINE
  5
F8
100
AcDbEntity
  8
0
  6
CONTINUOUS
 62
           7
100
AcDbLine
 10
382.000002682209
 20
12.0
 11
382.000002682209
 21
62.0
  0
LINE
  5
F7
100
AcDbEntity
  8
0
  6
CONTINUOUS
 62
           7
100
AcDbLine
 10
382.000002682209
 20
12.0
 11
392.000002682209
 21
12.0
  0
LINE
  5
F6
100
AcDbEntity
  8
0
  6
CONTINUOUS
 62
           7
100
AcDbLine
 10
382.000002682209
 20
62.0
 11
392.000002682209
 21
62.0
  0
LINE
  5
F5
100
AcDbEntity
  8
0
  6
CONTINUOUS
 62
           7
100
AcDbLine
 10
392.000002682209
 20
72.0
 11
392.000002682209
 21
122.0
  0
LINE
  5
F4
100
AcDbEntity
  8
0
  6
CONTINUOUS
 62
           7
100
AcDbLine
 10
382.000002682209
 20
72.0
 11
382.000002682209
 21
122.0
  0
LINE
  5
F3
100
AcDbEntity
  8
0
  6
CONTINUOUS
 62
           7
100
AcDbLine
 10
382.000002682209
 20
72.0
 11
392.000002682209
 21
72.0
  0
LINE
  5
F2
100
AcDbEntity
  8
0
  6
CONTINUOUS
 62
           7
100
AcDbLine
 10
382.000002682209
 20
122.0
 11
392.000002682209
 21
122.0
  0
LINE
  5
F1
100
AcDbEntity
  8
0
  6
CONTINUOUS
 62
           7
100
AcDbLine
 10
392.000002682209
 20
132.0
 11
392.000002682209
 21
182.0
  0
LINE
  5
F0
100
AcDbEntity
  8
0
  6
CONTINUOUS
 62
           7
100
AcDbLine
 10
382.000002682209
 20
132.0
 11
382.000002682209
 21
182.0
  0
LINE
  5
EF
100
AcDbEntity
  8
0
  6
CONTINUOUS
 62
           7
100
AcDbLine
 10
382.000002682209
 20
132.0
 11
392.000002682209
 21
132.0
  0
LINE
  5
EE
100
AcDbEntity
  8
0
  6
CONTINUOUS
 62
           7
100
AcDbLine
 10
382.000002682209
 20
182.0
 11
392.000002682209
 21
182.0
  0
LINE
  5
ED
100
AcDbEntity
  8
0
  6
CONTINUOUS
 62
           7
100
AcDbLine
 10
392.000002682209
 20
192.0
 11
392.000002682209
 21
242.0
  0
LINE
  5
EC
100
AcDbEntity
  8
0
  6
CONTINUOUS
 62
           7
100
AcDbLine
 10
382.000002682209
 20
192.0
 11
382.000002682209
 21
242.0
  0
LINE
  5
EB
100
AcDbEntity
  8
0
  6
CONTINUOUS
 62
           7
100
AcDbLine
 10
382.000002682209
 20
192.0
 11
392.000002682209
 21
192.0
  0
LINE
  5
EA
100
AcDbEntity
  8
0
  6
CONTINUOUS
 62
           7
100
AcDbLine
 10
382.000002682209
 20
242.0
 11
392.000002682209
 21
242.0
  0
LINE
  5
E9
100
AcDbEntity
  8
0
  6
CONTINUOUS
 62
           7
100
AcDbLine
 10
392.000002682209
 20
252.0
 11
392.000002682209
 21
302.0
  0
LINE
  5
E8
100
AcDbEntity
  8
0
  6
CONTINUOUS
 62
           7
100
AcDbLine
 10
382.000002682209
 20
252.0
 11
382.000002682209
 21
302.0
  0
LINE
  5
E7
100
AcDbEntity
  8
0
  6
CONTINUOUS
 62
           7
100
AcDbLine
 10
382.000002682209
 20
252.0
 11
392.000002682209
 21
252.0
  0
LINE
  5
E6
100
AcDbEntity
  8
0
  6
CONTINUOUS
 62
           7
100
AcDbLine
 10
382.000002682209
 20
302.0
 11
392.000002682209
 21
302.0
  0
LINE
  5
E5
100
AcDbEntity
  8
0
  6
CONTINUOUS
 62
           7
100
AcDbLine
 10
392.000002682209
 20
312.0
 11
392.000002682209
 21
362.0
  0
LINE
  5
E4
100
AcDbEntity
  8
0
  6
CONTINUOUS
 62
           7
100
AcDbLine
 10
382.000002682209
 20
312.0
 11
382.000002682209
 21
362.0
  0
LINE
  5
E3
100
AcDbEntity
  8
0
  6
CONTINUOUS
 62
           7
100
AcDbLine
 10
382.000002682209
 20
312.0
 11
392.000002682209
 21
312.0
  0
LINE
  5
E2
100
AcDbEntity
  8
0
  6
CONTINUOUS
 62
           7
100
AcDbLine
 10
382.000002682209
 20
362.0
 11
392.000002682209
 21
362.0
  0
LINE
  5
E1
100
AcDbEntity
  8
0
  6
CONTINUOUS
 62
           7
100
AcDbLine
 10
405.000002682209
 20
12.0
 11
405.000002682209
 21
62.0
  0
LINE
  5
E0
100
AcDbEntity
  8
0
  6
CONTINUOUS
 62
           7
100
AcDbLine
 10
395.000002682209
 20
12.0
 11
395.000002682209
 21
62.0
  0
LINE
  5
DF
100
AcDbEntity
  8
0
  6
CONTINUOUS
 62
           7
100
AcDbLine
 10
395.000002682209
 20
12.0
 11
405.000002682209
 21
12.0
  0
LINE
  5
DE
100
AcDbEntity
  8
0
  6
CONTINUOUS
 62
           7
100
AcDbLine
 10
395.000002682209
 20
62.0
 11
405.000002682209
 21
62.0
  0
LINE
  5
DD
100
AcDbEntity
  8
0
  6
CONTINUOUS
 62
           7
100
AcDbLine
 10
405.000002682209
 20
72.0
 11
405.000002682209
 21
122.0
  0
LINE
  5
DC
100
AcDbEntity
  8
0
  6
CONTINUOUS
 62
           7
100
AcDbLine
 10
395.000002682209
 20
72.0
 11
395.000002682209
 21
122.0
  0
LINE
  5
DB
100
AcDbEntity
  8
0
  6
CONTINUOUS
 62
           7
100
AcDbLine
 10
395.000002682209
 20
72.0
 11
405.000002682209
 21
72.0
  0
LINE
  5
DA
100
AcDbEntity
  8
0
  6
CONTINUOUS
 62
           7
100
AcDbLine
 10
395.000002682209
 20
122.0
 11
405.000002682209
 21
122.0
  0
LINE
  5
D9
100
AcDbEntity
  8
0
  6
CONTINUOUS
 62
           7
100
AcDbLine
 10
405.000002682209
 20
132.0
 11
405.000002682209
 21
182.0
  0
LINE
  5
D8
100
AcDbEntity
  8
0
  6
CONTINUOUS
 62
           7
100
AcDbLine
 10
395.000002682209
 20
132.0
 11
395.000002682209
 21
182.0
  0
LINE
  5
D7
100
AcDbEntity
  8
0
  6
CONTINUOUS
 62
           7
100
AcDbLine
 10
395.000002682209
 20
132.0
 11
405.000002682209
 21
132.0
  0
LINE
  5
D6
100
AcDbEntity
  8
0
  6
CONTINUOUS
 62
           7
100
AcDbLine
 10
395.000002682209
 20
182.0
 11
405.000002682209
 21
182.0
  0
LINE
  5
D5
100
AcDbEntity
  8
0
  6
CONTINUOUS
 62
           7
100
AcDbLine
 10
405.000002682209
 20
192.0
 11
405.000002682209
 21
242.0
  0
LINE
  5
D4
100
AcDbEntity
  8
0
  6
CONTINUOUS
 62
           7
100
AcDbLine
 10
395.000002682209
 20
192.0
 11
395.000002682209
 21
242.0
  0
LINE
  5
D3
100
AcDbEntity
  8
0
  6
CONTINUOUS
 62
           7
100
AcDbLine
 10
395.000002682209
 20
192.0
 11
405.000002682209
 21
192.0
  0
LINE
  5
D2
100
AcDbEntity
  8
0
  6
CONTINUOUS
 62
           7
100
AcDbLine
 10
395.000002682209
 20
242.0
 11
405.000002682209
 21
242.0
  0
LINE
  5
D1
100
AcDbEntity
  8
0
  6
CONTINUOUS
 62
           7
100
AcDbLine
 10
405.000002682209
 20
252.0
 11
405.000002682209
 21
302.0
  0
LINE
  5
D0
100
AcDbEntity
  8
0
  6
CONTINUOUS
 62
           7
100
AcDbLine
 10
395.000002682209
 20
252.0
 11
395.000002682209
 21
302.0
  0
LINE
  5
CF
100
AcDbEntity
  8
0
  6
CONTINUOUS
 62
           7
100
AcDbLine
 10
395.000002682209
 20
252.0
 11
405.000002682209
 21
252.0
  0
LINE
  5
CE
100
AcDbEntity
  8
0
  6
CONTINUOUS
 62
           7
100
AcDbLine
 10
395.000002682209
 20
302.0
 11
405.000002682209
 21
302.0
  0
LINE
  5
CD
100
AcDbEntity
  8
0
  6
CONTINUOUS
 62
           7
100
AcDbLine
 10
405.000002682209
 20
312.0
 11
405.000002682209
 21
362.0
  0
LINE
  5
CC
100
AcDbEntity
  8
0
  6
CONTINUOUS
 62
           7
100
AcDbLine
 10
395.000002682209
 20
312.0
 11
395.000002682209
 21
362.0
  0
LINE
  5
CB
100
AcDbEntity
  8
0
  6
CONTINUOUS
 62
           7
100
AcDbLine
 10
395.000002682209
 20
312.0
 11
405.000002682209
 21
312.0
  0
LINE
  5
CA
100
AcDbEntity
  8
0
  6
CONTINUOUS
 62
           7
100
AcDbLine
 10
395.000002682209
 20
362.0
 11
405.000002682209
 21
362.0
  0
LINE
  5
C9
100
AcDbEntity
  8
0
  6
CONTINUOUS
 62
           7
100
AcDbLine
 10
418.000002682209
 20
12.0
 11
418.000002682209
 21
62.0
  0
LINE
  5
C8
100
AcDbEntity
  8
0
  6
CONTINUOUS
 62
           7
100
AcDbLine
 10
408.000002682209
 20
12.0
 11
408.000002682209
 21
62.0
  0
LINE
  5
C7
100
AcDbEntity
  8
0
  6
CONTINUOUS
 62
           7
100
AcDbLine
 10
408.000002682209
 20
12.0
 11
418.000002682209
 21
12.0
  0
LINE
  5
C6
100
AcDbEntity
  8
0
  6
CONTINUOUS
 62
           7
100
AcDbLine
 10
408.000002682209
 20
62.0
 11
418.000002682209
 21
62.0
  0
LINE
  5
C5
100
AcDbEntity
  8
0
  6
CONTINUOUS
 62
           7
100
AcDbLine
 10
418.000002682209
 20
72.0
 11
418.000002682209
 21
122.0
  0
LINE
  5
C4
100
AcDbEntity
  8
0
  6
CONTINUOUS
 62
           7
100
AcDbLine
 10
408.000002682209
 20
72.0
 11
408.000002682209
 21
122.0
  0
LINE
  5
C3
100
AcDbEntity
  8
0
  6
CONTINUOUS
 62
           7
100
AcDbLine
 10
408.000002682209
 20
72.0
 11
418.000002682209
 21
72.0
  0
LINE
  5
C2
100
AcDbEntity
  8
0
  6
CONTINUOUS
 62
           7
100
AcDbLine
 10
408.000002682209
 20
122.0
 11
418.000002682209
 21
122.0
  0
LINE
  5
C1
100
AcDbEntity
  8
0
  6
CONTINUOUS
 62
           7
100
AcDbLine
 10
418.000002682209
 20
132.0
 11
418.000002682209
 21
182.0
  0
LINE
  5
C0
100
AcDbEntity
  8
0
  6
CONTINUOUS
 62
           7
100
AcDbLine
 10
408.000002682209
 20
132.0
 11
408.000002682209
 21
182.0
  0
LINE
  5
BF
100
AcDbEntity
  8
0
  6
CONTINUOUS
 62
           7
100
AcDbLine
 10
408.000002682209
 20
132.0
 11
418.000002682209
 21
132.0
  0
LINE
  5
BE
100
AcDbEntity
  8
0
  6
CONTINUOUS
 62
           7
100
AcDbLine
 10
408.000002682209
 20
182.0
 11
418.000002682209
 21
182.0
  0
LINE
  5
BD
100
AcDbEntity
  8
0
  6
CONTINUOUS
 62
           7
100
AcDbLine
 10
418.000002682209
 20
192.0
 11
418.000002682209
 21
242.0
  0
LINE
  5
BC
100
AcDbEntity
  8
0
  6
CONTINUOUS
 62
           7
100
AcDbLine
 10
408.000002682209
 20
192.0
 11
408.000002682209
 21
242.0
  0
LINE
  5
BB
100
AcDbEntity
  8
0
  6
CONTINUOUS
 62
           7
100
AcDbLine
 10
408.000002682209
 20
192.0
 11
418.000002682209
 21
192.0
  0
LINE
  5
BA
100
AcDbEntity
  8
0
  6
CONTINUOUS
 62
           7
100
AcDbLine
 10
408.000002682209
 20
242.0
 11
418.000002682209
 21
242.0
  0
LINE
  5
B9
100
AcDbEntity
  8
0
  6
CONTINUOUS
 62
           7
100
AcDbLine
 10
418.000002682209
 20
252.0
 11
418.000002682209
 21
302.0
  0
LINE
  5
B8
100
AcDbEntity
  8
0
  6
CONTINUOUS
 62
           7
100
AcDbLine
 10
408.000002682209
 20
252.0
 11
408.000002682209
 21
302.0
  0
LINE
  5
B7
100
AcDbEntity
  8
0
  6
CONTINUOUS
 62
           7
100
AcDbLine
 10
408.000002682209
 20
252.0
 11
418.000002682209
 21
252.0
  0
LINE
  5
B6
100
AcDbEntity
  8
0
  6
CONTINUOUS
 62
           7
100
AcDbLine
 10
408.000002682209
 20
302.0
 11
418.000002682209
 21
302.0
  0
LINE
  5
B5
100
AcDbEntity
  8
0
  6
CONTINUOUS
 62
           7
100
AcDbLine
 10
418.000002682209
 20
312.0
 11
418.000002682209
 21
362.0
  0
LINE
  5
B4
100
AcDbEntity
  8
0
  6
CONTINUOUS
 62
           7
100
AcDbLine
 10
408.000002682209
 20
312.0
 11
408.000002682209
 21
362.0
  0
LINE
  5
B3
100
AcDbEntity
  8
0
  6
CONTINUOUS
 62
           7
100
AcDbLine
 10
408.000002682209
 20
312.0
 11
418.000002682209
 21
312.0
  0
LINE
  5
B2
100
AcDbEntity
  8
0
  6
CONTINUOUS
 62
           7
100
AcDbLine
 10
408.000002682209
 20
362.0
 11
418.000002682209
 21
362.0
  0
LINE
  5
B1
100
AcDbEntity
  8
0
  6
CONTINUOUS
 62
           7
100
AcDbLine
 10
431.000002682209
 20
12.0
 11
431.000002682209
 21
62.0
  0
LINE
  5
B0
100
AcDbEntity
  8
0
  6
CONTINUOUS
 62
           7
100
AcDbLine
 10
421.000002682209
 20
12.0
 11
421.000002682209
 21
62.0
  0
LINE
  5
AF
100
AcDbEntity
  8
0
  6
CONTINUOUS
 62
           7
100
AcDbLine
 10
421.000002682209
 20
12.0
 11
431.000002682209
 21
12.0
  0
LINE
  5
AE
100
AcDbEntity
  8
0
  6
CONTINUOUS
 62
           7
100
AcDbLine
 10
421.000002682209
 20
62.0
 11
431.000002682209
 21
62.0
  0
LINE
  5
AD
100
AcDbEntity
  8
0
  6
CONTINUOUS
 62
           7
100
AcDbLine
 10
431.000002682209
 20
72.0
 11
431.000002682209
 21
122.0
  0
LINE
  5
AC
100
AcDbEntity
  8
0
  6
CONTINUOUS
 62
           7
100
AcDbLine
 10
421.000002682209
 20
72.0
 11
421.000002682209
 21
122.0
  0
LINE
  5
AB
100
AcDbEntity
  8
0
  6
CONTINUOUS
 62
           7
100
AcDbLine
 10
421.000002682209
 20
72.0
 11
431.000002682209
 21
72.0
  0
LINE
  5
AA
100
AcDbEntity
  8
0
  6
CONTINUOUS
 62
           7
100
AcDbLine
 10
421.000002682209
 20
122.0
 11
431.000002682209
 21
122.0
  0
LINE
  5
A9
100
AcDbEntity
  8
0
  6
CONTINUOUS
 62
           7
100
AcDbLine
 10
431.000002682209
 20
132.0
 11
431.000002682209
 21
182.0
  0
LINE
  5
A8
100
AcDbEntity
  8
0
  6
CONTINUOUS
 62
           7
100
AcDbLine
 10
421.000002682209
 20
132.0
 11
421.000002682209
 21
182.0
  0
LINE
  5
A7
100
AcDbEntity
  8
0
  6
CONTINUOUS
 62
           7
100
AcDbLine
 10
421.000002682209
 20
132.0
 11
431.000002682209
 21
132.0
  0
LINE
  5
A6
100
AcDbEntity
  8
0
  6
CONTINUOUS
 62
           7
100
AcDbLine
 10
421.000002682209
 20
182.0
 11
431.000002682209
 21
182.0
  0
LINE
  5
A5
100
AcDbEntity
  8
0
  6
CONTINUOUS
 62
           7
100
AcDbLine
 10
431.000002682209
 20
192.0
 11
431.000002682209
 21
242.0
  0
LINE
  5
A4
100
AcDbEntity
  8
0
  6
CONTINUOUS
 62
           7
100
AcDbLine
 10
421.000002682209
 20
192.0
 11
421.000002682209
 21
242.0
  0
LINE
  5
A3
100
AcDbEntity
  8
0
  6
CONTINUOUS
 62
           7
100
AcDbLine
 10
421.000002682209
 20
192.0
 11
431.000002682209
 21
192.0
  0
LINE
  5
A2
100
AcDbEntity
  8
0
  6
CONTINUOUS
 62
           7
100
AcDbLine
 10
421.000002682209
 20
242.0
 11
431.000002682209
 21
242.0
  0
LINE
  5
A1
100
AcDbEntity
  8
0
  6
CONTINUOUS
 62
           7
100
AcDbLine
 10
431.000002682209
 20
252.0
 11
431.000002682209
 21
302.0
  0
LINE
  5
A0
100
AcDbEntity
  8
0
  6
CONTINUOUS
 62
           7
100
AcDbLine
 10
421.000002682209
 20
252.0
 11
421.000002682209
 21
302.0
  0
LINE
  5
9F
100
AcDbEntity
  8
0
  6
CONTINUOUS
 62
           7
100
AcDbLine
 10
421.000002682209
 20
252.0
 11
431.000002682209
 21
252.0
  0
LINE
  5
9E
100
AcDbEntity
  8
0
  6
CONTINUOUS
 62
           7
100
AcDbLine
 10
421.000002682209
 20
302.0
 11
431.000002682209
 21
302.0
  0
LINE
  5
9D
100
AcDbEntity
  8
0
  6
CONTINUOUS
 62
           7
100
AcDbLine
 10
431.000002682209
 20
312.0
 11
431.000002682209
 21
362.0
  0
LINE
  5
9C
100
AcDbEntity
  8
0
  6
CONTINUOUS
 62
           7
100
AcDbLine
 10
421.000002682209
 20
312.0
 11
421.000002682209
 21
362.0
  0
LINE
  5
9B
100
AcDbEntity
  8
0
  6
CONTINUOUS
 62
           7
100
AcDbLine
 10
421.000002682209
 20
312.0
 11
431.000002682209
 21
312.0
  0
LINE
  5
9A
100
AcDbEntity
  8
0
  6
CONTINUOUS
 62
           7
100
AcDbLine
 10
421.000002682209
 20
362.0
 11
431.000002682209
 21
362.0
  0
LINE
  5
99
100
AcDbEntity
  8
0
  6
CONTINUOUS
 62
           7
100
AcDbLine
 10
444.000002682209
 20
12.0
 11
444.000002682209
 21
62.0
  0
LINE
  5
98
100
AcDbEntity
  8
0
  6
CONTINUOUS
 62
           7
100
AcDbLine
 10
434.000002682209
 20
12.0
 11
434.000002682209
 21
62.0
  0
LINE
  5
97
100
AcDbEntity
  8
0
  6
CONTINUOUS
 62
           7
100
AcDbLine
 10
434.000002682209
 20
12.0
 11
444.000002682209
 21
12.0
  0
LINE
  5
96
100
AcDbEntity
  8
0
  6
CONTINUOUS
 62
           7
100
AcDbLine
 10
434.000002682209
 20
62.0
 11
444.000002682209
 21
62.0
  0
LINE
  5
95
100
AcDbEntity
  8
0
  6
CONTINUOUS
 62
           7
100
AcDbLine
 10
444.000002682209
 20
72.0
 11
444.000002682209
 21
122.0
  0
LINE
  5
94
100
AcDbEntity
  8
0
  6
CONTINUOUS
 62
           7
100
AcDbLine
 10
434.000002682209
 20
72.0
 11
434.000002682209
 21
122.0
  0
LINE
  5
93
100
AcDbEntity
  8
0
  6
CONTINUOUS
 62
           7
100
AcDbLine
 10
434.000002682209
 20
72.0
 11
444.000002682209
 21
72.0
  0
LINE
  5
92
100
AcDbEntity
  8
0
  6
CONTINUOUS
 62
           7
100
AcDbLine
 10
434.000002682209
 20
122.0
 11
444.000002682209
 21
122.0
  0
LINE
  5
91
100
AcDbEntity
  8
0
  6
CONTINUOUS
 62
           7
100
AcDbLine
 10
444.000002682209
 20
132.0
 11
444.000002682209
 21
182.0
  0
LINE
  5
90
100
AcDbEntity
  8
0
  6
CONTINUOUS
 62
           7
100
AcDbLine
 10
434.000002682209
 20
132.0
 11
434.000002682209
 21
182.0
  0
LINE
  5
8F
100
AcDbEntity
  8
0
  6
CONTINUOUS
 62
           7
100
AcDbLine
 10
434.000002682209
 20
132.0
 11
444.000002682209
 21
132.0
  0
LINE
  5
8E
100
AcDbEntity
  8
0
  6
CONTINUOUS
 62
           7
100
AcDbLine
 10
434.000002682209
 20
182.0
 11
444.000002682209
 21
182.0
  0
LINE
  5
8D
100
AcDbEntity
  8
0
  6
CONTINUOUS
 62
           7
100
AcDbLine
 10
444.000002682209
 20
192.0
 11
444.000002682209
 21
242.0
  0
LINE
  5
8C
100
AcDbEntity
  8
0
  6
CONTINUOUS
 62
           7
100
AcDbLine
 10
434.000002682209
 20
192.0
 11
434.000002682209
 21
242.0
  0
LINE
  5
8B
100
AcDbEntity
  8
0
  6
CONTINUOUS
 62
           7
100
AcDbLine
 10
434.000002682209
 20
192.0
 11
444.000002682209
 21
192.0
  0
LINE
  5
8A
100
AcDbEntity
  8
0
  6
CONTINUOUS
 62
           7
100
AcDbLine
 10
434.000002682209
 20
242.0
 11
444.000002682209
 21
242.0
  0
LINE
  5
89
100
AcDbEntity
  8
0
  6
CONTINUOUS
 62
           7
100
AcDbLine
 10
444.000002682209
 20
252.0
 11
444.000002682209
 21
302.0
  0
LINE
  5
88
100
AcDbEntity
  8
0
  6
CONTINUOUS
 62
           7
100
AcDbLine
 10
434.000002682209
 20
252.0
 11
434.000002682209
 21
302.0
  0
LINE
  5
87
100
AcDbEntity
  8
0
  6
CONTINUOUS
 62
           7
100
AcDbLine
 10
434.000002682209
 20
252.0
 11
444.000002682209
 21
252.0
  0
LINE
  5
86
100
AcDbEntity
  8
0
  6
CONTINUOUS
 62
           7
100
AcDbLine
 10
434.000002682209
 20
302.0
 11
444.000002682209
 21
302.0
  0
LINE
  5
85
100
AcDbEntity
  8
0
  6
CONTINUOUS
 62
           7
100
AcDbLine
 10
444.000002682209
 20
312.0
 11
444.000002682209
 21
362.0
  0
LINE
  5
84
100
AcDbEntity
  8
0
  6
CONTINUOUS
 62
           7
100
AcDbLine
 10
434.000002682209
 20
312.0
 11
434.000002682209
 21
362.0
  0
LINE
  5
83
100
AcDbEntity
  8
0
  6
CONTINUOUS
 62
           7
100
AcDbLine
 10
434.000002682209
 20
312.0
 11
444.000002682209
 21
312.0
  0
LINE
  5
82
100
AcDbEntity
  8
0
  6
CONTINUOUS
 62
           7
100
AcDbLine
 10
434.000002682209
 20
362.0
 11
444.000002682209
 21
362.0
  0
ENDBLK
  5
3B9
100
AcDbEntity
  8
0
100
AcDbBlockEnd
  0
BLOCK
  5
33
100
AcDbEntity
  8
0
100
AcDbBlockBegin
  2
KOZU0039__S
 70
           0
 10
0.0
 20
0.0
 30
0.0
  3
KOZU0039__S
  1

  0
ARC
  5
3D1
100
AcDbEntity
  8
0
  6
CONTINUOUS
 62
           7
100
AcDbCircle
 10
40.0
 20
568.999997735023
 40
25.0
100
AcDbArc
 50
180.0
 51
-90.0
  0
ARC
  5
3D0
100
AcDbEntity
  8
0
  6
CONTINUOUS
 62
           7
100
AcDbCircle
 10
40.0
 20
568.999997735023
 40
20.0
100
AcDbArc
 50
180.0
 51
-90.0
  0
ARC
  5
3CF
100
AcDbEntity
  8
0
  6
CONTINUOUS
 62
           7
100
AcDbCircle
 10
95.0
 20
673.999997735023
 40
20.0
100
AcDbArc
 50
0.0
 51
90.0
  0
ARC
  5
3CE
100
AcDbEntity
  8
0
  6
CONTINUOUS
 62
           7
100
AcDbCircle
 10
40.0
 20
673.999997735023
 40
20.0
100
AcDbArc
 50
90.0
 51
180.0
  0
ARC
  5
3CD
100
AcDbEntity
  8
0
  6
CONTINUOUS
 62
           7
100
AcDbCircle
 10
95.0
 20
568.999997735023
 40
20.0
100
AcDbArc
 50
-90.0
 51
0.0
  0
ARC
  5
3CC
100
AcDbEntity
  8
0
  6
CONTINUOUS
 62
           7
100
AcDbCircle
 10
95.0
 20
568.999997735023
 40
25.0
100
AcDbArc
 50
-90.0
 51
0.0
  0
ARC
  5
3CB
100
AcDbEntity
  8
0
  6
CONTINUOUS
 62
           7
100
AcDbCircle
 10
40.0
 20
673.999997735023
 40
25.0
100
AcDbArc
 50
90.0
 51
180.0
  0
ARC
  5
3CA
100
AcDbEntity
  8
0
  6
CONTINUOUS
 62
           7
100
AcDbCircle
 10
95.0
 20
673.999997735023
 40
25.0
100
AcDbArc
 50
0.0
 51
90.0
  0
LINE
  5
3C9
100
AcDbEntity
  8
0
  6
CONTINUOUS
 62
           7
100
AcDbLine
 10
288.0
 20
727.0
 11
288.0
 21
15.000000000001
  0
LINE
  5
3C8
100
AcDbEntity
  8
0
  6
CONTINUOUS
 62
           7
100
AcDbLine
 10
0.0
 20
727.0
 11
288.0
 21
727.0
  0
LINE
  5
3C7
100
AcDbEntity
  8
0
  6
CONTINUOUS
 62
           7
100
AcDbLine
 10
15.0
 20
0.0
 11
273.000000000001
 21
0.0
  0
LINE
  5
3C6
100
AcDbEntity
  8
0
  6
CONTINUOUS
 62
           7
100
AcDbLine
 10
0.0
 20
15.000000000001
 11
288.0
 21
15.000000000001
  0
LINE
  5
3C5
100
AcDbEntity
  8
0
  6
CONTINUOUS
 62
           7
100
AcDbLine
 10
20.0
 20
673.999997735023
 11
20.0
 21
568.999997735023
  0
LINE
  5
3C4
100
AcDbEntity
  8
0
  6
CONTINUOUS
 62
           7
100
AcDbLine
 10
95.0
 20
548.999997735023
 11
40.0
 21
548.999997735023
  0
LINE
  5
3C3
100
AcDbEntity
  8
0
  6
CONTINUOUS
 62
           7
100
AcDbLine
 10
15.0
 20
15.000000000001
 11
15.0
 21
0.0
  0
LINE
  5
3C2
100
AcDbEntity
  8
0
  6
CONTINUOUS
 62
           7
100
AcDbLine
 10
273.0
 20
15.000000000001
 11
273.000000000001
 21
0.0
  0
LINE
  5
3C1
100
AcDbEntity
  8
0
  6
CONTINUOUS
 62
           7
100
AcDbLine
 10
40.0
 20
693.999997735023
 11
95.0
 21
693.999997735023
  0
LINE
  5
3C0
100
AcDbEntity
  8
0
  6
CONTINUOUS
 62
           7
100
AcDbLine
 10
115.0
 20
568.999997735023
 11
115.0
 21
673.999997735023
  0
LINE
  5
3BF
100
AcDbEntity
  8
0
  6
CONTINUOUS
 62
           7
100
AcDbLine
 10
120.0
 20
568.999997735023
 11
120.0
 21
673.999997735023
  0
LINE
  5
3BE
100
AcDbEntity
  8
0
  6
CONTINUOUS
 62
           7
100
AcDbLine
 10
40.0
 20
698.999997735023
 11
95.0
 21
698.999997735023
  0
LINE
  5
3BD
100
AcDbEntity
  8
0
  6
CONTINUOUS
 62
           7
100
AcDbLine
 10
15.0
 20
673.999997735023
 11
15.0
 21
568.999997735023
  0
LINE
  5
3BC
100
AcDbEntity
  8
0
  6
CONTINUOUS
 62
           7
100
AcDbLine
 10
95.0
 20
543.999997735023
 11
40.0
 21
543.999997735023
  0
POINT
  5
3BB
100
AcDbEntity
  8
0
 62
           6
100
AcDbPoint
 10
288.0
 20
727.0
  0
POINT
  5
3BA
100
AcDbEntity
  8
0
 62
           6
100
AcDbPoint
 10
288.0
 20
727.0
  0
ENDBLK
  5
3D2
100
AcDbEntity
  8
0
100
AcDbBlockEnd
  0
BLOCK
  5
35
100
AcDbEntity
  8
0
100
AcDbBlockBegin
  2
KOZU0010__S
 70
           0
 10
0.0
 20
0.0
 30
0.0
  3
KOZU0010__S
  1

  0
ARC
  5
449
100
AcDbEntity
  8
0
  6
CONTINUOUS
 62
           7
100
AcDbCircle
 10
-330.699976654849
 20
-235.054462020087
 40
28.145439301115
100
AcDbArc
 50
-101.268974521728
 51
-89.999982013909
  0
ARC
  5
448
100
AcDbEntity
  8
0
  6
CONTINUOUS
 62
           7
100
AcDbCircle
 10
-319.699916056795
 20
-235.054462020087
 40
28.145439301116
100
AcDbArc
 50
-89.999982013911
 51
-78.794865435207
  0
ARC
  5
447
100
AcDbEntity
  8
0
  6
CONTINUOUS
 62
           7
100
AcDbCircle
 10
-325.200031126869
 20
-212.699828305516
 40
34.999991721578
100
AcDbArc
 50
-60.000042650786
 51
0.000017986089
  0
ARC
  5
446
100
AcDbEntity
  8
0
  6
CONTINUOUS
 62
           7
100
AcDbCircle
 10
-325.200031126869
 20
-212.699828305516
 40
34.999991721578
100
AcDbArc
 50
179.999964027821
 51
-119.99999332139
  0
ARC
  5
445
100
AcDbEntity
  8
0
  6
CONTINUOUS
 62
           7
100
AcDbCircle
 10
-399.200068876476
 20
-49.199875492525
 40
6.000009934107
100
AcDbArc
 50
0.0
 51
179.999964027821
  0
ARC
  5
444
100
AcDbEntity
  8
0
  6
CONTINUOUS
 62
           7
100
AcDbCircle
 10
-399.200068876476
 20
-97.199870194334
 40
6.000009934107
100
AcDbArc
 50
179.999981330665
 51
0.000000000001
  0
LINE
  5
443
100
AcDbEntity
  8
0
  6
CONTINUOUS
 62
           7
100
AcDbLine
 10
-374.200069869886
 20
-138.199853306352
 11
-374.200069869886
 21
-141.199858273406
  0
LINE
  5
442
100
AcDbEntity
  8
0
  6
CONTINUOUS
 62
           7
100
AcDbLine
 10
-366.700036259491
 20
-141.199858273406
 11
-283.700025994247
 21
-141.199858273406
  0
LINE
  5
441
100
AcDbEntity
  8
0
  6
CONTINUOUS
 62
           7
100
AcDbLine
 10
-366.700036259491
 20
-141.199858273406
 11
-366.700036259491
 21
-144.199863240459
  0
LINE
  5
440
100
AcDbEntity
  8
0
  6
CONTINUOUS
 62
           7
100
AcDbLine
 10
-366.849911470549
 20
-144.199905625983
 11
-374.200069869886
 21
-144.199905625983
  0
LINE
  5
43F
100
AcDbEntity
  8
0
  6
CONTINUOUS
 62
           7
100
AcDbLine
 10
-405.199994039536
 20
-49.199896685286
 11
-405.199994039536
 21
-97.199870194335
  0
LINE
  5
43E
100
AcDbEntity
  8
0
  6
CONTINUOUS
 62
           7
100
AcDbLine
 10
-347.556953659709
 20
-149.199871518882
 11
-339.200054306452
 21
-149.199871518882
  0
LINE
  5
43D
100
AcDbEntity
  8
0
  6
CONTINUOUS
 62
           7
100
AcDbLine
 10
-298.199944037863
 20
-59.19989204937
 11
-298.199944037863
 21
-87.199853637489
  0
LINE
  5
43C
100
AcDbEntity
  8
0
  6
CONTINUOUS
 62
           7
100
AcDbLine
 10
-308.592366513805
 20
-53.199879435489
 11
-298.200081215584
 21
-59.199868257602
  0
LINE
  5
43B
100
AcDbEntity
  8
0
  6
CONTINUOUS
 62
           7
100
AcDbLine
 10
-341.807696482565
 20
-53.199882115263
 11
-308.592281000126
 21
-53.199882115263
  0
LINE
  5
43A
100
AcDbEntity
  8
0
  6
CONTINUOUS
 62
           7
100
AcDbLine
 10
-298.200028808911
 20
-62.700003808074
 11
-284.199944037863
 21
-62.700003808074
  0
LINE
  5
439
100
AcDbEntity
  8
0
  6
CONTINUOUS
 62
           7
100
AcDbLine
 10
-308.592352211423
 20
-93.199880972814
 11
-298.200030206262
 21
-87.19987095794
  0
LINE
  5
438
100
AcDbEntity
  8
0
  6
CONTINUOUS
 62
           7
100
AcDbLine
 10
-393.199974171322
 20
-68.199864565007
 11
-367.199931123525
 21
-68.199864565007
  0
LINE
  5
437
100
AcDbEntity
  8
0
  6
CONTINUOUS
 62
           7
100
AcDbLine
 10
-393.199974171322
 20
-49.199896685286
 11
-393.199974171322
 21
-97.199870194335
  0
LINE
  5
436
100
AcDbEntity
  8
0
  6
CONTINUOUS
 62
           7
100
AcDbLine
 10
-367.200015894571
 20
-63.199898672108
 11
-367.200015894571
 21
-83.199889400275
  0
LINE
  5
435
100
AcDbEntity
  8
0
  6
CONTINUOUS
 62
           7
100
AcDbLine
 10
-367.199931123525
 20
-63.199813901061
 11
-352.19994867378
 21
-63.199813901061
  0
LINE
  5
434
100
AcDbEntity
  8
0
  6
CONTINUOUS
 62
           7
100
AcDbLine
 10
-352.19994867378
 20
-59.19989204937
 11
-352.19994867378
 21
-87.199853637489
  0
LINE
  5
433
100
AcDbEntity
  8
0
  6
CONTINUOUS
 62
           7
100
AcDbLine
 10
-352.199912899942
 20
-59.19989377228
 11
-341.807590894782
 21
-53.199883757406
  0
LINE
  5
432
100
AcDbEntity
  8
0
  6
CONTINUOUS
 62
           7
100
AcDbLine
 10
-374.200069869886
 20
-138.199810920829
 11
-276.199992383851
 21
-138.199810920829
  0
LINE
  5
431
100
AcDbEntity
  8
0
  6
CONTINUOUS
 62
           7
100
AcDbLine
 10
-366.700036259491
 20
-141.199858273406
 11
-374.200069869886
 21
-141.199858273406
  0
LINE
  5
430
100
AcDbEntity
  8
0
  6
CONTINUOUS
 62
           7
100
AcDbLine
 10
-345.200064240559
 20
-131.199756945514
 11
-305.200082784226
 21
-131.199756945514
  0
LINE
  5
42F
100
AcDbEntity
  8
0
  6
CONTINUOUS
 62
           7
100
AcDbLine
 10
-287.700032616985
 20
-131.199756945514
 11
-305.200082784226
 21
-131.199756945514
  0
LINE
  5
42E
100
AcDbEntity
  8
0
  6
CONTINUOUS
 62
           7
100
AcDbLine
 10
-305.200167555273
 20
-129.899877711142
 11
-305.200167555273
 21
-131.199841716561
  0
LINE
  5
42D
100
AcDbEntity
  8
0
  6
CONTINUOUS
 62
           7
100
AcDbLine
 10
-305.200082784226
 20
-129.899877711142
 11
-310.200048677125
 21
-129.899877711142
  0
LINE
  5
42C
100
AcDbEntity
  8
0
  6
CONTINUOUS
 62
           7
100
AcDbLine
 10
-340.200013576613
 20
-129.899877711142
 11
-310.200048677125
 21
-129.899877711142
  0
LINE
  5
42B
100
AcDbEntity
  8
0
  6
CONTINUOUS
 62
           7
100
AcDbLine
 10
-340.200013576613
 20
-129.899877711142
 11
-345.200064240559
 21
-129.899877711142
  0
LINE
  5
42A
100
AcDbEntity
  8
0
  6
CONTINUOUS
 62
           7
100
AcDbLine
 10
-345.200064240559
 20
-131.199756945514
 11
-362.700029636753
 21
-131.199756945514
  0
LINE
  5
429
100
AcDbEntity
  8
0
  6
CONTINUOUS
 62
           7
100
AcDbLine
 10
-362.700058893291
 20
-131.19990379738
 11
-374.200133004021
 21
-138.199948559365
  0
LINE
  5
428
100
AcDbEntity
  8
0
  6
CONTINUOUS
 62
           3
100
AcDbLine
 10
-325.200031126869
 20
-53.199882115263
 11
-325.200031126869
 21
-263.199805953775
  0
LINE
  5
427
100
AcDbEntity
  8
0
  6
CONTINUOUS
 62
           7
100
AcDbLine
 10
-393.199974171322
 20
-78.199881121852
 11
-367.199931123525
 21
-78.199881121852
  0
LINE
  5
426
100
AcDbEntity
  8
0
  6
CONTINUOUS
 62
           7
100
AcDbLine
 10
-367.199931123525
 20
-83.199847014751
 11
-352.19994867378
 21
-83.199847014751
  0
LINE
  5
425
100
AcDbEntity
  8
0
  6
CONTINUOUS
 62
           7
100
AcDbLine
 10
-352.199942716501
 20
-87.199808736321
 11
-341.807657418281
 21
-93.199797558434
  0
LINE
  5
424
100
AcDbEntity
  8
0
  6
CONTINUOUS
 62
           7
100
AcDbLine
 10
-341.807696482565
 20
-93.199863571596
 11
-339.199969535405
 21
-93.199863571596
  0
LINE
  5
423
100
AcDbEntity
  8
0
  6
CONTINUOUS
 62
           7
100
AcDbLine
 10
-339.199969535405
 20
-93.199863571596
 11
-339.199969535405
 21
-101.199876817072
  0
LINE
  5
422
100
AcDbEntity
  8
0
  6
CONTINUOUS
 62
           7
100
AcDbLine
 10
-336.199922182828
 20
-101.199876817072
 11
-336.199922182828
 21
-115.199857611132
  0
LINE
  5
421
100
AcDbEntity
  8
0
  6
CONTINUOUS
 62
           7
100
AcDbLine
 10
-339.200099335555
 20
-115.199945787977
 11
-340.20005709429
 21
-116.199898995054
  0
LINE
  5
420
100
AcDbEntity
  8
0
  6
CONTINUOUS
 62
           7
100
AcDbLine
 10
-340.199928805566
 20
-116.199859266817
 11
-340.199928805566
 21
-129.899877711142
  0
LINE
  5
41F
100
AcDbEntity
  8
0
  6
CONTINUOUS
 62
           7
100
AcDbLine
 10
-331.413070702033
 20
-115.199857611132
 11
-331.413070702033
 21
-129.899877711142
  0
LINE
  5
41E
100
AcDbEntity
  8
0
  6
CONTINUOUS
 62
           7
100
AcDbLine
 10
-310.199963906078
 20
-116.199859266817
 11
-310.199963906078
 21
-129.899877711142
  0
LINE
  5
41D
100
AcDbEntity
  8
0
  6
CONTINUOUS
 62
           7
100
AcDbLine
 10
-318.98682200961
 20
-115.199857611132
 11
-318.98682200961
 21
-129.899877711142
  0
LINE
  5
41C
100
AcDbEntity
  8
0
  6
CONTINUOUS
 62
           7
100
AcDbLine
 10
-311.200007947286
 20
-115.199815225608
 11
-339.200054306452
 21
-115.199815225608
  0
LINE
  5
41B
100
AcDbEntity
  8
0
  6
CONTINUOUS
 62
           7
100
AcDbLine
 10
-310.200073878547
 20
-116.199727504182
 11
-311.200057056647
 21
-115.199739774287
  0
LINE
  5
41A
100
AcDbEntity
  8
0
  6
CONTINUOUS
 62
           7
100
AcDbLine
 10
-314.199970528816
 20
-101.199876817072
 11
-314.199970528816
 21
-115.199857611132
  0
LINE
  5
419
100
AcDbEntity
  8
0
  6
CONTINUOUS
 62
           7
100
AcDbLine
 10
-338.699989900324
 20
-101.199876817072
 11
-311.699987582366
 21
-101.199876817072
  0
LINE
  5
418
100
AcDbEntity
  8
0
  6
CONTINUOUS
 62
           7
100
AcDbLine
 10
-311.199923176239
 20
-93.199863571597
 11
-311.199923176239
 21
-101.199876817072
  0
LINE
  5
417
100
AcDbEntity
  8
0
  6
CONTINUOUS
 62
           7
100
AcDbLine
 10
-311.200007947286
 20
-93.199863571596
 11
-308.592281000126
 21
-93.199863571596
  0
LINE
  5
416
100
AcDbEntity
  8
0
  6
CONTINUOUS
 62
           7
100
AcDbLine
 10
-298.200028808911
 20
-83.699826649832
 11
-284.199944037863
 21
-83.699826649832
  0
LINE
  5
415
100
AcDbEntity
  8
0
  6
CONTINUOUS
 62
           7
100
AcDbLine
 10
-375.199956451979
 20
-145.199789176972
 11
-374.200005394302
 21
-144.19982926885
  0
LINE
  5
414
100
AcDbEntity
  8
0
  6
CONTINUOUS
 62
           7
100
AcDbLine
 10
-375.200029140048
 20
-161.199849001573
 11
-375.200029140048
 21
-145.199864896144
  0
LINE
  5
413
100
AcDbEntity
  8
0
  6
CONTINUOUS
 62
           7
100
AcDbLine
 10
-373.199941057631
 20
-149.199871518882
 11
-373.199941057631
 21
-161.199849001573
  0
LINE
  5
412
100
AcDbEntity
  8
0
  6
CONTINUOUS
 62
           7
100
AcDbLine
 10
-373.200025828678
 20
-149.199871518882
 11
-369.923201007716
 21
-149.199871518882
  0
LINE
  5
411
100
AcDbEntity
  8
0
  6
CONTINUOUS
 62
           7
100
AcDbLine
 10
-276.200077154898
 20
-144.199905625983
 11
-366.849911470549
 21
-144.199905625983
  0
LINE
  5
410
100
AcDbEntity
  8
0
  6
CONTINUOUS
 62
           7
100
AcDbLine
 10
-366.923153655139
 20
-149.199871518882
 11
-366.923153655139
 21
-161.199849001573
  0
LINE
  5
40F
100
AcDbEntity
  8
0
  6
CONTINUOUS
 62
           7
100
AcDbLine
 10
-366.923153655139
 20
-149.199871518882
 11
-362.6131393136
 21
-149.199871518882
  0
LINE
  5
40E
100
AcDbEntity
  8
0
  6
CONTINUOUS
 62
           7
100
AcDbLine
 10
-362.613393626741
 20
-149.199871518882
 11
-362.613393626741
 21
-161.199849001573
  0
LINE
  5
40D
100
AcDbEntity
  8
0
  6
CONTINUOUS
 62
           7
100
AcDbLine
 10
-358.370433183361
 20
-149.199871518882
 11
-358.370433183361
 21
-161.199849001573
  0
LINE
  5
40C
100
AcDbEntity
  8
0
  6
CONTINUOUS
 62
           7
100
AcDbLine
 10
-358.370433183361
 20
-149.199871518882
 11
-352.75299498427
 21
-149.199871518882
  0
LINE
  5
40B
100
AcDbEntity
  8
0
  6
CONTINUOUS
 62
           7
100
AcDbLine
 10
-352.75299498427
 20
-149.199871518882
 11
-352.75299498427
 21
-161.199849001573
  0
LINE
  5
40A
100
AcDbEntity
  8
0
  6
CONTINUOUS
 62
           7
100
AcDbLine
 10
-347.556868888662
 20
-149.199871518882
 11
-347.556868888662
 21
-161.199849001573
  0
LINE
  5
409
100
AcDbEntity
  8
0
  6
CONTINUOUS
 62
           7
100
AcDbLine
 10
-339.200308619593
 20
-149.199871518882
 11
-339.200308619593
 21
-161.199849001573
  0
LINE
  5
408
100
AcDbEntity
  8
0
  6
CONTINUOUS
 62
           7
100
AcDbLine
 10
-369.923201007716
 20
-149.199871518882
 11
-369.923201007716
 21
-161.199849001573
  0
LINE
  5
407
100
AcDbEntity
  8
0
  6
CONTINUOUS
 62
           7
100
AcDbLine
 10
-375.19995913132
 20
-161.199927387569
 11
-360.949949167777
 21
-165.199930277216
  0
LINE
  5
406
100
AcDbEntity
  8
0
  6
CONTINUOUS
 62
           7
100
AcDbLine
 10
-275.20003311369
 20
-161.199891387096
 11
-375.200029140048
 21
-161.199891387096
  0
LINE
  5
405
100
AcDbEntity
  8
0
  6
CONTINUOUS
 62
           7
100
AcDbLine
 10
-360.950016142924
 20
-165.199898009834
 11
-289.450046110814
 21
-165.199898009834
  0
LINE
  5
404
100
AcDbEntity
  8
0
  6
CONTINUOUS
 62
           7
100
AcDbLine
 10
-287.700144637756
 20
-131.199883004345
 11
-276.200142938332
 21
-138.199883689885
  0
LINE
  5
403
100
AcDbEntity
  8
0
  6
CONTINUOUS
 62
           7
100
AcDbLine
 10
-276.199992383851
 20
-138.199853306352
 11
-276.199992383851
 21
-141.199858273406
  0
LINE
  5
402
100
AcDbEntity
  8
0
  6
CONTINUOUS
 62
           7
100
AcDbLine
 10
-276.200077154898
 20
-141.199858273406
 11
-283.700025994247
 21
-141.199858273406
  0
LINE
  5
401
100
AcDbEntity
  8
0
  6
CONTINUOUS
 62
           7
100
AcDbLine
 10
-283.700025994247
 20
-141.199858273406
 11
-283.700025994247
 21
-144.199863240459
  0
LINE
  5
400
100
AcDbEntity
  8
0
  6
CONTINUOUS
 62
           7
100
AcDbLine
 10
-275.200287509273
 20
-145.199989812344
 11
-276.200268537908
 21
-144.199999932999
  0
LINE
  5
3FF
100
AcDbEntity
  8
0
  6
CONTINUOUS
 62
           7
100
AcDbLine
 10
-275.20003311369
 20
-161.199849001573
 11
-275.20003311369
 21
-145.199864896144
  0
LINE
  5
3FE
100
AcDbEntity
  8
0
  6
CONTINUOUS
 62
           7
100
AcDbLine
 10
-277.199951654012
 20
-149.199871518882
 11
-277.199951654012
 21
-161.199849001573
  0
LINE
  5
3FD
100
AcDbEntity
  8
0
  6
CONTINUOUS
 62
           7
100
AcDbLine
 10
-280.300028842024
 20
-149.199786747835
 11
-280.300028842024
 21
-161.199849001573
  0
LINE
  5
3FC
100
AcDbEntity
  8
0
  6
CONTINUOUS
 62
           7
100
AcDbLine
 10
-287.787177253279
 20
-149.199871518882
 11
-287.787177253279
 21
-161.199849001573
  0
LINE
  5
3FB
100
AcDbEntity
  8
0
  6
CONTINUOUS
 62
           7
100
AcDbLine
 10
-283.476908598599
 20
-149.199871518882
 11
-283.476908598599
 21
-161.199849001573
  0
LINE
  5
3FA
100
AcDbEntity
  8
0
  6
CONTINUOUS
 62
           7
100
AcDbLine
 10
-283.476823827552
 20
-149.199871518882
 11
-287.787177253279
 21
-149.199871518882
  0
LINE
  5
3F9
100
AcDbEntity
  8
0
  6
CONTINUOUS
 62
           7
100
AcDbLine
 10
-277.20003642506
 20
-149.199871518882
 11
-280.300028842024
 21
-149.199871518882
  0
LINE
  5
3F8
100
AcDbEntity
  8
0
  6
CONTINUOUS
 62
           7
100
AcDbLine
 10
-292.029713841423
 20
-149.199871518882
 11
-297.646982498421
 21
-149.199871518882
  0
LINE
  5
3F7
100
AcDbEntity
  8
0
  6
CONTINUOUS
 62
           7
100
AcDbLine
 10
-297.647067269468
 20
-149.199871518882
 11
-297.647067269468
 21
-161.199849001573
  0
LINE
  5
3F6
100
AcDbEntity
  8
0
  6
CONTINUOUS
 62
           7
100
AcDbLine
 10
-292.02979861247
 20
-149.199871518882
 11
-292.02979861247
 21
-161.199849001573
  0
LINE
  5
3F5
100
AcDbEntity
  8
0
  6
CONTINUOUS
 62
           7
100
AcDbLine
 10
-302.84336290717
 20
-149.199871518882
 11
-302.84336290717
 21
-161.199849001573
  0
LINE
  5
3F4
100
AcDbEntity
  8
0
  6
CONTINUOUS
 62
           7
100
AcDbLine
 10
-311.199923176239
 20
-149.199871518882
 11
-311.199923176239
 21
-161.199849001573
  0
LINE
  5
3F3
100
AcDbEntity
  8
0
  6
CONTINUOUS
 62
           7
100
AcDbLine
 10
-302.843193365076
 20
-149.199871518882
 11
-311.200007947286
 21
-149.199871518882
  0
LINE
  5
3F2
100
AcDbEntity
  8
0
  6
CONTINUOUS
 62
           7
100
AcDbLine
 10
-275.199856263078
 20
-161.199880690432
 11
-289.44986622662
 21
-165.199883580079
  0
LINE
  5
3F1
100
AcDbEntity
  8
0
  6
CONTINUOUS
 62
           7
100
AcDbLine
 10
-360.94995815803
 20
-165.199837200988
 11
-360.191235244124
 21
-213.25229199568
  0
LINE
  5
3F0
100
AcDbEntity
  8
0
  6
CONTINUOUS
 62
           7
100
AcDbLine
 10
-289.449851929737
 20
-165.19980882778
 11
-290.208574843643
 21
-213.252263622472
  0
LINE
  5
3EF
100
AcDbEntity
  8
0
  6
CONTINUOUS
 62
           7
100
AcDbLine
 10
-345.200064240559
 20
-129.899877711142
 11
-345.200064240559
 21
-131.199841716561
  0
LINE
  5
3EE
100
AcDbEntity
  8
0
  6
CONTINUOUS
 62
           7
100
AcDbLine
 10
-325.200031126869
 20
-263.199805953775
 11
-330.700061425896
 21
-263.199805953775
  0
LINE
  5
3ED
100
AcDbEntity
  8
0
  6
CONTINUOUS
 62
           7
100
AcDbLine
 10
-325.200031126869
 20
-263.199805953775
 11
-319.700000827842
 21
-263.199805953775
  0
LINE
  5
3EC
100
AcDbEntity
  8
0
  6
CONTINUOUS
 62
           7
100
AcDbLine
 10
-314.199970528816
 20
-250.742446287111
 11
-314.199970528816
 21
-262.657271253112
  0
LINE
  5
3EB
100
AcDbEntity
  8
0
  6
CONTINUOUS
 62
           7
100
AcDbLine
 10
-316.224942777322
 20
-250.199598465916
 11
-314.199987475273
 21
-250.742183608357
  0
LINE
  5
3EA
100
AcDbEntity
  8
0
  6
CONTINUOUS
 62
           7
100
AcDbLine
 10
-316.950081472686
 20
-249.199705930482
 11
-316.225090620097
 21
-250.199692813251
  0
LINE
  5
3E9
100
AcDbEntity
  8
0
  6
CONTINUOUS
 62
           7
100
AcDbLine
 10
-316.949943292805
 20
-248.699845524635
 11
-316.949943292805
 21
-249.199825159716
  0
LINE
  5
3E8
100
AcDbEntity
  8
0
  6
CONTINUOUS
 62
           7
100
AcDbLine
 10
-325.200031126869
 20
-248.699887910159
 11
-311.000202589557
 21
-248.699887910159
  0
LINE
  5
3E7
100
AcDbEntity
  8
0
  6
CONTINUOUS
 62
           7
100
AcDbLine
 10
-316.22481175695
 20
-248.699845524635
 11
-316.22481175695
 21
-250.1998268154
  0
LINE
  5
3E6
100
AcDbEntity
  8
0
  6
CONTINUOUS
 62
           7
100
AcDbLine
 10
-310.200167884692
 20
-247.899703515615
 11
-311.000095901135
 21
-248.699632341206
  0
LINE
  5
3E5
100
AcDbEntity
  8
0
  6
CONTINUOUS
 62
           7
100
AcDbLine
 10
-310.200302990266
 20
-242.999797940262
 11
-310.200302990266
 21
-247.899733997727
  0
LINE
  5
3E4
100
AcDbEntity
  8
0
  6
CONTINUOUS
 62
           7
100
AcDbLine
 10
-342.70008129411
 20
-242.999882711309
 11
-307.700065730675
 21
-242.999882711309
  0
LINE
  5
3E3
100
AcDbEntity
  8
0
  6
CONTINUOUS
 62
           7
100
AcDbLine
 10
-339.450044123992
 20
-248.699887910159
 11
-325.200031126869
 21
-248.699887910159
  0
LINE
  5
3E2
100
AcDbEntity
  8
0
  6
CONTINUOUS
 62
           7
100
AcDbLine
 10
-334.17521015248
 20
-250.199828339015
 11
-336.20016545453
 21
-250.742413481456
  0
LINE
  5
3E1
100
AcDbEntity
  8
0
  6
CONTINUOUS
 62
           7
100
AcDbLine
 10
-333.450091246928
 20
-249.199938262714
 11
-334.175063440315
 21
-250.199899408666
  0
LINE
  5
3E0
100
AcDbEntity
  8
0
  6
CONTINUOUS
 62
           7
100
AcDbLine
 10
-334.175080954694
 20
-248.699845524635
 11
-334.175080954694
 21
-250.1998268154
  0
LINE
  5
3DF
100
AcDbEntity
  8
0
  6
CONTINUOUS
 62
           7
100
AcDbLine
 10
-333.449949418838
 20
-248.699845524635
 11
-333.449949418838
 21
-249.199825159716
  0
LINE
  5
3DE
100
AcDbEntity
  8
0
  6
CONTINUOUS
 62
           7
100
AcDbLine
 10
-325.200031126869
 20
-250.1998268154
 11
-334.175165725741
 21
-250.1998268154
  0
LINE
  5
3DD
100
AcDbEntity
  8
0
  6
CONTINUOUS
 62
           7
100
AcDbLine
 10
-336.199922182828
 20
-250.742446287111
 11
-336.199922182828
 21
-262.657271253112
  0
LINE
  5
3DC
100
AcDbEntity
  8
0
  6
CONTINUOUS
 62
           7
100
AcDbLine
 10
-325.200031126869
 20
-250.1998268154
 11
-316.225066070091
 21
-250.1998268154
  0
LINE
  5
3DB
100
AcDbEntity
  8
0
  6
CONTINUOUS
 62
           7
100
AcDbLine
 10
-340.19995109949
 20
-247.899810826361
 11
-339.399948694839
 21
-248.6998151192
  0
LINE
  5
3DA
100
AcDbEntity
  8
0
  6
CONTINUOUS
 62
           7
100
AcDbLine
 10
-340.199928805566
 20
-242.999797940262
 11
-340.199928805566
 21
-247.89977638325
  0
POINT
  5
3D9
100
AcDbEntity
  8
0
 62
           7
100
AcDbPoint
 10
-405.199994039536
 20
-73.2
  0
POINT
  5
3D8
100
AcDbEntity
  8
0
 62
           7
100
AcDbPoint
 10
-325.200031126869
 20
-263.199805953775
  0
POINT
  5
3D7
100
AcDbEntity
  8
0
 62
           7
100
AcDbPoint
 10
-325.200031126869
 20
-53.199882115263
  0
POINT
  5
3D6
100
AcDbEntity
  8
0
 62
           7
100
AcDbPoint
 10
-284.199944037863
 20
-73.2
  0
POINT
  5
3D5
100
AcDbEntity
  8
0
 62
           7
100
AcDbPoint
 10
-405.199994039536
 20
-73.2
  0
POINT
  5
3D4
100
AcDbEntity
  8
0
 62
           7
100
AcDbPoint
 10
-284.199944037863
 20
-73.2
  0
POINT
  5
3D3
100
AcDbEntity
  8
0
 62
           7
100
AcDbPoint
 10
-325.200031126869
 20
-73.2
  0
ENDBLK
  5
44A
100
AcDbEntity
  8
0
100
AcDbBlockEnd
  0
ENDSEC
  0
SECTION
  2
ENTITIES
  0
ARC
  5
55E
100
AcDbEntity
  8
0
  6
CONTINUOUS
 62
           7
100
AcDbCircle
 10
-1230.30394058606
 20
-441.429674991379
 40
5.99992516306
100
AcDbArc
 50
179.999982013914
 51
0.0
  0
ARC
  5
55D
100
AcDbEntity
  8
0
  6
CONTINUOUS
 62
           7
100
AcDbCircle
 10
-1230.30394058606
 20
-393.429595518522
 40
5.99992516306
100
AcDbArc
 50
0.000017986085
 51
179.999982013914
  0
ARC
  5
55C
100
AcDbEntity
  8
0
  6
CONTINUOUS
 62
           7
100
AcDbCircle
 10
-1156.30390283646
 20
-417.429550483904
 40
49.999998013186
100
AcDbArc
 50
17.457502008866
 51
174.260901903428
  0
ARC
  5
55B
100
AcDbEntity
  8
0
  6
CONTINUOUS
 62
           7
100
AcDbCircle
 10
-1156.30390283646
 20
-417.429550483904
 40
49.999998013173
100
AcDbArc
 50
-174.260801271823
 51
-17.457705670627
  0
ARC
  5
55A
100
AcDbEntity
  8
0
  6
CONTINUOUS
 62
           7
100
AcDbCircle
 10
-1086.64364648065
 20
-1453.92963751993
 40
28.660254037847
100
AcDbArc
 50
162.412046225996
 51
-162.412046226015
  0
ARC
  5
559
100
AcDbEntity
  8
0
  6
CONTINUOUS
 62
           7
100
AcDbCircle
 10
-1088.65326542389
 20
-1436.60912944424
 40
26.751469280685
100
AcDbArc
 50
-175.023726763518
 51
-161.111347820433
  0
ARC
  5
558
100
AcDbEntity
  8
0
  6
CONTINUOUS
 62
           7
100
AcDbCircle
 10
-1088.65326542389
 20
-1471.25014559562
 40
26.751469280682
100
AcDbArc
 50
161.111347820413
 51
175.023726763519
  0
ARC
  5
557
100
AcDbEntity
  8
0
  6
CONTINUOUS
 62
           7
100
AcDbCircle
 10
-1103.03381988123
 20
-501.929634857587
 40
12.999999801319
100
AcDbArc
 50
90.000035972186
 51
-179.999982013911
  0
ARC
  5
556
100
AcDbEntity
  8
0
  6
CONTINUOUS
 62
           7
100
AcDbCircle
 10
-1103.03381988123
 20
-501.929634857587
 40
6.999999403954
100
AcDbArc
 50
90.000035972174
 51
-179.999982013912
  0
LINE
  5
555
100
AcDbEntity
  8
0
  6
CONTINUOUS
 62
           7
100
AcDbLine
 10
-1092.5039005185
 20
-1748.92963525495
 11
-492.503900518498
 21
-1748.92963525495
  0
LINE
  5
554
100
AcDbEntity
  8
0
  6
CONTINUOUS
 62
           7
100
AcDbLine
 10
-522.503900518498
 20
-1748.92963525495
 11
-522.503900518498
 21
-1788.92963525495
  0
LINE
  5
553
100
AcDbEntity
  8
0
  6
CONTINUOUS
 62
           7
100
AcDbLine
 10
-520.503900518498
 20
-1750.92963525495
 11
-520.503900518498
 21
-1786.92963525495
  0
LINE
  5
552
100
AcDbEntity
  8
0
  6
CONTINUOUS
 62
           7
100
AcDbLine
 10
-492.503900518498
 20
-1786.92963525495
 11
-492.503900518498
 21
-1788.92963525495
  0
LINE
  5
551
100
AcDbEntity
  8
0
  6
CONTINUOUS
 62
           7
100
AcDbLine
 10
-522.503900518498
 20
-1788.92963525495
 11
-492.503900518498
 21
-1788.92963525495
  0
LINE
  5
550
100
AcDbEntity
  8
0
  6
CONTINUOUS
 62
           7
100
AcDbLine
 10
-520.503900518498
 20
-1786.92963525495
 11
-492.503900518498
 21
-1786.92963525495
  0
LINE
  5
54F
100
AcDbEntity
  8
0
  6
CONTINUOUS
 62
           7
100
AcDbLine
 10
-520.503900518498
 20
-1750.92963525495
 11
-492.503900518498
 21
-1750.92963525495
  0
LINE
  5
54E
100
AcDbEntity
  8
0
  6
CONTINUOUS
 62
           3
100
AcDbLine
 10
-612.503900518498
 20
-998.929637519928
 11
-612.503900518498
 21
-1022.729637519928
  0
LINE
  5
54D
100
AcDbEntity
  8
0
  6
CONTINUOUS
 62
           7
100
AcDbLine
 10
-1092.5039005185
 20
-1023.929637519928
 11
-1092.5039005185
 21
-1750.92963525495
  0
LINE
  5
54C
100
AcDbEntity
  8
0
  6
CONTINUOUS
 62
           3
100
AcDbLine
 10
-507.503900518498
 20
-1773.90381773866
 11
-507.503900518498
 21
-1800.35542775319
  0
LINE
  5
54B
100
AcDbEntity
  8
0
  6
CONTINUOUS
 62
           7
100
AcDbLine
 10
-492.503900518498
 20
-1023.929637519928
 11
-492.503900518498
 21
-1750.92963525495
  0
LINE
  5
54A
100
AcDbEntity
  8
0
  6
CONTINUOUS
 62
           7
100
AcDbLine
 10
-1092.5039005185
 20
-1786.92963525495
 11
-1092.5039005185
 21
-1788.92963525495
  0
LINE
  5
549
100
AcDbEntity
  8
0
  6
CONTINUOUS
 62
           7
100
AcDbLine
 10
-1062.5039005185
 20
-1748.92963525495
 11
-1062.5039005185
 21
-1788.92963525495
  0
LINE
  5
548
100
AcDbEntity
  8
0
  6
CONTINUOUS
 62
           7
100
AcDbLine
 10
-1064.5039005185
 20
-1750.92963525495
 11
-1064.5039005185
 21
-1786.92963525495
  0
LINE
  5
547
100
AcDbEntity
  8
0
  6
CONTINUOUS
 62
           7
100
AcDbLine
 10
-1062.5039005185
 20
-1788.92963525495
 11
-1092.5039005185
 21
-1788.92963525495
  0
LINE
  5
546
100
AcDbEntity
  8
0
  6
CONTINUOUS
 62
           7
100
AcDbLine
 10
-1064.5039005185
 20
-1786.92963525495
 11
-1092.5039005185
 21
-1786.92963525495
  0
LINE
  5
545
100
AcDbEntity
  8
0
  6
CONTINUOUS
 62
           7
100
AcDbLine
 10
-1064.5039005185
 20
-1750.92963525495
 11
-1092.5039005185
 21
-1750.92963525495
  0
LINE
  5
544
100
AcDbEntity
  8
0
  6
CONTINUOUS
 62
           3
100
AcDbLine
 10
-1077.5039005185
 20
-1773.90381773866
 11
-1077.5039005185
 21
-1800.35542775319
  0
LINE
  5
543
100
AcDbEntity
  8
0
  6
CONTINUOUS
 62
           3
100
AcDbLine
 10
-1017.5039005185
 20
-988.520431320547
 11
-1017.5039005185
 21
-1022.729637519928
  0
LINE
  5
542
100
AcDbEntity
  8
0
  6
CONTINUOUS
 62
           7
100
AcDbLine
 10
-1092.5039005185
 20
-173.929635254951
 11
-1092.5039005185
 21
-203.929635254951
  0
LINE
  5
541
100
AcDbEntity
  8
0
  6
CONTINUOUS
 62
           7
100
AcDbLine
 10
-1092.5039005185
 20
-493.929635254951
 11
-1092.5039005185
 21
-523.929635254951
  0
LINE
  5
540
100
AcDbEntity
  8
0
  6
CONTINUOUS
 62
           7
100
AcDbLine
 10
-1062.5039005185
 20
-523.929635254951
 11
-1092.5039005185
 21
-523.929635254951
  0
LINE
  5
53F
100
AcDbEntity
  8
0
  6
CONTINUOUS
 62
           7
100
AcDbLine
 10
-1062.5039005185
 20
-173.929635254951
 11
-1092.5039005185
 21
-173.929635254951
  0
LINE
  5
53E
100
AcDbEntity
  8
0
  6
CONTINUOUS
 62
           7
100
AcDbLine
 10
-492.503900518498
 20
-204.929635254951
 11
-518.303900518498
 21
-204.929635254951
  0
LINE
  5
53D
100
AcDbEntity
  8
0
  6
CONTINUOUS
 62
           7
100
AcDbLine
 10
-492.503900518498
 20
-173.929635254951
 11
-492.503900518498
 21
-203.929635254951
  0
LINE
  5
53C
100
AcDbEntity
  8
0
  6
CONTINUOUS
 62
           7
100
AcDbLine
 10
-492.503900518498
 20
-492.929635254951
 11
-518.303900518498
 21
-492.929635254951
  0
LINE
  5
53B
100
AcDbEntity
  8
0
  6
CONTINUOUS
 62
           7
100
AcDbLine
 10
-492.503900518498
 20
-203.929635254951
 11
-492.503900518498
 21
-493.929635254951
  0
LINE
  5
53A
100
AcDbEntity
  8
0
  6
CONTINUOUS
 62
           7
100
AcDbLine
 10
-522.503900518498
 20
-523.929635254951
 11
-492.503900518498
 21
-523.929635254951
  0
LINE
  5
539
100
AcDbEntity
  8
0
  6
CONTINUOUS
 62
           7
100
AcDbLine
 10
-523.503900518498
 20
-173.929635254951
 11
-523.503900518498
 21
-199.729635254951
  0
LINE
  5
538
100
AcDbEntity
  8
0
  6
CONTINUOUS
 62
           7
100
AcDbLine
 10
-523.503900518498
 20
-523.929635254951
 11
-523.503900518498
 21
-498.129635254951
  0
LINE
  5
537
100
AcDbEntity
  8
0
  6
CONTINUOUS
 62
           7
100
AcDbLine
 10
-1061.5039005185
 20
-523.929635254951
 11
-1061.5039005185
 21
-498.129635254951
  0
LINE
  5
536
100
AcDbEntity
  8
0
  6
CONTINUOUS
 62
           7
100
AcDbLine
 10
-522.503900518498
 20
-173.929635254951
 11
-492.503900518498
 21
-173.929635254951
  0
LINE
  5
535
100
AcDbEntity
  8
0
  6
CONTINUOUS
 62
           7
100
AcDbLine
 10
-1092.5039005185
 20
-203.929635254951
 11
-1092.5039005185
 21
-218.929635254951
  0
LINE
  5
534
100
AcDbEntity
  8
0
  6
CONTINUOUS
 62
           7
100
AcDbLine
 10
-492.503900518498
 20
-493.929635254951
 11
-492.503900518498
 21
-523.929635254951
  0
LINE
  5
533
100
AcDbEntity
  8
0
  6
CONTINUOUS
 62
           7
100
AcDbLine
 10
-1092.5039005185
 20
-203.929635254951
 11
-1092.5039005185
 21
-493.929635254951
  0
LINE
  5
532
100
AcDbEntity
  8
0
  6
CONTINUOUS
 62
           7
100
AcDbLine
 10
-1092.5039005185
 20
-493.929635254951
 11
-1092.5039005185
 21
-478.929635254951
  0
LINE
  5
531
100
AcDbEntity
  8
0
  6
CONTINUOUS
 62
           7
100
AcDbLine
 10
-1236.30386574912
 20
-393.429606114903
 11
-1236.30386574912
 21
-441.429664394998
  0
LINE
  5
530
100
AcDbEntity
  8
0
  6
CONTINUOUS
 62
           7
100
AcDbLine
 10
-1224.30393065196
 20
-393.429606114903
 11
-1224.30393065196
 21
-441.429664394998
  0
LINE
  5
52F
100
AcDbEntity
  8
0
  6
CONTINUOUS
 62
           3
100
AcDbLine
 10
-1240.50422588845
 20
-417.429635254951
 11
-1115.3039005185
 21
-417.429635254951
  0
LINE
  5
52E
100
AcDbEntity
  8
0
  6
CONTINUOUS
 62
           7
100
AcDbLine
 10
-1224.30384588091
 20
-422.42960114785
 11
-1198.30388760416
 21
-422.42960114785
  0
LINE
  5
52D
100
AcDbEntity
  8
0
  6
CONTINUOUS
 62
           7
100
AcDbLine
 10
-1224.30384588091
 20
-412.429669362052
 11
-1198.30388760416
 21
-412.429669362052
  0
LINE
  5
52C
100
AcDbEntity
  8
0
  6
CONTINUOUS
 62
           7
100
AcDbLine
 10
-1198.30388760416
 20
-407.429618698106
 11
-1183.30390515441
 21
-407.429618698106
  0
LINE
  5
52B
100
AcDbEntity
  8
0
  6
CONTINUOUS
 62
           7
100
AcDbLine
 10
-1198.30388760416
 20
-407.429650487248
 11
-1198.30388760416
 21
-427.429641215415
  0
LINE
  5
52A
100
AcDbEntity
  8
0
  6
CONTINUOUS
 62
           7
100
AcDbLine
 10
-1198.30388760416
 20
-427.429651811796
 11
-1183.30390515441
 21
-427.429651811796
  0
LINE
  5
529
100
AcDbEntity
  8
0
  6
CONTINUOUS
 62
           7
100
AcDbLine
 10
-1183.30390515441
 20
-403.429707442795
 11
-1183.30390515441
 21
-431.429711416438
  0
LINE
  5
528
100
AcDbEntity
  8
0
  6
CONTINUOUS
 62
           7
100
AcDbLine
 10
-1183.30395692435
 20
-431.429579010418
 11
-1172.91163443066
 21
-437.429588179134
  0
LINE
  5
527
100
AcDbEntity
  8
0
  6
CONTINUOUS
 62
           7
100
AcDbLine
 10
-1183.30387282778
 20
-403.4295781001
 11
-1172.91155144205
 21
-397.42956701234
  0
LINE
  5
526
100
AcDbEntity
  8
0
  6
CONTINUOUS
 62
           7
100
AcDbLine
 10
-1172.91156819215
 20
-397.429602141261
 11
-1139.69615270971
 21
-397.429602141261
  0
LINE
  5
525
100
AcDbEntity
  8
0
  6
CONTINUOUS
 62
           7
100
AcDbLine
 10
-1139.69619995527
 20
-397.429752122788
 11
-1129.30395087546
 21
-403.429718905986
  0
LINE
  5
524
100
AcDbEntity
  8
0
  6
CONTINUOUS
 62
           7
100
AcDbLine
 10
-1129.3039005185
 20
-406.929639063025
 11
-1115.3039005185
 21
-406.929639063025
  0
LINE
  5
523
100
AcDbEntity
  8
0
  6
CONTINUOUS
 62
           7
100
AcDbLine
 10
-1129.3039005185
 20
-427.929631446876
 11
-1115.3039005185
 21
-427.929631446876
  0
LINE
  5
522
100
AcDbEntity
  8
0
  6
CONTINUOUS
 62
           7
100
AcDbLine
 10
-1129.3039005185
 20
-403.429696846415
 11
-1129.3039005185
 21
-431.429700820057
  0
LINE
  5
521
100
AcDbEntity
  8
0
  6
CONTINUOUS
 62
           7
100
AcDbLine
 10
-1139.69628743639
 20
-437.429597505604
 11
-1129.3040027576
 21
-431.42960761061
  0
LINE
  5
520
100
AcDbEntity
  8
0
  6
CONTINUOUS
 62
           7
100
AcDbLine
 10
-1172.91156819215
 20
-437.429668368641
 11
-1139.69623748076
 21
-437.429668368641
  0
LINE
  5
51F
100
AcDbEntity
  8
0
  6
CONTINUOUS
 62
           3
100
AcDbLine
 10
-1156.30390283646
 20
-367.429552470725
 11
-1156.30390283646
 21
-467.429548497082
  0
LINE
  5
51E
100
AcDbEntity
  8
0
  6
CONTINUOUS
 62
           7
100
AcDbLine
 10
-1115.3039005185
 20
-417.429635254951
 11
-1092.5039005185
 21
-417.429635254951
  0
LINE
  5
51D
100
AcDbEntity
  8
0
  6
CONTINUOUS
 62
           3
100
AcDbLine
 10
-1236.30395052017
 20
-1453.92963751993
 11
-1092.5039005185
 21
-1453.92963751993
  0
LINE
  5
51C
100
AcDbEntity
  8
0
  6
CONTINUOUS
 62
           7
100
AcDbLine
 10
187.896099481502
 20
-1748.92963525495
 11
-162.103900518498
 21
-1748.92963525495
  0
LINE
  5
51B
100
AcDbEntity
  8
0
  6
CONTINUOUS
 62
           7
100
AcDbLine
 10
187.896099481502
 20
-1788.92963525495
 11
-162.103900518498
 21
-1788.92963525495
  0
LINE
  5
51A
100
AcDbEntity
  8
0
  6
CONTINUOUS
 62
           7
100
AcDbLine
 10
187.896099481502
 20
-1022.929637519928
 11
156.896099481502
 21
-1022.929637519928
  0
LINE
  5
519
100
AcDbEntity
  8
0
  6
CONTINUOUS
 62
           7
100
AcDbLine
 10
187.896099481502
 20
-1786.92963525495
 11
-162.103900518498
 21
-1786.92963525495
  0
LINE
  5
518
100
AcDbEntity
  8
0
  6
CONTINUOUS
 62
           7
100
AcDbLine
 10
187.896099481502
 20
-1750.92963525495
 11
-162.103900518498
 21
-1750.92963525495
  0
LINE
  5
517
100
AcDbEntity
  8
0
  6
CONTINUOUS
 62
           3
100
AcDbLine
 10
-87.103900518498
 20
-980.855991325337
 11
-87.103900518498
 21
-1023.929637519928
  0
LINE
  5
516
100
AcDbEntity
  8
0
  6
CONTINUOUS
 62
           7
100
AcDbLine
 10
-162.103900518498
 20
-1021.929637519928
 11
-162.103900518498
 21
-1788.92963525495
  0
LINE
  5
515
100
AcDbEntity
  8
0
  6
CONTINUOUS
 62
           3
100
AcDbLine
 10
-137.103900518498
 20
-1768.13382350733
 11
-137.103900518498
 21
-1803.47585998013
  0
LINE
  5
514
100
AcDbEntity
  8
0
  6
CONTINUOUS
 62
           3
100
AcDbLine
 10
162.896099481502
 20
-1768.67754714538
 11
162.896099481502
 21
-1803.47585998013
  0
LINE
  5
513
100
AcDbEntity
  8
0
  6
CONTINUOUS
 62
           7
100
AcDbLine
 10
-117.103900518498
 20
-1733.92963525495
 11
-117.103900518498
 21
-1748.92963525495
  0
LINE
  5
512
100
AcDbEntity
  8
0
  6
CONTINUOUS
 62
           7
100
AcDbLine
 10
157.896099481502
 20
-1022.929637519928
 11
157.896099481502
 21
-1748.92963525495
  0
LINE
  5
511
100
AcDbEntity
  8
0
  6
CONTINUOUS
 62
           7
100
AcDbLine
 10
-132.103900518498
 20
-1022.929637519928
 11
-132.103900518498
 21
-1748.92963525495
  0
LINE
  5
510
100
AcDbEntity
  8
0
  6
CONTINUOUS
 62
           7
100
AcDbLine
 10
142.896099481502
 20
-1733.92963525495
 11
142.896099481502
 21
-1748.92963525495
  0
LINE
  5
50F
100
AcDbEntity
  8
0
  6
CONTINUOUS
 62
           7
100
AcDbLine
 10
142.896099481502
 20
-1733.92963525495
 11
-117.103900518498
 21
-1733.92963525495
  0
LINE
  5
50E
100
AcDbEntity
  8
0
  6
CONTINUOUS
 62
           7
100
AcDbLine
 10
187.896099481502
 20
-1021.929637519928
 11
156.896099481502
 21
-1021.929637519928
  0
LINE
  5
50D
100
AcDbEntity
  8
0
  6
CONTINUOUS
 62
           7
100
AcDbLine
 10
-131.103900518498
 20
-1021.929637519928
 11
-162.103900518498
 21
-1021.929637519928
  0
LINE
  5
50C
100
AcDbEntity
  8
0
  6
CONTINUOUS
 62
           7
100
AcDbLine
 10
-131.103900518498
 20
-1022.929637519928
 11
-162.103900518498
 21
-1022.929637519928
  0
LINE
  5
50B
100
AcDbEntity
  8
0
  6
CONTINUOUS
 62
           7
100
AcDbLine
 10
-66.603900518498
 20
-993.929637519928
 11
-107.603900518498
 21
-993.929637519928
  0
LINE
  5
50A
100
AcDbEntity
  8
0
  6
CONTINUOUS
 62
           7
100
AcDbLine
 10
-107.603900518498
 20
-993.929637519928
 11
-107.603900518498
 21
-1021.929635254951
  0
LINE
  5
509
100
AcDbEntity
  8
0
  6
CONTINUOUS
 62
           7
100
AcDbLine
 10
-66.603900518498
 20
-993.929637519928
 11
-66.603900518498
 21
-1021.929635254951
  0
LINE
  5
508
100
AcDbEntity
  8
0
  6
CONTINUOUS
 62
           7
100
AcDbLine
 10
-87.103900518498
 20
-993.929637519928
 11
-87.103900518498
 21
-1021.929635254951
  0
LINE
  5
507
100
AcDbEntity
  8
0
  6
CONTINUOUS
 62
           7
100
AcDbLine
 10
-1113.96415455634
 20
-1471.25014559562
 11
-1092.5039005185
 21
-1471.25014559562
  0
LINE
  5
506
100
AcDbEntity
  8
0
  6
CONTINUOUS
 62
           7
100
AcDbLine
 10
-1113.96415455634
 20
-1436.60912944424
 11
-1092.5039005185
 21
-1436.60912944424
  0
LINE
  5
505
100
AcDbEntity
  8
0
  6
CONTINUOUS
 62
           7
100
AcDbLine
 10
-1115.3039005185
 20
-1438.92963751993
 11
-1113.96415455634
 21
-1436.60912944424
  0
LINE
  5
504
100
AcDbEntity
  8
0
  6
CONTINUOUS
 62
           7
100
AcDbLine
 10
-1115.3039005185
 20
-1438.92963751993
 11
-1115.3039005185
 21
-1468.92963751993
  0
LINE
  5
503
100
AcDbEntity
  8
0
  6
CONTINUOUS
 62
           7
100
AcDbLine
 10
-1115.3039005185
 20
-1468.92963751993
 11
-1113.96415455634
 21
-1471.25014559562
  0
LINE
  5
502
100
AcDbEntity
  8
0
  6
CONTINUOUS
 62
           7
100
AcDbLine
 10
-1113.96415455634
 20
-1462.58989155777
 11
-1092.5039005185
 21
-1462.58989155777
  0
LINE
  5
501
100
AcDbEntity
  8
0
  6
CONTINUOUS
 62
           7
100
AcDbLine
 10
-1113.96415455634
 20
-1445.26938348208
 11
-1092.5039005185
 21
-1445.26938348208
  0
LINE
  5
500
100
AcDbEntity
  8
0
  6
CONTINUOUS
 62
           7
100
AcDbLine
 10
-1115.3039005185
 20
-432.429635254951
 11
-1092.5039005185
 21
-432.429635254951
  0
LINE
  5
4FF
100
AcDbEntity
  8
0
  6
CONTINUOUS
 62
           7
100
AcDbLine
 10
-1115.3039005185
 20
-402.429635254951
 11
-1092.5039005185
 21
-402.429635254951
  0
LINE
  5
4FE
100
AcDbEntity
  8
0
  6
CONTINUOUS
 62
           7
100
AcDbLine
 10
-1062.5039005185
 20
-523.929635254951
 11
-522.503900518498
 21
-523.929635254951
  0
LINE
  5
4FD
100
AcDbEntity
  8
0
  6
CONTINUOUS
 62
           7
100
AcDbLine
 10
-1062.5039005185
 20
-173.929635254951
 11
-522.503900518498
 21
-173.929635254951
  0
LINE
  5
4FC
100
AcDbEntity
  8
0
  6
CONTINUOUS
 62
           7
100
AcDbLine
 10
-1056.5039005185
 20
-493.129635254951
 11
-528.503900518498
 21
-493.129635254951
  0
LINE
  5
4FB
100
AcDbEntity
  8
0
  6
CONTINUOUS
 62
           7
100
AcDbLine
 10
-1056.5039005185
 20
-204.729635254951
 11
-528.503900518498
 21
-204.729635254951
  0
LINE
  5
4FA
100
AcDbEntity
  8
0
  6
CONTINUOUS
 62
           7
100
AcDbLine
 10
-523.303900518498
 20
-209.929635254951
 11
-523.303900518498
 21
-487.929635254951
  0
LINE
  5
4F9
100
AcDbEntity
  8
0
  6
CONTINUOUS
 62
           7
100
AcDbLine
 10
-528.503900518498
 20
-204.729635254951
 11
-523.503900518498
 21
-199.729635254951
  0
LINE
  5
4F8
100
AcDbEntity
  8
0
  6
CONTINUOUS
 62
           7
100
AcDbLine
 10
-523.303900518498
 20
-209.929635254951
 11
-518.303900518498
 21
-204.929635254951
  0
LINE
  5
4F7
100
AcDbEntity
  8
0
  6
CONTINUOUS
 62
           7
100
AcDbLine
 10
-528.503900518498
 20
-493.129635254951
 11
-523.503900518498
 21
-498.129635254951
  0
LINE
  5
4F6
100
AcDbEntity
  8
0
  6
CONTINUOUS
 62
           7
100
AcDbLine
 10
-523.303900518498
 20
-487.929635254951
 11
-518.303900518498
 21
-492.929635254951
  0
LINE
  5
4F5
100
AcDbEntity
  8
0
  6
CONTINUOUS
 62
           7
100
AcDbLine
 10
-1092.5039005185
 20
-188.929635254951
 11
-1062.5039005185
 21
-188.929635254951
  0
LINE
  5
4F4
100
AcDbEntity
  8
0
  6
CONTINUOUS
 62
           7
100
AcDbLine
 10
-1061.5039005185
 20
-173.929635254951
 11
-1061.5039005185
 21
-199.729635254951
  0
LINE
  5
4F3
100
AcDbEntity
  8
0
  6
CONTINUOUS
 62
           7
100
AcDbLine
 10
-1061.5039005185
 20
-199.729635254951
 11
-1056.5039005185
 21
-204.729635254951
  0
LINE
  5
4F2
100
AcDbEntity
  8
0
  6
CONTINUOUS
 62
           7
100
AcDbLine
 10
-1061.5039005185
 20
-498.129635254951
 11
-1056.5039005185
 21
-493.129635254951
  0
LINE
  5
4F1
100
AcDbEntity
  8
0
  6
CONTINUOUS
 62
           7
100
AcDbLine
 10
-1092.5039005185
 20
-508.929635254951
 11
-1062.5039005185
 21
-508.929635254951
  0
LINE
  5
4F0
100
AcDbEntity
  8
0
  6
CONTINUOUS
 62
           7
100
AcDbLine
 10
-492.503900518498
 20
-1021.929635254951
 11
-492.503900518498
 21
-1748.92963525495
  0
LINE
  5
4EF
100
AcDbEntity
  8
0
  6
CONTINUOUS
 62
           7
100
AcDbLine
 10
-523.503900518498
 20
-1021.929635254951
 11
-492.503900518498
 21
-1021.929635254951
  0
LINE
  5
4EE
100
AcDbEntity
  8
0
  6
CONTINUOUS
 62
           7
100
AcDbLine
 10
-1061.5039005185
 20
-1021.929635254951
 11
-1092.5039005185
 21
-1021.929635254951
  0
LINE
  5
4ED
100
AcDbEntity
  8
0
  6
CONTINUOUS
 62
           7
100
AcDbLine
 10
-1062.5039005185
 20
-1021.929635254951
 11
-1062.5039005185
 21
-1750.92963525495
  0
LINE
  5
4EC
100
AcDbEntity
  8
0
  6
CONTINUOUS
 62
           7
100
AcDbLine
 10
-522.503900518498
 20
-1021.929635254951
 11
-522.503900518498
 21
-1748.92963525495
  0
LINE
  5
4EB
100
AcDbEntity
  8
0
  6
CONTINUOUS
 62
           7
100
AcDbLine
 10
-522.503900518498
 20
-173.929635254951
 11
-522.503900518498
 21
-203.929635254951
  0
LINE
  5
4EA
100
AcDbEntity
  8
0
  6
CONTINUOUS
 62
           7
100
AcDbLine
 10
-522.503900518498
 20
-523.929635254951
 11
-522.503900518498
 21
-493.929635254951
  0
LINE
  5
4E9
100
AcDbEntity
  8
0
  6
CONTINUOUS
 62
           7
100
AcDbLine
 10
-1062.5039005185
 20
-523.929635254951
 11
-1062.5039005185
 21
-508.929635254951
  0
LINE
  5
4E8
100
AcDbEntity
  8
0
  6
CONTINUOUS
 62
           7
100
AcDbLine
 10
-1062.5039005185
 20
-173.929635254951
 11
-1062.5039005185
 21
-188.929635254951
  0
LINE
  5
4E7
100
AcDbEntity
  8
0
  6
CONTINUOUS
 62
           7
100
AcDbLine
 10
-492.503900518498
 20
-493.929635254951
 11
-522.503900518498
 21
-493.929635254951
  0
LINE
  5
4E6
100
AcDbEntity
  8
0
  6
CONTINUOUS
 62
           7
100
AcDbLine
 10
-492.503900518498
 20
-203.929635254951
 11
-522.503900518498
 21
-203.929635254951
  0
LINE
  5
4E5
100
AcDbEntity
  8
0
  6
CONTINUOUS
 62
           7
100
AcDbLine
 10
-1115.3039005185
 20
-402.429635254951
 11
-1115.3039005185
 21
-432.429635254951
  0
LINE
  5
4E4
100
AcDbEntity
  8
0
  6
CONTINUOUS
 62
           7
100
AcDbLine
 10
-1114.03381266245
 20
-575.309443009092
 11
-1114.03381266245
 21
-567.854569168303
  0
LINE
  5
4E3
100
AcDbEntity
  8
0
  6
CONTINUOUS
 62
           7
100
AcDbLine
 10
-1116.03379901961
 20
-567.854569168304
 11
-1110.03383994813
 21
-567.854569168304
  0
LINE
  5
4E2
100
AcDbEntity
  8
0
  6
CONTINUOUS
 62
           7
100
AcDbLine
 10
-1116.03379901961
 20
-501.929634857587
 11
-1116.03379901961
 21
-537.320919665456
  0
LINE
  5
4E1
100
AcDbEntity
  8
0
  6
CONTINUOUS
 62
           7
100
AcDbLine
 10
-1110.03383994813
 20
-501.929634857587
 11
-1110.03383994813
 21
-538.760891532065
  0
LINE
  5
4E0
100
AcDbEntity
  8
0
  6
CONTINUOUS
 62
           7
100
AcDbLine
 10
-1092.51903961871
 20
-488.929655719211
 11
-1103.03381988123
 21
-488.929655719211
  0
LINE
  5
4DF
100
AcDbEntity
  8
0
  6
CONTINUOUS
 62
           7
100
AcDbLine
 10
-1092.48876141828
 20
-494.92961479069
 11
-1103.03381988123
 21
-494.92961479069
  0
LINE
  5
4DE
100
AcDbEntity
  8
0
  6
CONTINUOUS
 62
           7
100
AcDbLine
 10
-1121.94213731994
 20
-535.902925681037
 11
-1105.72675663503
 21
-539.794621031185
  0
LINE
  5
4DD
100
AcDbEntity
  8
0
  6
CONTINUOUS
 62
           7
100
AcDbLine
 10
-1123.10900316593
 20
-540.764861726546
 11
-1106.89362248103
 21
-544.656557076695
  0
LINE
  5
4DC
100
AcDbEntity
  8
0
  6
CONTINUOUS
 62
           7
100
AcDbLine
 10
-1110.03383994813
 20
-543.902899791282
 11
-1110.03383994813
 21
-567.854569168304
  0
LINE
  5
4DB
100
AcDbEntity
  8
0
  6
CONTINUOUS
 62
           7
100
AcDbLine
 10
-1116.03379901961
 20
-542.462927924673
 11
-1116.03379901961
 21
-567.854569168304
  0
LINE
  5
4DA
100
AcDbEntity
  8
0
  6
CONTINUOUS
 62
           7
100
AcDbLine
 10
-1112.03382630529
 20
-575.309443009092
 11
-1112.03382630529
 21
-567.854569168303
  0
LINE
  5
4D9
100
AcDbEntity
  8
0
  6
CONTINUOUS
 62
           7
100
AcDbLine
 10
-1092.5039005185
 20
-1717.92965571921
 11
-1121.69518532636
 21
-1717.92965571921
  0
LINE
  5
4D8
100
AcDbEntity
  8
0
  6
CONTINUOUS
 62
           7
100
AcDbLine
 10
-1092.5039005185
 20
-1723.92961479069
 11
-1123.13515719297
 21
-1723.92961479069
  0
LINE
  5
4D7
100
AcDbEntity
  8
0
  6
CONTINUOUS
 62
           7
100
AcDbLine
 10
-1120.27719134195
 20
-1712.02131741888
 11
-1124.16888669209
 21
-1728.23669810379
  0
LINE
  5
4D6
100
AcDbEntity
  8
0
  6
CONTINUOUS
 62
           7
100
AcDbLine
 10
-1125.13912738746
 20
-1710.85445157289
 11
-1129.0308227376
 21
-1727.06983225779
  0
LINE
  5
4D5
100
AcDbEntity
  8
0
  6
CONTINUOUS
 62
           7
100
AcDbLine
 10
-1128.27716545219
 20
-1723.92961479069
 11
-1142.15687776895
 21
-1723.92961479069
  0
LINE
  5
4D4
100
AcDbEntity
  8
0
  6
CONTINUOUS
 62
           7
100
AcDbLine
 10
-1126.83719358558
 20
-1717.92965571921
 11
-1142.15687776895
 21
-1717.92965571921
  0
LINE
  5
4D3
100
AcDbEntity
  8
0
  6
CONTINUOUS
 62
           7
100
AcDbLine
 10
-532.503900518498
 20
-1031.929635254951
 11
-532.503900518498
 21
-1091.929635254951
  0
LINE
  5
4D2
100
AcDbEntity
  8
0
  6
CONTINUOUS
 62
           7
100
AcDbLine
 10
-632.503900518498
 20
-1031.929635254951
 11
-532.503900518498
 21
-1031.929635254951
  0
LINE
  5
4D1
100
AcDbEntity
  8
0
  6
CONTINUOUS
 62
           7
100
AcDbLine
 10
-632.503900518498
 20
-1031.929635254951
 11
-632.503900518498
 21
-1091.929635254951
  0
LINE
  5
4D0
100
AcDbEntity
  8
0
  6
CONTINUOUS
 62
           7
100
AcDbLine
 10
-632.503900518498
 20
-1091.929635254951
 11
-532.503900518498
 21
-1091.929635254951
  0
LINE
  5
4CF
100
AcDbEntity
  8
0
  6
CONTINUOUS
 62
           7
100
AcDbLine
 10
36.896099481502
 20
-1723.92963525495
 11
146.896099481502
 21
-1723.92963525495
  0
LINE
  5
4CE
100
AcDbEntity
  8
0
  6
CONTINUOUS
 62
           7
100
AcDbLine
 10
36.896099481502
 20
-1678.92963525495
 11
146.896099481502
 21
-1678.92963525495
  0
LINE
  5
4CD
100
AcDbEntity
  8
0
  6
CONTINUOUS
 62
           7
100
AcDbLine
 10
146.896099481502
 20
-1678.92963525495
 11
146.896099481502
 21
-1723.92963525495
  0
LINE
  5
4CC
100
AcDbEntity
  8
0
  6
CONTINUOUS
 62
           7
100
AcDbLine
 10
36.896099481502
 20
-1678.92963525495
 11
36.896099481502
 21
-1723.92963525495
  0
LINE
  5
4CB
100
AcDbEntity
  8
0
  6
CONTINUOUS
 62
           7
100
AcDbLine
 10
187.896099481502
 20
-1021.929637519928
 11
187.896099481502
 21
-1788.92963525495
  0
LINE
  5
4CA
100
AcDbEntity
  8
1
  6
CONTINUOUS
 62
           2
100
AcDbLine
 10
1062.572586178728
 20
-1835.909349034647
 11
1052.972586178728
 21
-1835.909349034647
  0
LINE
  5
4C9
100
AcDbEntity
  8
1
  6
CONTINUOUS
 62
           2
100
AcDbLine
 10
1052.972586178728
 20
-1835.909349034647
 11
1052.972586178728
 21
-1823.909349034647
  0
LINE
  5
4C8
100
AcDbEntity
  8
1
  6
CONTINUOUS
 62
           2
100
AcDbLine
 10
1052.972586178728
 20
-1823.909349034647
 11
1064.372586178728
 21
-1823.909349034647
  0
LINE
  5
4C7
100
AcDbEntity
  8
1
  6
CONTINUOUS
 62
           2
100
AcDbLine
 10
1064.372586178728
 20
-1823.909349034647
 11
1066.772586178728
 21
-1824.509349034647
  0
LINE
  5
4C6
100
AcDbEntity
  8
1
  6
CONTINUOUS
 62
           2
100
AcDbLine
 10
1066.772586178728
 20
-1824.509349034647
 11
1068.572586178728
 21
-1825.709349034647
  0
LINE
  5
4C5
100
AcDbEntity
  8
1
  6
CONTINUOUS
 62
           2
100
AcDbLine
 10
1068.572586178728
 20
-1825.709349034647
 11
1069.172586178728
 21
-1826.909349034647
  0
LINE
  5
4C4
100
AcDbEntity
  8
1
  6
CONTINUOUS
 62
           2
100
AcDbLine
 10
1069.172586178728
 20
-1826.909349034647
 11
1069.772586178728
 21
-1828.709349034647
  0
LINE
  5
4C3
100
AcDbEntity
  8
1
  6
CONTINUOUS
 62
           2
100
AcDbLine
 10
1069.772586178728
 20
-1828.709349034647
 11
1069.772586178728
 21
-1831.109349034647
  0
LINE
  5
4C2
100
AcDbEntity
  8
1
  6
CONTINUOUS
 62
           2
100
AcDbLine
 10
1069.772586178728
 20
-1831.109349034647
 11
1069.172586178728
 21
-1832.909349034647
  0
LINE
  5
4C1
100
AcDbEntity
  8
1
  6
CONTINUOUS
 62
           2
100
AcDbLine
 10
1069.172586178728
 20
-1832.909349034647
 11
1068.572586178728
 21
-1834.109349034647
  0
LINE
  5
4C0
100
AcDbEntity
  8
1
  6
CONTINUOUS
 62
           2
100
AcDbLine
 10
1068.572586178728
 20
-1834.109349034647
 11
1066.772586178728
 21
-1835.309349034647
  0
LINE
  5
4BF
100
AcDbEntity
  8
1
  6
CONTINUOUS
 62
           2
100
AcDbLine
 10
1066.772586178728
 20
-1835.309349034647
 11
1064.372586178728
 21
-1835.909349034647
  0
LINE
  5
4BE
100
AcDbEntity
  8
1
  6
CONTINUOUS
 62
           2
100
AcDbLine
 10
1064.372586178728
 20
-1835.909349034647
 11
1062.572586178728
 21
-1835.909349034647
  0
LINE
  5
4BD
100
AcDbEntity
  8
1
  6
CONTINUOUS
 62
           2
100
AcDbLine
 10
1062.572586178728
 20
-1835.909349034647
 11
1069.772586178728
 21
-1847.909349034647
  0
LINE
  5
4BC
100
AcDbEntity
  8
1
  6
CONTINUOUS
 62
           2
100
AcDbLine
 10
1052.972586178728
 20
-1847.909349034647
 11
1052.972586178728
 21
-1835.909349034647
  0
LINE
  5
4BB
100
AcDbEntity
  8
1
  6
CONTINUOUS
 62
           2
100
AcDbLine
 10
1093.772586178728
 20
-1831.109349034647
 11
1093.772586178728
 21
-1840.709349034647
  0
LINE
  5
4BA
100
AcDbEntity
  8
1
  6
CONTINUOUS
 62
           2
100
AcDbLine
 10
1093.772586178728
 20
-1840.709349034647
 11
1093.172586178728
 21
-1843.109349034647
  0
LINE
  5
4B9
100
AcDbEntity
  8
1
  6
CONTINUOUS
 62
           2
100
AcDbLine
 10
1093.172586178728
 20
-1843.109349034647
 11
1091.972586178728
 21
-1844.909349034647
  0
LINE
  5
4B8
100
AcDbEntity
  8
1
  6
CONTINUOUS
 62
           2
100
AcDbLine
 10
1091.972586178728
 20
-1844.909349034647
 11
1090.772586178728
 21
-1846.109349034647
  0
LINE
  5
4B7
100
AcDbEntity
  8
1
  6
CONTINUOUS
 62
           2
100
AcDbLine
 10
1090.772586178728
 20
-1846.109349034647
 11
1088.972586178728
 21
-1847.309349034647
  0
LINE
  5
4B6
100
AcDbEntity
  8
1
  6
CONTINUOUS
 62
           2
100
AcDbLine
 10
1088.972586178728
 20
-1847.309349034647
 11
1086.572586178728
 21
-1847.909349034647
  0
LINE
  5
4B5
100
AcDbEntity
  8
1
  6
CONTINUOUS
 62
           2
100
AcDbLine
 10
1086.572586178728
 20
-1847.909349034647
 11
1076.972586178728
 21
-1847.909349034647
  0
LINE
  5
4B4
100
AcDbEntity
  8
1
  6
CONTINUOUS
 62
           2
100
AcDbLine
 10
1076.972586178728
 20
-1847.909349034647
 11
1076.972586178728
 21
-1823.909349034647
  0
LINE
  5
4B3
100
AcDbEntity
  8
1
  6
CONTINUOUS
 62
           2
100
AcDbLine
 10
1076.972586178728
 20
-1823.909349034647
 11
1086.572586178728
 21
-1823.909349034647
  0
LINE
  5
4B2
100
AcDbEntity
  8
1
  6
CONTINUOUS
 62
           2
100
AcDbLine
 10
1086.572586178728
 20
-1823.909349034647
 11
1088.972586178728
 21
-1824.509349034647
  0
LINE
  5
4B1
100
AcDbEntity
  8
1
  6
CONTINUOUS
 62
           2
100
AcDbLine
 10
1088.972586178728
 20
-1824.509349034647
 11
1090.772586178728
 21
-1825.709349034647
  0
LINE
  5
4B0
100
AcDbEntity
  8
1
  6
CONTINUOUS
 62
           2
100
AcDbLine
 10
1090.772586178728
 20
-1825.709349034647
 11
1091.972586178728
 21
-1826.909349034647
  0
LINE
  5
4AF
100
AcDbEntity
  8
1
  6
CONTINUOUS
 62
           2
100
AcDbLine
 10
1091.972586178728
 20
-1826.909349034647
 11
1093.172586178728
 21
-1828.709349034647
  0
LINE
  5
4AE
100
AcDbEntity
  8
1
  6
CONTINUOUS
 62
           2
100
AcDbLine
 10
1093.172586178728
 20
-1828.709349034647
 11
1093.772586178728
 21
-1831.109349034647
  0
LINE
  5
4AD
100
AcDbEntity
  8
1
  6
CONTINUOUS
 62
           2
100
AcDbLine
 10
1117.772586178728
 20
-1823.909349034647
 11
1107.572586178728
 21
-1823.909349034647
  0
LINE
  5
4AC
100
AcDbEntity
  8
1
  6
CONTINUOUS
 62
           2
100
AcDbLine
 10
1107.572586178728
 20
-1823.909349034647
 11
1105.172586178728
 21
-1824.509349034647
  0
LINE
  5
4AB
100
AcDbEntity
  8
1
  6
CONTINUOUS
 62
           2
100
AcDbLine
 10
1105.172586178728
 20
-1824.509349034647
 11
1103.372586178728
 21
-1825.709349034647
  0
LINE
  5
4AA
100
AcDbEntity
  8
1
  6
CONTINUOUS
 62
           2
100
AcDbLine
 10
1103.372586178728
 20
-1825.709349034647
 11
1102.172586178728
 21
-1826.909349034647
  0
LINE
  5
4A9
100
AcDbEntity
  8
1
  6
CONTINUOUS
 62
           2
100
AcDbLine
 10
1102.172586178728
 20
-1826.909349034647
 11
1101.572586178728
 21
-1828.709349034647
  0
LINE
  5
4A8
100
AcDbEntity
  8
1
  6
CONTINUOUS
 62
           2
100
AcDbLine
 10
1101.572586178728
 20
-1828.709349034647
 11
1100.972586178728
 21
-1831.109349034647
  0
LINE
  5
4A7
100
AcDbEntity
  8
1
  6
CONTINUOUS
 62
           2
100
AcDbLine
 10
1100.972586178728
 20
-1831.109349034647
 11
1100.972586178728
 21
-1840.709349034647
  0
LINE
  5
4A6
100
AcDbEntity
  8
1
  6
CONTINUOUS
 62
           2
100
AcDbLine
 10
1100.972586178728
 20
-1840.709349034647
 11
1101.572586178728
 21
-1843.109349034647
  0
LINE
  5
4A5
100
AcDbEntity
  8
1
  6
CONTINUOUS
 62
           2
100
AcDbLine
 10
1101.572586178728
 20
-1843.109349034647
 11
1102.172586178728
 21
-1844.909349034647
  0
LINE
  5
4A4
100
AcDbEntity
  8
1
  6
CONTINUOUS
 62
           2
100
AcDbLine
 10
1102.172586178728
 20
-1844.909349034647
 11
1103.372586178728
 21
-1846.109349034647
  0
LINE
  5
4A3
100
AcDbEntity
  8
1
  6
CONTINUOUS
 62
           2
100
AcDbLine
 10
1103.372586178728
 20
-1846.109349034647
 11
1105.772586178728
 21
-1847.309349034647
  0
LINE
  5
4A2
100
AcDbEntity
  8
1
  6
CONTINUOUS
 62
           2
100
AcDbLine
 10
1105.772586178728
 20
-1847.309349034647
 11
1107.572586178728
 21
-1847.909349034647
  0
LINE
  5
4A1
100
AcDbEntity
  8
1
  6
CONTINUOUS
 62
           2
100
AcDbLine
 10
1107.572586178728
 20
-1847.909349034647
 11
1117.772586178728
 21
-1847.909349034647
  0
LINE
  5
4A0
100
AcDbEntity
  8
1
  6
CONTINUOUS
 62
           2
100
AcDbLine
 10
1117.772586178728
 20
-1847.909349034647
 11
1117.772586178728
 21
-1834.709349034647
  0
LINE
  5
49F
100
AcDbEntity
  8
1
  6
CONTINUOUS
 62
           2
100
AcDbLine
 10
1117.772586178728
 20
-1834.709349034647
 11
1111.772586178728
 21
-1834.709349034647
  0
LINE
  5
49E
100
AcDbEntity
  8
1
  6
CONTINUOUS
 62
           2
100
AcDbLine
 10
1124.972586178728
 20
-1839.509349034647
 11
1136.972586178728
 21
-1839.509349034647
  0
LINE
  5
49D
100
AcDbEntity
  8
1
  6
CONTINUOUS
 62
           2
100
AcDbLine
 10
1144.172586178728
 20
-1831.109349034647
 11
1151.372586178728
 21
-1823.909349034647
  0
LINE
  5
49C
100
AcDbEntity
  8
1
  6
CONTINUOUS
 62
           2
100
AcDbLine
 10
1151.372586178728
 20
-1823.909349034647
 11
1151.372586178728
 21
-1847.909349034647
  0
LINE
  5
49B
100
AcDbEntity
  8
1
  6
CONTINUOUS
 62
           2
100
AcDbLine
 10
1158.572586178728
 20
-1831.109349034647
 11
1165.772586178728
 21
-1823.909349034647
  0
LINE
  5
49A
100
AcDbEntity
  8
1
  6
CONTINUOUS
 62
           2
100
AcDbLine
 10
1165.772586178728
 20
-1823.909349034647
 11
1165.772586178728
 21
-1847.909349034647
  0
LINE
  5
499
100
AcDbEntity
  8
1
  6
CONTINUOUS
 62
           2
100
AcDbLine
 10
1187.372586178728
 20
-1838.909349034647
 11
1186.772586178728
 21
-1842.509349034647
  0
LINE
  5
498
100
AcDbEntity
  8
1
  6
CONTINUOUS
 62
           2
100
AcDbLine
 10
1186.772586178728
 20
-1842.509349034647
 11
1185.572586178728
 21
-1844.909349034647
  0
LINE
  5
497
100
AcDbEntity
  8
1
  6
CONTINUOUS
 62
           2
100
AcDbLine
 10
1185.572586178728
 20
-1844.909349034647
 11
1184.372586178728
 21
-1846.109349034647
  0
LINE
  5
496
100
AcDbEntity
  8
1
  6
CONTINUOUS
 62
           2
100
AcDbLine
 10
1184.372586178728
 20
-1846.109349034647
 11
1182.572586178728
 21
-1847.309349034647
  0
LINE
  5
495
100
AcDbEntity
  8
1
  6
CONTINUOUS
 62
           2
100
AcDbLine
 10
1182.572586178728
 20
-1847.309349034647
 11
1180.772586178728
 21
-1847.909349034647
  0
LINE
  5
494
100
AcDbEntity
  8
1
  6
CONTINUOUS
 62
           2
100
AcDbLine
 10
1180.772586178728
 20
-1847.909349034647
 11
1179.572586178728
 21
-1847.909349034647
  0
LINE
  5
493
100
AcDbEntity
  8
1
  6
CONTINUOUS
 62
           2
100
AcDbLine
 10
1179.572586178728
 20
-1847.909349034647
 11
1177.772586178728
 21
-1847.309349034647
  0
LINE
  5
492
100
AcDbEntity
  8
1
  6
CONTINUOUS
 62
           2
100
AcDbLine
 10
1177.772586178728
 20
-1847.309349034647
 11
1175.972586178728
 21
-1846.109349034647
  0
LINE
  5
491
100
AcDbEntity
  8
1
  6
CONTINUOUS
 62
           2
100
AcDbLine
 10
1175.972586178728
 20
-1846.109349034647
 11
1174.772586178728
 21
-1844.909349034647
  0
LINE
  5
490
100
AcDbEntity
  8
1
  6
CONTINUOUS
 62
           2
100
AcDbLine
 10
1174.772586178728
 20
-1844.909349034647
 11
1173.572586178728
 21
-1842.509349034647
  0
LINE
  5
48F
100
AcDbEntity
  8
1
  6
CONTINUOUS
 62
           2
100
AcDbLine
 10
1173.572586178728
 20
-1842.509349034647
 11
1172.972586178728
 21
-1838.909349034647
  0
LINE
  5
48E
100
AcDbEntity
  8
1
  6
CONTINUOUS
 62
           2
100
AcDbLine
 10
1172.972586178728
 20
-1838.909349034647
 11
1172.972586178728
 21
-1832.909349034647
  0
LINE
  5
48D
100
AcDbEntity
  8
1
  6
CONTINUOUS
 62
           2
100
AcDbLine
 10
1172.972586178728
 20
-1832.909349034647
 11
1173.572586178728
 21
-1829.309349034647
  0
LINE
  5
48C
100
AcDbEntity
  8
1
  6
CONTINUOUS
 62
           2
100
AcDbLine
 10
1173.572586178728
 20
-1829.309349034647
 11
1174.772586178728
 21
-1826.909349034647
  0
LINE
  5
48B
100
AcDbEntity
  8
1
  6
CONTINUOUS
 62
           2
100
AcDbLine
 10
1174.772586178728
 20
-1826.909349034647
 11
1175.972586178728
 21
-1825.709349034647
  0
LINE
  5
48A
100
AcDbEntity
  8
1
  6
CONTINUOUS
 62
           2
100
AcDbLine
 10
1175.972586178728
 20
-1825.709349034647
 11
1177.772586178728
 21
-1824.509349034647
  0
LINE
  5
489
100
AcDbEntity
  8
1
  6
CONTINUOUS
 62
           2
100
AcDbLine
 10
1177.772586178728
 20
-1824.509349034647
 11
1179.572586178728
 21
-1823.909349034647
  0
LINE
  5
488
100
AcDbEntity
  8
1
  6
CONTINUOUS
 62
           2
100
AcDbLine
 10
1179.572586178728
 20
-1823.909349034647
 11
1180.772586178728
 21
-1823.909349034647
  0
LINE
  5
487
100
AcDbEntity
  8
1
  6
CONTINUOUS
 62
           2
100
AcDbLine
 10
1180.772586178728
 20
-1823.909349034647
 11
1182.572586178728
 21
-1824.509349034647
  0
LINE
  5
486
100
AcDbEntity
  8
1
  6
CONTINUOUS
 62
           2
100
AcDbLine
 10
1182.572586178728
 20
-1824.509349034647
 11
1184.372586178728
 21
-1825.709349034647
  0
LINE
  5
485
100
AcDbEntity
  8
1
  6
CONTINUOUS
 62
           2
100
AcDbLine
 10
1184.372586178728
 20
-1825.709349034647
 11
1185.572586178728
 21
-1826.909349034647
  0
LINE
  5
484
100
AcDbEntity
  8
1
  6
CONTINUOUS
 62
           2
100
AcDbLine
 10
1185.572586178728
 20
-1826.909349034647
 11
1186.772586178728
 21
-1829.309349034647
  0
LINE
  5
483
100
AcDbEntity
  8
1
  6
CONTINUOUS
 62
           2
100
AcDbLine
 10
1186.772586178728
 20
-1829.309349034647
 11
1187.372586178728
 21
-1832.909349034647
  0
LINE
  5
482
100
AcDbEntity
  8
1
  6
CONTINUOUS
 62
           2
100
AcDbLine
 10
1187.372586178728
 20
-1832.909349034647
 11
1187.372586178728
 21
-1838.909349034647
  0
LINE
  5
481
100
AcDbEntity
  8
1
  6
CONTINUOUS
 62
           2
100
AcDbLine
 10
1208.972586178728
 20
-1847.909349034647
 11
1201.172586178728
 21
-1847.909349034647
  0
LINE
  5
480
100
AcDbEntity
  8
1
  6
CONTINUOUS
 62
           2
100
AcDbLine
 10
1201.172586178728
 20
-1847.909349034647
 11
1198.772586178728
 21
-1847.309349034647
  0
LINE
  5
47F
100
AcDbEntity
  8
1
  6
CONTINUOUS
 62
           2
100
AcDbLine
 10
1198.772586178728
 20
-1847.309349034647
 11
1196.972586178728
 21
-1846.109349034647
  0
LINE
  5
47E
100
AcDbEntity
  8
1
  6
CONTINUOUS
 62
           2
100
AcDbLine
 10
1196.972586178728
 20
-1846.109349034647
 11
1195.772586178728
 21
-1844.909349034647
  0
LINE
  5
47D
100
AcDbEntity
  8
1
  6
CONTINUOUS
 62
           2
100
AcDbLine
 10
1195.772586178728
 20
-1844.909349034647
 11
1195.172586178728
 21
-1843.109349034647
  0
LINE
  5
47C
100
AcDbEntity
  8
1
  6
CONTINUOUS
 62
           2
100
AcDbLine
 10
1195.172586178728
 20
-1843.109349034647
 11
1194.572586178728
 21
-1840.709349034647
  0
LINE
  5
47B
100
AcDbEntity
  8
1
  6
CONTINUOUS
 62
           2
100
AcDbLine
 10
1194.572586178728
 20
-1840.709349034647
 11
1194.572586178728
 21
-1831.109349034647
  0
LINE
  5
47A
100
AcDbEntity
  8
1
  6
CONTINUOUS
 62
           2
100
AcDbLine
 10
1194.572586178728
 20
-1831.109349034647
 11
1195.172586178728
 21
-1828.709349034647
  0
LINE
  5
479
100
AcDbEntity
  8
1
  6
CONTINUOUS
 62
           2
100
AcDbLine
 10
1195.172586178728
 20
-1828.709349034647
 11
1195.772586178728
 21
-1826.909349034647
  0
LINE
  5
478
100
AcDbEntity
  8
1
  6
CONTINUOUS
 62
           2
100
AcDbLine
 10
1195.772586178728
 20
-1826.909349034647
 11
1196.972586178728
 21
-1825.709349034647
  0
LINE
  5
477
100
AcDbEntity
  8
1
  6
CONTINUOUS
 62
           2
100
AcDbLine
 10
1196.972586178728
 20
-1825.709349034647
 11
1198.772586178728
 21
-1824.509349034647
  0
LINE
  5
476
100
AcDbEntity
  8
1
  6
CONTINUOUS
 62
           2
100
AcDbLine
 10
1198.772586178728
 20
-1824.509349034647
 11
1201.172586178728
 21
-1823.909349034647
  0
LINE
  5
475
100
AcDbEntity
  8
1
  6
CONTINUOUS
 62
           2
100
AcDbLine
 10
1201.172586178728
 20
-1823.909349034647
 11
1208.972586178728
 21
-1823.909349034647
  0
POINT
  5
474
100
AcDbEntity
  8
0
 62
           7
100
AcDbPoint
 10
-1092.5039005185
 20
-1788.92963525495
  0
POINT
  5
473
100
AcDbEntity
  8
0
 62
           7
100
AcDbPoint
 10
-1236.30395052017
 20
-1453.92963751993
  0
POINT
  5
472
100
AcDbEntity
  8
0
 62
           7
100
AcDbPoint
 10
-1090.9039005185
 20
-1788.92963525495
  0
POINT
  5
471
100
AcDbEntity
  8
0
 62
           7
100
AcDbPoint
 10
-1156.3039876075
 20
-1643.9294434737
  0
POINT
  5
470
100
AcDbEntity
  8
0
 62
           7
100
AcDbPoint
 10
-1092.5039005185
 20
-1028.929637519928
  0
POINT
  5
46F
100
AcDbEntity
  8
0
 62
           7
100
AcDbPoint
 10
-1017.5039005185
 20
-988.520431320547
  0
POINT
  5
46E
100
AcDbEntity
  8
0
 62
           7
100
AcDbPoint
 10
-1017.5039005185
 20
-988.520431320547
  0
POINT
  5
46D
100
AcDbEntity
  8
0
 62
           7
100
AcDbPoint
 10
-612.503900518498
 20
-993.929637519928
  0
POINT
  5
46C
100
AcDbEntity
  8
0
 62
           7
100
AcDbPoint
 10
-492.503900518498
 20
-1021.929635254951
  0
POINT
  5
46B
100
AcDbEntity
  8
0
 62
           7
100
AcDbPoint
 10
-162.103900518498
 20
-1788.92963525495
  0
POINT
  5
46A
100
AcDbEntity
  8
0
 62
           7
100
AcDbPoint
 10
-162.103900518498
 20
-1748.92963525495
  0
POINT
  5
469
100
AcDbEntity
  8
0
 62
           7
100
AcDbPoint
 10
-162.103900518498
 20
-1021.929637519928
  0
POINT
  5
468
100
AcDbEntity
  8
0
 62
           7
100
AcDbPoint
 10
-107.603900518498
 20
-993.929637519928
  0
POINT
  5
467
100
AcDbEntity
  8
0
 62
           7
100
AcDbPoint
 10
-162.103900518498
 20
-1021.929637519928
  0
POINT
  5
466
100
AcDbEntity
  8
0
 62
           7
100
AcDbPoint
 10
-87.103900518498
 20
-980.855991325337
  0
POINT
  5
465
100
AcDbEntity
  8
0
 62
           7
100
AcDbPoint
 10
-162.103900518498
 20
-1021.929637519928
  0
POINT
  5
464
100
AcDbEntity
  8
0
 62
           7
100
AcDbPoint
 10
-87.103900518498
 20
-980.855991325337
  0
POINT
  5
463
100
AcDbEntity
  8
0
 62
           7
100
AcDbPoint
 10
187.896099481502
 20
-1021.929637519928
  0
POINT
  5
462
100
AcDbEntity
  8
0
 62
           7
100
AcDbPoint
 10
-162.103900518498
 20
-1021.929637519928
  0
POINT
  5
461
100
AcDbEntity
  8
0
 62
           7
100
AcDbPoint
 10
187.896099481502
 20
-1021.929637519928
  0
POINT
  5
460
100
AcDbEntity
  8
0
 62
           7
100
AcDbPoint
 10
-162.103900518498
 20
-1788.92963525495
  0
POINT
  5
45F
100
AcDbEntity
  8
0
 62
           7
100
AcDbPoint
 10
-107.603900518498
 20
-993.929637519928
  0
POINT
  5
45E
100
AcDbEntity
  8
0
 62
           7
100
AcDbPoint
 10
-1092.5039005185
 20
-1788.92963525495
  0
POINT
  5
45D
100
AcDbEntity
  8
0
 62
           7
100
AcDbPoint
 10
-1077.5039005185
 20
-1800.35542775319
  0
POINT
  5
45C
100
AcDbEntity
  8
0
 62
           7
100
AcDbPoint
 10
-1077.5039005185
 20
-1800.35542775319
  0
POINT
  5
45B
100
AcDbEntity
  8
0
 62
           7
100
AcDbPoint
 10
-507.503900518498
 20
-1800.35542775319
  0
POINT
  5
45A
100
AcDbEntity
  8
0
 62
           7
100
AcDbPoint
 10
-507.503900518498
 20
-1800.35542775319
  0
POINT
  5
459
100
AcDbEntity
  8
0
 62
           7
100
AcDbPoint
 10
-492.503900518498
 20
-1788.92963525495
  0
POINT
  5
458
100
AcDbEntity
  8
0
 62
           7
100
AcDbPoint
 10
-162.103900518498
 20
-1788.92963525495
  0
POINT
  5
457
100
AcDbEntity
  8
0
 62
           7
100
AcDbPoint
 10
-137.103900518498
 20
-1803.47585998013
  0
POINT
  5
456
100
AcDbEntity
  8
0
 62
           7
100
AcDbPoint
 10
-137.103900518498
 20
-1803.47585998013
  0
POINT
  5
455
100
AcDbEntity
  8
0
 62
           7
100
AcDbPoint
 10
162.896099481502
 20
-1803.47585998013
  0
POINT
  5
454
100
AcDbEntity
  8
0
 62
           7
100
AcDbPoint
 10
162.896099481502
 20
-1803.47585998013
  0
POINT
  5
453
100
AcDbEntity
  8
0
 62
           7
100
AcDbPoint
 10
187.896099481502
 20
-1788.92963525495
  0
POINT
  5
452
100
AcDbEntity
  8
0
 62
           7
100
AcDbPoint
 10
-1236.30395052017
 20
-1453.92963751993
  0
POINT
  5
451
100
AcDbEntity
  8
0
 62
           7
100
AcDbPoint
 10
-1236.30395052017
 20
-1453.92963751993
  0
POINT
  5
450
100
AcDbEntity
  8
0
 62
           7
100
AcDbPoint
 10
-492.503900518498
 20
-1021.929635254951
  0
POINT
  5
44F
100
AcDbEntity
  8
0
 62
           7
100
AcDbPoint
 10
141.896099481502
 20
-1051.929635254951
  0
POINT
  5
44E
100
AcDbEntity
  8
0
 62
           7
100
AcDbPoint
 10
156.896099481502
 20
-1021.929635254951
  0
POINT
  5
44D
100
AcDbEntity
  8
0
 62
           7
100
AcDbPoint
 10
141.896099481502
 20
-1051.929635254951
  0
POINT
  5
44C
100
AcDbEntity
  8
0
 62
           7
100
AcDbPoint
 10
156.896099481502
 20
-1021.929635254951
  0
INSERT
  5
38
100
AcDbEntity
  8
0
100
AcDbBlockReference
  2
KOZU0023__S
 10
-1017.5039005185
 20
-1023.929637519928
  0
INSERT
  5
39
100
AcDbEntity
  8
0
100
AcDbBlockReference
  2
KOZU0041__S
 10
-1017.5039005185
 20
-448.929635254951
  0
INSERT
  5
3A
100
AcDbEntity
  8
0
100
AcDbBlockReference
  2
KOZU0051__S
 10
37.396190481502
 20
-1051.929635254951
  0
INSERT
  5
3B
100
AcDbEntity
  8
0
100
AcDbBlockReference
  2
KOZU0048__S
 10
-63.603900518498
 20
-1149.929637519927
  0
INSERT
  5
3C
100
AcDbEntity
  8
0
100
AcDbBlockReference
  2
KOZU0043__S
 10
-1017.5039005185
 20
-1740.92963525495
  0
INSERT
  5
3D
100
AcDbEntity
  8
0
100
AcDbBlockReference
  2
KOZU0039__S
 10
-131.103900518498
 20
-1748.92963525495
  0
INSERT
  5
3E
100
AcDbEntity
  8
0
100
AcDbBlockReference
  2
KOZU0010__S
 10
-831.10395648063
 20
-1380.72963751993
  0
INSERT
  5
3F
100
AcDbEntity
  8
0
100
AcDbBlockReference
  2
KOZU0041__S
 10
-612.503900518498
 20
-448.929635254951
  0
INSERT
  5
40
100
AcDbEntity
  8
0
100
AcDbBlockReference
  2
KOZU0023__S
 10
-612.503900518498
 20
-1023.929637519928
  0
ENDSEC
  0
SECTION
  2
OBJECTS
  0
DICTIONARY
  5
19
100
AcDbDictionary
  3
ACAD_GROUP
350
1A
  3
ACAD_MLINESTYLE
350
1B
  0
DICTIONARY
  5
1A
102
{ACAD_REACTORS
330
19
102
}
100
AcDbDictionary
  0
DICTIONARY
  5
1B
102
{ACAD_REACTORS
330
19
102
}
100
AcDbDictionary
  3
STANDARD
350
1C
  0
MLINESTYLE
  5
1C
102
{ACAD_REACTORS
330
1B
102
}
100
AcDbMlineStyle
  2
STANDARD
 70
           0
  3

 62
           0
 51
90.0
 52
90.0
 71
           2
 49
0.5
 62
         256
  6
BYLAYER
 49
-0.5
 62
         256
  6
BYLAYER
  0
ENDSEC
  0
EOF
