  0
SECTION
  2
HEADER
  9
$ACADVER
  1
AC1014
  9
$ACADMAINTVER
 70
           0
  9
$DWGCODEPAGE
  3
DOS932
  9
$INSBASE
 10
0.0
 20
0.0
 30
0.0
  9
$EXTMIN
 10
1.000000000000E+20
 20
1.000000000000E+20
 30
1.000000000000E+20
  9
$EXTMAX
 10
-1.000000000000E+20
 20
-1.000000000000E+20
 30
-1.000000000000E+20
  9
$LIMMIN
 10
0.0
 20
0.0
  9
$LIMMAX
 10
0.0
 20
0.0
  9
$ORTHOMODE
 70
           0
  9
$REGENMODE
 70
           1
  9
$FILLMODE
 70
           1
  9
$QTEXTMODE
 70
           0
  9
$MIRRTEXT
 70
           1
  9
$DRAGMODE
 70
           2
  9
$LTSCALE
 40
1.0
  9
$OSMODE
 70
           0
  9
$ATTMODE
 70
           1
  9
$TEXTSIZE
 40
0.2
  9
$TRACEWID
 40
0.05
  9
$TEXTSTYLE
  7
STANDARD
  9
$CLAYER
  8
0
  9
$CELTYPE
  6
CONTINUOUS
  9
$CECOLOR
 62
         256
  9
$CELTSCALE
 40
1.0
  9
$DELOBJ
 70
           1
  9
$DISPSILH
 70
           0
  9
$DIMSCALE
 40
1.0
  9
$DIMASZ
 40
0.18
  9
$DIMEXO
 40
0.0625
  9
$DIMDLI
 40
0.38
  9
$DIMRND
 40
0.0
  9
$DIMDLE
 40
0.0
  9
$DIMEXE
 40
0.18
  9
$DIMTP
 40
0.0
  9
$DIMTM
 40
0.0
  9
$DIMTXT
 40
0.18
  9
$DIMCEN
 40
0.09
  9
$DIMTSZ
 40
0.0
  9
$DIMTOL
 70
           0
  9
$DIMLIM
 70
           0
  9
$DIMTIH
 70
           1
  9
$DIMTOH
 70
           1
  9
$DIMSE1
 70
           0
  9
$DIMSE2
 70
           0
  9
$DIMTAD
 70
           0
  9
$DIMZIN
 70
           0
  9
$DIMBLK
  1

  9
$DIMASO
 70
           1
  9
$DIMSHO
 70
           1
  9
$DIMPOST
  1

  9
$DIMAPOST
  1

  9
$DIMALT
 70
           0
  9
$DIMALTD
 70
           2
  9
$DIMALTF
 40
25.4
  9
$DIMLFAC
 40
1.0
  9
$DIMTOFL
 70
           0
  9
$DIMTVP
 40
0.0
  9
$DIMTIX
 70
           0
  9
$DIMSOXD
 70
           0
  9
$DIMSAH
 70
           0
  9
$DIMBLK1
  1

  9
$DIMBLK2
  1

  9
$DIMSTYLE
  2
STANDARD
  9
$DIMCLRD
 70
           0
  9
$DIMCLRE
 70
           0
  9
$DIMCLRT
 70
           0
  9
$DIMTFAC
 40
1.0
  9
$DIMGAP
 40
0.09
  9
$DIMJUST
 70
           0
  9
$DIMSD1
 70
           0
  9
$DIMSD2
 70
           0
  9
$DIMTOLJ
 70
           1
  9
$DIMTZIN
 70
           0
  9
$DIMALTZ
 70
           0
  9
$DIMALTTZ
 70
           0
  9
$DIMFIT
 70
           3
  9
$DIMUPT
 70
           0
  9
$DIMUNIT
 70
           2
  9
$DIMDEC
 70
           4
  9
$DIMTDEC
 70
           4
  9
$DIMALTU
 70
           2
  9
$DIMALTTD
 70
           2
  9
$DIMTXSTY
  7
STANDARD
  9
$DIMAUNIT
 70
           0
  9
$LUNITS
 70
           2
  9
$LUPREC
 70
           4
  9
$SKETCHINC
 40
0.1
  9
$FILLETRAD
 40
0.0
  9
$AUNITS
 70
           0
  9
$AUPREC
 70
           0
  9
$MENU
  1
acad
  9
$ELEVATION
 40
0.0
  9
$PELEVATION
 40
0.0
  9
$THICKNESS
 40
0.0
  9
$LIMCHECK
 70
           0
  9
$BLIPMODE
 70
           1
  9
$CHAMFERA
 40
0.0
  9
$CHAMFERB
 40
0.0
  9
$CHAMFERC
 40
0.0
  9
$CHAMFERD
 40
0.0
  9
$SKPOLY
 70
           0
  9
$TDCREATE
 40
0.000000000
  9
$TDUPDATE
 40
0.000000000
  9
$TDINDWG
 40
0.0000000000
  9
$TDUSRTIMER
 40
0.0000000000
  9
$USRTIMER
 70
           1
  9
$ANGBASE
 50
0.0
  9
$ANGDIR
 70
           0
  9
$PDMODE
 70
           0
  9
$PDSIZE
 40
0.0
  9
$PLINEWID
 40
0.0
  9
$COORDS
 70
           0
  9
$SPLFRAME
 70
           0
  9
$SPLINETYPE
 70
           6
  9
$SPLINESEGS
 70
           8
  9
$ATTDIA
 70
           0
  9
$ATTREQ
 70
           1
  9
$HANDLING
 70
           1
  9
$HANDSEED
  5
57D
  9
$SURFTAB1
 70
           6
  9
$SURFTAB2
 70
           6
  9
$SURFTYPE
 70
           6
  9
$SURFU
 70
           6
  9
$SURFV
 70
           6
  9
$UCSNAME
  2

  9
$UCSORG
 10
0.0
 20
0.0
 30
0.0
  9
$UCSXDIR
 10
1.0
 20
0.0
 30
0.0
  9
$UCSYDIR
 10
0.0
 20
1.0
 30
0.0
  9
$PUCSNAME
  2

  9
$PUCSORG
 10
0.0
 20
0.0
 30
0.0
  9
$PUCSXDIR
 10
1.0
 20
0.0
 30
0.0
  9
$PUCSYDIR
 10
0.0
 20
1.0
 30
0.0
  9
$USERI1
 70
           0
  9
$USERI2
 70
           0
  9
$USERI3
 70
           0
  9
$USERI4
 70
           0
  9
$USERI5
 70
           0
  9
$USERR1
 40
0.0
  9
$USERR2
 40
0.0
  9
$USERR3
 40
0.0
  9
$USERR4
 40
0.0
  9
$USERR5
 40
0.0
  9
$WORLDVIEW
 70
           1
  9
$SHADEDGE
 70
           3
  9
$SHADEDIF
 70
          70
  9
$TILEMODE
 70
           1
  9
$MAXACTVP
 70
          16
  9
$PINSBASE
 10
0.0
 20
0.0
 30
0.0
  9
$PLIMCHECK
 70
           0
  9
$PEXTMIN
 10
1.000000000000E+20
 20
1.000000000000E+20
 30
1.000000000000E+20
  9
$PEXTMAX
 10
-1.000000000000E+20
 20
-1.000000000000E+20
 30
-1.000000000000E+20
  9
$PLIMMIN
 10
0.0
 20
0.0
  9
$PLIMMAX
 10
12.0
 20
9.0
  9
$UNITMODE
 70
           0
  9
$VISRETAIN
 70
           0
  9
$PLINEGEN
 70
           1
  9
$PSLTSCALE
 70
           0
  9
$TREEDEPTH
 70
        3020
  9
$PICKSTYLE
 70
           1
  9
$CMLSTYLE
  2
STANDARD
  9
$CMLJUST
 70
           0
  9
$CMLSCALE
 40
1.0
  9
$PROXYGRAPHICS
 70
           0
  9
$MEASUREMENT
 70
           0
  0
ENDSEC
  0
SECTION
  2
CLASSES
  0
CLASS
  1
LWPOLYLINE
  2
AcDbPolyline
  3
"AutoCAD"
 90
        0
280
           0
281
           1
  0
CLASS
  1
IMAGE
  2
AcDbRasterImage
  3
ISM
 90
      127
280
           0
281
           1
  0
CLASS
  1
OLE2FRAME
  2
AcDbOle2Frame
  3
""
 90
        0
280
           0
281
           1
  0
CLASS
  1
HATCH
  2
AcDbHatch
  3
"ACAD_SEDONA"
 90
        0
280
           0
281
           1
  0
CLASS
  1
DICTIONARYVAR
  2
AcDbDictionaryVar
  3
"AutoCAD"
 90
        0
280
           0
281
           0
  0
CLASS
  1
RASTERVARIABLES
  2
AcDbRasterVariables
  3
ISM
 90
        0
280
           0
281
           0
  0
CLASS
  1
IMAGEDEF
  2
AcDbRasterImageDef
  3
ISM
 90
        0
280
           0
281
           0
  0
CLASS
  1
IMAGEDEF_REACTOR
  2
AcDbRasterImageDefReactor
  3
ISM
 90
        1
280
           0
281
           0
  0
CLASS
  1
IDBUFFER
  2
AcDbIdBuffer
  3
"Acad"
 90
        0
280
           0
281
           0
  0
CLASS
  1
SPATIAL_FILTER
  2
AcDbSpatialFilter
  3
"Acad"
 90
        0
280
           0
281
           0
  0
CLASS
  1
XRECORD
  2
AcDbXrecord
  3
"<Built In>"
 90
        0
280
           0
281
           0
  0
CLASS
  1
SORTENTSTABLE
  2
AcDbSortentsTable
  3
"AutoCAD"
 90
        0
280
           0
281
           0
  0
CLASS
  1
LAYER_INDEX
  2
AcDbLayerIndex
  3
"Acad"
 90
        0
280
           0
281
           0
  0
CLASS
  1
SPATIAL_INDEX
  2
AcDbSpatialIndex
  3
"Acad"
 90
        0
280
           0
281
           0
  0
CLASS
  1
OBJECT_PTR
  2
CAseDLPNTableRecord
  3
"ASE-LPNTableRecord"
 90
        1
280
           0
281
           0
  0
CLASS
  1
LAYOUT
  2
AcDbLayout
  3
"AutoCAD 2000"
 90
        1
280
           0
281
           0
  0
CLASS
  1
PLOTSETTINGS
  2
AcDbPlotSettings
  3
"AutoCAD 2000"
 90
        1
280
           0
281
           0
  0
CLASS
  1
ACDBDICTIONARYWDFLT
  2
AcDbDictionaryWithDefault
  3
"AutoCAD 2000"
 90
        1
280
           0
281
           0
  0
CLASS
  1
ACDBPLACEHOLDER
  2
AcDbPlaceHolder
  3
"AutoCAD 2000"
 90
        1
280
           0
281
           0
  0
CLASS
  1
VBA_PROJECT
  2
AcDbVbaProject
  3
"acadvba"
 90
        1
280
           0
281
           0
  0
CLASS
  1
WIPEOUT
  2
AcDbWipeout
  3
WipeOut|AutoCAD Express Tool|expresstools@autodesk.com
 90
      127
280
           0
281
           1
  0
CLASS
  1
WIPEOUTVARIABLES
  2
AcDbWipeoutVariables
  3
WipeOut|AutoCAD Express Tool|expresstools@autodesk.com
 90
        0
280
           0
281
           0
  0
CLASS
  1
RTEXT
  2
RText
  3
RText|AutoCAD Express Tool|expresstools@autodesk.com
 90
        0
280
           0
281
           1
  0
CLASS
  1
ARCALIGNEDTEXT
  2
AcDbArcAlignedText
  3
ATEXT|AutoCAD Express Tool|expresstools@autodesk.com
 90
        0
280
           0
281
           1
  0
ENDSEC
  0
SECTION
  2
TABLES
  0
TABLE
  2
VPORT
  5
7
100
AcDbSymbolTable
 70
           1
  0
VPORT
  5
15
100
AcDbSymbolTableRecord
100
AcDbViewportTableRecord
  2
*ACTIVE
 70
           0
 10
0.0
 20
0.0
 11
1.0
 21
1.0
 12
6.591288
 22
4.579184
 13
0.0
 23
0.0
 14
1.0
 24
1.0
 15
0.0
 25
0.0
 16
0.0
 26
0.0
 36
1.0
 17
0.0
 27
0.0
 37
0.0
 40
9.158369
 41
0.688564
 42
50.0
 43
0.0
 44
0.0
 50
0.0
 51
0.0
 71
           0
 72
         100
 73
           1
 74
           1
 75
           0
 76
           0
 77
           0
 78
           0
  0
ENDTAB
  0
TABLE
  2
LTYPE
  5
4
100
AcDbSymbolTable
 70
          10
  0
LTYPE
  5
11
100
AcDbSymbolTableRecord
100
AcDbLinetypeTableRecord
  2
BYBLOCK
 70
          64
  3

 72
          65
 73
           0
 40
0.0
  0
LTYPE
  5
12
100
AcDbSymbolTableRecord
100
AcDbLinetypeTableRecord
  2
BYLAYER
 70
          64
  3

 72
          65
 73
           0
 40
0.0
  0
LTYPE
  5
13
100
AcDbSymbolTableRecord
100
AcDbLinetypeTableRecord
  2
CONTINUOUS
 70
          64
  3
Solid line
 72
          65
 73
           0
 40
0.0
  0
LTYPE
  5
1D
100
AcDbSymbolTableRecord
100
AcDbLinetypeTableRecord
  2
DASHED
 70
          64
  3
Dashed
 72
          65
 73
           2
 40
15.0
 49
12.0
 74
           0
 49
-3.0
 74
           0
  0
LTYPE
  5
1E
100
AcDbSymbolTableRecord
100
AcDbLinetypeTableRecord
  2
DOTTED
 70
          64
  3
Dotted
 72
          65
 73
           2
 40
3.5
 49
0.5
 74
           0
 49
-3.0
 74
           0
  0
LTYPE
  5
1F
100
AcDbSymbolTableRecord
100
AcDbLinetypeTableRecord
  2
DOT_CENTER
 70
          64
  3
Dot_Center
 72
          65
 73
           4
 40
2.0
 49
1.25
 74
           0
 49
-0.25
 74
           0
 49
0.25
 74
           0
 49
-0.25
 74
           0
  0
LTYPE
  5
20
100
AcDbSymbolTableRecord
100
AcDbLinetypeTableRecord
  2
LONG_DASHED
 70
          64
  3
Long_Dashed
 72
          65
 73
           2
 40
2.0
 49
1.5
 74
           0
 49
-0.5
 74
           0
  0
LTYPE
  5
21
100
AcDbSymbolTableRecord
100
AcDbLinetypeTableRecord
  2
DASH_CENTER
 70
          64
  3
Dash_Center
 72
          65
 73
           4
 40
36.0
 49
24.0
 74
           0
 49
-3.0
 74
           0
 49
6.0
 74
           0
 49
-3.0
 74
           0
  0
LTYPE
  5
22
100
AcDbSymbolTableRecord
100
AcDbLinetypeTableRecord
  2
PHANTOM
 70
          64
  3
Phantom
 72
          65
 73
           6
 40
2.5
 49
1.25
 74
           0
 49
-0.25
 74
           0
 49
0.25
 74
           0
 49
-0.25
 74
           0
 49
0.25
 74
           0
 49
-0.25
 74
           0
  0
LTYPE
  5
23
100
AcDbSymbolTableRecord
100
AcDbLinetypeTableRecord
  2
CENTER_DASH_DASH
 70
          64
  3
Center_Dash_Dash
 72
          65
 73
           6
 40
22.0
 49
12.0
 74
           0
 49
-3.0
 74
           0
 49
0.5
 74
           0
 49
-3.0
 74
           0
 49
0.5
 74
           0
 49
-3.0
 74
           0
  0
ENDTAB
  0
TABLE
  2
LAYER
  5
2
100
AcDbSymbolTable
 70
           2
  0
LAYER
  5
14
100
AcDbSymbolTableRecord
100
AcDbLayerTableRecord
  2
0
 70
           0
 62
           7
  6
CONTINUOUS
  0
LAYER
  5
24
100
AcDbSymbolTableRecord
100
AcDbLayerTableRecord
  2
1
 70
           0
 62
           7
  6
CONTINUOUS
  0
ENDTAB
  0
TABLE
  2
STYLE
  5
3
100
AcDbSymbolTable
 70
           2
  0
STYLE
  5
17
100
AcDbSymbolTableRecord
100
AcDbTextStyleTableRecord
  2
STANDARD
 70
           0
 40
0.0
 41
1.0
 50
0.0
 71
           0
 42
0.0
  3
txt
  4

  0
STYLE
  5
4F
100
AcDbSymbolTableRecord
100
AcDbTextStyleTableRecord
  2
CONVERTER_1
 70
           0
 40
0.0
 41
0.9
 50
0.0
 71
           0
 42
0.0
  3
txt.shx
  4

  0
ENDTAB
  0
TABLE
  2
VIEW
  5
5
100
AcDbSymbolTable
 70
           0
  0
ENDTAB
  0
TABLE
  2
UCS
  5
6
100
AcDbSymbolTable
 70
           0
  0
ENDTAB
  0
TABLE
  2
APPID
  5
8
100
AcDbSymbolTable
 70
           1
  0
APPID
  5
16
100
AcDbSymbolTableRecord
100
AcDbRegAppTableRecord
  2
ACAD
 70
           0
  0
ENDTAB
  0
TABLE
  2
DIMSTYLE
  5
9
100
AcDbSymbolTable
 70
           1
  0
DIMSTYLE
105
18
100
AcDbSymbolTableRecord
100
AcDbDimStyleTableRecord
  2
STANDARD
 70
           0
  3

  4

  5

  6

  7

 40
1.0
 41
0.18
 42
0.0625
 43
0.38
 44
0.18
 45
0.0
 46
0.0
 47
0.0
 48
0.0
 71
           0
 72
           0
 73
           1
 74
           1
 75
           0
 76
           0
 77
           0
 78
           0
140
0.18
141
0.09
142
0.0
143
25.4
144
1.0
145
0.0
146
1.0
147
0.09
170
           0
171
           2
172
           0
173
           0
174
           0
175
           0
176
           0
177
           0
178
           0
270
           2
271
           4
272
           4
273
           2
274
           2
275
           0
280
           0
281
           0
282
           0
283
           1
284
           0
285
           0
286
           0
287
           0
288
           0
340
17
  0
ENDTAB
  0
TABLE
  2
BLOCK_RECORD
  5
1
100
AcDbSymbolTable
 70
           8
  0
BLOCK_RECORD
  5
A
100
AcDbSymbolTableRecord
100
AcDbBlockTableRecord
  2
*MODEL_SPACE
  0
BLOCK_RECORD
  5
B
100
AcDbSymbolTableRecord
100
AcDbBlockTableRecord
  2
*PAPER_SPACE
  0
BLOCK_RECORD
  5
25
100
AcDbSymbolTableRecord
100
AcDbBlockTableRecord
  2
KOZU0050__S
  0
BLOCK_RECORD
  5
27
100
AcDbSymbolTableRecord
100
AcDbBlockTableRecord
  2
KOZU0023__S
  0
BLOCK_RECORD
  5
29
100
AcDbSymbolTableRecord
100
AcDbBlockTableRecord
  2
KOZU0041__S
  0
BLOCK_RECORD
  5
2B
100
AcDbSymbolTableRecord
100
AcDbBlockTableRecord
  2
KOZU0049__S
  0
BLOCK_RECORD
  5
2D
100
AcDbSymbolTableRecord
100
AcDbBlockTableRecord
  2
KOZU0048__S
  0
BLOCK_RECORD
  5
30
100
AcDbSymbolTableRecord
100
AcDbBlockTableRecord
  2
KOZU0043__S
  0
BLOCK_RECORD
  5
32
100
AcDbSymbolTableRecord
100
AcDbBlockTableRecord
  2
KOZU0039__S
  0
BLOCK_RECORD
  5
34
100
AcDbSymbolTableRecord
100
AcDbBlockTableRecord
  2
KOZU0010__S
  0
ENDTAB
  0
ENDSEC
  0
SECTION
  2
BLOCKS
  0
BLOCK
  5
D
100
AcDbEntity
  8
0
100
AcDbBlockBegin
  2
*MODEL_SPACE
 70
           0
 10
0.0
 20
0.0
 30
0.0
  3
*MODEL_SPACE
  1

  0
ENDBLK
  5
E
100
AcDbEntity
  8
0
100
AcDbBlockEnd
  0
BLOCK
  5
F
100
AcDbEntity
 67
           1
  8
0
100
AcDbBlockBegin
  2
*PAPER_SPACE
 70
           0
 10
0.0
 20
0.0
 30
0.0
  3
*PAPER_SPACE
  1

  0
ENDBLK
  5
10
100
AcDbEntity
 67
           1
  8
0
100
AcDbBlockEnd
  0
BLOCK
  5
26
100
AcDbEntity
  8
0
100
AcDbBlockBegin
  2
KOZU0050__S
 70
           0
 10
0.0
 20
0.0
 30
0.0
  3
KOZU0050__S
  1

  0
TEXT
  5
52
100
AcDbEntity
  8
0
 62
           7
100
AcDbText
 10
86.877057839128
 20
-3384.015793379294
 40
5.0
  1
REFRIGERATED AIR DRYER
 41
0.9
  7
CONVERTER_1
100
AcDbText
  0
TEXT
  5
51
100
AcDbEntity
  8
0
 62
           7
100
AcDbText
 10
130.38546777408
 20
-3336.908225415954
 40
10.0
  1
ANEST
 41
0.9
  7
CONVERTER_1
100
AcDbText
  0
TEXT
  5
50
100
AcDbEntity
  8
0
 62
           7
100
AcDbText
 10
130.38546777408
 20
-3351.908225415954
 40
10.0
  1
IWATA
 41
0.9
  7
CONVERTER_1
100
AcDbText
  0
SPLINE
  5
4E
100
AcDbEntity
  8
0
  6
CONTINUOUS
 62
           7
100
AcDbSpline
210
0.0
220
0.0
230
1.0
 70
           0
 71
           3
 72
          52
 73
          49
 74
          95
 42
0.00000000001
 43
0.00000000001
 44
0.00000000001
 40
0.0
 40
0.0
 40
0.0
 40
0.1163482236430061
 40
0.2115107157673747
 40
0.2961053253175378
 40
0.3806805414780187
 40
0.4652098750521783
 40
0.5497608922858022
 40
0.6344107079433456
 40
0.7191232299278394
 40
0.8038223887400224
 40
0.8884722233184237
 40
0.973081094125853
 40
1.0576758923874638
 40
1.1422685419700194
 40
1.2268594846593222
 40
1.3114490857729839
 40
1.3960376647517094
 40
1.4806255097572767
 40
1.5652128812556616
 40
1.6498121695491865
 40
1.7344353843880222
 40
1.8190558020348313
 40
1.9036441895162732
 40
1.9882100826359164
 40
2.0727670342090398
 40
2.1573168318009071
 40
2.2418607857918627
 40
2.3264005805853385
 40
2.4109381065233393
 40
2.4954753270426302
 40
2.5800141591116992
 40
2.6645563678846185
 40
2.7491034719595202
 40
2.8336566566237718
 40
2.918216692784112
 40
3.0027838591827236
 40
3.0873578691547081
 40
3.1719377891993625
 40
3.2565218172678039
 40
3.3411071037933344
 40
3.4256932396596458
 40
3.5102869052974035
 40
3.5948969732180052
 40
3.6795265950554823
 40
3.7641731148065691
 40
3.8488278485121867
 40
3.9440697295002156
 40
4.0605034460710874
 40
4.0605034460710874
 40
4.0605034460710874
 10
110.3274790402175
 20
-3338.0272566373751
 30
0.0
 10
110.3783640623421
 20
-3337.9893021473799
 30
0.0
 10
110.4689335436706
 20
-3337.934740522081
 30
0.0
 10
110.5438886505748
 20
-3337.895532512141
 30
0.0
 10
110.62093111053549
 20
-3337.860583703377
 30
0.0
 10
110.6996480866548
 20
-3337.829719269298
 30
0.0
 10
110.77973386595011
 20
-3337.8027431725418
 30
0.0
 10
110.86105737442411
 20
-3337.7794451463528
 30
0.0
 10
110.94342496688159
 20
-3337.759685155133
 30
0.0
 10
111.0265587864633
 20
-3337.7433660440229
 30
0.0
 10
111.1102385348547
 20
-3337.7304026234701
 30
0.0
 10
111.194301824208
 20
-3337.720696780591
 30
0.0
 10
111.2786285974386
 20
-3337.713953066198
 30
0.0
 10
111.3631223073761
 20
-3337.709843272723
 30
0.0
 10
111.4476944526983
 20
-3337.7080246076089
 30
0.0
 10
111.5322845583288
 20
-3337.7081424782782
 30
0.0
 10
111.6168566175174
 20
-3337.709836046804
 30
0.0
 10
111.7013948543221
 20
-3337.712741306837
 30
0.0
 10
111.785899187072
 20
-3337.7164924098929
 30
0.0
 10
111.8703805863221
 20
-3337.7207217109199
 30
0.0
 10
111.9548807191107
 20
-3337.7250591299962
 30
0.0
 10
112.03941770894779
 20
-3337.7291320850891
 30
0.0
 10
112.1239550066516
 20
-3337.7325356533138
 30
0.0
 10
112.2084899802617
 20
-3337.7350035382051
 30
0.0
 10
112.29303486578971
 20
-3337.7366438802869
 30
0.0
 10
112.3775831006777
 20
-3337.7375514784858
 30
0.0
 10
112.4621291402765
 20
-3337.7378271568059
 30
0.0
 10
112.5466701789606
 20
-3337.7375735951009
 30
0.0
 10
112.63120562614159
 20
-3337.7368950176869
 30
0.0
 10
112.7157366072454
 20
-3337.735896258208
 30
0.0
 10
112.8002654458808
 20
-3337.7346819853528
 30
0.0
 10
112.8847951500707
 20
-3337.7333559580552
 30
0.0
 10
112.9693289125922
 20
-3337.7320203337081
 30
0.0
 10
113.05386963613709
 20
-3337.73077502469
 30
0.0
 10
113.1384194922373
 20
-3337.7297171037249
 30
0.0
 10
113.22297952175219
 20
-3337.7289402502288
 30
0.0
 10
113.30754928219351
 20
-3337.7285342738319
 30
0.0
 10
113.39212655234689
 20
-3337.7285844973339
 30
0.0
 10
113.47670706513389
 20
-3337.7291722652262
 30
0.0
 10
113.56128409724261
 20
-3337.730369193871
 30
0.0
 10
113.64584784985929
 20
-3337.732268177333
 30
0.0
 10
113.7303977469018
 20
-3337.734780005183
 30
0.0
 10
113.81495456806771
 20
-3337.7374867081498
 30
0.0
 10
113.8995371823475
 20
-3337.7400019615138
 30
0.0
 10
113.9841548656677
 20
-3337.7419120665718
 30
0.0
 10
114.06880450665059
 20
-3337.742751213525
 30
0.0
 10
114.1534563598449
 20
-3337.7419476315999
 30
0.0
 10
114.25921212504301
 20
-3337.7380356287608
 30
0.0
 10
114.32241176591199
 20
-3337.731667444667
 30
0.0
 11
110.3274790402175
 21
-3338.0272566373751
 31
0.0
 11
110.37809796567913
 21
-3337.9912874287834
 31
0.0
 11
110.42818469781491
 21
-3337.9592887830004
 31
0.0
 11
110.46866654496046
 21
-3337.9356884572262
 31
0.0
 11
110.50861439468568
 21
-3337.913984001741
 31
0.0
 11
110.54470149810246
 21
-3337.8957762826353
 31
0.0
 11
110.5824142965745
 21
-3337.8780561045178
 31
0.0
 11
110.62114419881274
 21
-3337.8610927026089
 31
0.0
 11
110.66030027760544
 21
-3337.8451472991646
 31
0.0
 11
110.69982057298225
 21
-3337.830204697113
 31
0.0
 11
110.73968584101394
 21
-3337.8162329506904
 31
0.0
 11
110.77988136255215
 21
-3337.8032050643055
 31
0.0
 11
110.82037187729433
 21
-3337.7911009614477
 31
0.0
 11
110.86117813712848
 21
-3337.7798900157395
 31
0.0
 11
110.9022259223714
 21
-3337.7695688088065
 31
0.0
 11
110.94351775289994
 21
-3337.7601160187569
 31
0.0
 11
110.98499515546513
 21
-3337.7515249559528
 31
0.0
 11
111.02663089381124
 21
-3337.743784872474
 31
0.0
 11
111.0684108468533
 21
-3337.7368824458972
 31
0.0
 11
111.11029206713444
 21
-3337.7308090550923
 31
0.0
 11
111.15228035197514
 21
-3337.7255485275327
 31
0.0
 11
111.19433817947814
 21
-3337.7210666829183
 31
0.0
 11
111.23646871752142
 21
-3337.7173246429593
 31
0.0
 11
111.27865047533517
 21
-3337.7142822296796
 31
0.0
 11
111.32087598894202
 21
-3337.7118981433632
 31
0.0
 11
111.36313235258889
 21
-3337.7101296549499
 31
0.0
 11
111.40540880666138
 21
-3337.7089339309914
 31
0.0
 11
111.44769688824121
 21
-3337.7082666724054
 31
0.0
 11
111.48998984090679
 21
-3337.7080835434108
 31
0.0
 11
111.53228245024243
 21
-3337.7083394419055
 31
0.0
 11
111.57457084340538
 21
-3337.7089892676572
 31
0.0
 11
111.61685249943621
 21
-3337.7099875110966
 31
0.0
 11
111.65912591930464
 21
-3337.7112886831228
 31
0.0
 11
111.70139069172654
 21
-3337.7128470401026
 31
0.0
 11
111.74364713895731
 21
-3337.7146168636145
 31
0.0
 11
111.7858956061354
 21
-3337.7165521487145
 31
0.0
 11
111.82813691144023
 21
-3337.7186069114596
 31
0.0
 11
111.87038069075501
 21
-3337.7207351117804
 31
0.0
 11
111.91262467893567
 21
-3337.7228901138219
 31
0.0
 11
111.95488400744584
 21
-3337.725026003754
 31
0.0
 11
111.99714991262627
 21
-3337.7270956412012
 31
0.0
 11
112.0394199223779
 21
-3337.7290485006797
 31
0.0
 11
112.08169435898978
 21
-3337.7308341913385
 31
0.0
 11
112.1239581216341
 21
-3337.7324188144548
 31
0.0
 11
112.16622811424341
 21
-3337.7337697598505
 31
0.0
 11
112.2084931831855
 21
-3337.7349001472171
 31
0.0
 11
112.25076465797518
 21
-3337.7358237526082
 31
0.0
 11
112.29303629029371
 21
-3337.7365523029412
 31
0.0
 11
112.3353107716203
 21
-3337.737097698584
 31
0.0
 11
112.37758363858465
 21
-3337.7374724944912
 31
0.0
 11
112.41985758136286
 21
-3337.7376893224091
 31
0.0
 11
112.46212914033089
 21
-3337.737761002214
 31
0.0
 11
112.50440069940764
 21
-3337.7377003728348
 31
0.0
 11
112.54666988176805
 21
-3337.7375204662194
 31
0.0
 11
112.58893846974341
 21
-3337.737234301841
 31
0.0
 11
112.63120522876724
 21
-3337.736854993565
 31
0.0
 11
112.6734711930424
 21
-3337.7363956370455
 31
0.0
 11
112.71573625781318
 21
-3337.7358693202573
 31
0.0
 11
112.75800062371944
 21
-3337.7352891275673
 31
0.0
 11
112.80026524234721
 21
-3337.7346680208047
 31
0.0
 11
112.84252945390779
 21
-3337.7340189849451
 31
0.0
 11
112.88479514042822
 21
-3337.733354766568
 31
0.0
 11
112.92706080766365
 21
-3337.7326881652157
 31
0.0
 11
112.96932909680868
 21
-3337.7320316335554
 31
0.0
 11
113.01159775438668
 21
-3337.7313977015888
 31
0.0
 11
113.05386996952772
 21
-3337.7307984591516
 31
0.0
 11
113.09614285145
 21
-3337.7302460856381
 31
0.0
 11
113.13841989010876
 21
-3337.7297522466097
 31
0.0
 11
113.18069772451047
 21
-3337.7293286933523
 31
0.0
 11
113.22297986477778
 21
-3337.7289866160136
 31
0.0
 11
113.26526269109624
 21
-3337.7287372702431
 31
0.0
 11
113.30754942380749
 21
-3337.7285913006531
 31
0.0
 11
113.3498364397467
 21
-3337.7285593847055
 31
0.0
 11
113.39212633154818
 21
-3337.7286516883792
 31
0.0
 11
113.43441578175219
 21
-3337.7288783741433
 31
0.0
 11
113.47670629465559
 21
-3337.7292484074233
 31
0.0
 11
113.51899526660233
 21
-3337.7297707250964
 31
0.0
 11
113.56128230558961
 21
-3337.7304569484186
 31
0.0
 11
113.60356576127087
 21
-3337.7313186808351
 31
0.0
 11
113.64584559445433
 21
-3337.7323447677149
 31
0.0
 11
113.68812091682793
 21
-3337.7335240353605
 31
0.0
 11
113.7303971174322
 21
-3337.7348043178004
 31
0.0
 11
113.77267205909736
 21
-3337.736133225475
 31
0.0
 11
113.81495554602797
 21
-3337.7374627078248
 31
0.0
 11
113.8572409888792
 21
-3337.7387441895262
 31
0.0
 11
113.89953928853024
 21
-3337.7399262578147
 31
0.0
 11
113.94184180054678
 21
-3337.7409569187053
 31
0.0
 11
113.98415729114417
 21
-3337.7417781678855
 31
0.0
 11
114.02647763269442
 21
-3337.7423316196919
 31
0.0
 11
114.06818153599853
 21
-3337.7425517788051
 31
0.0
 11
114.10863949799857
 21
-3337.7423730684777
 31
0.0
 11
114.15414815190491
 21
-3337.7416139465804
 31
0.0
 11
114.20104038993128
 21
-3337.7401874546449
 31
0.0
 11
114.26046910148233
 21
-3337.736981539209
 31
0.0
 11
114.32241176591199
 21
-3337.731667444667
 31
0.0
  0
SPLINE
  5
4D
100
AcDbEntity
  8
0
  6
CONTINUOUS
 62
           7
100
AcDbSpline
210
0.0
220
0.0
230
1.0
 70
           0
 71
           3
 72
          52
 73
          49
 74
          95
 42
0.00000000001
 43
0.00000000001
 44
0.00000000001
 40
0.0
 40
0.0
 40
0.0
 40
1.0091537252772782
 40
1.8793976260662708
 40
2.6810186043072641
 40
3.4827891506034643
 40
4.284536329428386
 40
5.0861369625347237
 40
5.8889383514138753
 40
6.694380328837644
 40
7.4998405232988858
 40
8.3030480063065788
 40
9.1052093125175055
 40
9.9071953968205317
 40
10.709062162402217
 40
11.510900021125698
 40
12.312743503257789
 40
13.114531915578954
 40
13.916202766007697
 40
14.717824049174999
 40
15.519468505612238
 40
16.321131147819141
 40
17.122807700997015
 40
17.924496133234442
 40
18.726186973851807
 40
19.527878852615533
 40
20.329571436890888
 40
21.131263946852226
 40
21.932956106863287
 40
22.734647963193545
 40
23.53633956084099
 40
24.338030941344755
 40
25.139722143115538
 40
25.941413201336182
 40
26.743104147936972
 40
27.544807351679218
 40
28.34652226658487
 40
29.148211310445262
 40
29.949875603924525
 40
30.75155327856686
 40
31.553243756312035
 40
32.354934146301176
 40
33.156624487020309
 40
33.95831482743958
 40
34.760005217601346
 40
35.561695699757813
 40
36.363362969347314
 40
37.265195024301796
 40
38.367426566947827
 40
38.367426566947827
 40
38.367426566947827
 10
112.6573971174745
 20
-3327.1359317675842
 30
0.0
 10
112.1255897351889
 20
-3327.2275575591188
 30
0.0
 10
111.1867784322022
 20
-3327.207675835301
 30
0.0
 10
110.3854872821487
 20
-3327.1909354489571
 30
0.0
 10
109.58440091187001
 20
-3327.157689197832
 30
0.0
 10
108.78442811282331
 20
-3327.1041088581542
 30
0.0
 10
107.98605449118151
 20
-3327.0308333069502
 30
0.0
 10
107.1871196081118
 20
-3326.967111336327
 30
0.0
 10
106.38320324839199
 20
-3326.9856780791388
 30
0.0
 10
105.60654596991959
 20
-3327.2039765700711
 30
0.0
 10
104.9070735864434
 20
-3327.6007425199259
 30
0.0
 10
104.2713874554854
 20
-3328.0901346655592
 30
0.0
 10
103.68536880275219
 20
-3328.6377715403901
 30
0.0
 10
103.1384875553843
 20
-3329.224252799962
 30
0.0
 10
102.6234218495166
 20
-3329.838783981797
 30
0.0
 10
102.1354206905765
 20
-3330.4750241231231
 30
0.0
 10
101.67068726025479
 20
-3331.1284628194721
 30
0.0
 10
101.2229966534136
 20
-3331.7935516501038
 30
0.0
 10
100.78411915251409
 20
-3332.4643488018792
 30
0.0
 10
100.34440762584811
 20
-3333.134621027998
 30
0.0
 10
99.895993262696308
 20
-3333.799136749863
 30
0.0
 10
99.440832614990313
 20
-3334.459059611223
 30
0.0
 10
98.981003838582311
 20
-3335.1157625046599
 30
0.0
 10
98.518405001166315
 20
-3335.770521854753
 30
0.0
 10
98.054924856357616
 20
-3336.4246587458661
 30
0.0
 10
97.592054718993211
 20
-3337.0792288765178
 30
0.0
 10
97.129743613557608
 20
-3337.7341942352582
 30
0.0
 10
96.667939617240009
 20
-3338.3895167899459
 30
0.0
 10
96.206589959805612
 20
-3339.0451588803689
 30
0.0
 10
95.745641397121304
 20
-3339.701082679619
 30
0.0
 10
95.285040262060505
 20
-3340.3572502054799
 30
0.0
 10
94.824732505196124
 20
-3341.013623331457
 30
0.0
 10
94.364663738110735
 20
-3341.6701637978499
 30
0.0
 10
93.904779277057841
 20
-3342.3268332228158
 30
0.0
 10
93.445024187216418
 20
-3342.9835931134039
 30
0.0
 10
92.985329176444736
 20
-3343.6404250969699
 30
0.0
 10
92.525653749807361
 20
-3344.2972693358479
 30
0.0
 10
92.065970801949803
 20
-3344.954046606174
 30
0.0
 10
91.606195278388867
 20
-3345.610760357702
 30
0.0
 10
91.146257528790045
 20
-3346.267391891633
 30
0.0
 10
90.686116877167024
 20
-3346.9238811299911
 30
0.0
 10
90.225717893904985
 20
-3347.58018913669
 30
0.0
 10
89.765005254902519
 20
-3348.2362769704609
 30
0.0
 10
89.303923795258513
 20
-3348.8921056905219
 30
0.0
 10
88.84241855007096
 20
-3349.5476363530661
 30
0.0
 10
88.380434869333044
 20
-3350.2028300619959
 30
0.0
 10
87.917945015637045
 20
-3350.8576095982398
 30
0.0
 10
87.339121148001624
 20
-3351.6755382179972
 30
0.0
 10
86.99109227058895
 20
-3352.1657862969519
 30
0.0
 11
112.6573971174745
 21
-3327.1359317675842
 31
0.0
 11
112.1325165035492
 21
-3327.2019822087932
 31
0.0
 11
111.62148942634448
 21
-3327.21688194935
 31
0.0
 11
111.19118358896966
 21
-3327.207798925338
 31
0.0
 11
110.7696880651297
 21
-3327.1989620813997
 31
0.0
 11
110.38141102250688
 21
-3327.1887867133378
 31
0.0
 11
109.98498146060041
 21
-3327.1743138740376
 31
0.0
 11
109.58454799195827
 21
-3327.1551477268231
 31
0.0
 11
109.18440868349266
 21
-3327.1308986375898
 31
0.0
 11
108.78461743138368
 21
-3327.1016460219407
 31
0.0
 11
108.38520481639549
 21
-3327.0674677338657
 31
0.0
 11
107.98604995378541
 21
-3327.0320326286474
 31
0.0
 11
107.58688601638312
 21
-3326.998996166823
 31
0.0
 11
107.1867366598584
 21
-3326.9773995761907
 31
0.0
 11
106.7858214068269
 21
-3326.9763794652863
 31
0.0
 11
106.38677672605434
 21
-3327.0106404284611
 31
0.0
 11
105.99487900060643
 21
-3327.0948260902805
 31
0.0
 11
105.6160727406447
 21
-3327.2263541456769
 31
0.0
 11
105.25632002213314
 21
-3327.4026373522834
 31
0.0
 11
104.91487264649565
 21
-3327.6124301117252
 31
0.0
 11
104.58902339096265
 21
-3327.8455980547651
 31
0.0
 11
104.27753610637031
 21
-3328.0974625995491
 31
0.0
 11
103.97834612354779
 21
-3328.3639830123143
 31
0.0
 11
103.69024789137254
 21
-3328.6426400197306
 31
0.0
 11
103.41190783643795
 21
-3328.9310339858293
 31
0.0
 11
103.14245825190352
 21
-3329.2277658787775
 31
0.0
 11
102.88095006040757
 21
-3329.5315239293577
 31
0.0
 11
102.62680397127265
 21
-3329.8414987074766
 31
0.0
 11
102.3794221256498
 21
-3330.1569029369521
 31
0.0
 11
102.1383273756468
 21
-3330.4771764685652
 31
0.0
 11
101.90304599578445
 21
-3330.8017546910623
 31
0.0
 11
101.67281151532819
 21
-3331.1299279865439
 31
0.0
 11
101.44682554501875
 21
-3331.4610316161684
 31
0.0
 11
101.22409249266438
 21
-3331.7942738778816
 31
0.0
 11
101.00355111881161
 21
-3332.1289605951492
 31
0.0
 11
100.78401399769261
 21
-3332.4642845674648
 31
0.0
 11
100.56426656693063
 21
-3332.7994800709507
 31
0.0
 11
100.34332120150131
 21
-3333.1338993117974
 31
0.0
 11
100.12020298737838
 21
-3333.4668751202421
 31
0.0
 11
99.895151106539487
 21
-3333.7985609844209
 31
0.0
 11
99.668414913386982
 21
-3334.1290953177154
 31
0.0
 11
99.440250018387687
 21
-3334.4586557913512
 31
0.0
 11
99.210919930183053
 21
-3334.7874086252414
 31
0.0
 11
98.980658093662186
 21
-3335.1155188306302
 31
0.0
 11
98.749704767301083
 21
-3335.4431416879606
 31
0.0
 11
98.518294962110261
 21
-3335.7704438715027
 31
0.0
 11
98.286665078807317
 21
-3336.0975900885414
 31
0.0
 11
98.055001170258151
 21
-3336.4247128118632
 31
0.0
 11
97.823489889510086
 21
-3336.7519436671819
 31
0.0
 11
97.592124620764565
 21
-3337.0792782478211
 31
0.0
 11
97.360899155561754
 21
-3337.4067115710659
 31
0.0
 11
97.129806986919931
 21
-3337.7342389064247
 31
0.0
 11
96.898841565002783
 21
-3338.0618555841165
 31
0.0
 11
96.667996386078954
 21
-3338.3895567653144
 31
0.0
 11
96.437264744833016
 21
-3338.7173378972466
 31
0.0
 11
96.206640076431
 21
-3339.0451941227225
 31
0.0
 11
95.976115641279748
 21
-3339.3731208329059
 31
0.0
 11
95.745684808481002
 21
-3339.7011131697814
 31
0.0
 11
95.515340798401667
 21
-3340.0291664869815
 31
0.0
 11
95.285076920123785
 21
-3340.3572759257486
 31
0.0
 11
95.054886357972507
 21
-3340.6854368050526
 31
0.0
 11
94.824762367355817
 21
-3341.0136442655025
 31
0.0
 11
94.594698101058555
 21
-3341.3418935940431
 31
0.0
 11
94.364686767214195
 21
-3341.670179930733
 31
0.0
 11
94.134721491576812
 21
-3341.9984985331903
 31
0.0
 11
93.904795883781944
 21
-3342.3268439091585
 31
0.0
 11
93.67490348943528
 21
-3342.6552106578101
 31
0.0
 11
93.445032556118974
 21
-3342.9836008977741
 31
0.0
 11
93.215178360607723
 21
-3343.3120067064779
 31
0.0
 11
92.985331117043529
 21
-3343.6404273539856
 31
0.0
 11
92.755487754677006
 21
-3343.9688525155243
 31
0.0
 11
92.525650995547807
 21
-3344.2972635568622
 31
0.0
 11
92.295808727899527
 21
-3344.6256630402268
 31
0.0
 11
92.065958822641136
 21
-3344.9540392485283
 31
0.0
 11
91.836084958765426
 21
-3345.2824007415393
 31
0.0
 11
91.606175938865974
 21
-3345.6107487399918
 31
0.0
 11
91.376228239920778
 21
-3345.9390735030233
 31
0.0
 11
91.146232621971819
 21
-3346.2673734537666
 31
0.0
 11
90.916187190386353
 21
-3346.5956365287775
 31
0.0
 11
90.686084580795679
 21
-3346.9238584830464
 31
0.0
 11
90.455917378462246
 21
-3347.2520351434241
 31
0.0
 11
90.225678685158215
 21
-3347.58016161761
 31
0.0
 11
89.995361574360672
 21
-3347.9082330536366
 31
0.0
 11
89.7649591540996
 21
-3348.2362445787194
 31
0.0
 11
89.534464532232704
 21
-3348.5641913203185
 31
0.0
 11
89.303870827163493
 21
-3348.892068426087
 31
0.0
 11
89.073171185904272
 21
-3349.2198710029884
 31
0.0
 11
88.842357912892581
 21
-3349.5475954148565
 31
0.0
 11
88.611423365524089
 21
-3349.8752379503048
 31
0.0
 11
88.383770029007906
 21
-3350.1979668933536
 31
0.0
 11
88.162787011841488
 21
-3350.5109694991188
 31
0.0
 11
87.914037581475924
 21
-3350.8629668937733
 31
0.0
 11
87.657473282788175
 21
-3351.2256788794966
 31
0.0
 11
87.331701962345079
 21
-3351.6856354031106
 31
0.0
 11
86.99109227058895
 21
-3352.1657862969519
 31
0.0
  0
LINE
  5
4C
100
AcDbEntity
  8
0
  6
CONTINUOUS
 62
           7
100
AcDbLine
 10
114.599397064957
 20
-3352.166272615674
 11
125.990261064957
 21
-3352.166272615674
  0
LINE
  5
4B
100
AcDbEntity
  8
0
  6
CONTINUOUS
 62
           7
100
AcDbLine
 10
125.990261064957
 20
-3352.166272615674
 11
125.990261064957
 21
-3327.172794615674
  0
LINE
  5
4A
100
AcDbEntity
  8
0
  6
CONTINUOUS
 62
           7
100
AcDbLine
 10
125.990261064957
 20
-3327.172794615674
 11
114.599397064957
 21
-3327.172794615674
  0
LINE
  5
49
100
AcDbEntity
  8
0
  6
CONTINUOUS
 62
           7
100
AcDbLine
 10
114.599397064957
 20
-3327.172794615674
 11
114.599397064957
 21
-3352.166272615674
  0
LINE
  5
48
100
AcDbEntity
  8
0
  6
CONTINUOUS
 62
           7
100
AcDbLine
 10
189.490778064957
 20
-3389.612738615674
 11
84.990869064957
 21
-3389.612738615674
  0
LINE
  5
47
100
AcDbEntity
  8
0
  6
CONTINUOUS
 62
           7
100
AcDbLine
 10
84.990869064957
 20
-3389.612738615674
 11
84.990869064957
 21
-3325.112971615674
  0
LINE
  5
46
100
AcDbEntity
  8
0
  6
CONTINUOUS
 62
           7
100
AcDbLine
 10
84.990869064957
 20
-3325.112971615674
 11
189.490778064957
 21
-3325.112971615674
  0
LINE
  5
45
100
AcDbEntity
  8
0
  6
CONTINUOUS
 62
           7
100
AcDbLine
 10
189.490778064957
 20
-3325.112971615674
 11
189.490778064957
 21
-3389.612738615674
  0
LINE
  5
44
100
AcDbEntity
  8
0
  6
CONTINUOUS
 62
           7
100
AcDbLine
 10
100.52652689178
 20
-3352.166273021924
 11
110.327479040218
 21
-3338.027256637375
  0
LINE
  5
43
100
AcDbEntity
  8
0
  6
CONTINUOUS
 62
           7
100
AcDbLine
 10
114.322411765912
 20
-3337.731667444667
 11
112.657397117475
 21
-3327.135931767584
  0
LINE
  5
42
100
AcDbEntity
  8
0
  6
CONTINUOUS
 62
           7
100
AcDbLine
 10
86.990746726849
 20
-3352.166273021924
 11
100.52652689178
 21
-3352.166273021924
  0
POINT
  5
41
100
AcDbEntity
  8
0
 62
           7
100
AcDbPoint
 10
189.490778064957
 20
-3325.112971615674
  0
ENDBLK
  5
53
100
AcDbEntity
  8
0
100
AcDbBlockEnd
  0
BLOCK
  5
28
100
AcDbEntity
  8
0
100
AcDbBlockBegin
  2
KOZU0023__S
 70
           0
 10
0.0
 20
0.0
 30
0.0
  3
KOZU0023__S
  1

  0
ARC
  5
5E
100
AcDbEntity
  8
0
  6
CONTINUOUS
 62
           7
100
AcDbCircle
 10
84.990869064957
 20
-3334.281985467396
 40
39.169013851721
100
AcDbArc
 50
72.412046226006
 51
107.587953773993
  0
ARC
  5
5D
100
AcDbEntity
  8
0
  6
CONTINUOUS
 62
           7
100
AcDbCircle
 10
61.319508028183
 20
-3331.535506244977
 40
36.56034135027
100
AcDbArc
 50
71.111347820428
 51
85.023726763522
  0
ARC
  5
5C
100
AcDbEntity
  8
0
  6
CONTINUOUS
 62
           7
100
AcDbCircle
 10
108.662230101732
 20
-3331.535506244977
 40
36.560341350271
100
AcDbArc
 50
94.976273236478
 51
108.888652179571
  0
LINE
  5
5B
100
AcDbEntity
  8
0
  6
CONTINUOUS
 62
           7
100
AcDbLine
 10
105.490869064957
 20
-3295.112971615674
 11
108.662230101732
 21
-3296.943957763954
  0
LINE
  5
5A
100
AcDbEntity
  8
0
  6
CONTINUOUS
 62
           3
100
AcDbLine
 10
84.990869064957
 20
-3291.529765438917
 11
84.990869064957
 21
-3325.112971615674
  0
LINE
  5
59
100
AcDbEntity
  8
0
  6
CONTINUOUS
 62
           7
100
AcDbLine
 10
105.490869064957
 20
-3295.112971615674
 11
64.490869064957
 21
-3295.112971615674
  0
LINE
  5
58
100
AcDbEntity
  8
0
  6
CONTINUOUS
 62
           7
100
AcDbLine
 10
108.662230101732
 20
-3296.943957763954
 11
108.662230101732
 21
-3323.112971615674
  0
LINE
  5
57
100
AcDbEntity
  8
0
  6
CONTINUOUS
 62
           7
100
AcDbLine
 10
61.319508028183
 20
-3296.943957763954
 11
61.319508028183
 21
-3323.112971615674
  0
LINE
  5
56
100
AcDbEntity
  8
0
  6
CONTINUOUS
 62
           7
100
AcDbLine
 10
64.490869064957
 20
-3295.112971615674
 11
61.319508028183
 21
-3296.943957763954
  0
LINE
  5
55
100
AcDbEntity
  8
0
  6
CONTINUOUS
 62
           7
100
AcDbLine
 10
96.826549583345
 20
-3296.943957763954
 11
96.826549583345
 21
-3323.112971615674
  0
LINE
  5
54
100
AcDbEntity
  8
0
  6
CONTINUOUS
 62
           7
100
AcDbLine
 10
73.15518854657
 20
-3296.943957763954
 11
73.15518854657
 21
-3323.112971615674
  0
ENDBLK
  5
5F
100
AcDbEntity
  8
0
100
AcDbBlockEnd
  0
BLOCK
  5
2A
100
AcDbEntity
  8
0
100
AcDbBlockBegin
  2
KOZU0041__S
 70
           0
 10
0.0
 20
0.0
 30
0.0
  3
KOZU0041__S
  1

  0
CIRCLE
  5
6F
100
AcDbEntity
  8
0
  6
CONTINUOUS
 62
           3
100
AcDbCircle
 10
84.990869064957
 20
-3325.112971615674
 40
16.748163568538
  0
CIRCLE
  5
6E
100
AcDbEntity
  8
0
  6
CONTINUOUS
 62
           7
100
AcDbCircle
 10
84.990869064957
 20
-3325.112971615674
 40
15.268253352772
  0
CIRCLE
  5
6D
100
AcDbEntity
  8
0
  6
CONTINUOUS
 62
           7
100
AcDbCircle
 10
84.990869064957
 20
-3325.112971615674
 40
20.5
  0
CIRCLE
  5
6C
100
AcDbEntity
  8
0
  6
CONTINUOUS
 62
           7
100
AcDbCircle
 10
84.990869064957
 20
-3325.112971615674
 40
10.5
  0
LINE
  5
6B
100
AcDbEntity
  8
0
  6
CONTINUOUS
 62
           3
100
AcDbLine
 10
84.990869064957
 20
-3348.152971615674
 11
84.990869064957
 21
-3302.072971615674
  0
LINE
  5
6A
100
AcDbEntity
  8
0
  6
CONTINUOUS
 62
           7
100
AcDbLine
 10
61.319508028182
 20
-3325.112971615674
 11
73.15518854657
 21
-3345.612971615674
  0
LINE
  5
69
100
AcDbEntity
  8
0
  6
CONTINUOUS
 62
           7
100
AcDbLine
 10
73.15518854657
 20
-3345.612971615674
 11
96.826549583344
 21
-3345.612971615674
  0
LINE
  5
68
100
AcDbEntity
  8
0
  6
CONTINUOUS
 62
           7
100
AcDbLine
 10
108.662230101732
 20
-3325.112971615674
 11
96.826549583344
 21
-3345.612971615674
  0
LINE
  5
67
100
AcDbEntity
  8
0
  6
CONTINUOUS
 62
           7
100
AcDbLine
 10
96.826549583345
 20
-3304.612971615673
 11
108.662230101732
 21
-3325.112971615674
  0
LINE
  5
66
100
AcDbEntity
  8
0
  6
CONTINUOUS
 62
           7
100
AcDbLine
 10
73.15518854657
 20
-3304.612971615674
 11
96.826549583345
 21
-3304.612971615673
  0
LINE
  5
65
100
AcDbEntity
  8
0
  6
CONTINUOUS
 62
           7
100
AcDbLine
 10
61.319508028182
 20
-3325.112971615674
 11
73.15518854657
 21
-3304.612971615674
  0
LINE
  5
64
100
AcDbEntity
  8
0
  6
CONTINUOUS
 62
           3
100
AcDbLine
 10
61.950869064957
 20
-3325.112971615674
 11
108.030869064957
 21
-3325.112971615674
  0
POINT
  5
63
100
AcDbEntity
  8
0
 62
           7
100
AcDbPoint
 10
84.990869064957
 20
-3325.112971615674
  0
POINT
  5
62
100
AcDbEntity
  8
0
 62
           7
100
AcDbPoint
 10
84.990869064957
 20
-3325.112971615674
  0
POINT
  5
61
100
AcDbEntity
  8
0
 62
           7
100
AcDbPoint
 10
84.990869064957
 20
-3325.112971615674
  0
POINT
  5
60
100
AcDbEntity
  8
0
 62
           7
100
AcDbPoint
 10
84.990869064957
 20
-3325.112971615674
  0
ENDBLK
  5
70
100
AcDbEntity
  8
0
100
AcDbBlockEnd
  0
BLOCK
  5
2C
100
AcDbEntity
  8
0
100
AcDbBlockBegin
  2
KOZU0049__S
 70
           0
 10
0.0
 20
0.0
 30
0.0
  3
KOZU0049__S
  1

  0
CIRCLE
  5
82
100
AcDbEntity
  8
0
  6
CONTINUOUS
 62
           7
100
AcDbCircle
 10
84.990869064957
 20
-3325.112971615674
 40
35.0
  0
CIRCLE
  5
81
100
AcDbEntity
  8
0
  6
CONTINUOUS
 62
           7
100
AcDbCircle
 10
84.990869064957
 20
-3325.112971615674
 40
26.4
  0
CIRCLE
  5
80
100
AcDbEntity
  8
0
  6
CONTINUOUS
 62
           3
100
AcDbCircle
 10
84.990869064957
 20
-3325.112971615674
 40
31.0
  0
CIRCLE
  5
7F
100
AcDbEntity
  8
0
  6
CONTINUOUS
 62
           7
100
AcDbCircle
 10
84.990869064957
 20
-3294.112971615674
 40
2.25
  0
CIRCLE
  5
7E
100
AcDbEntity
  8
0
  6
CONTINUOUS
 62
           7
100
AcDbCircle
 10
58.14408154764
 20
-3340.612971615674
 40
2.25
  0
CIRCLE
  5
7D
100
AcDbEntity
  8
0
  6
CONTINUOUS
 62
           7
100
AcDbCircle
 10
111.837656582275
 20
-3340.612971615674
 40
2.25
  0
ARC
  5
7C
100
AcDbEntity
  8
0
  6
CONTINUOUS
 62
           7
100
AcDbCircle
 10
84.990869064957
 20
-3325.112971615674
 40
25.0
100
AcDbArc
 50
179.999981330665
 51
0.0
  0
ARC
  5
7B
100
AcDbEntity
  8
0
  6
CONTINUOUS
 62
           7
100
AcDbCircle
 10
84.990869064957
 20
-3325.112971615674
 40
25.0
100
AcDbArc
 50
0.0
 51
179.999964027824
  0
ARC
  5
7A
100
AcDbEntity
  8
0
  6
CONTINUOUS
 62
           7
100
AcDbCircle
 10
84.990869064957
 20
-3325.112971615674
 40
12.0
100
AcDbArc
 50
29.53851867226
 51
60.461481327738
  0
LINE
  5
79
100
AcDbEntity
  8
0
  6
CONTINUOUS
 62
           3
100
AcDbLine
 10
112.530869064957
 20
-3325.112971615674
 11
57.450869064957
 21
-3325.112971615674
  0
LINE
  5
78
100
AcDbEntity
  8
0
  6
CONTINUOUS
 62
           3
100
AcDbLine
 10
84.990869064957
 20
-3297.572971615674
 11
84.990869064957
 21
-3352.652971615674
  0
LINE
  5
77
100
AcDbEntity
  8
0
  6
CONTINUOUS
 62
           3
100
AcDbLine
 10
84.990869064957
 20
-3289.322971615674
 11
84.990869064957
 21
-3298.902971615674
  0
LINE
  5
76
100
AcDbEntity
  8
0
  6
CONTINUOUS
 62
           3
100
AcDbLine
 10
53.995819863512
 20
-3343.007971615674
 11
62.292343231767
 21
-3338.217971615674
  0
LINE
  5
75
100
AcDbEntity
  8
0
  6
CONTINUOUS
 62
           3
100
AcDbLine
 10
115.985918266402
 20
-3343.007971615674
 11
107.689394898147
 21
-3338.217971615674
  0
LINE
  5
74
100
AcDbEntity
  8
0
  6
CONTINUOUS
 62
           7
100
AcDbLine
 10
67.313199535293
 20
-3342.790641145338
 11
95.431162512082
 21
-3319.196868782058
  0
LINE
  5
73
100
AcDbEntity
  8
0
  6
CONTINUOUS
 62
           7
100
AcDbLine
 10
67.313199535293
 20
-3342.790641145338
 11
90.906971898573
 21
-3314.672678168549
  0
POINT
  5
72
100
AcDbEntity
  8
0
 62
           7
100
AcDbPoint
 10
109.990869064957
 20
-3325.112971615674
  0
POINT
  5
71
100
AcDbEntity
  8
0
 62
           7
100
AcDbPoint
 10
84.990869064957
 20
-3325.112971615674
  0
ENDBLK
  5
83
100
AcDbEntity
  8
0
100
AcDbBlockEnd
  0
BLOCK
  5
2E
100
AcDbEntity
  8
0
100
AcDbBlockBegin
  2
KOZU0048__S
 70
           0
 10
0.0
 20
0.0
 30
0.0
  3
KOZU0048__S
  1

  0
CIRCLE
  5
98
100
AcDbEntity
  8
0
  6
CONTINUOUS
 62
           3
100
AcDbCircle
 10
84.990869064957
 20
-3325.112971615674
 40
30.999996200204
  0
CIRCLE
  5
97
100
AcDbEntity
  8
0
  6
CONTINUOUS
 62
           7
100
AcDbCircle
 10
84.990869064957
 20
-3294.112949189428
 40
1.8
  0
CIRCLE
  5
96
100
AcDbEntity
  8
0
  6
CONTINUOUS
 62
           7
100
AcDbCircle
 10
111.837678052116
 20
-3340.613001902284
 40
1.8
  0
CIRCLE
  5
95
100
AcDbEntity
  8
0
  6
CONTINUOUS
 62
           7
100
AcDbCircle
 10
58.144136371743
 20
-3340.612963755313
 40
1.8
  0
CIRCLE
  5
94
100
AcDbEntity
  8
0
  6
CONTINUOUS
 62
           7
100
AcDbCircle
 10
59.990869064957
 20
-3275.112971615674
 40
8.5
  0
CIRCLE
  5
93
100
AcDbEntity
  8
0
  6
CONTINUOUS
 62
           7
100
AcDbCircle
 10
59.990869064957
 20
-3250.112971615675
 40
8.5
  0
LINE
  5
92
100
AcDbEntity
  8
0
  6
CONTINUOUS
 62
           3
100
AcDbLine
 10
45.128542083269
 20
-3325.112971615674
 11
125.741438754968
 21
-3325.112971615674
  0
LINE
  5
91
100
AcDbEntity
  8
0
  6
CONTINUOUS
 62
           3
100
AcDbLine
 10
84.990869064957
 20
-3286.728010105746
 11
84.990869064957
 21
-3363.125849944045
  0
LINE
  5
90
100
AcDbEntity
  8
0
  6
CONTINUOUS
 62
           3
100
AcDbLine
 10
115.552871167744
 20
-3342.757927964344
 11
108.122373558155
 21
-3338.467928169235
  0
LINE
  5
8F
100
AcDbEntity
  8
0
  6
CONTINUOUS
 62
           3
100
AcDbLine
 10
54.428887566948
 20
-3342.757963652866
 11
61.859385176537
 21
-3338.467963857757
  0
LINE
  5
8E
100
AcDbEntity
  8
0
  6
CONTINUOUS
 62
           7
100
AcDbLine
 10
102.990869064957
 20
-3247.612971615674
 11
102.990869064957
 21
-3277.612971615674
  0
LINE
  5
8D
100
AcDbEntity
  8
0
  6
CONTINUOUS
 62
           7
100
AcDbLine
 10
116.990869064957
 20
-3247.612971615674
 11
116.990869064957
 21
-3277.612971615674
  0
LINE
  5
8C
100
AcDbEntity
  8
0
  6
CONTINUOUS
 62
           7
100
AcDbLine
 10
105.740869064957
 20
-3251.112971615674
 11
105.740869064957
 21
-3274.112971615674
  0
LINE
  5
8B
100
AcDbEntity
  8
0
  6
CONTINUOUS
 62
           7
100
AcDbLine
 10
114.240869064957
 20
-3251.112971615674
 11
105.740869064957
 21
-3251.112971615674
  0
LINE
  5
8A
100
AcDbEntity
  8
0
  6
CONTINUOUS
 62
           7
100
AcDbLine
 10
116.990869064957
 20
-3247.612971615674
 11
102.990869064957
 21
-3247.612971615674
  0
LINE
  5
89
100
AcDbEntity
  8
0
  6
CONTINUOUS
 62
           7
100
AcDbLine
 10
116.990869064957
 20
-3277.612971615674
 11
102.990869064957
 21
-3277.612971615674
  0
LINE
  5
88
100
AcDbEntity
  8
0
  6
CONTINUOUS
 62
           7
100
AcDbLine
 10
114.240869064957
 20
-3274.112971615674
 11
105.740869064957
 21
-3274.112971615674
  0
LINE
  5
87
100
AcDbEntity
  8
0
  6
CONTINUOUS
 62
           7
100
AcDbLine
 10
114.240869064957
 20
-3251.112971615674
 11
114.240869064957
 21
-3274.112971615674
  0
POINT
  5
86
100
AcDbEntity
  8
0
 62
           7
100
AcDbPoint
 10
84.990869064957
 20
-3325.112971615674
  0
POINT
  5
85
100
AcDbEntity
  8
0
 62
           7
100
AcDbPoint
 10
84.990869064957
 20
-3325.112971615674
  0
POINT
  5
84
100
AcDbEntity
  8
0
 62
           7
100
AcDbPoint
 10
84.990869064957
 20
-3325.112971615674
  0
INSERT
  5
2F
100
AcDbEntity
  8
0
100
AcDbBlockReference
  2
KOZU0049__S
 10
0.0
 20
0.0
  0
ENDBLK
  5
99
100
AcDbEntity
  8
0
100
AcDbBlockEnd
  0
BLOCK
  5
31
100
AcDbEntity
  8
0
100
AcDbBlockBegin
  2
KOZU0043__S
 70
           0
 10
0.0
 20
0.0
 30
0.0
  3
KOZU0043__S
  1

  0
LINE
  5
3D0
100
AcDbEntity
  8
0
  6
CONTINUOUS
 62
           7
100
AcDbLine
 10
40.990869064958
 20
-2606.112971615673
 11
578.990869064958
 21
-2606.112971615673
  0
LINE
  5
3CF
100
AcDbEntity
  8
0
  6
CONTINUOUS
 62
           7
100
AcDbLine
 10
563.990869064957
 20
-3318.112971615673
 11
563.990869064958
 21
-3333.112971615674
  0
LINE
  5
3CE
100
AcDbEntity
  8
0
  6
CONTINUOUS
 62
           7
100
AcDbLine
 10
40.990869064958
 20
-2606.112971615673
 11
40.990869064958
 21
-3318.112971615673
  0
LINE
  5
3CD
100
AcDbEntity
  8
0
  6
CONTINUOUS
 62
           7
100
AcDbLine
 10
40.990869064958
 20
-3318.112971615673
 11
578.990869064958
 21
-3318.112971615674
  0
LINE
  5
3CC
100
AcDbEntity
  8
0
  6
CONTINUOUS
 62
           7
100
AcDbLine
 10
578.990869064958
 20
-2606.112971615673
 11
578.990869064958
 21
-3318.112971615674
  0
LINE
  5
3CB
100
AcDbEntity
  8
0
  6
CONTINUOUS
 62
           7
100
AcDbLine
 10
55.990869064958
 20
-3318.112971615673
 11
55.990869064958
 21
-3333.112971615674
  0
LINE
  5
3CA
100
AcDbEntity
  8
0
  6
CONTINUOUS
 62
           7
100
AcDbLine
 10
518.990871747166
 20
-2963.112971615675
 11
528.990871747166
 21
-2963.112971615675
  0
LINE
  5
3C9
100
AcDbEntity
  8
0
  6
CONTINUOUS
 62
           7
100
AcDbLine
 10
518.990871747166
 20
-3013.112971615675
 11
528.990871747166
 21
-3013.112971615675
  0
LINE
  5
3C8
100
AcDbEntity
  8
0
  6
CONTINUOUS
 62
           7
100
AcDbLine
 10
518.990871747166
 20
-3013.112971615675
 11
518.990871747166
 21
-2963.112971615675
  0
LINE
  5
3C7
100
AcDbEntity
  8
0
  6
CONTINUOUS
 62
           7
100
AcDbLine
 10
528.990871747166
 20
-3013.112971615675
 11
528.990871747166
 21
-2963.112971615675
  0
LINE
  5
3C6
100
AcDbEntity
  8
0
  6
CONTINUOUS
 62
           7
100
AcDbLine
 10
518.990871747166
 20
-3023.112971615675
 11
528.990871747166
 21
-3023.112971615675
  0
LINE
  5
3C5
100
AcDbEntity
  8
0
  6
CONTINUOUS
 62
           7
100
AcDbLine
 10
518.990871747166
 20
-3073.112971615675
 11
528.990871747166
 21
-3073.112971615675
  0
LINE
  5
3C4
100
AcDbEntity
  8
0
  6
CONTINUOUS
 62
           7
100
AcDbLine
 10
518.990871747166
 20
-3073.112971615675
 11
518.990871747166
 21
-3023.112971615675
  0
LINE
  5
3C3
100
AcDbEntity
  8
0
  6
CONTINUOUS
 62
           7
100
AcDbLine
 10
528.990871747166
 20
-3073.112971615675
 11
528.990871747166
 21
-3023.112971615675
  0
LINE
  5
3C2
100
AcDbEntity
  8
0
  6
CONTINUOUS
 62
           7
100
AcDbLine
 10
518.990871747166
 20
-3083.112971615675
 11
528.990871747166
 21
-3083.112971615675
  0
LINE
  5
3C1
100
AcDbEntity
  8
0
  6
CONTINUOUS
 62
           7
100
AcDbLine
 10
518.990871747166
 20
-3133.112971615675
 11
528.990871747166
 21
-3133.112971615675
  0
LINE
  5
3C0
100
AcDbEntity
  8
0
  6
CONTINUOUS
 62
           7
100
AcDbLine
 10
518.990871747166
 20
-3133.112971615675
 11
518.990871747166
 21
-3083.112971615675
  0
LINE
  5
3BF
100
AcDbEntity
  8
0
  6
CONTINUOUS
 62
           7
100
AcDbLine
 10
528.990871747166
 20
-3133.112971615675
 11
528.990871747166
 21
-3083.112971615675
  0
LINE
  5
3BE
100
AcDbEntity
  8
0
  6
CONTINUOUS
 62
           7
100
AcDbLine
 10
518.990871747166
 20
-3143.112971615675
 11
528.990871747166
 21
-3143.112971615675
  0
LINE
  5
3BD
100
AcDbEntity
  8
0
  6
CONTINUOUS
 62
           7
100
AcDbLine
 10
518.990871747166
 20
-3193.112971615675
 11
528.990871747166
 21
-3193.112971615675
  0
LINE
  5
3BC
100
AcDbEntity
  8
0
  6
CONTINUOUS
 62
           7
100
AcDbLine
 10
518.990871747166
 20
-3193.112971615675
 11
518.990871747166
 21
-3143.112971615675
  0
LINE
  5
3BB
100
AcDbEntity
  8
0
  6
CONTINUOUS
 62
           7
100
AcDbLine
 10
528.990871747166
 20
-3193.112971615675
 11
528.990871747166
 21
-3143.112971615675
  0
LINE
  5
3BA
100
AcDbEntity
  8
0
  6
CONTINUOUS
 62
           7
100
AcDbLine
 10
518.990871747166
 20
-3203.112971615675
 11
528.990871747166
 21
-3203.112971615675
  0
LINE
  5
3B9
100
AcDbEntity
  8
0
  6
CONTINUOUS
 62
           7
100
AcDbLine
 10
518.990871747166
 20
-3253.112971615674
 11
528.990871747166
 21
-3253.112971615674
  0
LINE
  5
3B8
100
AcDbEntity
  8
0
  6
CONTINUOUS
 62
           7
100
AcDbLine
 10
518.990871747166
 20
-3253.112971615674
 11
518.990871747166
 21
-3203.112971615675
  0
LINE
  5
3B7
100
AcDbEntity
  8
0
  6
CONTINUOUS
 62
           7
100
AcDbLine
 10
528.990871747166
 20
-3253.112971615674
 11
528.990871747166
 21
-3203.112971615675
  0
LINE
  5
3B6
100
AcDbEntity
  8
0
  6
CONTINUOUS
 62
           7
100
AcDbLine
 10
518.990871747166
 20
-3263.112971615674
 11
528.990871747166
 21
-3263.112971615674
  0
LINE
  5
3B5
100
AcDbEntity
  8
0
  6
CONTINUOUS
 62
           7
100
AcDbLine
 10
518.990871747166
 20
-3313.112971615674
 11
528.990871747166
 21
-3313.112971615674
  0
LINE
  5
3B4
100
AcDbEntity
  8
0
  6
CONTINUOUS
 62
           7
100
AcDbLine
 10
518.990871747166
 20
-3313.112971615674
 11
518.990871747166
 21
-3263.112971615674
  0
LINE
  5
3B3
100
AcDbEntity
  8
0
  6
CONTINUOUS
 62
           7
100
AcDbLine
 10
528.990871747166
 20
-3313.112971615674
 11
528.990871747166
 21
-3263.112971615674
  0
LINE
  5
3B2
100
AcDbEntity
  8
0
  6
CONTINUOUS
 62
           7
100
AcDbLine
 10
505.990871747167
 20
-2963.112971615675
 11
515.990871747167
 21
-2963.112971615675
  0
LINE
  5
3B1
100
AcDbEntity
  8
0
  6
CONTINUOUS
 62
           7
100
AcDbLine
 10
505.990871747167
 20
-3013.112971615675
 11
515.990871747167
 21
-3013.112971615675
  0
LINE
  5
3B0
100
AcDbEntity
  8
0
  6
CONTINUOUS
 62
           7
100
AcDbLine
 10
505.990871747167
 20
-3013.112971615675
 11
505.990871747167
 21
-2963.112971615675
  0
LINE
  5
3AF
100
AcDbEntity
  8
0
  6
CONTINUOUS
 62
           7
100
AcDbLine
 10
515.990871747167
 20
-3013.112971615675
 11
515.990871747167
 21
-2963.112971615675
  0
LINE
  5
3AE
100
AcDbEntity
  8
0
  6
CONTINUOUS
 62
           7
100
AcDbLine
 10
505.990871747167
 20
-3023.112971615675
 11
515.990871747167
 21
-3023.112971615675
  0
LINE
  5
3AD
100
AcDbEntity
  8
0
  6
CONTINUOUS
 62
           7
100
AcDbLine
 10
505.990871747167
 20
-3073.112971615675
 11
515.990871747167
 21
-3073.112971615675
  0
LINE
  5
3AC
100
AcDbEntity
  8
0
  6
CONTINUOUS
 62
           7
100
AcDbLine
 10
505.990871747167
 20
-3073.112971615675
 11
505.990871747167
 21
-3023.112971615675
  0
LINE
  5
3AB
100
AcDbEntity
  8
0
  6
CONTINUOUS
 62
           7
100
AcDbLine
 10
515.990871747167
 20
-3073.112971615675
 11
515.990871747167
 21
-3023.112971615675
  0
LINE
  5
3AA
100
AcDbEntity
  8
0
  6
CONTINUOUS
 62
           7
100
AcDbLine
 10
505.990871747167
 20
-3083.112971615675
 11
515.990871747167
 21
-3083.112971615675
  0
LINE
  5
3A9
100
AcDbEntity
  8
0
  6
CONTINUOUS
 62
           7
100
AcDbLine
 10
505.990871747167
 20
-3133.112971615675
 11
515.990871747167
 21
-3133.112971615675
  0
LINE
  5
3A8
100
AcDbEntity
  8
0
  6
CONTINUOUS
 62
           7
100
AcDbLine
 10
505.990871747167
 20
-3133.112971615675
 11
505.990871747167
 21
-3083.112971615675
  0
LINE
  5
3A7
100
AcDbEntity
  8
0
  6
CONTINUOUS
 62
           7
100
AcDbLine
 10
515.990871747167
 20
-3133.112971615675
 11
515.990871747167
 21
-3083.112971615675
  0
LINE
  5
3A6
100
AcDbEntity
  8
0
  6
CONTINUOUS
 62
           7
100
AcDbLine
 10
505.990871747167
 20
-3143.112971615675
 11
515.990871747167
 21
-3143.112971615675
  0
LINE
  5
3A5
100
AcDbEntity
  8
0
  6
CONTINUOUS
 62
           7
100
AcDbLine
 10
505.990871747167
 20
-3193.112971615675
 11
515.990871747167
 21
-3193.112971615675
  0
LINE
  5
3A4
100
AcDbEntity
  8
0
  6
CONTINUOUS
 62
           7
100
AcDbLine
 10
505.990871747167
 20
-3193.112971615675
 11
505.990871747167
 21
-3143.112971615675
  0
LINE
  5
3A3
100
AcDbEntity
  8
0
  6
CONTINUOUS
 62
           7
100
AcDbLine
 10
515.990871747167
 20
-3193.112971615675
 11
515.990871747167
 21
-3143.112971615675
  0
LINE
  5
3A2
100
AcDbEntity
  8
0
  6
CONTINUOUS
 62
           7
100
AcDbLine
 10
505.990871747167
 20
-3203.112971615675
 11
515.990871747167
 21
-3203.112971615675
  0
LINE
  5
3A1
100
AcDbEntity
  8
0
  6
CONTINUOUS
 62
           7
100
AcDbLine
 10
505.990871747167
 20
-3253.112971615674
 11
515.990871747167
 21
-3253.112971615674
  0
LINE
  5
3A0
100
AcDbEntity
  8
0
  6
CONTINUOUS
 62
           7
100
AcDbLine
 10
505.990871747167
 20
-3253.112971615674
 11
505.990871747167
 21
-3203.112971615675
  0
LINE
  5
39F
100
AcDbEntity
  8
0
  6
CONTINUOUS
 62
           7
100
AcDbLine
 10
515.990871747167
 20
-3253.112971615674
 11
515.990871747167
 21
-3203.112971615675
  0
LINE
  5
39E
100
AcDbEntity
  8
0
  6
CONTINUOUS
 62
           7
100
AcDbLine
 10
505.990871747167
 20
-3263.112971615674
 11
515.990871747167
 21
-3263.112971615674
  0
LINE
  5
39D
100
AcDbEntity
  8
0
  6
CONTINUOUS
 62
           7
100
AcDbLine
 10
505.990871747167
 20
-3313.112971615674
 11
515.990871747167
 21
-3313.112971615674
  0
LINE
  5
39C
100
AcDbEntity
  8
0
  6
CONTINUOUS
 62
           7
100
AcDbLine
 10
505.990871747167
 20
-3313.112971615674
 11
505.990871747167
 21
-3263.112971615674
  0
LINE
  5
39B
100
AcDbEntity
  8
0
  6
CONTINUOUS
 62
           7
100
AcDbLine
 10
515.990871747167
 20
-3313.112971615674
 11
515.990871747167
 21
-3263.112971615674
  0
LINE
  5
39A
100
AcDbEntity
  8
0
  6
CONTINUOUS
 62
           7
100
AcDbLine
 10
492.990871747167
 20
-2963.112971615675
 11
502.990871747167
 21
-2963.112971615675
  0
LINE
  5
399
100
AcDbEntity
  8
0
  6
CONTINUOUS
 62
           7
100
AcDbLine
 10
492.990871747167
 20
-3013.112971615675
 11
502.990871747167
 21
-3013.112971615675
  0
LINE
  5
398
100
AcDbEntity
  8
0
  6
CONTINUOUS
 62
           7
100
AcDbLine
 10
492.990871747167
 20
-3013.112971615675
 11
492.990871747167
 21
-2963.112971615675
  0
LINE
  5
397
100
AcDbEntity
  8
0
  6
CONTINUOUS
 62
           7
100
AcDbLine
 10
502.990871747167
 20
-3013.112971615675
 11
502.990871747167
 21
-2963.112971615675
  0
LINE
  5
396
100
AcDbEntity
  8
0
  6
CONTINUOUS
 62
           7
100
AcDbLine
 10
492.990871747167
 20
-3023.112971615675
 11
502.990871747167
 21
-3023.112971615675
  0
LINE
  5
395
100
AcDbEntity
  8
0
  6
CONTINUOUS
 62
           7
100
AcDbLine
 10
492.990871747167
 20
-3073.112971615675
 11
502.990871747167
 21
-3073.112971615675
  0
LINE
  5
394
100
AcDbEntity
  8
0
  6
CONTINUOUS
 62
           7
100
AcDbLine
 10
492.990871747167
 20
-3073.112971615675
 11
492.990871747167
 21
-3023.112971615675
  0
LINE
  5
393
100
AcDbEntity
  8
0
  6
CONTINUOUS
 62
           7
100
AcDbLine
 10
502.990871747167
 20
-3073.112971615675
 11
502.990871747167
 21
-3023.112971615675
  0
LINE
  5
392
100
AcDbEntity
  8
0
  6
CONTINUOUS
 62
           7
100
AcDbLine
 10
492.990871747167
 20
-3083.112971615675
 11
502.990871747167
 21
-3083.112971615675
  0
LINE
  5
391
100
AcDbEntity
  8
0
  6
CONTINUOUS
 62
           7
100
AcDbLine
 10
492.990871747167
 20
-3133.112971615675
 11
502.990871747167
 21
-3133.112971615675
  0
LINE
  5
390
100
AcDbEntity
  8
0
  6
CONTINUOUS
 62
           7
100
AcDbLine
 10
492.990871747167
 20
-3133.112971615675
 11
492.990871747167
 21
-3083.112971615675
  0
LINE
  5
38F
100
AcDbEntity
  8
0
  6
CONTINUOUS
 62
           7
100
AcDbLine
 10
502.990871747167
 20
-3133.112971615675
 11
502.990871747167
 21
-3083.112971615675
  0
LINE
  5
38E
100
AcDbEntity
  8
0
  6
CONTINUOUS
 62
           7
100
AcDbLine
 10
492.990871747167
 20
-3143.112971615675
 11
502.990871747167
 21
-3143.112971615675
  0
LINE
  5
38D
100
AcDbEntity
  8
0
  6
CONTINUOUS
 62
           7
100
AcDbLine
 10
492.990871747167
 20
-3193.112971615675
 11
502.990871747167
 21
-3193.112971615675
  0
LINE
  5
38C
100
AcDbEntity
  8
0
  6
CONTINUOUS
 62
           7
100
AcDbLine
 10
492.990871747167
 20
-3193.112971615675
 11
492.990871747167
 21
-3143.112971615675
  0
LINE
  5
38B
100
AcDbEntity
  8
0
  6
CONTINUOUS
 62
           7
100
AcDbLine
 10
502.990871747167
 20
-3193.112971615675
 11
502.990871747167
 21
-3143.112971615675
  0
LINE
  5
38A
100
AcDbEntity
  8
0
  6
CONTINUOUS
 62
           7
100
AcDbLine
 10
492.990871747167
 20
-3203.112971615675
 11
502.990871747167
 21
-3203.112971615675
  0
LINE
  5
389
100
AcDbEntity
  8
0
  6
CONTINUOUS
 62
           7
100
AcDbLine
 10
492.990871747167
 20
-3253.112971615674
 11
502.990871747167
 21
-3253.112971615674
  0
LINE
  5
388
100
AcDbEntity
  8
0
  6
CONTINUOUS
 62
           7
100
AcDbLine
 10
492.990871747167
 20
-3253.112971615674
 11
492.990871747167
 21
-3203.112971615675
  0
LINE
  5
387
100
AcDbEntity
  8
0
  6
CONTINUOUS
 62
           7
100
AcDbLine
 10
502.990871747167
 20
-3253.112971615674
 11
502.990871747167
 21
-3203.112971615675
  0
LINE
  5
386
100
AcDbEntity
  8
0
  6
CONTINUOUS
 62
           7
100
AcDbLine
 10
492.990871747167
 20
-3263.112971615674
 11
502.990871747167
 21
-3263.112971615674
  0
LINE
  5
385
100
AcDbEntity
  8
0
  6
CONTINUOUS
 62
           7
100
AcDbLine
 10
492.990871747167
 20
-3313.112971615674
 11
502.990871747167
 21
-3313.112971615674
  0
LINE
  5
384
100
AcDbEntity
  8
0
  6
CONTINUOUS
 62
           7
100
AcDbLine
 10
492.990871747167
 20
-3313.112971615674
 11
492.990871747167
 21
-3263.112971615674
  0
LINE
  5
383
100
AcDbEntity
  8
0
  6
CONTINUOUS
 62
           7
100
AcDbLine
 10
502.990871747167
 20
-3313.112971615674
 11
502.990871747167
 21
-3263.112971615674
  0
LINE
  5
382
100
AcDbEntity
  8
0
  6
CONTINUOUS
 62
           7
100
AcDbLine
 10
479.990871747167
 20
-2963.112971615675
 11
489.990871747167
 21
-2963.112971615675
  0
LINE
  5
381
100
AcDbEntity
  8
0
  6
CONTINUOUS
 62
           7
100
AcDbLine
 10
479.990871747167
 20
-3013.112971615675
 11
489.990871747167
 21
-3013.112971615675
  0
LINE
  5
380
100
AcDbEntity
  8
0
  6
CONTINUOUS
 62
           7
100
AcDbLine
 10
479.990871747167
 20
-3013.112971615675
 11
479.990871747167
 21
-2963.112971615675
  0
LINE
  5
37F
100
AcDbEntity
  8
0
  6
CONTINUOUS
 62
           7
100
AcDbLine
 10
489.990871747167
 20
-3013.112971615675
 11
489.990871747167
 21
-2963.112971615675
  0
LINE
  5
37E
100
AcDbEntity
  8
0
  6
CONTINUOUS
 62
           7
100
AcDbLine
 10
479.990871747167
 20
-3023.112971615675
 11
489.990871747167
 21
-3023.112971615675
  0
LINE
  5
37D
100
AcDbEntity
  8
0
  6
CONTINUOUS
 62
           7
100
AcDbLine
 10
479.990871747167
 20
-3073.112971615675
 11
489.990871747167
 21
-3073.112971615675
  0
LINE
  5
37C
100
AcDbEntity
  8
0
  6
CONTINUOUS
 62
           7
100
AcDbLine
 10
479.990871747167
 20
-3073.112971615675
 11
479.990871747167
 21
-3023.112971615675
  0
LINE
  5
37B
100
AcDbEntity
  8
0
  6
CONTINUOUS
 62
           7
100
AcDbLine
 10
489.990871747167
 20
-3073.112971615675
 11
489.990871747167
 21
-3023.112971615675
  0
LINE
  5
37A
100
AcDbEntity
  8
0
  6
CONTINUOUS
 62
           7
100
AcDbLine
 10
479.990871747167
 20
-3083.112971615675
 11
489.990871747167
 21
-3083.112971615675
  0
LINE
  5
379
100
AcDbEntity
  8
0
  6
CONTINUOUS
 62
           7
100
AcDbLine
 10
479.990871747167
 20
-3133.112971615675
 11
489.990871747167
 21
-3133.112971615675
  0
LINE
  5
378
100
AcDbEntity
  8
0
  6
CONTINUOUS
 62
           7
100
AcDbLine
 10
479.990871747167
 20
-3133.112971615675
 11
479.990871747167
 21
-3083.112971615675
  0
LINE
  5
377
100
AcDbEntity
  8
0
  6
CONTINUOUS
 62
           7
100
AcDbLine
 10
489.990871747167
 20
-3133.112971615675
 11
489.990871747167
 21
-3083.112971615675
  0
LINE
  5
376
100
AcDbEntity
  8
0
  6
CONTINUOUS
 62
           7
100
AcDbLine
 10
479.990871747167
 20
-3143.112971615675
 11
489.990871747167
 21
-3143.112971615675
  0
LINE
  5
375
100
AcDbEntity
  8
0
  6
CONTINUOUS
 62
           7
100
AcDbLine
 10
479.990871747167
 20
-3193.112971615675
 11
489.990871747167
 21
-3193.112971615675
  0
LINE
  5
374
100
AcDbEntity
  8
0
  6
CONTINUOUS
 62
           7
100
AcDbLine
 10
479.990871747167
 20
-3193.112971615675
 11
479.990871747167
 21
-3143.112971615675
  0
LINE
  5
373
100
AcDbEntity
  8
0
  6
CONTINUOUS
 62
           7
100
AcDbLine
 10
489.990871747167
 20
-3193.112971615675
 11
489.990871747167
 21
-3143.112971615675
  0
LINE
  5
372
100
AcDbEntity
  8
0
  6
CONTINUOUS
 62
           7
100
AcDbLine
 10
479.990871747167
 20
-3203.112971615675
 11
489.990871747167
 21
-3203.112971615675
  0
LINE
  5
371
100
AcDbEntity
  8
0
  6
CONTINUOUS
 62
           7
100
AcDbLine
 10
479.990871747167
 20
-3253.112971615674
 11
489.990871747167
 21
-3253.112971615674
  0
LINE
  5
370
100
AcDbEntity
  8
0
  6
CONTINUOUS
 62
           7
100
AcDbLine
 10
479.990871747167
 20
-3253.112971615674
 11
479.990871747167
 21
-3203.112971615675
  0
LINE
  5
36F
100
AcDbEntity
  8
0
  6
CONTINUOUS
 62
           7
100
AcDbLine
 10
489.990871747167
 20
-3253.112971615674
 11
489.990871747167
 21
-3203.112971615675
  0
LINE
  5
36E
100
AcDbEntity
  8
0
  6
CONTINUOUS
 62
           7
100
AcDbLine
 10
479.990871747167
 20
-3263.112971615674
 11
489.990871747167
 21
-3263.112971615674
  0
LINE
  5
36D
100
AcDbEntity
  8
0
  6
CONTINUOUS
 62
           7
100
AcDbLine
 10
479.990871747167
 20
-3313.112971615674
 11
489.990871747167
 21
-3313.112971615674
  0
LINE
  5
36C
100
AcDbEntity
  8
0
  6
CONTINUOUS
 62
           7
100
AcDbLine
 10
479.990871747167
 20
-3313.112971615674
 11
479.990871747167
 21
-3263.112971615674
  0
LINE
  5
36B
100
AcDbEntity
  8
0
  6
CONTINUOUS
 62
           7
100
AcDbLine
 10
489.990871747167
 20
-3313.112971615674
 11
489.990871747167
 21
-3263.112971615674
  0
LINE
  5
36A
100
AcDbEntity
  8
0
  6
CONTINUOUS
 62
           7
100
AcDbLine
 10
466.990871747166
 20
-2963.112971615675
 11
476.990871747166
 21
-2963.112971615675
  0
LINE
  5
369
100
AcDbEntity
  8
0
  6
CONTINUOUS
 62
           7
100
AcDbLine
 10
466.990871747166
 20
-3013.112971615675
 11
476.990871747166
 21
-3013.112971615675
  0
LINE
  5
368
100
AcDbEntity
  8
0
  6
CONTINUOUS
 62
           7
100
AcDbLine
 10
466.990871747166
 20
-3013.112971615675
 11
466.990871747166
 21
-2963.112971615675
  0
LINE
  5
367
100
AcDbEntity
  8
0
  6
CONTINUOUS
 62
           7
100
AcDbLine
 10
476.990871747166
 20
-3013.112971615675
 11
476.990871747166
 21
-2963.112971615675
  0
LINE
  5
366
100
AcDbEntity
  8
0
  6
CONTINUOUS
 62
           7
100
AcDbLine
 10
466.990871747166
 20
-3023.112971615675
 11
476.990871747166
 21
-3023.112971615675
  0
LINE
  5
365
100
AcDbEntity
  8
0
  6
CONTINUOUS
 62
           7
100
AcDbLine
 10
466.990871747166
 20
-3073.112971615675
 11
476.990871747166
 21
-3073.112971615675
  0
LINE
  5
364
100
AcDbEntity
  8
0
  6
CONTINUOUS
 62
           7
100
AcDbLine
 10
466.990871747166
 20
-3073.112971615675
 11
466.990871747166
 21
-3023.112971615675
  0
LINE
  5
363
100
AcDbEntity
  8
0
  6
CONTINUOUS
 62
           7
100
AcDbLine
 10
476.990871747166
 20
-3073.112971615675
 11
476.990871747166
 21
-3023.112971615675
  0
LINE
  5
362
100
AcDbEntity
  8
0
  6
CONTINUOUS
 62
           7
100
AcDbLine
 10
466.990871747166
 20
-3083.112971615675
 11
476.990871747166
 21
-3083.112971615675
  0
LINE
  5
361
100
AcDbEntity
  8
0
  6
CONTINUOUS
 62
           7
100
AcDbLine
 10
466.990871747166
 20
-3133.112971615675
 11
476.990871747166
 21
-3133.112971615675
  0
LINE
  5
360
100
AcDbEntity
  8
0
  6
CONTINUOUS
 62
           7
100
AcDbLine
 10
466.990871747166
 20
-3133.112971615675
 11
466.990871747166
 21
-3083.112971615675
  0
LINE
  5
35F
100
AcDbEntity
  8
0
  6
CONTINUOUS
 62
           7
100
AcDbLine
 10
476.990871747166
 20
-3133.112971615675
 11
476.990871747166
 21
-3083.112971615675
  0
LINE
  5
35E
100
AcDbEntity
  8
0
  6
CONTINUOUS
 62
           7
100
AcDbLine
 10
466.990871747166
 20
-3143.112971615675
 11
476.990871747166
 21
-3143.112971615675
  0
LINE
  5
35D
100
AcDbEntity
  8
0
  6
CONTINUOUS
 62
           7
100
AcDbLine
 10
466.990871747166
 20
-3193.112971615675
 11
476.990871747166
 21
-3193.112971615675
  0
LINE
  5
35C
100
AcDbEntity
  8
0
  6
CONTINUOUS
 62
           7
100
AcDbLine
 10
466.990871747166
 20
-3193.112971615675
 11
466.990871747166
 21
-3143.112971615675
  0
LINE
  5
35B
100
AcDbEntity
  8
0
  6
CONTINUOUS
 62
           7
100
AcDbLine
 10
476.990871747166
 20
-3193.112971615675
 11
476.990871747166
 21
-3143.112971615675
  0
LINE
  5
35A
100
AcDbEntity
  8
0
  6
CONTINUOUS
 62
           7
100
AcDbLine
 10
466.990871747166
 20
-3203.112971615675
 11
476.990871747166
 21
-3203.112971615675
  0
LINE
  5
359
100
AcDbEntity
  8
0
  6
CONTINUOUS
 62
           7
100
AcDbLine
 10
466.990871747166
 20
-3253.112971615674
 11
476.990871747166
 21
-3253.112971615674
  0
LINE
  5
358
100
AcDbEntity
  8
0
  6
CONTINUOUS
 62
           7
100
AcDbLine
 10
466.990871747166
 20
-3253.112971615674
 11
466.990871747166
 21
-3203.112971615675
  0
LINE
  5
357
100
AcDbEntity
  8
0
  6
CONTINUOUS
 62
           7
100
AcDbLine
 10
476.990871747166
 20
-3253.112971615674
 11
476.990871747166
 21
-3203.112971615675
  0
LINE
  5
356
100
AcDbEntity
  8
0
  6
CONTINUOUS
 62
           7
100
AcDbLine
 10
466.990871747166
 20
-3263.112971615674
 11
476.990871747166
 21
-3263.112971615674
  0
LINE
  5
355
100
AcDbEntity
  8
0
  6
CONTINUOUS
 62
           7
100
AcDbLine
 10
466.990871747166
 20
-3313.112971615674
 11
476.990871747166
 21
-3313.112971615674
  0
LINE
  5
354
100
AcDbEntity
  8
0
  6
CONTINUOUS
 62
           7
100
AcDbLine
 10
466.990871747166
 20
-3313.112971615674
 11
466.990871747166
 21
-3263.112971615674
  0
LINE
  5
353
100
AcDbEntity
  8
0
  6
CONTINUOUS
 62
           7
100
AcDbLine
 10
476.990871747166
 20
-3313.112971615674
 11
476.990871747166
 21
-3263.112971615674
  0
LINE
  5
352
100
AcDbEntity
  8
0
  6
CONTINUOUS
 62
           7
100
AcDbLine
 10
453.990871747166
 20
-2963.112971615675
 11
463.990871747166
 21
-2963.112971615675
  0
LINE
  5
351
100
AcDbEntity
  8
0
  6
CONTINUOUS
 62
           7
100
AcDbLine
 10
453.990871747166
 20
-3013.112971615675
 11
463.990871747166
 21
-3013.112971615675
  0
LINE
  5
350
100
AcDbEntity
  8
0
  6
CONTINUOUS
 62
           7
100
AcDbLine
 10
453.990871747166
 20
-3013.112971615675
 11
453.990871747166
 21
-2963.112971615675
  0
LINE
  5
34F
100
AcDbEntity
  8
0
  6
CONTINUOUS
 62
           7
100
AcDbLine
 10
463.990871747166
 20
-3013.112971615675
 11
463.990871747166
 21
-2963.112971615675
  0
LINE
  5
34E
100
AcDbEntity
  8
0
  6
CONTINUOUS
 62
           7
100
AcDbLine
 10
453.990871747166
 20
-3023.112971615675
 11
463.990871747166
 21
-3023.112971615675
  0
LINE
  5
34D
100
AcDbEntity
  8
0
  6
CONTINUOUS
 62
           7
100
AcDbLine
 10
453.990871747166
 20
-3073.112971615675
 11
463.990871747166
 21
-3073.112971615675
  0
LINE
  5
34C
100
AcDbEntity
  8
0
  6
CONTINUOUS
 62
           7
100
AcDbLine
 10
453.990871747166
 20
-3073.112971615675
 11
453.990871747166
 21
-3023.112971615675
  0
LINE
  5
34B
100
AcDbEntity
  8
0
  6
CONTINUOUS
 62
           7
100
AcDbLine
 10
463.990871747166
 20
-3073.112971615675
 11
463.990871747166
 21
-3023.112971615675
  0
LINE
  5
34A
100
AcDbEntity
  8
0
  6
CONTINUOUS
 62
           7
100
AcDbLine
 10
453.990871747166
 20
-3083.112971615675
 11
463.990871747166
 21
-3083.112971615675
  0
LINE
  5
349
100
AcDbEntity
  8
0
  6
CONTINUOUS
 62
           7
100
AcDbLine
 10
453.990871747166
 20
-3133.112971615675
 11
463.990871747166
 21
-3133.112971615675
  0
LINE
  5
348
100
AcDbEntity
  8
0
  6
CONTINUOUS
 62
           7
100
AcDbLine
 10
453.990871747166
 20
-3133.112971615675
 11
453.990871747166
 21
-3083.112971615675
  0
LINE
  5
347
100
AcDbEntity
  8
0
  6
CONTINUOUS
 62
           7
100
AcDbLine
 10
463.990871747166
 20
-3133.112971615675
 11
463.990871747166
 21
-3083.112971615675
  0
LINE
  5
346
100
AcDbEntity
  8
0
  6
CONTINUOUS
 62
           7
100
AcDbLine
 10
453.990871747166
 20
-3143.112971615675
 11
463.990871747166
 21
-3143.112971615675
  0
LINE
  5
345
100
AcDbEntity
  8
0
  6
CONTINUOUS
 62
           7
100
AcDbLine
 10
453.990871747166
 20
-3193.112971615675
 11
463.990871747166
 21
-3193.112971615675
  0
LINE
  5
344
100
AcDbEntity
  8
0
  6
CONTINUOUS
 62
           7
100
AcDbLine
 10
453.990871747166
 20
-3193.112971615675
 11
453.990871747166
 21
-3143.112971615675
  0
LINE
  5
343
100
AcDbEntity
  8
0
  6
CONTINUOUS
 62
           7
100
AcDbLine
 10
463.990871747166
 20
-3193.112971615675
 11
463.990871747166
 21
-3143.112971615675
  0
LINE
  5
342
100
AcDbEntity
  8
0
  6
CONTINUOUS
 62
           7
100
AcDbLine
 10
453.990871747166
 20
-3203.112971615675
 11
463.990871747166
 21
-3203.112971615675
  0
LINE
  5
341
100
AcDbEntity
  8
0
  6
CONTINUOUS
 62
           7
100
AcDbLine
 10
453.990871747166
 20
-3253.112971615674
 11
463.990871747166
 21
-3253.112971615674
  0
LINE
  5
340
100
AcDbEntity
  8
0
  6
CONTINUOUS
 62
           7
100
AcDbLine
 10
453.990871747166
 20
-3253.112971615674
 11
453.990871747166
 21
-3203.112971615675
  0
LINE
  5
33F
100
AcDbEntity
  8
0
  6
CONTINUOUS
 62
           7
100
AcDbLine
 10
463.990871747166
 20
-3253.112971615674
 11
463.990871747166
 21
-3203.112971615675
  0
LINE
  5
33E
100
AcDbEntity
  8
0
  6
CONTINUOUS
 62
           7
100
AcDbLine
 10
453.990871747166
 20
-3263.112971615674
 11
463.990871747166
 21
-3263.112971615674
  0
LINE
  5
33D
100
AcDbEntity
  8
0
  6
CONTINUOUS
 62
           7
100
AcDbLine
 10
453.990871747166
 20
-3313.112971615674
 11
463.990871747166
 21
-3313.112971615674
  0
LINE
  5
33C
100
AcDbEntity
  8
0
  6
CONTINUOUS
 62
           7
100
AcDbLine
 10
453.990871747166
 20
-3313.112971615674
 11
453.990871747166
 21
-3263.112971615674
  0
LINE
  5
33B
100
AcDbEntity
  8
0
  6
CONTINUOUS
 62
           7
100
AcDbLine
 10
463.990871747166
 20
-3313.112971615674
 11
463.990871747166
 21
-3263.112971615674
  0
LINE
  5
33A
100
AcDbEntity
  8
0
  6
CONTINUOUS
 62
           7
100
AcDbLine
 10
440.990871747167
 20
-2963.112971615675
 11
450.990871747167
 21
-2963.112971615675
  0
LINE
  5
339
100
AcDbEntity
  8
0
  6
CONTINUOUS
 62
           7
100
AcDbLine
 10
440.990871747167
 20
-3013.112971615675
 11
450.990871747167
 21
-3013.112971615675
  0
LINE
  5
338
100
AcDbEntity
  8
0
  6
CONTINUOUS
 62
           7
100
AcDbLine
 10
440.990871747167
 20
-3013.112971615675
 11
440.990871747167
 21
-2963.112971615675
  0
LINE
  5
337
100
AcDbEntity
  8
0
  6
CONTINUOUS
 62
           7
100
AcDbLine
 10
450.990871747167
 20
-3013.112971615675
 11
450.990871747167
 21
-2963.112971615675
  0
LINE
  5
336
100
AcDbEntity
  8
0
  6
CONTINUOUS
 62
           7
100
AcDbLine
 10
427.990871747167
 20
-2963.112971615675
 11
437.990871747167
 21
-2963.112971615675
  0
LINE
  5
335
100
AcDbEntity
  8
0
  6
CONTINUOUS
 62
           7
100
AcDbLine
 10
427.990871747167
 20
-3013.112971615675
 11
437.990871747167
 21
-3013.112971615675
  0
LINE
  5
334
100
AcDbEntity
  8
0
  6
CONTINUOUS
 62
           7
100
AcDbLine
 10
427.990871747167
 20
-3013.112971615675
 11
427.990871747167
 21
-2963.112971615675
  0
LINE
  5
333
100
AcDbEntity
  8
0
  6
CONTINUOUS
 62
           7
100
AcDbLine
 10
437.990871747167
 20
-3013.112971615675
 11
437.990871747167
 21
-2963.112971615675
  0
LINE
  5
332
100
AcDbEntity
  8
0
  6
CONTINUOUS
 62
           7
100
AcDbLine
 10
414.990871747167
 20
-2963.112971615675
 11
424.990871747167
 21
-2963.112971615675
  0
LINE
  5
331
100
AcDbEntity
  8
0
  6
CONTINUOUS
 62
           7
100
AcDbLine
 10
414.990871747167
 20
-3013.112971615675
 11
424.990871747167
 21
-3013.112971615675
  0
LINE
  5
330
100
AcDbEntity
  8
0
  6
CONTINUOUS
 62
           7
100
AcDbLine
 10
414.990871747167
 20
-3013.112971615675
 11
414.990871747167
 21
-2963.112971615675
  0
LINE
  5
32F
100
AcDbEntity
  8
0
  6
CONTINUOUS
 62
           7
100
AcDbLine
 10
424.990871747167
 20
-3013.112971615675
 11
424.990871747167
 21
-2963.112971615675
  0
LINE
  5
32E
100
AcDbEntity
  8
0
  6
CONTINUOUS
 62
           7
100
AcDbLine
 10
401.990871747166
 20
-2963.112971615675
 11
411.990871747166
 21
-2963.112971615675
  0
LINE
  5
32D
100
AcDbEntity
  8
0
  6
CONTINUOUS
 62
           7
100
AcDbLine
 10
401.990871747166
 20
-3013.112971615675
 11
411.990871747166
 21
-3013.112971615675
  0
LINE
  5
32C
100
AcDbEntity
  8
0
  6
CONTINUOUS
 62
           7
100
AcDbLine
 10
401.990871747166
 20
-3013.112971615675
 11
401.990871747166
 21
-2963.112971615675
  0
LINE
  5
32B
100
AcDbEntity
  8
0
  6
CONTINUOUS
 62
           7
100
AcDbLine
 10
411.990871747166
 20
-3013.112971615675
 11
411.990871747166
 21
-2963.112971615675
  0
LINE
  5
32A
100
AcDbEntity
  8
0
  6
CONTINUOUS
 62
           7
100
AcDbLine
 10
388.990871747166
 20
-2963.112971615675
 11
398.990871747166
 21
-2963.112971615675
  0
LINE
  5
329
100
AcDbEntity
  8
0
  6
CONTINUOUS
 62
           7
100
AcDbLine
 10
388.990871747166
 20
-3013.112971615675
 11
398.990871747166
 21
-3013.112971615675
  0
LINE
  5
328
100
AcDbEntity
  8
0
  6
CONTINUOUS
 62
           7
100
AcDbLine
 10
388.990871747166
 20
-3013.112971615675
 11
388.990871747166
 21
-2963.112971615675
  0
LINE
  5
327
100
AcDbEntity
  8
0
  6
CONTINUOUS
 62
           7
100
AcDbLine
 10
398.990871747166
 20
-3013.112971615675
 11
398.990871747166
 21
-2963.112971615675
  0
LINE
  5
326
100
AcDbEntity
  8
0
  6
CONTINUOUS
 62
           7
100
AcDbLine
 10
375.990871747167
 20
-2963.112971615675
 11
385.990871747167
 21
-2963.112971615675
  0
LINE
  5
325
100
AcDbEntity
  8
0
  6
CONTINUOUS
 62
           7
100
AcDbLine
 10
375.990871747167
 20
-3013.112971615675
 11
385.990871747167
 21
-3013.112971615675
  0
LINE
  5
324
100
AcDbEntity
  8
0
  6
CONTINUOUS
 62
           7
100
AcDbLine
 10
375.990871747167
 20
-3013.112971615675
 11
375.990871747167
 21
-2963.112971615675
  0
LINE
  5
323
100
AcDbEntity
  8
0
  6
CONTINUOUS
 62
           7
100
AcDbLine
 10
385.990871747167
 20
-3013.112971615675
 11
385.990871747167
 21
-2963.112971615675
  0
LINE
  5
322
100
AcDbEntity
  8
0
  6
CONTINUOUS
 62
           7
100
AcDbLine
 10
362.990871747167
 20
-2963.112971615675
 11
372.990871747167
 21
-2963.112971615675
  0
LINE
  5
321
100
AcDbEntity
  8
0
  6
CONTINUOUS
 62
           7
100
AcDbLine
 10
362.990871747167
 20
-3013.112971615675
 11
372.990871747167
 21
-3013.112971615675
  0
LINE
  5
320
100
AcDbEntity
  8
0
  6
CONTINUOUS
 62
           7
100
AcDbLine
 10
362.990871747167
 20
-3013.112971615675
 11
362.990871747167
 21
-2963.112971615675
  0
LINE
  5
31F
100
AcDbEntity
  8
0
  6
CONTINUOUS
 62
           7
100
AcDbLine
 10
372.990871747167
 20
-3013.112971615675
 11
372.990871747167
 21
-2963.112971615675
  0
LINE
  5
31E
100
AcDbEntity
  8
0
  6
CONTINUOUS
 62
           7
100
AcDbLine
 10
349.990871747167
 20
-2963.112971615675
 11
359.990871747167
 21
-2963.112971615675
  0
LINE
  5
31D
100
AcDbEntity
  8
0
  6
CONTINUOUS
 62
           7
100
AcDbLine
 10
349.990871747167
 20
-3013.112971615675
 11
359.990871747167
 21
-3013.112971615675
  0
LINE
  5
31C
100
AcDbEntity
  8
0
  6
CONTINUOUS
 62
           7
100
AcDbLine
 10
349.990871747167
 20
-3013.112971615675
 11
349.990871747167
 21
-2963.112971615675
  0
LINE
  5
31B
100
AcDbEntity
  8
0
  6
CONTINUOUS
 62
           7
100
AcDbLine
 10
359.990871747167
 20
-3013.112971615675
 11
359.990871747167
 21
-2963.112971615675
  0
LINE
  5
31A
100
AcDbEntity
  8
0
  6
CONTINUOUS
 62
           7
100
AcDbLine
 10
336.990871747166
 20
-2963.112971615675
 11
346.990871747166
 21
-2963.112971615675
  0
LINE
  5
319
100
AcDbEntity
  8
0
  6
CONTINUOUS
 62
           7
100
AcDbLine
 10
336.990871747166
 20
-3013.112971615675
 11
346.990871747166
 21
-3013.112971615675
  0
LINE
  5
318
100
AcDbEntity
  8
0
  6
CONTINUOUS
 62
           7
100
AcDbLine
 10
336.990871747166
 20
-3013.112971615675
 11
336.990871747166
 21
-2963.112971615675
  0
LINE
  5
317
100
AcDbEntity
  8
0
  6
CONTINUOUS
 62
           7
100
AcDbLine
 10
346.990871747166
 20
-3013.112971615675
 11
346.990871747166
 21
-2963.112971615675
  0
LINE
  5
316
100
AcDbEntity
  8
0
  6
CONTINUOUS
 62
           7
100
AcDbLine
 10
323.990871747166
 20
-2963.112971615675
 11
333.990871747166
 21
-2963.112971615675
  0
LINE
  5
315
100
AcDbEntity
  8
0
  6
CONTINUOUS
 62
           7
100
AcDbLine
 10
323.990871747166
 20
-3013.112971615675
 11
333.990871747166
 21
-3013.112971615675
  0
LINE
  5
314
100
AcDbEntity
  8
0
  6
CONTINUOUS
 62
           7
100
AcDbLine
 10
323.990871747166
 20
-3013.112971615675
 11
323.990871747166
 21
-2963.112971615675
  0
LINE
  5
313
100
AcDbEntity
  8
0
  6
CONTINUOUS
 62
           7
100
AcDbLine
 10
333.990871747166
 20
-3013.112971615675
 11
333.990871747166
 21
-2963.112971615675
  0
LINE
  5
312
100
AcDbEntity
  8
0
  6
CONTINUOUS
 62
           7
100
AcDbLine
 10
310.990871747167
 20
-2963.112971615675
 11
320.990871747167
 21
-2963.112971615675
  0
LINE
  5
311
100
AcDbEntity
  8
0
  6
CONTINUOUS
 62
           7
100
AcDbLine
 10
310.990871747167
 20
-3013.112971615675
 11
320.990871747167
 21
-3013.112971615675
  0
LINE
  5
310
100
AcDbEntity
  8
0
  6
CONTINUOUS
 62
           7
100
AcDbLine
 10
310.990871747167
 20
-3013.112971615675
 11
310.990871747167
 21
-2963.112971615675
  0
LINE
  5
30F
100
AcDbEntity
  8
0
  6
CONTINUOUS
 62
           7
100
AcDbLine
 10
320.990871747167
 20
-3013.112971615675
 11
320.990871747167
 21
-2963.112971615675
  0
LINE
  5
30E
100
AcDbEntity
  8
0
  6
CONTINUOUS
 62
           7
100
AcDbLine
 10
297.990871747167
 20
-2963.112971615675
 11
307.990871747167
 21
-2963.112971615675
  0
LINE
  5
30D
100
AcDbEntity
  8
0
  6
CONTINUOUS
 62
           7
100
AcDbLine
 10
297.990871747167
 20
-3013.112971615675
 11
307.990871747167
 21
-3013.112971615675
  0
LINE
  5
30C
100
AcDbEntity
  8
0
  6
CONTINUOUS
 62
           7
100
AcDbLine
 10
297.990871747167
 20
-3013.112971615675
 11
297.990871747167
 21
-2963.112971615675
  0
LINE
  5
30B
100
AcDbEntity
  8
0
  6
CONTINUOUS
 62
           7
100
AcDbLine
 10
307.990871747167
 20
-3013.112971615675
 11
307.990871747167
 21
-2963.112971615675
  0
LINE
  5
30A
100
AcDbEntity
  8
0
  6
CONTINUOUS
 62
           7
100
AcDbLine
 10
284.990871747167
 20
-2963.112971615675
 11
294.990871747167
 21
-2963.112971615675
  0
LINE
  5
309
100
AcDbEntity
  8
0
  6
CONTINUOUS
 62
           7
100
AcDbLine
 10
284.990871747167
 20
-3013.112971615675
 11
294.990871747167
 21
-3013.112971615675
  0
LINE
  5
308
100
AcDbEntity
  8
0
  6
CONTINUOUS
 62
           7
100
AcDbLine
 10
284.990871747167
 20
-3013.112971615675
 11
284.990871747167
 21
-2963.112971615675
  0
LINE
  5
307
100
AcDbEntity
  8
0
  6
CONTINUOUS
 62
           7
100
AcDbLine
 10
294.990871747167
 20
-3013.112971615675
 11
294.990871747167
 21
-2963.112971615675
  0
LINE
  5
306
100
AcDbEntity
  8
0
  6
CONTINUOUS
 62
           7
100
AcDbLine
 10
271.990871747166
 20
-2963.112971615675
 11
281.990871747166
 21
-2963.112971615675
  0
LINE
  5
305
100
AcDbEntity
  8
0
  6
CONTINUOUS
 62
           7
100
AcDbLine
 10
271.990871747166
 20
-3013.112971615675
 11
281.990871747166
 21
-3013.112971615675
  0
LINE
  5
304
100
AcDbEntity
  8
0
  6
CONTINUOUS
 62
           7
100
AcDbLine
 10
271.990871747166
 20
-3013.112971615675
 11
271.990871747166
 21
-2963.112971615675
  0
LINE
  5
303
100
AcDbEntity
  8
0
  6
CONTINUOUS
 62
           7
100
AcDbLine
 10
281.990871747166
 20
-3013.112971615675
 11
281.990871747166
 21
-2963.112971615675
  0
LINE
  5
302
100
AcDbEntity
  8
0
  6
CONTINUOUS
 62
           7
100
AcDbLine
 10
258.990871747166
 20
-2963.112971615675
 11
268.990871747166
 21
-2963.112971615675
  0
LINE
  5
301
100
AcDbEntity
  8
0
  6
CONTINUOUS
 62
           7
100
AcDbLine
 10
258.990871747166
 20
-3013.112971615675
 11
268.990871747166
 21
-3013.112971615675
  0
LINE
  5
300
100
AcDbEntity
  8
0
  6
CONTINUOUS
 62
           7
100
AcDbLine
 10
258.990871747166
 20
-3013.112971615675
 11
258.990871747166
 21
-2963.112971615675
  0
LINE
  5
2FF
100
AcDbEntity
  8
0
  6
CONTINUOUS
 62
           7
100
AcDbLine
 10
268.990871747166
 20
-3013.112971615675
 11
268.990871747166
 21
-2963.112971615675
  0
LINE
  5
2FE
100
AcDbEntity
  8
0
  6
CONTINUOUS
 62
           7
100
AcDbLine
 10
245.990871747167
 20
-2963.112971615675
 11
255.990871747167
 21
-2963.112971615675
  0
LINE
  5
2FD
100
AcDbEntity
  8
0
  6
CONTINUOUS
 62
           7
100
AcDbLine
 10
245.990871747167
 20
-3013.112971615675
 11
255.990871747167
 21
-3013.112971615675
  0
LINE
  5
2FC
100
AcDbEntity
  8
0
  6
CONTINUOUS
 62
           7
100
AcDbLine
 10
245.990871747167
 20
-3013.112971615675
 11
245.990871747167
 21
-2963.112971615675
  0
LINE
  5
2FB
100
AcDbEntity
  8
0
  6
CONTINUOUS
 62
           7
100
AcDbLine
 10
255.990871747167
 20
-3013.112971615675
 11
255.990871747167
 21
-2963.112971615675
  0
LINE
  5
2FA
100
AcDbEntity
  8
0
  6
CONTINUOUS
 62
           7
100
AcDbLine
 10
232.990871747167
 20
-2963.112971615675
 11
242.990871747167
 21
-2963.112971615675
  0
LINE
  5
2F9
100
AcDbEntity
  8
0
  6
CONTINUOUS
 62
           7
100
AcDbLine
 10
232.990871747167
 20
-3013.112971615675
 11
242.990871747167
 21
-3013.112971615675
  0
LINE
  5
2F8
100
AcDbEntity
  8
0
  6
CONTINUOUS
 62
           7
100
AcDbLine
 10
232.990871747167
 20
-3013.112971615675
 11
232.990871747167
 21
-2963.112971615675
  0
LINE
  5
2F7
100
AcDbEntity
  8
0
  6
CONTINUOUS
 62
           7
100
AcDbLine
 10
242.990871747167
 20
-3013.112971615675
 11
242.990871747167
 21
-2963.112971615675
  0
LINE
  5
2F6
100
AcDbEntity
  8
0
  6
CONTINUOUS
 62
           7
100
AcDbLine
 10
219.990871747167
 20
-2963.112971615675
 11
229.990871747167
 21
-2963.112971615675
  0
LINE
  5
2F5
100
AcDbEntity
  8
0
  6
CONTINUOUS
 62
           7
100
AcDbLine
 10
219.990871747167
 20
-3013.112971615675
 11
229.990871747167
 21
-3013.112971615675
  0
LINE
  5
2F4
100
AcDbEntity
  8
0
  6
CONTINUOUS
 62
           7
100
AcDbLine
 10
219.990871747167
 20
-3013.112971615675
 11
219.990871747167
 21
-2963.112971615675
  0
LINE
  5
2F3
100
AcDbEntity
  8
0
  6
CONTINUOUS
 62
           7
100
AcDbLine
 10
229.990871747167
 20
-3013.112971615675
 11
229.990871747167
 21
-2963.112971615675
  0
LINE
  5
2F2
100
AcDbEntity
  8
0
  6
CONTINUOUS
 62
           7
100
AcDbLine
 10
99.990871747166
 20
-3013.112971615674
 11
99.990871747166
 21
-2963.112971615674
  0
LINE
  5
2F1
100
AcDbEntity
  8
0
  6
CONTINUOUS
 62
           7
100
AcDbLine
 10
89.990871747166
 20
-3013.112971615674
 11
89.990871747166
 21
-2963.112971615674
  0
LINE
  5
2F0
100
AcDbEntity
  8
0
  6
CONTINUOUS
 62
           7
100
AcDbLine
 10
89.990871747166
 20
-3013.112971615674
 11
99.990871747166
 21
-3013.112971615674
  0
LINE
  5
2EF
100
AcDbEntity
  8
0
  6
CONTINUOUS
 62
           7
100
AcDbLine
 10
89.990871747166
 20
-2963.112971615674
 11
99.990871747166
 21
-2963.112971615674
  0
LINE
  5
2EE
100
AcDbEntity
  8
0
  6
CONTINUOUS
 62
           7
100
AcDbLine
 10
112.990871747166
 20
-3013.112971615674
 11
112.990871747166
 21
-2963.112971615674
  0
LINE
  5
2ED
100
AcDbEntity
  8
0
  6
CONTINUOUS
 62
           7
100
AcDbLine
 10
102.990871747166
 20
-3013.112971615674
 11
102.990871747166
 21
-2963.112971615674
  0
LINE
  5
2EC
100
AcDbEntity
  8
0
  6
CONTINUOUS
 62
           7
100
AcDbLine
 10
102.990871747166
 20
-3013.112971615674
 11
112.990871747166
 21
-3013.112971615674
  0
LINE
  5
2EB
100
AcDbEntity
  8
0
  6
CONTINUOUS
 62
           7
100
AcDbLine
 10
102.990871747166
 20
-2963.112971615674
 11
112.990871747166
 21
-2963.112971615674
  0
LINE
  5
2EA
100
AcDbEntity
  8
0
  6
CONTINUOUS
 62
           7
100
AcDbLine
 10
125.990871747166
 20
-3013.112971615674
 11
125.990871747166
 21
-2963.112971615674
  0
LINE
  5
2E9
100
AcDbEntity
  8
0
  6
CONTINUOUS
 62
           7
100
AcDbLine
 10
115.990871747166
 20
-3013.112971615674
 11
115.990871747166
 21
-2963.112971615674
  0
LINE
  5
2E8
100
AcDbEntity
  8
0
  6
CONTINUOUS
 62
           7
100
AcDbLine
 10
115.990871747166
 20
-3013.112971615674
 11
125.990871747166
 21
-3013.112971615674
  0
LINE
  5
2E7
100
AcDbEntity
  8
0
  6
CONTINUOUS
 62
           7
100
AcDbLine
 10
115.990871747166
 20
-2963.112971615674
 11
125.990871747166
 21
-2963.112971615674
  0
LINE
  5
2E6
100
AcDbEntity
  8
0
  6
CONTINUOUS
 62
           7
100
AcDbLine
 10
138.990871747166
 20
-3013.112971615674
 11
138.990871747166
 21
-2963.112971615674
  0
LINE
  5
2E5
100
AcDbEntity
  8
0
  6
CONTINUOUS
 62
           7
100
AcDbLine
 10
128.990871747166
 20
-3013.112971615674
 11
128.990871747166
 21
-2963.112971615674
  0
LINE
  5
2E4
100
AcDbEntity
  8
0
  6
CONTINUOUS
 62
           7
100
AcDbLine
 10
128.990871747166
 20
-3013.112971615674
 11
138.990871747166
 21
-3013.112971615674
  0
LINE
  5
2E3
100
AcDbEntity
  8
0
  6
CONTINUOUS
 62
           7
100
AcDbLine
 10
128.990871747166
 20
-2963.112971615674
 11
138.990871747166
 21
-2963.112971615674
  0
LINE
  5
2E2
100
AcDbEntity
  8
0
  6
CONTINUOUS
 62
           7
100
AcDbLine
 10
151.990871747166
 20
-3013.112971615674
 11
151.990871747166
 21
-2963.112971615674
  0
LINE
  5
2E1
100
AcDbEntity
  8
0
  6
CONTINUOUS
 62
           7
100
AcDbLine
 10
141.990871747166
 20
-3013.112971615674
 11
141.990871747166
 21
-2963.112971615674
  0
LINE
  5
2E0
100
AcDbEntity
  8
0
  6
CONTINUOUS
 62
           7
100
AcDbLine
 10
141.990871747166
 20
-3013.112971615674
 11
151.990871747166
 21
-3013.112971615674
  0
LINE
  5
2DF
100
AcDbEntity
  8
0
  6
CONTINUOUS
 62
           7
100
AcDbLine
 10
141.990871747166
 20
-2963.112971615674
 11
151.990871747166
 21
-2963.112971615674
  0
LINE
  5
2DE
100
AcDbEntity
  8
0
  6
CONTINUOUS
 62
           7
100
AcDbLine
 10
164.990871747166
 20
-3013.112971615674
 11
164.990871747166
 21
-2963.112971615674
  0
LINE
  5
2DD
100
AcDbEntity
  8
0
  6
CONTINUOUS
 62
           7
100
AcDbLine
 10
154.990871747166
 20
-3013.112971615674
 11
154.990871747166
 21
-2963.112971615674
  0
LINE
  5
2DC
100
AcDbEntity
  8
0
  6
CONTINUOUS
 62
           7
100
AcDbLine
 10
154.990871747166
 20
-3013.112971615674
 11
164.990871747166
 21
-3013.112971615674
  0
LINE
  5
2DB
100
AcDbEntity
  8
0
  6
CONTINUOUS
 62
           7
100
AcDbLine
 10
154.990871747166
 20
-2963.112971615674
 11
164.990871747166
 21
-2963.112971615674
  0
LINE
  5
2DA
100
AcDbEntity
  8
0
  6
CONTINUOUS
 62
           7
100
AcDbLine
 10
177.990871747166
 20
-3013.112971615674
 11
177.990871747166
 21
-2963.112971615674
  0
LINE
  5
2D9
100
AcDbEntity
  8
0
  6
CONTINUOUS
 62
           7
100
AcDbLine
 10
167.990871747166
 20
-3013.112971615674
 11
167.990871747166
 21
-2963.112971615674
  0
LINE
  5
2D8
100
AcDbEntity
  8
0
  6
CONTINUOUS
 62
           7
100
AcDbLine
 10
167.990871747166
 20
-3013.112971615674
 11
177.990871747166
 21
-3013.112971615674
  0
LINE
  5
2D7
100
AcDbEntity
  8
0
  6
CONTINUOUS
 62
           7
100
AcDbLine
 10
167.990871747166
 20
-2963.112971615674
 11
177.990871747166
 21
-2963.112971615674
  0
LINE
  5
2D6
100
AcDbEntity
  8
0
  6
CONTINUOUS
 62
           7
100
AcDbLine
 10
190.990871747166
 20
-3013.112971615674
 11
190.990871747166
 21
-2963.112971615674
  0
LINE
  5
2D5
100
AcDbEntity
  8
0
  6
CONTINUOUS
 62
           7
100
AcDbLine
 10
180.990871747166
 20
-3013.112971615674
 11
180.990871747166
 21
-2963.112971615674
  0
LINE
  5
2D4
100
AcDbEntity
  8
0
  6
CONTINUOUS
 62
           7
100
AcDbLine
 10
180.990871747166
 20
-3013.112971615674
 11
190.990871747166
 21
-3013.112971615674
  0
LINE
  5
2D3
100
AcDbEntity
  8
0
  6
CONTINUOUS
 62
           7
100
AcDbLine
 10
180.990871747166
 20
-2963.112971615674
 11
190.990871747166
 21
-2963.112971615674
  0
LINE
  5
2D2
100
AcDbEntity
  8
0
  6
CONTINUOUS
 62
           7
100
AcDbLine
 10
203.990871747166
 20
-3013.112971615674
 11
203.990871747166
 21
-2963.112971615674
  0
LINE
  5
2D1
100
AcDbEntity
  8
0
  6
CONTINUOUS
 62
           7
100
AcDbLine
 10
193.990871747166
 20
-3013.112971615674
 11
193.990871747166
 21
-2963.112971615674
  0
LINE
  5
2D0
100
AcDbEntity
  8
0
  6
CONTINUOUS
 62
           7
100
AcDbLine
 10
193.990871747166
 20
-3013.112971615674
 11
203.990871747166
 21
-3013.112971615674
  0
LINE
  5
2CF
100
AcDbEntity
  8
0
  6
CONTINUOUS
 62
           7
100
AcDbLine
 10
193.990871747166
 20
-2963.112971615674
 11
203.990871747166
 21
-2963.112971615674
  0
LINE
  5
2CE
100
AcDbEntity
  8
0
  6
CONTINUOUS
 62
           7
100
AcDbLine
 10
216.990871747166
 20
-3013.112971615674
 11
216.990871747166
 21
-2963.112971615674
  0
LINE
  5
2CD
100
AcDbEntity
  8
0
  6
CONTINUOUS
 62
           7
100
AcDbLine
 10
206.990871747166
 20
-3013.112971615674
 11
206.990871747166
 21
-2963.112971615674
  0
LINE
  5
2CC
100
AcDbEntity
  8
0
  6
CONTINUOUS
 62
           7
100
AcDbLine
 10
206.990871747166
 20
-3013.112971615674
 11
216.990871747166
 21
-3013.112971615674
  0
LINE
  5
2CB
100
AcDbEntity
  8
0
  6
CONTINUOUS
 62
           7
100
AcDbLine
 10
206.990871747166
 20
-2963.112971615674
 11
216.990871747166
 21
-2963.112971615674
  0
LINE
  5
2CA
100
AcDbEntity
  8
0
  6
CONTINUOUS
 62
           7
100
AcDbLine
 10
440.990871747167
 20
-3023.112971615675
 11
450.990871747167
 21
-3023.112971615675
  0
LINE
  5
2C9
100
AcDbEntity
  8
0
  6
CONTINUOUS
 62
           7
100
AcDbLine
 10
440.990871747167
 20
-3073.112971615675
 11
450.990871747167
 21
-3073.112971615675
  0
LINE
  5
2C8
100
AcDbEntity
  8
0
  6
CONTINUOUS
 62
           7
100
AcDbLine
 10
440.990871747167
 20
-3073.112971615675
 11
440.990871747167
 21
-3023.112971615675
  0
LINE
  5
2C7
100
AcDbEntity
  8
0
  6
CONTINUOUS
 62
           7
100
AcDbLine
 10
450.990871747167
 20
-3073.112971615675
 11
450.990871747167
 21
-3023.112971615675
  0
LINE
  5
2C6
100
AcDbEntity
  8
0
  6
CONTINUOUS
 62
           7
100
AcDbLine
 10
427.990871747167
 20
-3023.112971615675
 11
437.990871747167
 21
-3023.112971615675
  0
LINE
  5
2C5
100
AcDbEntity
  8
0
  6
CONTINUOUS
 62
           7
100
AcDbLine
 10
427.990871747167
 20
-3073.112971615675
 11
437.990871747167
 21
-3073.112971615675
  0
LINE
  5
2C4
100
AcDbEntity
  8
0
  6
CONTINUOUS
 62
           7
100
AcDbLine
 10
427.990871747167
 20
-3073.112971615675
 11
427.990871747167
 21
-3023.112971615675
  0
LINE
  5
2C3
100
AcDbEntity
  8
0
  6
CONTINUOUS
 62
           7
100
AcDbLine
 10
437.990871747167
 20
-3073.112971615675
 11
437.990871747167
 21
-3023.112971615675
  0
LINE
  5
2C2
100
AcDbEntity
  8
0
  6
CONTINUOUS
 62
           7
100
AcDbLine
 10
414.990871747167
 20
-3023.112971615675
 11
424.990871747167
 21
-3023.112971615675
  0
LINE
  5
2C1
100
AcDbEntity
  8
0
  6
CONTINUOUS
 62
           7
100
AcDbLine
 10
414.990871747167
 20
-3073.112971615675
 11
424.990871747167
 21
-3073.112971615675
  0
LINE
  5
2C0
100
AcDbEntity
  8
0
  6
CONTINUOUS
 62
           7
100
AcDbLine
 10
414.990871747167
 20
-3073.112971615675
 11
414.990871747167
 21
-3023.112971615675
  0
LINE
  5
2BF
100
AcDbEntity
  8
0
  6
CONTINUOUS
 62
           7
100
AcDbLine
 10
424.990871747167
 20
-3073.112971615675
 11
424.990871747167
 21
-3023.112971615675
  0
LINE
  5
2BE
100
AcDbEntity
  8
0
  6
CONTINUOUS
 62
           7
100
AcDbLine
 10
401.990871747166
 20
-3023.112971615675
 11
411.990871747166
 21
-3023.112971615675
  0
LINE
  5
2BD
100
AcDbEntity
  8
0
  6
CONTINUOUS
 62
           7
100
AcDbLine
 10
401.990871747166
 20
-3073.112971615675
 11
411.990871747166
 21
-3073.112971615675
  0
LINE
  5
2BC
100
AcDbEntity
  8
0
  6
CONTINUOUS
 62
           7
100
AcDbLine
 10
401.990871747166
 20
-3073.112971615675
 11
401.990871747166
 21
-3023.112971615675
  0
LINE
  5
2BB
100
AcDbEntity
  8
0
  6
CONTINUOUS
 62
           7
100
AcDbLine
 10
411.990871747166
 20
-3073.112971615675
 11
411.990871747166
 21
-3023.112971615675
  0
LINE
  5
2BA
100
AcDbEntity
  8
0
  6
CONTINUOUS
 62
           7
100
AcDbLine
 10
388.990871747166
 20
-3023.112971615675
 11
398.990871747166
 21
-3023.112971615675
  0
LINE
  5
2B9
100
AcDbEntity
  8
0
  6
CONTINUOUS
 62
           7
100
AcDbLine
 10
388.990871747166
 20
-3073.112971615675
 11
398.990871747166
 21
-3073.112971615675
  0
LINE
  5
2B8
100
AcDbEntity
  8
0
  6
CONTINUOUS
 62
           7
100
AcDbLine
 10
388.990871747166
 20
-3073.112971615675
 11
388.990871747166
 21
-3023.112971615675
  0
LINE
  5
2B7
100
AcDbEntity
  8
0
  6
CONTINUOUS
 62
           7
100
AcDbLine
 10
398.990871747166
 20
-3073.112971615675
 11
398.990871747166
 21
-3023.112971615675
  0
LINE
  5
2B6
100
AcDbEntity
  8
0
  6
CONTINUOUS
 62
           7
100
AcDbLine
 10
375.990871747167
 20
-3023.112971615675
 11
385.990871747167
 21
-3023.112971615675
  0
LINE
  5
2B5
100
AcDbEntity
  8
0
  6
CONTINUOUS
 62
           7
100
AcDbLine
 10
375.990871747167
 20
-3073.112971615675
 11
385.990871747167
 21
-3073.112971615675
  0
LINE
  5
2B4
100
AcDbEntity
  8
0
  6
CONTINUOUS
 62
           7
100
AcDbLine
 10
375.990871747167
 20
-3073.112971615675
 11
375.990871747167
 21
-3023.112971615675
  0
LINE
  5
2B3
100
AcDbEntity
  8
0
  6
CONTINUOUS
 62
           7
100
AcDbLine
 10
385.990871747167
 20
-3073.112971615675
 11
385.990871747167
 21
-3023.112971615675
  0
LINE
  5
2B2
100
AcDbEntity
  8
0
  6
CONTINUOUS
 62
           7
100
AcDbLine
 10
362.990871747167
 20
-3023.112971615675
 11
372.990871747167
 21
-3023.112971615675
  0
LINE
  5
2B1
100
AcDbEntity
  8
0
  6
CONTINUOUS
 62
           7
100
AcDbLine
 10
362.990871747167
 20
-3073.112971615675
 11
372.990871747167
 21
-3073.112971615675
  0
LINE
  5
2B0
100
AcDbEntity
  8
0
  6
CONTINUOUS
 62
           7
100
AcDbLine
 10
362.990871747167
 20
-3073.112971615675
 11
362.990871747167
 21
-3023.112971615675
  0
LINE
  5
2AF
100
AcDbEntity
  8
0
  6
CONTINUOUS
 62
           7
100
AcDbLine
 10
372.990871747167
 20
-3073.112971615675
 11
372.990871747167
 21
-3023.112971615675
  0
LINE
  5
2AE
100
AcDbEntity
  8
0
  6
CONTINUOUS
 62
           7
100
AcDbLine
 10
349.990871747167
 20
-3023.112971615675
 11
359.990871747167
 21
-3023.112971615675
  0
LINE
  5
2AD
100
AcDbEntity
  8
0
  6
CONTINUOUS
 62
           7
100
AcDbLine
 10
349.990871747167
 20
-3073.112971615675
 11
359.990871747167
 21
-3073.112971615675
  0
LINE
  5
2AC
100
AcDbEntity
  8
0
  6
CONTINUOUS
 62
           7
100
AcDbLine
 10
349.990871747167
 20
-3073.112971615675
 11
349.990871747167
 21
-3023.112971615675
  0
LINE
  5
2AB
100
AcDbEntity
  8
0
  6
CONTINUOUS
 62
           7
100
AcDbLine
 10
359.990871747167
 20
-3073.112971615675
 11
359.990871747167
 21
-3023.112971615675
  0
LINE
  5
2AA
100
AcDbEntity
  8
0
  6
CONTINUOUS
 62
           7
100
AcDbLine
 10
336.990871747166
 20
-3023.112971615675
 11
346.990871747166
 21
-3023.112971615675
  0
LINE
  5
2A9
100
AcDbEntity
  8
0
  6
CONTINUOUS
 62
           7
100
AcDbLine
 10
336.990871747166
 20
-3073.112971615675
 11
346.990871747166
 21
-3073.112971615675
  0
LINE
  5
2A8
100
AcDbEntity
  8
0
  6
CONTINUOUS
 62
           7
100
AcDbLine
 10
336.990871747166
 20
-3073.112971615675
 11
336.990871747166
 21
-3023.112971615675
  0
LINE
  5
2A7
100
AcDbEntity
  8
0
  6
CONTINUOUS
 62
           7
100
AcDbLine
 10
346.990871747166
 20
-3073.112971615675
 11
346.990871747166
 21
-3023.112971615675
  0
LINE
  5
2A6
100
AcDbEntity
  8
0
  6
CONTINUOUS
 62
           7
100
AcDbLine
 10
323.990871747166
 20
-3023.112971615675
 11
333.990871747166
 21
-3023.112971615675
  0
LINE
  5
2A5
100
AcDbEntity
  8
0
  6
CONTINUOUS
 62
           7
100
AcDbLine
 10
323.990871747166
 20
-3073.112971615675
 11
333.990871747166
 21
-3073.112971615675
  0
LINE
  5
2A4
100
AcDbEntity
  8
0
  6
CONTINUOUS
 62
           7
100
AcDbLine
 10
323.990871747166
 20
-3073.112971615675
 11
323.990871747166
 21
-3023.112971615675
  0
LINE
  5
2A3
100
AcDbEntity
  8
0
  6
CONTINUOUS
 62
           7
100
AcDbLine
 10
333.990871747166
 20
-3073.112971615675
 11
333.990871747166
 21
-3023.112971615675
  0
LINE
  5
2A2
100
AcDbEntity
  8
0
  6
CONTINUOUS
 62
           7
100
AcDbLine
 10
310.990871747167
 20
-3023.112971615675
 11
320.990871747167
 21
-3023.112971615675
  0
LINE
  5
2A1
100
AcDbEntity
  8
0
  6
CONTINUOUS
 62
           7
100
AcDbLine
 10
310.990871747167
 20
-3073.112971615675
 11
320.990871747167
 21
-3073.112971615675
  0
LINE
  5
2A0
100
AcDbEntity
  8
0
  6
CONTINUOUS
 62
           7
100
AcDbLine
 10
310.990871747167
 20
-3073.112971615675
 11
310.990871747167
 21
-3023.112971615675
  0
LINE
  5
29F
100
AcDbEntity
  8
0
  6
CONTINUOUS
 62
           7
100
AcDbLine
 10
320.990871747167
 20
-3073.112971615675
 11
320.990871747167
 21
-3023.112971615675
  0
LINE
  5
29E
100
AcDbEntity
  8
0
  6
CONTINUOUS
 62
           7
100
AcDbLine
 10
297.990871747167
 20
-3023.112971615675
 11
307.990871747167
 21
-3023.112971615675
  0
LINE
  5
29D
100
AcDbEntity
  8
0
  6
CONTINUOUS
 62
           7
100
AcDbLine
 10
297.990871747167
 20
-3073.112971615675
 11
307.990871747167
 21
-3073.112971615675
  0
LINE
  5
29C
100
AcDbEntity
  8
0
  6
CONTINUOUS
 62
           7
100
AcDbLine
 10
297.990871747167
 20
-3073.112971615675
 11
297.990871747167
 21
-3023.112971615675
  0
LINE
  5
29B
100
AcDbEntity
  8
0
  6
CONTINUOUS
 62
           7
100
AcDbLine
 10
307.990871747167
 20
-3073.112971615675
 11
307.990871747167
 21
-3023.112971615675
  0
LINE
  5
29A
100
AcDbEntity
  8
0
  6
CONTINUOUS
 62
           7
100
AcDbLine
 10
284.990871747167
 20
-3023.112971615675
 11
294.990871747167
 21
-3023.112971615675
  0
LINE
  5
299
100
AcDbEntity
  8
0
  6
CONTINUOUS
 62
           7
100
AcDbLine
 10
284.990871747167
 20
-3073.112971615675
 11
294.990871747167
 21
-3073.112971615675
  0
LINE
  5
298
100
AcDbEntity
  8
0
  6
CONTINUOUS
 62
           7
100
AcDbLine
 10
284.990871747167
 20
-3073.112971615675
 11
284.990871747167
 21
-3023.112971615675
  0
LINE
  5
297
100
AcDbEntity
  8
0
  6
CONTINUOUS
 62
           7
100
AcDbLine
 10
294.990871747167
 20
-3073.112971615675
 11
294.990871747167
 21
-3023.112971615675
  0
LINE
  5
296
100
AcDbEntity
  8
0
  6
CONTINUOUS
 62
           7
100
AcDbLine
 10
271.990871747166
 20
-3023.112971615675
 11
281.990871747166
 21
-3023.112971615675
  0
LINE
  5
295
100
AcDbEntity
  8
0
  6
CONTINUOUS
 62
           7
100
AcDbLine
 10
271.990871747166
 20
-3073.112971615675
 11
281.990871747166
 21
-3073.112971615675
  0
LINE
  5
294
100
AcDbEntity
  8
0
  6
CONTINUOUS
 62
           7
100
AcDbLine
 10
271.990871747166
 20
-3073.112971615675
 11
271.990871747166
 21
-3023.112971615675
  0
LINE
  5
293
100
AcDbEntity
  8
0
  6
CONTINUOUS
 62
           7
100
AcDbLine
 10
281.990871747166
 20
-3073.112971615675
 11
281.990871747166
 21
-3023.112971615675
  0
LINE
  5
292
100
AcDbEntity
  8
0
  6
CONTINUOUS
 62
           7
100
AcDbLine
 10
258.990871747166
 20
-3023.112971615675
 11
268.990871747166
 21
-3023.112971615675
  0
LINE
  5
291
100
AcDbEntity
  8
0
  6
CONTINUOUS
 62
           7
100
AcDbLine
 10
258.990871747166
 20
-3073.112971615675
 11
268.990871747166
 21
-3073.112971615675
  0
LINE
  5
290
100
AcDbEntity
  8
0
  6
CONTINUOUS
 62
           7
100
AcDbLine
 10
258.990871747166
 20
-3073.112971615675
 11
258.990871747166
 21
-3023.112971615675
  0
LINE
  5
28F
100
AcDbEntity
  8
0
  6
CONTINUOUS
 62
           7
100
AcDbLine
 10
268.990871747166
 20
-3073.112971615675
 11
268.990871747166
 21
-3023.112971615675
  0
LINE
  5
28E
100
AcDbEntity
  8
0
  6
CONTINUOUS
 62
           7
100
AcDbLine
 10
245.990871747167
 20
-3023.112971615675
 11
255.990871747167
 21
-3023.112971615675
  0
LINE
  5
28D
100
AcDbEntity
  8
0
  6
CONTINUOUS
 62
           7
100
AcDbLine
 10
245.990871747167
 20
-3073.112971615675
 11
255.990871747167
 21
-3073.112971615675
  0
LINE
  5
28C
100
AcDbEntity
  8
0
  6
CONTINUOUS
 62
           7
100
AcDbLine
 10
245.990871747167
 20
-3073.112971615675
 11
245.990871747167
 21
-3023.112971615675
  0
LINE
  5
28B
100
AcDbEntity
  8
0
  6
CONTINUOUS
 62
           7
100
AcDbLine
 10
255.990871747167
 20
-3073.112971615675
 11
255.990871747167
 21
-3023.112971615675
  0
LINE
  5
28A
100
AcDbEntity
  8
0
  6
CONTINUOUS
 62
           7
100
AcDbLine
 10
232.990871747167
 20
-3023.112971615675
 11
242.990871747167
 21
-3023.112971615675
  0
LINE
  5
289
100
AcDbEntity
  8
0
  6
CONTINUOUS
 62
           7
100
AcDbLine
 10
232.990871747167
 20
-3073.112971615675
 11
242.990871747167
 21
-3073.112971615675
  0
LINE
  5
288
100
AcDbEntity
  8
0
  6
CONTINUOUS
 62
           7
100
AcDbLine
 10
232.990871747167
 20
-3073.112971615675
 11
232.990871747167
 21
-3023.112971615675
  0
LINE
  5
287
100
AcDbEntity
  8
0
  6
CONTINUOUS
 62
           7
100
AcDbLine
 10
242.990871747167
 20
-3073.112971615675
 11
242.990871747167
 21
-3023.112971615675
  0
LINE
  5
286
100
AcDbEntity
  8
0
  6
CONTINUOUS
 62
           7
100
AcDbLine
 10
219.990871747167
 20
-3023.112971615675
 11
229.990871747167
 21
-3023.112971615675
  0
LINE
  5
285
100
AcDbEntity
  8
0
  6
CONTINUOUS
 62
           7
100
AcDbLine
 10
219.990871747167
 20
-3073.112971615675
 11
229.990871747167
 21
-3073.112971615675
  0
LINE
  5
284
100
AcDbEntity
  8
0
  6
CONTINUOUS
 62
           7
100
AcDbLine
 10
219.990871747167
 20
-3073.112971615675
 11
219.990871747167
 21
-3023.112971615675
  0
LINE
  5
283
100
AcDbEntity
  8
0
  6
CONTINUOUS
 62
           7
100
AcDbLine
 10
229.990871747167
 20
-3073.112971615675
 11
229.990871747167
 21
-3023.112971615675
  0
LINE
  5
282
100
AcDbEntity
  8
0
  6
CONTINUOUS
 62
           7
100
AcDbLine
 10
99.990871747166
 20
-3073.112971615674
 11
99.990871747166
 21
-3023.112971615674
  0
LINE
  5
281
100
AcDbEntity
  8
0
  6
CONTINUOUS
 62
           7
100
AcDbLine
 10
89.990871747166
 20
-3073.112971615674
 11
89.990871747166
 21
-3023.112971615674
  0
LINE
  5
280
100
AcDbEntity
  8
0
  6
CONTINUOUS
 62
           7
100
AcDbLine
 10
89.990871747166
 20
-3073.112971615674
 11
99.990871747166
 21
-3073.112971615674
  0
LINE
  5
27F
100
AcDbEntity
  8
0
  6
CONTINUOUS
 62
           7
100
AcDbLine
 10
89.990871747166
 20
-3023.112971615674
 11
99.990871747166
 21
-3023.112971615674
  0
LINE
  5
27E
100
AcDbEntity
  8
0
  6
CONTINUOUS
 62
           7
100
AcDbLine
 10
112.990871747166
 20
-3073.112971615674
 11
112.990871747166
 21
-3023.112971615674
  0
LINE
  5
27D
100
AcDbEntity
  8
0
  6
CONTINUOUS
 62
           7
100
AcDbLine
 10
102.990871747166
 20
-3073.112971615674
 11
102.990871747166
 21
-3023.112971615674
  0
LINE
  5
27C
100
AcDbEntity
  8
0
  6
CONTINUOUS
 62
           7
100
AcDbLine
 10
102.990871747166
 20
-3073.112971615674
 11
112.990871747166
 21
-3073.112971615674
  0
LINE
  5
27B
100
AcDbEntity
  8
0
  6
CONTINUOUS
 62
           7
100
AcDbLine
 10
102.990871747166
 20
-3023.112971615674
 11
112.990871747166
 21
-3023.112971615674
  0
LINE
  5
27A
100
AcDbEntity
  8
0
  6
CONTINUOUS
 62
           7
100
AcDbLine
 10
125.990871747166
 20
-3073.112971615674
 11
125.990871747166
 21
-3023.112971615674
  0
LINE
  5
279
100
AcDbEntity
  8
0
  6
CONTINUOUS
 62
           7
100
AcDbLine
 10
115.990871747166
 20
-3073.112971615674
 11
115.990871747166
 21
-3023.112971615674
  0
LINE
  5
278
100
AcDbEntity
  8
0
  6
CONTINUOUS
 62
           7
100
AcDbLine
 10
115.990871747166
 20
-3073.112971615674
 11
125.990871747166
 21
-3073.112971615674
  0
LINE
  5
277
100
AcDbEntity
  8
0
  6
CONTINUOUS
 62
           7
100
AcDbLine
 10
115.990871747166
 20
-3023.112971615674
 11
125.990871747166
 21
-3023.112971615674
  0
LINE
  5
276
100
AcDbEntity
  8
0
  6
CONTINUOUS
 62
           7
100
AcDbLine
 10
138.990871747166
 20
-3073.112971615674
 11
138.990871747166
 21
-3023.112971615674
  0
LINE
  5
275
100
AcDbEntity
  8
0
  6
CONTINUOUS
 62
           7
100
AcDbLine
 10
128.990871747166
 20
-3073.112971615674
 11
128.990871747166
 21
-3023.112971615674
  0
LINE
  5
274
100
AcDbEntity
  8
0
  6
CONTINUOUS
 62
           7
100
AcDbLine
 10
128.990871747166
 20
-3073.112971615674
 11
138.990871747166
 21
-3073.112971615674
  0
LINE
  5
273
100
AcDbEntity
  8
0
  6
CONTINUOUS
 62
           7
100
AcDbLine
 10
128.990871747166
 20
-3023.112971615674
 11
138.990871747166
 21
-3023.112971615674
  0
LINE
  5
272
100
AcDbEntity
  8
0
  6
CONTINUOUS
 62
           7
100
AcDbLine
 10
151.990871747166
 20
-3073.112971615674
 11
151.990871747166
 21
-3023.112971615674
  0
LINE
  5
271
100
AcDbEntity
  8
0
  6
CONTINUOUS
 62
           7
100
AcDbLine
 10
141.990871747166
 20
-3073.112971615674
 11
141.990871747166
 21
-3023.112971615674
  0
LINE
  5
270
100
AcDbEntity
  8
0
  6
CONTINUOUS
 62
           7
100
AcDbLine
 10
141.990871747166
 20
-3073.112971615674
 11
151.990871747166
 21
-3073.112971615674
  0
LINE
  5
26F
100
AcDbEntity
  8
0
  6
CONTINUOUS
 62
           7
100
AcDbLine
 10
141.990871747166
 20
-3023.112971615674
 11
151.990871747166
 21
-3023.112971615674
  0
LINE
  5
26E
100
AcDbEntity
  8
0
  6
CONTINUOUS
 62
           7
100
AcDbLine
 10
164.990871747166
 20
-3073.112971615674
 11
164.990871747166
 21
-3023.112971615674
  0
LINE
  5
26D
100
AcDbEntity
  8
0
  6
CONTINUOUS
 62
           7
100
AcDbLine
 10
154.990871747166
 20
-3073.112971615674
 11
154.990871747166
 21
-3023.112971615674
  0
LINE
  5
26C
100
AcDbEntity
  8
0
  6
CONTINUOUS
 62
           7
100
AcDbLine
 10
154.990871747166
 20
-3073.112971615674
 11
164.990871747166
 21
-3073.112971615674
  0
LINE
  5
26B
100
AcDbEntity
  8
0
  6
CONTINUOUS
 62
           7
100
AcDbLine
 10
154.990871747166
 20
-3023.112971615674
 11
164.990871747166
 21
-3023.112971615674
  0
LINE
  5
26A
100
AcDbEntity
  8
0
  6
CONTINUOUS
 62
           7
100
AcDbLine
 10
177.990871747166
 20
-3073.112971615674
 11
177.990871747166
 21
-3023.112971615674
  0
LINE
  5
269
100
AcDbEntity
  8
0
  6
CONTINUOUS
 62
           7
100
AcDbLine
 10
167.990871747166
 20
-3073.112971615674
 11
167.990871747166
 21
-3023.112971615674
  0
LINE
  5
268
100
AcDbEntity
  8
0
  6
CONTINUOUS
 62
           7
100
AcDbLine
 10
167.990871747166
 20
-3073.112971615674
 11
177.990871747166
 21
-3073.112971615674
  0
LINE
  5
267
100
AcDbEntity
  8
0
  6
CONTINUOUS
 62
           7
100
AcDbLine
 10
167.990871747166
 20
-3023.112971615674
 11
177.990871747166
 21
-3023.112971615674
  0
LINE
  5
266
100
AcDbEntity
  8
0
  6
CONTINUOUS
 62
           7
100
AcDbLine
 10
190.990871747166
 20
-3073.112971615674
 11
190.990871747166
 21
-3023.112971615674
  0
LINE
  5
265
100
AcDbEntity
  8
0
  6
CONTINUOUS
 62
           7
100
AcDbLine
 10
180.990871747166
 20
-3073.112971615674
 11
180.990871747166
 21
-3023.112971615674
  0
LINE
  5
264
100
AcDbEntity
  8
0
  6
CONTINUOUS
 62
           7
100
AcDbLine
 10
180.990871747166
 20
-3073.112971615674
 11
190.990871747166
 21
-3073.112971615674
  0
LINE
  5
263
100
AcDbEntity
  8
0
  6
CONTINUOUS
 62
           7
100
AcDbLine
 10
180.990871747166
 20
-3023.112971615674
 11
190.990871747166
 21
-3023.112971615674
  0
LINE
  5
262
100
AcDbEntity
  8
0
  6
CONTINUOUS
 62
           7
100
AcDbLine
 10
203.990871747166
 20
-3073.112971615674
 11
203.990871747166
 21
-3023.112971615674
  0
LINE
  5
261
100
AcDbEntity
  8
0
  6
CONTINUOUS
 62
           7
100
AcDbLine
 10
193.990871747166
 20
-3073.112971615674
 11
193.990871747166
 21
-3023.112971615674
  0
LINE
  5
260
100
AcDbEntity
  8
0
  6
CONTINUOUS
 62
           7
100
AcDbLine
 10
193.990871747166
 20
-3073.112971615674
 11
203.990871747166
 21
-3073.112971615674
  0
LINE
  5
25F
100
AcDbEntity
  8
0
  6
CONTINUOUS
 62
           7
100
AcDbLine
 10
193.990871747166
 20
-3023.112971615674
 11
203.990871747166
 21
-3023.112971615674
  0
LINE
  5
25E
100
AcDbEntity
  8
0
  6
CONTINUOUS
 62
           7
100
AcDbLine
 10
216.990871747166
 20
-3073.112971615674
 11
216.990871747166
 21
-3023.112971615674
  0
LINE
  5
25D
100
AcDbEntity
  8
0
  6
CONTINUOUS
 62
           7
100
AcDbLine
 10
206.990871747166
 20
-3073.112971615674
 11
206.990871747166
 21
-3023.112971615674
  0
LINE
  5
25C
100
AcDbEntity
  8
0
  6
CONTINUOUS
 62
           7
100
AcDbLine
 10
206.990871747166
 20
-3073.112971615674
 11
216.990871747166
 21
-3073.112971615674
  0
LINE
  5
25B
100
AcDbEntity
  8
0
  6
CONTINUOUS
 62
           7
100
AcDbLine
 10
206.990871747166
 20
-3023.112971615674
 11
216.990871747166
 21
-3023.112971615674
  0
LINE
  5
25A
100
AcDbEntity
  8
0
  6
CONTINUOUS
 62
           7
100
AcDbLine
 10
440.990871747167
 20
-3083.112971615675
 11
450.990871747167
 21
-3083.112971615675
  0
LINE
  5
259
100
AcDbEntity
  8
0
  6
CONTINUOUS
 62
           7
100
AcDbLine
 10
440.990871747167
 20
-3133.112971615675
 11
450.990871747167
 21
-3133.112971615675
  0
LINE
  5
258
100
AcDbEntity
  8
0
  6
CONTINUOUS
 62
           7
100
AcDbLine
 10
440.990871747167
 20
-3133.112971615675
 11
440.990871747167
 21
-3083.112971615675
  0
LINE
  5
257
100
AcDbEntity
  8
0
  6
CONTINUOUS
 62
           7
100
AcDbLine
 10
450.990871747167
 20
-3133.112971615675
 11
450.990871747167
 21
-3083.112971615675
  0
LINE
  5
256
100
AcDbEntity
  8
0
  6
CONTINUOUS
 62
           7
100
AcDbLine
 10
427.990871747167
 20
-3083.112971615675
 11
437.990871747167
 21
-3083.112971615675
  0
LINE
  5
255
100
AcDbEntity
  8
0
  6
CONTINUOUS
 62
           7
100
AcDbLine
 10
427.990871747167
 20
-3133.112971615675
 11
437.990871747167
 21
-3133.112971615675
  0
LINE
  5
254
100
AcDbEntity
  8
0
  6
CONTINUOUS
 62
           7
100
AcDbLine
 10
427.990871747167
 20
-3133.112971615675
 11
427.990871747167
 21
-3083.112971615675
  0
LINE
  5
253
100
AcDbEntity
  8
0
  6
CONTINUOUS
 62
           7
100
AcDbLine
 10
437.990871747167
 20
-3133.112971615675
 11
437.990871747167
 21
-3083.112971615675
  0
LINE
  5
252
100
AcDbEntity
  8
0
  6
CONTINUOUS
 62
           7
100
AcDbLine
 10
414.990871747167
 20
-3083.112971615675
 11
424.990871747167
 21
-3083.112971615675
  0
LINE
  5
251
100
AcDbEntity
  8
0
  6
CONTINUOUS
 62
           7
100
AcDbLine
 10
414.990871747167
 20
-3133.112971615675
 11
424.990871747167
 21
-3133.112971615675
  0
LINE
  5
250
100
AcDbEntity
  8
0
  6
CONTINUOUS
 62
           7
100
AcDbLine
 10
414.990871747167
 20
-3133.112971615675
 11
414.990871747167
 21
-3083.112971615675
  0
LINE
  5
24F
100
AcDbEntity
  8
0
  6
CONTINUOUS
 62
           7
100
AcDbLine
 10
424.990871747167
 20
-3133.112971615675
 11
424.990871747167
 21
-3083.112971615675
  0
LINE
  5
24E
100
AcDbEntity
  8
0
  6
CONTINUOUS
 62
           7
100
AcDbLine
 10
401.990871747166
 20
-3083.112971615675
 11
411.990871747166
 21
-3083.112971615675
  0
LINE
  5
24D
100
AcDbEntity
  8
0
  6
CONTINUOUS
 62
           7
100
AcDbLine
 10
401.990871747166
 20
-3133.112971615675
 11
411.990871747166
 21
-3133.112971615675
  0
LINE
  5
24C
100
AcDbEntity
  8
0
  6
CONTINUOUS
 62
           7
100
AcDbLine
 10
401.990871747166
 20
-3133.112971615675
 11
401.990871747166
 21
-3083.112971615675
  0
LINE
  5
24B
100
AcDbEntity
  8
0
  6
CONTINUOUS
 62
           7
100
AcDbLine
 10
411.990871747166
 20
-3133.112971615675
 11
411.990871747166
 21
-3083.112971615675
  0
LINE
  5
24A
100
AcDbEntity
  8
0
  6
CONTINUOUS
 62
           7
100
AcDbLine
 10
388.990871747166
 20
-3083.112971615675
 11
398.990871747166
 21
-3083.112971615675
  0
LINE
  5
249
100
AcDbEntity
  8
0
  6
CONTINUOUS
 62
           7
100
AcDbLine
 10
388.990871747166
 20
-3133.112971615675
 11
398.990871747166
 21
-3133.112971615675
  0
LINE
  5
248
100
AcDbEntity
  8
0
  6
CONTINUOUS
 62
           7
100
AcDbLine
 10
388.990871747166
 20
-3133.112971615675
 11
388.990871747166
 21
-3083.112971615675
  0
LINE
  5
247
100
AcDbEntity
  8
0
  6
CONTINUOUS
 62
           7
100
AcDbLine
 10
398.990871747166
 20
-3133.112971615675
 11
398.990871747166
 21
-3083.112971615675
  0
LINE
  5
246
100
AcDbEntity
  8
0
  6
CONTINUOUS
 62
           7
100
AcDbLine
 10
375.990871747167
 20
-3083.112971615675
 11
385.990871747167
 21
-3083.112971615675
  0
LINE
  5
245
100
AcDbEntity
  8
0
  6
CONTINUOUS
 62
           7
100
AcDbLine
 10
375.990871747167
 20
-3133.112971615675
 11
385.990871747167
 21
-3133.112971615675
  0
LINE
  5
244
100
AcDbEntity
  8
0
  6
CONTINUOUS
 62
           7
100
AcDbLine
 10
375.990871747167
 20
-3133.112971615675
 11
375.990871747167
 21
-3083.112971615675
  0
LINE
  5
243
100
AcDbEntity
  8
0
  6
CONTINUOUS
 62
           7
100
AcDbLine
 10
385.990871747167
 20
-3133.112971615675
 11
385.990871747167
 21
-3083.112971615675
  0
LINE
  5
242
100
AcDbEntity
  8
0
  6
CONTINUOUS
 62
           7
100
AcDbLine
 10
362.990871747167
 20
-3083.112971615675
 11
372.990871747167
 21
-3083.112971615675
  0
LINE
  5
241
100
AcDbEntity
  8
0
  6
CONTINUOUS
 62
           7
100
AcDbLine
 10
362.990871747167
 20
-3133.112971615675
 11
372.990871747167
 21
-3133.112971615675
  0
LINE
  5
240
100
AcDbEntity
  8
0
  6
CONTINUOUS
 62
           7
100
AcDbLine
 10
362.990871747167
 20
-3133.112971615675
 11
362.990871747167
 21
-3083.112971615675
  0
LINE
  5
23F
100
AcDbEntity
  8
0
  6
CONTINUOUS
 62
           7
100
AcDbLine
 10
372.990871747167
 20
-3133.112971615675
 11
372.990871747167
 21
-3083.112971615675
  0
LINE
  5
23E
100
AcDbEntity
  8
0
  6
CONTINUOUS
 62
           7
100
AcDbLine
 10
349.990871747167
 20
-3083.112971615675
 11
359.990871747167
 21
-3083.112971615675
  0
LINE
  5
23D
100
AcDbEntity
  8
0
  6
CONTINUOUS
 62
           7
100
AcDbLine
 10
349.990871747167
 20
-3133.112971615675
 11
359.990871747167
 21
-3133.112971615675
  0
LINE
  5
23C
100
AcDbEntity
  8
0
  6
CONTINUOUS
 62
           7
100
AcDbLine
 10
349.990871747167
 20
-3133.112971615675
 11
349.990871747167
 21
-3083.112971615675
  0
LINE
  5
23B
100
AcDbEntity
  8
0
  6
CONTINUOUS
 62
           7
100
AcDbLine
 10
359.990871747167
 20
-3133.112971615675
 11
359.990871747167
 21
-3083.112971615675
  0
LINE
  5
23A
100
AcDbEntity
  8
0
  6
CONTINUOUS
 62
           7
100
AcDbLine
 10
336.990871747166
 20
-3083.112971615675
 11
346.990871747166
 21
-3083.112971615675
  0
LINE
  5
239
100
AcDbEntity
  8
0
  6
CONTINUOUS
 62
           7
100
AcDbLine
 10
336.990871747166
 20
-3133.112971615675
 11
346.990871747166
 21
-3133.112971615675
  0
LINE
  5
238
100
AcDbEntity
  8
0
  6
CONTINUOUS
 62
           7
100
AcDbLine
 10
336.990871747166
 20
-3133.112971615675
 11
336.990871747166
 21
-3083.112971615675
  0
LINE
  5
237
100
AcDbEntity
  8
0
  6
CONTINUOUS
 62
           7
100
AcDbLine
 10
346.990871747166
 20
-3133.112971615675
 11
346.990871747166
 21
-3083.112971615675
  0
LINE
  5
236
100
AcDbEntity
  8
0
  6
CONTINUOUS
 62
           7
100
AcDbLine
 10
323.990871747166
 20
-3083.112971615675
 11
333.990871747166
 21
-3083.112971615675
  0
LINE
  5
235
100
AcDbEntity
  8
0
  6
CONTINUOUS
 62
           7
100
AcDbLine
 10
323.990871747166
 20
-3133.112971615675
 11
333.990871747166
 21
-3133.112971615675
  0
LINE
  5
234
100
AcDbEntity
  8
0
  6
CONTINUOUS
 62
           7
100
AcDbLine
 10
323.990871747166
 20
-3133.112971615675
 11
323.990871747166
 21
-3083.112971615675
  0
LINE
  5
233
100
AcDbEntity
  8
0
  6
CONTINUOUS
 62
           7
100
AcDbLine
 10
333.990871747166
 20
-3133.112971615675
 11
333.990871747166
 21
-3083.112971615675
  0
LINE
  5
232
100
AcDbEntity
  8
0
  6
CONTINUOUS
 62
           7
100
AcDbLine
 10
310.990871747167
 20
-3083.112971615675
 11
320.990871747167
 21
-3083.112971615675
  0
LINE
  5
231
100
AcDbEntity
  8
0
  6
CONTINUOUS
 62
           7
100
AcDbLine
 10
310.990871747167
 20
-3133.112971615675
 11
320.990871747167
 21
-3133.112971615675
  0
LINE
  5
230
100
AcDbEntity
  8
0
  6
CONTINUOUS
 62
           7
100
AcDbLine
 10
310.990871747167
 20
-3133.112971615675
 11
310.990871747167
 21
-3083.112971615675
  0
LINE
  5
22F
100
AcDbEntity
  8
0
  6
CONTINUOUS
 62
           7
100
AcDbLine
 10
320.990871747167
 20
-3133.112971615675
 11
320.990871747167
 21
-3083.112971615675
  0
LINE
  5
22E
100
AcDbEntity
  8
0
  6
CONTINUOUS
 62
           7
100
AcDbLine
 10
297.990871747167
 20
-3083.112971615675
 11
307.990871747167
 21
-3083.112971615675
  0
LINE
  5
22D
100
AcDbEntity
  8
0
  6
CONTINUOUS
 62
           7
100
AcDbLine
 10
297.990871747167
 20
-3133.112971615675
 11
307.990871747167
 21
-3133.112971615675
  0
LINE
  5
22C
100
AcDbEntity
  8
0
  6
CONTINUOUS
 62
           7
100
AcDbLine
 10
297.990871747167
 20
-3133.112971615675
 11
297.990871747167
 21
-3083.112971615675
  0
LINE
  5
22B
100
AcDbEntity
  8
0
  6
CONTINUOUS
 62
           7
100
AcDbLine
 10
307.990871747167
 20
-3133.112971615675
 11
307.990871747167
 21
-3083.112971615675
  0
LINE
  5
22A
100
AcDbEntity
  8
0
  6
CONTINUOUS
 62
           7
100
AcDbLine
 10
284.990871747167
 20
-3083.112971615675
 11
294.990871747167
 21
-3083.112971615675
  0
LINE
  5
229
100
AcDbEntity
  8
0
  6
CONTINUOUS
 62
           7
100
AcDbLine
 10
284.990871747167
 20
-3133.112971615675
 11
294.990871747167
 21
-3133.112971615675
  0
LINE
  5
228
100
AcDbEntity
  8
0
  6
CONTINUOUS
 62
           7
100
AcDbLine
 10
284.990871747167
 20
-3133.112971615675
 11
284.990871747167
 21
-3083.112971615675
  0
LINE
  5
227
100
AcDbEntity
  8
0
  6
CONTINUOUS
 62
           7
100
AcDbLine
 10
294.990871747167
 20
-3133.112971615675
 11
294.990871747167
 21
-3083.112971615675
  0
LINE
  5
226
100
AcDbEntity
  8
0
  6
CONTINUOUS
 62
           7
100
AcDbLine
 10
271.990871747166
 20
-3083.112971615675
 11
281.990871747166
 21
-3083.112971615675
  0
LINE
  5
225
100
AcDbEntity
  8
0
  6
CONTINUOUS
 62
           7
100
AcDbLine
 10
271.990871747166
 20
-3133.112971615675
 11
281.990871747166
 21
-3133.112971615675
  0
LINE
  5
224
100
AcDbEntity
  8
0
  6
CONTINUOUS
 62
           7
100
AcDbLine
 10
271.990871747166
 20
-3133.112971615675
 11
271.990871747166
 21
-3083.112971615675
  0
LINE
  5
223
100
AcDbEntity
  8
0
  6
CONTINUOUS
 62
           7
100
AcDbLine
 10
281.990871747166
 20
-3133.112971615675
 11
281.990871747166
 21
-3083.112971615675
  0
LINE
  5
222
100
AcDbEntity
  8
0
  6
CONTINUOUS
 62
           7
100
AcDbLine
 10
258.990871747166
 20
-3083.112971615675
 11
268.990871747166
 21
-3083.112971615675
  0
LINE
  5
221
100
AcDbEntity
  8
0
  6
CONTINUOUS
 62
           7
100
AcDbLine
 10
258.990871747166
 20
-3133.112971615675
 11
268.990871747166
 21
-3133.112971615675
  0
LINE
  5
220
100
AcDbEntity
  8
0
  6
CONTINUOUS
 62
           7
100
AcDbLine
 10
258.990871747166
 20
-3133.112971615675
 11
258.990871747166
 21
-3083.112971615675
  0
LINE
  5
21F
100
AcDbEntity
  8
0
  6
CONTINUOUS
 62
           7
100
AcDbLine
 10
268.990871747166
 20
-3133.112971615675
 11
268.990871747166
 21
-3083.112971615675
  0
LINE
  5
21E
100
AcDbEntity
  8
0
  6
CONTINUOUS
 62
           7
100
AcDbLine
 10
245.990871747167
 20
-3083.112971615675
 11
255.990871747167
 21
-3083.112971615675
  0
LINE
  5
21D
100
AcDbEntity
  8
0
  6
CONTINUOUS
 62
           7
100
AcDbLine
 10
245.990871747167
 20
-3133.112971615675
 11
255.990871747167
 21
-3133.112971615675
  0
LINE
  5
21C
100
AcDbEntity
  8
0
  6
CONTINUOUS
 62
           7
100
AcDbLine
 10
245.990871747167
 20
-3133.112971615675
 11
245.990871747167
 21
-3083.112971615675
  0
LINE
  5
21B
100
AcDbEntity
  8
0
  6
CONTINUOUS
 62
           7
100
AcDbLine
 10
255.990871747167
 20
-3133.112971615675
 11
255.990871747167
 21
-3083.112971615675
  0
LINE
  5
21A
100
AcDbEntity
  8
0
  6
CONTINUOUS
 62
           7
100
AcDbLine
 10
232.990871747167
 20
-3083.112971615675
 11
242.990871747167
 21
-3083.112971615675
  0
LINE
  5
219
100
AcDbEntity
  8
0
  6
CONTINUOUS
 62
           7
100
AcDbLine
 10
232.990871747167
 20
-3133.112971615675
 11
242.990871747167
 21
-3133.112971615675
  0
LINE
  5
218
100
AcDbEntity
  8
0
  6
CONTINUOUS
 62
           7
100
AcDbLine
 10
232.990871747167
 20
-3133.112971615675
 11
232.990871747167
 21
-3083.112971615675
  0
LINE
  5
217
100
AcDbEntity
  8
0
  6
CONTINUOUS
 62
           7
100
AcDbLine
 10
242.990871747167
 20
-3133.112971615675
 11
242.990871747167
 21
-3083.112971615675
  0
LINE
  5
216
100
AcDbEntity
  8
0
  6
CONTINUOUS
 62
           7
100
AcDbLine
 10
219.990871747167
 20
-3083.112971615675
 11
229.990871747167
 21
-3083.112971615675
  0
LINE
  5
215
100
AcDbEntity
  8
0
  6
CONTINUOUS
 62
           7
100
AcDbLine
 10
219.990871747167
 20
-3133.112971615675
 11
229.990871747167
 21
-3133.112971615675
  0
LINE
  5
214
100
AcDbEntity
  8
0
  6
CONTINUOUS
 62
           7
100
AcDbLine
 10
219.990871747167
 20
-3133.112971615675
 11
219.990871747167
 21
-3083.112971615675
  0
LINE
  5
213
100
AcDbEntity
  8
0
  6
CONTINUOUS
 62
           7
100
AcDbLine
 10
229.990871747167
 20
-3133.112971615675
 11
229.990871747167
 21
-3083.112971615675
  0
LINE
  5
212
100
AcDbEntity
  8
0
  6
CONTINUOUS
 62
           7
100
AcDbLine
 10
99.990871747166
 20
-3133.112971615674
 11
99.990871747166
 21
-3083.112971615674
  0
LINE
  5
211
100
AcDbEntity
  8
0
  6
CONTINUOUS
 62
           7
100
AcDbLine
 10
89.990871747166
 20
-3133.112971615674
 11
89.990871747166
 21
-3083.112971615674
  0
LINE
  5
210
100
AcDbEntity
  8
0
  6
CONTINUOUS
 62
           7
100
AcDbLine
 10
89.990871747166
 20
-3133.112971615674
 11
99.990871747166
 21
-3133.112971615674
  0
LINE
  5
20F
100
AcDbEntity
  8
0
  6
CONTINUOUS
 62
           7
100
AcDbLine
 10
89.990871747166
 20
-3083.112971615674
 11
99.990871747166
 21
-3083.112971615674
  0
LINE
  5
20E
100
AcDbEntity
  8
0
  6
CONTINUOUS
 62
           7
100
AcDbLine
 10
112.990871747166
 20
-3133.112971615674
 11
112.990871747166
 21
-3083.112971615674
  0
LINE
  5
20D
100
AcDbEntity
  8
0
  6
CONTINUOUS
 62
           7
100
AcDbLine
 10
102.990871747166
 20
-3133.112971615674
 11
102.990871747166
 21
-3083.112971615674
  0
LINE
  5
20C
100
AcDbEntity
  8
0
  6
CONTINUOUS
 62
           7
100
AcDbLine
 10
102.990871747166
 20
-3133.112971615674
 11
112.990871747166
 21
-3133.112971615674
  0
LINE
  5
20B
100
AcDbEntity
  8
0
  6
CONTINUOUS
 62
           7
100
AcDbLine
 10
102.990871747166
 20
-3083.112971615674
 11
112.990871747166
 21
-3083.112971615674
  0
LINE
  5
20A
100
AcDbEntity
  8
0
  6
CONTINUOUS
 62
           7
100
AcDbLine
 10
125.990871747166
 20
-3133.112971615674
 11
125.990871747166
 21
-3083.112971615674
  0
LINE
  5
209
100
AcDbEntity
  8
0
  6
CONTINUOUS
 62
           7
100
AcDbLine
 10
115.990871747166
 20
-3133.112971615674
 11
115.990871747166
 21
-3083.112971615674
  0
LINE
  5
208
100
AcDbEntity
  8
0
  6
CONTINUOUS
 62
           7
100
AcDbLine
 10
115.990871747166
 20
-3133.112971615674
 11
125.990871747166
 21
-3133.112971615674
  0
LINE
  5
207
100
AcDbEntity
  8
0
  6
CONTINUOUS
 62
           7
100
AcDbLine
 10
115.990871747166
 20
-3083.112971615674
 11
125.990871747166
 21
-3083.112971615674
  0
LINE
  5
206
100
AcDbEntity
  8
0
  6
CONTINUOUS
 62
           7
100
AcDbLine
 10
138.990871747166
 20
-3133.112971615674
 11
138.990871747166
 21
-3083.112971615674
  0
LINE
  5
205
100
AcDbEntity
  8
0
  6
CONTINUOUS
 62
           7
100
AcDbLine
 10
128.990871747166
 20
-3133.112971615674
 11
128.990871747166
 21
-3083.112971615674
  0
LINE
  5
204
100
AcDbEntity
  8
0
  6
CONTINUOUS
 62
           7
100
AcDbLine
 10
128.990871747166
 20
-3133.112971615674
 11
138.990871747166
 21
-3133.112971615674
  0
LINE
  5
203
100
AcDbEntity
  8
0
  6
CONTINUOUS
 62
           7
100
AcDbLine
 10
128.990871747166
 20
-3083.112971615674
 11
138.990871747166
 21
-3083.112971615674
  0
LINE
  5
202
100
AcDbEntity
  8
0
  6
CONTINUOUS
 62
           7
100
AcDbLine
 10
151.990871747166
 20
-3133.112971615674
 11
151.990871747166
 21
-3083.112971615674
  0
LINE
  5
201
100
AcDbEntity
  8
0
  6
CONTINUOUS
 62
           7
100
AcDbLine
 10
141.990871747166
 20
-3133.112971615674
 11
141.990871747166
 21
-3083.112971615674
  0
LINE
  5
200
100
AcDbEntity
  8
0
  6
CONTINUOUS
 62
           7
100
AcDbLine
 10
141.990871747166
 20
-3133.112971615674
 11
151.990871747166
 21
-3133.112971615674
  0
LINE
  5
1FF
100
AcDbEntity
  8
0
  6
CONTINUOUS
 62
           7
100
AcDbLine
 10
141.990871747166
 20
-3083.112971615674
 11
151.990871747166
 21
-3083.112971615674
  0
LINE
  5
1FE
100
AcDbEntity
  8
0
  6
CONTINUOUS
 62
           7
100
AcDbLine
 10
164.990871747166
 20
-3133.112971615674
 11
164.990871747166
 21
-3083.112971615674
  0
LINE
  5
1FD
100
AcDbEntity
  8
0
  6
CONTINUOUS
 62
           7
100
AcDbLine
 10
154.990871747166
 20
-3133.112971615674
 11
154.990871747166
 21
-3083.112971615674
  0
LINE
  5
1FC
100
AcDbEntity
  8
0
  6
CONTINUOUS
 62
           7
100
AcDbLine
 10
154.990871747166
 20
-3133.112971615674
 11
164.990871747166
 21
-3133.112971615674
  0
LINE
  5
1FB
100
AcDbEntity
  8
0
  6
CONTINUOUS
 62
           7
100
AcDbLine
 10
154.990871747166
 20
-3083.112971615674
 11
164.990871747166
 21
-3083.112971615674
  0
LINE
  5
1FA
100
AcDbEntity
  8
0
  6
CONTINUOUS
 62
           7
100
AcDbLine
 10
177.990871747166
 20
-3133.112971615674
 11
177.990871747166
 21
-3083.112971615674
  0
LINE
  5
1F9
100
AcDbEntity
  8
0
  6
CONTINUOUS
 62
           7
100
AcDbLine
 10
167.990871747166
 20
-3133.112971615674
 11
167.990871747166
 21
-3083.112971615674
  0
LINE
  5
1F8
100
AcDbEntity
  8
0
  6
CONTINUOUS
 62
           7
100
AcDbLine
 10
167.990871747166
 20
-3133.112971615674
 11
177.990871747166
 21
-3133.112971615674
  0
LINE
  5
1F7
100
AcDbEntity
  8
0
  6
CONTINUOUS
 62
           7
100
AcDbLine
 10
167.990871747166
 20
-3083.112971615674
 11
177.990871747166
 21
-3083.112971615674
  0
LINE
  5
1F6
100
AcDbEntity
  8
0
  6
CONTINUOUS
 62
           7
100
AcDbLine
 10
190.990871747166
 20
-3133.112971615674
 11
190.990871747166
 21
-3083.112971615674
  0
LINE
  5
1F5
100
AcDbEntity
  8
0
  6
CONTINUOUS
 62
           7
100
AcDbLine
 10
180.990871747166
 20
-3133.112971615674
 11
180.990871747166
 21
-3083.112971615674
  0
LINE
  5
1F4
100
AcDbEntity
  8
0
  6
CONTINUOUS
 62
           7
100
AcDbLine
 10
180.990871747166
 20
-3133.112971615674
 11
190.990871747166
 21
-3133.112971615674
  0
LINE
  5
1F3
100
AcDbEntity
  8
0
  6
CONTINUOUS
 62
           7
100
AcDbLine
 10
180.990871747166
 20
-3083.112971615674
 11
190.990871747166
 21
-3083.112971615674
  0
LINE
  5
1F2
100
AcDbEntity
  8
0
  6
CONTINUOUS
 62
           7
100
AcDbLine
 10
203.990871747166
 20
-3133.112971615674
 11
203.990871747166
 21
-3083.112971615674
  0
LINE
  5
1F1
100
AcDbEntity
  8
0
  6
CONTINUOUS
 62
           7
100
AcDbLine
 10
193.990871747166
 20
-3133.112971615674
 11
193.990871747166
 21
-3083.112971615674
  0
LINE
  5
1F0
100
AcDbEntity
  8
0
  6
CONTINUOUS
 62
           7
100
AcDbLine
 10
193.990871747166
 20
-3133.112971615674
 11
203.990871747166
 21
-3133.112971615674
  0
LINE
  5
1EF
100
AcDbEntity
  8
0
  6
CONTINUOUS
 62
           7
100
AcDbLine
 10
193.990871747166
 20
-3083.112971615674
 11
203.990871747166
 21
-3083.112971615674
  0
LINE
  5
1EE
100
AcDbEntity
  8
0
  6
CONTINUOUS
 62
           7
100
AcDbLine
 10
216.990871747166
 20
-3133.112971615674
 11
216.990871747166
 21
-3083.112971615674
  0
LINE
  5
1ED
100
AcDbEntity
  8
0
  6
CONTINUOUS
 62
           7
100
AcDbLine
 10
206.990871747166
 20
-3133.112971615674
 11
206.990871747166
 21
-3083.112971615674
  0
LINE
  5
1EC
100
AcDbEntity
  8
0
  6
CONTINUOUS
 62
           7
100
AcDbLine
 10
206.990871747166
 20
-3133.112971615674
 11
216.990871747166
 21
-3133.112971615674
  0
LINE
  5
1EB
100
AcDbEntity
  8
0
  6
CONTINUOUS
 62
           7
100
AcDbLine
 10
206.990871747166
 20
-3083.112971615674
 11
216.990871747166
 21
-3083.112971615674
  0
LINE
  5
1EA
100
AcDbEntity
  8
0
  6
CONTINUOUS
 62
           7
100
AcDbLine
 10
440.990871747167
 20
-3143.112971615675
 11
450.990871747167
 21
-3143.112971615675
  0
LINE
  5
1E9
100
AcDbEntity
  8
0
  6
CONTINUOUS
 62
           7
100
AcDbLine
 10
440.990871747167
 20
-3193.112971615675
 11
450.990871747167
 21
-3193.112971615675
  0
LINE
  5
1E8
100
AcDbEntity
  8
0
  6
CONTINUOUS
 62
           7
100
AcDbLine
 10
440.990871747167
 20
-3193.112971615675
 11
440.990871747167
 21
-3143.112971615675
  0
LINE
  5
1E7
100
AcDbEntity
  8
0
  6
CONTINUOUS
 62
           7
100
AcDbLine
 10
450.990871747167
 20
-3193.112971615675
 11
450.990871747167
 21
-3143.112971615675
  0
LINE
  5
1E6
100
AcDbEntity
  8
0
  6
CONTINUOUS
 62
           7
100
AcDbLine
 10
427.990871747167
 20
-3143.112971615675
 11
437.990871747167
 21
-3143.112971615675
  0
LINE
  5
1E5
100
AcDbEntity
  8
0
  6
CONTINUOUS
 62
           7
100
AcDbLine
 10
427.990871747167
 20
-3193.112971615675
 11
437.990871747167
 21
-3193.112971615675
  0
LINE
  5
1E4
100
AcDbEntity
  8
0
  6
CONTINUOUS
 62
           7
100
AcDbLine
 10
427.990871747167
 20
-3193.112971615675
 11
427.990871747167
 21
-3143.112971615675
  0
LINE
  5
1E3
100
AcDbEntity
  8
0
  6
CONTINUOUS
 62
           7
100
AcDbLine
 10
437.990871747167
 20
-3193.112971615675
 11
437.990871747167
 21
-3143.112971615675
  0
LINE
  5
1E2
100
AcDbEntity
  8
0
  6
CONTINUOUS
 62
           7
100
AcDbLine
 10
414.990871747167
 20
-3143.112971615675
 11
424.990871747167
 21
-3143.112971615675
  0
LINE
  5
1E1
100
AcDbEntity
  8
0
  6
CONTINUOUS
 62
           7
100
AcDbLine
 10
414.990871747167
 20
-3193.112971615675
 11
424.990871747167
 21
-3193.112971615675
  0
LINE
  5
1E0
100
AcDbEntity
  8
0
  6
CONTINUOUS
 62
           7
100
AcDbLine
 10
414.990871747167
 20
-3193.112971615675
 11
414.990871747167
 21
-3143.112971615675
  0
LINE
  5
1DF
100
AcDbEntity
  8
0
  6
CONTINUOUS
 62
           7
100
AcDbLine
 10
424.990871747167
 20
-3193.112971615675
 11
424.990871747167
 21
-3143.112971615675
  0
LINE
  5
1DE
100
AcDbEntity
  8
0
  6
CONTINUOUS
 62
           7
100
AcDbLine
 10
401.990871747166
 20
-3143.112971615675
 11
411.990871747166
 21
-3143.112971615675
  0
LINE
  5
1DD
100
AcDbEntity
  8
0
  6
CONTINUOUS
 62
           7
100
AcDbLine
 10
401.990871747166
 20
-3193.112971615675
 11
411.990871747166
 21
-3193.112971615675
  0
LINE
  5
1DC
100
AcDbEntity
  8
0
  6
CONTINUOUS
 62
           7
100
AcDbLine
 10
401.990871747166
 20
-3193.112971615675
 11
401.990871747166
 21
-3143.112971615675
  0
LINE
  5
1DB
100
AcDbEntity
  8
0
  6
CONTINUOUS
 62
           7
100
AcDbLine
 10
411.990871747166
 20
-3193.112971615675
 11
411.990871747166
 21
-3143.112971615675
  0
LINE
  5
1DA
100
AcDbEntity
  8
0
  6
CONTINUOUS
 62
           7
100
AcDbLine
 10
388.990871747166
 20
-3143.112971615675
 11
398.990871747166
 21
-3143.112971615675
  0
LINE
  5
1D9
100
AcDbEntity
  8
0
  6
CONTINUOUS
 62
           7
100
AcDbLine
 10
388.990871747166
 20
-3193.112971615675
 11
398.990871747166
 21
-3193.112971615675
  0
LINE
  5
1D8
100
AcDbEntity
  8
0
  6
CONTINUOUS
 62
           7
100
AcDbLine
 10
258.990871747166
 20
-3203.112971615675
 11
268.990871747166
 21
-3203.112971615675
  0
LINE
  5
1D7
100
AcDbEntity
  8
0
  6
CONTINUOUS
 62
           7
100
AcDbLine
 10
128.990871747166
 20
-3253.112971615674
 11
138.990871747166
 21
-3253.112971615674
  0
LINE
  5
1D6
100
AcDbEntity
  8
0
  6
CONTINUOUS
 62
           7
100
AcDbLine
 10
128.990871747166
 20
-3203.112971615675
 11
138.990871747166
 21
-3203.112971615675
  0
LINE
  5
1D5
100
AcDbEntity
  8
0
  6
CONTINUOUS
 62
           7
100
AcDbLine
 10
115.990871747166
 20
-3253.112971615674
 11
115.990871747166
 21
-3203.112971615674
  0
LINE
  5
1D4
100
AcDbEntity
  8
0
  6
CONTINUOUS
 62
           7
100
AcDbLine
 10
102.990871747167
 20
-3203.112971615675
 11
112.990871747167
 21
-3203.112971615675
  0
LINE
  5
1D3
100
AcDbEntity
  8
0
  6
CONTINUOUS
 62
           7
100
AcDbLine
 10
102.990871747167
 20
-3253.112971615674
 11
112.990871747167
 21
-3253.112971615674
  0
LINE
  5
1D2
100
AcDbEntity
  8
0
  6
CONTINUOUS
 62
           7
100
AcDbLine
 10
102.990871747167
 20
-3253.112971615674
 11
102.990871747167
 21
-3203.112971615675
  0
LINE
  5
1D1
100
AcDbEntity
  8
0
  6
CONTINUOUS
 62
           7
100
AcDbLine
 10
112.990871747167
 20
-3253.112971615674
 11
112.990871747167
 21
-3203.112971615675
  0
LINE
  5
1D0
100
AcDbEntity
  8
0
  6
CONTINUOUS
 62
           7
100
AcDbLine
 10
125.990871747166
 20
-3253.112971615674
 11
125.990871747166
 21
-3203.112971615674
  0
LINE
  5
1CF
100
AcDbEntity
  8
0
  6
CONTINUOUS
 62
           7
100
AcDbLine
 10
255.990871747166
 20
-3193.112971615674
 11
255.990871747166
 21
-3143.112971615674
  0
LINE
  5
1CE
100
AcDbEntity
  8
0
  6
CONTINUOUS
 62
           7
100
AcDbLine
 10
281.990871747166
 20
-3193.112971615674
 11
281.990871747166
 21
-3143.112971615674
  0
LINE
  5
1CD
100
AcDbEntity
  8
0
  6
CONTINUOUS
 62
           7
100
AcDbLine
 10
258.990871747166
 20
-3193.112971615674
 11
258.990871747166
 21
-3143.112971615674
  0
LINE
  5
1CC
100
AcDbEntity
  8
0
  6
CONTINUOUS
 62
           7
100
AcDbLine
 10
245.990871747166
 20
-3193.112971615674
 11
245.990871747166
 21
-3143.112971615674
  0
LINE
  5
1CB
100
AcDbEntity
  8
0
  6
CONTINUOUS
 62
           7
100
AcDbLine
 10
232.990871747167
 20
-3143.112971615675
 11
242.990871747167
 21
-3143.112971615675
  0
LINE
  5
1CA
100
AcDbEntity
  8
0
  6
CONTINUOUS
 62
           7
100
AcDbLine
 10
102.990871747167
 20
-3143.112971615675
 11
112.990871747167
 21
-3143.112971615675
  0
LINE
  5
1C9
100
AcDbEntity
  8
0
  6
CONTINUOUS
 62
           7
100
AcDbLine
 10
102.990871747166
 20
-3193.112971615674
 11
102.990871747167
 21
-3143.112971615675
  0
LINE
  5
1C8
100
AcDbEntity
  8
0
  6
CONTINUOUS
 62
           7
100
AcDbLine
 10
112.990871747166
 20
-3193.112971615674
 11
112.990871747167
 21
-3143.112971615675
  0
LINE
  5
1C7
100
AcDbEntity
  8
0
  6
CONTINUOUS
 62
           7
100
AcDbLine
 10
89.990871747167
 20
-3143.112971615675
 11
99.990871747167
 21
-3143.112971615675
  0
LINE
  5
1C6
100
AcDbEntity
  8
0
  6
CONTINUOUS
 62
           7
100
AcDbLine
 10
89.990871747167
 20
-3193.112971615675
 11
99.990871747167
 21
-3193.112971615675
  0
LINE
  5
1C5
100
AcDbEntity
  8
0
  6
CONTINUOUS
 62
           7
100
AcDbLine
 10
89.990871747167
 20
-3193.112971615675
 11
89.990871747167
 21
-3143.112971615675
  0
LINE
  5
1C4
100
AcDbEntity
  8
0
  6
CONTINUOUS
 62
           7
100
AcDbLine
 10
102.990871747166
 20
-3193.112971615674
 11
112.990871747166
 21
-3193.112971615674
  0
LINE
  5
1C3
100
AcDbEntity
  8
0
  6
CONTINUOUS
 62
           7
100
AcDbLine
 10
99.990871747167
 20
-3193.112971615675
 11
99.990871747167
 21
-3143.112971615675
  0
LINE
  5
1C2
100
AcDbEntity
  8
0
  6
CONTINUOUS
 62
           7
100
AcDbLine
 10
219.990871747166
 20
-3193.112971615674
 11
219.990871747166
 21
-3143.112971615674
  0
LINE
  5
1C1
100
AcDbEntity
  8
0
  6
CONTINUOUS
 62
           7
100
AcDbLine
 10
219.990871747166
 20
-3193.112971615674
 11
229.990871747167
 21
-3193.112971615675
  0
LINE
  5
1C0
100
AcDbEntity
  8
0
  6
CONTINUOUS
 62
           7
100
AcDbLine
 10
219.990871747166
 20
-3143.112971615674
 11
229.990871747167
 21
-3143.112971615675
  0
LINE
  5
1BF
100
AcDbEntity
  8
0
  6
CONTINUOUS
 62
           7
100
AcDbLine
 10
242.990871747166
 20
-3193.112971615674
 11
242.990871747167
 21
-3143.112971615675
  0
LINE
  5
1BE
100
AcDbEntity
  8
0
  6
CONTINUOUS
 62
           7
100
AcDbLine
 10
232.990871747166
 20
-3193.112971615674
 11
232.990871747167
 21
-3143.112971615675
  0
LINE
  5
1BD
100
AcDbEntity
  8
0
  6
CONTINUOUS
 62
           7
100
AcDbLine
 10
229.990871747167
 20
-3193.112971615675
 11
229.990871747167
 21
-3143.112971615675
  0
LINE
  5
1BC
100
AcDbEntity
  8
0
  6
CONTINUOUS
 62
           7
100
AcDbLine
 10
268.990871747166
 20
-3313.112971615674
 11
268.990871747166
 21
-3263.112971615674
  0
LINE
  5
1BB
100
AcDbEntity
  8
0
  6
CONTINUOUS
 62
           7
100
AcDbLine
 10
271.990871747166
 20
-3313.112971615674
 11
271.990871747166
 21
-3263.112971615674
  0
LINE
  5
1BA
100
AcDbEntity
  8
0
  6
CONTINUOUS
 62
           7
100
AcDbLine
 10
255.990871747166
 20
-3313.112971615674
 11
255.990871747166
 21
-3263.112971615674
  0
LINE
  5
1B9
100
AcDbEntity
  8
0
  6
CONTINUOUS
 62
           7
100
AcDbLine
 10
271.990871747166
 20
-3263.112971615674
 11
281.990871747166
 21
-3263.112971615674
  0
LINE
  5
1B8
100
AcDbEntity
  8
0
  6
CONTINUOUS
 62
           7
100
AcDbLine
 10
271.990871747166
 20
-3313.112971615674
 11
281.990871747166
 21
-3313.112971615674
  0
LINE
  5
1B7
100
AcDbEntity
  8
0
  6
CONTINUOUS
 62
           7
100
AcDbLine
 10
245.990871747166
 20
-3313.112971615674
 11
245.990871747166
 21
-3263.112971615674
  0
LINE
  5
1B6
100
AcDbEntity
  8
0
  6
CONTINUOUS
 62
           7
100
AcDbLine
 10
281.990871747166
 20
-3313.112971615674
 11
281.990871747166
 21
-3263.112971615674
  0
LINE
  5
1B5
100
AcDbEntity
  8
0
  6
CONTINUOUS
 62
           7
100
AcDbLine
 10
245.990871747166
 20
-3263.112971615674
 11
255.990871747166
 21
-3263.112971615674
  0
LINE
  5
1B4
100
AcDbEntity
  8
0
  6
CONTINUOUS
 62
           7
100
AcDbLine
 10
258.990871747166
 20
-3263.112971615674
 11
268.990871747166
 21
-3263.112971615674
  0
LINE
  5
1B3
100
AcDbEntity
  8
0
  6
CONTINUOUS
 62
           7
100
AcDbLine
 10
245.990871747166
 20
-3313.112971615674
 11
255.990871747166
 21
-3313.112971615674
  0
LINE
  5
1B2
100
AcDbEntity
  8
0
  6
CONTINUOUS
 62
           7
100
AcDbLine
 10
258.990871747166
 20
-3313.112971615674
 11
268.990871747166
 21
-3313.112971615674
  0
LINE
  5
1B1
100
AcDbEntity
  8
0
  6
CONTINUOUS
 62
           7
100
AcDbLine
 10
258.990871747166
 20
-3313.112971615674
 11
258.990871747166
 21
-3263.112971615674
  0
LINE
  5
1B0
100
AcDbEntity
  8
0
  6
CONTINUOUS
 62
           7
100
AcDbLine
 10
232.990871747166
 20
-3193.112971615674
 11
242.990871747166
 21
-3193.112971615674
  0
LINE
  5
1AF
100
AcDbEntity
  8
0
  6
CONTINUOUS
 62
           7
100
AcDbLine
 10
258.990871747166
 20
-3253.112971615674
 11
268.990871747166
 21
-3253.112971615674
  0
LINE
  5
1AE
100
AcDbEntity
  8
0
  6
CONTINUOUS
 62
           7
100
AcDbLine
 10
284.990871747167
 20
-3253.112971615674
 11
294.990871747167
 21
-3253.112971615674
  0
LINE
  5
1AD
100
AcDbEntity
  8
0
  6
CONTINUOUS
 62
           7
100
AcDbLine
 10
307.990871747166
 20
-3253.112971615674
 11
307.990871747166
 21
-3203.112971615674
  0
LINE
  5
1AC
100
AcDbEntity
  8
0
  6
CONTINUOUS
 62
           7
100
AcDbLine
 10
297.990871747166
 20
-3253.112971615674
 11
297.990871747166
 21
-3203.112971615674
  0
LINE
  5
1AB
100
AcDbEntity
  8
0
  6
CONTINUOUS
 62
           7
100
AcDbLine
 10
297.990871747166
 20
-3253.112971615674
 11
307.990871747166
 21
-3253.112971615674
  0
LINE
  5
1AA
100
AcDbEntity
  8
0
  6
CONTINUOUS
 62
           7
100
AcDbLine
 10
297.990871747166
 20
-3203.112971615674
 11
307.990871747166
 21
-3203.112971615674
  0
LINE
  5
1A9
100
AcDbEntity
  8
0
  6
CONTINUOUS
 62
           7
100
AcDbLine
 10
320.990871747166
 20
-3253.112971615674
 11
320.990871747166
 21
-3203.112971615674
  0
LINE
  5
1A8
100
AcDbEntity
  8
0
  6
CONTINUOUS
 62
           7
100
AcDbLine
 10
284.990871747167
 20
-3203.112971615675
 11
294.990871747167
 21
-3203.112971615675
  0
LINE
  5
1A7
100
AcDbEntity
  8
0
  6
CONTINUOUS
 62
           7
100
AcDbLine
 10
245.990871747166
 20
-3143.112971615674
 11
255.990871747166
 21
-3143.112971615674
  0
LINE
  5
1A6
100
AcDbEntity
  8
0
  6
CONTINUOUS
 62
           7
100
AcDbLine
 10
258.990871747166
 20
-3143.112971615674
 11
268.990871747166
 21
-3143.112971615675
  0
LINE
  5
1A5
100
AcDbEntity
  8
0
  6
CONTINUOUS
 62
           7
100
AcDbLine
 10
258.990871747166
 20
-3193.112971615674
 11
268.990871747166
 21
-3193.112971615675
  0
LINE
  5
1A4
100
AcDbEntity
  8
0
  6
CONTINUOUS
 62
           7
100
AcDbLine
 10
245.990871747166
 20
-3193.112971615674
 11
255.990871747166
 21
-3193.112971615674
  0
LINE
  5
1A3
100
AcDbEntity
  8
0
  6
CONTINUOUS
 62
           7
100
AcDbLine
 10
268.990871747166
 20
-3193.112971615675
 11
268.990871747166
 21
-3143.112971615675
  0
LINE
  5
1A2
100
AcDbEntity
  8
0
  6
CONTINUOUS
 62
           7
100
AcDbLine
 10
219.990871747167
 20
-3253.112971615674
 11
229.990871747167
 21
-3253.112971615674
  0
LINE
  5
1A1
100
AcDbEntity
  8
0
  6
CONTINUOUS
 62
           7
100
AcDbLine
 10
242.990871747166
 20
-3253.112971615674
 11
242.990871747166
 21
-3203.112971615674
  0
LINE
  5
1A0
100
AcDbEntity
  8
0
  6
CONTINUOUS
 62
           7
100
AcDbLine
 10
232.990871747166
 20
-3253.112971615674
 11
232.990871747166
 21
-3203.112971615674
  0
LINE
  5
19F
100
AcDbEntity
  8
0
  6
CONTINUOUS
 62
           7
100
AcDbLine
 10
232.990871747166
 20
-3253.112971615674
 11
242.990871747166
 21
-3253.112971615674
  0
LINE
  5
19E
100
AcDbEntity
  8
0
  6
CONTINUOUS
 62
           7
100
AcDbLine
 10
232.990871747166
 20
-3203.112971615674
 11
242.990871747166
 21
-3203.112971615674
  0
LINE
  5
19D
100
AcDbEntity
  8
0
  6
CONTINUOUS
 62
           7
100
AcDbLine
 10
219.990871747167
 20
-3203.112971615675
 11
229.990871747167
 21
-3203.112971615675
  0
LINE
  5
19C
100
AcDbEntity
  8
0
  6
CONTINUOUS
 62
           7
100
AcDbLine
 10
219.990871747166
 20
-3313.112971615674
 11
219.990871747166
 21
-3263.112971615674
  0
LINE
  5
19B
100
AcDbEntity
  8
0
  6
CONTINUOUS
 62
           7
100
AcDbLine
 10
229.990871747166
 20
-3313.112971615674
 11
229.990871747166
 21
-3263.112971615674
  0
LINE
  5
19A
100
AcDbEntity
  8
0
  6
CONTINUOUS
 62
           7
100
AcDbLine
 10
346.990871747166
 20
-3313.112971615674
 11
346.990871747166
 21
-3263.112971615674
  0
LINE
  5
199
100
AcDbEntity
  8
0
  6
CONTINUOUS
 62
           7
100
AcDbLine
 10
323.990871747166
 20
-3263.112971615674
 11
333.990871747166
 21
-3263.112971615674
  0
LINE
  5
198
100
AcDbEntity
  8
0
  6
CONTINUOUS
 62
           7
100
AcDbLine
 10
294.990871747166
 20
-3313.112971615674
 11
294.990871747166
 21
-3263.112971615674
  0
LINE
  5
197
100
AcDbEntity
  8
0
  6
CONTINUOUS
 62
           7
100
AcDbLine
 10
284.990871747167
 20
-3263.112971615674
 11
294.990871747166
 21
-3263.112971615674
  0
LINE
  5
196
100
AcDbEntity
  8
0
  6
CONTINUOUS
 62
           7
100
AcDbLine
 10
310.990871747167
 20
-3263.112971615674
 11
320.990871747167
 21
-3263.112971615674
  0
LINE
  5
195
100
AcDbEntity
  8
0
  6
CONTINUOUS
 62
           7
100
AcDbLine
 10
307.990871747166
 20
-3313.112971615674
 11
307.990871747166
 21
-3263.112971615674
  0
LINE
  5
194
100
AcDbEntity
  8
0
  6
CONTINUOUS
 62
           7
100
AcDbLine
 10
320.990871747166
 20
-3313.112971615674
 11
320.990871747167
 21
-3263.112971615674
  0
LINE
  5
193
100
AcDbEntity
  8
0
  6
CONTINUOUS
 62
           7
100
AcDbLine
 10
255.990871747166
 20
-3253.112971615674
 11
255.990871747166
 21
-3203.112971615674
  0
LINE
  5
192
100
AcDbEntity
  8
0
  6
CONTINUOUS
 62
           7
100
AcDbLine
 10
245.990871747167
 20
-3253.112971615674
 11
255.990871747166
 21
-3253.112971615674
  0
LINE
  5
191
100
AcDbEntity
  8
0
  6
CONTINUOUS
 62
           7
100
AcDbLine
 10
245.990871747167
 20
-3203.112971615675
 11
255.990871747166
 21
-3203.112971615674
  0
LINE
  5
190
100
AcDbEntity
  8
0
  6
CONTINUOUS
 62
           7
100
AcDbLine
 10
268.990871747166
 20
-3253.112971615674
 11
268.990871747166
 21
-3203.112971615675
  0
LINE
  5
18F
100
AcDbEntity
  8
0
  6
CONTINUOUS
 62
           7
100
AcDbLine
 10
258.990871747166
 20
-3253.112971615674
 11
258.990871747166
 21
-3203.112971615675
  0
LINE
  5
18E
100
AcDbEntity
  8
0
  6
CONTINUOUS
 62
           7
100
AcDbLine
 10
245.990871747167
 20
-3253.112971615674
 11
245.990871747167
 21
-3203.112971615675
  0
LINE
  5
18D
100
AcDbEntity
  8
0
  6
CONTINUOUS
 62
           7
100
AcDbLine
 10
349.990871747166
 20
-3193.112971615674
 11
349.990871747166
 21
-3143.112971615674
  0
LINE
  5
18C
100
AcDbEntity
  8
0
  6
CONTINUOUS
 62
           7
100
AcDbLine
 10
349.990871747166
 20
-3143.112971615674
 11
359.990871747167
 21
-3143.112971615675
  0
LINE
  5
18B
100
AcDbEntity
  8
0
  6
CONTINUOUS
 62
           7
100
AcDbLine
 10
372.990871747166
 20
-3193.112971615674
 11
372.990871747166
 21
-3143.112971615674
  0
LINE
  5
18A
100
AcDbEntity
  8
0
  6
CONTINUOUS
 62
           7
100
AcDbLine
 10
362.990871747166
 20
-3193.112971615674
 11
362.990871747166
 21
-3143.112971615674
  0
LINE
  5
189
100
AcDbEntity
  8
0
  6
CONTINUOUS
 62
           7
100
AcDbLine
 10
362.990871747166
 20
-3193.112971615674
 11
372.990871747166
 21
-3193.112971615674
  0
LINE
  5
188
100
AcDbEntity
  8
0
  6
CONTINUOUS
 62
           7
100
AcDbLine
 10
349.990871747166
 20
-3193.112971615674
 11
359.990871747167
 21
-3193.112971615675
  0
LINE
  5
187
100
AcDbEntity
  8
0
  6
CONTINUOUS
 62
           7
100
AcDbLine
 10
323.990871747166
 20
-3193.112971615675
 11
333.990871747166
 21
-3193.112971615675
  0
LINE
  5
186
100
AcDbEntity
  8
0
  6
CONTINUOUS
 62
           7
100
AcDbLine
 10
346.990871747166
 20
-3193.112971615674
 11
346.990871747166
 21
-3143.112971615674
  0
LINE
  5
185
100
AcDbEntity
  8
0
  6
CONTINUOUS
 62
           7
100
AcDbLine
 10
336.990871747166
 20
-3193.112971615674
 11
336.990871747166
 21
-3143.112971615674
  0
LINE
  5
184
100
AcDbEntity
  8
0
  6
CONTINUOUS
 62
           7
100
AcDbLine
 10
336.990871747166
 20
-3193.112971615674
 11
346.990871747166
 21
-3193.112971615674
  0
LINE
  5
183
100
AcDbEntity
  8
0
  6
CONTINUOUS
 62
           7
100
AcDbLine
 10
336.990871747166
 20
-3143.112971615674
 11
346.990871747166
 21
-3143.112971615674
  0
LINE
  5
182
100
AcDbEntity
  8
0
  6
CONTINUOUS
 62
           7
100
AcDbLine
 10
359.990871747167
 20
-3193.112971615675
 11
359.990871747167
 21
-3143.112971615675
  0
LINE
  5
181
100
AcDbEntity
  8
0
  6
CONTINUOUS
 62
           7
100
AcDbLine
 10
323.990871747166
 20
-3143.112971615675
 11
333.990871747166
 21
-3143.112971615675
  0
LINE
  5
180
100
AcDbEntity
  8
0
  6
CONTINUOUS
 62
           7
100
AcDbLine
 10
362.990871747166
 20
-3143.112971615674
 11
372.990871747166
 21
-3143.112971615674
  0
LINE
  5
17F
100
AcDbEntity
  8
0
  6
CONTINUOUS
 62
           7
100
AcDbLine
 10
375.990871747166
 20
-3193.112971615674
 11
375.990871747166
 21
-3143.112971615674
  0
LINE
  5
17E
100
AcDbEntity
  8
0
  6
CONTINUOUS
 62
           7
100
AcDbLine
 10
375.990871747166
 20
-3193.112971615674
 11
385.990871747167
 21
-3193.112971615675
  0
LINE
  5
17D
100
AcDbEntity
  8
0
  6
CONTINUOUS
 62
           7
100
AcDbLine
 10
375.990871747166
 20
-3143.112971615674
 11
385.990871747167
 21
-3143.112971615675
  0
LINE
  5
17C
100
AcDbEntity
  8
0
  6
CONTINUOUS
 62
           7
100
AcDbLine
 10
398.990871747166
 20
-3193.112971615675
 11
398.990871747166
 21
-3143.112971615675
  0
LINE
  5
17B
100
AcDbEntity
  8
0
  6
CONTINUOUS
 62
           7
100
AcDbLine
 10
388.990871747166
 20
-3193.112971615675
 11
388.990871747166
 21
-3143.112971615675
  0
LINE
  5
17A
100
AcDbEntity
  8
0
  6
CONTINUOUS
 62
           7
100
AcDbLine
 10
385.990871747167
 20
-3193.112971615675
 11
385.990871747167
 21
-3143.112971615675
  0
LINE
  5
179
100
AcDbEntity
  8
0
  6
CONTINUOUS
 62
           7
100
AcDbLine
 10
398.990871747166
 20
-3313.112971615674
 11
398.990871747166
 21
-3263.112971615674
  0
LINE
  5
178
100
AcDbEntity
  8
0
  6
CONTINUOUS
 62
           7
100
AcDbLine
 10
310.990871747166
 20
-3253.112971615674
 11
310.990871747166
 21
-3203.112971615674
  0
LINE
  5
177
100
AcDbEntity
  8
0
  6
CONTINUOUS
 62
           7
100
AcDbLine
 10
154.990871747167
 20
-3253.112971615674
 11
164.990871747167
 21
-3253.112971615674
  0
LINE
  5
176
100
AcDbEntity
  8
0
  6
CONTINUOUS
 62
           7
100
AcDbLine
 10
164.990871747167
 20
-3253.112971615674
 11
164.990871747166
 21
-3203.112971615674
  0
LINE
  5
175
100
AcDbEntity
  8
0
  6
CONTINUOUS
 62
           7
100
AcDbLine
 10
141.990871747166
 20
-3203.112971615675
 11
151.990871747166
 21
-3203.112971615675
  0
LINE
  5
174
100
AcDbEntity
  8
0
  6
CONTINUOUS
 62
           7
100
AcDbLine
 10
141.990871747166
 20
-3253.112971615674
 11
151.990871747166
 21
-3253.112971615674
  0
LINE
  5
173
100
AcDbEntity
  8
0
  6
CONTINUOUS
 62
           7
100
AcDbLine
 10
141.990871747166
 20
-3253.112971615674
 11
141.990871747166
 21
-3203.112971615675
  0
LINE
  5
172
100
AcDbEntity
  8
0
  6
CONTINUOUS
 62
           7
100
AcDbLine
 10
151.990871747166
 20
-3253.112971615674
 11
151.990871747166
 21
-3203.112971615675
  0
LINE
  5
171
100
AcDbEntity
  8
0
  6
CONTINUOUS
 62
           7
100
AcDbLine
 10
154.990871747167
 20
-3253.112971615674
 11
154.990871747166
 21
-3203.112971615674
  0
LINE
  5
170
100
AcDbEntity
  8
0
  6
CONTINUOUS
 62
           7
100
AcDbLine
 10
307.990871747166
 20
-3193.112971615674
 11
307.990871747166
 21
-3143.112971615674
  0
LINE
  5
16F
100
AcDbEntity
  8
0
  6
CONTINUOUS
 62
           7
100
AcDbLine
 10
297.990871747167
 20
-3193.112971615675
 11
307.990871747166
 21
-3193.112971615674
  0
LINE
  5
16E
100
AcDbEntity
  8
0
  6
CONTINUOUS
 62
           7
100
AcDbLine
 10
297.990871747167
 20
-3143.112971615675
 11
307.990871747166
 21
-3143.112971615674
  0
LINE
  5
16D
100
AcDbEntity
  8
0
  6
CONTINUOUS
 62
           7
100
AcDbLine
 10
297.990871747167
 20
-3193.112971615675
 11
297.990871747167
 21
-3143.112971615675
  0
LINE
  5
16C
100
AcDbEntity
  8
0
  6
CONTINUOUS
 62
           7
100
AcDbLine
 10
336.990871747166
 20
-3253.112971615674
 11
336.990871747166
 21
-3203.112971615674
  0
LINE
  5
16B
100
AcDbEntity
  8
0
  6
CONTINUOUS
 62
           7
100
AcDbLine
 10
336.990871747166
 20
-3203.112971615674
 11
346.990871747166
 21
-3203.112971615675
  0
LINE
  5
16A
100
AcDbEntity
  8
0
  6
CONTINUOUS
 62
           7
100
AcDbLine
 10
359.990871747166
 20
-3253.112971615674
 11
359.990871747166
 21
-3203.112971615674
  0
LINE
  5
169
100
AcDbEntity
  8
0
  6
CONTINUOUS
 62
           7
100
AcDbLine
 10
349.990871747166
 20
-3253.112971615674
 11
349.990871747166
 21
-3203.112971615674
  0
LINE
  5
168
100
AcDbEntity
  8
0
  6
CONTINUOUS
 62
           7
100
AcDbLine
 10
349.990871747166
 20
-3253.112971615674
 11
359.990871747166
 21
-3253.112971615674
  0
LINE
  5
167
100
AcDbEntity
  8
0
  6
CONTINUOUS
 62
           7
100
AcDbLine
 10
349.990871747166
 20
-3203.112971615674
 11
359.990871747166
 21
-3203.112971615674
  0
LINE
  5
166
100
AcDbEntity
  8
0
  6
CONTINUOUS
 62
           7
100
AcDbLine
 10
336.990871747166
 20
-3253.112971615674
 11
346.990871747166
 21
-3253.112971615674
  0
LINE
  5
165
100
AcDbEntity
  8
0
  6
CONTINUOUS
 62
           7
100
AcDbLine
 10
310.990871747166
 20
-3253.112971615674
 11
320.990871747166
 21
-3253.112971615674
  0
LINE
  5
164
100
AcDbEntity
  8
0
  6
CONTINUOUS
 62
           7
100
AcDbLine
 10
333.990871747166
 20
-3253.112971615674
 11
333.990871747166
 21
-3203.112971615674
  0
LINE
  5
163
100
AcDbEntity
  8
0
  6
CONTINUOUS
 62
           7
100
AcDbLine
 10
323.990871747166
 20
-3253.112971615674
 11
323.990871747166
 21
-3203.112971615674
  0
LINE
  5
162
100
AcDbEntity
  8
0
  6
CONTINUOUS
 62
           7
100
AcDbLine
 10
323.990871747166
 20
-3253.112971615674
 11
333.990871747166
 21
-3253.112971615674
  0
LINE
  5
161
100
AcDbEntity
  8
0
  6
CONTINUOUS
 62
           7
100
AcDbLine
 10
323.990871747166
 20
-3203.112971615674
 11
333.990871747166
 21
-3203.112971615674
  0
LINE
  5
160
100
AcDbEntity
  8
0
  6
CONTINUOUS
 62
           7
100
AcDbLine
 10
346.990871747166
 20
-3253.112971615674
 11
346.990871747166
 21
-3203.112971615675
  0
LINE
  5
15F
100
AcDbEntity
  8
0
  6
CONTINUOUS
 62
           7
100
AcDbLine
 10
310.990871747166
 20
-3203.112971615674
 11
320.990871747166
 21
-3203.112971615674
  0
LINE
  5
15E
100
AcDbEntity
  8
0
  6
CONTINUOUS
 62
           7
100
AcDbLine
 10
372.990871747166
 20
-3253.112971615674
 11
372.990871747166
 21
-3203.112971615674
  0
LINE
  5
15D
100
AcDbEntity
  8
0
  6
CONTINUOUS
 62
           7
100
AcDbLine
 10
362.990871747167
 20
-3253.112971615674
 11
372.990871747166
 21
-3253.112971615674
  0
LINE
  5
15C
100
AcDbEntity
  8
0
  6
CONTINUOUS
 62
           7
100
AcDbLine
 10
362.990871747167
 20
-3203.112971615675
 11
372.990871747166
 21
-3203.112971615674
  0
LINE
  5
15B
100
AcDbEntity
  8
0
  6
CONTINUOUS
 62
           7
100
AcDbLine
 10
385.990871747166
 20
-3253.112971615674
 11
385.990871747166
 21
-3203.112971615674
  0
LINE
  5
15A
100
AcDbEntity
  8
0
  6
CONTINUOUS
 62
           7
100
AcDbLine
 10
375.990871747166
 20
-3253.112971615674
 11
375.990871747166
 21
-3203.112971615674
  0
LINE
  5
159
100
AcDbEntity
  8
0
  6
CONTINUOUS
 62
           7
100
AcDbLine
 10
375.990871747166
 20
-3253.112971615674
 11
385.990871747166
 21
-3253.112971615674
  0
LINE
  5
158
100
AcDbEntity
  8
0
  6
CONTINUOUS
 62
           7
100
AcDbLine
 10
362.990871747167
 20
-3253.112971615674
 11
362.990871747167
 21
-3203.112971615675
  0
LINE
  5
157
100
AcDbEntity
  8
0
  6
CONTINUOUS
 62
           7
100
AcDbLine
 10
375.990871747166
 20
-3203.112971615674
 11
385.990871747166
 21
-3203.112971615674
  0
LINE
  5
156
100
AcDbEntity
  8
0
  6
CONTINUOUS
 62
           7
100
AcDbLine
 10
388.990871747166
 20
-3253.112971615674
 11
388.990871747166
 21
-3203.112971615674
  0
LINE
  5
155
100
AcDbEntity
  8
0
  6
CONTINUOUS
 62
           7
100
AcDbLine
 10
388.990871747166
 20
-3253.112971615674
 11
398.990871747166
 21
-3253.112971615674
  0
LINE
  5
154
100
AcDbEntity
  8
0
  6
CONTINUOUS
 62
           7
100
AcDbLine
 10
388.990871747166
 20
-3203.112971615674
 11
398.990871747166
 21
-3203.112971615675
  0
LINE
  5
153
100
AcDbEntity
  8
0
  6
CONTINUOUS
 62
           7
100
AcDbLine
 10
411.990871747166
 20
-3253.112971615674
 11
411.990871747166
 21
-3203.112971615674
  0
LINE
  5
152
100
AcDbEntity
  8
0
  6
CONTINUOUS
 62
           7
100
AcDbLine
 10
401.990871747166
 20
-3253.112971615674
 11
401.990871747166
 21
-3203.112971615674
  0
LINE
  5
151
100
AcDbEntity
  8
0
  6
CONTINUOUS
 62
           7
100
AcDbLine
 10
398.990871747166
 20
-3253.112971615674
 11
398.990871747166
 21
-3203.112971615675
  0
LINE
  5
150
100
AcDbEntity
  8
0
  6
CONTINUOUS
 62
           7
100
AcDbLine
 10
271.990871747166
 20
-3193.112971615674
 11
271.990871747166
 21
-3143.112971615674
  0
LINE
  5
14F
100
AcDbEntity
  8
0
  6
CONTINUOUS
 62
           7
100
AcDbLine
 10
271.990871747166
 20
-3143.112971615674
 11
281.990871747166
 21
-3143.112971615674
  0
LINE
  5
14E
100
AcDbEntity
  8
0
  6
CONTINUOUS
 62
           7
100
AcDbLine
 10
294.990871747166
 20
-3193.112971615674
 11
294.990871747166
 21
-3143.112971615674
  0
LINE
  5
14D
100
AcDbEntity
  8
0
  6
CONTINUOUS
 62
           7
100
AcDbLine
 10
284.990871747166
 20
-3193.112971615674
 11
284.990871747166
 21
-3143.112971615674
  0
LINE
  5
14C
100
AcDbEntity
  8
0
  6
CONTINUOUS
 62
           7
100
AcDbLine
 10
284.990871747166
 20
-3193.112971615674
 11
294.990871747166
 21
-3193.112971615674
  0
LINE
  5
14B
100
AcDbEntity
  8
0
  6
CONTINUOUS
 62
           7
100
AcDbLine
 10
284.990871747166
 20
-3143.112971615674
 11
294.990871747166
 21
-3143.112971615674
  0
LINE
  5
14A
100
AcDbEntity
  8
0
  6
CONTINUOUS
 62
           7
100
AcDbLine
 10
271.990871747166
 20
-3193.112971615674
 11
281.990871747166
 21
-3193.112971615674
  0
LINE
  5
149
100
AcDbEntity
  8
0
  6
CONTINUOUS
 62
           7
100
AcDbLine
 10
190.990871747166
 20
-3253.112971615674
 11
190.990871747166
 21
-3203.112971615674
  0
LINE
  5
148
100
AcDbEntity
  8
0
  6
CONTINUOUS
 62
           7
100
AcDbLine
 10
167.990871747167
 20
-3253.112971615674
 11
177.990871747167
 21
-3253.112971615674
  0
LINE
  5
147
100
AcDbEntity
  8
0
  6
CONTINUOUS
 62
           7
100
AcDbLine
 10
167.990871747167
 20
-3253.112971615674
 11
167.990871747166
 21
-3203.112971615674
  0
LINE
  5
146
100
AcDbEntity
  8
0
  6
CONTINUOUS
 62
           7
100
AcDbLine
 10
177.990871747167
 20
-3253.112971615674
 11
177.990871747166
 21
-3203.112971615674
  0
LINE
  5
145
100
AcDbEntity
  8
0
  6
CONTINUOUS
 62
           7
100
AcDbLine
 10
154.990871747166
 20
-3203.112971615674
 11
164.990871747166
 21
-3203.112971615674
  0
LINE
  5
144
100
AcDbEntity
  8
0
  6
CONTINUOUS
 62
           7
100
AcDbLine
 10
167.990871747166
 20
-3203.112971615674
 11
177.990871747166
 21
-3203.112971615674
  0
LINE
  5
143
100
AcDbEntity
  8
0
  6
CONTINUOUS
 62
           7
100
AcDbLine
 10
193.990871747166
 20
-3253.112971615674
 11
203.990871747166
 21
-3253.112971615674
  0
LINE
  5
142
100
AcDbEntity
  8
0
  6
CONTINUOUS
 62
           7
100
AcDbLine
 10
203.990871747166
 20
-3253.112971615674
 11
203.990871747166
 21
-3203.112971615674
  0
LINE
  5
141
100
AcDbEntity
  8
0
  6
CONTINUOUS
 62
           7
100
AcDbLine
 10
180.990871747167
 20
-3203.112971615675
 11
190.990871747166
 21
-3203.112971615674
  0
LINE
  5
140
100
AcDbEntity
  8
0
  6
CONTINUOUS
 62
           7
100
AcDbLine
 10
180.990871747167
 20
-3253.112971615674
 11
190.990871747166
 21
-3253.112971615674
  0
LINE
  5
13F
100
AcDbEntity
  8
0
  6
CONTINUOUS
 62
           7
100
AcDbLine
 10
180.990871747167
 20
-3253.112971615674
 11
180.990871747167
 21
-3203.112971615675
  0
LINE
  5
13E
100
AcDbEntity
  8
0
  6
CONTINUOUS
 62
           7
100
AcDbLine
 10
193.990871747166
 20
-3253.112971615674
 11
193.990871747166
 21
-3203.112971615674
  0
LINE
  5
13D
100
AcDbEntity
  8
0
  6
CONTINUOUS
 62
           7
100
AcDbLine
 10
427.990871747166
 20
-3313.112971615674
 11
427.990871747166
 21
-3263.112971615674
  0
LINE
  5
13C
100
AcDbEntity
  8
0
  6
CONTINUOUS
 62
           7
100
AcDbLine
 10
427.990871747166
 20
-3263.112971615674
 11
437.990871747167
 21
-3263.112971615674
  0
LINE
  5
13B
100
AcDbEntity
  8
0
  6
CONTINUOUS
 62
           7
100
AcDbLine
 10
450.990871747166
 20
-3313.112971615674
 11
450.990871747166
 21
-3263.112971615674
  0
LINE
  5
13A
100
AcDbEntity
  8
0
  6
CONTINUOUS
 62
           7
100
AcDbLine
 10
440.990871747166
 20
-3313.112971615674
 11
440.990871747166
 21
-3263.112971615674
  0
LINE
  5
139
100
AcDbEntity
  8
0
  6
CONTINUOUS
 62
           7
100
AcDbLine
 10
440.990871747166
 20
-3313.112971615674
 11
450.990871747166
 21
-3313.112971615674
  0
LINE
  5
138
100
AcDbEntity
  8
0
  6
CONTINUOUS
 62
           7
100
AcDbLine
 10
427.990871747166
 20
-3313.112971615674
 11
437.990871747167
 21
-3313.112971615674
  0
LINE
  5
137
100
AcDbEntity
  8
0
  6
CONTINUOUS
 62
           7
100
AcDbLine
 10
388.990871747166
 20
-3313.112971615674
 11
388.990871747166
 21
-3263.112971615674
  0
LINE
  5
136
100
AcDbEntity
  8
0
  6
CONTINUOUS
 62
           7
100
AcDbLine
 10
388.990871747166
 20
-3263.112971615674
 11
398.990871747166
 21
-3263.112971615674
  0
LINE
  5
135
100
AcDbEntity
  8
0
  6
CONTINUOUS
 62
           7
100
AcDbLine
 10
411.990871747166
 20
-3313.112971615674
 11
411.990871747166
 21
-3263.112971615674
  0
LINE
  5
134
100
AcDbEntity
  8
0
  6
CONTINUOUS
 62
           7
100
AcDbLine
 10
401.990871747166
 20
-3313.112971615674
 11
401.990871747166
 21
-3263.112971615674
  0
LINE
  5
133
100
AcDbEntity
  8
0
  6
CONTINUOUS
 62
           7
100
AcDbLine
 10
401.990871747166
 20
-3313.112971615674
 11
411.990871747166
 21
-3313.112971615674
  0
LINE
  5
132
100
AcDbEntity
  8
0
  6
CONTINUOUS
 62
           7
100
AcDbLine
 10
388.990871747166
 20
-3313.112971615674
 11
398.990871747166
 21
-3313.112971615674
  0
LINE
  5
131
100
AcDbEntity
  8
0
  6
CONTINUOUS
 62
           7
100
AcDbLine
 10
401.990871747166
 20
-3263.112971615674
 11
411.990871747166
 21
-3263.112971615674
  0
LINE
  5
130
100
AcDbEntity
  8
0
  6
CONTINUOUS
 62
           7
100
AcDbLine
 10
414.990871747166
 20
-3313.112971615674
 11
414.990871747166
 21
-3263.112971615674
  0
LINE
  5
12F
100
AcDbEntity
  8
0
  6
CONTINUOUS
 62
           7
100
AcDbLine
 10
414.990871747166
 20
-3313.112971615674
 11
424.990871747167
 21
-3313.112971615674
  0
LINE
  5
12E
100
AcDbEntity
  8
0
  6
CONTINUOUS
 62
           7
100
AcDbLine
 10
414.990871747166
 20
-3263.112971615674
 11
424.990871747167
 21
-3263.112971615674
  0
LINE
  5
12D
100
AcDbEntity
  8
0
  6
CONTINUOUS
 62
           7
100
AcDbLine
 10
437.990871747167
 20
-3313.112971615674
 11
437.990871747167
 21
-3263.112971615674
  0
LINE
  5
12C
100
AcDbEntity
  8
0
  6
CONTINUOUS
 62
           7
100
AcDbLine
 10
424.990871747167
 20
-3313.112971615674
 11
424.990871747167
 21
-3263.112971615674
  0
LINE
  5
12B
100
AcDbEntity
  8
0
  6
CONTINUOUS
 62
           7
100
AcDbLine
 10
281.990871747166
 20
-3253.112971615674
 11
281.990871747166
 21
-3203.112971615674
  0
LINE
  5
12A
100
AcDbEntity
  8
0
  6
CONTINUOUS
 62
           7
100
AcDbLine
 10
271.990871747166
 20
-3253.112971615674
 11
281.990871747166
 21
-3253.112971615674
  0
LINE
  5
129
100
AcDbEntity
  8
0
  6
CONTINUOUS
 62
           7
100
AcDbLine
 10
271.990871747166
 20
-3203.112971615675
 11
281.990871747166
 21
-3203.112971615674
  0
LINE
  5
128
100
AcDbEntity
  8
0
  6
CONTINUOUS
 62
           7
100
AcDbLine
 10
294.990871747167
 20
-3253.112971615674
 11
294.990871747167
 21
-3203.112971615675
  0
LINE
  5
127
100
AcDbEntity
  8
0
  6
CONTINUOUS
 62
           7
100
AcDbLine
 10
284.990871747167
 20
-3253.112971615674
 11
284.990871747167
 21
-3203.112971615675
  0
LINE
  5
126
100
AcDbEntity
  8
0
  6
CONTINUOUS
 62
           7
100
AcDbLine
 10
271.990871747166
 20
-3253.112971615674
 11
271.990871747166
 21
-3203.112971615675
  0
LINE
  5
125
100
AcDbEntity
  8
0
  6
CONTINUOUS
 62
           7
100
AcDbLine
 10
440.990871747166
 20
-3263.112971615674
 11
450.990871747166
 21
-3263.112971615674
  0
LINE
  5
124
100
AcDbEntity
  8
0
  6
CONTINUOUS
 62
           7
100
AcDbLine
 10
206.990871747166
 20
-3253.112971615674
 11
216.990871747166
 21
-3253.112971615674
  0
LINE
  5
123
100
AcDbEntity
  8
0
  6
CONTINUOUS
 62
           7
100
AcDbLine
 10
206.990871747166
 20
-3253.112971615674
 11
206.990871747166
 21
-3203.112971615674
  0
LINE
  5
122
100
AcDbEntity
  8
0
  6
CONTINUOUS
 62
           7
100
AcDbLine
 10
216.990871747166
 20
-3253.112971615674
 11
216.990871747166
 21
-3203.112971615674
  0
LINE
  5
121
100
AcDbEntity
  8
0
  6
CONTINUOUS
 62
           7
100
AcDbLine
 10
193.990871747166
 20
-3203.112971615674
 11
203.990871747166
 21
-3203.112971615674
  0
LINE
  5
120
100
AcDbEntity
  8
0
  6
CONTINUOUS
 62
           7
100
AcDbLine
 10
206.990871747166
 20
-3203.112971615674
 11
216.990871747166
 21
-3203.112971615674
  0
LINE
  5
11F
100
AcDbEntity
  8
0
  6
CONTINUOUS
 62
           7
100
AcDbLine
 10
362.990871747167
 20
-3313.112971615674
 11
372.990871747167
 21
-3313.112971615674
  0
LINE
  5
11E
100
AcDbEntity
  8
0
  6
CONTINUOUS
 62
           7
100
AcDbLine
 10
385.990871747166
 20
-3313.112971615674
 11
385.990871747166
 21
-3263.112971615674
  0
LINE
  5
11D
100
AcDbEntity
  8
0
  6
CONTINUOUS
 62
           7
100
AcDbLine
 10
375.990871747166
 20
-3313.112971615674
 11
375.990871747166
 21
-3263.112971615674
  0
LINE
  5
11C
100
AcDbEntity
  8
0
  6
CONTINUOUS
 62
           7
100
AcDbLine
 10
375.990871747166
 20
-3313.112971615674
 11
385.990871747166
 21
-3313.112971615674
  0
LINE
  5
11B
100
AcDbEntity
  8
0
  6
CONTINUOUS
 62
           7
100
AcDbLine
 10
375.990871747166
 20
-3263.112971615674
 11
385.990871747166
 21
-3263.112971615674
  0
LINE
  5
11A
100
AcDbEntity
  8
0
  6
CONTINUOUS
 62
           7
100
AcDbLine
 10
362.990871747167
 20
-3263.112971615674
 11
372.990871747167
 21
-3263.112971615674
  0
LINE
  5
119
100
AcDbEntity
  8
0
  6
CONTINUOUS
 62
           7
100
AcDbLine
 10
128.990871747166
 20
-3193.112971615675
 11
138.990871747166
 21
-3193.112971615675
  0
LINE
  5
118
100
AcDbEntity
  8
0
  6
CONTINUOUS
 62
           7
100
AcDbLine
 10
138.990871747166
 20
-3193.112971615675
 11
138.990871747166
 21
-3143.112971615674
  0
LINE
  5
117
100
AcDbEntity
  8
0
  6
CONTINUOUS
 62
           7
100
AcDbLine
 10
115.990871747167
 20
-3143.112971615675
 11
125.990871747167
 21
-3143.112971615675
  0
LINE
  5
116
100
AcDbEntity
  8
0
  6
CONTINUOUS
 62
           7
100
AcDbLine
 10
115.990871747167
 20
-3193.112971615675
 11
125.990871747167
 21
-3193.112971615675
  0
LINE
  5
115
100
AcDbEntity
  8
0
  6
CONTINUOUS
 62
           7
100
AcDbLine
 10
115.990871747167
 20
-3193.112971615675
 11
115.990871747167
 21
-3143.112971615675
  0
LINE
  5
114
100
AcDbEntity
  8
0
  6
CONTINUOUS
 62
           7
100
AcDbLine
 10
125.990871747167
 20
-3193.112971615675
 11
125.990871747167
 21
-3143.112971615675
  0
LINE
  5
113
100
AcDbEntity
  8
0
  6
CONTINUOUS
 62
           7
100
AcDbLine
 10
128.990871747166
 20
-3193.112971615675
 11
128.990871747166
 21
-3143.112971615674
  0
LINE
  5
112
100
AcDbEntity
  8
0
  6
CONTINUOUS
 62
           7
100
AcDbLine
 10
164.990871747166
 20
-3193.112971615674
 11
164.990871747166
 21
-3143.112971615674
  0
LINE
  5
111
100
AcDbEntity
  8
0
  6
CONTINUOUS
 62
           7
100
AcDbLine
 10
141.990871747166
 20
-3193.112971615675
 11
151.990871747166
 21
-3193.112971615675
  0
LINE
  5
110
100
AcDbEntity
  8
0
  6
CONTINUOUS
 62
           7
100
AcDbLine
 10
141.990871747166
 20
-3193.112971615675
 11
141.990871747166
 21
-3143.112971615674
  0
LINE
  5
10F
100
AcDbEntity
  8
0
  6
CONTINUOUS
 62
           7
100
AcDbLine
 10
151.990871747166
 20
-3193.112971615675
 11
151.990871747166
 21
-3143.112971615674
  0
LINE
  5
10E
100
AcDbEntity
  8
0
  6
CONTINUOUS
 62
           7
100
AcDbLine
 10
128.990871747166
 20
-3143.112971615674
 11
138.990871747166
 21
-3143.112971615674
  0
LINE
  5
10D
100
AcDbEntity
  8
0
  6
CONTINUOUS
 62
           7
100
AcDbLine
 10
141.990871747166
 20
-3143.112971615674
 11
151.990871747166
 21
-3143.112971615674
  0
LINE
  5
10C
100
AcDbEntity
  8
0
  6
CONTINUOUS
 62
           7
100
AcDbLine
 10
167.990871747167
 20
-3193.112971615675
 11
177.990871747167
 21
-3193.112971615675
  0
LINE
  5
10B
100
AcDbEntity
  8
0
  6
CONTINUOUS
 62
           7
100
AcDbLine
 10
177.990871747167
 20
-3193.112971615675
 11
177.990871747166
 21
-3143.112971615674
  0
LINE
  5
10A
100
AcDbEntity
  8
0
  6
CONTINUOUS
 62
           7
100
AcDbLine
 10
154.990871747167
 20
-3143.112971615675
 11
164.990871747166
 21
-3143.112971615674
  0
LINE
  5
109
100
AcDbEntity
  8
0
  6
CONTINUOUS
 62
           7
100
AcDbLine
 10
154.990871747167
 20
-3193.112971615675
 11
164.990871747166
 21
-3193.112971615674
  0
LINE
  5
108
100
AcDbEntity
  8
0
  6
CONTINUOUS
 62
           7
100
AcDbLine
 10
154.990871747167
 20
-3193.112971615675
 11
154.990871747167
 21
-3143.112971615675
  0
LINE
  5
107
100
AcDbEntity
  8
0
  6
CONTINUOUS
 62
           7
100
AcDbLine
 10
167.990871747167
 20
-3193.112971615675
 11
167.990871747166
 21
-3143.112971615674
  0
LINE
  5
106
100
AcDbEntity
  8
0
  6
CONTINUOUS
 62
           7
100
AcDbLine
 10
206.990871747166
 20
-3143.112971615675
 11
216.990871747166
 21
-3143.112971615675
  0
LINE
  5
105
100
AcDbEntity
  8
0
  6
CONTINUOUS
 62
           7
100
AcDbLine
 10
206.990871747166
 20
-3193.112971615674
 11
206.990871747166
 21
-3143.112971615675
  0
LINE
  5
104
100
AcDbEntity
  8
0
  6
CONTINUOUS
 62
           7
100
AcDbLine
 10
216.990871747166
 20
-3193.112971615674
 11
216.990871747166
 21
-3143.112971615675
  0
LINE
  5
103
100
AcDbEntity
  8
0
  6
CONTINUOUS
 62
           7
100
AcDbLine
 10
193.990871747166
 20
-3143.112971615675
 11
203.990871747166
 21
-3143.112971615675
  0
LINE
  5
102
100
AcDbEntity
  8
0
  6
CONTINUOUS
 62
           7
100
AcDbLine
 10
193.990871747166
 20
-3193.112971615675
 11
203.990871747166
 21
-3193.112971615675
  0
LINE
  5
101
100
AcDbEntity
  8
0
  6
CONTINUOUS
 62
           7
100
AcDbLine
 10
193.990871747166
 20
-3193.112971615675
 11
193.990871747166
 21
-3143.112971615675
  0
LINE
  5
100
100
AcDbEntity
  8
0
  6
CONTINUOUS
 62
           7
100
AcDbLine
 10
206.990871747166
 20
-3193.112971615674
 11
216.990871747166
 21
-3193.112971615674
  0
LINE
  5
FF
100
AcDbEntity
  8
0
  6
CONTINUOUS
 62
           7
100
AcDbLine
 10
128.990871747166
 20
-3253.112971615674
 11
128.990871747166
 21
-3203.112971615675
  0
LINE
  5
FE
100
AcDbEntity
  8
0
  6
CONTINUOUS
 62
           7
100
AcDbLine
 10
115.990871747166
 20
-3203.112971615674
 11
125.990871747166
 21
-3203.112971615674
  0
LINE
  5
FD
100
AcDbEntity
  8
0
  6
CONTINUOUS
 62
           7
100
AcDbLine
 10
115.990871747166
 20
-3253.112971615674
 11
125.990871747166
 21
-3253.112971615674
  0
LINE
  5
FC
100
AcDbEntity
  8
0
  6
CONTINUOUS
 62
           7
100
AcDbLine
 10
138.990871747166
 20
-3253.112971615674
 11
138.990871747166
 21
-3203.112971615675
  0
LINE
  5
FB
100
AcDbEntity
  8
0
  6
CONTINUOUS
 62
           7
100
AcDbLine
 10
203.990871747166
 20
-3193.112971615675
 11
203.990871747166
 21
-3143.112971615675
  0
LINE
  5
FA
100
AcDbEntity
  8
0
  6
CONTINUOUS
 62
           7
100
AcDbLine
 10
180.990871747167
 20
-3193.112971615675
 11
190.990871747167
 21
-3193.112971615675
  0
LINE
  5
F9
100
AcDbEntity
  8
0
  6
CONTINUOUS
 62
           7
100
AcDbLine
 10
180.990871747167
 20
-3193.112971615675
 11
180.990871747166
 21
-3143.112971615674
  0
LINE
  5
F8
100
AcDbEntity
  8
0
  6
CONTINUOUS
 62
           7
100
AcDbLine
 10
190.990871747167
 20
-3193.112971615675
 11
190.990871747166
 21
-3143.112971615674
  0
LINE
  5
F7
100
AcDbEntity
  8
0
  6
CONTINUOUS
 62
           7
100
AcDbLine
 10
167.990871747166
 20
-3143.112971615674
 11
177.990871747166
 21
-3143.112971615674
  0
LINE
  5
F6
100
AcDbEntity
  8
0
  6
CONTINUOUS
 62
           7
100
AcDbLine
 10
180.990871747166
 20
-3143.112971615674
 11
190.990871747166
 21
-3143.112971615674
  0
LINE
  5
F5
100
AcDbEntity
  8
0
  6
CONTINUOUS
 62
           7
100
AcDbLine
 10
401.990871747166
 20
-3253.112971615674
 11
411.990871747166
 21
-3253.112971615674
  0
LINE
  5
F4
100
AcDbEntity
  8
0
  6
CONTINUOUS
 62
           7
100
AcDbLine
 10
424.990871747166
 20
-3253.112971615674
 11
424.990871747166
 21
-3203.112971615674
  0
LINE
  5
F3
100
AcDbEntity
  8
0
  6
CONTINUOUS
 62
           7
100
AcDbLine
 10
414.990871747166
 20
-3253.112971615674
 11
414.990871747166
 21
-3203.112971615674
  0
LINE
  5
F2
100
AcDbEntity
  8
0
  6
CONTINUOUS
 62
           7
100
AcDbLine
 10
414.990871747166
 20
-3253.112971615674
 11
424.990871747166
 21
-3253.112971615674
  0
LINE
  5
F1
100
AcDbEntity
  8
0
  6
CONTINUOUS
 62
           7
100
AcDbLine
 10
414.990871747166
 20
-3203.112971615674
 11
424.990871747166
 21
-3203.112971615674
  0
LINE
  5
F0
100
AcDbEntity
  8
0
  6
CONTINUOUS
 62
           7
100
AcDbLine
 10
437.990871747166
 20
-3253.112971615674
 11
437.990871747166
 21
-3203.112971615674
  0
LINE
  5
EF
100
AcDbEntity
  8
0
  6
CONTINUOUS
 62
           7
100
AcDbLine
 10
401.990871747166
 20
-3203.112971615674
 11
411.990871747166
 21
-3203.112971615674
  0
LINE
  5
EE
100
AcDbEntity
  8
0
  6
CONTINUOUS
 62
           7
100
AcDbLine
 10
89.990871747167
 20
-3203.112971615675
 11
99.990871747167
 21
-3203.112971615675
  0
LINE
  5
ED
100
AcDbEntity
  8
0
  6
CONTINUOUS
 62
           7
100
AcDbLine
 10
89.990871747166
 20
-3253.112971615674
 11
89.990871747167
 21
-3203.112971615675
  0
LINE
  5
EC
100
AcDbEntity
  8
0
  6
CONTINUOUS
 62
           7
100
AcDbLine
 10
99.990871747166
 20
-3253.112971615674
 11
99.990871747167
 21
-3203.112971615675
  0
LINE
  5
EB
100
AcDbEntity
  8
0
  6
CONTINUOUS
 62
           7
100
AcDbLine
 10
229.990871747167
 20
-3253.112971615674
 11
229.990871747167
 21
-3203.112971615675
  0
LINE
  5
EA
100
AcDbEntity
  8
0
  6
CONTINUOUS
 62
           7
100
AcDbLine
 10
219.990871747167
 20
-3253.112971615674
 11
219.990871747167
 21
-3203.112971615675
  0
LINE
  5
E9
100
AcDbEntity
  8
0
  6
CONTINUOUS
 62
           7
100
AcDbLine
 10
89.990871747166
 20
-3253.112971615674
 11
99.990871747166
 21
-3253.112971615674
  0
LINE
  5
E8
100
AcDbEntity
  8
0
  6
CONTINUOUS
 62
           7
100
AcDbLine
 10
427.990871747166
 20
-3253.112971615674
 11
427.990871747166
 21
-3203.112971615674
  0
LINE
  5
E7
100
AcDbEntity
  8
0
  6
CONTINUOUS
 62
           7
100
AcDbLine
 10
427.990871747166
 20
-3203.112971615674
 11
437.990871747166
 21
-3203.112971615674
  0
LINE
  5
E6
100
AcDbEntity
  8
0
  6
CONTINUOUS
 62
           7
100
AcDbLine
 10
450.990871747166
 20
-3253.112971615674
 11
450.990871747166
 21
-3203.112971615674
  0
LINE
  5
E5
100
AcDbEntity
  8
0
  6
CONTINUOUS
 62
           7
100
AcDbLine
 10
440.990871747166
 20
-3253.112971615674
 11
440.990871747166
 21
-3203.112971615674
  0
LINE
  5
E4
100
AcDbEntity
  8
0
  6
CONTINUOUS
 62
           7
100
AcDbLine
 10
440.990871747166
 20
-3253.112971615674
 11
450.990871747166
 21
-3253.112971615674
  0
LINE
  5
E3
100
AcDbEntity
  8
0
  6
CONTINUOUS
 62
           7
100
AcDbLine
 10
440.990871747166
 20
-3203.112971615674
 11
450.990871747166
 21
-3203.112971615674
  0
LINE
  5
E2
100
AcDbEntity
  8
0
  6
CONTINUOUS
 62
           7
100
AcDbLine
 10
427.990871747166
 20
-3253.112971615674
 11
437.990871747166
 21
-3253.112971615674
  0
LINE
  5
E1
100
AcDbEntity
  8
0
  6
CONTINUOUS
 62
           7
100
AcDbLine
 10
310.990871747166
 20
-3193.112971615674
 11
310.990871747166
 21
-3143.112971615674
  0
LINE
  5
E0
100
AcDbEntity
  8
0
  6
CONTINUOUS
 62
           7
100
AcDbLine
 10
320.990871747166
 20
-3193.112971615674
 11
320.990871747166
 21
-3143.112971615674
  0
LINE
  5
DF
100
AcDbEntity
  8
0
  6
CONTINUOUS
 62
           7
100
AcDbLine
 10
310.990871747166
 20
-3193.112971615674
 11
320.990871747166
 21
-3193.112971615674
  0
LINE
  5
DE
100
AcDbEntity
  8
0
  6
CONTINUOUS
 62
           7
100
AcDbLine
 10
323.990871747166
 20
-3193.112971615675
 11
323.990871747166
 21
-3143.112971615675
  0
LINE
  5
DD
100
AcDbEntity
  8
0
  6
CONTINUOUS
 62
           7
100
AcDbLine
 10
310.990871747166
 20
-3143.112971615674
 11
320.990871747166
 21
-3143.112971615674
  0
LINE
  5
DC
100
AcDbEntity
  8
0
  6
CONTINUOUS
 62
           7
100
AcDbLine
 10
333.990871747166
 20
-3193.112971615675
 11
333.990871747166
 21
-3143.112971615675
  0
LINE
  5
DB
100
AcDbEntity
  8
0
  6
CONTINUOUS
 62
           7
100
AcDbLine
 10
180.990871747166
 20
-3313.112971615674
 11
180.990871747166
 21
-3263.112971615674
  0
LINE
  5
DA
100
AcDbEntity
  8
0
  6
CONTINUOUS
 62
           7
100
AcDbLine
 10
203.990871747166
 20
-3313.112971615674
 11
203.990871747166
 21
-3263.112971615674
  0
LINE
  5
D9
100
AcDbEntity
  8
0
  6
CONTINUOUS
 62
           7
100
AcDbLine
 10
180.990871747166
 20
-3313.112971615674
 11
190.990871747167
 21
-3313.112971615674
  0
LINE
  5
D8
100
AcDbEntity
  8
0
  6
CONTINUOUS
 62
           7
100
AcDbLine
 10
180.990871747166
 20
-3263.112971615674
 11
190.990871747167
 21
-3263.112971615674
  0
LINE
  5
D7
100
AcDbEntity
  8
0
  6
CONTINUOUS
 62
           7
100
AcDbLine
 10
193.990871747166
 20
-3313.112971615674
 11
193.990871747166
 21
-3263.112971615674
  0
LINE
  5
D6
100
AcDbEntity
  8
0
  6
CONTINUOUS
 62
           7
100
AcDbLine
 10
372.990871747167
 20
-3313.112971615674
 11
372.990871747167
 21
-3263.112971615674
  0
LINE
  5
D5
100
AcDbEntity
  8
0
  6
CONTINUOUS
 62
           7
100
AcDbLine
 10
359.990871747166
 20
-3313.112971615674
 11
359.990871747166
 21
-3263.112971615674
  0
LINE
  5
D4
100
AcDbEntity
  8
0
  6
CONTINUOUS
 62
           7
100
AcDbLine
 10
323.990871747166
 20
-3313.112971615674
 11
323.990871747166
 21
-3263.112971615674
  0
LINE
  5
D3
100
AcDbEntity
  8
0
  6
CONTINUOUS
 62
           7
100
AcDbLine
 10
333.990871747166
 20
-3313.112971615674
 11
333.990871747166
 21
-3263.112971615674
  0
LINE
  5
D2
100
AcDbEntity
  8
0
  6
CONTINUOUS
 62
           7
100
AcDbLine
 10
362.990871747167
 20
-3313.112971615674
 11
362.990871747167
 21
-3263.112971615674
  0
LINE
  5
D1
100
AcDbEntity
  8
0
  6
CONTINUOUS
 62
           7
100
AcDbLine
 10
349.990871747167
 20
-3263.112971615674
 11
359.990871747166
 21
-3263.112971615674
  0
LINE
  5
D0
100
AcDbEntity
  8
0
  6
CONTINUOUS
 62
           7
100
AcDbLine
 10
336.990871747166
 20
-3313.112971615674
 11
346.990871747166
 21
-3313.112971615674
  0
LINE
  5
CF
100
AcDbEntity
  8
0
  6
CONTINUOUS
 62
           7
100
AcDbLine
 10
323.990871747166
 20
-3313.112971615674
 11
333.990871747166
 21
-3313.112971615674
  0
LINE
  5
CE
100
AcDbEntity
  8
0
  6
CONTINUOUS
 62
           7
100
AcDbLine
 10
349.990871747167
 20
-3313.112971615674
 11
359.990871747166
 21
-3313.112971615674
  0
LINE
  5
CD
100
AcDbEntity
  8
0
  6
CONTINUOUS
 62
           7
100
AcDbLine
 10
336.990871747166
 20
-3263.112971615674
 11
346.990871747166
 21
-3263.112971615674
  0
LINE
  5
CC
100
AcDbEntity
  8
0
  6
CONTINUOUS
 62
           7
100
AcDbLine
 10
206.990871747166
 20
-3313.112971615674
 11
206.990871747166
 21
-3263.112971615674
  0
LINE
  5
CB
100
AcDbEntity
  8
0
  6
CONTINUOUS
 62
           7
100
AcDbLine
 10
206.990871747166
 20
-3313.112971615674
 11
216.990871747166
 21
-3313.112971615674
  0
LINE
  5
CA
100
AcDbEntity
  8
0
  6
CONTINUOUS
 62
           7
100
AcDbLine
 10
193.990871747166
 20
-3263.112971615674
 11
203.990871747166
 21
-3263.112971615674
  0
LINE
  5
C9
100
AcDbEntity
  8
0
  6
CONTINUOUS
 62
           7
100
AcDbLine
 10
193.990871747166
 20
-3313.112971615674
 11
203.990871747166
 21
-3313.112971615674
  0
LINE
  5
C8
100
AcDbEntity
  8
0
  6
CONTINUOUS
 62
           7
100
AcDbLine
 10
206.990871747166
 20
-3263.112971615674
 11
216.990871747166
 21
-3263.112971615674
  0
LINE
  5
C7
100
AcDbEntity
  8
0
  6
CONTINUOUS
 62
           7
100
AcDbLine
 10
216.990871747166
 20
-3313.112971615674
 11
216.990871747166
 21
-3263.112971615674
  0
LINE
  5
C6
100
AcDbEntity
  8
0
  6
CONTINUOUS
 62
           7
100
AcDbLine
 10
297.990871747167
 20
-3263.112971615674
 11
307.990871747166
 21
-3263.112971615674
  0
LINE
  5
C5
100
AcDbEntity
  8
0
  6
CONTINUOUS
 62
           7
100
AcDbLine
 10
284.990871747167
 20
-3313.112971615674
 11
294.990871747166
 21
-3313.112971615674
  0
LINE
  5
C4
100
AcDbEntity
  8
0
  6
CONTINUOUS
 62
           7
100
AcDbLine
 10
310.990871747167
 20
-3313.112971615674
 11
320.990871747166
 21
-3313.112971615674
  0
LINE
  5
C3
100
AcDbEntity
  8
0
  6
CONTINUOUS
 62
           7
100
AcDbLine
 10
219.990871747166
 20
-3263.112971615674
 11
229.990871747166
 21
-3263.112971615674
  0
LINE
  5
C2
100
AcDbEntity
  8
0
  6
CONTINUOUS
 62
           7
100
AcDbLine
 10
336.990871747166
 20
-3313.112971615674
 11
336.990871747166
 21
-3263.112971615674
  0
LINE
  5
C1
100
AcDbEntity
  8
0
  6
CONTINUOUS
 62
           7
100
AcDbLine
 10
232.990871747167
 20
-3263.112971615674
 11
242.990871747167
 21
-3263.112971615674
  0
LINE
  5
C0
100
AcDbEntity
  8
0
  6
CONTINUOUS
 62
           7
100
AcDbLine
 10
242.990871747166
 20
-3313.112971615674
 11
242.990871747167
 21
-3263.112971615674
  0
LINE
  5
BF
100
AcDbEntity
  8
0
  6
CONTINUOUS
 62
           7
100
AcDbLine
 10
232.990871747167
 20
-3313.112971615674
 11
242.990871747166
 21
-3313.112971615674
  0
LINE
  5
BE
100
AcDbEntity
  8
0
  6
CONTINUOUS
 62
           7
100
AcDbLine
 10
284.990871747167
 20
-3313.112971615674
 11
284.990871747167
 21
-3263.112971615674
  0
LINE
  5
BD
100
AcDbEntity
  8
0
  6
CONTINUOUS
 62
           7
100
AcDbLine
 10
232.990871747167
 20
-3313.112971615674
 11
232.990871747167
 21
-3263.112971615674
  0
LINE
  5
BC
100
AcDbEntity
  8
0
  6
CONTINUOUS
 62
           7
100
AcDbLine
 10
349.990871747167
 20
-3313.112971615674
 11
349.990871747167
 21
-3263.112971615674
  0
LINE
  5
BB
100
AcDbEntity
  8
0
  6
CONTINUOUS
 62
           7
100
AcDbLine
 10
297.990871747166
 20
-3313.112971615674
 11
297.990871747167
 21
-3263.112971615674
  0
LINE
  5
BA
100
AcDbEntity
  8
0
  6
CONTINUOUS
 62
           7
100
AcDbLine
 10
219.990871747166
 20
-3313.112971615674
 11
229.990871747166
 21
-3313.112971615674
  0
LINE
  5
B9
100
AcDbEntity
  8
0
  6
CONTINUOUS
 62
           7
100
AcDbLine
 10
297.990871747166
 20
-3313.112971615674
 11
307.990871747166
 21
-3313.112971615674
  0
LINE
  5
B8
100
AcDbEntity
  8
0
  6
CONTINUOUS
 62
           7
100
AcDbLine
 10
310.990871747167
 20
-3313.112971615674
 11
310.990871747167
 21
-3263.112971615674
  0
LINE
  5
B7
100
AcDbEntity
  8
0
  6
CONTINUOUS
 62
           7
100
AcDbLine
 10
102.990871747166
 20
-3313.112971615674
 11
102.990871747166
 21
-3263.112971615674
  0
LINE
  5
B6
100
AcDbEntity
  8
0
  6
CONTINUOUS
 62
           7
100
AcDbLine
 10
128.990871747166
 20
-3313.112971615674
 11
138.990871747166
 21
-3313.112971615674
  0
LINE
  5
B5
100
AcDbEntity
  8
0
  6
CONTINUOUS
 62
           7
100
AcDbLine
 10
190.990871747167
 20
-3313.112971615674
 11
190.990871747167
 21
-3263.112971615674
  0
LINE
  5
B4
100
AcDbEntity
  8
0
  6
CONTINUOUS
 62
           7
100
AcDbLine
 10
128.990871747166
 20
-3313.112971615674
 11
128.990871747166
 21
-3263.112971615674
  0
LINE
  5
B3
100
AcDbEntity
  8
0
  6
CONTINUOUS
 62
           7
100
AcDbLine
 10
99.990871747166
 20
-3313.112971615674
 11
99.990871747166
 21
-3263.112971615674
  0
LINE
  5
B2
100
AcDbEntity
  8
0
  6
CONTINUOUS
 62
           7
100
AcDbLine
 10
167.990871747166
 20
-3313.112971615674
 11
167.990871747166
 21
-3263.112971615674
  0
LINE
  5
B1
100
AcDbEntity
  8
0
  6
CONTINUOUS
 62
           7
100
AcDbLine
 10
89.990871747166
 20
-3313.112971615674
 11
89.990871747166
 21
-3263.112971615674
  0
LINE
  5
B0
100
AcDbEntity
  8
0
  6
CONTINUOUS
 62
           7
100
AcDbLine
 10
154.990871747166
 20
-3313.112971615674
 11
154.990871747166
 21
-3263.112971615674
  0
LINE
  5
AF
100
AcDbEntity
  8
0
  6
CONTINUOUS
 62
           7
100
AcDbLine
 10
154.990871747166
 20
-3263.112971615674
 11
164.990871747167
 21
-3263.112971615674
  0
LINE
  5
AE
100
AcDbEntity
  8
0
  6
CONTINUOUS
 62
           7
100
AcDbLine
 10
154.990871747166
 20
-3313.112971615674
 11
164.990871747167
 21
-3313.112971615674
  0
LINE
  5
AD
100
AcDbEntity
  8
0
  6
CONTINUOUS
 62
           7
100
AcDbLine
 10
177.990871747166
 20
-3313.112971615674
 11
177.990871747166
 21
-3263.112971615674
  0
LINE
  5
AC
100
AcDbEntity
  8
0
  6
CONTINUOUS
 62
           7
100
AcDbLine
 10
167.990871747166
 20
-3313.112971615674
 11
177.990871747166
 21
-3313.112971615674
  0
LINE
  5
AB
100
AcDbEntity
  8
0
  6
CONTINUOUS
 62
           7
100
AcDbLine
 10
141.990871747166
 20
-3263.112971615674
 11
151.990871747166
 21
-3263.112971615674
  0
LINE
  5
AA
100
AcDbEntity
  8
0
  6
CONTINUOUS
 62
           7
100
AcDbLine
 10
141.990871747166
 20
-3313.112971615674
 11
141.990871747166
 21
-3263.112971615674
  0
LINE
  5
A9
100
AcDbEntity
  8
0
  6
CONTINUOUS
 62
           7
100
AcDbLine
 10
141.990871747166
 20
-3313.112971615674
 11
151.990871747166
 21
-3313.112971615674
  0
LINE
  5
A8
100
AcDbEntity
  8
0
  6
CONTINUOUS
 62
           7
100
AcDbLine
 10
167.990871747166
 20
-3263.112971615674
 11
177.990871747166
 21
-3263.112971615674
  0
LINE
  5
A7
100
AcDbEntity
  8
0
  6
CONTINUOUS
 62
           7
100
AcDbLine
 10
128.990871747166
 20
-3263.112971615674
 11
138.990871747166
 21
-3263.112971615674
  0
LINE
  5
A6
100
AcDbEntity
  8
0
  6
CONTINUOUS
 62
           7
100
AcDbLine
 10
164.990871747167
 20
-3313.112971615674
 11
164.990871747167
 21
-3263.112971615674
  0
LINE
  5
A5
100
AcDbEntity
  8
0
  6
CONTINUOUS
 62
           7
100
AcDbLine
 10
151.990871747166
 20
-3313.112971615674
 11
151.990871747166
 21
-3263.112971615674
  0
LINE
  5
A4
100
AcDbEntity
  8
0
  6
CONTINUOUS
 62
           7
100
AcDbLine
 10
115.990871747167
 20
-3263.112971615674
 11
125.990871747167
 21
-3263.112971615674
  0
LINE
  5
A3
100
AcDbEntity
  8
0
  6
CONTINUOUS
 62
           7
100
AcDbLine
 10
125.990871747166
 20
-3313.112971615674
 11
125.990871747167
 21
-3263.112971615674
  0
LINE
  5
A2
100
AcDbEntity
  8
0
  6
CONTINUOUS
 62
           7
100
AcDbLine
 10
89.990871747166
 20
-3263.112971615674
 11
99.990871747166
 21
-3263.112971615674
  0
LINE
  5
A1
100
AcDbEntity
  8
0
  6
CONTINUOUS
 62
           7
100
AcDbLine
 10
102.990871747166
 20
-3313.112971615674
 11
112.990871747167
 21
-3313.112971615674
  0
LINE
  5
A0
100
AcDbEntity
  8
0
  6
CONTINUOUS
 62
           7
100
AcDbLine
 10
115.990871747167
 20
-3313.112971615674
 11
125.990871747166
 21
-3313.112971615674
  0
LINE
  5
9F
100
AcDbEntity
  8
0
  6
CONTINUOUS
 62
           7
100
AcDbLine
 10
102.990871747166
 20
-3263.112971615674
 11
112.990871747167
 21
-3263.112971615674
  0
LINE
  5
9E
100
AcDbEntity
  8
0
  6
CONTINUOUS
 62
           7
100
AcDbLine
 10
138.990871747166
 20
-3313.112971615674
 11
138.990871747166
 21
-3263.112971615674
  0
LINE
  5
9D
100
AcDbEntity
  8
0
  6
CONTINUOUS
 62
           7
100
AcDbLine
 10
115.990871747167
 20
-3313.112971615674
 11
115.990871747167
 21
-3263.112971615674
  0
LINE
  5
9C
100
AcDbEntity
  8
0
  6
CONTINUOUS
 62
           7
100
AcDbLine
 10
112.990871747167
 20
-3313.112971615674
 11
112.990871747167
 21
-3263.112971615674
  0
LINE
  5
9B
100
AcDbEntity
  8
0
  6
CONTINUOUS
 62
           7
100
AcDbLine
 10
89.990871747166
 20
-3313.112971615674
 11
99.990871747166
 21
-3313.112971615674
  0
LINE
  5
9A
100
AcDbEntity
  8
0
  6
CONTINUOUS
 62
           7
100
AcDbLine
 10
55.990869064958
 20
-3333.112971615674
 11
563.990869064958
 21
-3333.112971615674
  0
ENDBLK
  5
3D1
100
AcDbEntity
  8
0
100
AcDbBlockEnd
  0
BLOCK
  5
33
100
AcDbEntity
  8
0
100
AcDbBlockBegin
  2
KOZU0039__S
 70
           0
 10
0.0
 20
0.0
 30
0.0
  3
KOZU0039__S
  1

  0
ARC
  5
3EA
100
AcDbEntity
  8
0
  6
CONTINUOUS
 62
           7
100
AcDbCircle
 10
179.990869064957
 20
-2651.112973880651
 40
20.0
100
AcDbArc
 50
0.0
 51
90.0
  0
ARC
  5
3E9
100
AcDbEntity
  8
0
  6
CONTINUOUS
 62
           7
100
AcDbCircle
 10
124.990869064957
 20
-2756.112973880651
 40
20.0
100
AcDbArc
 50
180.0
 51
-90.0
  0
ARC
  5
3E8
100
AcDbEntity
  8
0
  6
CONTINUOUS
 62
           7
100
AcDbCircle
 10
124.990869064957
 20
-2651.112973880651
 40
20.0
100
AcDbArc
 50
90.0
 51
180.0
  0
ARC
  5
3E7
100
AcDbEntity
  8
0
  6
CONTINUOUS
 62
           7
100
AcDbCircle
 10
179.990869064957
 20
-2756.112973880651
 40
20.0
100
AcDbArc
 50
-90.0
 51
0.0
  0
ARC
  5
3E6
100
AcDbEntity
  8
0
  6
CONTINUOUS
 62
           7
100
AcDbCircle
 10
179.990869064957
 20
-2756.112973880651
 40
25.0
100
AcDbArc
 50
-90.0
 51
0.0
  0
ARC
  5
3E5
100
AcDbEntity
  8
0
  6
CONTINUOUS
 62
           7
100
AcDbCircle
 10
124.990869064957
 20
-2756.112973880651
 40
25.0
100
AcDbArc
 50
180.0
 51
-90.0
  0
ARC
  5
3E4
100
AcDbEntity
  8
0
  6
CONTINUOUS
 62
           7
100
AcDbCircle
 10
124.990869064957
 20
-2651.112973880651
 40
25.0
100
AcDbArc
 50
90.0
 51
180.0
  0
ARC
  5
3E3
100
AcDbEntity
  8
0
  6
CONTINUOUS
 62
           7
100
AcDbCircle
 10
179.990869064957
 20
-2651.112973880651
 40
25.0
100
AcDbArc
 50
0.0
 51
90.0
  0
LINE
  5
3E2
100
AcDbEntity
  8
0
  6
CONTINUOUS
 62
           7
100
AcDbLine
 10
372.990869064957
 20
-2598.112971615674
 11
372.990869064957
 21
-3310.112971615673
  0
LINE
  5
3E1
100
AcDbEntity
  8
0
  6
CONTINUOUS
 62
           7
100
AcDbLine
 10
84.990869064957
 20
-2598.112971615674
 11
84.990869064957
 21
-3310.112971615673
  0
LINE
  5
3E0
100
AcDbEntity
  8
0
  6
CONTINUOUS
 62
           7
100
AcDbLine
 10
84.990869064957
 20
-2598.112971615674
 11
372.990869064957
 21
-2598.112971615674
  0
LINE
  5
3DF
100
AcDbEntity
  8
0
  6
CONTINUOUS
 62
           7
100
AcDbLine
 10
99.990869064957
 20
-3325.112971615674
 11
357.990869064958
 21
-3325.112971615674
  0
LINE
  5
3DE
100
AcDbEntity
  8
0
  6
CONTINUOUS
 62
           7
100
AcDbLine
 10
84.990869064957
 20
-3310.112971615673
 11
372.990869064957
 21
-3310.112971615673
  0
LINE
  5
3DD
100
AcDbEntity
  8
0
  6
CONTINUOUS
 62
           7
100
AcDbLine
 10
104.990869064957
 20
-2651.112973880651
 11
104.990869064957
 21
-2756.112973880651
  0
LINE
  5
3DC
100
AcDbEntity
  8
0
  6
CONTINUOUS
 62
           7
100
AcDbLine
 10
179.990869064957
 20
-2776.112973880651
 11
124.990869064957
 21
-2776.112973880651
  0
LINE
  5
3DB
100
AcDbEntity
  8
0
  6
CONTINUOUS
 62
           7
100
AcDbLine
 10
99.990869064957
 20
-3310.112971615673
 11
99.990869064957
 21
-3325.112971615674
  0
LINE
  5
3DA
100
AcDbEntity
  8
0
  6
CONTINUOUS
 62
           7
100
AcDbLine
 10
357.990869064957
 20
-3310.112971615673
 11
357.990869064958
 21
-3325.112971615674
  0
LINE
  5
3D9
100
AcDbEntity
  8
0
  6
CONTINUOUS
 62
           7
100
AcDbLine
 10
124.990869064957
 20
-2631.112973880651
 11
179.990869064957
 21
-2631.112973880651
  0
LINE
  5
3D8
100
AcDbEntity
  8
0
  6
CONTINUOUS
 62
           7
100
AcDbLine
 10
199.990869064957
 20
-2756.112973880651
 11
199.990869064957
 21
-2651.112973880651
  0
LINE
  5
3D7
100
AcDbEntity
  8
0
  6
CONTINUOUS
 62
           7
100
AcDbLine
 10
204.990869064957
 20
-2756.112973880651
 11
204.990869064957
 21
-2651.112973880651
  0
LINE
  5
3D6
100
AcDbEntity
  8
0
  6
CONTINUOUS
 62
           7
100
AcDbLine
 10
124.990869064957
 20
-2626.112973880651
 11
179.990869064957
 21
-2626.112973880651
  0
LINE
  5
3D5
100
AcDbEntity
  8
0
  6
CONTINUOUS
 62
           7
100
AcDbLine
 10
99.990869064957
 20
-2651.112973880651
 11
99.990869064957
 21
-2756.112973880651
  0
LINE
  5
3D4
100
AcDbEntity
  8
0
  6
CONTINUOUS
 62
           7
100
AcDbLine
 10
179.990869064957
 20
-2781.112973880651
 11
124.990869064957
 21
-2781.112973880651
  0
POINT
  5
3D3
100
AcDbEntity
  8
0
 62
           7
100
AcDbPoint
 10
372.990869064957
 20
-2598.112971615674
  0
POINT
  5
3D2
100
AcDbEntity
  8
0
 62
           7
100
AcDbPoint
 10
372.990869064957
 20
-2598.112971615674
  0
ENDBLK
  5
3EB
100
AcDbEntity
  8
0
100
AcDbBlockEnd
  0
BLOCK
  5
35
100
AcDbEntity
  8
0
100
AcDbBlockBegin
  2
KOZU0010__S
 70
           0
 10
0.0
 20
0.0
 30
0.0
  3
KOZU0010__S
  1

  0
ARC
  5
45E
100
AcDbEntity
  8
0
  6
CONTINUOUS
 62
           7
100
AcDbCircle
 10
-245.709107589892
 20
-3560.167433635761
 40
28.145439301115
100
AcDbArc
 50
-101.268974521728
 51
-89.999982013909
  0
ARC
  5
45D
100
AcDbEntity
  8
0
  6
CONTINUOUS
 62
           7
100
AcDbCircle
 10
-234.709046991838
 20
-3560.167433635761
 40
28.145439301116
100
AcDbArc
 50
-89.999982013911
 51
-78.794865435207
  0
ARC
  5
45C
100
AcDbEntity
  8
0
  6
CONTINUOUS
 62
           7
100
AcDbCircle
 10
-240.209162061912
 20
-3537.81279992119
 40
34.999991721577
100
AcDbArc
 50
-60.000042650786
 51
0.00001798609
  0
ARC
  5
45B
100
AcDbEntity
  8
0
  6
CONTINUOUS
 62
           7
100
AcDbCircle
 10
-240.209162061912
 20
-3537.81279992119
 40
34.999991721578
100
AcDbArc
 50
179.999964027821
 51
-119.99999332139
  0
ARC
  5
45A
100
AcDbEntity
  8
0
  6
CONTINUOUS
 62
           7
100
AcDbCircle
 10
-314.209199811519
 20
-3374.312847108199
 40
6.000009934107
100
AcDbArc
 50
0.0
 51
179.999964027818
  0
ARC
  5
459
100
AcDbEntity
  8
0
  6
CONTINUOUS
 62
           7
100
AcDbCircle
 10
-314.209199811519
 20
-3422.312841810008
 40
6.000009934107
100
AcDbArc
 50
179.999981330667
 51
0.0
  0
LINE
  5
458
100
AcDbEntity
  8
0
  6
CONTINUOUS
 62
           7
100
AcDbLine
 10
-289.209200804929
 20
-3463.312824922026
 11
-289.209200804929
 21
-3466.31282988908
  0
LINE
  5
457
100
AcDbEntity
  8
0
  6
CONTINUOUS
 62
           7
100
AcDbLine
 10
-281.709167194534
 20
-3466.31282988908
 11
-198.70915692929
 21
-3466.31282988908
  0
LINE
  5
456
100
AcDbEntity
  8
0
  6
CONTINUOUS
 62
           7
100
AcDbLine
 10
-281.709167194534
 20
-3466.31282988908
 11
-281.709167194534
 21
-3469.312834856133
  0
LINE
  5
455
100
AcDbEntity
  8
0
  6
CONTINUOUS
 62
           7
100
AcDbLine
 10
-281.859042405592
 20
-3469.312877241657
 11
-289.209200804929
 21
-3469.312877241657
  0
LINE
  5
454
100
AcDbEntity
  8
0
  6
CONTINUOUS
 62
           7
100
AcDbLine
 10
-320.209124974579
 20
-3374.31286830096
 11
-320.209124974579
 21
-3422.312841810009
  0
LINE
  5
453
100
AcDbEntity
  8
0
  6
CONTINUOUS
 62
           7
100
AcDbLine
 10
-262.566084594752
 20
-3474.312843134556
 11
-254.209185241495
 21
-3474.312843134556
  0
LINE
  5
452
100
AcDbEntity
  8
0
  6
CONTINUOUS
 62
           7
100
AcDbLine
 10
-213.209074972906
 20
-3384.312863665044
 11
-213.209074972906
 21
-3412.312825253163
  0
LINE
  5
451
100
AcDbEntity
  8
0
  6
CONTINUOUS
 62
           7
100
AcDbLine
 10
-223.601497448848
 20
-3378.312851051163
 11
-213.209212150627
 21
-3384.312839873275
  0
LINE
  5
450
100
AcDbEntity
  8
0
  6
CONTINUOUS
 62
           7
100
AcDbLine
 10
-256.816827417608
 20
-3378.312853730937
 11
-223.601411935169
 21
-3378.312853730937
  0
LINE
  5
44F
100
AcDbEntity
  8
0
  6
CONTINUOUS
 62
           7
100
AcDbLine
 10
-213.209159743954
 20
-3387.812975423748
 11
-199.209074972906
 21
-3387.812975423748
  0
LINE
  5
44E
100
AcDbEntity
  8
0
  6
CONTINUOUS
 62
           7
100
AcDbLine
 10
-223.601483146466
 20
-3418.312852588488
 11
-213.209161141305
 21
-3412.312842573614
  0
LINE
  5
44D
100
AcDbEntity
  8
0
  6
CONTINUOUS
 62
           7
100
AcDbLine
 10
-308.209105106365
 20
-3393.312836180681
 11
-282.209062058568
 21
-3393.312836180681
  0
LINE
  5
44C
100
AcDbEntity
  8
0
  6
CONTINUOUS
 62
           7
100
AcDbLine
 10
-308.209105106365
 20
-3374.31286830096
 11
-308.209105106365
 21
-3422.312841810009
  0
LINE
  5
44B
100
AcDbEntity
  8
0
  6
CONTINUOUS
 62
           7
100
AcDbLine
 10
-282.209146829614
 20
-3388.312870287782
 11
-282.209146829614
 21
-3408.312861015948
  0
LINE
  5
44A
100
AcDbEntity
  8
0
  6
CONTINUOUS
 62
           7
100
AcDbLine
 10
-282.209062058568
 20
-3388.312785516735
 11
-267.209079608823
 21
-3388.312785516735
  0
LINE
  5
449
100
AcDbEntity
  8
0
  6
CONTINUOUS
 62
           7
100
AcDbLine
 10
-267.209079608823
 20
-3384.312863665044
 11
-267.209079608823
 21
-3412.312825253163
  0
LINE
  5
448
100
AcDbEntity
  8
0
  6
CONTINUOUS
 62
           7
100
AcDbLine
 10
-267.209043834985
 20
-3384.312865387954
 11
-256.816721829825
 21
-3378.312855373079
  0
LINE
  5
447
100
AcDbEntity
  8
0
  6
CONTINUOUS
 62
           7
100
AcDbLine
 10
-289.209200804929
 20
-3463.312782536503
 11
-191.209123318894
 21
-3463.312782536503
  0
LINE
  5
446
100
AcDbEntity
  8
0
  6
CONTINUOUS
 62
           7
100
AcDbLine
 10
-281.709167194534
 20
-3466.31282988908
 11
-289.209200804929
 21
-3466.31282988908
  0
LINE
  5
445
100
AcDbEntity
  8
0
  6
CONTINUOUS
 62
           7
100
AcDbLine
 10
-260.209195175602
 20
-3456.312728561188
 11
-220.209213719269
 21
-3456.312728561188
  0
LINE
  5
444
100
AcDbEntity
  8
0
  6
CONTINUOUS
 62
           7
100
AcDbLine
 10
-202.709163552028
 20
-3456.312728561188
 11
-220.209213719269
 21
-3456.312728561188
  0
LINE
  5
443
100
AcDbEntity
  8
0
  6
CONTINUOUS
 62
           7
100
AcDbLine
 10
-220.209298490316
 20
-3455.012849326816
 11
-220.209298490316
 21
-3456.312813332235
  0
LINE
  5
442
100
AcDbEntity
  8
0
  6
CONTINUOUS
 62
           7
100
AcDbLine
 10
-220.209213719269
 20
-3455.012849326816
 11
-225.209179612168
 21
-3455.012849326816
  0
LINE
  5
441
100
AcDbEntity
  8
0
  6
CONTINUOUS
 62
           7
100
AcDbLine
 10
-255.209144511656
 20
-3455.012849326816
 11
-225.209179612168
 21
-3455.012849326816
  0
LINE
  5
440
100
AcDbEntity
  8
0
  6
CONTINUOUS
 62
           7
100
AcDbLine
 10
-255.209144511656
 20
-3455.012849326816
 11
-260.209195175602
 21
-3455.012849326816
  0
LINE
  5
43F
100
AcDbEntity
  8
0
  6
CONTINUOUS
 62
           7
100
AcDbLine
 10
-260.209195175602
 20
-3456.312728561188
 11
-277.709160571796
 21
-3456.312728561188
  0
LINE
  5
43E
100
AcDbEntity
  8
0
  6
CONTINUOUS
 62
           7
100
AcDbLine
 10
-277.709189828334
 20
-3456.312875413054
 11
-289.209263939064
 21
-3463.312920175039
  0
LINE
  5
43D
100
AcDbEntity
  8
0
  6
CONTINUOUS
 62
           3
100
AcDbLine
 10
-240.209162061912
 20
-3378.312853730937
 11
-240.209162061912
 21
-3588.312777569449
  0
LINE
  5
43C
100
AcDbEntity
  8
0
  6
CONTINUOUS
 62
           7
100
AcDbLine
 10
-308.209105106365
 20
-3403.312852737526
 11
-282.209062058568
 21
-3403.312852737526
  0
LINE
  5
43B
100
AcDbEntity
  8
0
  6
CONTINUOUS
 62
           7
100
AcDbLine
 10
-282.209062058568
 20
-3408.312818630425
 11
-267.209079608823
 21
-3408.312818630425
  0
LINE
  5
43A
100
AcDbEntity
  8
0
  6
CONTINUOUS
 62
           7
100
AcDbLine
 10
-267.209073651544
 20
-3412.312780351995
 11
-256.816788353324
 21
-3418.312769174107
  0
LINE
  5
439
100
AcDbEntity
  8
0
  6
CONTINUOUS
 62
           7
100
AcDbLine
 10
-256.816827417608
 20
-3418.31283518727
 11
-254.209100470448
 21
-3418.31283518727
  0
LINE
  5
438
100
AcDbEntity
  8
0
  6
CONTINUOUS
 62
           7
100
AcDbLine
 10
-254.209100470448
 20
-3418.31283518727
 11
-254.209100470448
 21
-3426.312848432746
  0
LINE
  5
437
100
AcDbEntity
  8
0
  6
CONTINUOUS
 62
           7
100
AcDbLine
 10
-251.209053117871
 20
-3426.312848432746
 11
-251.209053117871
 21
-3440.312829226806
  0
LINE
  5
436
100
AcDbEntity
  8
0
  6
CONTINUOUS
 62
           7
100
AcDbLine
 10
-254.209230270598
 20
-3440.312917403651
 11
-255.209188029333
 21
-3441.312870610728
  0
LINE
  5
435
100
AcDbEntity
  8
0
  6
CONTINUOUS
 62
           7
100
AcDbLine
 10
-255.209059740609
 20
-3441.312830882491
 11
-255.209059740609
 21
-3455.012849326816
  0
LINE
  5
434
100
AcDbEntity
  8
0
  6
CONTINUOUS
 62
           7
100
AcDbLine
 10
-246.422201637076
 20
-3440.312829226806
 11
-246.422201637076
 21
-3455.012849326816
  0
LINE
  5
433
100
AcDbEntity
  8
0
  6
CONTINUOUS
 62
           7
100
AcDbLine
 10
-225.209094841121
 20
-3441.312830882491
 11
-225.209094841121
 21
-3455.012849326816
  0
LINE
  5
432
100
AcDbEntity
  8
0
  6
CONTINUOUS
 62
           7
100
AcDbLine
 10
-233.995952944653
 20
-3440.312829226806
 11
-233.995952944653
 21
-3455.012849326816
  0
LINE
  5
431
100
AcDbEntity
  8
0
  6
CONTINUOUS
 62
           7
100
AcDbLine
 10
-226.209138882329
 20
-3440.312786841282
 11
-254.209185241495
 21
-3440.312786841282
  0
LINE
  5
430
100
AcDbEntity
  8
0
  6
CONTINUOUS
 62
           7
100
AcDbLine
 10
-225.20920481359
 20
-3441.312699119856
 11
-226.20918799169
 21
-3440.312711389961
  0
LINE
  5
42F
100
AcDbEntity
  8
0
  6
CONTINUOUS
 62
           7
100
AcDbLine
 10
-229.209101463859
 20
-3426.312848432746
 11
-229.209101463859
 21
-3440.312829226806
  0
LINE
  5
42E
100
AcDbEntity
  8
0
  6
CONTINUOUS
 62
           7
100
AcDbLine
 10
-253.709120835367
 20
-3426.312848432746
 11
-226.709118517409
 21
-3426.312848432746
  0
LINE
  5
42D
100
AcDbEntity
  8
0
  6
CONTINUOUS
 62
           7
100
AcDbLine
 10
-226.209054111282
 20
-3418.312835187271
 11
-226.209054111282
 21
-3426.312848432746
  0
LINE
  5
42C
100
AcDbEntity
  8
0
  6
CONTINUOUS
 62
           7
100
AcDbLine
 10
-226.209138882329
 20
-3418.31283518727
 11
-223.601411935169
 21
-3418.31283518727
  0
LINE
  5
42B
100
AcDbEntity
  8
0
  6
CONTINUOUS
 62
           7
100
AcDbLine
 10
-213.209159743954
 20
-3408.812798265506
 11
-199.209074972906
 21
-3408.812798265506
  0
LINE
  5
42A
100
AcDbEntity
  8
0
  6
CONTINUOUS
 62
           7
100
AcDbLine
 10
-290.209087387022
 20
-3470.312760792646
 11
-289.209136329345
 21
-3469.312800884524
  0
LINE
  5
429
100
AcDbEntity
  8
0
  6
CONTINUOUS
 62
           7
100
AcDbLine
 10
-290.209160075091
 20
-3486.312820617247
 11
-290.209160075091
 21
-3470.312836511818
  0
LINE
  5
428
100
AcDbEntity
  8
0
  6
CONTINUOUS
 62
           7
100
AcDbLine
 10
-288.209071992674
 20
-3474.312843134556
 11
-288.209071992674
 21
-3486.312820617247
  0
LINE
  5
427
100
AcDbEntity
  8
0
  6
CONTINUOUS
 62
           7
100
AcDbLine
 10
-288.209156763721
 20
-3474.312843134556
 11
-284.932331942759
 21
-3474.312843134556
  0
LINE
  5
426
100
AcDbEntity
  8
0
  6
CONTINUOUS
 62
           7
100
AcDbLine
 10
-191.209208089941
 20
-3469.312877241657
 11
-281.859042405592
 21
-3469.312877241657
  0
LINE
  5
425
100
AcDbEntity
  8
0
  6
CONTINUOUS
 62
           7
100
AcDbLine
 10
-281.932284590182
 20
-3474.312843134556
 11
-281.932284590182
 21
-3486.312820617247
  0
LINE
  5
424
100
AcDbEntity
  8
0
  6
CONTINUOUS
 62
           7
100
AcDbLine
 10
-281.932284590182
 20
-3474.312843134556
 11
-277.622270248643
 21
-3474.312843134556
  0
LINE
  5
423
100
AcDbEntity
  8
0
  6
CONTINUOUS
 62
           7
100
AcDbLine
 10
-277.622524561784
 20
-3474.312843134556
 11
-277.622524561784
 21
-3486.312820617247
  0
LINE
  5
422
100
AcDbEntity
  8
0
  6
CONTINUOUS
 62
           7
100
AcDbLine
 10
-273.379564118404
 20
-3474.312843134556
 11
-273.379564118404
 21
-3486.312820617247
  0
LINE
  5
421
100
AcDbEntity
  8
0
  6
CONTINUOUS
 62
           7
100
AcDbLine
 10
-273.379564118404
 20
-3474.312843134556
 11
-267.762125919313
 21
-3474.312843134556
  0
LINE
  5
420
100
AcDbEntity
  8
0
  6
CONTINUOUS
 62
           7
100
AcDbLine
 10
-267.762125919313
 20
-3474.312843134556
 11
-267.762125919313
 21
-3486.312820617247
  0
LINE
  5
41F
100
AcDbEntity
  8
0
  6
CONTINUOUS
 62
           7
100
AcDbLine
 10
-262.565999823705
 20
-3474.312843134556
 11
-262.565999823705
 21
-3486.312820617247
  0
LINE
  5
41E
100
AcDbEntity
  8
0
  6
CONTINUOUS
 62
           7
100
AcDbLine
 10
-254.209439554636
 20
-3474.312843134556
 11
-254.209439554636
 21
-3486.312820617247
  0
LINE
  5
41D
100
AcDbEntity
  8
0
  6
CONTINUOUS
 62
           7
100
AcDbLine
 10
-284.932331942759
 20
-3474.312843134556
 11
-284.932331942759
 21
-3486.312820617247
  0
LINE
  5
41C
100
AcDbEntity
  8
0
  6
CONTINUOUS
 62
           7
100
AcDbLine
 10
-290.209090066363
 20
-3486.312899003243
 11
-275.95908010282
 21
-3490.31290189289
  0
LINE
  5
41B
100
AcDbEntity
  8
0
  6
CONTINUOUS
 62
           7
100
AcDbLine
 10
-190.209164048733
 20
-3486.31286300277
 11
-290.209160075091
 21
-3486.31286300277
  0
LINE
  5
41A
100
AcDbEntity
  8
0
  6
CONTINUOUS
 62
           7
100
AcDbLine
 10
-275.959147077967
 20
-3490.312869625508
 11
-204.459177045857
 21
-3490.312869625508
  0
LINE
  5
419
100
AcDbEntity
  8
0
  6
CONTINUOUS
 62
           7
100
AcDbLine
 10
-202.709275572799
 20
-3456.312854620019
 11
-191.209273873375
 21
-3463.312855305559
  0
LINE
  5
418
100
AcDbEntity
  8
0
  6
CONTINUOUS
 62
           7
100
AcDbLine
 10
-191.209123318894
 20
-3463.312824922026
 11
-191.209123318894
 21
-3466.31282988908
  0
LINE
  5
417
100
AcDbEntity
  8
0
  6
CONTINUOUS
 62
           7
100
AcDbLine
 10
-191.209208089941
 20
-3466.31282988908
 11
-198.70915692929
 21
-3466.31282988908
  0
LINE
  5
416
100
AcDbEntity
  8
0
  6
CONTINUOUS
 62
           7
100
AcDbLine
 10
-198.70915692929
 20
-3466.31282988908
 11
-198.70915692929
 21
-3469.312834856133
  0
LINE
  5
415
100
AcDbEntity
  8
0
  6
CONTINUOUS
 62
           7
100
AcDbLine
 10
-190.209418444316
 20
-3470.312961428018
 11
-191.209399472951
 21
-3469.312971548673
  0
LINE
  5
414
100
AcDbEntity
  8
0
  6
CONTINUOUS
 62
           7
100
AcDbLine
 10
-190.209164048733
 20
-3486.312820617247
 11
-190.209164048733
 21
-3470.312836511818
  0
LINE
  5
413
100
AcDbEntity
  8
0
  6
CONTINUOUS
 62
           7
100
AcDbLine
 10
-192.209082589055
 20
-3474.312843134556
 11
-192.209082589055
 21
-3486.312820617247
  0
LINE
  5
412
100
AcDbEntity
  8
0
  6
CONTINUOUS
 62
           7
100
AcDbLine
 10
-195.309159777067
 20
-3474.312758363509
 11
-195.309159777067
 21
-3486.312820617247
  0
LINE
  5
411
100
AcDbEntity
  8
0
  6
CONTINUOUS
 62
           7
100
AcDbLine
 10
-202.796308188322
 20
-3474.312843134556
 11
-202.796308188322
 21
-3486.312820617247
  0
LINE
  5
410
100
AcDbEntity
  8
0
  6
CONTINUOUS
 62
           7
100
AcDbLine
 10
-198.486039533642
 20
-3474.312843134556
 11
-198.486039533642
 21
-3486.312820617247
  0
LINE
  5
40F
100
AcDbEntity
  8
0
  6
CONTINUOUS
 62
           7
100
AcDbLine
 10
-198.485954762595
 20
-3474.312843134556
 11
-202.796308188322
 21
-3474.312843134556
  0
LINE
  5
40E
100
AcDbEntity
  8
0
  6
CONTINUOUS
 62
           7
100
AcDbLine
 10
-192.209167360103
 20
-3474.312843134556
 11
-195.309159777067
 21
-3474.312843134556
  0
LINE
  5
40D
100
AcDbEntity
  8
0
  6
CONTINUOUS
 62
           7
100
AcDbLine
 10
-207.038844776466
 20
-3474.312843134556
 11
-212.656113433464
 21
-3474.312843134556
  0
LINE
  5
40C
100
AcDbEntity
  8
0
  6
CONTINUOUS
 62
           7
100
AcDbLine
 10
-212.656198204511
 20
-3474.312843134556
 11
-212.656198204511
 21
-3486.312820617247
  0
LINE
  5
40B
100
AcDbEntity
  8
0
  6
CONTINUOUS
 62
           7
100
AcDbLine
 10
-207.038929547513
 20
-3474.312843134556
 11
-207.038929547513
 21
-3486.312820617247
  0
LINE
  5
40A
100
AcDbEntity
  8
0
  6
CONTINUOUS
 62
           7
100
AcDbLine
 10
-217.852493842213
 20
-3474.312843134556
 11
-217.852493842213
 21
-3486.312820617247
  0
LINE
  5
409
100
AcDbEntity
  8
0
  6
CONTINUOUS
 62
           7
100
AcDbLine
 10
-226.209054111282
 20
-3474.312843134556
 11
-226.209054111282
 21
-3486.312820617247
  0
LINE
  5
408
100
AcDbEntity
  8
0
  6
CONTINUOUS
 62
           7
100
AcDbLine
 10
-217.852324300119
 20
-3474.312843134556
 11
-226.209138882329
 21
-3474.312843134556
  0
LINE
  5
407
100
AcDbEntity
  8
0
  6
CONTINUOUS
 62
           7
100
AcDbLine
 10
-190.208987198121
 20
-3486.312852306106
 11
-204.458997161663
 21
-3490.312855195753
  0
LINE
  5
406
100
AcDbEntity
  8
0
  6
CONTINUOUS
 62
           7
100
AcDbLine
 10
-275.959089093073
 20
-3490.312808816662
 11
-275.200366179167
 21
-3538.365263611354
  0
LINE
  5
405
100
AcDbEntity
  8
0
  6
CONTINUOUS
 62
           7
100
AcDbLine
 10
-204.45898286478
 20
-3490.312780443454
 11
-205.217705778686
 21
-3538.365235238146
  0
LINE
  5
404
100
AcDbEntity
  8
0
  6
CONTINUOUS
 62
           7
100
AcDbLine
 10
-260.209195175602
 20
-3455.012849326816
 11
-260.209195175602
 21
-3456.312813332235
  0
LINE
  5
403
100
AcDbEntity
  8
0
  6
CONTINUOUS
 62
           7
100
AcDbLine
 10
-240.209162061912
 20
-3588.312777569449
 11
-245.709192360939
 21
-3588.312777569449
  0
LINE
  5
402
100
AcDbEntity
  8
0
  6
CONTINUOUS
 62
           7
100
AcDbLine
 10
-240.209162061912
 20
-3588.312777569449
 11
-234.709131762885
 21
-3588.312777569449
  0
LINE
  5
401
100
AcDbEntity
  8
0
  6
CONTINUOUS
 62
           7
100
AcDbLine
 10
-229.209101463859
 20
-3575.855417902785
 11
-229.209101463859
 21
-3587.770242868786
  0
LINE
  5
400
100
AcDbEntity
  8
0
  6
CONTINUOUS
 62
           7
100
AcDbLine
 10
-231.234073712365
 20
-3575.31257008159
 11
-229.209118410316
 21
-3575.855155224031
  0
LINE
  5
3FF
100
AcDbEntity
  8
0
  6
CONTINUOUS
 62
           7
100
AcDbLine
 10
-231.959212407729
 20
-3574.312677546156
 11
-231.23422155514
 21
-3575.312664428925
  0
LINE
  5
3FE
100
AcDbEntity
  8
0
  6
CONTINUOUS
 62
           7
100
AcDbLine
 10
-231.959074227848
 20
-3573.812817140309
 11
-231.959074227848
 21
-3574.31279677539
  0
LINE
  5
3FD
100
AcDbEntity
  8
0
  6
CONTINUOUS
 62
           7
100
AcDbLine
 10
-240.209162061912
 20
-3573.812859525833
 11
-226.0093335246
 21
-3573.812859525833
  0
LINE
  5
3FC
100
AcDbEntity
  8
0
  6
CONTINUOUS
 62
           7
100
AcDbLine
 10
-231.233942691993
 20
-3573.812817140309
 11
-231.233942691993
 21
-3575.312798431074
  0
LINE
  5
3FB
100
AcDbEntity
  8
0
  6
CONTINUOUS
 62
           7
100
AcDbLine
 10
-225.209298819735
 20
-3573.012675131289
 11
-226.009226836178
 21
-3573.81260395688
  0
LINE
  5
3FA
100
AcDbEntity
  8
0
  6
CONTINUOUS
 62
           7
100
AcDbLine
 10
-225.209433925309
 20
-3568.112769555936
 11
-225.209433925309
 21
-3573.012705613401
  0
LINE
  5
3F9
100
AcDbEntity
  8
0
  6
CONTINUOUS
 62
           7
100
AcDbLine
 10
-257.709212229153
 20
-3568.112854326983
 11
-222.709196665718
 21
-3568.112854326983
  0
LINE
  5
3F8
100
AcDbEntity
  8
0
  6
CONTINUOUS
 62
           7
100
AcDbLine
 10
-254.459175059035
 20
-3573.812859525833
 11
-240.209162061912
 21
-3573.812859525833
  0
LINE
  5
3F7
100
AcDbEntity
  8
0
  6
CONTINUOUS
 62
           7
100
AcDbLine
 10
-249.184341087523
 20
-3575.312799954689
 11
-251.209296389573
 21
-3575.85538509713
  0
LINE
  5
3F6
100
AcDbEntity
  8
0
  6
CONTINUOUS
 62
           7
100
AcDbLine
 10
-248.459222181971
 20
-3574.312909878388
 11
-249.184194375358
 21
-3575.31287102434
  0
LINE
  5
3F5
100
AcDbEntity
  8
0
  6
CONTINUOUS
 62
           7
100
AcDbLine
 10
-249.184211889737
 20
-3573.812817140309
 11
-249.184211889737
 21
-3575.312798431074
  0
LINE
  5
3F4
100
AcDbEntity
  8
0
  6
CONTINUOUS
 62
           7
100
AcDbLine
 10
-248.459080353881
 20
-3573.812817140309
 11
-248.459080353881
 21
-3574.31279677539
  0
LINE
  5
3F3
100
AcDbEntity
  8
0
  6
CONTINUOUS
 62
           7
100
AcDbLine
 10
-240.209162061912
 20
-3575.312798431074
 11
-249.184296660784
 21
-3575.312798431074
  0
LINE
  5
3F2
100
AcDbEntity
  8
0
  6
CONTINUOUS
 62
           7
100
AcDbLine
 10
-251.209053117871
 20
-3575.855417902785
 11
-251.209053117871
 21
-3587.770242868786
  0
LINE
  5
3F1
100
AcDbEntity
  8
0
  6
CONTINUOUS
 62
           7
100
AcDbLine
 10
-240.209162061912
 20
-3575.312798431074
 11
-231.234197005134
 21
-3575.312798431074
  0
LINE
  5
3F0
100
AcDbEntity
  8
0
  6
CONTINUOUS
 62
           7
100
AcDbLine
 10
-255.209082034533
 20
-3573.012782442035
 11
-254.409079629882
 21
-3573.812786734874
  0
LINE
  5
3EF
100
AcDbEntity
  8
0
  6
CONTINUOUS
 62
           7
100
AcDbLine
 10
-255.209059740609
 20
-3568.112769555936
 11
-255.209059740609
 21
-3573.012747998924
  0
POINT
  5
3EE
100
AcDbEntity
  8
0
 62
           7
100
AcDbPoint
 10
-320.209124974579
 20
-3398.312971615674
  0
POINT
  5
3ED
100
AcDbEntity
  8
0
 62
           7
100
AcDbPoint
 10
-240.209162061912
 20
-3588.312777569449
  0
POINT
  5
3EC
100
AcDbEntity
  8
0
 62
           7
100
AcDbPoint
 10
-320.209124974579
 20
-3398.312971615674
  0
ENDBLK
  5
45F
100
AcDbEntity
  8
0
100
AcDbBlockEnd
  0
ENDSEC
  0
SECTION
  2
ENTITIES
  0
ARC
  5
57B
100
AcDbEntity
  8
0
  6
CONTINUOUS
 62
           7
100
AcDbCircle
 10
-1345.313071521103
 20
-3566.542646607053
 40
5.99992516306
100
AcDbArc
 50
179.999982013915
 51
0.0
  0
ARC
  5
57A
100
AcDbEntity
  8
0
  6
CONTINUOUS
 62
           7
100
AcDbCircle
 10
-1345.313071521103
 20
-3518.542567134196
 40
5.99992516306
100
AcDbArc
 50
0.000017986084
 51
179.999982013915
  0
ARC
  5
579
100
AcDbEntity
  8
0
  6
CONTINUOUS
 62
           7
100
AcDbCircle
 10
-1271.313033771503
 20
-3542.542522099578
 40
49.999998013186
100
AcDbArc
 50
17.457502008866
 51
174.260901903429
  0
ARC
  5
578
100
AcDbEntity
  8
0
  6
CONTINUOUS
 62
           7
100
AcDbCircle
 10
-1271.313033771503
 20
-3542.542522099578
 40
49.999998013173
100
AcDbArc
 50
-174.260801271823
 51
-17.457705670627
  0
ARC
  5
577
100
AcDbEntity
  8
0
  6
CONTINUOUS
 62
           7
100
AcDbCircle
 10
-1201.652777415693
 20
-4529.042609135604
 40
28.660254037847
100
AcDbArc
 50
162.412046225996
 51
-162.412046226015
  0
ARC
  5
576
100
AcDbEntity
  8
0
  6
CONTINUOUS
 62
           7
100
AcDbCircle
 10
-1203.662396358933
 20
-4511.722101059913
 40
26.751469280685
100
AcDbArc
 50
-175.023726763517
 51
-161.111347820431
  0
ARC
  5
575
100
AcDbEntity
  8
0
  6
CONTINUOUS
 62
           7
100
AcDbCircle
 10
-1203.662396358933
 20
-4546.363117211294
 40
26.751469280682
100
AcDbArc
 50
161.111347820413
 51
175.023726763519
  0
ARC
  5
574
100
AcDbEntity
  8
0
  6
CONTINUOUS
 62
           7
100
AcDbCircle
 10
-1218.042950816273
 20
-3627.042606473261
 40
12.999999801318
100
AcDbArc
 50
90.000035972185
 51
-179.999982013911
  0
ARC
  5
573
100
AcDbEntity
  8
0
  6
CONTINUOUS
 62
           7
100
AcDbCircle
 10
-1218.042950816273
 20
-3627.042606473261
 40
6.999999403954
100
AcDbArc
 50
90.000035972174
 51
-179.99998201391
  0
LINE
  5
572
100
AcDbEntity
  8
0
  6
CONTINUOUS
 62
           7
100
AcDbLine
 10
-1207.513031453543
 20
-4824.042606870624
 11
-607.513031453541
 21
-4824.042606870624
  0
LINE
  5
571
100
AcDbEntity
  8
0
  6
CONTINUOUS
 62
           7
100
AcDbLine
 10
-637.513031453541
 20
-4824.042606870624
 11
-637.513031453541
 21
-4864.042606870624
  0
LINE
  5
570
100
AcDbEntity
  8
0
  6
CONTINUOUS
 62
           7
100
AcDbLine
 10
-635.513031453541
 20
-4826.042606870624
 11
-635.513031453541
 21
-4862.042606870624
  0
LINE
  5
56F
100
AcDbEntity
  8
0
  6
CONTINUOUS
 62
           7
100
AcDbLine
 10
-607.513031453541
 20
-4862.042606870624
 11
-607.513031453541
 21
-4864.042606870624
  0
LINE
  5
56E
100
AcDbEntity
  8
0
  6
CONTINUOUS
 62
           7
100
AcDbLine
 10
-637.513031453541
 20
-4864.042606870624
 11
-607.513031453541
 21
-4864.042606870624
  0
LINE
  5
56D
100
AcDbEntity
  8
0
  6
CONTINUOUS
 62
           7
100
AcDbLine
 10
-635.513031453541
 20
-4862.042606870624
 11
-607.513031453541
 21
-4862.042606870624
  0
LINE
  5
56C
100
AcDbEntity
  8
0
  6
CONTINUOUS
 62
           7
100
AcDbLine
 10
-635.513031453541
 20
-4826.042606870624
 11
-607.513031453541
 21
-4826.042606870624
  0
LINE
  5
56B
100
AcDbEntity
  8
0
  6
CONTINUOUS
 62
           3
100
AcDbLine
 10
-727.513031453541
 20
-4074.042609135602
 11
-727.513031453541
 21
-4097.842609135601
  0
LINE
  5
56A
100
AcDbEntity
  8
0
  6
CONTINUOUS
 62
           7
100
AcDbLine
 10
-1207.513031453543
 20
-4099.042609135602
 11
-1207.513031453543
 21
-4826.042606870624
  0
LINE
  5
569
100
AcDbEntity
  8
0
  6
CONTINUOUS
 62
           3
100
AcDbLine
 10
-622.513031453541
 20
-4849.016789354334
 11
-622.513031453541
 21
-4875.468399368864
  0
LINE
  5
568
100
AcDbEntity
  8
0
  6
CONTINUOUS
 62
           7
100
AcDbLine
 10
-607.513031453541
 20
-4099.042609135602
 11
-607.513031453541
 21
-4826.042606870624
  0
LINE
  5
567
100
AcDbEntity
  8
0
  6
CONTINUOUS
 62
           7
100
AcDbLine
 10
-1207.513031453543
 20
-4862.042606870624
 11
-1207.513031453543
 21
-4864.042606870624
  0
LINE
  5
566
100
AcDbEntity
  8
0
  6
CONTINUOUS
 62
           7
100
AcDbLine
 10
-1177.513031453543
 20
-4824.042606870624
 11
-1177.513031453543
 21
-4864.042606870624
  0
LINE
  5
565
100
AcDbEntity
  8
0
  6
CONTINUOUS
 62
           7
100
AcDbLine
 10
-1179.513031453543
 20
-4826.042606870624
 11
-1179.513031453543
 21
-4862.042606870624
  0
LINE
  5
564
100
AcDbEntity
  8
0
  6
CONTINUOUS
 62
           7
100
AcDbLine
 10
-1177.513031453543
 20
-4864.042606870624
 11
-1207.513031453543
 21
-4864.042606870624
  0
LINE
  5
563
100
AcDbEntity
  8
0
  6
CONTINUOUS
 62
           7
100
AcDbLine
 10
-1179.513031453543
 20
-4862.042606870624
 11
-1207.513031453543
 21
-4862.042606870624
  0
LINE
  5
562
100
AcDbEntity
  8
0
  6
CONTINUOUS
 62
           7
100
AcDbLine
 10
-1179.513031453543
 20
-4826.042606870624
 11
-1207.513031453543
 21
-4826.042606870624
  0
LINE
  5
561
100
AcDbEntity
  8
0
  6
CONTINUOUS
 62
           3
100
AcDbLine
 10
-1192.513031453543
 20
-4849.016789354334
 11
-1192.513031453543
 21
-4875.468399368864
  0
LINE
  5
560
100
AcDbEntity
  8
0
  6
CONTINUOUS
 62
           3
100
AcDbLine
 10
-1132.513031453543
 20
-4063.633402936221
 11
-1132.513031453543
 21
-4097.842609135601
  0
LINE
  5
55F
100
AcDbEntity
  8
0
  6
CONTINUOUS
 62
           7
100
AcDbLine
 10
-1207.513031453543
 20
-3299.042606870625
 11
-1207.513031453543
 21
-3329.042606870625
  0
LINE
  5
55E
100
AcDbEntity
  8
0
  6
CONTINUOUS
 62
           7
100
AcDbLine
 10
-1207.513031453543
 20
-3619.042606870625
 11
-1207.513031453543
 21
-3649.042606870625
  0
LINE
  5
55D
100
AcDbEntity
  8
0
  6
CONTINUOUS
 62
           7
100
AcDbLine
 10
-1177.513031453543
 20
-3649.042606870625
 11
-1207.513031453543
 21
-3649.042606870625
  0
LINE
  5
55C
100
AcDbEntity
  8
0
  6
CONTINUOUS
 62
           7
100
AcDbLine
 10
-1177.513031453543
 20
-3299.042606870625
 11
-1207.513031453543
 21
-3299.042606870625
  0
LINE
  5
55B
100
AcDbEntity
  8
0
  6
CONTINUOUS
 62
           7
100
AcDbLine
 10
-607.513031453541
 20
-3330.042606870625
 11
-633.313031453541
 21
-3330.042606870625
  0
LINE
  5
55A
100
AcDbEntity
  8
0
  6
CONTINUOUS
 62
           7
100
AcDbLine
 10
-607.513031453541
 20
-3299.042606870625
 11
-607.513031453541
 21
-3329.042606870625
  0
LINE
  5
559
100
AcDbEntity
  8
0
  6
CONTINUOUS
 62
           7
100
AcDbLine
 10
-607.513031453541
 20
-3618.042606870625
 11
-633.313031453541
 21
-3618.042606870625
  0
LINE
  5
558
100
AcDbEntity
  8
0
  6
CONTINUOUS
 62
           7
100
AcDbLine
 10
-607.513031453541
 20
-3329.042606870625
 11
-607.513031453541
 21
-3619.042606870625
  0
LINE
  5
557
100
AcDbEntity
  8
0
  6
CONTINUOUS
 62
           7
100
AcDbLine
 10
-637.513031453541
 20
-3649.042606870625
 11
-607.513031453541
 21
-3649.042606870625
  0
LINE
  5
556
100
AcDbEntity
  8
0
  6
CONTINUOUS
 62
           7
100
AcDbLine
 10
-638.513031453541
 20
-3299.042606870625
 11
-638.513031453541
 21
-3324.842606870625
  0
LINE
  5
555
100
AcDbEntity
  8
0
  6
CONTINUOUS
 62
           7
100
AcDbLine
 10
-638.513031453541
 20
-3649.042606870625
 11
-638.513031453541
 21
-3623.242606870625
  0
LINE
  5
554
100
AcDbEntity
  8
0
  6
CONTINUOUS
 62
           7
100
AcDbLine
 10
-1176.513031453543
 20
-3649.042606870625
 11
-1176.513031453543
 21
-3623.242606870625
  0
LINE
  5
553
100
AcDbEntity
  8
0
  6
CONTINUOUS
 62
           7
100
AcDbLine
 10
-637.513031453541
 20
-3299.042606870625
 11
-607.513031453541
 21
-3299.042606870625
  0
LINE
  5
552
100
AcDbEntity
  8
0
  6
CONTINUOUS
 62
           7
100
AcDbLine
 10
-1207.513031453543
 20
-3329.042606870625
 11
-1207.513031453543
 21
-3344.042606870625
  0
LINE
  5
551
100
AcDbEntity
  8
0
  6
CONTINUOUS
 62
           7
100
AcDbLine
 10
-607.513031453541
 20
-3619.042606870625
 11
-607.513031453541
 21
-3649.042606870625
  0
LINE
  5
550
100
AcDbEntity
  8
0
  6
CONTINUOUS
 62
           7
100
AcDbLine
 10
-1207.513031453543
 20
-3329.042606870625
 11
-1207.513031453543
 21
-3619.042606870625
  0
LINE
  5
54F
100
AcDbEntity
  8
0
  6
CONTINUOUS
 62
           7
100
AcDbLine
 10
-1207.513031453543
 20
-3619.042606870625
 11
-1207.513031453543
 21
-3604.042606870625
  0
LINE
  5
54E
100
AcDbEntity
  8
0
  6
CONTINUOUS
 62
           7
100
AcDbLine
 10
-1351.312996684163
 20
-3518.542577730577
 11
-1351.312996684163
 21
-3566.542636010672
  0
LINE
  5
54D
100
AcDbEntity
  8
0
  6
CONTINUOUS
 62
           7
100
AcDbLine
 10
-1339.313061587003
 20
-3518.542577730577
 11
-1339.313061587003
 21
-3566.542636010672
  0
LINE
  5
54C
100
AcDbEntity
  8
0
  6
CONTINUOUS
 62
           3
100
AcDbLine
 10
-1355.513356823493
 20
-3542.542606870625
 11
-1230.313031453543
 21
-3542.542606870625
  0
LINE
  5
54B
100
AcDbEntity
  8
0
  6
CONTINUOUS
 62
           7
100
AcDbLine
 10
-1339.312976815953
 20
-3547.542572763524
 11
-1313.313018539203
 21
-3547.542572763524
  0
LINE
  5
54A
100
AcDbEntity
  8
0
  6
CONTINUOUS
 62
           7
100
AcDbLine
 10
-1339.312976815953
 20
-3537.542640977726
 11
-1313.313018539203
 21
-3537.542640977726
  0
LINE
  5
549
100
AcDbEntity
  8
0
  6
CONTINUOUS
 62
           7
100
AcDbLine
 10
-1313.313018539203
 20
-3532.54259031378
 11
-1298.313036089453
 21
-3532.54259031378
  0
LINE
  5
548
100
AcDbEntity
  8
0
  6
CONTINUOUS
 62
           7
100
AcDbLine
 10
-1313.313018539203
 20
-3532.542622102922
 11
-1313.313018539203
 21
-3552.542612831089
  0
LINE
  5
547
100
AcDbEntity
  8
0
  6
CONTINUOUS
 62
           7
100
AcDbLine
 10
-1313.313018539203
 20
-3552.54262342747
 11
-1298.313036089453
 21
-3552.54262342747
  0
LINE
  5
546
100
AcDbEntity
  8
0
  6
CONTINUOUS
 62
           7
100
AcDbLine
 10
-1298.313036089453
 20
-3528.542679058469
 11
-1298.313036089453
 21
-3556.542683032112
  0
LINE
  5
545
100
AcDbEntity
  8
0
  6
CONTINUOUS
 62
           7
100
AcDbLine
 10
-1298.313087859393
 20
-3556.542550626092
 11
-1287.920765365703
 21
-3562.542559794808
  0
LINE
  5
544
100
AcDbEntity
  8
0
  6
CONTINUOUS
 62
           7
100
AcDbLine
 10
-1298.313003762823
 20
-3528.542549715774
 11
-1287.920682377093
 21
-3522.542538628014
  0
LINE
  5
543
100
AcDbEntity
  8
0
  6
CONTINUOUS
 62
           7
100
AcDbLine
 10
-1287.920699127193
 20
-3522.542573756935
 11
-1254.705283644753
 21
-3522.542573756935
  0
LINE
  5
542
100
AcDbEntity
  8
0
  6
CONTINUOUS
 62
           7
100
AcDbLine
 10
-1254.705330890313
 20
-3522.542723738462
 11
-1244.313081810503
 21
-3528.54269052166
  0
LINE
  5
541
100
AcDbEntity
  8
0
  6
CONTINUOUS
 62
           7
100
AcDbLine
 10
-1244.313031453543
 20
-3532.042610678699
 11
-1230.313031453543
 21
-3532.042610678699
  0
LINE
  5
540
100
AcDbEntity
  8
0
  6
CONTINUOUS
 62
           7
100
AcDbLine
 10
-1244.313031453543
 20
-3553.04260306255
 11
-1230.313031453543
 21
-3553.04260306255
  0
LINE
  5
53F
100
AcDbEntity
  8
0
  6
CONTINUOUS
 62
           7
100
AcDbLine
 10
-1244.313031453543
 20
-3528.542668462089
 11
-1244.313031453543
 21
-3556.542672435731
  0
LINE
  5
53E
100
AcDbEntity
  8
0
  6
CONTINUOUS
 62
           7
100
AcDbLine
 10
-1254.705418371433
 20
-3562.542569121278
 11
-1244.313133692643
 21
-3556.542579226284
  0
LINE
  5
53D
100
AcDbEntity
  8
0
  6
CONTINUOUS
 62
           7
100
AcDbLine
 10
-1287.920699127193
 20
-3562.542639984315
 11
-1254.705368415803
 21
-3562.542639984315
  0
LINE
  5
53C
100
AcDbEntity
  8
0
  6
CONTINUOUS
 62
           3
100
AcDbLine
 10
-1271.313033771503
 20
-3492.542524086399
 11
-1271.313033771503
 21
-3592.542520112756
  0
LINE
  5
53B
100
AcDbEntity
  8
0
  6
CONTINUOUS
 62
           7
100
AcDbLine
 10
-1230.313031453543
 20
-3542.542606870625
 11
-1207.513031453543
 21
-3542.542606870625
  0
LINE
  5
53A
100
AcDbEntity
  8
0
  6
CONTINUOUS
 62
           3
100
AcDbLine
 10
-1351.313081455213
 20
-4529.042609135604
 11
-1207.513031453543
 21
-4529.042609135604
  0
LINE
  5
539
100
AcDbEntity
  8
0
  6
CONTINUOUS
 62
           7
100
AcDbLine
 10
102.886968546459
 20
-4824.042606870624
 11
-247.113031453541
 21
-4824.042606870624
  0
LINE
  5
538
100
AcDbEntity
  8
0
  6
CONTINUOUS
 62
           7
100
AcDbLine
 10
102.886968546459
 20
-4864.042606870624
 11
-247.113031453541
 21
-4864.042606870624
  0
LINE
  5
537
100
AcDbEntity
  8
0
  6
CONTINUOUS
 62
           7
100
AcDbLine
 10
102.886968546459
 20
-4098.042609135602
 11
71.886968546459
 21
-4098.042609135602
  0
LINE
  5
536
100
AcDbEntity
  8
0
  6
CONTINUOUS
 62
           7
100
AcDbLine
 10
102.886968546459
 20
-4862.042606870624
 11
-247.113031453541
 21
-4862.042606870624
  0
LINE
  5
535
100
AcDbEntity
  8
0
  6
CONTINUOUS
 62
           7
100
AcDbLine
 10
102.886968546459
 20
-4826.042606870624
 11
-247.113031453541
 21
-4826.042606870624
  0
LINE
  5
534
100
AcDbEntity
  8
0
  6
CONTINUOUS
 62
           3
100
AcDbLine
 10
-172.113031453541
 20
-4055.968962941011
 11
-172.113031453541
 21
-4099.042609135602
  0
LINE
  5
533
100
AcDbEntity
  8
0
  6
CONTINUOUS
 62
           7
100
AcDbLine
 10
102.886968546459
 20
-4097.042609135602
 11
102.886968546459
 21
-4864.042606870624
  0
LINE
  5
532
100
AcDbEntity
  8
0
  6
CONTINUOUS
 62
           7
100
AcDbLine
 10
-247.113031453541
 20
-4097.042609135602
 11
-247.113031453541
 21
-4864.042606870624
  0
LINE
  5
531
100
AcDbEntity
  8
0
  6
CONTINUOUS
 62
           3
100
AcDbLine
 10
-222.113031453541
 20
-4843.246795123004
 11
-222.113031453541
 21
-4878.588831595804
  0
LINE
  5
530
100
AcDbEntity
  8
0
  6
CONTINUOUS
 62
           3
100
AcDbLine
 10
77.886968546459
 20
-4843.790518761054
 11
77.886968546459
 21
-4878.588831595804
  0
LINE
  5
52F
100
AcDbEntity
  8
0
  6
CONTINUOUS
 62
           7
100
AcDbLine
 10
-202.113031453541
 20
-4809.042606870624
 11
-202.113031453541
 21
-4824.042606870624
  0
LINE
  5
52E
100
AcDbEntity
  8
0
  6
CONTINUOUS
 62
           7
100
AcDbLine
 10
72.886968546459
 20
-4098.042609135602
 11
72.886968546459
 21
-4824.042606870624
  0
LINE
  5
52D
100
AcDbEntity
  8
0
  6
CONTINUOUS
 62
           7
100
AcDbLine
 10
-217.113031453541
 20
-4098.042609135602
 11
-217.113031453541
 21
-4824.042606870624
  0
LINE
  5
52C
100
AcDbEntity
  8
0
  6
CONTINUOUS
 62
           7
100
AcDbLine
 10
57.886968546459
 20
-4809.042606870624
 11
57.886968546459
 21
-4824.042606870624
  0
LINE
  5
52B
100
AcDbEntity
  8
0
  6
CONTINUOUS
 62
           7
100
AcDbLine
 10
57.886968546459
 20
-4809.042606870624
 11
-202.113031453541
 21
-4809.042606870624
  0
LINE
  5
52A
100
AcDbEntity
  8
0
  6
CONTINUOUS
 62
           7
100
AcDbLine
 10
102.886968546459
 20
-4097.042609135602
 11
71.886968546459
 21
-4097.042609135602
  0
LINE
  5
529
100
AcDbEntity
  8
0
  6
CONTINUOUS
 62
           7
100
AcDbLine
 10
-216.113031453541
 20
-4097.042609135602
 11
-247.113031453541
 21
-4097.042609135602
  0
LINE
  5
528
100
AcDbEntity
  8
0
  6
CONTINUOUS
 62
           7
100
AcDbLine
 10
-216.113031453541
 20
-4098.042609135602
 11
-247.113031453541
 21
-4098.042609135602
  0
LINE
  5
527
100
AcDbEntity
  8
0
  6
CONTINUOUS
 62
           7
100
AcDbLine
 10
-151.613031453541
 20
-4069.042609135602
 11
-192.613031453541
 21
-4069.042609135602
  0
LINE
  5
526
100
AcDbEntity
  8
0
  6
CONTINUOUS
 62
           7
100
AcDbLine
 10
-192.613031453541
 20
-4069.042609135602
 11
-192.613031453541
 21
-4097.042606870625
  0
LINE
  5
525
100
AcDbEntity
  8
0
  6
CONTINUOUS
 62
           7
100
AcDbLine
 10
-151.613031453541
 20
-4069.042609135602
 11
-151.613031453541
 21
-4097.042606870625
  0
LINE
  5
524
100
AcDbEntity
  8
0
  6
CONTINUOUS
 62
           7
100
AcDbLine
 10
-172.113031453541
 20
-4069.042609135602
 11
-172.113031453541
 21
-4097.042606870625
  0
LINE
  5
523
100
AcDbEntity
  8
0
  6
CONTINUOUS
 62
           7
100
AcDbLine
 10
-1228.973285491383
 20
-4546.363117211294
 11
-1207.513031453543
 21
-4546.363117211294
  0
LINE
  5
522
100
AcDbEntity
  8
0
  6
CONTINUOUS
 62
           7
100
AcDbLine
 10
-1228.973285491383
 20
-4511.722101059913
 11
-1207.513031453543
 21
-4511.722101059913
  0
LINE
  5
521
100
AcDbEntity
  8
0
  6
CONTINUOUS
 62
           7
100
AcDbLine
 10
-1230.313031453543
 20
-4514.042609135604
 11
-1228.973285491383
 21
-4511.722101059913
  0
LINE
  5
520
100
AcDbEntity
  8
0
  6
CONTINUOUS
 62
           7
100
AcDbLine
 10
-1230.313031453543
 20
-4514.042609135604
 11
-1230.313031453543
 21
-4544.042609135604
  0
LINE
  5
51F
100
AcDbEntity
  8
0
  6
CONTINUOUS
 62
           7
100
AcDbLine
 10
-1230.313031453543
 20
-4544.042609135604
 11
-1228.973285491383
 21
-4546.363117211294
  0
LINE
  5
51E
100
AcDbEntity
  8
0
  6
CONTINUOUS
 62
           7
100
AcDbLine
 10
-1228.973285491383
 20
-4537.702863173444
 11
-1207.513031453543
 21
-4537.702863173444
  0
LINE
  5
51D
100
AcDbEntity
  8
0
  6
CONTINUOUS
 62
           7
100
AcDbLine
 10
-1228.973285491383
 20
-4520.382355097754
 11
-1207.513031453543
 21
-4520.382355097754
  0
LINE
  5
51C
100
AcDbEntity
  8
0
  6
CONTINUOUS
 62
           7
100
AcDbLine
 10
-1230.313031453543
 20
-3557.542606870625
 11
-1207.513031453543
 21
-3557.542606870625
  0
LINE
  5
51B
100
AcDbEntity
  8
0
  6
CONTINUOUS
 62
           7
100
AcDbLine
 10
-1230.313031453543
 20
-3527.542606870625
 11
-1207.513031453543
 21
-3527.542606870625
  0
LINE
  5
51A
100
AcDbEntity
  8
0
  6
CONTINUOUS
 62
           7
100
AcDbLine
 10
-1177.513031453543
 20
-3649.042606870625
 11
-637.513031453541
 21
-3649.042606870625
  0
LINE
  5
519
100
AcDbEntity
  8
0
  6
CONTINUOUS
 62
           7
100
AcDbLine
 10
-1177.513031453543
 20
-3299.042606870625
 11
-637.513031453541
 21
-3299.042606870625
  0
LINE
  5
518
100
AcDbEntity
  8
0
  6
CONTINUOUS
 62
           7
100
AcDbLine
 10
-1171.513031453543
 20
-3618.242606870625
 11
-643.513031453541
 21
-3618.242606870625
  0
LINE
  5
517
100
AcDbEntity
  8
0
  6
CONTINUOUS
 62
           7
100
AcDbLine
 10
-1171.513031453543
 20
-3329.842606870625
 11
-643.513031453541
 21
-3329.842606870625
  0
LINE
  5
516
100
AcDbEntity
  8
0
  6
CONTINUOUS
 62
           7
100
AcDbLine
 10
-638.313031453541
 20
-3335.042606870625
 11
-638.313031453541
 21
-3613.042606870625
  0
LINE
  5
515
100
AcDbEntity
  8
0
  6
CONTINUOUS
 62
           7
100
AcDbLine
 10
-643.513031453541
 20
-3329.842606870625
 11
-638.513031453541
 21
-3324.842606870625
  0
LINE
  5
514
100
AcDbEntity
  8
0
  6
CONTINUOUS
 62
           7
100
AcDbLine
 10
-638.313031453541
 20
-3335.042606870625
 11
-633.313031453541
 21
-3330.042606870625
  0
LINE
  5
513
100
AcDbEntity
  8
0
  6
CONTINUOUS
 62
           7
100
AcDbLine
 10
-643.513031453541
 20
-3618.242606870625
 11
-638.513031453541
 21
-3623.242606870625
  0
LINE
  5
512
100
AcDbEntity
  8
0
  6
CONTINUOUS
 62
           7
100
AcDbLine
 10
-638.313031453541
 20
-3613.042606870625
 11
-633.313031453541
 21
-3618.042606870625
  0
LINE
  5
511
100
AcDbEntity
  8
0
  6
CONTINUOUS
 62
           7
100
AcDbLine
 10
-1207.513031453543
 20
-3314.042606870625
 11
-1177.513031453543
 21
-3314.042606870625
  0
LINE
  5
510
100
AcDbEntity
  8
0
  6
CONTINUOUS
 62
           7
100
AcDbLine
 10
-1176.513031453543
 20
-3299.042606870625
 11
-1176.513031453543
 21
-3324.842606870625
  0
LINE
  5
50F
100
AcDbEntity
  8
0
  6
CONTINUOUS
 62
           7
100
AcDbLine
 10
-1176.513031453543
 20
-3324.842606870625
 11
-1171.513031453543
 21
-3329.842606870625
  0
LINE
  5
50E
100
AcDbEntity
  8
0
  6
CONTINUOUS
 62
           7
100
AcDbLine
 10
-1176.513031453543
 20
-3623.242606870625
 11
-1171.513031453543
 21
-3618.242606870625
  0
LINE
  5
50D
100
AcDbEntity
  8
0
  6
CONTINUOUS
 62
           7
100
AcDbLine
 10
-1207.513031453543
 20
-3634.042606870625
 11
-1177.513031453543
 21
-3634.042606870625
  0
LINE
  5
50C
100
AcDbEntity
  8
0
  6
CONTINUOUS
 62
           7
100
AcDbLine
 10
-607.513031453541
 20
-4097.042606870625
 11
-607.513031453541
 21
-4824.042606870624
  0
LINE
  5
50B
100
AcDbEntity
  8
0
  6
CONTINUOUS
 62
           7
100
AcDbLine
 10
-638.513031453541
 20
-4097.042606870625
 11
-607.513031453541
 21
-4097.042606870625
  0
LINE
  5
50A
100
AcDbEntity
  8
0
  6
CONTINUOUS
 62
           7
100
AcDbLine
 10
-1176.513031453543
 20
-4097.042606870625
 11
-1207.513031453543
 21
-4097.042606870625
  0
LINE
  5
509
100
AcDbEntity
  8
0
  6
CONTINUOUS
 62
           7
100
AcDbLine
 10
-1177.513031453543
 20
-4097.042606870625
 11
-1177.513031453543
 21
-4826.042606870624
  0
LINE
  5
508
100
AcDbEntity
  8
0
  6
CONTINUOUS
 62
           7
100
AcDbLine
 10
-637.513031453541
 20
-4097.042606870625
 11
-637.513031453541
 21
-4824.042606870624
  0
LINE
  5
507
100
AcDbEntity
  8
0
  6
CONTINUOUS
 62
           7
100
AcDbLine
 10
-637.513031453541
 20
-3299.042606870625
 11
-637.513031453541
 21
-3329.042606870625
  0
LINE
  5
506
100
AcDbEntity
  8
0
  6
CONTINUOUS
 62
           7
100
AcDbLine
 10
-637.513031453541
 20
-3649.042606870625
 11
-637.513031453541
 21
-3619.042606870625
  0
LINE
  5
505
100
AcDbEntity
  8
0
  6
CONTINUOUS
 62
           7
100
AcDbLine
 10
-1177.513031453543
 20
-3649.042606870625
 11
-1177.513031453543
 21
-3634.042606870625
  0
LINE
  5
504
100
AcDbEntity
  8
0
  6
CONTINUOUS
 62
           7
100
AcDbLine
 10
-1177.513031453543
 20
-3299.042606870625
 11
-1177.513031453543
 21
-3314.042606870625
  0
LINE
  5
503
100
AcDbEntity
  8
0
  6
CONTINUOUS
 62
           7
100
AcDbLine
 10
-607.513031453541
 20
-3619.042606870625
 11
-637.513031453541
 21
-3619.042606870625
  0
LINE
  5
502
100
AcDbEntity
  8
0
  6
CONTINUOUS
 62
           7
100
AcDbLine
 10
-607.513031453541
 20
-3329.042606870625
 11
-637.513031453541
 21
-3329.042606870625
  0
LINE
  5
501
100
AcDbEntity
  8
0
  6
CONTINUOUS
 62
           7
100
AcDbLine
 10
-1230.313031453543
 20
-3527.542606870625
 11
-1230.313031453543
 21
-3557.542606870625
  0
LINE
  5
500
100
AcDbEntity
  8
0
  6
CONTINUOUS
 62
           7
100
AcDbLine
 10
-1229.042943597493
 20
-3700.422414624766
 11
-1229.042943597493
 21
-3692.967540783977
  0
LINE
  5
4FF
100
AcDbEntity
  8
0
  6
CONTINUOUS
 62
           7
100
AcDbLine
 10
-1231.042929954653
 20
-3692.967540783978
 11
-1225.042970883173
 21
-3692.967540783978
  0
LINE
  5
4FE
100
AcDbEntity
  8
0
  6
CONTINUOUS
 62
           7
100
AcDbLine
 10
-1231.042929954653
 20
-3627.042606473261
 11
-1231.042929954653
 21
-3662.43389128113
  0
LINE
  5
4FD
100
AcDbEntity
  8
0
  6
CONTINUOUS
 62
           7
100
AcDbLine
 10
-1225.042970883173
 20
-3627.042606473261
 11
-1225.042970883173
 21
-3663.873863147739
  0
LINE
  5
4FC
100
AcDbEntity
  8
0
  6
CONTINUOUS
 62
           7
100
AcDbLine
 10
-1207.528170553753
 20
-3614.042627334885
 11
-1218.042950816273
 21
-3614.042627334885
  0
LINE
  5
4FB
100
AcDbEntity
  8
0
  6
CONTINUOUS
 62
           7
100
AcDbLine
 10
-1207.497892353323
 20
-3620.042586406364
 11
-1218.042950816273
 21
-3620.042586406364
  0
LINE
  5
4FA
100
AcDbEntity
  8
0
  6
CONTINUOUS
 62
           7
100
AcDbLine
 10
-1236.951268254983
 20
-3661.015897296711
 11
-1220.735887570073
 21
-3664.907592646859
  0
LINE
  5
4F9
100
AcDbEntity
  8
0
  6
CONTINUOUS
 62
           7
100
AcDbLine
 10
-1238.118134100973
 20
-3665.87783334222
 11
-1221.902753416073
 21
-3669.769528692369
  0
LINE
  5
4F8
100
AcDbEntity
  8
0
  6
CONTINUOUS
 62
           7
100
AcDbLine
 10
-1225.042970883173
 20
-3669.015871406956
 11
-1225.042970883173
 21
-3692.967540783978
  0
LINE
  5
4F7
100
AcDbEntity
  8
0
  6
CONTINUOUS
 62
           7
100
AcDbLine
 10
-1231.042929954653
 20
-3667.575899540347
 11
-1231.042929954653
 21
-3692.967540783978
  0
LINE
  5
4F6
100
AcDbEntity
  8
0
  6
CONTINUOUS
 62
           7
100
AcDbLine
 10
-1227.042957240333
 20
-3700.422414624766
 11
-1227.042957240333
 21
-3692.967540783977
  0
LINE
  5
4F5
100
AcDbEntity
  8
0
  6
CONTINUOUS
 62
           7
100
AcDbLine
 10
-1207.513031453543
 20
-4793.042627334884
 11
-1236.704316261403
 21
-4793.042627334884
  0
LINE
  5
4F4
100
AcDbEntity
  8
0
  6
CONTINUOUS
 62
           7
100
AcDbLine
 10
-1207.513031453543
 20
-4799.042586406364
 11
-1238.144288128013
 21
-4799.042586406364
  0
LINE
  5
4F3
100
AcDbEntity
  8
0
  6
CONTINUOUS
 62
           7
100
AcDbLine
 10
-1235.286322276993
 20
-4787.134289034554
 11
-1239.178017627133
 21
-4803.349669719464
  0
LINE
  5
4F2
100
AcDbEntity
  8
0
  6
CONTINUOUS
 62
           7
100
AcDbLine
 10
-1240.148258322503
 20
-4785.967423188564
 11
-1244.039953672643
 21
-4802.182803873464
  0
LINE
  5
4F1
100
AcDbEntity
  8
0
  6
CONTINUOUS
 62
           7
100
AcDbLine
 10
-1243.286296387233
 20
-4799.042586406364
 11
-1257.166008703993
 21
-4799.042586406364
  0
LINE
  5
4F0
100
AcDbEntity
  8
0
  6
CONTINUOUS
 62
           7
100
AcDbLine
 10
-1241.846324520623
 20
-4793.042627334884
 11
-1257.166008703993
 21
-4793.042627334884
  0
LINE
  5
4EF
100
AcDbEntity
  8
0
  6
CONTINUOUS
 62
           7
100
AcDbLine
 10
-658.513031453541
 20
-4107.042606870625
 11
-658.513031453541
 21
-4167.042606870625
  0
LINE
  5
4EE
100
AcDbEntity
  8
0
  6
CONTINUOUS
 62
           7
100
AcDbLine
 10
-758.513031453541
 20
-4107.042606870625
 11
-658.513031453541
 21
-4107.042606870625
  0
LINE
  5
4ED
100
AcDbEntity
  8
0
  6
CONTINUOUS
 62
           7
100
AcDbLine
 10
-758.513031453541
 20
-4107.042606870625
 11
-758.513031453541
 21
-4167.042606870625
  0
LINE
  5
4EC
100
AcDbEntity
  8
0
  6
CONTINUOUS
 62
           7
100
AcDbLine
 10
-758.513031453541
 20
-4167.042606870625
 11
-658.513031453541
 21
-4167.042606870625
  0
LINE
  5
4EB
100
AcDbEntity
  8
0
  6
CONTINUOUS
 62
           7
100
AcDbLine
 10
-48.113031453541
 20
-4754.042606870624
 11
61.886968546459
 21
-4754.042606870624
  0
LINE
  5
4EA
100
AcDbEntity
  8
0
  6
CONTINUOUS
 62
           7
100
AcDbLine
 10
-48.113031453541
 20
-4754.042606870624
 11
-48.113031453541
 21
-4799.042606870624
  0
LINE
  5
4E9
100
AcDbEntity
  8
0
  6
CONTINUOUS
 62
           7
100
AcDbLine
 10
61.886968546459
 20
-4754.042606870624
 11
61.886968546459
 21
-4799.042606870624
  0
LINE
  5
4E8
100
AcDbEntity
  8
0
  6
CONTINUOUS
 62
           7
100
AcDbLine
 10
-48.113031453541
 20
-4799.042606870624
 11
61.886968546459
 21
-4799.042606870624
  0
LINE
  5
4E7
100
AcDbEntity
  8
1
  6
CONTINUOUS
 62
           2
100
AcDbLine
 10
948.118705898762
 20
-4917.804837976928
 11
938.518705898762
 21
-4917.804837976928
  0
LINE
  5
4E6
100
AcDbEntity
  8
1
  6
CONTINUOUS
 62
           2
100
AcDbLine
 10
938.518705898762
 20
-4917.804837976928
 11
938.518705898762
 21
-4905.804837976928
  0
LINE
  5
4E5
100
AcDbEntity
  8
1
  6
CONTINUOUS
 62
           2
100
AcDbLine
 10
938.518705898762
 20
-4905.804837976928
 11
949.918705898762
 21
-4905.804837976928
  0
LINE
  5
4E4
100
AcDbEntity
  8
1
  6
CONTINUOUS
 62
           2
100
AcDbLine
 10
949.918705898762
 20
-4905.804837976928
 11
952.318705898762
 21
-4906.404837976928
  0
LINE
  5
4E3
100
AcDbEntity
  8
1
  6
CONTINUOUS
 62
           2
100
AcDbLine
 10
952.318705898762
 20
-4906.404837976928
 11
954.118705898762
 21
-4907.604837976928
  0
LINE
  5
4E2
100
AcDbEntity
  8
1
  6
CONTINUOUS
 62
           2
100
AcDbLine
 10
954.118705898762
 20
-4907.604837976928
 11
954.718705898762
 21
-4908.804837976928
  0
LINE
  5
4E1
100
AcDbEntity
  8
1
  6
CONTINUOUS
 62
           2
100
AcDbLine
 10
954.718705898762
 20
-4908.804837976928
 11
955.318705898762
 21
-4910.604837976928
  0
LINE
  5
4E0
100
AcDbEntity
  8
1
  6
CONTINUOUS
 62
           2
100
AcDbLine
 10
955.318705898762
 20
-4910.604837976928
 11
955.318705898762
 21
-4913.004837976928
  0
LINE
  5
4DF
100
AcDbEntity
  8
1
  6
CONTINUOUS
 62
           2
100
AcDbLine
 10
955.318705898762
 20
-4913.004837976928
 11
954.718705898762
 21
-4914.804837976928
  0
LINE
  5
4DE
100
AcDbEntity
  8
1
  6
CONTINUOUS
 62
           2
100
AcDbLine
 10
954.718705898762
 20
-4914.804837976928
 11
954.118705898762
 21
-4916.004837976928
  0
LINE
  5
4DD
100
AcDbEntity
  8
1
  6
CONTINUOUS
 62
           2
100
AcDbLine
 10
954.118705898762
 20
-4916.004837976928
 11
952.318705898762
 21
-4917.204837976928
  0
LINE
  5
4DC
100
AcDbEntity
  8
1
  6
CONTINUOUS
 62
           2
100
AcDbLine
 10
952.318705898762
 20
-4917.204837976928
 11
949.918705898762
 21
-4917.804837976928
  0
LINE
  5
4DB
100
AcDbEntity
  8
1
  6
CONTINUOUS
 62
           2
100
AcDbLine
 10
949.918705898762
 20
-4917.804837976928
 11
948.118705898762
 21
-4917.804837976928
  0
LINE
  5
4DA
100
AcDbEntity
  8
1
  6
CONTINUOUS
 62
           2
100
AcDbLine
 10
948.118705898762
 20
-4917.804837976928
 11
955.318705898762
 21
-4929.804837976928
  0
LINE
  5
4D9
100
AcDbEntity
  8
1
  6
CONTINUOUS
 62
           2
100
AcDbLine
 10
938.518705898762
 20
-4929.804837976928
 11
938.518705898762
 21
-4917.804837976928
  0
LINE
  5
4D8
100
AcDbEntity
  8
1
  6
CONTINUOUS
 62
           2
100
AcDbLine
 10
979.318705898762
 20
-4913.004837976928
 11
979.318705898762
 21
-4922.604837976928
  0
LINE
  5
4D7
100
AcDbEntity
  8
1
  6
CONTINUOUS
 62
           2
100
AcDbLine
 10
979.318705898762
 20
-4922.604837976928
 11
978.718705898762
 21
-4925.004837976928
  0
LINE
  5
4D6
100
AcDbEntity
  8
1
  6
CONTINUOUS
 62
           2
100
AcDbLine
 10
978.718705898762
 20
-4925.004837976928
 11
977.518705898762
 21
-4926.804837976928
  0
LINE
  5
4D5
100
AcDbEntity
  8
1
  6
CONTINUOUS
 62
           2
100
AcDbLine
 10
977.518705898762
 20
-4926.804837976928
 11
976.318705898762
 21
-4928.004837976928
  0
LINE
  5
4D4
100
AcDbEntity
  8
1
  6
CONTINUOUS
 62
           2
100
AcDbLine
 10
976.318705898762
 20
-4928.004837976928
 11
974.518705898762
 21
-4929.204837976928
  0
LINE
  5
4D3
100
AcDbEntity
  8
1
  6
CONTINUOUS
 62
           2
100
AcDbLine
 10
974.518705898762
 20
-4929.204837976928
 11
972.118705898762
 21
-4929.804837976928
  0
LINE
  5
4D2
100
AcDbEntity
  8
1
  6
CONTINUOUS
 62
           2
100
AcDbLine
 10
972.118705898762
 20
-4929.804837976928
 11
962.518705898762
 21
-4929.804837976928
  0
LINE
  5
4D1
100
AcDbEntity
  8
1
  6
CONTINUOUS
 62
           2
100
AcDbLine
 10
962.518705898762
 20
-4929.804837976928
 11
962.518705898762
 21
-4905.804837976928
  0
LINE
  5
4D0
100
AcDbEntity
  8
1
  6
CONTINUOUS
 62
           2
100
AcDbLine
 10
962.518705898762
 20
-4905.804837976928
 11
972.118705898762
 21
-4905.804837976928
  0
LINE
  5
4CF
100
AcDbEntity
  8
1
  6
CONTINUOUS
 62
           2
100
AcDbLine
 10
972.118705898762
 20
-4905.804837976928
 11
974.518705898762
 21
-4906.404837976928
  0
LINE
  5
4CE
100
AcDbEntity
  8
1
  6
CONTINUOUS
 62
           2
100
AcDbLine
 10
974.518705898762
 20
-4906.404837976928
 11
976.318705898762
 21
-4907.604837976928
  0
LINE
  5
4CD
100
AcDbEntity
  8
1
  6
CONTINUOUS
 62
           2
100
AcDbLine
 10
976.318705898762
 20
-4907.604837976928
 11
977.518705898762
 21
-4908.804837976928
  0
LINE
  5
4CC
100
AcDbEntity
  8
1
  6
CONTINUOUS
 62
           2
100
AcDbLine
 10
977.518705898762
 20
-4908.804837976928
 11
978.718705898762
 21
-4910.604837976928
  0
LINE
  5
4CB
100
AcDbEntity
  8
1
  6
CONTINUOUS
 62
           2
100
AcDbLine
 10
978.718705898762
 20
-4910.604837976928
 11
979.318705898762
 21
-4913.004837976928
  0
LINE
  5
4CA
100
AcDbEntity
  8
1
  6
CONTINUOUS
 62
           2
100
AcDbLine
 10
1003.318705898762
 20
-4905.804837976928
 11
993.118705898762
 21
-4905.804837976928
  0
LINE
  5
4C9
100
AcDbEntity
  8
1
  6
CONTINUOUS
 62
           2
100
AcDbLine
 10
993.118705898762
 20
-4905.804837976928
 11
990.718705898762
 21
-4906.404837976928
  0
LINE
  5
4C8
100
AcDbEntity
  8
1
  6
CONTINUOUS
 62
           2
100
AcDbLine
 10
990.718705898762
 20
-4906.404837976928
 11
988.918705898762
 21
-4907.604837976928
  0
LINE
  5
4C7
100
AcDbEntity
  8
1
  6
CONTINUOUS
 62
           2
100
AcDbLine
 10
988.918705898762
 20
-4907.604837976928
 11
987.718705898762
 21
-4908.804837976928
  0
LINE
  5
4C6
100
AcDbEntity
  8
1
  6
CONTINUOUS
 62
           2
100
AcDbLine
 10
987.718705898762
 20
-4908.804837976928
 11
987.118705898762
 21
-4910.604837976928
  0
LINE
  5
4C5
100
AcDbEntity
  8
1
  6
CONTINUOUS
 62
           2
100
AcDbLine
 10
987.118705898762
 20
-4910.604837976928
 11
986.518705898762
 21
-4913.004837976928
  0
LINE
  5
4C4
100
AcDbEntity
  8
1
  6
CONTINUOUS
 62
           2
100
AcDbLine
 10
986.518705898762
 20
-4913.004837976928
 11
986.518705898762
 21
-4922.604837976928
  0
LINE
  5
4C3
100
AcDbEntity
  8
1
  6
CONTINUOUS
 62
           2
100
AcDbLine
 10
986.518705898762
 20
-4922.604837976928
 11
987.118705898762
 21
-4925.004837976928
  0
LINE
  5
4C2
100
AcDbEntity
  8
1
  6
CONTINUOUS
 62
           2
100
AcDbLine
 10
987.118705898762
 20
-4925.004837976928
 11
987.718705898762
 21
-4926.804837976928
  0
LINE
  5
4C1
100
AcDbEntity
  8
1
  6
CONTINUOUS
 62
           2
100
AcDbLine
 10
987.718705898762
 20
-4926.804837976928
 11
988.918705898762
 21
-4928.004837976928
  0
LINE
  5
4C0
100
AcDbEntity
  8
1
  6
CONTINUOUS
 62
           2
100
AcDbLine
 10
988.918705898762
 20
-4928.004837976928
 11
991.318705898762
 21
-4929.204837976928
  0
LINE
  5
4BF
100
AcDbEntity
  8
1
  6
CONTINUOUS
 62
           2
100
AcDbLine
 10
991.318705898762
 20
-4929.204837976928
 11
993.118705898762
 21
-4929.804837976928
  0
LINE
  5
4BE
100
AcDbEntity
  8
1
  6
CONTINUOUS
 62
           2
100
AcDbLine
 10
993.118705898762
 20
-4929.804837976928
 11
1003.318705898762
 21
-4929.804837976928
  0
LINE
  5
4BD
100
AcDbEntity
  8
1
  6
CONTINUOUS
 62
           2
100
AcDbLine
 10
1003.318705898762
 20
-4929.804837976928
 11
1003.318705898762
 21
-4916.604837976928
  0
LINE
  5
4BC
100
AcDbEntity
  8
1
  6
CONTINUOUS
 62
           2
100
AcDbLine
 10
1003.318705898762
 20
-4916.604837976928
 11
997.318705898762
 21
-4916.604837976928
  0
LINE
  5
4BB
100
AcDbEntity
  8
1
  6
CONTINUOUS
 62
           2
100
AcDbLine
 10
1010.518705898762
 20
-4921.404837976928
 11
1022.518705898762
 21
-4921.404837976928
  0
LINE
  5
4BA
100
AcDbEntity
  8
1
  6
CONTINUOUS
 62
           2
100
AcDbLine
 10
1029.718705898762
 20
-4913.004837976928
 11
1036.918705898762
 21
-4905.804837976928
  0
LINE
  5
4B9
100
AcDbEntity
  8
1
  6
CONTINUOUS
 62
           2
100
AcDbLine
 10
1036.918705898762
 20
-4905.804837976928
 11
1036.918705898762
 21
-4929.804837976928
  0
LINE
  5
4B8
100
AcDbEntity
  8
1
  6
CONTINUOUS
 62
           2
100
AcDbLine
 10
1057.318705898762
 20
-4905.804837976928
 11
1044.118705898762
 21
-4905.804837976928
  0
LINE
  5
4B7
100
AcDbEntity
  8
1
  6
CONTINUOUS
 62
           2
100
AcDbLine
 10
1044.118705898762
 20
-4905.804837976928
 11
1044.118705898762
 21
-4915.404837976928
  0
LINE
  5
4B6
100
AcDbEntity
  8
1
  6
CONTINUOUS
 62
           2
100
AcDbLine
 10
1044.118705898762
 20
-4915.404837976928
 11
1053.118705898762
 21
-4915.404837976928
  0
LINE
  5
4B5
100
AcDbEntity
  8
1
  6
CONTINUOUS
 62
           2
100
AcDbLine
 10
1053.118705898762
 20
-4915.404837976928
 11
1056.118705898762
 21
-4916.004837976928
  0
LINE
  5
4B4
100
AcDbEntity
  8
1
  6
CONTINUOUS
 62
           2
100
AcDbLine
 10
1056.118705898762
 20
-4916.004837976928
 11
1057.918705898762
 21
-4917.804837976928
  0
LINE
  5
4B3
100
AcDbEntity
  8
1
  6
CONTINUOUS
 62
           2
100
AcDbLine
 10
1057.918705898762
 20
-4917.804837976928
 11
1058.518705898762
 21
-4920.204837976928
  0
LINE
  5
4B2
100
AcDbEntity
  8
1
  6
CONTINUOUS
 62
           2
100
AcDbLine
 10
1058.518705898762
 20
-4920.204837976928
 11
1058.518705898762
 21
-4923.804837976928
  0
LINE
  5
4B1
100
AcDbEntity
  8
1
  6
CONTINUOUS
 62
           2
100
AcDbLine
 10
1058.518705898762
 20
-4923.804837976928
 11
1057.918705898762
 21
-4926.204837976928
  0
LINE
  5
4B0
100
AcDbEntity
  8
1
  6
CONTINUOUS
 62
           2
100
AcDbLine
 10
1057.918705898762
 20
-4926.204837976928
 11
1056.718705898762
 21
-4928.004837976928
  0
LINE
  5
4AF
100
AcDbEntity
  8
1
  6
CONTINUOUS
 62
           2
100
AcDbLine
 10
1056.718705898762
 20
-4928.004837976928
 11
1054.918705898762
 21
-4929.204837976928
  0
LINE
  5
4AE
100
AcDbEntity
  8
1
  6
CONTINUOUS
 62
           2
100
AcDbLine
 10
1054.918705898762
 20
-4929.204837976928
 11
1053.118705898762
 21
-4929.804837976928
  0
LINE
  5
4AD
100
AcDbEntity
  8
1
  6
CONTINUOUS
 62
           2
100
AcDbLine
 10
1053.118705898762
 20
-4929.804837976928
 11
1044.118705898762
 21
-4929.804837976928
  0
LINE
  5
4AC
100
AcDbEntity
  8
1
  6
CONTINUOUS
 62
           2
100
AcDbLine
 10
1080.118705898762
 20
-4920.804837976928
 11
1079.518705898762
 21
-4924.404837976928
  0
LINE
  5
4AB
100
AcDbEntity
  8
1
  6
CONTINUOUS
 62
           2
100
AcDbLine
 10
1079.518705898762
 20
-4924.404837976928
 11
1078.318705898762
 21
-4926.804837976928
  0
LINE
  5
4AA
100
AcDbEntity
  8
1
  6
CONTINUOUS
 62
           2
100
AcDbLine
 10
1078.318705898762
 20
-4926.804837976928
 11
1077.118705898762
 21
-4928.004837976928
  0
LINE
  5
4A9
100
AcDbEntity
  8
1
  6
CONTINUOUS
 62
           2
100
AcDbLine
 10
1077.118705898762
 20
-4928.004837976928
 11
1075.318705898762
 21
-4929.204837976928
  0
LINE
  5
4A8
100
AcDbEntity
  8
1
  6
CONTINUOUS
 62
           2
100
AcDbLine
 10
1075.318705898762
 20
-4929.204837976928
 11
1073.518705898762
 21
-4929.804837976928
  0
LINE
  5
4A7
100
AcDbEntity
  8
1
  6
CONTINUOUS
 62
           2
100
AcDbLine
 10
1073.518705898762
 20
-4929.804837976928
 11
1072.318705898762
 21
-4929.804837976928
  0
LINE
  5
4A6
100
AcDbEntity
  8
1
  6
CONTINUOUS
 62
           2
100
AcDbLine
 10
1072.318705898762
 20
-4929.804837976928
 11
1070.518705898762
 21
-4929.204837976928
  0
LINE
  5
4A5
100
AcDbEntity
  8
1
  6
CONTINUOUS
 62
           2
100
AcDbLine
 10
1070.518705898762
 20
-4929.204837976928
 11
1068.718705898762
 21
-4928.004837976928
  0
LINE
  5
4A4
100
AcDbEntity
  8
1
  6
CONTINUOUS
 62
           2
100
AcDbLine
 10
1068.718705898762
 20
-4928.004837976928
 11
1067.518705898762
 21
-4926.804837976928
  0
LINE
  5
4A3
100
AcDbEntity
  8
1
  6
CONTINUOUS
 62
           2
100
AcDbLine
 10
1067.518705898762
 20
-4926.804837976928
 11
1066.318705898762
 21
-4924.404837976928
  0
LINE
  5
4A2
100
AcDbEntity
  8
1
  6
CONTINUOUS
 62
           2
100
AcDbLine
 10
1066.318705898762
 20
-4924.404837976928
 11
1065.718705898762
 21
-4920.804837976928
  0
LINE
  5
4A1
100
AcDbEntity
  8
1
  6
CONTINUOUS
 62
           2
100
AcDbLine
 10
1065.718705898762
 20
-4920.804837976928
 11
1065.718705898762
 21
-4914.804837976928
  0
LINE
  5
4A0
100
AcDbEntity
  8
1
  6
CONTINUOUS
 62
           2
100
AcDbLine
 10
1065.718705898762
 20
-4914.804837976928
 11
1066.318705898762
 21
-4911.204837976928
  0
LINE
  5
49F
100
AcDbEntity
  8
1
  6
CONTINUOUS
 62
           2
100
AcDbLine
 10
1066.318705898762
 20
-4911.204837976928
 11
1067.518705898762
 21
-4908.804837976928
  0
LINE
  5
49E
100
AcDbEntity
  8
1
  6
CONTINUOUS
 62
           2
100
AcDbLine
 10
1067.518705898762
 20
-4908.804837976928
 11
1068.718705898762
 21
-4907.604837976928
  0
LINE
  5
49D
100
AcDbEntity
  8
1
  6
CONTINUOUS
 62
           2
100
AcDbLine
 10
1068.718705898762
 20
-4907.604837976928
 11
1070.518705898762
 21
-4906.404837976928
  0
LINE
  5
49C
100
AcDbEntity
  8
1
  6
CONTINUOUS
 62
           2
100
AcDbLine
 10
1070.518705898762
 20
-4906.404837976928
 11
1072.318705898762
 21
-4905.804837976928
  0
LINE
  5
49B
100
AcDbEntity
  8
1
  6
CONTINUOUS
 62
           2
100
AcDbLine
 10
1072.318705898762
 20
-4905.804837976928
 11
1073.518705898762
 21
-4905.804837976928
  0
LINE
  5
49A
100
AcDbEntity
  8
1
  6
CONTINUOUS
 62
           2
100
AcDbLine
 10
1073.518705898762
 20
-4905.804837976928
 11
1075.318705898762
 21
-4906.404837976928
  0
LINE
  5
499
100
AcDbEntity
  8
1
  6
CONTINUOUS
 62
           2
100
AcDbLine
 10
1075.318705898762
 20
-4906.404837976928
 11
1077.118705898762
 21
-4907.604837976928
  0
LINE
  5
498
100
AcDbEntity
  8
1
  6
CONTINUOUS
 62
           2
100
AcDbLine
 10
1077.118705898762
 20
-4907.604837976928
 11
1078.318705898762
 21
-4908.804837976928
  0
LINE
  5
497
100
AcDbEntity
  8
1
  6
CONTINUOUS
 62
           2
100
AcDbLine
 10
1078.318705898762
 20
-4908.804837976928
 11
1079.518705898762
 21
-4911.204837976928
  0
LINE
  5
496
100
AcDbEntity
  8
1
  6
CONTINUOUS
 62
           2
100
AcDbLine
 10
1079.518705898762
 20
-4911.204837976928
 11
1080.118705898762
 21
-4914.804837976928
  0
LINE
  5
495
100
AcDbEntity
  8
1
  6
CONTINUOUS
 62
           2
100
AcDbLine
 10
1080.118705898762
 20
-4914.804837976928
 11
1080.118705898762
 21
-4920.804837976928
  0
LINE
  5
494
100
AcDbEntity
  8
1
  6
CONTINUOUS
 62
           2
100
AcDbLine
 10
1101.718705898762
 20
-4929.804837976928
 11
1093.918705898762
 21
-4929.804837976928
  0
LINE
  5
493
100
AcDbEntity
  8
1
  6
CONTINUOUS
 62
           2
100
AcDbLine
 10
1093.918705898762
 20
-4929.804837976928
 11
1091.518705898762
 21
-4929.204837976928
  0
LINE
  5
492
100
AcDbEntity
  8
1
  6
CONTINUOUS
 62
           2
100
AcDbLine
 10
1091.518705898762
 20
-4929.204837976928
 11
1089.718705898762
 21
-4928.004837976928
  0
LINE
  5
491
100
AcDbEntity
  8
1
  6
CONTINUOUS
 62
           2
100
AcDbLine
 10
1089.718705898762
 20
-4928.004837976928
 11
1088.518705898762
 21
-4926.804837976928
  0
LINE
  5
490
100
AcDbEntity
  8
1
  6
CONTINUOUS
 62
           2
100
AcDbLine
 10
1088.518705898762
 20
-4926.804837976928
 11
1087.918705898762
 21
-4925.004837976928
  0
LINE
  5
48F
100
AcDbEntity
  8
1
  6
CONTINUOUS
 62
           2
100
AcDbLine
 10
1087.918705898762
 20
-4925.004837976928
 11
1087.318705898762
 21
-4922.604837976928
  0
LINE
  5
48E
100
AcDbEntity
  8
1
  6
CONTINUOUS
 62
           2
100
AcDbLine
 10
1087.318705898762
 20
-4922.604837976928
 11
1087.318705898762
 21
-4913.004837976928
  0
LINE
  5
48D
100
AcDbEntity
  8
1
  6
CONTINUOUS
 62
           2
100
AcDbLine
 10
1087.318705898762
 20
-4913.004837976928
 11
1087.918705898762
 21
-4910.604837976928
  0
LINE
  5
48C
100
AcDbEntity
  8
1
  6
CONTINUOUS
 62
           2
100
AcDbLine
 10
1087.918705898762
 20
-4910.604837976928
 11
1088.518705898762
 21
-4908.804837976928
  0
LINE
  5
48B
100
AcDbEntity
  8
1
  6
CONTINUOUS
 62
           2
100
AcDbLine
 10
1088.518705898762
 20
-4908.804837976928
 11
1089.718705898762
 21
-4907.604837976928
  0
LINE
  5
48A
100
AcDbEntity
  8
1
  6
CONTINUOUS
 62
           2
100
AcDbLine
 10
1089.718705898762
 20
-4907.604837976928
 11
1091.518705898762
 21
-4906.404837976928
  0
LINE
  5
489
100
AcDbEntity
  8
1
  6
CONTINUOUS
 62
           2
100
AcDbLine
 10
1091.518705898762
 20
-4906.404837976928
 11
1093.918705898762
 21
-4905.804837976928
  0
LINE
  5
488
100
AcDbEntity
  8
1
  6
CONTINUOUS
 62
           2
100
AcDbLine
 10
1093.918705898762
 20
-4905.804837976928
 11
1101.718705898762
 21
-4905.804837976928
  0
POINT
  5
487
100
AcDbEntity
  8
0
 62
           7
100
AcDbPoint
 10
-1207.513031453543
 20
-4864.042606870624
  0
POINT
  5
486
100
AcDbEntity
  8
0
 62
           7
100
AcDbPoint
 10
-1351.313081455213
 20
-4529.042609135604
  0
POINT
  5
485
100
AcDbEntity
  8
0
 62
           7
100
AcDbPoint
 10
-1205.913031453543
 20
-4864.042606870624
  0
POINT
  5
484
100
AcDbEntity
  8
0
 62
           7
100
AcDbPoint
 10
-1271.313118542543
 20
-4719.042415089374
  0
POINT
  5
483
100
AcDbEntity
  8
0
 62
           7
100
AcDbPoint
 10
-1207.513031453543
 20
-4104.042609135602
  0
POINT
  5
482
100
AcDbEntity
  8
0
 62
           7
100
AcDbPoint
 10
-1132.513031453543
 20
-4063.633402936221
  0
POINT
  5
481
100
AcDbEntity
  8
0
 62
           7
100
AcDbPoint
 10
-1132.513031453543
 20
-4063.633402936221
  0
POINT
  5
480
100
AcDbEntity
  8
0
 62
           7
100
AcDbPoint
 10
-727.513031453541
 20
-4069.042609135602
  0
POINT
  5
47F
100
AcDbEntity
  8
0
 62
           7
100
AcDbPoint
 10
-607.513031453541
 20
-4097.042606870625
  0
POINT
  5
47E
100
AcDbEntity
  8
0
 62
           7
100
AcDbPoint
 10
-247.113031453541
 20
-4864.042606870624
  0
POINT
  5
47D
100
AcDbEntity
  8
0
 62
           7
100
AcDbPoint
 10
-247.113031453541
 20
-4824.042606870624
  0
POINT
  5
47C
100
AcDbEntity
  8
0
 62
           7
100
AcDbPoint
 10
-247.113031453541
 20
-4097.042609135602
  0
POINT
  5
47B
100
AcDbEntity
  8
0
 62
           7
100
AcDbPoint
 10
-192.613031453541
 20
-4069.042609135602
  0
POINT
  5
47A
100
AcDbEntity
  8
0
 62
           7
100
AcDbPoint
 10
-247.113031453541
 20
-4097.042609135602
  0
POINT
  5
479
100
AcDbEntity
  8
0
 62
           7
100
AcDbPoint
 10
-172.113031453541
 20
-4055.968962941011
  0
POINT
  5
478
100
AcDbEntity
  8
0
 62
           7
100
AcDbPoint
 10
-247.113031453541
 20
-4097.042609135602
  0
POINT
  5
477
100
AcDbEntity
  8
0
 62
           7
100
AcDbPoint
 10
-172.113031453541
 20
-4055.968962941011
  0
POINT
  5
476
100
AcDbEntity
  8
0
 62
           7
100
AcDbPoint
 10
102.886968546459
 20
-4097.042609135602
  0
POINT
  5
475
100
AcDbEntity
  8
0
 62
           7
100
AcDbPoint
 10
-247.113031453541
 20
-4097.042609135602
  0
POINT
  5
474
100
AcDbEntity
  8
0
 62
           7
100
AcDbPoint
 10
102.886968546459
 20
-4097.042609135602
  0
POINT
  5
473
100
AcDbEntity
  8
0
 62
           7
100
AcDbPoint
 10
-247.113031453541
 20
-4864.042606870624
  0
POINT
  5
472
100
AcDbEntity
  8
0
 62
           7
100
AcDbPoint
 10
-192.613031453541
 20
-4069.042609135602
  0
POINT
  5
471
100
AcDbEntity
  8
0
 62
           7
100
AcDbPoint
 10
-1207.513031453543
 20
-4864.042606870624
  0
POINT
  5
470
100
AcDbEntity
  8
0
 62
           7
100
AcDbPoint
 10
-1192.513031453543
 20
-4875.468399368864
  0
POINT
  5
46F
100
AcDbEntity
  8
0
 62
           7
100
AcDbPoint
 10
-1192.513031453543
 20
-4875.468399368864
  0
POINT
  5
46E
100
AcDbEntity
  8
0
 62
           7
100
AcDbPoint
 10
-622.513031453541
 20
-4875.468399368864
  0
POINT
  5
46D
100
AcDbEntity
  8
0
 62
           7
100
AcDbPoint
 10
-622.513031453541
 20
-4875.468399368864
  0
POINT
  5
46C
100
AcDbEntity
  8
0
 62
           7
100
AcDbPoint
 10
-607.513031453541
 20
-4864.042606870624
  0
POINT
  5
46B
100
AcDbEntity
  8
0
 62
           7
100
AcDbPoint
 10
-247.113031453541
 20
-4864.042606870624
  0
POINT
  5
46A
100
AcDbEntity
  8
0
 62
           7
100
AcDbPoint
 10
-222.113031453541
 20
-4878.588831595804
  0
POINT
  5
469
100
AcDbEntity
  8
0
 62
           7
100
AcDbPoint
 10
-222.113031453541
 20
-4878.588831595804
  0
POINT
  5
468
100
AcDbEntity
  8
0
 62
           7
100
AcDbPoint
 10
77.886968546459
 20
-4878.588831595804
  0
POINT
  5
467
100
AcDbEntity
  8
0
 62
           7
100
AcDbPoint
 10
77.886968546459
 20
-4878.588831595804
  0
POINT
  5
466
100
AcDbEntity
  8
0
 62
           7
100
AcDbPoint
 10
102.886968546459
 20
-4864.042606870624
  0
POINT
  5
465
100
AcDbEntity
  8
0
 62
           7
100
AcDbPoint
 10
-1351.313081455213
 20
-4529.042609135604
  0
POINT
  5
464
100
AcDbEntity
  8
0
 62
           7
100
AcDbPoint
 10
-1351.313081455213
 20
-4529.042609135604
  0
POINT
  5
463
100
AcDbEntity
  8
0
 62
           7
100
AcDbPoint
 10
-607.513031453541
 20
-4097.042606870625
  0
POINT
  5
462
100
AcDbEntity
  8
0
 62
           7
100
AcDbPoint
 10
71.886968546459
 20
-4097.042606870625
  0
POINT
  5
461
100
AcDbEntity
  8
0
 62
           7
100
AcDbPoint
 10
71.886968546459
 20
-4097.042606870625
  0
INSERT
  5
38
100
AcDbEntity
  8
0
100
AcDbBlockReference
  2
KOZU0050__S
 10
-132.603809518498
 20
-801.929635254951
  0
INSERT
  5
39
100
AcDbEntity
  8
0
100
AcDbBlockReference
  2
KOZU0023__S
 10
-1217.5039005185
 20
-773.929637519928
  0
INSERT
  5
3A
100
AcDbEntity
  8
0
100
AcDbBlockReference
  2
KOZU0041__S
 10
-1217.5039005185
 20
-248.929635254951
  0
INSERT
  5
3B
100
AcDbEntity
  8
0
100
AcDbBlockReference
  2
KOZU0048__S
 10
-233.603900518498
 20
-899.929637519927
  0
INSERT
  5
3C
100
AcDbEntity
  8
0
100
AcDbBlockReference
  2
KOZU0043__S
 10
-1217.5039005185
 20
-1490.92963525495
  0
INSERT
  5
3D
100
AcDbEntity
  8
0
100
AcDbBlockReference
  2
KOZU0039__S
 10
-301.103900518498
 20
-1498.92963525495
  0
INSERT
  5
3E
100
AcDbEntity
  8
0
100
AcDbBlockReference
  2
KOZU0010__S
 10
-1031.10395648063
 20
-1130.72963751993
  0
INSERT
  5
3F
100
AcDbEntity
  8
0
100
AcDbBlockReference
  2
KOZU0041__S
 10
-812.503900518498
 20
-248.929635254951
  0
INSERT
  5
40
100
AcDbEntity
  8
0
100
AcDbBlockReference
  2
KOZU0023__S
 10
-812.503900518498
 20
-773.929637519928
  0
ENDSEC
  0
SECTION
  2
OBJECTS
  0
DICTIONARY
  5
19
100
AcDbDictionary
  3
ACAD_GROUP
350
1A
  3
ACAD_MLINESTYLE
350
1B
  0
DICTIONARY
  5
1A
102
{ACAD_REACTORS
330
19
102
}
100
AcDbDictionary
  0
DICTIONARY
  5
1B
102
{ACAD_REACTORS
330
19
102
}
100
AcDbDictionary
  3
STANDARD
350
1C
  0
MLINESTYLE
  5
1C
102
{ACAD_REACTORS
330
1B
102
}
100
AcDbMlineStyle
  2
STANDARD
 70
           0
  3

 62
           0
 51
90.0
 52
90.0
 71
           2
 49
0.5
 62
         256
  6
BYLAYER
 49
-0.5
 62
         256
  6
BYLAYER
  0
ENDSEC
  0
EOF
