  0
SECTION
  2
HEADER
  9
$ACADVER
  1
AC1014
  9
$ACADMAINTVER
 70
           0
  9
$DWGCODEPAGE
  3
DOS932
  9
$INSBASE
 10
0.0
 20
0.0
 30
0.0
  9
$EXTMIN
 10
1.000000000000E+20
 20
1.000000000000E+20
 30
1.000000000000E+20
  9
$EXTMAX
 10
-1.000000000000E+20
 20
-1.000000000000E+20
 30
-1.000000000000E+20
  9
$LIMMIN
 10
0.0
 20
0.0
  9
$LIMMAX
 10
0.0
 20
0.0
  9
$ORTHOMODE
 70
           0
  9
$REGENMODE
 70
           1
  9
$FILLMODE
 70
           1
  9
$QTEXTMODE
 70
           0
  9
$MIRRTEXT
 70
           1
  9
$DRAGMODE
 70
           2
  9
$LTSCALE
 40
1.0
  9
$OSMODE
 70
           0
  9
$ATTMODE
 70
           1
  9
$TEXTSIZE
 40
0.2
  9
$TRACEWID
 40
0.05
  9
$TEXTSTYLE
  7
STANDARD
  9
$CLAYER
  8
0
  9
$CELTYPE
  6
CONTINUOUS
  9
$CECOLOR
 62
         256
  9
$CELTSCALE
 40
1.0
  9
$DELOBJ
 70
           1
  9
$DISPSILH
 70
           0
  9
$DIMSCALE
 40
1.0
  9
$DIMASZ
 40
0.18
  9
$DIMEXO
 40
0.0625
  9
$DIMDLI
 40
0.38
  9
$DIMRND
 40
0.0
  9
$DIMDLE
 40
0.0
  9
$DIMEXE
 40
0.18
  9
$DIMTP
 40
0.0
  9
$DIMTM
 40
0.0
  9
$DIMTXT
 40
0.18
  9
$DIMCEN
 40
0.09
  9
$DIMTSZ
 40
0.0
  9
$DIMTOL
 70
           0
  9
$DIMLIM
 70
           0
  9
$DIMTIH
 70
           1
  9
$DIMTOH
 70
           1
  9
$DIMSE1
 70
           0
  9
$DIMSE2
 70
           0
  9
$DIMTAD
 70
           0
  9
$DIMZIN
 70
           0
  9
$DIMBLK
  1

  9
$DIMASO
 70
           1
  9
$DIMSHO
 70
           1
  9
$DIMPOST
  1

  9
$DIMAPOST
  1

  9
$DIMALT
 70
           0
  9
$DIMALTD
 70
           2
  9
$DIMALTF
 40
25.4
  9
$DIMLFAC
 40
1.0
  9
$DIMTOFL
 70
           0
  9
$DIMTVP
 40
0.0
  9
$DIMTIX
 70
           0
  9
$DIMSOXD
 70
           0
  9
$DIMSAH
 70
           0
  9
$DIMBLK1
  1

  9
$DIMBLK2
  1

  9
$DIMSTYLE
  2
STANDARD
  9
$DIMCLRD
 70
           0
  9
$DIMCLRE
 70
           0
  9
$DIMCLRT
 70
           0
  9
$DIMTFAC
 40
1.0
  9
$DIMGAP
 40
0.09
  9
$DIMJUST
 70
           0
  9
$DIMSD1
 70
           0
  9
$DIMSD2
 70
           0
  9
$DIMTOLJ
 70
           1
  9
$DIMTZIN
 70
           0
  9
$DIMALTZ
 70
           0
  9
$DIMALTTZ
 70
           0
  9
$DIMFIT
 70
           3
  9
$DIMUPT
 70
           0
  9
$DIMUNIT
 70
           2
  9
$DIMDEC
 70
           4
  9
$DIMTDEC
 70
           4
  9
$DIMALTU
 70
           2
  9
$DIMALTTD
 70
           2
  9
$DIMTXSTY
  7
STANDARD
  9
$DIMAUNIT
 70
           0
  9
$LUNITS
 70
           2
  9
$LUPREC
 70
           4
  9
$SKETCHINC
 40
0.1
  9
$FILLETRAD
 40
0.0
  9
$AUNITS
 70
           0
  9
$AUPREC
 70
           0
  9
$MENU
  1
acad
  9
$ELEVATION
 40
0.0
  9
$PELEVATION
 40
0.0
  9
$THICKNESS
 40
0.0
  9
$LIMCHECK
 70
           0
  9
$BLIPMODE
 70
           1
  9
$CHAMFERA
 40
0.0
  9
$CHAMFERB
 40
0.0
  9
$CHAMFERC
 40
0.0
  9
$CHAMFERD
 40
0.0
  9
$SKPOLY
 70
           0
  9
$TDCREATE
 40
0.000000000
  9
$TDUPDATE
 40
0.000000000
  9
$TDINDWG
 40
0.0000000000
  9
$TDUSRTIMER
 40
0.0000000000
  9
$USRTIMER
 70
           1
  9
$ANGBASE
 50
0.0
  9
$ANGDIR
 70
           0
  9
$PDMODE
 70
           0
  9
$PDSIZE
 40
0.0
  9
$PLINEWID
 40
0.0
  9
$COORDS
 70
           0
  9
$SPLFRAME
 70
           0
  9
$SPLINETYPE
 70
           6
  9
$SPLINESEGS
 70
           8
  9
$ATTDIA
 70
           0
  9
$ATTREQ
 70
           1
  9
$HANDLING
 70
           1
  9
$HANDSEED
  5
928
  9
$SURFTAB1
 70
           6
  9
$SURFTAB2
 70
           6
  9
$SURFTYPE
 70
           6
  9
$SURFU
 70
           6
  9
$SURFV
 70
           6
  9
$UCSNAME
  2

  9
$UCSORG
 10
0.0
 20
0.0
 30
0.0
  9
$UCSXDIR
 10
1.0
 20
0.0
 30
0.0
  9
$UCSYDIR
 10
0.0
 20
1.0
 30
0.0
  9
$PUCSNAME
  2

  9
$PUCSORG
 10
0.0
 20
0.0
 30
0.0
  9
$PUCSXDIR
 10
1.0
 20
0.0
 30
0.0
  9
$PUCSYDIR
 10
0.0
 20
1.0
 30
0.0
  9
$USERI1
 70
           0
  9
$USERI2
 70
           0
  9
$USERI3
 70
           0
  9
$USERI4
 70
           0
  9
$USERI5
 70
           0
  9
$USERR1
 40
0.0
  9
$USERR2
 40
0.0
  9
$USERR3
 40
0.0
  9
$USERR4
 40
0.0
  9
$USERR5
 40
0.0
  9
$WORLDVIEW
 70
           1
  9
$SHADEDGE
 70
           3
  9
$SHADEDIF
 70
          70
  9
$TILEMODE
 70
           1
  9
$MAXACTVP
 70
          16
  9
$PINSBASE
 10
0.0
 20
0.0
 30
0.0
  9
$PLIMCHECK
 70
           0
  9
$PEXTMIN
 10
1.000000000000E+20
 20
1.000000000000E+20
 30
1.000000000000E+20
  9
$PEXTMAX
 10
-1.000000000000E+20
 20
-1.000000000000E+20
 30
-1.000000000000E+20
  9
$PLIMMIN
 10
0.0
 20
0.0
  9
$PLIMMAX
 10
12.0
 20
9.0
  9
$UNITMODE
 70
           0
  9
$VISRETAIN
 70
           0
  9
$PLINEGEN
 70
           1
  9
$PSLTSCALE
 70
           0
  9
$TREEDEPTH
 70
        3020
  9
$PICKSTYLE
 70
           1
  9
$CMLSTYLE
  2
STANDARD
  9
$CMLJUST
 70
           0
  9
$CMLSCALE
 40
1.0
  9
$PROXYGRAPHICS
 70
           0
  9
$MEASUREMENT
 70
           0
  0
ENDSEC
  0
SECTION
  2
CLASSES
  0
CLASS
  1
LWPOLYLINE
  2
AcDbPolyline
  3
"AutoCAD"
 90
        0
280
           0
281
           1
  0
CLASS
  1
IMAGE
  2
AcDbRasterImage
  3
ISM
 90
      127
280
           0
281
           1
  0
CLASS
  1
OLE2FRAME
  2
AcDbOle2Frame
  3
""
 90
        0
280
           0
281
           1
  0
CLASS
  1
HATCH
  2
AcDbHatch
  3
"ACAD_SEDONA"
 90
        0
280
           0
281
           1
  0
CLASS
  1
DICTIONARYVAR
  2
AcDbDictionaryVar
  3
"AutoCAD"
 90
        0
280
           0
281
           0
  0
CLASS
  1
RASTERVARIABLES
  2
AcDbRasterVariables
  3
ISM
 90
        0
280
           0
281
           0
  0
CLASS
  1
IMAGEDEF
  2
AcDbRasterImageDef
  3
ISM
 90
        0
280
           0
281
           0
  0
CLASS
  1
IMAGEDEF_REACTOR
  2
AcDbRasterImageDefReactor
  3
ISM
 90
        1
280
           0
281
           0
  0
CLASS
  1
IDBUFFER
  2
AcDbIdBuffer
  3
"Acad"
 90
        0
280
           0
281
           0
  0
CLASS
  1
SPATIAL_FILTER
  2
AcDbSpatialFilter
  3
"Acad"
 90
        0
280
           0
281
           0
  0
CLASS
  1
XRECORD
  2
AcDbXrecord
  3
"<Built In>"
 90
        0
280
           0
281
           0
  0
CLASS
  1
SORTENTSTABLE
  2
AcDbSortentsTable
  3
"AutoCAD"
 90
        0
280
           0
281
           0
  0
CLASS
  1
LAYER_INDEX
  2
AcDbLayerIndex
  3
"Acad"
 90
        0
280
           0
281
           0
  0
CLASS
  1
SPATIAL_INDEX
  2
AcDbSpatialIndex
  3
"Acad"
 90
        0
280
           0
281
           0
  0
CLASS
  1
OBJECT_PTR
  2
CAseDLPNTableRecord
  3
"ASE-LPNTableRecord"
 90
        1
280
           0
281
           0
  0
CLASS
  1
LAYOUT
  2
AcDbLayout
  3
"AutoCAD 2000"
 90
        1
280
           0
281
           0
  0
CLASS
  1
PLOTSETTINGS
  2
AcDbPlotSettings
  3
"AutoCAD 2000"
 90
        1
280
           0
281
           0
  0
CLASS
  1
ACDBDICTIONARYWDFLT
  2
AcDbDictionaryWithDefault
  3
"AutoCAD 2000"
 90
        1
280
           0
281
           0
  0
CLASS
  1
ACDBPLACEHOLDER
  2
AcDbPlaceHolder
  3
"AutoCAD 2000"
 90
        1
280
           0
281
           0
  0
CLASS
  1
VBA_PROJECT
  2
AcDbVbaProject
  3
"acadvba"
 90
        1
280
           0
281
           0
  0
CLASS
  1
WIPEOUT
  2
AcDbWipeout
  3
WipeOut|AutoCAD Express Tool|expresstools@autodesk.com
 90
      127
280
           0
281
           1
  0
CLASS
  1
WIPEOUTVARIABLES
  2
AcDbWipeoutVariables
  3
WipeOut|AutoCAD Express Tool|expresstools@autodesk.com
 90
        0
280
           0
281
           0
  0
CLASS
  1
RTEXT
  2
RText
  3
RText|AutoCAD Express Tool|expresstools@autodesk.com
 90
        0
280
           0
281
           1
  0
CLASS
  1
ARCALIGNEDTEXT
  2
AcDbArcAlignedText
  3
ATEXT|AutoCAD Express Tool|expresstools@autodesk.com
 90
        0
280
           0
281
           1
  0
ENDSEC
  0
SECTION
  2
TABLES
  0
TABLE
  2
VPORT
  5
7
100
AcDbSymbolTable
 70
           1
  0
VPORT
  5
15
100
AcDbSymbolTableRecord
100
AcDbViewportTableRecord
  2
*ACTIVE
 70
           0
 10
0.0
 20
0.0
 11
1.0
 21
1.0
 12
6.591288
 22
4.579184
 13
0.0
 23
0.0
 14
1.0
 24
1.0
 15
0.0
 25
0.0
 16
0.0
 26
0.0
 36
1.0
 17
0.0
 27
0.0
 37
0.0
 40
9.158369
 41
0.688564
 42
50.0
 43
0.0
 44
0.0
 50
0.0
 51
0.0
 71
           0
 72
         100
 73
           1
 74
           1
 75
           0
 76
           0
 77
           0
 78
           0
  0
ENDTAB
  0
TABLE
  2
LTYPE
  5
4
100
AcDbSymbolTable
 70
          10
  0
LTYPE
  5
11
100
AcDbSymbolTableRecord
100
AcDbLinetypeTableRecord
  2
BYBLOCK
 70
          64
  3

 72
          65
 73
           0
 40
0.0
  0
LTYPE
  5
12
100
AcDbSymbolTableRecord
100
AcDbLinetypeTableRecord
  2
BYLAYER
 70
          64
  3

 72
          65
 73
           0
 40
0.0
  0
LTYPE
  5
13
100
AcDbSymbolTableRecord
100
AcDbLinetypeTableRecord
  2
CONTINUOUS
 70
          64
  3
Solid line
 72
          65
 73
           0
 40
0.0
  0
LTYPE
  5
1D
100
AcDbSymbolTableRecord
100
AcDbLinetypeTableRecord
  2
DASHED
 70
          64
  3
Dashed
 72
          65
 73
           2
 40
15.0
 49
12.0
 74
           0
 49
-3.0
 74
           0
  0
LTYPE
  5
1E
100
AcDbSymbolTableRecord
100
AcDbLinetypeTableRecord
  2
DOTTED
 70
          64
  3
Dotted
 72
          65
 73
           2
 40
3.5
 49
0.5
 74
           0
 49
-3.0
 74
           0
  0
LTYPE
  5
1F
100
AcDbSymbolTableRecord
100
AcDbLinetypeTableRecord
  2
DOT_CENTER
 70
          64
  3
Dot_Center
 72
          65
 73
           4
 40
2.0
 49
1.25
 74
           0
 49
-0.25
 74
           0
 49
0.25
 74
           0
 49
-0.25
 74
           0
  0
LTYPE
  5
20
100
AcDbSymbolTableRecord
100
AcDbLinetypeTableRecord
  2
LONG_DASHED
 70
          64
  3
Long_Dashed
 72
          65
 73
           2
 40
2.0
 49
1.5
 74
           0
 49
-0.5
 74
           0
  0
LTYPE
  5
21
100
AcDbSymbolTableRecord
100
AcDbLinetypeTableRecord
  2
DASH_CENTER
 70
          64
  3
Dash_Center
 72
          65
 73
           4
 40
36.0
 49
24.0
 74
           0
 49
-3.0
 74
           0
 49
6.0
 74
           0
 49
-3.0
 74
           0
  0
LTYPE
  5
22
100
AcDbSymbolTableRecord
100
AcDbLinetypeTableRecord
  2
PHANTOM
 70
          64
  3
Phantom
 72
          65
 73
           6
 40
2.5
 49
1.25
 74
           0
 49
-0.25
 74
           0
 49
0.25
 74
           0
 49
-0.25
 74
           0
 49
0.25
 74
           0
 49
-0.25
 74
           0
  0
LTYPE
  5
23
100
AcDbSymbolTableRecord
100
AcDbLinetypeTableRecord
  2
CENTER_DASH_DASH
 70
          64
  3
Center_Dash_Dash
 72
          65
 73
           6
 40
22.0
 49
12.0
 74
           0
 49
-3.0
 74
           0
 49
0.5
 74
           0
 49
-3.0
 74
           0
 49
0.5
 74
           0
 49
-3.0
 74
           0
  0
ENDTAB
  0
TABLE
  2
LAYER
  5
2
100
AcDbSymbolTable
 70
           2
  0
LAYER
  5
14
100
AcDbSymbolTableRecord
100
AcDbLayerTableRecord
  2
0
 70
           0
 62
           7
  6
CONTINUOUS
  0
LAYER
  5
24
100
AcDbSymbolTableRecord
100
AcDbLayerTableRecord
  2
1
 70
           0
 62
           7
  6
CONTINUOUS
  0
ENDTAB
  0
TABLE
  2
STYLE
  5
3
100
AcDbSymbolTable
 70
           2
  0
STYLE
  5
17
100
AcDbSymbolTableRecord
100
AcDbTextStyleTableRecord
  2
STANDARD
 70
           0
 40
0.0
 41
1.0
 50
0.0
 71
           0
 42
0.0
  3
txt
  4

  0
STYLE
  5
16C
100
AcDbSymbolTableRecord
100
AcDbTextStyleTableRecord
  2
CONVERTER_1
 70
           0
 40
0.0
 41
0.9
 50
0.0
 71
           0
 42
0.0
  3
txt.shx
  4

  0
ENDTAB
  0
TABLE
  2
VIEW
  5
5
100
AcDbSymbolTable
 70
           0
  0
ENDTAB
  0
TABLE
  2
UCS
  5
6
100
AcDbSymbolTable
 70
           0
  0
ENDTAB
  0
TABLE
  2
APPID
  5
8
100
AcDbSymbolTable
 70
           1
  0
APPID
  5
16
100
AcDbSymbolTableRecord
100
AcDbRegAppTableRecord
  2
ACAD
 70
           0
  0
ENDTAB
  0
TABLE
  2
DIMSTYLE
  5
9
100
AcDbSymbolTable
 70
           1
  0
DIMSTYLE
105
18
100
AcDbSymbolTableRecord
100
AcDbDimStyleTableRecord
  2
STANDARD
 70
           0
  3

  4

  5

  6

  7

 40
1.0
 41
0.18
 42
0.0625
 43
0.38
 44
0.18
 45
0.0
 46
0.0
 47
0.0
 48
0.0
 71
           0
 72
           0
 73
           1
 74
           1
 75
           0
 76
           0
 77
           0
 78
           0
140
0.18
141
0.09
142
0.0
143
25.4
144
1.0
145
0.0
146
1.0
147
0.09
170
           0
171
           2
172
           0
173
           0
174
           0
175
           0
176
           0
177
           0
178
           0
270
           2
271
           4
272
           4
273
           2
274
           2
275
           0
280
           0
281
           0
282
           0
283
           1
284
           0
285
           0
286
           0
287
           0
288
           0
340
17
  0
ENDTAB
  0
TABLE
  2
BLOCK_RECORD
  5
1
100
AcDbSymbolTable
 70
          14
  0
BLOCK_RECORD
  5
A
100
AcDbSymbolTableRecord
100
AcDbBlockTableRecord
  2
*MODEL_SPACE
  0
BLOCK_RECORD
  5
B
100
AcDbSymbolTableRecord
100
AcDbBlockTableRecord
  2
*PAPER_SPACE
  0
BLOCK_RECORD
  5
25
100
AcDbSymbolTableRecord
100
AcDbBlockTableRecord
  2
KOZU0017__S__1
  0
BLOCK_RECORD
  5
27
100
AcDbSymbolTableRecord
100
AcDbBlockTableRecord
  2
KOZU0001__S
  0
BLOCK_RECORD
  5
29
100
AcDbSymbolTableRecord
100
AcDbBlockTableRecord
  2
KOZU0002__S
  0
BLOCK_RECORD
  5
2B
100
AcDbSymbolTableRecord
100
AcDbBlockTableRecord
  2
KOZU0004__S
  0
BLOCK_RECORD
  5
2D
100
AcDbSymbolTableRecord
100
AcDbBlockTableRecord
  2
KOZU0011__S
  0
BLOCK_RECORD
  5
2F
100
AcDbSymbolTableRecord
100
AcDbBlockTableRecord
  2
KOZU0010__S
  0
BLOCK_RECORD
  5
31
100
AcDbSymbolTableRecord
100
AcDbBlockTableRecord
  2
KOZU0009__S
  0
BLOCK_RECORD
  5
33
100
AcDbSymbolTableRecord
100
AcDbBlockTableRecord
  2
KOZU0013__S
  0
BLOCK_RECORD
  5
35
100
AcDbSymbolTableRecord
100
AcDbBlockTableRecord
  2
KOZU0003__S
  0
BLOCK_RECORD
  5
37
100
AcDbSymbolTableRecord
100
AcDbBlockTableRecord
  2
KOZU0008__S
  0
BLOCK_RECORD
  5
39
100
AcDbSymbolTableRecord
100
AcDbBlockTableRecord
  2
KOZU0014__S
  0
BLOCK_RECORD
  5
3B
100
AcDbSymbolTableRecord
100
AcDbBlockTableRecord
  2
KOZU0020__S
  0
BLOCK_RECORD
  5
3D
100
AcDbSymbolTableRecord
100
AcDbBlockTableRecord
  2
KOZU0015__S
  0
BLOCK_RECORD
  5
3F
100
AcDbSymbolTableRecord
100
AcDbBlockTableRecord
  2
KOZU0017__S__2
  0
ENDTAB
  0
ENDSEC
  0
SECTION
  2
BLOCKS
  0
BLOCK
  5
D
100
AcDbEntity
  8
0
100
AcDbBlockBegin
  2
*MODEL_SPACE
 70
           0
 10
0.0
 20
0.0
 30
0.0
  3
*MODEL_SPACE
  1

  0
ENDBLK
  5
E
100
AcDbEntity
  8
0
100
AcDbBlockEnd
  0
BLOCK
  5
F
100
AcDbEntity
 67
           1
  8
0
100
AcDbBlockBegin
  2
*PAPER_SPACE
 70
           0
 10
0.0
 20
0.0
 30
0.0
  3
*PAPER_SPACE
  1

  0
ENDBLK
  5
10
100
AcDbEntity
 67
           1
  8
0
100
AcDbBlockEnd
  0
BLOCK
  5
26
100
AcDbEntity
  8
0
100
AcDbBlockBegin
  2
KOZU0017__S__1
 70
           0
 10
0.0
 20
0.0
 30
0.0
  3
KOZU0017__S__1
  1

  0
LINE
  5
54
100
AcDbEntity
  8
0
  6
CONTINUOUS
 62
           7
100
AcDbLine
 10
-996.67385924176
 20
-1072.371035725799
 11
-996.67385924176
 21
-1087.371035725799
  0
LINE
  5
53
100
AcDbEntity
  8
0
  6
CONTINUOUS
 62
           7
100
AcDbLine
 10
-516.67385924176
 20
-1072.371035725799
 11
-996.67385924176
 21
-1072.371035725799
  0
LINE
  5
52
100
AcDbEntity
  8
0
  6
CONTINUOUS
 62
           7
100
AcDbLine
 10
-517.67385924176
 20
-1072.371035725799
 11
-517.67385924176
 21
-1087.371035725799
  0
LINE
  5
51
100
AcDbEntity
  8
0
  6
CONTINUOUS
 62
           7
100
AcDbLine
 10
-517.67385924176
 20
-1087.371035725799
 11
-996.67385924176
 21
-1087.371035725799
  0
ENDBLK
  5
55
100
AcDbEntity
  8
0
100
AcDbBlockEnd
  0
BLOCK
  5
28
100
AcDbEntity
  8
0
100
AcDbBlockBegin
  2
KOZU0001__S
 70
           0
 10
0.0
 20
0.0
 30
0.0
  3
KOZU0001__S
  1

  0
ARC
  5
6B
100
AcDbEntity
  8
0
  6
CONTINUOUS
 62
           7
100
AcDbCircle
 10
-651.67385924176
 20
-1665.786585524304
 40
21.015549798503
100
AcDbArc
 50
68.213210701738
 51
111.786789298261
  0
ARC
  5
6A
100
AcDbEntity
  8
0
  6
CONTINUOUS
 62
           7
100
AcDbCircle
 10
-639.973859241759
 20
-1650.587839687885
 40
5.816803962085
100
AcDbArc
 50
90.0
 51
132.103448870763
  0
ARC
  5
69
100
AcDbEntity
  8
0
  6
CONTINUOUS
 62
           7
100
AcDbCircle
 10
-951.67385924176
 20
-1665.786585524305
 40
21.015549798504
100
AcDbArc
 50
68.21321070174
 51
111.78678929826
  0
ARC
  5
68
100
AcDbEntity
  8
0
  6
CONTINUOUS
 62
           7
100
AcDbCircle
 10
-963.37385924176
 20
-1650.587839687885
 40
5.816803962084
100
AcDbArc
 50
47.896551129245
 51
90.0
  0
ARC
  5
67
100
AcDbEntity
  8
0
  6
CONTINUOUS
 62
           7
100
AcDbCircle
 10
-939.97385924176
 20
-1650.587839687885
 40
5.816803962085
100
AcDbArc
 50
90.0
 51
132.103448870756
  0
ARC
  5
66
100
AcDbEntity
  8
0
  6
CONTINUOUS
 62
           7
100
AcDbCircle
 10
-663.37385924176
 20
-1650.587839687885
 40
5.816803962084
100
AcDbArc
 50
47.896551129245
 51
90.0
  0
LINE
  5
65
100
AcDbEntity
  8
0
  6
CONTINUOUS
 62
           7
100
AcDbLine
 10
-664.673859241761
 20
-1644.7710357258
 11
-667.273859241759
 21
-1646.272146425694
  0
LINE
  5
64
100
AcDbEntity
  8
0
  6
CONTINUOUS
 62
           7
100
AcDbLine
 10
-664.673859241761
 20
-1644.7710357258
 11
-638.67385924176
 21
-1644.7710357258
  0
LINE
  5
63
100
AcDbEntity
  8
0
  6
CONTINUOUS
 62
           7
100
AcDbLine
 10
-643.87385924176
 20
-1646.272146425694
 11
-643.87385924176
 21
-1667.371035725799
  0
LINE
  5
62
100
AcDbEntity
  8
0
  6
CONTINUOUS
 62
           7
100
AcDbLine
 10
-636.07385924176
 20
-1646.272146425693
 11
-636.07385924176
 21
-1667.371035725799
  0
LINE
  5
61
100
AcDbEntity
  8
0
  6
CONTINUOUS
 62
           7
100
AcDbLine
 10
-964.673859241759
 20
-1644.771035725802
 11
-967.273859241758
 21
-1646.272146425694
  0
LINE
  5
60
100
AcDbEntity
  8
0
  6
CONTINUOUS
 62
           7
100
AcDbLine
 10
-964.673859241759
 20
-1644.771035725802
 11
-938.67385924176
 21
-1644.7710357258
  0
LINE
  5
5F
100
AcDbEntity
  8
0
  6
CONTINUOUS
 62
           7
100
AcDbLine
 10
-667.273859241759
 20
-1646.272146425694
 11
-667.27385924176
 21
-1667.371035725799
  0
LINE
  5
5E
100
AcDbEntity
  8
0
  6
CONTINUOUS
 62
           7
100
AcDbLine
 10
-943.87385924176
 20
-1646.272146425694
 11
-943.87385924176
 21
-1667.371035725799
  0
LINE
  5
5D
100
AcDbEntity
  8
0
  6
CONTINUOUS
 62
           7
100
AcDbLine
 10
-936.07385924176
 20
-1646.272146425693
 11
-936.07385924176
 21
-1667.371035725799
  0
LINE
  5
5C
100
AcDbEntity
  8
0
  6
CONTINUOUS
 62
           7
100
AcDbLine
 10
-967.273859241758
 20
-1646.272146425694
 11
-967.27385924176
 21
-1667.371035725799
  0
LINE
  5
5B
100
AcDbEntity
  8
0
  6
CONTINUOUS
 62
           7
100
AcDbLine
 10
-659.47385924176
 20
-1646.272146425694
 11
-659.47385924176
 21
-1667.371035725799
  0
LINE
  5
5A
100
AcDbEntity
  8
0
  6
CONTINUOUS
 62
           7
100
AcDbLine
 10
-636.07385924176
 20
-1646.272146425693
 11
-638.67385924176
 21
-1644.7710357258
  0
LINE
  5
59
100
AcDbEntity
  8
0
  6
CONTINUOUS
 62
           7
100
AcDbLine
 10
-651.67385924176
 20
-1637.841927398996
 11
-651.67385924176
 21
-1667.371035725799
  0
LINE
  5
58
100
AcDbEntity
  8
0
  6
CONTINUOUS
 62
           7
100
AcDbLine
 10
-959.47385924176
 20
-1646.272146425694
 11
-959.47385924176
 21
-1667.371035725799
  0
LINE
  5
57
100
AcDbEntity
  8
0
  6
CONTINUOUS
 62
           7
100
AcDbLine
 10
-936.07385924176
 20
-1646.272146425693
 11
-938.67385924176
 21
-1644.7710357258
  0
LINE
  5
56
100
AcDbEntity
  8
0
  6
CONTINUOUS
 62
           7
100
AcDbLine
 10
-951.67385924176
 20
-1637.104188254251
 11
-951.67385924176
 21
-1667.371035725799
  0
ENDBLK
  5
6C
100
AcDbEntity
  8
0
100
AcDbBlockEnd
  0
BLOCK
  5
2A
100
AcDbEntity
  8
0
100
AcDbBlockBegin
  2
KOZU0002__S
 70
           0
 10
0.0
 20
0.0
 30
0.0
  3
KOZU0002__S
  1

  0
CIRCLE
  5
84
100
AcDbEntity
  8
0
  6
CONTINUOUS
 62
           7
100
AcDbCircle
 10
-286.37385924176
 20
-1735.271035725799
 40
8.5
  0
CIRCLE
  5
83
100
AcDbEntity
  8
0
  6
CONTINUOUS
 62
           7
100
AcDbCircle
 10
-286.37385924176
 20
-1710.271035725801
 40
8.5
  0
CIRCLE
  5
82
100
AcDbEntity
  8
0
  6
CONTINUOUS
 62
           1
100
AcDbCircle
 10
-261.37385924176
 20
-1785.271035725799
 40
27.499994821847
  0
CIRCLE
  5
81
100
AcDbEntity
  8
0
  6
CONTINUOUS
 62
           7
100
AcDbCircle
 10
-288.220633165963
 20
-1800.771051670158
 40
1.8
  0
CIRCLE
  5
80
100
AcDbEntity
  8
0
  6
CONTINUOUS
 62
           1
100
AcDbCircle
 10
-261.37385924176
 20
-1785.271035725799
 40
30.999996200204
  0
CIRCLE
  5
7F
100
AcDbEntity
  8
0
  6
CONTINUOUS
 62
           7
100
AcDbCircle
 10
-261.37385924176
 20
-1754.271039525595
 40
1.8
  0
CIRCLE
  5
7E
100
AcDbEntity
  8
0
  6
CONTINUOUS
 62
           7
100
AcDbCircle
 10
-234.52706471278
 20
-1800.771015981636
 40
1.8
  0
LINE
  5
7D
100
AcDbEntity
  8
0
  6
CONTINUOUS
 62
           7
100
AcDbLine
 10
-232.123859241761
 20
-1711.271035725799
 11
-232.123859241761
 21
-1734.271035725799
  0
LINE
  5
7C
100
AcDbEntity
  8
0
  6
CONTINUOUS
 62
           7
100
AcDbLine
 10
-232.123859241761
 20
-1734.271035725799
 11
-240.623859241761
 21
-1734.271035725799
  0
LINE
  5
7B
100
AcDbEntity
  8
0
  6
CONTINUOUS
 62
           7
100
AcDbLine
 10
-229.373859241761
 20
-1737.771035725799
 11
-243.373859241761
 21
-1737.771035725799
  0
LINE
  5
7A
100
AcDbEntity
  8
0
  6
CONTINUOUS
 62
           7
100
AcDbLine
 10
-229.373859241761
 20
-1707.771035725799
 11
-243.373859241761
 21
-1707.771035725799
  0
LINE
  5
79
100
AcDbEntity
  8
0
  6
CONTINUOUS
 62
           7
100
AcDbLine
 10
-232.123859241761
 20
-1711.271035725799
 11
-240.623859241761
 21
-1711.271035725799
  0
LINE
  5
78
100
AcDbEntity
  8
0
  6
CONTINUOUS
 62
           7
100
AcDbLine
 10
-240.623859241761
 20
-1711.271035725799
 11
-240.623859241761
 21
-1734.271035725799
  0
LINE
  5
77
100
AcDbEntity
  8
0
  6
CONTINUOUS
 62
           7
100
AcDbLine
 10
-229.373859241761
 20
-1707.771035725799
 11
-229.373859241761
 21
-1737.771035725799
  0
LINE
  5
76
100
AcDbEntity
  8
0
  6
CONTINUOUS
 62
           7
100
AcDbLine
 10
-243.373859241761
 20
-1707.771035725799
 11
-243.373859241761
 21
-1737.771035725799
  0
LINE
  5
75
100
AcDbEntity
  8
0
  6
CONTINUOUS
 62
           6
100
AcDbLine
 10
-291.935840739769
 20
-1802.91602776299
 11
-284.505343130181
 21
-1798.626027967882
  0
LINE
  5
74
100
AcDbEntity
  8
0
  6
CONTINUOUS
 62
           7
100
AcDbLine
 10
-261.37385924176
 20
-1825.133362707487
 11
-261.37385924176
 21
-1744.520466035788
  0
LINE
  5
73
100
AcDbEntity
  8
0
  6
CONTINUOUS
 62
           7
100
AcDbLine
 10
-301.236186223449
 20
-1785.2710357258
 11
-220.623289551749
 21
-1785.271035725799
  0
LINE
  5
72
100
AcDbEntity
  8
0
  6
CONTINUOUS
 62
           6
100
AcDbLine
 10
-230.811857138972
 20
-1802.915992074471
 11
-238.242354748562
 21
-1798.625992279361
  0
POINT
  5
71
100
AcDbEntity
  8
0
 62
           7
100
AcDbPoint
 10
-261.37385924176
 20
-1785.271035725799
  0
POINT
  5
70
100
AcDbEntity
  8
0
 62
           7
100
AcDbPoint
 10
-233.873864419914
 20
-1785.271035725799
  0
POINT
  5
6F
100
AcDbEntity
  8
0
 62
           7
100
AcDbPoint
 10
-261.37385924176
 20
-1785.271035725799
  0
POINT
  5
6E
100
AcDbEntity
  8
0
 62
           7
100
AcDbPoint
 10
-261.37385924176
 20
-1754.271039525595
  0
POINT
  5
6D
100
AcDbEntity
  8
0
 62
           6
100
AcDbPoint
 10
-259.57385924176
 20
-1754.271039525595
  0
ENDBLK
  5
85
100
AcDbEntity
  8
0
100
AcDbBlockEnd
  0
BLOCK
  5
2C
100
AcDbEntity
  8
0
100
AcDbBlockBegin
  2
KOZU0004__S
 70
           0
 10
0.0
 20
0.0
 30
0.0
  3
KOZU0004__S
  1

  0
CIRCLE
  5
9F
100
AcDbEntity
  8
0
  6
CONTINUOUS
 62
           7
100
AcDbCircle
 10
-651.67385924176
 20
-1300.0710357258
 40
19.0
  0
CIRCLE
  5
9E
100
AcDbEntity
  8
0
  6
CONTINUOUS
 62
           7
100
AcDbCircle
 10
-951.67385924176
 20
-1300.0710357258
 40
19.0
  0
LINE
  5
9D
100
AcDbEntity
  8
0
  6
CONTINUOUS
 62
           7
100
AcDbLine
 10
-996.67385924176
 20
-1088.5710357258
 11
-996.67385924176
 21
-1305.1710357258
  0
LINE
  5
9C
100
AcDbEntity
  8
0
  6
CONTINUOUS
 62
           7
100
AcDbLine
 10
-995.47385924176
 20
-1305.1710357258
 11
-995.47385924176
 21
-1322.3710357258
  0
LINE
  5
9B
100
AcDbEntity
  8
0
  6
CONTINUOUS
 62
           7
100
AcDbLine
 10
-601.673859241759
 20
-1088.2710357258
 11
-631.673859241759
 21
-1088.2710357258
  0
LINE
  5
9A
100
AcDbEntity
  8
0
  6
CONTINUOUS
 62
           7
100
AcDbLine
 10
-631.673859241759
 20
-1088.2710357258
 11
-631.673859241759
 21
-1087.3710357258
  0
LINE
  5
99
100
AcDbEntity
  8
0
  6
CONTINUOUS
 62
           7
100
AcDbLine
 10
-601.673859241759
 20
-1088.2710357258
 11
-601.673859241759
 21
-1087.3710357258
  0
LINE
  5
98
100
AcDbEntity
  8
0
  6
CONTINUOUS
 62
           7
100
AcDbLine
 10
-866.673859241759
 20
-1088.2710357258
 11
-896.673859241759
 21
-1088.2710357258
  0
LINE
  5
97
100
AcDbEntity
  8
0
  6
CONTINUOUS
 62
           7
100
AcDbLine
 10
-896.673859241759
 20
-1088.2710357258
 11
-896.673859241759
 21
-1087.3710357258
  0
LINE
  5
96
100
AcDbEntity
  8
0
  6
CONTINUOUS
 62
           7
100
AcDbLine
 10
-866.673859241759
 20
-1088.2710357258
 11
-866.673859241759
 21
-1087.3710357258
  0
LINE
  5
95
100
AcDbEntity
  8
0
  6
CONTINUOUS
 62
           7
100
AcDbLine
 10
-601.673859241759
 20
-1321.471035725799
 11
-631.673859241759
 21
-1321.471035725799
  0
LINE
  5
94
100
AcDbEntity
  8
0
  6
CONTINUOUS
 62
           7
100
AcDbLine
 10
-631.673859241759
 20
-1321.471035725799
 11
-631.673859241759
 21
-1322.371035725799
  0
LINE
  5
93
100
AcDbEntity
  8
0
  6
CONTINUOUS
 62
           7
100
AcDbLine
 10
-601.673859241759
 20
-1321.471035725799
 11
-601.673859241759
 21
-1322.371035725799
  0
LINE
  5
92
100
AcDbEntity
  8
0
  6
CONTINUOUS
 62
           7
100
AcDbLine
 10
-866.673859241759
 20
-1321.471035725799
 11
-896.673859241759
 21
-1321.471035725799
  0
LINE
  5
91
100
AcDbEntity
  8
0
  6
CONTINUOUS
 62
           7
100
AcDbLine
 10
-896.673859241759
 20
-1321.471035725799
 11
-896.673859241759
 21
-1322.371035725799
  0
LINE
  5
90
100
AcDbEntity
  8
0
  6
CONTINUOUS
 62
           7
100
AcDbLine
 10
-866.673859241759
 20
-1321.471035725799
 11
-866.673859241759
 21
-1322.371035725799
  0
LINE
  5
8F
100
AcDbEntity
  8
0
  6
CONTINUOUS
 62
           7
100
AcDbLine
 10
-517.57385924176
 20
-1102.3710357258
 11
-516.67385924176
 21
-1102.3710357258
  0
LINE
  5
8E
100
AcDbEntity
  8
0
  6
CONTINUOUS
 62
           7
100
AcDbLine
 10
-517.57385924176
 20
-1307.371035725799
 11
-516.67385924176
 21
-1307.371035725799
  0
LINE
  5
8D
100
AcDbEntity
  8
0
  6
CONTINUOUS
 62
           7
100
AcDbLine
 10
-517.57385924176
 20
-1132.3710357258
 11
-516.67385924176
 21
-1132.3710357258
  0
LINE
  5
8C
100
AcDbEntity
  8
0
  6
CONTINUOUS
 62
           7
100
AcDbLine
 10
-517.57385924176
 20
-1132.3710357258
 11
-517.57385924176
 21
-1102.3710357258
  0
LINE
  5
8B
100
AcDbEntity
  8
0
  6
CONTINUOUS
 62
           7
100
AcDbLine
 10
-517.57385924176
 20
-1277.371035725799
 11
-516.67385924176
 21
-1277.371035725799
  0
LINE
  5
8A
100
AcDbEntity
  8
0
  6
CONTINUOUS
 62
           7
100
AcDbLine
 10
-517.57385924176
 20
-1277.371035725799
 11
-517.57385924176
 21
-1307.371035725799
  0
LINE
  5
89
100
AcDbEntity
  8
0
  6
CONTINUOUS
 62
           3
100
AcDbLine
 10
-951.67385924176
 20
-1276.0710357258
 11
-951.67385924176
 21
-1324.071035725799
  0
LINE
  5
88
100
AcDbEntity
  8
0
  6
CONTINUOUS
 62
           3
100
AcDbLine
 10
-675.67385924176
 20
-1300.0710357258
 11
-627.67385924176
 21
-1300.071035725801
  0
LINE
  5
87
100
AcDbEntity
  8
0
  6
CONTINUOUS
 62
           3
100
AcDbLine
 10
-975.67385924176
 20
-1300.071035725801
 11
-927.67385924176
 21
-1300.0710357258
  0
LINE
  5
86
100
AcDbEntity
  8
0
  6
CONTINUOUS
 62
           3
100
AcDbLine
 10
-651.67385924176
 20
-1276.0710357258
 11
-651.67385924176
 21
-1324.071035725799
  0
ENDBLK
  5
A0
100
AcDbEntity
  8
0
100
AcDbBlockEnd
  0
BLOCK
  5
2E
100
AcDbEntity
  8
0
100
AcDbBlockBegin
  2
KOZU0011__S
 70
           0
 10
0.0
 20
0.0
 30
0.0
  3
KOZU0011__S
  1

  0
LINE
  5
A4
100
AcDbEntity
  8
0
  6
CONTINUOUS
 62
         206
100
AcDbLine
 10
-496.673859241761
 20
-1070.371035725799
 11
-496.673859241761
 21
-1339.371035725799
  0
LINE
  5
A3
100
AcDbEntity
  8
0
  6
CONTINUOUS
 62
         206
100
AcDbLine
 10
-516.67385924176
 20
-1070.371035725799
 11
-496.673859241761
 21
-1070.371035725799
  0
LINE
  5
A2
100
AcDbEntity
  8
0
  6
CONTINUOUS
 62
         206
100
AcDbLine
 10
-516.67385924176
 20
-1070.371035725799
 11
-516.67385924176
 21
-1339.371035725799
  0
LINE
  5
A1
100
AcDbEntity
  8
0
  6
CONTINUOUS
 62
         206
100
AcDbLine
 10
-516.67385924176
 20
-1339.371035725799
 11
-496.673859241761
 21
-1339.371035725799
  0
ENDBLK
  5
A5
100
AcDbEntity
  8
0
100
AcDbBlockEnd
  0
BLOCK
  5
30
100
AcDbEntity
  8
0
100
AcDbBlockBegin
  2
KOZU0010__S
 70
           0
 10
0.0
 20
0.0
 30
0.0
  3
KOZU0010__S
  1

  0
LINE
  5
AC
100
AcDbEntity
  8
0
  6
CONTINUOUS
 62
         206
100
AcDbLine
 10
-516.673859241759
 20
-1667.371035725799
 11
-496.673859241759
 21
-1667.371035725799
  0
LINE
  5
AB
100
AcDbEntity
  8
0
  6
CONTINUOUS
 62
         206
100
AcDbLine
 10
-505.473859241759
 20
-2163.571035725799
 11
-505.473859241759
 21
-2178.571035725799
  0
LINE
  5
AA
100
AcDbEntity
  8
0
  6
CONTINUOUS
 62
         206
100
AcDbLine
 10
-516.673859241759
 20
-2163.571035725799
 11
-496.673859241759
 21
-2163.571035725799
  0
LINE
  5
A9
100
AcDbEntity
  8
0
  6
CONTINUOUS
 62
         206
100
AcDbLine
 10
-496.673859241759
 20
-1667.371035725799
 11
-496.673859241759
 21
-2163.571035725799
  0
LINE
  5
A8
100
AcDbEntity
  8
0
  6
CONTINUOUS
 62
         206
100
AcDbLine
 10
-506.673859241759
 20
-2178.571035725799
 11
-505.473859241759
 21
-2178.571035725799
  0
LINE
  5
A7
100
AcDbEntity
  8
0
  6
CONTINUOUS
 62
         206
100
AcDbLine
 10
-516.673859241759
 20
-1667.371035725799
 11
-516.673859241759
 21
-2163.571035725799
  0
LINE
  5
A6
100
AcDbEntity
  8
0
  6
CONTINUOUS
 62
         206
100
AcDbLine
 10
-506.673859241759
 20
-2163.571035725799
 11
-506.673859241759
 21
-2178.571035725799
  0
ENDBLK
  5
AD
100
AcDbEntity
  8
0
100
AcDbBlockEnd
  0
BLOCK
  5
32
100
AcDbEntity
  8
0
100
AcDbBlockBegin
  2
KOZU0009__S
 70
           0
 10
0.0
 20
0.0
 30
0.0
  3
KOZU0009__S
  1

  0
ARC
  5
C8
100
AcDbEntity
  8
0
  6
CONTINUOUS
 62
           7
100
AcDbCircle
 10
-291.37385924176
 20
-1710.2710357258
 40
20.0
100
AcDbArc
 50
89.999999999998
 51
180.0
  0
ARC
  5
C7
100
AcDbEntity
  8
0
  6
CONTINUOUS
 62
           7
100
AcDbCircle
 10
-231.37385924176
 20
-1710.2710357258
 40
20.0
100
AcDbArc
 50
0.0
 51
89.999999999998
  0
ARC
  5
C6
100
AcDbEntity
  8
0
  6
CONTINUOUS
 62
           7
100
AcDbCircle
 10
-231.37385924176
 20
-1815.2710357258
 40
20.0
100
AcDbArc
 50
-90.0
 51
0.0
  0
ARC
  5
C5
100
AcDbEntity
  8
0
  6
CONTINUOUS
 62
           7
100
AcDbCircle
 10
-231.37385924176
 20
-1710.2710357258
 40
25.0
100
AcDbArc
 50
0.0
 51
89.999999999998
  0
ARC
  5
C4
100
AcDbEntity
  8
0
  6
CONTINUOUS
 62
           7
100
AcDbCircle
 10
-291.37385924176
 20
-1710.2710357258
 40
25.0
100
AcDbArc
 50
90.0
 51
180.0
  0
ARC
  5
C3
100
AcDbEntity
  8
0
  6
CONTINUOUS
 62
           7
100
AcDbCircle
 10
-291.37385924176
 20
-1815.2710357258
 40
25.0
100
AcDbArc
 50
180.0
 51
-89.999999999999
  0
ARC
  5
C2
100
AcDbEntity
  8
0
  6
CONTINUOUS
 62
           7
100
AcDbCircle
 10
-231.37385924176
 20
-1815.2710357258
 40
25.0
100
AcDbArc
 50
-90.0
 51
0.0
  0
ARC
  5
C1
100
AcDbEntity
  8
0
  6
CONTINUOUS
 62
           7
100
AcDbCircle
 10
-291.37385924176
 20
-1815.2710357258
 40
20.0
100
AcDbArc
 50
180.0
 51
-89.999999999998
  0
LINE
  5
C0
100
AcDbEntity
  8
0
  6
CONTINUOUS
 62
           7
100
AcDbLine
 10
-60.47385924176
 20
-2163.5710357258
 11
-60.47385924176
 21
-2178.5710357258
  0
LINE
  5
BF
100
AcDbEntity
  8
0
  6
CONTINUOUS
 62
           7
100
AcDbLine
 10
-323.07385924176
 20
-2163.5710357258
 11
-323.07385924176
 21
-2178.5710357258
  0
LINE
  5
BE
100
AcDbEntity
  8
0
  6
CONTINUOUS
 62
           7
100
AcDbLine
 10
-311.37385924176
 20
-1710.2710357258
 11
-311.37385924176
 21
-1815.2710357258
  0
LINE
  5
BD
100
AcDbEntity
  8
0
  6
CONTINUOUS
 62
           7
100
AcDbLine
 10
-211.37385924176
 20
-1710.2710357258
 11
-211.37385924176
 21
-1815.2710357258
  0
LINE
  5
BC
100
AcDbEntity
  8
0
  6
CONTINUOUS
 62
           7
100
AcDbLine
 10
-291.37385924176
 20
-1835.2710357258
 11
-231.37385924176
 21
-1835.2710357258
  0
LINE
  5
BB
100
AcDbEntity
  8
0
  6
CONTINUOUS
 62
           7
100
AcDbLine
 10
-291.37385924176
 20
-1690.2710357258
 11
-231.37385924176
 21
-1690.2710357258
  0
LINE
  5
BA
100
AcDbEntity
  8
0
  6
CONTINUOUS
 62
           7
100
AcDbLine
 10
-326.27385924176
 20
-1667.3710357258
 11
-326.27385924176
 21
-2163.5710357258
  0
LINE
  5
B9
100
AcDbEntity
  8
0
  6
CONTINUOUS
 62
           7
100
AcDbLine
 10
-57.273859241759
 20
-1667.3710357258
 11
-57.273859241759
 21
-2163.5710357258
  0
LINE
  5
B8
100
AcDbEntity
  8
0
  6
CONTINUOUS
 62
           7
100
AcDbLine
 10
-326.27385924176
 20
-1667.3710357258
 11
-57.273859241759
 21
-1667.3710357258
  0
LINE
  5
B7
100
AcDbEntity
  8
0
  6
CONTINUOUS
 62
           7
100
AcDbLine
 10
-323.07385924176
 20
-2178.5710357258
 11
-60.47385924176
 21
-2178.5710357258
  0
LINE
  5
B6
100
AcDbEntity
  8
0
  6
CONTINUOUS
 62
           7
100
AcDbLine
 10
-326.27385924176
 20
-2163.5710357258
 11
-57.273859241759
 21
-2163.5710357258
  0
LINE
  5
B5
100
AcDbEntity
  8
0
  6
CONTINUOUS
 62
           7
100
AcDbLine
 10
-206.37385924176
 20
-1710.2710357258
 11
-206.37385924176
 21
-1815.2710357258
  0
LINE
  5
B4
100
AcDbEntity
  8
0
  6
CONTINUOUS
 62
           7
100
AcDbLine
 10
-291.37385924176
 20
-1685.2710357258
 11
-231.37385924176
 21
-1685.2710357258
  0
LINE
  5
B3
100
AcDbEntity
  8
0
  6
CONTINUOUS
 62
           7
100
AcDbLine
 10
-316.37385924176
 20
-1710.2710357258
 11
-316.37385924176
 21
-1815.2710357258
  0
LINE
  5
B2
100
AcDbEntity
  8
0
  6
CONTINUOUS
 62
           7
100
AcDbLine
 10
-291.37385924176
 20
-1840.2710357258
 11
-231.37385924176
 21
-1840.2710357258
  0
LINE
  5
B1
100
AcDbEntity
  8
1
  6
CONTINUOUS
 62
           7
100
AcDbLine
 10
-286.97385924176
 20
-1638.596741590335
 11
-286.97385924176
 21
-1670.48524444854
  0
LINE
  5
B0
100
AcDbEntity
  8
1
  6
CONTINUOUS
 62
           7
100
AcDbLine
 10
-297.873859241759
 20
-1644.771035725801
 11
-276.07385924176
 21
-1644.771035725801
  0
LINE
  5
AF
100
AcDbEntity
  8
1
  6
CONTINUOUS
 62
           7
100
AcDbLine
 10
-319.07385924176
 20
-2198.5710357258
 11
-299.07385924176
 21
-2198.5710357258
  0
LINE
  5
AE
100
AcDbEntity
  8
1
  6
CONTINUOUS
 62
           7
100
AcDbLine
 10
-72.27385924176
 20
-1687.371035725799
 11
-72.27385924176
 21
-1751.870802725799
  0
ENDBLK
  5
C9
100
AcDbEntity
  8
0
100
AcDbBlockEnd
  0
BLOCK
  5
34
100
AcDbEntity
  8
0
100
AcDbBlockBegin
  2
KOZU0013__S
 70
           0
 10
0.0
 20
0.0
 30
0.0
  3
KOZU0013__S
  1

  0
ARC
  5
134
100
AcDbEntity
  8
0
  6
CONTINUOUS
 62
           4
100
AcDbCircle
 10
-1134.673842477954
 20
-1967.57105062696
 40
5.999984651804
100
AcDbArc
 50
180.0
 51
0.0
  0
ARC
  5
133
100
AcDbEntity
  8
0
  6
CONTINUOUS
 62
           4
100
AcDbCircle
 10
-1134.673842477954
 20
-1919.571039898124
 40
5.999984651804
100
AcDbArc
 50
0.0
 51
180.0
  0
ARC
  5
132
100
AcDbEntity
  8
0
  6
CONTINUOUS
 62
           4
100
AcDbCircle
 10
-1066.173858757472
 20
-2105.425739124523
 40
28.145446357944
100
AcDbArc
 50
-101.26897452173
 51
-89.999982013909
  0
ARC
  5
131
100
AcDbEntity
  8
0
  6
CONTINUOUS
 62
           4
100
AcDbCircle
 10
-1060.673904615795
 20
-2083.071079423454
 40
34.999999478459
100
AcDbArc
 50
-60.000042650785
 51
0.00001798609
  0
ARC
  5
130
100
AcDbEntity
  8
0
  6
CONTINUOUS
 62
           4
100
AcDbCircle
 10
-1060.673904615795
 20
-2083.071079423454
 40
34.99999947846
100
AcDbArc
 50
179.999964027821
 51
-119.99999332139
  0
ARC
  5
12F
100
AcDbEntity
  8
0
  6
CONTINUOUS
 62
           4
100
AcDbCircle
 10
-1055.173874180174
 20
-2105.425739124523
 40
28.145446357943
100
AcDbArc
 50
-89.999982013909
 51
-78.794865435206
  0
LINE
  5
12E
100
AcDbEntity
  8
0
  6
CONTINUOUS
 62
           4
100
AcDbLine
 10
-1033.673897388732
 20
-1933.971081658628
 11
-1019.67385924176
 21
-1933.971081658628
  0
LINE
  5
12D
100
AcDbEntity
  8
0
  6
CONTINUOUS
 62
           4
100
AcDbLine
 10
-1033.673897388732
 20
-1953.171066086914
 11
-1019.67385924176
 21
-1953.171066086914
  0
LINE
  5
12C
100
AcDbEntity
  8
0
  6
CONTINUOUS
 62
           4
100
AcDbLine
 10
-1087.67396554957
 20
-1929.570997960213
 11
-1077.281621262149
 21
-1923.570975080669
  0
LINE
  5
12B
100
AcDbEntity
  8
0
  6
CONTINUOUS
 62
           4
100
AcDbLine
 10
-1044.066083699561
 20
-1923.570983693011
 11
-1033.673776577917
 21
-1929.570985114883
  0
LINE
  5
12A
100
AcDbEntity
  8
0
  6
CONTINUOUS
 62
           4
100
AcDbLine
 10
-1087.673833972186
 20
-1957.571051335746
 11
-1077.281526850543
 21
-1963.571052757617
  0
LINE
  5
129
100
AcDbEntity
  8
0
  6
CONTINUOUS
 62
           4
100
AcDbLine
 10
-1046.673813271678
 20
-1963.571054501262
 11
-1046.673813271678
 21
-1971.571046752658
  0
LINE
  5
128
100
AcDbEntity
  8
0
  6
CONTINUOUS
 62
           4
100
AcDbLine
 10
-1074.673843372023
 20
-1963.571054501262
 11
-1074.673843372023
 21
-1971.571046752658
  0
LINE
  5
127
100
AcDbEntity
  8
0
  6
CONTINUOUS
 62
           4
100
AcDbLine
 10
-1128.673915046608
 20
-1938.571035800305
 11
-1102.673911619341
 21
-1938.571035800305
  0
LINE
  5
126
100
AcDbEntity
  8
0
  6
CONTINUOUS
 62
           4
100
AcDbLine
 10
-1128.673915046608
 20
-1948.571035651293
 11
-1102.673911619341
 21
-1948.571035651293
  0
LINE
  5
125
100
AcDbEntity
  8
0
  6
CONTINUOUS
 62
           4
100
AcDbLine
 10
-1102.673911619341
 20
-1953.571035576787
 11
-1087.673911842858
 21
-1953.571035576787
  0
LINE
  5
124
100
AcDbEntity
  8
0
  6
CONTINUOUS
 62
           4
100
AcDbLine
 10
-1102.673911619341
 20
-1933.57103587481
 11
-1087.673911842858
 21
-1933.57103587481
  0
LINE
  5
123
100
AcDbEntity
  8
0
  6
CONTINUOUS
 62
           4
100
AcDbLine
 10
-1102.673797178424
 20
-1933.571054948297
 11
-1102.673797178424
 21
-1953.571054650273
  0
LINE
  5
122
100
AcDbEntity
  8
0
  6
CONTINUOUS
 62
           4
100
AcDbLine
 10
-1077.281608530919
 20
-1923.571055097308
 11
-1044.066200700671
 21
-1923.571055097308
  0
LINE
  5
121
100
AcDbEntity
  8
0
  6
CONTINUOUS
 62
           4
100
AcDbLine
 10
-1077.281608530919
 20
-1963.571035427776
 11
-1074.673900592482
 21
-1963.571035427776
  0
LINE
  5
120
100
AcDbEntity
  8
0
  6
CONTINUOUS
 62
           4
100
AcDbLine
 10
-1049.673843744552
 20
-1971.571046752658
 11
-1049.673843744552
 21
-1985.571061802831
  0
LINE
  5
11F
100
AcDbEntity
  8
0
  6
CONTINUOUS
 62
           4
100
AcDbLine
 10
-1071.673812899149
 20
-1971.571046752658
 11
-1071.673812899149
 21
-1985.571061802831
  0
LINE
  5
11E
100
AcDbEntity
  8
0
  6
CONTINUOUS
 62
           4
100
AcDbLine
 10
-1074.173908229327
 20
-1971.571065826144
 11
-1047.173901002263
 21
-1971.571065826144
  0
LINE
  5
11D
100
AcDbEntity
  8
0
  6
CONTINUOUS
 62
           4
100
AcDbLine
 10
-1074.673681557824
 20
-1985.571074929238
 11
-1075.673663318321
 21
-1986.571052137969
  0
LINE
  5
11C
100
AcDbEntity
  8
0
  6
CONTINUOUS
 62
           4
100
AcDbLine
 10
-1045.673855625409
 20
-1986.571058038093
 11
-1046.67383957762
 21
-1985.571069534085
  0
LINE
  5
11B
100
AcDbEntity
  8
0
  6
CONTINUOUS
 62
           4
100
AcDbLine
 10
-1046.673946786081
 20
-1985.571080876317
 11
-1074.67395781294
 21
-1985.571080876317
  0
LINE
  5
11A
100
AcDbEntity
  8
0
  6
CONTINUOUS
 62
           4
100
AcDbLine
 10
-1054.46067839002
 20
-1985.571061802831
 11
-1054.46067839002
 21
-2000.271073790815
  0
LINE
  5
119
100
AcDbEntity
  8
0
  6
CONTINUOUS
 62
           4
100
AcDbLine
 10
-1066.887054547626
 20
-1985.571061802831
 11
-1066.887054547626
 21
-2000.271073790815
  0
LINE
  5
118
100
AcDbEntity
  8
0
  6
CONTINUOUS
 62
           4
100
AcDbLine
 10
-1075.673904392278
 20
-1986.57104652914
 11
-1075.673904392278
 21
-2000.271073790815
  0
LINE
  5
117
100
AcDbEntity
  8
0
  6
CONTINUOUS
 62
           4
100
AcDbLine
 10
-1045.673904839312
 20
-1986.57104652914
 11
-1045.673904839312
 21
-2000.271073790815
  0
LINE
  5
116
100
AcDbEntity
  8
0
  6
CONTINUOUS
 62
           4
100
AcDbLine
 10
-1087.673797401942
 20
-1929.571058822598
 11
-1087.673797401942
 21
-1957.571050775971
  0
LINE
  5
115
100
AcDbEntity
  8
0
  6
CONTINUOUS
 62
           4
100
AcDbLine
 10
-1033.67385924176
 20
-1929.571058822598
 11
-1033.67385924176
 21
-1957.571050775971
  0
LINE
  5
114
100
AcDbEntity
  8
0
  6
CONTINUOUS
 62
           4
100
AcDbLine
 10
-1128.67385782615
 20
-1919.571039898124
 11
-1128.67385782615
 21
-1967.57105062696
  0
LINE
  5
113
100
AcDbEntity
  8
0
  6
CONTINUOUS
 62
           4
100
AcDbLine
 10
-1140.673827129758
 20
-1919.571039898124
 11
-1140.673827129758
 21
-1967.57105062696
  0
LINE
  5
112
100
AcDbEntity
  8
0
  6
CONTINUOUS
 62
           4
100
AcDbLine
 10
-1046.673908639109
 20
-1963.571035427776
 11
-1044.066200700671
 21
-1963.571035427776
  0
LINE
  5
111
100
AcDbEntity
  8
0
  6
CONTINUOUS
 62
           4
100
AcDbLine
 10
-1033.673897388732
 20
-1954.071066086914
 11
-1019.67385924176
 21
-1954.071066086914
  0
LINE
  5
110
100
AcDbEntity
  8
0
  6
CONTINUOUS
 62
           4
100
AcDbLine
 10
-1033.673897388732
 20
-1933.071081658628
 11
-1019.67385924176
 21
-1933.071081658628
  0
LINE
  5
10F
100
AcDbEntity
  8
0
  6
CONTINUOUS
 62
           4
100
AcDbLine
 10
-1044.066146181424
 20
-1963.571042228753
 11
-1033.67383493025
 21
-1957.571038422695
  0
LINE
  5
10E
100
AcDbEntity
  8
0
  6
CONTINUOUS
 62
           4
100
AcDbLine
 10
-1083.03085313519
 20
-2019.571057481494
 11
-1083.03085313519
 21
-2031.571045858588
  0
LINE
  5
10D
100
AcDbEntity
  8
0
  6
CONTINUOUS
 62
           4
100
AcDbLine
 10
-1045.673981133257
 20
-2113.371028617945
 11
-1045.673981133257
 21
-2118.270969035653
  0
LINE
  5
10C
100
AcDbEntity
  8
0
  6
CONTINUOUS
 62
           4
100
AcDbLine
 10
-1045.674112535453
 20
-2118.270987330707
 11
-1046.474106508132
 21
-2119.0709821126
  0
LINE
  5
10B
100
AcDbEntity
  8
0
  6
CONTINUOUS
 62
           4
100
AcDbLine
 10
-1075.673945010647
 20
-2118.270992679325
 11
-1074.873951577444
 21
-2119.070988000694
  0
LINE
  5
10A
100
AcDbEntity
  8
0
  6
CONTINUOUS
 62
           4
100
AcDbLine
 10
-1074.923934921031
 20
-2119.070987334279
 11
-1046.474104336056
 21
-2119.070987334279
  0
LINE
  5
109
100
AcDbEntity
  8
0
  6
CONTINUOUS
 62
           4
100
AcDbLine
 10
-1075.673828098333
 20
-2113.371028617945
 11
-1075.673828098333
 21
-2118.271007182625
  0
LINE
  5
108
100
AcDbEntity
  8
0
  6
CONTINUOUS
 62
           4
100
AcDbLine
 10
-1071.673889193093
 20
-2121.113643248666
 11
-1071.673889193093
 21
-2133.028468510574
  0
LINE
  5
107
100
AcDbEntity
  8
0
  6
CONTINUOUS
 62
           4
100
AcDbLine
 10
-1049.673843744552
 20
-2121.113643248666
 11
-1049.673843744552
 21
-2133.028468510574
  0
LINE
  5
106
100
AcDbEntity
  8
0
  6
CONTINUOUS
 62
           4
100
AcDbLine
 10
-1019.173889975404
 20
-2011.571046156611
 11
-1019.173889975404
 21
-2014.571057556
  0
LINE
  5
105
100
AcDbEntity
  8
0
  6
CONTINUOUS
 62
           4
100
AcDbLine
 10
-1110.673877105905
 20
-2015.571063330178
 11
-1109.673875072763
 21
-2014.571052446141
  0
LINE
  5
104
100
AcDbEntity
  8
0
  6
CONTINUOUS
 62
           4
100
AcDbLine
 10
-1102.397117189872
 20
-2019.570943040578
 11
-1098.087062475044
 21
-2019.570943040578
  0
LINE
  5
103
100
AcDbEntity
  8
0
  6
CONTINUOUS
 62
           4
100
AcDbLine
 10
-1093.844375312923
 20
-2019.570943040578
 11
-1088.226947570701
 21
-2019.570943040578
  0
LINE
  5
102
100
AcDbEntity
  8
0
  6
CONTINUOUS
 62
           4
100
AcDbLine
 10
-1083.030891282162
 20
-2019.570943040578
 11
-1074.67395781294
 21
-2019.570943040578
  0
LINE
  5
101
100
AcDbEntity
  8
0
  6
CONTINUOUS
 62
           4
100
AcDbLine
 10
-1108.673972565089
 20
-2019.570943040578
 11
-1105.397109515774
 21
-2019.570943040578
  0
LINE
  5
100
100
AcDbEntity
  8
0
  6
CONTINUOUS
 62
           4
100
AcDbLine
 10
-1108.673858124173
 20
-2019.571057481494
 11
-1108.673858124173
 21
-2031.571045858588
  0
LINE
  5
FF
100
AcDbEntity
  8
0
  6
CONTINUOUS
 62
           4
100
AcDbLine
 10
-1105.397033221829
 20
-2019.571057481494
 11
-1105.397033221829
 21
-2031.571045858588
  0
LINE
  5
FE
100
AcDbEntity
  8
0
  6
CONTINUOUS
 62
           4
100
AcDbLine
 10
-1102.397002748955
 20
-2019.571057481494
 11
-1102.397002748955
 21
-2031.571045858588
  0
LINE
  5
FD
100
AcDbEntity
  8
0
  6
CONTINUOUS
 62
           4
100
AcDbLine
 10
-1098.087005254585
 20
-2019.571057481494
 11
-1098.087005254585
 21
-2031.571045858588
  0
LINE
  5
FC
100
AcDbEntity
  8
0
  6
CONTINUOUS
 62
           4
100
AcDbLine
 10
-1093.844299018979
 20
-2019.571057481494
 11
-1093.844299018979
 21
-2031.571045858588
  0
LINE
  5
FB
100
AcDbEntity
  8
0
  6
CONTINUOUS
 62
           4
100
AcDbLine
 10
-1088.226852203271
 20
-2019.571057481494
 11
-1088.226852203271
 21
-2031.571045858588
  0
LINE
  5
FA
100
AcDbEntity
  8
0
  6
CONTINUOUS
 62
           4
100
AcDbLine
 10
-1074.673919665968
 20
-2019.571057481494
 11
-1074.673919665968
 21
-2031.571045858588
  0
LINE
  5
F9
100
AcDbEntity
  8
0
  6
CONTINUOUS
 62
           4
100
AcDbLine
 10
-1018.950711115205
 20
-2019.570943040578
 11
-1023.260956564893
 21
-2019.570943040578
  0
LINE
  5
F8
100
AcDbEntity
  8
0
  6
CONTINUOUS
 62
           4
100
AcDbLine
 10
-1027.503643727014
 20
-2019.570943040578
 11
-1033.120918881347
 21
-2019.570943040578
  0
LINE
  5
F7
100
AcDbEntity
  8
0
  6
CONTINUOUS
 62
           4
100
AcDbLine
 10
-1038.317089610803
 20
-2019.570943040578
 11
-1046.673946786081
 21
-2019.570943040578
  0
LINE
  5
F6
100
AcDbEntity
  8
0
  6
CONTINUOUS
 62
           4
100
AcDbLine
 10
-1012.673951107417
 20
-2019.570943040578
 11
-1015.773926647162
 21
-2019.570943040578
  0
LINE
  5
F5
100
AcDbEntity
  8
0
  6
CONTINUOUS
 62
           4
100
AcDbLine
 10
-1012.673874813473
 20
-2019.571057481494
 11
-1012.673874813473
 21
-2031.571045858588
  0
LINE
  5
F4
100
AcDbEntity
  8
0
  6
CONTINUOUS
 62
           4
100
AcDbLine
 10
-1018.950653894746
 20
-2019.571057481494
 11
-1018.950653894746
 21
-2031.571045858588
  0
LINE
  5
F3
100
AcDbEntity
  8
0
  6
CONTINUOUS
 62
           4
100
AcDbLine
 10
-1023.260956564893
 20
-2019.570943040578
 11
-1023.260956564893
 21
-2031.571045858588
  0
LINE
  5
F2
100
AcDbEntity
  8
0
  6
CONTINUOUS
 62
           4
100
AcDbLine
 10
-1027.503586506556
 20
-2019.571057481494
 11
-1027.503586506556
 21
-2031.571045858588
  0
LINE
  5
F1
100
AcDbEntity
  8
0
  6
CONTINUOUS
 62
           4
100
AcDbLine
 10
-1033.120880734375
 20
-2019.571057481494
 11
-1033.120880734375
 21
-2031.571045858588
  0
LINE
  5
F0
100
AcDbEntity
  8
0
  6
CONTINUOUS
 62
           4
100
AcDbLine
 10
-1038.317032390345
 20
-2019.571057481494
 11
-1038.317032390345
 21
-2031.571045858588
  0
LINE
  5
EF
100
AcDbEntity
  8
0
  6
CONTINUOUS
 62
           4
100
AcDbLine
 10
-1046.673889565622
 20
-2019.571057481494
 11
-1046.673889565622
 21
-2031.571045858588
  0
LINE
  5
EE
100
AcDbEntity
  8
0
  6
CONTINUOUS
 62
           4
100
AcDbLine
 10
-1010.673979351692
 20
-2015.571077080169
 11
-1011.673981384834
 21
-2014.571066196133
  0
LINE
  5
ED
100
AcDbEntity
  8
0
  6
CONTINUOUS
 62
           4
100
AcDbLine
 10
-1096.423968932931
 20
-2035.571080131258
 11
-1024.923954739575
 21
-2035.571080131258
  0
LINE
  5
EC
100
AcDbEntity
  8
0
  6
CONTINUOUS
 62
           4
100
AcDbLine
 10
-1010.673962581311
 20
-2031.571064932075
 11
-1110.673903870737
 21
-2031.571064932075
  0
LINE
  5
EB
100
AcDbEntity
  8
0
  6
CONTINUOUS
 62
           4
100
AcDbLine
 10
-1011.67409989551
 20
-2014.570943115084
 11
-1109.673976364885
 21
-2014.570943115084
  0
LINE
  5
EA
100
AcDbEntity
  8
0
  6
CONTINUOUS
 62
           4
100
AcDbLine
 10
-1096.42378772767
 20
-2035.571064098804
 11
-1095.665064393424
 21
-2083.623545515037
  0
LINE
  5
E9
100
AcDbEntity
  8
0
  6
CONTINUOUS
 62
           4
100
AcDbLine
 10
-1024.923795799771
 20
-2035.571012262151
 11
-1025.682518832895
 21
-2083.623474607275
  0
LINE
  5
E8
100
AcDbEntity
  8
0
  6
CONTINUOUS
 62
           4
100
AcDbLine
 10
-1110.673903870737
 20
-2031.571232295136
 11
-1096.423940391207
 21
-2035.571222136638
  0
LINE
  5
E7
100
AcDbEntity
  8
0
  6
CONTINUOUS
 62
           4
100
AcDbLine
 10
-1010.673805552242
 20
-2031.571110438453
 11
-1024.9238036272
 21
-2035.571109990953
  0
LINE
  5
E6
100
AcDbEntity
  8
0
  6
CONTINUOUS
 62
           4
100
AcDbLine
 10
-1010.673905360853
 20
-2031.571045858588
 11
-1010.673905360853
 21
-2015.571061355796
  0
LINE
  5
E5
100
AcDbEntity
  8
0
  6
CONTINUOUS
 62
           4
100
AcDbLine
 10
-1078.173961575483
 20
-2113.370990470973
 11
-1043.173962097023
 21
-2113.370990470973
  0
LINE
  5
E4
100
AcDbEntity
  8
0
  6
CONTINUOUS
 62
           4
100
AcDbLine
 10
-1015.773926647162
 20
-2019.571000261036
 11
-1015.773926647162
 21
-2031.571045858588
  0
LINE
  5
E3
100
AcDbEntity
  8
0
  6
CONTINUOUS
 62
           4
100
AcDbLine
 10
-1102.173919256186
 20
-2011.571046156611
 11
-1102.173919256186
 21
-2014.571057556
  0
LINE
  5
E2
100
AcDbEntity
  8
0
  6
CONTINUOUS
 62
           4
100
AcDbLine
 10
-1023.173941107402
 20
-2001.571099343196
 11
-1011.673946363503
 21
-2008.571095794938
  0
LINE
  5
E1
100
AcDbEntity
  8
0
  6
CONTINUOUS
 62
           4
100
AcDbLine
 10
-1098.173941280746
 20
-2001.571097092902
 11
-1109.674033779911
 21
-2008.571153047847
  0
LINE
  5
E0
100
AcDbEntity
  8
0
  6
CONTINUOUS
 62
           4
100
AcDbLine
 10
-1023.173991005276
 20
-2001.571065379109
 11
-1098.17396127746
 21
-2001.571065379109
  0
LINE
  5
DF
100
AcDbEntity
  8
0
  6
CONTINUOUS
 62
           4
100
AcDbLine
 10
-1040.673904913818
 20
-2000.271092864301
 11
-1080.67396153823
 21
-2000.271092864301
  0
LINE
  5
DE
100
AcDbEntity
  8
0
  6
CONTINUOUS
 62
           4
100
AcDbLine
 10
-1080.673904317772
 20
-2000.271073790815
 11
-1080.673904317772
 21
-2001.571046305623
  0
LINE
  5
DD
100
AcDbEntity
  8
0
  6
CONTINUOUS
 62
           4
100
AcDbLine
 10
-1040.673904913818
 20
-2000.271073790815
 11
-1040.673904913818
 21
-2001.571046305623
  0
LINE
  5
DC
100
AcDbEntity
  8
0
  6
CONTINUOUS
 62
           4
100
AcDbLine
 10
-1109.673919144427
 20
-2008.571053830709
 11
-1109.673919144427
 21
-2011.571046156611
  0
LINE
  5
DB
100
AcDbEntity
  8
0
  6
CONTINUOUS
 62
           4
100
AcDbLine
 10
-1051.698370310454
 20
-2120.57107886466
 11
-1069.649047914672
 21
-2120.57107886466
  0
LINE
  5
DA
100
AcDbEntity
  8
0
  6
CONTINUOUS
 62
           4
100
AcDbLine
 10
-1069.648962729315
 20
-2120.571083168117
 11
-1071.673934458164
 21
-2121.113672712106
  0
LINE
  5
D9
100
AcDbEntity
  8
0
  6
CONTINUOUS
 62
           4
100
AcDbLine
 10
-1068.9239724112
 20
-2119.571151654223
 11
-1069.648927207336
 21
-2120.571088803979
  0
LINE
  5
D8
100
AcDbEntity
  8
0
  6
CONTINUOUS
 62
           4
100
AcDbLine
 10
-1068.923873975283
 20
-2119.071063628223
 11
-1068.923873975283
 21
-2119.571055991378
  0
LINE
  5
D7
100
AcDbEntity
  8
0
  6
CONTINUOUS
 62
           4
100
AcDbLine
 10
-1055.173874180174
 20
-2133.571109188523
 11
-1066.173954124902
 21
-2133.571109188523
  0
LINE
  5
D6
100
AcDbEntity
  8
0
  6
CONTINUOUS
 62
           4
100
AcDbLine
 10
-1069.648971620728
 20
-2119.071063628223
 11
-1069.648971620728
 21
-2120.571040717688
  0
LINE
  5
D5
100
AcDbEntity
  8
0
  6
CONTINUOUS
 62
           4
100
AcDbLine
 10
-1051.698936418311
 20
-2120.570923307253
 11
-1049.67391863053
 21
-2121.113525192696
  0
LINE
  5
D4
100
AcDbEntity
  8
0
  6
CONTINUOUS
 62
           4
100
AcDbLine
 10
-1052.423965561361
 20
-2119.57104127465
 11
-1051.69896598314
 21
-2120.571040192769
  0
LINE
  5
D3
100
AcDbEntity
  8
0
  6
CONTINUOUS
 62
           4
100
AcDbLine
 10
-1052.423858962363
 20
-2119.071063628223
 11
-1052.423858962363
 21
-2119.571055991378
  0
LINE
  5
D2
100
AcDbEntity
  8
0
  6
CONTINUOUS
 62
           4
100
AcDbLine
 10
-1051.698913904806
 20
-2119.071063628223
 11
-1051.698913904806
 21
-2120.571040717688
  0
LINE
  5
D1
100
AcDbEntity
  8
0
  6
CONTINUOUS
 62
           4
100
AcDbLine
 10
-1109.673976364885
 20
-2008.571034757224
 11
-1011.673928234135
 21
-2008.571034757224
  0
LINE
  5
D0
100
AcDbEntity
  8
0
  6
CONTINUOUS
 62
           4
100
AcDbLine
 10
-1011.673890087163
 20
-2011.571065230098
 11
-1109.673976364885
 21
-2011.571065230098
  0
LINE
  5
CF
100
AcDbEntity
  8
0
  6
CONTINUOUS
 62
           4
100
AcDbLine
 10
-1110.673903870737
 20
-2031.571232295136
 11
-1110.673903870737
 21
-2015.571061355796
  0
LINE
  5
CE
100
AcDbEntity
  8
0
  6
CONTINUOUS
 62
           4
100
AcDbLine
 10
-1011.673890087163
 20
-2008.571053830709
 11
-1011.673890087163
 21
-2011.571046156611
  0
POINT
  5
CD
100
AcDbEntity
  8
0
 62
           7
100
AcDbPoint
 10
-1019.67385924176
 20
-1943.571035725799
  0
POINT
  5
CC
100
AcDbEntity
  8
0
 62
           7
100
AcDbPoint
 10
-1060.673828321851
 20
-1923.571055097308
  0
POINT
  5
CB
100
AcDbEntity
  8
0
 62
           7
100
AcDbPoint
 10
-1140.673827129758
 20
-1943.571035725799
  0
POINT
  5
CA
100
AcDbEntity
  8
0
 62
           7
100
AcDbPoint
 10
-1060.673828321851
 20
-2133.571109188523
  0
ENDBLK
  5
135
100
AcDbEntity
  8
0
100
AcDbBlockEnd
  0
BLOCK
  5
36
100
AcDbEntity
  8
0
100
AcDbBlockBegin
  2
KOZU0003__S
 70
           0
 10
0.0
 20
0.0
 30
0.0
  3
KOZU0003__S
  1

  0
ARC
  5
141
100
AcDbEntity
  8
0
  6
CONTINUOUS
 62
           7
100
AcDbCircle
 10
-280.22385924176
 20
-1660.697853560334
 40
15.926817834535
100
AcDbArc
 50
64.924416713965
 51
115.075583286035
  0
ARC
  5
140
100
AcDbEntity
  8
0
  6
CONTINUOUS
 62
           7
100
AcDbCircle
 10
-293.72385924176
 20
-1660.697853560334
 40
15.926817834535
100
AcDbArc
 50
64.924416713966
 51
115.075583286035
  0
LINE
  5
13F
100
AcDbEntity
  8
0
  6
CONTINUOUS
 62
           7
100
AcDbLine
 10
-276.07385924176
 20
-1644.771035725799
 11
-273.47385924176
 21
-1646.272146425692
  0
LINE
  5
13E
100
AcDbEntity
  8
0
  6
CONTINUOUS
 62
           7
100
AcDbLine
 10
-300.47385924176
 20
-1667.371035725799
 11
-300.473859241759
 21
-1646.272146425694
  0
LINE
  5
13D
100
AcDbEntity
  8
0
  6
CONTINUOUS
 62
           7
100
AcDbLine
 10
-273.47385924176
 20
-1667.371035725799
 11
-273.47385924176
 21
-1646.272146425692
  0
LINE
  5
13C
100
AcDbEntity
  8
0
  6
CONTINUOUS
 62
           7
100
AcDbLine
 10
-297.873859241759
 20
-1644.771035725801
 11
-276.07385924176
 21
-1644.771035725799
  0
LINE
  5
13B
100
AcDbEntity
  8
0
  6
CONTINUOUS
 62
           7
100
AcDbLine
 10
-300.473859241759
 20
-1646.272146425694
 11
-297.873859241759
 21
-1644.771035725801
  0
LINE
  5
13A
100
AcDbEntity
  8
0
  6
CONTINUOUS
 62
           3
100
AcDbLine
 10
-286.97385924176
 20
-1686.981036311739
 11
-286.97385924176
 21
-1638.596741590335
  0
LINE
  5
139
100
AcDbEntity
  8
0
  6
CONTINUOUS
 62
           7
100
AcDbLine
 10
-286.97385924176
 20
-1667.371035725799
 11
-286.97385924176
 21
-1646.272146425692
  0
POINT
  5
138
100
AcDbEntity
  8
0
 62
           7
100
AcDbPoint
 10
-286.97385924176
 20
-1646.272146425692
  0
POINT
  5
137
100
AcDbEntity
  8
0
 62
           7
100
AcDbPoint
 10
-286.97385924176
 20
-1646.272146425692
  0
POINT
  5
136
100
AcDbEntity
  8
0
 62
           7
100
AcDbPoint
 10
-286.97385924176
 20
-1646.272146425692
  0
ENDBLK
  5
142
100
AcDbEntity
  8
0
100
AcDbBlockEnd
  0
BLOCK
  5
38
100
AcDbEntity
  8
0
100
AcDbBlockBegin
  2
KOZU0008__S
 70
           0
 10
0.0
 20
0.0
 30
0.0
  3
KOZU0008__S
  1

  0
CIRCLE
  5
147
100
AcDbEntity
  8
0
  6
CONTINUOUS
 62
           3
100
AcDbCircle
 10
-191.77385924176
 20
-2170.5710357258
 40
4.7
  0
LINE
  5
146
100
AcDbEntity
  8
0
  6
CONTINUOUS
 62
           3
100
AcDbLine
 10
-191.773856914741
 20
-2170.571026014382
 11
-193.576981333827
 21
-2172.374150433467
  0
LINE
  5
145
100
AcDbEntity
  8
0
  6
CONTINUOUS
 62
           3
100
AcDbLine
 10
-191.773857915973
 20
-2170.571026407672
 11
-193.576971545465
 21
-2168.76791277818
  0
LINE
  5
144
100
AcDbEntity
  8
0
  6
CONTINUOUS
 62
           3
100
AcDbLine
 10
-191.773857915973
 20
-2170.571026407672
 11
-189.970733496888
 21
-2172.374150826758
  0
LINE
  5
143
100
AcDbEntity
  8
0
  6
CONTINUOUS
 62
           3
100
AcDbLine
 10
-191.773856914741
 20
-2170.571026014382
 11
-189.97074328525
 21
-2168.767912384889
  0
ENDBLK
  5
148
100
AcDbEntity
  8
0
100
AcDbBlockEnd
  0
BLOCK
  5
3A
100
AcDbEntity
  8
0
100
AcDbBlockBegin
  2
KOZU0014__S
 70
           0
 10
0.0
 20
0.0
 30
0.0
  3
KOZU0014__S
  1

  0
CIRCLE
  5
15D
100
AcDbEntity
  8
0
  6
CONTINUOUS
 62
           7
100
AcDbCircle
 10
-234.527071724443
 20
-1800.771035725799
 40
2.25
  0
CIRCLE
  5
15C
100
AcDbEntity
  8
0
  6
CONTINUOUS
 62
           7
100
AcDbCircle
 10
-288.220646759078
 20
-1800.771035725799
 40
2.25
  0
CIRCLE
  5
15B
100
AcDbEntity
  8
0
  6
CONTINUOUS
 62
           7
100
AcDbCircle
 10
-261.37385924176
 20
-1754.271035725799
 40
2.25
  0
CIRCLE
  5
15A
100
AcDbEntity
  8
0
  6
CONTINUOUS
 62
           3
100
AcDbCircle
 10
-261.37385924176
 20
-1785.271035725799
 40
31.0
  0
CIRCLE
  5
159
100
AcDbEntity
  8
0
  6
CONTINUOUS
 62
           7
100
AcDbCircle
 10
-261.37385924176
 20
-1785.271035725799
 40
26.4
  0
CIRCLE
  5
158
100
AcDbEntity
  8
0
  6
CONTINUOUS
 62
           7
100
AcDbCircle
 10
-261.37385924176
 20
-1785.271035725799
 40
35.0
  0
ARC
  5
157
100
AcDbEntity
  8
0
  6
CONTINUOUS
 62
           7
100
AcDbCircle
 10
-261.37385924176
 20
-1785.271035725799
 40
12.0
100
AcDbArc
 50
29.538518672262
 51
60.461481327738
  0
ARC
  5
156
100
AcDbEntity
  8
0
  6
CONTINUOUS
 62
           7
100
AcDbCircle
 10
-261.37385924176
 20
-1785.271035725799
 40
25.0
100
AcDbArc
 50
0.0
 51
179.999964027821
  0
ARC
  5
155
100
AcDbEntity
  8
0
  6
CONTINUOUS
 62
           7
100
AcDbCircle
 10
-261.37385924176
 20
-1785.271035725799
 40
25.0
100
AcDbArc
 50
179.999981330665
 51
0.0
  0
LINE
  5
154
100
AcDbEntity
  8
0
  6
CONTINUOUS
 62
           7
100
AcDbLine
 10
-279.051528771424
 20
-1802.948705255463
 11
-255.457756408144
 21
-1774.830742278674
  0
LINE
  5
153
100
AcDbEntity
  8
0
  6
CONTINUOUS
 62
           7
100
AcDbLine
 10
-279.051528771424
 20
-1802.948705255463
 11
-250.933565794636
 21
-1779.354932892183
  0
LINE
  5
152
100
AcDbEntity
  8
0
  6
CONTINUOUS
 62
           3
100
AcDbLine
 10
-230.378810040315
 20
-1803.166035725799
 11
-238.67533340857
 21
-1798.376035725799
  0
LINE
  5
151
100
AcDbEntity
  8
0
  6
CONTINUOUS
 62
           3
100
AcDbLine
 10
-292.368908443205
 20
-1803.166035725799
 11
-284.07238507495
 21
-1798.376035725799
  0
LINE
  5
150
100
AcDbEntity
  8
0
  6
CONTINUOUS
 62
           3
100
AcDbLine
 10
-261.37385924176
 20
-1749.481035725799
 11
-261.37385924176
 21
-1759.061035725799
  0
LINE
  5
14F
100
AcDbEntity
  8
0
  6
CONTINUOUS
 62
           3
100
AcDbLine
 10
-261.37385924176
 20
-1757.731035725799
 11
-261.37385924176
 21
-1812.811035725799
  0
LINE
  5
14E
100
AcDbEntity
  8
0
  6
CONTINUOUS
 62
           3
100
AcDbLine
 10
-233.83385924176
 20
-1785.271035725799
 11
-288.91385924176
 21
-1785.271035725799
  0
POINT
  5
14D
100
AcDbEntity
  8
0
 62
           7
100
AcDbPoint
 10
-261.37385924176
 20
-1820.271035725799
  0
POINT
  5
14C
100
AcDbEntity
  8
0
 62
           7
100
AcDbPoint
 10
-261.37385924176
 20
-1750.271035725799
  0
POINT
  5
14B
100
AcDbEntity
  8
0
 62
           7
100
AcDbPoint
 10
-261.37385924176
 20
-1785.271035725799
  0
POINT
  5
14A
100
AcDbEntity
  8
0
 62
           7
100
AcDbPoint
 10
-236.37385924176
 20
-1785.271035725799
  0
POINT
  5
149
100
AcDbEntity
  8
0
 62
           7
100
AcDbPoint
 10
-286.373859241759
 20
-1785.271027579765
  0
ENDBLK
  5
15E
100
AcDbEntity
  8
0
100
AcDbBlockEnd
  0
BLOCK
  5
3C
100
AcDbEntity
  8
0
100
AcDbBlockBegin
  2
KOZU0020__S
 70
           0
 10
0.0
 20
0.0
 30
0.0
  3
KOZU0020__S
  1

  0
TEXT
  5
16F
100
AcDbEntity
  8
0
 62
           7
100
AcDbText
 10
-131.379169532637
 20
-1714.16628952608
 40
10.0
  1
IWATA
 41
0.9
  7
CONVERTER_1
100
AcDbText
  0
TEXT
  5
16E
100
AcDbEntity
  8
0
 62
           7
100
AcDbText
 10
-131.379169532637
 20
-1699.16628952608
 40
10.0
  1
ANEST
 41
0.9
  7
CONVERTER_1
100
AcDbText
  0
TEXT
  5
16D
100
AcDbEntity
  8
0
 62
           7
100
AcDbText
 10
-174.887579467589
 20
-1746.27385748942
 40
4.666666666667
  1
REFRIGERATED AIR DRYER
 41
0.9
  7
CONVERTER_1
100
AcDbText
  0
SPLINE
  5
16B
100
AcDbEntity
  8
0
  6
CONTINUOUS
 62
           7
100
AcDbSpline
210
0.0
220
0.0
230
1.0
 70
           0
 71
           3
 72
          52
 73
          49
 74
          95
 42
0.00000000001
 43
0.00000000001
 44
0.00000000001
 40
0.0
 40
0.0
 40
0.0
 40
1.0091537242666959
 40
1.879431355535953
 40
2.6811868995093526
 40
3.4831586808853601
 40
4.2850394995445331
 40
5.0866734640717199
 40
5.8894764537533772
 40
6.6949198760782309
 40
7.5003786989075341
 40
8.3035848342433844
 40
9.105746068574593
 40
9.9077321159932907
 40
10.709598864996632
 40
11.511436684493445
 40
12.313280081650904
 40
13.115068206431301
 40
13.916738424866978
 40
14.718359101122374
 40
15.520003353895
 40
16.321666008396871
 40
17.12334257514734
 40
17.925031010903108
 40
18.726721851961791
 40
19.528413730845969
 40
20.330106314967118
 40
21.131798824668483
 40
21.9334909844641
 40
22.735182840606612
 40
23.536874438095349
 40
24.33856581846765
 40
25.140257020131301
 40
25.941948078266957
 40
26.743639024803045
 40
27.545342210195294
 40
28.347057054779359
 40
29.148712219082558
 40
29.950275112637467
 40
30.751851436410359
 40
31.553508135637323
 40
32.355198525603221
 40
33.156888866313977
 40
33.958579206741391
 40
34.760269596927174
 40
35.561960079119544
 40
36.363627355701652
 40
37.265459448401216
 40
38.367691069446842
 40
38.367691069446842
 40
38.367691069446842
 10
-149.1072401892425
 20
-1689.3939958777089
 30
0.0
 10
-149.6390475714573
 20
-1689.4856216641269
 30
0.0
 10
-150.57785887471451
 20
-1689.4657399598891
 30
0.0
 10
-151.37921746908731
 20
-1689.4489980654889
 30
0.0
 10
-152.18050524500291
 20
-1689.41574125278
 30
0.0
 10
-152.98067754449221
 20
-1689.362134797741
 30
0.0
 10
-153.77911678395751
 20
-1689.288846810002
 30
0.0
 10
-154.57805371890481
 20
-1689.225148268436
 30
0.0
 10
-155.38197088526681
 20
-1689.243810576748
 30
0.0
 10
-156.15858553101609
 20
-1689.4622602127899
 30
0.0
 10
-156.8580083608671
 20
-1689.859108211924
 30
0.0
 10
-157.4936572376867
 20
-1690.348548611644
 30
0.0
 10
-158.0796466299015
 20
-1690.8962167040299
 30
0.0
 10
-158.62650446424291
 20
-1691.4827197799459
 30
0.0
 10
-159.14155078160849
 20
-1692.097267182605
 30
0.0
 10
-159.6295348634228
 20
-1692.7335203510099
 30
0.0
 10
-160.0942544836885
 20
-1693.3869687294541
 30
0.0
 10
-160.54193608187271
 20
-1694.05206306786
 30
0.0
 10
-160.98081027705931
 20
-1694.722861423267
 30
0.0
 10
-161.42052578934141
 20
-1695.3931305429569
 30
0.0
 10
-161.86894577465691
 20
-1696.0576424756109
 30
0.0
 10
-162.32411013449789
 20
-1696.717562801816
 30
0.0
 10
-162.7839413888864
 20
-1697.374263967971
 30
0.0
 10
-163.24654146706661
 20
-1698.029022442206
 30
0.0
 10
-163.71002151647019
 20
-1698.6831594012331
 30
0.0
 10
-164.1728912069814
 20
-1699.3377298478499
 30
0.0
 10
-164.63520196628011
 20
-1699.9926954505561
 30
0.0
 10
-165.09700564016021
 20
-1700.648018232185
 30
0.0
 10
-165.55835501247631
 20
-1701.303660522987
 30
0.0
 10
-166.01930332537739
 20
-1701.9595844975599
 30
0.0
 10
-166.4799042466507
 20
-1702.6157521733139
 30
0.0
 10
-166.94021182589671
 20
-1703.2721254237081
 30
0.0
 10
-167.4002804517558
 20
-1703.9286659889481
 30
0.0
 10
-167.8601648081555
 20
-1704.5853354871149
 30
0.0
 10
-168.31991983006699
 20
-1705.2420954251891
 30
0.0
 10
-168.77961478877879
 20
-1705.8989274004621
 30
0.0
 10
-169.239290161599
 20
-1706.555771550067
 30
0.0
 10
-169.6989343584859
 20
-1707.212493362483
 30
0.0
 10
-170.15863243517521
 20
-1707.869096361645
 30
0.0
 10
-170.61853148481711
 20
-1708.525672521688
 30
0.0
 10
-171.07867221243441
 20
-1709.182161706744
 30
0.0
 10
-171.5390712900317
 20
-1709.8384696472469
 30
0.0
 10
-171.99978404157761
 20
-1710.494557401988
 30
0.0
 10
-172.46086563192819
 20
-1711.1503860301759
 30
0.0
 10
-172.92237102590519
 20
-1711.8059165880079
 30
0.0
 10
-173.38435487342159
 20
-1712.4611101793901
 30
0.0
 10
-173.8468449197847
 20
-1713.11588959662
 30
0.0
 10
-174.42566907596239
 20
-1713.933818087582
 30
0.0
 10
-174.77369815259581
 20
-1714.4240660835169
 30
0.0
 11
-149.1072401892425
 21
-1689.3939958777089
 31
0.0
 11
-149.63211854129869
 21
-1689.4600463656093
 31
0.0
 11
-150.1431388330376
 21
-1689.4749462564737
 31
0.0
 11
-150.57345377786075
 21
-1689.465863034168
 31
0.0
 11
-150.99495852897633
 21
-1689.45702596042
 31
0.0
 11
-151.38330020091752
 21
-1689.4468484981528
 31
0.0
 11
-151.77980733651907
 21
-1689.4323719012136
 31
0.0
 11
-152.18035797805311
 21
-1689.4131977279712
 31
0.0
 11
-152.58061408568759
 21
-1689.3889365051118
 31
0.0
 11
-152.98048194925559
 21
-1689.3596728158204
 31
0.0
 11
-153.3799586223503
 21
-1689.325485162688
 31
0.0
 11
-153.77912159522668
 21
-1689.2900498819831
 31
0.0
 11
-154.17829419064145
 21
-1689.2570207452404
 31
0.0
 11
-154.57843849787872
 21
-1689.235445346184
 31
0.0
 11
-154.97935236306384
 21
-1689.2344641026239
 31
0.0
 11
-155.37839215736344
 21
-1689.2687799016701
 31
0.0
 11
-155.7702744958562
 21
-1689.3530343505608
 31
0.0
 11
-156.14905805520027
 21
-1689.4846292126865
 31
0.0
 11
-156.50878666291266
 21
-1689.6609620746053
 31
0.0
 11
-156.85021076234838
 21
-1689.8707915484108
 31
0.0
 11
-157.17603966474661
 21
-1690.10398769519
 31
0.0
 11
-157.48750951787434
 21
-1690.355874370347
 31
0.0
 11
-157.78668393137735
 21
-1690.6224125629096
 31
0.0
 11
-158.07476826913771
 21
-1690.9010840064275
 31
0.0
 11
-158.35309588537046
 21
-1691.1894900547402
 31
0.0
 11
-158.6225342705718
 21
-1691.4862321597179
 31
0.0
 11
-158.88403226843087
 21
-1691.7899990242395
 31
0.0
 11
-159.1381689513876
 21
-1692.0999815124505
 31
0.0
 11
-159.3855419739026
 21
-1692.4153926603517
 31
0.0
 11
-159.6266285957627
 21
-1692.7356722909522
 31
0.0
 11
-159.8619026823026
 21
-1693.0602558014366
 31
0.0
 11
-160.09213084800996
 21
-1693.3884334030088
 31
0.0
 11
-160.31811174236032
 21
-1693.719540351691
 31
0.0
 11
-160.54084096656132
 21
-1694.0527847742278
 31
0.0
 11
-160.76137996013961
 21
-1694.3874726095009
 31
0.0
 11
-160.98091632859519
 21
-1694.7227966277217
 31
0.0
 11
-161.20066480012261
 21
-1695.0579910548522
 31
0.0
 11
-161.42161239686652
 21
-1695.3924087091575
 31
0.0
 11
-161.64473320866054
 21
-1695.7253826958629
 31
0.0
 11
-161.86978768445266
 21
-1696.0570668556795
 31
0.0
 11
-162.09652597983629
 21
-1696.3875997756338
 31
0.0
 11
-162.32469257713998
 21
-1696.7171590833811
 31
0.0
 11
-162.55402405972796
 21
-1697.0459109542587
 31
0.0
 11
-162.78428697962337
 21
-1697.374020401043
 31
0.0
 11
-163.01524108099269
 21
-1697.701642713972
 31
0.0
 11
-163.24665133922386
 21
-1698.0289445771002
 31
0.0
 11
-163.47828134176945
 21
-1698.3560907100173
 31
0.0
 11
-163.70994515866016
 21
-1698.6832134982678
 31
0.0
 11
-163.94145625993087
 21
-1699.0104444805875
 31
0.0
 11
-164.17282131781332
 21
-1699.3377792101724
 31
0.0
 11
-164.40404659735964
 21
-1699.6652126644026
 31
0.0
 11
-164.63513859588241
 21
-1699.992740119598
 31
0.0
 11
-164.86610385360973
 21
-1700.3203569128759
 31
0.0
 11
-165.09694887598354
 21
-1700.6480582042286
 31
0.0
 11
-165.32768037000403
 21
-1700.9758394396695
 31
0.0
 11
-165.55830490026577
 21
-1701.303695762206
 31
0.0
 11
-165.78882920610636
 21
-1701.6316225631795
 31
0.0
 11
-166.01925991851513
 21
-1701.9596149845406
 31
0.0
 11
-166.24960381719936
 21
-1702.2876683798631
 31
0.0
 11
-166.47986759310669
 21
-1702.6157778903951
 31
0.0
 11
-166.71005806192602
 21
-1702.9439388350897
 31
0.0
 11
-166.94018196828435
 21
-1703.2721463545549
 31
0.0
 11
-167.17024615941796
 21
-1703.6003957357134
 31
0.0
 11
-167.40025742722247
 21
-1703.9286821186236
 31
0.0
 11
-167.6302226459602
 21
-1704.2570007608842
 31
0.0
 11
-167.86014820667654
 21
-1704.5853461711779
 31
0.0
 11
-168.09004056443487
 21
-1704.9137129495971
 31
0.0
 11
-168.31991146566617
 21
-1705.2421032061843
 31
0.0
 11
-168.54976563809589
 21
-1705.5705090247616
 31
0.0
 11
-168.77961406145238
 21
-1705.8989313813506
 31
0.0
 11
-169.00946103015599
 21
-1706.2273616997177
 31
0.0
 11
-169.23929171011343
 21
-1706.5557640386082
 31
0.0
 11
-169.46912548709969
 21
-1706.8841513545817
 31
0.0
 11
-169.69894391883832
 21
-1707.2124825478206
 31
0.0
 11
-169.92878147128181
 21
-1707.5407921117348
 31
0.0
 11
-170.15865419337166
 21
-1707.8690882046267
 31
0.0
 11
-170.38857043185448
 21
-1708.1973679834828
 31
0.0
 11
-170.61855760392558
 21
-1708.5256558109379
 31
0.0
 11
-170.84859701421368
 21
-1708.8539102168929
 31
0.0
 11
-171.07870329934678
 21
-1709.1821373293644
 31
0.0
 11
-171.30887175830469
 21
-1709.5103156870762
 31
0.0
 11
-171.53911050105336
 21
-1709.8384421265614
 31
0.0
 11
-171.76942766584534
 21
-1710.1665135246753
 31
0.0
 11
-171.99983014464974
 21
-1710.4945250086394
 31
0.0
 11
-172.23032482959843
 21
-1710.8224717059056
 31
0.0
 11
-172.46091860228256
 21
-1711.1503487641353
 31
0.0
 11
-172.69161831567544
 21
-1711.4781512902837
 31
0.0
 11
-172.92243166508149
 21
-1711.8058756478376
 31
0.0
 11
-173.15336629284025
 21
-1712.1335181250511
 31
0.0
 11
-173.38101971436205
 21
-1712.456247009733
 31
0.0
 11
-173.60200281776488
 21
-1712.7692495551
 31
0.0
 11
-173.85075235890466
 21
-1713.1212468905835
 31
0.0
 11
-174.10731677828429
 21
-1713.4839588139926
 31
0.0
 11
-174.43308827070123
 21
-1713.9439152681684
 31
0.0
 11
-174.77369815259581
 21
-1714.4240660835169
 31
0.0
  0
SPLINE
  5
16A
100
AcDbEntity
  8
0
  6
CONTINUOUS
 62
           7
100
AcDbSpline
210
0.0
220
0.0
230
1.0
 70
           0
 71
           3
 72
          52
 73
          49
 74
          95
 42
0.00000000001
 43
0.00000000001
 44
0.00000000001
 40
0.0
 40
0.0
 40
0.0
 40
0.1163482236434354
 40
0.2115107157678612
 40
0.2961053253177454
 40
0.3806805414782453
 40
0.4652098750526225
 40
0.5497608922860466
 40
0.6344107079434602
 40
0.7191232299279385
 40
0.8038223887400904
 40
0.8884722233185454
 40
0.9730810941260109
 40
1.0576758923877212
 40
1.1422685419697509
 40
1.2268594846607077
 40
1.3114490857693561
 40
1.3960376647561343
 40
1.4806618333569648
 40
1.5653839225658606
 40
1.6501693337854477
 40
1.7348744763832942
 40
1.8194262546163829
 40
1.9039204219101578
 40
1.9884549215418919
 40
2.0730118509482147
 40
2.1575616295081561
 40
2.2421055688896807
 40
2.3266453543190901
 40
2.4111828765335517
 40
2.4957200990007387
 40
2.5802589383959229
 40
2.6648011592914744
 40
2.7493482794422657
 40
2.8339014830507034
 40
2.9184615397099387
 40
3.003028726627849
 40
3.0876027553894896
 40
3.1721518367404045
 40
3.2566433110033097
 40
3.3411360379831998
 40
3.4256913205736721
 40
3.5102849858859608
 40
3.594895053364302
 40
3.679524674773313
 40
3.7641711942132909
 40
3.8488259278580528
 40
3.94406828769552
 40
4.0605034420210471
 40
4.0605034420210471
 40
4.0605034420210471
 10
-151.43715826649941
 20
-1700.2853207475009
 30
0.0
 10
-151.38627324437491
 20
-1700.2473662575051
 30
0.0
 10
-151.2957037630463
 20
-1700.1928046322059
 30
0.0
 10
-151.22074865614221
 20
-1700.1535966222659
 30
0.0
 10
-151.14370619618151
 20
-1700.118647813503
 30
0.0
 10
-151.0649892200621
 20
-1700.0877833794229
 30
0.0
 10
-150.9849034407668
 20
-1700.0608072826669
 30
0.0
 10
-150.90357993229281
 20
-1700.0375092564791
 30
0.0
 10
-150.82121233983531
 20
-1700.017749265259
 30
0.0
 10
-150.73807852025371
 20
-1700.0014301541489
 30
0.0
 10
-150.6543987718623
 20
-1699.9884667335959
 30
0.0
 10
-150.57033548250891
 20
-1699.978760890717
 30
0.0
 10
-150.48600870927831
 20
-1699.972017176324
 30
0.0
 10
-150.4015149993408
 20
-1699.9679073828449
 30
0.0
 10
-150.3169428540194
 20
-1699.966088717752
 30
0.0
 10
-150.23235274838419
 20
-1699.9662065883069
 30
0.0
 10
-150.1477806892234
 20
-1699.967900157493
 30
0.0
 10
-150.06324245225571
 20
-1699.970805413677
 30
0.0
 10
-149.9786655448101
 20
-1699.974559760786
 30
0.0
 10
-149.8939876380727
 20
-1699.9787995930051
 30
0.0
 10
-149.80931226673471
 20
-1699.983145779554
 30
0.0
 10
-149.72478673609791
 20
-1699.987215489009
 30
0.0
 10
-149.6403748551046
 20
-1699.9906100670989
 30
0.0
 10
-149.5559025431595
 20
-1699.9930735422911
 30
0.0
 10
-149.4713576372622
 20
-1699.9947116290009
 30
0.0
 10
-149.38680940215031
 20
-1699.995617249793
 30
0.0
 10
-149.3022633741711
 20
-1699.9958912467309
 30
0.0
 10
-149.21772235177571
 20
-1699.9956363034421
 30
0.0
 10
-149.13318691985361
 20
-1699.9949566475259
 30
0.0
 10
-149.04865594876091
 20
-1699.993957113209
 30
0.0
 10
-148.96412711216911
 20
-1699.992742367607
 30
0.0
 10
-148.8795974008089
 20
-1699.991416165986
 30
0.0
 10
-148.79506362207189
 20
-1699.9900806601479
 30
0.0
 10
-148.7105228747653
 20
-1699.9888357550819
 30
0.0
 10
-148.62597299007541
 20
-1699.9877785144729
 30
0.0
 10
-148.5414129309527
 20
-1699.9870026071401
 30
0.0
 10
-148.45684314463941
 20
-1699.9865978309319
 30
0.0
 10
-148.37226585789281
 20
-1699.9866494943999
 30
0.0
 10
-148.28774705008621
 20
-1699.9872385036169
 30
0.0
 10
-148.20329343200541
 20
-1699.9884346480301
 30
0.0
 10
-148.1187913699635
 20
-1699.9903322372161
 30
0.0
 10
-148.0342414728338
 20
-1699.9928440546059
 30
0.0
 10
-147.94968465210101
 20
-1699.995550757742
 30
0.0
 10
-147.86510203854101
 20
-1699.9980660199351
 30
0.0
 10
-147.7804843560429
 20
-1699.999976143692
 30
0.0
 10
-147.69583471558181
 20
-1700.000815320853
 30
0.0
 10
-147.61118286186661
 20
-1700.000011783203
 30
0.0
 10
-147.50542613673861
 20
-1699.996099825692
 30
0.0
 10
-147.44222554080491
 20
-1699.989731554793
 30
0.0
 11
-151.43715826649941
 21
-1700.2853207475009
 31
0.0
 11
-151.38653934103777
 21
-1700.2493515389087
 31
0.0
 11
-151.33645260890199
 21
-1700.2173528931251
 31
0.0
 11
-151.29597076175645
 21
-1700.1937525673507
 31
0.0
 11
-151.2560229120312
 21
-1700.1720481118662
 31
0.0
 11
-151.21993580861457
 21
-1700.1538403927605
 31
0.0
 11
-151.18222301014259
 21
-1700.1361202146436
 31
0.0
 11
-151.14349310790431
 21
-1700.1191568127349
 31
0.0
 11
-151.10433702911155
 21
-1700.1032114092898
 31
0.0
 11
-151.06481673373466
 21
-1700.0882688072377
 31
0.0
 11
-151.02495146570288
 21
-1700.0742970608158
 31
0.0
 11
-150.98475594416476
 21
-1700.0612691744307
 31
0.0
 11
-150.94426542942259
 21
-1700.0491650715735
 31
0.0
 11
-150.90345916958842
 21
-1700.0379541258662
 31
0.0
 11
-150.86241138434553
 21
-1700.0276329189328
 31
0.0
 11
-150.821119553817
 21
-1700.0181801288827
 31
0.0
 11
-150.77964215125184
 21
-1700.0095890660791
 31
0.0
 11
-150.73800641290575
 21
-1700.0018489826
 31
0.0
 11
-150.69622645986374
 21
-1699.994946556023
 31
0.0
 11
-150.65434523958254
 21
-1699.9888731652181
 31
0.0
 11
-150.61235695474181
 21
-1699.9836126376588
 31
0.0
 11
-150.5702991272388
 21
-1699.9791307930445
 31
0.0
 11
-150.5281685891955
 21
-1699.9753887530856
 31
0.0
 11
-150.48598683138172
 21
-1699.9723463398052
 31
0.0
 11
-150.44376131777472
 21
-1699.9699622534872
 31
0.0
 11
-150.4015049541282
 21
-1699.9681937650753
 31
0.0
 11
-150.35922850005647
 21
-1699.966998041124
 31
0.0
 11
-150.31694041847553
 21
-1699.9663307825313
 31
0.0
 11
-150.27464746580688
 21
-1699.9661476534968
 31
0.0
 11
-150.23235485647498
 21
-1699.9664035520318
 31
0.0
 11
-150.1900664633248
 21
-1699.9670533780161
 31
0.0
 11
-150.14778707568729
 21
-1699.9680515432656
 31
0.0
 11
-150.10552046097763
 21
-1699.9693524800614
 31
0.0
 11
-150.06324595408876
 21
-1699.9709112023036
 31
0.0
 11
-150.02097845086598
 21
-1699.9726815017989
 31
0.0
 11
-149.978662987066
 21
-1699.9746199770852
 31
0.0
 11
-149.93634240777786
 21
-1699.9766788849697
 31
0.0
 11
-149.89398689643119
 21
-1699.9788129466024
 31
0.0
 11
-149.85162990180146
 21
-1699.9809737154296
 31
0.0
 11
-149.80931641055713
 21
-1699.9831119381524
 31
0.0
 11
-149.76701120695765
 21
-1699.9851824780712
 31
0.0
 11
-149.7247877727375
 21
-1699.9871317031452
 31
0.0
 11
-149.6825664117965
 21
-1699.9889133564911
 31
0.0
 11
-149.64036622480222
 21
-1699.9904937503688
 31
0.0
 11
-149.59814877720311
 21
-1699.9918415107873
 31
0.0
 11
-149.55589739028073
 21
-1699.9929702680924
 31
0.0
 11
-149.51363569760088
 21
-1699.9938924770008
 31
0.0
 11
-149.47135817605704
 21
-1699.9946200483869
 31
0.0
 11
-149.42908173210287
 21
-1699.9951644585444
 31
0.0
 11
-149.38680886619596
 21
-1699.9955383027807
 31
0.0
 11
-149.34453492838045
 21
-1699.9957542529928
 31
0.0
 11
-149.30226337530459
 21
-1699.9958251296023
 31
0.0
 11
-149.2599918244957
 21
-1699.9957637719549
 31
0.0
 11
-149.21772264951991
 21
-1699.995583212444
 31
0.0
 11
-149.17545407003246
 21
-1699.995296470935
 31
0.0
 11
-149.13318731727895
 21
-1699.9949166613674
 31
0.0
 11
-149.09092135937613
 21
-1699.9944568794813
 31
0.0
 11
-149.04865629788773
 21
-1699.993930213029
 31
0.0
 11
-149.00639193465304
 21
-1699.9933497462166
 31
0.0
 11
-148.9641273151868
 21
-1699.9927284403723
 31
0.0
 11
-148.92186310175592
 21
-1699.9920792800581
 31
0.0
 11
-148.8795974098675
 21
-1699.9914150111113
 31
0.0
 11
-148.83733173609642
 21
-1699.9907484324146
 31
0.0
 11
-148.79506343733843
 21
-1699.9900919956794
 31
0.0
 11
-148.75279476911368
 21
-1699.989458230008
 31
0.0
 11
-148.71052254104765
 21
-1699.9888592240927
 31
0.0
 11
-148.66824964554638
 21
-1699.988307156199
 31
0.0
 11
-148.62597259217523
 21
-1699.9878136905768
 31
0.0
 11
-148.58369474300363
 21
-1699.9873905771624
 31
0.0
 11
-148.54141258828736
 21
-1699.9870490046665
 31
0.0
 11
-148.49912974824036
 21
-1699.9868002272228
 31
0.0
 11
-148.45684107519307
 21
-1699.9866548888906
 31
0.0
 11
-148.41454826325315
 21
-1699.9866236664766
 31
0.0
 11
-148.3722680078767
 21
-1699.9867166886622
 31
0.0
 11
-148.32999205246799
 21
-1699.9869440993721
 31
0.0
 11
-148.2877516766807
 21
-1699.9873144194989
 31
0.0
 11
-148.24552055408242
 21
-1699.9878365713898
 31
0.0
 11
-148.2032913634801
 21
-1699.9885222397438
 31
0.0
 11
-148.16105803582718
 21
-1699.989383091525
 31
0.0
 11
-148.1187916975112
 21
-1699.9904088567203
 31
0.0
 11
-148.07652601429066
 21
-1699.9915878609245
 31
0.0
 11
-148.03424403019596
 21
-1699.9928683112798
 31
0.0
 11
-147.9919671608256
 21
-1699.9941972749834
 31
0.0
 11
-147.94968367417013
 21
-1699.9955267584996
 31
0.0
 11
-147.90739823165285
 21
-1699.9968082435321
 31
0.0
 11
-147.86509993237925
 21
-1699.9979903174692
 31
0.0
 11
-147.82279742078208
 21
-1699.9990209864743
 31
0.0
 11
-147.7804819305519
 21
-1699.9998422464432
 31
0.0
 11
-147.73816158933963
 21
-1700.0003957119147
 31
0.0
 11
-147.69645771263495
 21
-1700.000615887817
 31
0.0
 11
-147.65599983003654
 21
-1700.000437197647
 31
0.0
 11
-147.61049103631106
 21
-1699.9996780994459
 31
0.0
 11
-147.56359859147443
 21
-1699.9982516337302
 31
0.0
 11
-147.50416910143915
 21
-1699.9950457099769
 31
0.0
 11
-147.44222554080491
 21
-1699.989731554793
 31
0.0
  0
LINE
  5
169
100
AcDbEntity
  8
0
  6
CONTINUOUS
 62
           7
100
AcDbLine
 10
-174.773890579868
 20
-1714.42433713205
 11
-161.238110414937
 21
-1714.42433713205
  0
LINE
  5
168
100
AcDbEntity
  8
0
  6
CONTINUOUS
 62
           7
100
AcDbLine
 10
-147.442225540805
 20
-1699.989731554793
 11
-149.107240189243
 21
-1689.393995877709
  0
LINE
  5
167
100
AcDbEntity
  8
0
  6
CONTINUOUS
 62
           7
100
AcDbLine
 10
-161.238110414937
 20
-1714.42433713205
 11
-151.437158266499
 21
-1700.285320747501
  0
LINE
  5
166
100
AcDbEntity
  8
0
  6
CONTINUOUS
 62
           7
100
AcDbLine
 10
-72.27385924176
 20
-1687.371035725799
 11
-72.27385924176
 21
-1751.870802725799
  0
LINE
  5
165
100
AcDbEntity
  8
0
  6
CONTINUOUS
 62
           7
100
AcDbLine
 10
-176.77376824176
 20
-1687.371035725799
 11
-72.27385924176
 21
-1687.371035725799
  0
LINE
  5
164
100
AcDbEntity
  8
0
  6
CONTINUOUS
 62
           7
100
AcDbLine
 10
-176.77376824176
 20
-1751.8708027258
 11
-176.77376824176
 21
-1687.371035725799
  0
LINE
  5
163
100
AcDbEntity
  8
0
  6
CONTINUOUS
 62
           7
100
AcDbLine
 10
-72.27385924176
 20
-1751.870802725799
 11
-176.77376824176
 21
-1751.8708027258
  0
LINE
  5
162
100
AcDbEntity
  8
0
  6
CONTINUOUS
 62
           7
100
AcDbLine
 10
-147.16524024176
 20
-1689.4308587258
 11
-147.16524024176
 21
-1714.4243367258
  0
LINE
  5
161
100
AcDbEntity
  8
0
  6
CONTINUOUS
 62
           7
100
AcDbLine
 10
-135.77437624176
 20
-1689.4308587258
 11
-147.16524024176
 21
-1689.4308587258
  0
LINE
  5
160
100
AcDbEntity
  8
0
  6
CONTINUOUS
 62
           7
100
AcDbLine
 10
-135.77437624176
 20
-1714.4243367258
 11
-135.77437624176
 21
-1689.4308587258
  0
LINE
  5
15F
100
AcDbEntity
  8
0
  6
CONTINUOUS
 62
           7
100
AcDbLine
 10
-147.16524024176
 20
-1714.4243367258
 11
-135.77437624176
 21
-1714.4243367258
  0
ENDBLK
  5
170
100
AcDbEntity
  8
0
100
AcDbBlockEnd
  0
BLOCK
  5
3E
100
AcDbEntity
  8
0
100
AcDbBlockBegin
  2
KOZU0015__S
 70
           0
 10
0.0
 20
0.0
 30
0.0
  3
KOZU0015__S
  1

  0
LINE
  5
879
100
AcDbEntity
  8
0
  6
CONTINUOUS
 62
           7
100
AcDbLine
 10
-914.17385924176
 20
-1801.171035725799
 11
-914.17385924176
 21
-1851.171035725799
  0
LINE
  5
878
100
AcDbEntity
  8
0
  6
CONTINUOUS
 62
           7
100
AcDbLine
 10
-914.17385924176
 20
-1801.171035725799
 11
-904.17385924176
 21
-1801.171035725799
  0
LINE
  5
877
100
AcDbEntity
  8
0
  6
CONTINUOUS
 62
           7
100
AcDbLine
 10
-914.17385924176
 20
-1851.171035725799
 11
-904.17385924176
 21
-1851.171035725799
  0
LINE
  5
876
100
AcDbEntity
  8
0
  6
CONTINUOUS
 62
           7
100
AcDbLine
 10
-904.17385924176
 20
-1801.171035725799
 11
-904.17385924176
 21
-1851.171035725799
  0
LINE
  5
875
100
AcDbEntity
  8
0
  6
CONTINUOUS
 62
           7
100
AcDbLine
 10
-901.17385924176
 20
-1801.171035725799
 11
-891.17385924176
 21
-1801.171035725799
  0
LINE
  5
874
100
AcDbEntity
  8
0
  6
CONTINUOUS
 62
           7
100
AcDbLine
 10
-901.17385924176
 20
-1801.171035725799
 11
-901.17385924176
 21
-1851.171035725799
  0
LINE
  5
873
100
AcDbEntity
  8
0
  6
CONTINUOUS
 62
           7
100
AcDbLine
 10
-901.17385924176
 20
-1851.171035725799
 11
-891.17385924176
 21
-1851.171035725799
  0
LINE
  5
872
100
AcDbEntity
  8
0
  6
CONTINUOUS
 62
           7
100
AcDbLine
 10
-891.17385924176
 20
-1801.171035725799
 11
-891.17385924176
 21
-1851.171035725799
  0
LINE
  5
871
100
AcDbEntity
  8
0
  6
CONTINUOUS
 62
           7
100
AcDbLine
 10
-888.17385924176
 20
-1851.171035725799
 11
-878.17385924176
 21
-1851.171035725799
  0
LINE
  5
870
100
AcDbEntity
  8
0
  6
CONTINUOUS
 62
           7
100
AcDbLine
 10
-888.17385924176
 20
-1801.171035725799
 11
-878.17385924176
 21
-1801.171035725799
  0
LINE
  5
86F
100
AcDbEntity
  8
0
  6
CONTINUOUS
 62
           7
100
AcDbLine
 10
-888.17385924176
 20
-1801.171035725799
 11
-888.17385924176
 21
-1851.171035725799
  0
LINE
  5
86E
100
AcDbEntity
  8
0
  6
CONTINUOUS
 62
           7
100
AcDbLine
 10
-878.17385924176
 20
-1801.171035725799
 11
-878.17385924176
 21
-1851.171035725799
  0
LINE
  5
86D
100
AcDbEntity
  8
0
  6
CONTINUOUS
 62
           7
100
AcDbLine
 10
-875.17385924176
 20
-1801.171035725799
 11
-865.17385924176
 21
-1801.171035725799
  0
LINE
  5
86C
100
AcDbEntity
  8
0
  6
CONTINUOUS
 62
           7
100
AcDbLine
 10
-875.17385924176
 20
-1801.171035725799
 11
-875.17385924176
 21
-1851.171035725799
  0
LINE
  5
86B
100
AcDbEntity
  8
0
  6
CONTINUOUS
 62
           7
100
AcDbLine
 10
-875.17385924176
 20
-1851.171035725799
 11
-865.17385924176
 21
-1851.171035725799
  0
LINE
  5
86A
100
AcDbEntity
  8
0
  6
CONTINUOUS
 62
           7
100
AcDbLine
 10
-865.17385924176
 20
-1801.171035725799
 11
-865.17385924176
 21
-1851.171035725799
  0
LINE
  5
869
100
AcDbEntity
  8
0
  6
CONTINUOUS
 62
           7
100
AcDbLine
 10
-862.17385924176
 20
-1801.171035725799
 11
-852.17385924176
 21
-1801.171035725799
  0
LINE
  5
868
100
AcDbEntity
  8
0
  6
CONTINUOUS
 62
           7
100
AcDbLine
 10
-862.17385924176
 20
-1801.171035725799
 11
-862.17385924176
 21
-1851.171035725799
  0
LINE
  5
867
100
AcDbEntity
  8
0
  6
CONTINUOUS
 62
           7
100
AcDbLine
 10
-862.17385924176
 20
-1851.171035725799
 11
-852.17385924176
 21
-1851.171035725799
  0
LINE
  5
866
100
AcDbEntity
  8
0
  6
CONTINUOUS
 62
           7
100
AcDbLine
 10
-852.17385924176
 20
-1801.171035725799
 11
-852.17385924176
 21
-1851.171035725799
  0
LINE
  5
865
100
AcDbEntity
  8
0
  6
CONTINUOUS
 62
           7
100
AcDbLine
 10
-849.17385924176
 20
-1801.171035725799
 11
-839.17385924176
 21
-1801.171035725799
  0
LINE
  5
864
100
AcDbEntity
  8
0
  6
CONTINUOUS
 62
           7
100
AcDbLine
 10
-849.17385924176
 20
-1801.171035725799
 11
-849.17385924176
 21
-1851.171035725799
  0
LINE
  5
863
100
AcDbEntity
  8
0
  6
CONTINUOUS
 62
           7
100
AcDbLine
 10
-849.17385924176
 20
-1851.171035725799
 11
-839.17385924176
 21
-1851.171035725799
  0
LINE
  5
862
100
AcDbEntity
  8
0
  6
CONTINUOUS
 62
           7
100
AcDbLine
 10
-839.17385924176
 20
-1801.171035725799
 11
-839.17385924176
 21
-1851.171035725799
  0
LINE
  5
861
100
AcDbEntity
  8
0
  6
CONTINUOUS
 62
           7
100
AcDbLine
 10
-836.17385924176
 20
-1801.171035725799
 11
-826.17385924176
 21
-1801.171035725799
  0
LINE
  5
860
100
AcDbEntity
  8
0
  6
CONTINUOUS
 62
           7
100
AcDbLine
 10
-836.17385924176
 20
-1801.171035725799
 11
-836.17385924176
 21
-1851.171035725799
  0
LINE
  5
85F
100
AcDbEntity
  8
0
  6
CONTINUOUS
 62
           7
100
AcDbLine
 10
-836.17385924176
 20
-1851.171035725799
 11
-826.17385924176
 21
-1851.171035725799
  0
LINE
  5
85E
100
AcDbEntity
  8
0
  6
CONTINUOUS
 62
           7
100
AcDbLine
 10
-826.17385924176
 20
-1801.171035725799
 11
-826.17385924176
 21
-1851.171035725799
  0
LINE
  5
85D
100
AcDbEntity
  8
0
  6
CONTINUOUS
 62
           7
100
AcDbLine
 10
-823.17385924176
 20
-1851.171035725799
 11
-813.17385924176
 21
-1851.171035725799
  0
LINE
  5
85C
100
AcDbEntity
  8
0
  6
CONTINUOUS
 62
           7
100
AcDbLine
 10
-823.17385924176
 20
-1801.171035725799
 11
-813.17385924176
 21
-1801.171035725799
  0
LINE
  5
85B
100
AcDbEntity
  8
0
  6
CONTINUOUS
 62
           7
100
AcDbLine
 10
-823.17385924176
 20
-1801.171035725799
 11
-823.17385924176
 21
-1851.171035725799
  0
LINE
  5
85A
100
AcDbEntity
  8
0
  6
CONTINUOUS
 62
           7
100
AcDbLine
 10
-813.17385924176
 20
-1801.171035725799
 11
-813.17385924176
 21
-1851.171035725799
  0
LINE
  5
859
100
AcDbEntity
  8
0
  6
CONTINUOUS
 62
           7
100
AcDbLine
 10
-810.17385924176
 20
-1801.171035725799
 11
-800.17385924176
 21
-1801.171035725799
  0
LINE
  5
858
100
AcDbEntity
  8
0
  6
CONTINUOUS
 62
           7
100
AcDbLine
 10
-810.17385924176
 20
-1801.171035725799
 11
-810.17385924176
 21
-1851.171035725799
  0
LINE
  5
857
100
AcDbEntity
  8
0
  6
CONTINUOUS
 62
           7
100
AcDbLine
 10
-810.17385924176
 20
-1851.171035725799
 11
-800.17385924176
 21
-1851.171035725799
  0
LINE
  5
856
100
AcDbEntity
  8
0
  6
CONTINUOUS
 62
           7
100
AcDbLine
 10
-800.17385924176
 20
-1801.171035725799
 11
-800.17385924176
 21
-1851.171035725799
  0
LINE
  5
855
100
AcDbEntity
  8
0
  6
CONTINUOUS
 62
           7
100
AcDbLine
 10
-797.17385924176
 20
-1801.171035725799
 11
-787.17385924176
 21
-1801.171035725799
  0
LINE
  5
854
100
AcDbEntity
  8
0
  6
CONTINUOUS
 62
           7
100
AcDbLine
 10
-797.17385924176
 20
-1801.171035725799
 11
-797.17385924176
 21
-1851.171035725799
  0
LINE
  5
853
100
AcDbEntity
  8
0
  6
CONTINUOUS
 62
           7
100
AcDbLine
 10
-797.17385924176
 20
-1851.171035725799
 11
-787.17385924176
 21
-1851.171035725799
  0
LINE
  5
852
100
AcDbEntity
  8
0
  6
CONTINUOUS
 62
           7
100
AcDbLine
 10
-787.17385924176
 20
-1801.171035725799
 11
-787.17385924176
 21
-1851.171035725799
  0
LINE
  5
851
100
AcDbEntity
  8
0
  6
CONTINUOUS
 62
           7
100
AcDbLine
 10
-784.17385924176
 20
-1801.171035725799
 11
-774.17385924176
 21
-1801.171035725799
  0
LINE
  5
850
100
AcDbEntity
  8
0
  6
CONTINUOUS
 62
           7
100
AcDbLine
 10
-784.17385924176
 20
-1801.171035725799
 11
-784.17385924176
 21
-1851.171035725799
  0
LINE
  5
84F
100
AcDbEntity
  8
0
  6
CONTINUOUS
 62
           7
100
AcDbLine
 10
-784.17385924176
 20
-1851.171035725799
 11
-774.17385924176
 21
-1851.171035725799
  0
LINE
  5
84E
100
AcDbEntity
  8
0
  6
CONTINUOUS
 62
           7
100
AcDbLine
 10
-774.17385924176
 20
-1801.171035725799
 11
-774.17385924176
 21
-1851.171035725799
  0
LINE
  5
84D
100
AcDbEntity
  8
0
  6
CONTINUOUS
 62
           7
100
AcDbLine
 10
-771.17385924176
 20
-1801.171035725799
 11
-761.17385924176
 21
-1801.171035725799
  0
LINE
  5
84C
100
AcDbEntity
  8
0
  6
CONTINUOUS
 62
           7
100
AcDbLine
 10
-771.17385924176
 20
-1801.171035725799
 11
-771.17385924176
 21
-1851.171035725799
  0
LINE
  5
84B
100
AcDbEntity
  8
0
  6
CONTINUOUS
 62
           7
100
AcDbLine
 10
-771.17385924176
 20
-1851.171035725799
 11
-761.17385924176
 21
-1851.171035725799
  0
LINE
  5
84A
100
AcDbEntity
  8
0
  6
CONTINUOUS
 62
           7
100
AcDbLine
 10
-761.17385924176
 20
-1801.171035725799
 11
-761.17385924176
 21
-1851.171035725799
  0
LINE
  5
849
100
AcDbEntity
  8
0
  6
CONTINUOUS
 62
           7
100
AcDbLine
 10
-758.17385924176
 20
-1851.171035725799
 11
-748.17385924176
 21
-1851.171035725799
  0
LINE
  5
848
100
AcDbEntity
  8
0
  6
CONTINUOUS
 62
           7
100
AcDbLine
 10
-758.17385924176
 20
-1801.171035725799
 11
-748.17385924176
 21
-1801.171035725799
  0
LINE
  5
847
100
AcDbEntity
  8
0
  6
CONTINUOUS
 62
           7
100
AcDbLine
 10
-758.17385924176
 20
-1801.171035725799
 11
-758.17385924176
 21
-1851.171035725799
  0
LINE
  5
846
100
AcDbEntity
  8
0
  6
CONTINUOUS
 62
           7
100
AcDbLine
 10
-748.17385924176
 20
-1801.171035725799
 11
-748.17385924176
 21
-1851.171035725799
  0
LINE
  5
845
100
AcDbEntity
  8
0
  6
CONTINUOUS
 62
           7
100
AcDbLine
 10
-745.17385924176
 20
-1801.171035725799
 11
-735.17385924176
 21
-1801.171035725799
  0
LINE
  5
844
100
AcDbEntity
  8
0
  6
CONTINUOUS
 62
           7
100
AcDbLine
 10
-745.17385924176
 20
-1801.171035725799
 11
-745.17385924176
 21
-1851.171035725799
  0
LINE
  5
843
100
AcDbEntity
  8
0
  6
CONTINUOUS
 62
           7
100
AcDbLine
 10
-745.17385924176
 20
-1851.171035725799
 11
-735.17385924176
 21
-1851.171035725799
  0
LINE
  5
842
100
AcDbEntity
  8
0
  6
CONTINUOUS
 62
           7
100
AcDbLine
 10
-735.17385924176
 20
-1801.171035725799
 11
-735.17385924176
 21
-1851.171035725799
  0
LINE
  5
841
100
AcDbEntity
  8
0
  6
CONTINUOUS
 62
           7
100
AcDbLine
 10
-732.17385924176
 20
-1801.171035725799
 11
-722.17385924176
 21
-1801.171035725799
  0
LINE
  5
840
100
AcDbEntity
  8
0
  6
CONTINUOUS
 62
           7
100
AcDbLine
 10
-732.17385924176
 20
-1801.171035725799
 11
-732.17385924176
 21
-1851.171035725799
  0
LINE
  5
83F
100
AcDbEntity
  8
0
  6
CONTINUOUS
 62
           7
100
AcDbLine
 10
-732.17385924176
 20
-1851.171035725799
 11
-722.17385924176
 21
-1851.171035725799
  0
LINE
  5
83E
100
AcDbEntity
  8
0
  6
CONTINUOUS
 62
           7
100
AcDbLine
 10
-722.17385924176
 20
-1801.171035725799
 11
-722.17385924176
 21
-1851.171035725799
  0
LINE
  5
83D
100
AcDbEntity
  8
0
  6
CONTINUOUS
 62
           7
100
AcDbLine
 10
-719.17385924176
 20
-1801.171035725799
 11
-709.17385924176
 21
-1801.171035725799
  0
LINE
  5
83C
100
AcDbEntity
  8
0
  6
CONTINUOUS
 62
           7
100
AcDbLine
 10
-719.17385924176
 20
-1801.171035725799
 11
-719.17385924176
 21
-1851.171035725799
  0
LINE
  5
83B
100
AcDbEntity
  8
0
  6
CONTINUOUS
 62
           7
100
AcDbLine
 10
-719.17385924176
 20
-1851.171035725799
 11
-709.17385924176
 21
-1851.171035725799
  0
LINE
  5
83A
100
AcDbEntity
  8
0
  6
CONTINUOUS
 62
           7
100
AcDbLine
 10
-709.17385924176
 20
-1801.171035725799
 11
-709.17385924176
 21
-1851.171035725799
  0
LINE
  5
839
100
AcDbEntity
  8
0
  6
CONTINUOUS
 62
           7
100
AcDbLine
 10
-706.17385924176
 20
-1801.171035725799
 11
-696.17385924176
 21
-1801.171035725799
  0
LINE
  5
838
100
AcDbEntity
  8
0
  6
CONTINUOUS
 62
           7
100
AcDbLine
 10
-706.17385924176
 20
-1801.171035725799
 11
-706.17385924176
 21
-1851.171035725799
  0
LINE
  5
837
100
AcDbEntity
  8
0
  6
CONTINUOUS
 62
           7
100
AcDbLine
 10
-706.17385924176
 20
-1851.171035725799
 11
-696.17385924176
 21
-1851.171035725799
  0
LINE
  5
836
100
AcDbEntity
  8
0
  6
CONTINUOUS
 62
           7
100
AcDbLine
 10
-696.17385924176
 20
-1801.171035725799
 11
-696.17385924176
 21
-1851.171035725799
  0
LINE
  5
835
100
AcDbEntity
  8
0
  6
CONTINUOUS
 62
           7
100
AcDbLine
 10
-693.17385924176
 20
-1851.171035725799
 11
-683.17385924176
 21
-1851.171035725799
  0
LINE
  5
834
100
AcDbEntity
  8
0
  6
CONTINUOUS
 62
           7
100
AcDbLine
 10
-693.17385924176
 20
-1801.171035725799
 11
-683.17385924176
 21
-1801.171035725799
  0
LINE
  5
833
100
AcDbEntity
  8
0
  6
CONTINUOUS
 62
           7
100
AcDbLine
 10
-693.17385924176
 20
-1801.171035725799
 11
-693.17385924176
 21
-1851.171035725799
  0
LINE
  5
832
100
AcDbEntity
  8
0
  6
CONTINUOUS
 62
           7
100
AcDbLine
 10
-683.17385924176
 20
-1801.171035725799
 11
-683.17385924176
 21
-1851.171035725799
  0
LINE
  5
831
100
AcDbEntity
  8
0
  6
CONTINUOUS
 62
           7
100
AcDbLine
 10
-680.17385924176
 20
-1801.171035725799
 11
-670.17385924176
 21
-1801.171035725799
  0
LINE
  5
830
100
AcDbEntity
  8
0
  6
CONTINUOUS
 62
           7
100
AcDbLine
 10
-680.17385924176
 20
-1801.171035725799
 11
-680.17385924176
 21
-1851.171035725799
  0
LINE
  5
82F
100
AcDbEntity
  8
0
  6
CONTINUOUS
 62
           7
100
AcDbLine
 10
-680.17385924176
 20
-1851.171035725799
 11
-670.17385924176
 21
-1851.171035725799
  0
LINE
  5
82E
100
AcDbEntity
  8
0
  6
CONTINUOUS
 62
           7
100
AcDbLine
 10
-670.17385924176
 20
-1801.171035725799
 11
-670.17385924176
 21
-1851.171035725799
  0
LINE
  5
82D
100
AcDbEntity
  8
0
  6
CONTINUOUS
 62
           7
100
AcDbLine
 10
-667.17385924176
 20
-1801.171035725799
 11
-657.17385924176
 21
-1801.171035725799
  0
LINE
  5
82C
100
AcDbEntity
  8
0
  6
CONTINUOUS
 62
           7
100
AcDbLine
 10
-667.17385924176
 20
-1801.171035725799
 11
-667.17385924176
 21
-1851.171035725799
  0
LINE
  5
82B
100
AcDbEntity
  8
0
  6
CONTINUOUS
 62
           7
100
AcDbLine
 10
-667.17385924176
 20
-1851.171035725799
 11
-657.17385924176
 21
-1851.171035725799
  0
LINE
  5
82A
100
AcDbEntity
  8
0
  6
CONTINUOUS
 62
           7
100
AcDbLine
 10
-657.17385924176
 20
-1801.171035725799
 11
-657.17385924176
 21
-1851.171035725799
  0
LINE
  5
829
100
AcDbEntity
  8
0
  6
CONTINUOUS
 62
           7
100
AcDbLine
 10
-654.17385924176
 20
-1801.171035725799
 11
-644.17385924176
 21
-1801.171035725799
  0
LINE
  5
828
100
AcDbEntity
  8
0
  6
CONTINUOUS
 62
           7
100
AcDbLine
 10
-654.17385924176
 20
-1801.171035725799
 11
-654.17385924176
 21
-1851.171035725799
  0
LINE
  5
827
100
AcDbEntity
  8
0
  6
CONTINUOUS
 62
           7
100
AcDbLine
 10
-654.17385924176
 20
-1851.171035725799
 11
-644.17385924176
 21
-1851.171035725799
  0
LINE
  5
826
100
AcDbEntity
  8
0
  6
CONTINUOUS
 62
           7
100
AcDbLine
 10
-644.17385924176
 20
-1801.171035725799
 11
-644.17385924176
 21
-1851.171035725799
  0
LINE
  5
825
100
AcDbEntity
  8
0
  6
CONTINUOUS
 62
           7
100
AcDbLine
 10
-641.17385924176
 20
-1801.171035725799
 11
-631.17385924176
 21
-1801.171035725799
  0
LINE
  5
824
100
AcDbEntity
  8
0
  6
CONTINUOUS
 62
           7
100
AcDbLine
 10
-641.17385924176
 20
-1801.171035725799
 11
-641.17385924176
 21
-1851.171035725799
  0
LINE
  5
823
100
AcDbEntity
  8
0
  6
CONTINUOUS
 62
           7
100
AcDbLine
 10
-641.17385924176
 20
-1851.171035725799
 11
-631.17385924176
 21
-1851.171035725799
  0
LINE
  5
822
100
AcDbEntity
  8
0
  6
CONTINUOUS
 62
           7
100
AcDbLine
 10
-631.17385924176
 20
-1801.171035725799
 11
-631.17385924176
 21
-1851.171035725799
  0
LINE
  5
821
100
AcDbEntity
  8
0
  6
CONTINUOUS
 62
           7
100
AcDbLine
 10
-628.17385924176
 20
-1851.171035725799
 11
-618.17385924176
 21
-1851.171035725799
  0
LINE
  5
820
100
AcDbEntity
  8
0
  6
CONTINUOUS
 62
           7
100
AcDbLine
 10
-628.17385924176
 20
-1801.171035725799
 11
-618.17385924176
 21
-1801.171035725799
  0
LINE
  5
81F
100
AcDbEntity
  8
0
  6
CONTINUOUS
 62
           7
100
AcDbLine
 10
-628.17385924176
 20
-1801.171035725799
 11
-628.17385924176
 21
-1851.171035725799
  0
LINE
  5
81E
100
AcDbEntity
  8
0
  6
CONTINUOUS
 62
           7
100
AcDbLine
 10
-618.17385924176
 20
-1801.171035725799
 11
-618.17385924176
 21
-1851.171035725799
  0
LINE
  5
81D
100
AcDbEntity
  8
0
  6
CONTINUOUS
 62
           7
100
AcDbLine
 10
-615.17385924176
 20
-1801.171035725799
 11
-605.17385924176
 21
-1801.171035725799
  0
LINE
  5
81C
100
AcDbEntity
  8
0
  6
CONTINUOUS
 62
           7
100
AcDbLine
 10
-615.17385924176
 20
-1801.171035725799
 11
-615.17385924176
 21
-1851.171035725799
  0
LINE
  5
81B
100
AcDbEntity
  8
0
  6
CONTINUOUS
 62
           7
100
AcDbLine
 10
-615.17385924176
 20
-1851.171035725799
 11
-605.17385924176
 21
-1851.171035725799
  0
LINE
  5
81A
100
AcDbEntity
  8
0
  6
CONTINUOUS
 62
           7
100
AcDbLine
 10
-605.17385924176
 20
-1801.171035725799
 11
-605.17385924176
 21
-1851.171035725799
  0
LINE
  5
819
100
AcDbEntity
  8
0
  6
CONTINUOUS
 62
           7
100
AcDbLine
 10
-602.17385924176
 20
-1801.171035725799
 11
-592.17385924176
 21
-1801.171035725799
  0
LINE
  5
818
100
AcDbEntity
  8
0
  6
CONTINUOUS
 62
           7
100
AcDbLine
 10
-602.17385924176
 20
-1801.171035725799
 11
-602.17385924176
 21
-1851.171035725799
  0
LINE
  5
817
100
AcDbEntity
  8
0
  6
CONTINUOUS
 62
           7
100
AcDbLine
 10
-602.17385924176
 20
-1851.171035725799
 11
-592.17385924176
 21
-1851.171035725799
  0
LINE
  5
816
100
AcDbEntity
  8
0
  6
CONTINUOUS
 62
           7
100
AcDbLine
 10
-592.17385924176
 20
-1801.171035725799
 11
-592.17385924176
 21
-1851.171035725799
  0
LINE
  5
815
100
AcDbEntity
  8
0
  6
CONTINUOUS
 62
           7
100
AcDbLine
 10
-589.17385924176
 20
-1801.171035725799
 11
-579.17385924176
 21
-1801.171035725799
  0
LINE
  5
814
100
AcDbEntity
  8
0
  6
CONTINUOUS
 62
           7
100
AcDbLine
 10
-589.17385924176
 20
-1801.171035725799
 11
-589.17385924176
 21
-1851.171035725799
  0
LINE
  5
813
100
AcDbEntity
  8
0
  6
CONTINUOUS
 62
           7
100
AcDbLine
 10
-589.17385924176
 20
-1851.171035725799
 11
-579.17385924176
 21
-1851.171035725799
  0
LINE
  5
812
100
AcDbEntity
  8
0
  6
CONTINUOUS
 62
           7
100
AcDbLine
 10
-579.17385924176
 20
-1801.171035725799
 11
-579.17385924176
 21
-1851.171035725799
  0
LINE
  5
811
100
AcDbEntity
  8
0
  6
CONTINUOUS
 62
           7
100
AcDbLine
 10
-576.17385924176
 20
-1801.171035725799
 11
-566.17385924176
 21
-1801.171035725799
  0
LINE
  5
810
100
AcDbEntity
  8
0
  6
CONTINUOUS
 62
           7
100
AcDbLine
 10
-576.17385924176
 20
-1801.171035725799
 11
-576.17385924176
 21
-1851.171035725799
  0
LINE
  5
80F
100
AcDbEntity
  8
0
  6
CONTINUOUS
 62
           7
100
AcDbLine
 10
-576.17385924176
 20
-1851.171035725799
 11
-566.17385924176
 21
-1851.171035725799
  0
LINE
  5
80E
100
AcDbEntity
  8
0
  6
CONTINUOUS
 62
           7
100
AcDbLine
 10
-566.17385924176
 20
-1801.171035725799
 11
-566.17385924176
 21
-1851.171035725799
  0
LINE
  5
80D
100
AcDbEntity
  8
0
  6
CONTINUOUS
 62
           7
100
AcDbLine
 10
-563.17385924176
 20
-1851.171035725799
 11
-553.17385924176
 21
-1851.171035725799
  0
LINE
  5
80C
100
AcDbEntity
  8
0
  6
CONTINUOUS
 62
           7
100
AcDbLine
 10
-563.17385924176
 20
-1801.171035725799
 11
-553.17385924176
 21
-1801.171035725799
  0
LINE
  5
80B
100
AcDbEntity
  8
0
  6
CONTINUOUS
 62
           7
100
AcDbLine
 10
-563.17385924176
 20
-1801.171035725799
 11
-563.17385924176
 21
-1851.171035725799
  0
LINE
  5
80A
100
AcDbEntity
  8
0
  6
CONTINUOUS
 62
           7
100
AcDbLine
 10
-553.17385924176
 20
-1801.171035725799
 11
-553.17385924176
 21
-1851.171035725799
  0
LINE
  5
809
100
AcDbEntity
  8
0
  6
CONTINUOUS
 62
           7
100
AcDbLine
 10
-550.17385924176
 20
-1801.171035725799
 11
-540.17385924176
 21
-1801.171035725799
  0
LINE
  5
808
100
AcDbEntity
  8
0
  6
CONTINUOUS
 62
           7
100
AcDbLine
 10
-550.17385924176
 20
-1801.171035725799
 11
-550.17385924176
 21
-1851.171035725799
  0
LINE
  5
807
100
AcDbEntity
  8
0
  6
CONTINUOUS
 62
           7
100
AcDbLine
 10
-550.17385924176
 20
-1851.171035725799
 11
-540.17385924176
 21
-1851.171035725799
  0
LINE
  5
806
100
AcDbEntity
  8
0
  6
CONTINUOUS
 62
           7
100
AcDbLine
 10
-540.17385924176
 20
-1801.171035725799
 11
-540.17385924176
 21
-1851.171035725799
  0
LINE
  5
805
100
AcDbEntity
  8
0
  6
CONTINUOUS
 62
           7
100
AcDbLine
 10
-537.17385924176
 20
-1801.171035725799
 11
-527.17385924176
 21
-1801.171035725799
  0
LINE
  5
804
100
AcDbEntity
  8
0
  6
CONTINUOUS
 62
           7
100
AcDbLine
 10
-537.17385924176
 20
-1801.171035725799
 11
-537.17385924176
 21
-1851.171035725799
  0
LINE
  5
803
100
AcDbEntity
  8
0
  6
CONTINUOUS
 62
           7
100
AcDbLine
 10
-537.17385924176
 20
-1851.171035725799
 11
-527.17385924176
 21
-1851.171035725799
  0
LINE
  5
802
100
AcDbEntity
  8
0
  6
CONTINUOUS
 62
           7
100
AcDbLine
 10
-527.17385924176
 20
-1801.171035725799
 11
-527.17385924176
 21
-1851.171035725799
  0
LINE
  5
801
100
AcDbEntity
  8
0
  6
CONTINUOUS
 62
           7
100
AcDbLine
 10
-914.17385924176
 20
-1861.171035725799
 11
-904.17385924176
 21
-1861.171035725799
  0
LINE
  5
800
100
AcDbEntity
  8
0
  6
CONTINUOUS
 62
           7
100
AcDbLine
 10
-914.17385924176
 20
-1861.171035725799
 11
-914.17385924176
 21
-1911.171035725799
  0
LINE
  5
7FF
100
AcDbEntity
  8
0
  6
CONTINUOUS
 62
           7
100
AcDbLine
 10
-914.17385924176
 20
-1911.171035725799
 11
-904.17385924176
 21
-1911.171035725799
  0
LINE
  5
7FE
100
AcDbEntity
  8
0
  6
CONTINUOUS
 62
           7
100
AcDbLine
 10
-904.17385924176
 20
-1861.171035725799
 11
-904.17385924176
 21
-1911.171035725799
  0
LINE
  5
7FD
100
AcDbEntity
  8
0
  6
CONTINUOUS
 62
           7
100
AcDbLine
 10
-901.17385924176
 20
-1861.171035725799
 11
-891.17385924176
 21
-1861.171035725799
  0
LINE
  5
7FC
100
AcDbEntity
  8
0
  6
CONTINUOUS
 62
           7
100
AcDbLine
 10
-901.17385924176
 20
-1861.171035725799
 11
-901.17385924176
 21
-1911.171035725799
  0
LINE
  5
7FB
100
AcDbEntity
  8
0
  6
CONTINUOUS
 62
           7
100
AcDbLine
 10
-901.17385924176
 20
-1911.171035725799
 11
-891.17385924176
 21
-1911.171035725799
  0
LINE
  5
7FA
100
AcDbEntity
  8
0
  6
CONTINUOUS
 62
           7
100
AcDbLine
 10
-891.17385924176
 20
-1861.171035725799
 11
-891.17385924176
 21
-1911.171035725799
  0
LINE
  5
7F9
100
AcDbEntity
  8
0
  6
CONTINUOUS
 62
           7
100
AcDbLine
 10
-888.17385924176
 20
-1911.171035725799
 11
-878.17385924176
 21
-1911.171035725799
  0
LINE
  5
7F8
100
AcDbEntity
  8
0
  6
CONTINUOUS
 62
           7
100
AcDbLine
 10
-888.17385924176
 20
-1861.171035725799
 11
-878.17385924176
 21
-1861.171035725799
  0
LINE
  5
7F7
100
AcDbEntity
  8
0
  6
CONTINUOUS
 62
           7
100
AcDbLine
 10
-888.17385924176
 20
-1861.171035725799
 11
-888.17385924176
 21
-1911.171035725799
  0
LINE
  5
7F6
100
AcDbEntity
  8
0
  6
CONTINUOUS
 62
           7
100
AcDbLine
 10
-878.17385924176
 20
-1861.171035725799
 11
-878.17385924176
 21
-1911.171035725799
  0
LINE
  5
7F5
100
AcDbEntity
  8
0
  6
CONTINUOUS
 62
           7
100
AcDbLine
 10
-875.17385924176
 20
-1861.171035725799
 11
-865.17385924176
 21
-1861.171035725799
  0
LINE
  5
7F4
100
AcDbEntity
  8
0
  6
CONTINUOUS
 62
           7
100
AcDbLine
 10
-875.17385924176
 20
-1861.171035725799
 11
-875.17385924176
 21
-1911.171035725799
  0
LINE
  5
7F3
100
AcDbEntity
  8
0
  6
CONTINUOUS
 62
           7
100
AcDbLine
 10
-875.17385924176
 20
-1911.171035725799
 11
-865.17385924176
 21
-1911.171035725799
  0
LINE
  5
7F2
100
AcDbEntity
  8
0
  6
CONTINUOUS
 62
           7
100
AcDbLine
 10
-865.17385924176
 20
-1861.171035725799
 11
-865.17385924176
 21
-1911.171035725799
  0
LINE
  5
7F1
100
AcDbEntity
  8
0
  6
CONTINUOUS
 62
           7
100
AcDbLine
 10
-862.17385924176
 20
-1861.171035725799
 11
-852.17385924176
 21
-1861.171035725799
  0
LINE
  5
7F0
100
AcDbEntity
  8
0
  6
CONTINUOUS
 62
           7
100
AcDbLine
 10
-862.17385924176
 20
-1861.171035725799
 11
-862.17385924176
 21
-1911.171035725799
  0
LINE
  5
7EF
100
AcDbEntity
  8
0
  6
CONTINUOUS
 62
           7
100
AcDbLine
 10
-862.17385924176
 20
-1911.171035725799
 11
-852.17385924176
 21
-1911.171035725799
  0
LINE
  5
7EE
100
AcDbEntity
  8
0
  6
CONTINUOUS
 62
           7
100
AcDbLine
 10
-852.17385924176
 20
-1861.171035725799
 11
-852.17385924176
 21
-1911.171035725799
  0
LINE
  5
7ED
100
AcDbEntity
  8
0
  6
CONTINUOUS
 62
           7
100
AcDbLine
 10
-849.17385924176
 20
-1861.171035725799
 11
-839.17385924176
 21
-1861.171035725799
  0
LINE
  5
7EC
100
AcDbEntity
  8
0
  6
CONTINUOUS
 62
           7
100
AcDbLine
 10
-849.17385924176
 20
-1861.171035725799
 11
-849.17385924176
 21
-1911.171035725799
  0
LINE
  5
7EB
100
AcDbEntity
  8
0
  6
CONTINUOUS
 62
           7
100
AcDbLine
 10
-849.17385924176
 20
-1911.171035725799
 11
-839.17385924176
 21
-1911.171035725799
  0
LINE
  5
7EA
100
AcDbEntity
  8
0
  6
CONTINUOUS
 62
           7
100
AcDbLine
 10
-839.17385924176
 20
-1861.171035725799
 11
-839.17385924176
 21
-1911.171035725799
  0
LINE
  5
7E9
100
AcDbEntity
  8
0
  6
CONTINUOUS
 62
           7
100
AcDbLine
 10
-836.17385924176
 20
-1861.171035725799
 11
-826.17385924176
 21
-1861.171035725799
  0
LINE
  5
7E8
100
AcDbEntity
  8
0
  6
CONTINUOUS
 62
           7
100
AcDbLine
 10
-836.17385924176
 20
-1861.171035725799
 11
-836.17385924176
 21
-1911.171035725799
  0
LINE
  5
7E7
100
AcDbEntity
  8
0
  6
CONTINUOUS
 62
           7
100
AcDbLine
 10
-836.17385924176
 20
-1911.171035725799
 11
-826.17385924176
 21
-1911.171035725799
  0
LINE
  5
7E6
100
AcDbEntity
  8
0
  6
CONTINUOUS
 62
           7
100
AcDbLine
 10
-826.17385924176
 20
-1861.171035725799
 11
-826.17385924176
 21
-1911.171035725799
  0
LINE
  5
7E5
100
AcDbEntity
  8
0
  6
CONTINUOUS
 62
           7
100
AcDbLine
 10
-823.17385924176
 20
-1911.171035725799
 11
-813.17385924176
 21
-1911.171035725799
  0
LINE
  5
7E4
100
AcDbEntity
  8
0
  6
CONTINUOUS
 62
           7
100
AcDbLine
 10
-823.17385924176
 20
-1861.171035725799
 11
-813.17385924176
 21
-1861.171035725799
  0
LINE
  5
7E3
100
AcDbEntity
  8
0
  6
CONTINUOUS
 62
           7
100
AcDbLine
 10
-823.17385924176
 20
-1861.171035725799
 11
-823.17385924176
 21
-1911.171035725799
  0
LINE
  5
7E2
100
AcDbEntity
  8
0
  6
CONTINUOUS
 62
           7
100
AcDbLine
 10
-813.17385924176
 20
-1861.171035725799
 11
-813.17385924176
 21
-1911.171035725799
  0
LINE
  5
7E1
100
AcDbEntity
  8
0
  6
CONTINUOUS
 62
           7
100
AcDbLine
 10
-810.17385924176
 20
-1861.171035725799
 11
-800.17385924176
 21
-1861.171035725799
  0
LINE
  5
7E0
100
AcDbEntity
  8
0
  6
CONTINUOUS
 62
           7
100
AcDbLine
 10
-810.17385924176
 20
-1861.171035725799
 11
-810.17385924176
 21
-1911.171035725799
  0
LINE
  5
7DF
100
AcDbEntity
  8
0
  6
CONTINUOUS
 62
           7
100
AcDbLine
 10
-810.17385924176
 20
-1911.171035725799
 11
-800.17385924176
 21
-1911.171035725799
  0
LINE
  5
7DE
100
AcDbEntity
  8
0
  6
CONTINUOUS
 62
           7
100
AcDbLine
 10
-800.17385924176
 20
-1861.171035725799
 11
-800.17385924176
 21
-1911.171035725799
  0
LINE
  5
7DD
100
AcDbEntity
  8
0
  6
CONTINUOUS
 62
           7
100
AcDbLine
 10
-797.17385924176
 20
-1861.171035725799
 11
-787.17385924176
 21
-1861.171035725799
  0
LINE
  5
7DC
100
AcDbEntity
  8
0
  6
CONTINUOUS
 62
           7
100
AcDbLine
 10
-797.17385924176
 20
-1861.171035725799
 11
-797.17385924176
 21
-1911.171035725799
  0
LINE
  5
7DB
100
AcDbEntity
  8
0
  6
CONTINUOUS
 62
           7
100
AcDbLine
 10
-797.17385924176
 20
-1911.171035725799
 11
-787.17385924176
 21
-1911.171035725799
  0
LINE
  5
7DA
100
AcDbEntity
  8
0
  6
CONTINUOUS
 62
           7
100
AcDbLine
 10
-787.17385924176
 20
-1861.171035725799
 11
-787.17385924176
 21
-1911.171035725799
  0
LINE
  5
7D9
100
AcDbEntity
  8
0
  6
CONTINUOUS
 62
           7
100
AcDbLine
 10
-784.17385924176
 20
-1861.171035725799
 11
-774.17385924176
 21
-1861.171035725799
  0
LINE
  5
7D8
100
AcDbEntity
  8
0
  6
CONTINUOUS
 62
           7
100
AcDbLine
 10
-784.17385924176
 20
-1861.171035725799
 11
-784.17385924176
 21
-1911.171035725799
  0
LINE
  5
7D7
100
AcDbEntity
  8
0
  6
CONTINUOUS
 62
           7
100
AcDbLine
 10
-784.17385924176
 20
-1911.171035725799
 11
-774.17385924176
 21
-1911.171035725799
  0
LINE
  5
7D6
100
AcDbEntity
  8
0
  6
CONTINUOUS
 62
           7
100
AcDbLine
 10
-774.17385924176
 20
-1861.171035725799
 11
-774.17385924176
 21
-1911.171035725799
  0
LINE
  5
7D5
100
AcDbEntity
  8
0
  6
CONTINUOUS
 62
           7
100
AcDbLine
 10
-771.17385924176
 20
-1861.171035725799
 11
-761.17385924176
 21
-1861.171035725799
  0
LINE
  5
7D4
100
AcDbEntity
  8
0
  6
CONTINUOUS
 62
           7
100
AcDbLine
 10
-771.17385924176
 20
-1861.171035725799
 11
-771.17385924176
 21
-1911.171035725799
  0
LINE
  5
7D3
100
AcDbEntity
  8
0
  6
CONTINUOUS
 62
           7
100
AcDbLine
 10
-771.17385924176
 20
-1911.171035725799
 11
-761.17385924176
 21
-1911.171035725799
  0
LINE
  5
7D2
100
AcDbEntity
  8
0
  6
CONTINUOUS
 62
           7
100
AcDbLine
 10
-761.17385924176
 20
-1861.171035725799
 11
-761.17385924176
 21
-1911.171035725799
  0
LINE
  5
7D1
100
AcDbEntity
  8
0
  6
CONTINUOUS
 62
           7
100
AcDbLine
 10
-758.17385924176
 20
-1911.171035725799
 11
-748.17385924176
 21
-1911.171035725799
  0
LINE
  5
7D0
100
AcDbEntity
  8
0
  6
CONTINUOUS
 62
           7
100
AcDbLine
 10
-758.17385924176
 20
-1861.171035725799
 11
-748.17385924176
 21
-1861.171035725799
  0
LINE
  5
7CF
100
AcDbEntity
  8
0
  6
CONTINUOUS
 62
           7
100
AcDbLine
 10
-758.17385924176
 20
-1861.171035725799
 11
-758.17385924176
 21
-1911.171035725799
  0
LINE
  5
7CE
100
AcDbEntity
  8
0
  6
CONTINUOUS
 62
           7
100
AcDbLine
 10
-748.17385924176
 20
-1861.171035725799
 11
-748.17385924176
 21
-1911.171035725799
  0
LINE
  5
7CD
100
AcDbEntity
  8
0
  6
CONTINUOUS
 62
           7
100
AcDbLine
 10
-745.17385924176
 20
-1861.171035725799
 11
-735.17385924176
 21
-1861.171035725799
  0
LINE
  5
7CC
100
AcDbEntity
  8
0
  6
CONTINUOUS
 62
           7
100
AcDbLine
 10
-745.17385924176
 20
-1861.171035725799
 11
-745.17385924176
 21
-1911.171035725799
  0
LINE
  5
7CB
100
AcDbEntity
  8
0
  6
CONTINUOUS
 62
           7
100
AcDbLine
 10
-745.17385924176
 20
-1911.171035725799
 11
-735.17385924176
 21
-1911.171035725799
  0
LINE
  5
7CA
100
AcDbEntity
  8
0
  6
CONTINUOUS
 62
           7
100
AcDbLine
 10
-735.17385924176
 20
-1861.171035725799
 11
-735.17385924176
 21
-1911.171035725799
  0
LINE
  5
7C9
100
AcDbEntity
  8
0
  6
CONTINUOUS
 62
           7
100
AcDbLine
 10
-732.17385924176
 20
-1861.171035725799
 11
-722.17385924176
 21
-1861.171035725799
  0
LINE
  5
7C8
100
AcDbEntity
  8
0
  6
CONTINUOUS
 62
           7
100
AcDbLine
 10
-732.17385924176
 20
-1861.171035725799
 11
-732.17385924176
 21
-1911.171035725799
  0
LINE
  5
7C7
100
AcDbEntity
  8
0
  6
CONTINUOUS
 62
           7
100
AcDbLine
 10
-732.17385924176
 20
-1911.171035725799
 11
-722.17385924176
 21
-1911.171035725799
  0
LINE
  5
7C6
100
AcDbEntity
  8
0
  6
CONTINUOUS
 62
           7
100
AcDbLine
 10
-722.17385924176
 20
-1861.171035725799
 11
-722.17385924176
 21
-1911.171035725799
  0
LINE
  5
7C5
100
AcDbEntity
  8
0
  6
CONTINUOUS
 62
           7
100
AcDbLine
 10
-719.17385924176
 20
-1861.171035725799
 11
-709.17385924176
 21
-1861.171035725799
  0
LINE
  5
7C4
100
AcDbEntity
  8
0
  6
CONTINUOUS
 62
           7
100
AcDbLine
 10
-719.17385924176
 20
-1861.171035725799
 11
-719.17385924176
 21
-1911.171035725799
  0
LINE
  5
7C3
100
AcDbEntity
  8
0
  6
CONTINUOUS
 62
           7
100
AcDbLine
 10
-719.17385924176
 20
-1911.171035725799
 11
-709.17385924176
 21
-1911.171035725799
  0
LINE
  5
7C2
100
AcDbEntity
  8
0
  6
CONTINUOUS
 62
           7
100
AcDbLine
 10
-709.17385924176
 20
-1861.171035725799
 11
-709.17385924176
 21
-1911.171035725799
  0
LINE
  5
7C1
100
AcDbEntity
  8
0
  6
CONTINUOUS
 62
           7
100
AcDbLine
 10
-706.17385924176
 20
-1861.171035725799
 11
-696.17385924176
 21
-1861.171035725799
  0
LINE
  5
7C0
100
AcDbEntity
  8
0
  6
CONTINUOUS
 62
           7
100
AcDbLine
 10
-706.17385924176
 20
-1861.171035725799
 11
-706.17385924176
 21
-1911.171035725799
  0
LINE
  5
7BF
100
AcDbEntity
  8
0
  6
CONTINUOUS
 62
           7
100
AcDbLine
 10
-706.17385924176
 20
-1911.171035725799
 11
-696.17385924176
 21
-1911.171035725799
  0
LINE
  5
7BE
100
AcDbEntity
  8
0
  6
CONTINUOUS
 62
           7
100
AcDbLine
 10
-696.17385924176
 20
-1861.171035725799
 11
-696.17385924176
 21
-1911.171035725799
  0
LINE
  5
7BD
100
AcDbEntity
  8
0
  6
CONTINUOUS
 62
           7
100
AcDbLine
 10
-693.17385924176
 20
-1911.171035725799
 11
-683.17385924176
 21
-1911.171035725799
  0
LINE
  5
7BC
100
AcDbEntity
  8
0
  6
CONTINUOUS
 62
           7
100
AcDbLine
 10
-693.17385924176
 20
-1861.171035725799
 11
-683.17385924176
 21
-1861.171035725799
  0
LINE
  5
7BB
100
AcDbEntity
  8
0
  6
CONTINUOUS
 62
           7
100
AcDbLine
 10
-693.17385924176
 20
-1861.171035725799
 11
-693.17385924176
 21
-1911.171035725799
  0
LINE
  5
7BA
100
AcDbEntity
  8
0
  6
CONTINUOUS
 62
           7
100
AcDbLine
 10
-683.17385924176
 20
-1861.171035725799
 11
-683.17385924176
 21
-1911.171035725799
  0
LINE
  5
7B9
100
AcDbEntity
  8
0
  6
CONTINUOUS
 62
           7
100
AcDbLine
 10
-680.17385924176
 20
-1861.171035725799
 11
-670.17385924176
 21
-1861.171035725799
  0
LINE
  5
7B8
100
AcDbEntity
  8
0
  6
CONTINUOUS
 62
           7
100
AcDbLine
 10
-680.17385924176
 20
-1861.171035725799
 11
-680.17385924176
 21
-1911.171035725799
  0
LINE
  5
7B7
100
AcDbEntity
  8
0
  6
CONTINUOUS
 62
           7
100
AcDbLine
 10
-680.17385924176
 20
-1911.171035725799
 11
-670.17385924176
 21
-1911.171035725799
  0
LINE
  5
7B6
100
AcDbEntity
  8
0
  6
CONTINUOUS
 62
           7
100
AcDbLine
 10
-670.17385924176
 20
-1861.171035725799
 11
-670.17385924176
 21
-1911.171035725799
  0
LINE
  5
7B5
100
AcDbEntity
  8
0
  6
CONTINUOUS
 62
           7
100
AcDbLine
 10
-667.17385924176
 20
-1861.171035725799
 11
-657.17385924176
 21
-1861.171035725799
  0
LINE
  5
7B4
100
AcDbEntity
  8
0
  6
CONTINUOUS
 62
           7
100
AcDbLine
 10
-667.17385924176
 20
-1861.171035725799
 11
-667.17385924176
 21
-1911.171035725799
  0
LINE
  5
7B3
100
AcDbEntity
  8
0
  6
CONTINUOUS
 62
           7
100
AcDbLine
 10
-667.17385924176
 20
-1911.171035725799
 11
-657.17385924176
 21
-1911.171035725799
  0
LINE
  5
7B2
100
AcDbEntity
  8
0
  6
CONTINUOUS
 62
           7
100
AcDbLine
 10
-657.17385924176
 20
-1861.171035725799
 11
-657.17385924176
 21
-1911.171035725799
  0
LINE
  5
7B1
100
AcDbEntity
  8
0
  6
CONTINUOUS
 62
           7
100
AcDbLine
 10
-654.17385924176
 20
-1861.171035725799
 11
-644.17385924176
 21
-1861.171035725799
  0
LINE
  5
7B0
100
AcDbEntity
  8
0
  6
CONTINUOUS
 62
           7
100
AcDbLine
 10
-654.17385924176
 20
-1861.171035725799
 11
-654.17385924176
 21
-1911.171035725799
  0
LINE
  5
7AF
100
AcDbEntity
  8
0
  6
CONTINUOUS
 62
           7
100
AcDbLine
 10
-654.17385924176
 20
-1911.171035725799
 11
-644.17385924176
 21
-1911.171035725799
  0
LINE
  5
7AE
100
AcDbEntity
  8
0
  6
CONTINUOUS
 62
           7
100
AcDbLine
 10
-644.17385924176
 20
-1861.171035725799
 11
-644.17385924176
 21
-1911.171035725799
  0
LINE
  5
7AD
100
AcDbEntity
  8
0
  6
CONTINUOUS
 62
           7
100
AcDbLine
 10
-641.17385924176
 20
-1861.171035725799
 11
-631.17385924176
 21
-1861.171035725799
  0
LINE
  5
7AC
100
AcDbEntity
  8
0
  6
CONTINUOUS
 62
           7
100
AcDbLine
 10
-641.17385924176
 20
-1861.171035725799
 11
-641.17385924176
 21
-1911.171035725799
  0
LINE
  5
7AB
100
AcDbEntity
  8
0
  6
CONTINUOUS
 62
           7
100
AcDbLine
 10
-641.17385924176
 20
-1911.171035725799
 11
-631.17385924176
 21
-1911.171035725799
  0
LINE
  5
7AA
100
AcDbEntity
  8
0
  6
CONTINUOUS
 62
           7
100
AcDbLine
 10
-631.17385924176
 20
-1861.171035725799
 11
-631.17385924176
 21
-1911.171035725799
  0
LINE
  5
7A9
100
AcDbEntity
  8
0
  6
CONTINUOUS
 62
           7
100
AcDbLine
 10
-628.17385924176
 20
-1911.171035725799
 11
-618.17385924176
 21
-1911.171035725799
  0
LINE
  5
7A8
100
AcDbEntity
  8
0
  6
CONTINUOUS
 62
           7
100
AcDbLine
 10
-628.17385924176
 20
-1861.171035725799
 11
-618.17385924176
 21
-1861.171035725799
  0
LINE
  5
7A7
100
AcDbEntity
  8
0
  6
CONTINUOUS
 62
           7
100
AcDbLine
 10
-628.17385924176
 20
-1861.171035725799
 11
-628.17385924176
 21
-1911.171035725799
  0
LINE
  5
7A6
100
AcDbEntity
  8
0
  6
CONTINUOUS
 62
           7
100
AcDbLine
 10
-618.17385924176
 20
-1861.171035725799
 11
-618.17385924176
 21
-1911.171035725799
  0
LINE
  5
7A5
100
AcDbEntity
  8
0
  6
CONTINUOUS
 62
           7
100
AcDbLine
 10
-615.17385924176
 20
-1861.171035725799
 11
-605.17385924176
 21
-1861.171035725799
  0
LINE
  5
7A4
100
AcDbEntity
  8
0
  6
CONTINUOUS
 62
           7
100
AcDbLine
 10
-615.17385924176
 20
-1861.171035725799
 11
-615.17385924176
 21
-1911.171035725799
  0
LINE
  5
7A3
100
AcDbEntity
  8
0
  6
CONTINUOUS
 62
           7
100
AcDbLine
 10
-615.17385924176
 20
-1911.171035725799
 11
-605.17385924176
 21
-1911.171035725799
  0
LINE
  5
7A2
100
AcDbEntity
  8
0
  6
CONTINUOUS
 62
           7
100
AcDbLine
 10
-605.17385924176
 20
-1861.171035725799
 11
-605.17385924176
 21
-1911.171035725799
  0
LINE
  5
7A1
100
AcDbEntity
  8
0
  6
CONTINUOUS
 62
           7
100
AcDbLine
 10
-602.17385924176
 20
-1861.171035725799
 11
-592.17385924176
 21
-1861.171035725799
  0
LINE
  5
7A0
100
AcDbEntity
  8
0
  6
CONTINUOUS
 62
           7
100
AcDbLine
 10
-602.17385924176
 20
-1861.171035725799
 11
-602.17385924176
 21
-1911.171035725799
  0
LINE
  5
79F
100
AcDbEntity
  8
0
  6
CONTINUOUS
 62
           7
100
AcDbLine
 10
-602.17385924176
 20
-1911.171035725799
 11
-592.17385924176
 21
-1911.171035725799
  0
LINE
  5
79E
100
AcDbEntity
  8
0
  6
CONTINUOUS
 62
           7
100
AcDbLine
 10
-592.17385924176
 20
-1861.171035725799
 11
-592.17385924176
 21
-1911.171035725799
  0
LINE
  5
79D
100
AcDbEntity
  8
0
  6
CONTINUOUS
 62
           7
100
AcDbLine
 10
-589.17385924176
 20
-1861.171035725799
 11
-579.17385924176
 21
-1861.171035725799
  0
LINE
  5
79C
100
AcDbEntity
  8
0
  6
CONTINUOUS
 62
           7
100
AcDbLine
 10
-589.17385924176
 20
-1861.171035725799
 11
-589.17385924176
 21
-1911.171035725799
  0
LINE
  5
79B
100
AcDbEntity
  8
0
  6
CONTINUOUS
 62
           7
100
AcDbLine
 10
-589.17385924176
 20
-1911.171035725799
 11
-579.17385924176
 21
-1911.171035725799
  0
LINE
  5
79A
100
AcDbEntity
  8
0
  6
CONTINUOUS
 62
           7
100
AcDbLine
 10
-579.17385924176
 20
-1861.171035725799
 11
-579.17385924176
 21
-1911.171035725799
  0
LINE
  5
799
100
AcDbEntity
  8
0
  6
CONTINUOUS
 62
           7
100
AcDbLine
 10
-576.17385924176
 20
-1861.171035725799
 11
-566.17385924176
 21
-1861.171035725799
  0
LINE
  5
798
100
AcDbEntity
  8
0
  6
CONTINUOUS
 62
           7
100
AcDbLine
 10
-576.17385924176
 20
-1861.171035725799
 11
-576.17385924176
 21
-1911.171035725799
  0
LINE
  5
797
100
AcDbEntity
  8
0
  6
CONTINUOUS
 62
           7
100
AcDbLine
 10
-576.17385924176
 20
-1911.171035725799
 11
-566.17385924176
 21
-1911.171035725799
  0
LINE
  5
796
100
AcDbEntity
  8
0
  6
CONTINUOUS
 62
           7
100
AcDbLine
 10
-566.17385924176
 20
-1861.171035725799
 11
-566.17385924176
 21
-1911.171035725799
  0
LINE
  5
795
100
AcDbEntity
  8
0
  6
CONTINUOUS
 62
           7
100
AcDbLine
 10
-563.17385924176
 20
-1911.171035725799
 11
-553.17385924176
 21
-1911.171035725799
  0
LINE
  5
794
100
AcDbEntity
  8
0
  6
CONTINUOUS
 62
           7
100
AcDbLine
 10
-563.17385924176
 20
-1861.171035725799
 11
-553.17385924176
 21
-1861.171035725799
  0
LINE
  5
793
100
AcDbEntity
  8
0
  6
CONTINUOUS
 62
           7
100
AcDbLine
 10
-563.17385924176
 20
-1861.171035725799
 11
-563.17385924176
 21
-1911.171035725799
  0
LINE
  5
792
100
AcDbEntity
  8
0
  6
CONTINUOUS
 62
           7
100
AcDbLine
 10
-553.17385924176
 20
-1861.171035725799
 11
-553.17385924176
 21
-1911.171035725799
  0
LINE
  5
791
100
AcDbEntity
  8
0
  6
CONTINUOUS
 62
           7
100
AcDbLine
 10
-550.17385924176
 20
-1861.171035725799
 11
-540.17385924176
 21
-1861.171035725799
  0
LINE
  5
790
100
AcDbEntity
  8
0
  6
CONTINUOUS
 62
           7
100
AcDbLine
 10
-550.17385924176
 20
-1861.171035725799
 11
-550.17385924176
 21
-1911.171035725799
  0
LINE
  5
78F
100
AcDbEntity
  8
0
  6
CONTINUOUS
 62
           7
100
AcDbLine
 10
-550.17385924176
 20
-1911.171035725799
 11
-540.17385924176
 21
-1911.171035725799
  0
LINE
  5
78E
100
AcDbEntity
  8
0
  6
CONTINUOUS
 62
           7
100
AcDbLine
 10
-540.17385924176
 20
-1861.171035725799
 11
-540.17385924176
 21
-1911.171035725799
  0
LINE
  5
78D
100
AcDbEntity
  8
0
  6
CONTINUOUS
 62
           7
100
AcDbLine
 10
-537.17385924176
 20
-1861.171035725799
 11
-527.17385924176
 21
-1861.171035725799
  0
LINE
  5
78C
100
AcDbEntity
  8
0
  6
CONTINUOUS
 62
           7
100
AcDbLine
 10
-537.17385924176
 20
-1861.171035725799
 11
-537.17385924176
 21
-1911.171035725799
  0
LINE
  5
78B
100
AcDbEntity
  8
0
  6
CONTINUOUS
 62
           7
100
AcDbLine
 10
-537.17385924176
 20
-1911.171035725799
 11
-527.17385924176
 21
-1911.171035725799
  0
LINE
  5
78A
100
AcDbEntity
  8
0
  6
CONTINUOUS
 62
           7
100
AcDbLine
 10
-527.17385924176
 20
-1861.171035725799
 11
-527.17385924176
 21
-1911.171035725799
  0
LINE
  5
789
100
AcDbEntity
  8
0
  6
CONTINUOUS
 62
           7
100
AcDbLine
 10
-914.17385924176
 20
-1921.1710357258
 11
-904.17385924176
 21
-1921.1710357258
  0
LINE
  5
788
100
AcDbEntity
  8
0
  6
CONTINUOUS
 62
           7
100
AcDbLine
 10
-914.17385924176
 20
-1921.1710357258
 11
-914.17385924176
 21
-1971.171035725799
  0
LINE
  5
787
100
AcDbEntity
  8
0
  6
CONTINUOUS
 62
           7
100
AcDbLine
 10
-914.17385924176
 20
-1971.171035725799
 11
-904.17385924176
 21
-1971.171035725799
  0
LINE
  5
786
100
AcDbEntity
  8
0
  6
CONTINUOUS
 62
           7
100
AcDbLine
 10
-904.17385924176
 20
-1921.1710357258
 11
-904.17385924176
 21
-1971.171035725799
  0
LINE
  5
785
100
AcDbEntity
  8
0
  6
CONTINUOUS
 62
           7
100
AcDbLine
 10
-901.173859241761
 20
-1921.1710357258
 11
-891.17385924176
 21
-1921.1710357258
  0
LINE
  5
784
100
AcDbEntity
  8
0
  6
CONTINUOUS
 62
           7
100
AcDbLine
 10
-901.173859241761
 20
-1921.1710357258
 11
-901.17385924176
 21
-1971.171035725799
  0
LINE
  5
783
100
AcDbEntity
  8
0
  6
CONTINUOUS
 62
           7
100
AcDbLine
 10
-901.17385924176
 20
-1971.171035725799
 11
-891.17385924176
 21
-1971.171035725799
  0
LINE
  5
782
100
AcDbEntity
  8
0
  6
CONTINUOUS
 62
           7
100
AcDbLine
 10
-891.17385924176
 20
-1921.1710357258
 11
-891.17385924176
 21
-1971.171035725799
  0
LINE
  5
781
100
AcDbEntity
  8
0
  6
CONTINUOUS
 62
           7
100
AcDbLine
 10
-888.17385924176
 20
-1971.171035725799
 11
-878.17385924176
 21
-1971.171035725799
  0
LINE
  5
780
100
AcDbEntity
  8
0
  6
CONTINUOUS
 62
           7
100
AcDbLine
 10
-888.17385924176
 20
-1921.1710357258
 11
-878.17385924176
 21
-1921.1710357258
  0
LINE
  5
77F
100
AcDbEntity
  8
0
  6
CONTINUOUS
 62
           7
100
AcDbLine
 10
-888.17385924176
 20
-1921.1710357258
 11
-888.17385924176
 21
-1971.171035725799
  0
LINE
  5
77E
100
AcDbEntity
  8
0
  6
CONTINUOUS
 62
           7
100
AcDbLine
 10
-878.17385924176
 20
-1921.1710357258
 11
-878.17385924176
 21
-1971.171035725799
  0
LINE
  5
77D
100
AcDbEntity
  8
0
  6
CONTINUOUS
 62
           7
100
AcDbLine
 10
-875.17385924176
 20
-1921.1710357258
 11
-865.17385924176
 21
-1921.1710357258
  0
LINE
  5
77C
100
AcDbEntity
  8
0
  6
CONTINUOUS
 62
           7
100
AcDbLine
 10
-875.17385924176
 20
-1921.1710357258
 11
-875.17385924176
 21
-1971.171035725799
  0
LINE
  5
77B
100
AcDbEntity
  8
0
  6
CONTINUOUS
 62
           7
100
AcDbLine
 10
-875.17385924176
 20
-1971.171035725799
 11
-865.17385924176
 21
-1971.171035725799
  0
LINE
  5
77A
100
AcDbEntity
  8
0
  6
CONTINUOUS
 62
           7
100
AcDbLine
 10
-865.17385924176
 20
-1921.1710357258
 11
-865.17385924176
 21
-1971.171035725799
  0
LINE
  5
779
100
AcDbEntity
  8
0
  6
CONTINUOUS
 62
           7
100
AcDbLine
 10
-862.17385924176
 20
-1921.1710357258
 11
-852.17385924176
 21
-1921.171035725799
  0
LINE
  5
778
100
AcDbEntity
  8
0
  6
CONTINUOUS
 62
           7
100
AcDbLine
 10
-862.17385924176
 20
-1921.1710357258
 11
-862.17385924176
 21
-1971.171035725799
  0
LINE
  5
777
100
AcDbEntity
  8
0
  6
CONTINUOUS
 62
           7
100
AcDbLine
 10
-862.17385924176
 20
-1971.171035725799
 11
-852.17385924176
 21
-1971.171035725799
  0
LINE
  5
776
100
AcDbEntity
  8
0
  6
CONTINUOUS
 62
           7
100
AcDbLine
 10
-852.17385924176
 20
-1921.171035725799
 11
-852.17385924176
 21
-1971.171035725799
  0
LINE
  5
775
100
AcDbEntity
  8
0
  6
CONTINUOUS
 62
           7
100
AcDbLine
 10
-849.17385924176
 20
-1921.171035725799
 11
-839.17385924176
 21
-1921.171035725799
  0
LINE
  5
774
100
AcDbEntity
  8
0
  6
CONTINUOUS
 62
           7
100
AcDbLine
 10
-849.17385924176
 20
-1921.171035725799
 11
-849.17385924176
 21
-1971.171035725799
  0
LINE
  5
773
100
AcDbEntity
  8
0
  6
CONTINUOUS
 62
           7
100
AcDbLine
 10
-849.17385924176
 20
-1971.171035725799
 11
-839.17385924176
 21
-1971.171035725799
  0
LINE
  5
772
100
AcDbEntity
  8
0
  6
CONTINUOUS
 62
           7
100
AcDbLine
 10
-839.17385924176
 20
-1921.171035725799
 11
-839.17385924176
 21
-1971.171035725799
  0
LINE
  5
771
100
AcDbEntity
  8
0
  6
CONTINUOUS
 62
           7
100
AcDbLine
 10
-836.17385924176
 20
-1921.171035725799
 11
-826.17385924176
 21
-1921.171035725799
  0
LINE
  5
770
100
AcDbEntity
  8
0
  6
CONTINUOUS
 62
           7
100
AcDbLine
 10
-836.17385924176
 20
-1921.171035725799
 11
-836.17385924176
 21
-1971.171035725799
  0
LINE
  5
76F
100
AcDbEntity
  8
0
  6
CONTINUOUS
 62
           7
100
AcDbLine
 10
-836.17385924176
 20
-1971.171035725799
 11
-826.17385924176
 21
-1971.171035725799
  0
LINE
  5
76E
100
AcDbEntity
  8
0
  6
CONTINUOUS
 62
           7
100
AcDbLine
 10
-826.17385924176
 20
-1921.171035725799
 11
-826.17385924176
 21
-1971.171035725799
  0
LINE
  5
76D
100
AcDbEntity
  8
0
  6
CONTINUOUS
 62
           7
100
AcDbLine
 10
-823.17385924176
 20
-1971.171035725799
 11
-813.17385924176
 21
-1971.171035725799
  0
LINE
  5
76C
100
AcDbEntity
  8
0
  6
CONTINUOUS
 62
           7
100
AcDbLine
 10
-823.17385924176
 20
-1921.1710357258
 11
-813.17385924176
 21
-1921.171035725799
  0
LINE
  5
76B
100
AcDbEntity
  8
0
  6
CONTINUOUS
 62
           7
100
AcDbLine
 10
-823.17385924176
 20
-1921.1710357258
 11
-823.17385924176
 21
-1971.171035725799
  0
LINE
  5
76A
100
AcDbEntity
  8
0
  6
CONTINUOUS
 62
           7
100
AcDbLine
 10
-813.17385924176
 20
-1921.171035725799
 11
-813.17385924176
 21
-1971.171035725799
  0
LINE
  5
769
100
AcDbEntity
  8
0
  6
CONTINUOUS
 62
           7
100
AcDbLine
 10
-810.17385924176
 20
-1921.171035725799
 11
-800.17385924176
 21
-1921.171035725799
  0
LINE
  5
768
100
AcDbEntity
  8
0
  6
CONTINUOUS
 62
           7
100
AcDbLine
 10
-810.17385924176
 20
-1921.171035725799
 11
-810.17385924176
 21
-1971.171035725799
  0
LINE
  5
767
100
AcDbEntity
  8
0
  6
CONTINUOUS
 62
           7
100
AcDbLine
 10
-810.17385924176
 20
-1971.171035725799
 11
-800.17385924176
 21
-1971.171035725799
  0
LINE
  5
766
100
AcDbEntity
  8
0
  6
CONTINUOUS
 62
           7
100
AcDbLine
 10
-800.17385924176
 20
-1921.171035725799
 11
-800.17385924176
 21
-1971.171035725799
  0
LINE
  5
765
100
AcDbEntity
  8
0
  6
CONTINUOUS
 62
           7
100
AcDbLine
 10
-797.17385924176
 20
-1921.171035725799
 11
-787.17385924176
 21
-1921.171035725799
  0
LINE
  5
764
100
AcDbEntity
  8
0
  6
CONTINUOUS
 62
           7
100
AcDbLine
 10
-797.17385924176
 20
-1921.171035725799
 11
-797.17385924176
 21
-1971.171035725799
  0
LINE
  5
763
100
AcDbEntity
  8
0
  6
CONTINUOUS
 62
           7
100
AcDbLine
 10
-797.17385924176
 20
-1971.171035725799
 11
-787.17385924176
 21
-1971.171035725799
  0
LINE
  5
762
100
AcDbEntity
  8
0
  6
CONTINUOUS
 62
           7
100
AcDbLine
 10
-787.17385924176
 20
-1921.171035725799
 11
-787.17385924176
 21
-1971.171035725799
  0
LINE
  5
761
100
AcDbEntity
  8
0
  6
CONTINUOUS
 62
           7
100
AcDbLine
 10
-784.17385924176
 20
-1921.171035725799
 11
-774.17385924176
 21
-1921.171035725799
  0
LINE
  5
760
100
AcDbEntity
  8
0
  6
CONTINUOUS
 62
           7
100
AcDbLine
 10
-784.17385924176
 20
-1921.171035725799
 11
-784.17385924176
 21
-1971.171035725799
  0
LINE
  5
75F
100
AcDbEntity
  8
0
  6
CONTINUOUS
 62
           7
100
AcDbLine
 10
-784.17385924176
 20
-1971.171035725799
 11
-774.17385924176
 21
-1971.171035725799
  0
LINE
  5
75E
100
AcDbEntity
  8
0
  6
CONTINUOUS
 62
           7
100
AcDbLine
 10
-774.17385924176
 20
-1921.171035725799
 11
-774.17385924176
 21
-1971.171035725799
  0
LINE
  5
75D
100
AcDbEntity
  8
0
  6
CONTINUOUS
 62
           7
100
AcDbLine
 10
-771.17385924176
 20
-1921.171035725799
 11
-761.17385924176
 21
-1921.171035725799
  0
LINE
  5
75C
100
AcDbEntity
  8
0
  6
CONTINUOUS
 62
           7
100
AcDbLine
 10
-771.17385924176
 20
-1921.171035725799
 11
-771.17385924176
 21
-1971.171035725799
  0
LINE
  5
75B
100
AcDbEntity
  8
0
  6
CONTINUOUS
 62
           7
100
AcDbLine
 10
-771.17385924176
 20
-1971.171035725799
 11
-761.17385924176
 21
-1971.171035725799
  0
LINE
  5
75A
100
AcDbEntity
  8
0
  6
CONTINUOUS
 62
           7
100
AcDbLine
 10
-761.17385924176
 20
-1921.171035725799
 11
-761.17385924176
 21
-1971.171035725799
  0
LINE
  5
759
100
AcDbEntity
  8
0
  6
CONTINUOUS
 62
           7
100
AcDbLine
 10
-758.17385924176
 20
-1971.171035725799
 11
-748.17385924176
 21
-1971.171035725799
  0
LINE
  5
758
100
AcDbEntity
  8
0
  6
CONTINUOUS
 62
           7
100
AcDbLine
 10
-758.17385924176
 20
-1921.171035725799
 11
-748.17385924176
 21
-1921.171035725799
  0
LINE
  5
757
100
AcDbEntity
  8
0
  6
CONTINUOUS
 62
           7
100
AcDbLine
 10
-758.17385924176
 20
-1921.171035725799
 11
-758.17385924176
 21
-1971.171035725799
  0
LINE
  5
756
100
AcDbEntity
  8
0
  6
CONTINUOUS
 62
           7
100
AcDbLine
 10
-748.17385924176
 20
-1921.171035725799
 11
-748.17385924176
 21
-1971.171035725799
  0
LINE
  5
755
100
AcDbEntity
  8
0
  6
CONTINUOUS
 62
           7
100
AcDbLine
 10
-745.17385924176
 20
-1921.171035725799
 11
-735.17385924176
 21
-1921.171035725799
  0
LINE
  5
754
100
AcDbEntity
  8
0
  6
CONTINUOUS
 62
           7
100
AcDbLine
 10
-745.17385924176
 20
-1921.171035725799
 11
-745.17385924176
 21
-1971.171035725799
  0
LINE
  5
753
100
AcDbEntity
  8
0
  6
CONTINUOUS
 62
           7
100
AcDbLine
 10
-745.17385924176
 20
-1971.171035725799
 11
-735.17385924176
 21
-1971.171035725799
  0
LINE
  5
752
100
AcDbEntity
  8
0
  6
CONTINUOUS
 62
           7
100
AcDbLine
 10
-735.17385924176
 20
-1921.171035725799
 11
-735.17385924176
 21
-1971.171035725799
  0
LINE
  5
751
100
AcDbEntity
  8
0
  6
CONTINUOUS
 62
           7
100
AcDbLine
 10
-732.17385924176
 20
-1921.171035725799
 11
-722.17385924176
 21
-1921.171035725799
  0
LINE
  5
750
100
AcDbEntity
  8
0
  6
CONTINUOUS
 62
           7
100
AcDbLine
 10
-732.17385924176
 20
-1921.171035725799
 11
-732.17385924176
 21
-1971.171035725799
  0
LINE
  5
74F
100
AcDbEntity
  8
0
  6
CONTINUOUS
 62
           7
100
AcDbLine
 10
-732.17385924176
 20
-1971.171035725799
 11
-722.17385924176
 21
-1971.171035725799
  0
LINE
  5
74E
100
AcDbEntity
  8
0
  6
CONTINUOUS
 62
           7
100
AcDbLine
 10
-722.17385924176
 20
-1921.171035725799
 11
-722.17385924176
 21
-1971.171035725799
  0
LINE
  5
74D
100
AcDbEntity
  8
0
  6
CONTINUOUS
 62
           7
100
AcDbLine
 10
-719.17385924176
 20
-1921.171035725799
 11
-709.17385924176
 21
-1921.171035725799
  0
LINE
  5
74C
100
AcDbEntity
  8
0
  6
CONTINUOUS
 62
           7
100
AcDbLine
 10
-719.17385924176
 20
-1921.171035725799
 11
-719.17385924176
 21
-1971.171035725799
  0
LINE
  5
74B
100
AcDbEntity
  8
0
  6
CONTINUOUS
 62
           7
100
AcDbLine
 10
-719.17385924176
 20
-1971.171035725799
 11
-709.17385924176
 21
-1971.171035725799
  0
LINE
  5
74A
100
AcDbEntity
  8
0
  6
CONTINUOUS
 62
           7
100
AcDbLine
 10
-709.17385924176
 20
-1921.171035725799
 11
-709.17385924176
 21
-1971.171035725799
  0
LINE
  5
749
100
AcDbEntity
  8
0
  6
CONTINUOUS
 62
           7
100
AcDbLine
 10
-706.17385924176
 20
-1921.171035725799
 11
-696.17385924176
 21
-1921.171035725799
  0
LINE
  5
748
100
AcDbEntity
  8
0
  6
CONTINUOUS
 62
           7
100
AcDbLine
 10
-706.17385924176
 20
-1921.171035725799
 11
-706.17385924176
 21
-1971.171035725799
  0
LINE
  5
747
100
AcDbEntity
  8
0
  6
CONTINUOUS
 62
           7
100
AcDbLine
 10
-706.17385924176
 20
-1971.171035725799
 11
-696.17385924176
 21
-1971.171035725799
  0
LINE
  5
746
100
AcDbEntity
  8
0
  6
CONTINUOUS
 62
           7
100
AcDbLine
 10
-696.17385924176
 20
-1921.171035725799
 11
-696.17385924176
 21
-1971.171035725799
  0
LINE
  5
745
100
AcDbEntity
  8
0
  6
CONTINUOUS
 62
           7
100
AcDbLine
 10
-693.17385924176
 20
-1971.171035725799
 11
-683.17385924176
 21
-1971.171035725799
  0
LINE
  5
744
100
AcDbEntity
  8
0
  6
CONTINUOUS
 62
           7
100
AcDbLine
 10
-693.17385924176
 20
-1921.1710357258
 11
-683.17385924176
 21
-1921.171035725799
  0
LINE
  5
743
100
AcDbEntity
  8
0
  6
CONTINUOUS
 62
           7
100
AcDbLine
 10
-693.17385924176
 20
-1921.1710357258
 11
-693.17385924176
 21
-1971.171035725799
  0
LINE
  5
742
100
AcDbEntity
  8
0
  6
CONTINUOUS
 62
           7
100
AcDbLine
 10
-683.17385924176
 20
-1921.171035725799
 11
-683.17385924176
 21
-1971.171035725799
  0
LINE
  5
741
100
AcDbEntity
  8
0
  6
CONTINUOUS
 62
           7
100
AcDbLine
 10
-680.17385924176
 20
-1921.171035725799
 11
-670.17385924176
 21
-1921.171035725799
  0
LINE
  5
740
100
AcDbEntity
  8
0
  6
CONTINUOUS
 62
           7
100
AcDbLine
 10
-680.17385924176
 20
-1921.171035725799
 11
-680.17385924176
 21
-1971.171035725799
  0
LINE
  5
73F
100
AcDbEntity
  8
0
  6
CONTINUOUS
 62
           7
100
AcDbLine
 10
-680.17385924176
 20
-1971.171035725799
 11
-670.17385924176
 21
-1971.171035725799
  0
LINE
  5
73E
100
AcDbEntity
  8
0
  6
CONTINUOUS
 62
           7
100
AcDbLine
 10
-670.17385924176
 20
-1921.171035725799
 11
-670.17385924176
 21
-1971.171035725799
  0
LINE
  5
73D
100
AcDbEntity
  8
0
  6
CONTINUOUS
 62
           7
100
AcDbLine
 10
-667.17385924176
 20
-1921.171035725799
 11
-657.17385924176
 21
-1921.171035725799
  0
LINE
  5
73C
100
AcDbEntity
  8
0
  6
CONTINUOUS
 62
           7
100
AcDbLine
 10
-667.17385924176
 20
-1921.171035725799
 11
-667.17385924176
 21
-1971.171035725799
  0
LINE
  5
73B
100
AcDbEntity
  8
0
  6
CONTINUOUS
 62
           7
100
AcDbLine
 10
-667.17385924176
 20
-1971.171035725799
 11
-657.17385924176
 21
-1971.171035725799
  0
LINE
  5
73A
100
AcDbEntity
  8
0
  6
CONTINUOUS
 62
           7
100
AcDbLine
 10
-657.17385924176
 20
-1921.171035725799
 11
-657.17385924176
 21
-1971.171035725799
  0
LINE
  5
739
100
AcDbEntity
  8
0
  6
CONTINUOUS
 62
           7
100
AcDbLine
 10
-654.17385924176
 20
-1921.171035725799
 11
-644.17385924176
 21
-1921.171035725799
  0
LINE
  5
738
100
AcDbEntity
  8
0
  6
CONTINUOUS
 62
           7
100
AcDbLine
 10
-654.17385924176
 20
-1921.171035725799
 11
-654.17385924176
 21
-1971.171035725799
  0
LINE
  5
737
100
AcDbEntity
  8
0
  6
CONTINUOUS
 62
           7
100
AcDbLine
 10
-654.17385924176
 20
-1971.171035725799
 11
-644.17385924176
 21
-1971.171035725799
  0
LINE
  5
736
100
AcDbEntity
  8
0
  6
CONTINUOUS
 62
           7
100
AcDbLine
 10
-644.17385924176
 20
-1921.171035725799
 11
-644.17385924176
 21
-1971.171035725799
  0
LINE
  5
735
100
AcDbEntity
  8
0
  6
CONTINUOUS
 62
           7
100
AcDbLine
 10
-641.17385924176
 20
-1921.171035725799
 11
-631.17385924176
 21
-1921.171035725799
  0
LINE
  5
734
100
AcDbEntity
  8
0
  6
CONTINUOUS
 62
           7
100
AcDbLine
 10
-641.17385924176
 20
-1921.171035725799
 11
-641.17385924176
 21
-1971.171035725799
  0
LINE
  5
733
100
AcDbEntity
  8
0
  6
CONTINUOUS
 62
           7
100
AcDbLine
 10
-641.17385924176
 20
-1971.171035725799
 11
-631.17385924176
 21
-1971.171035725799
  0
LINE
  5
732
100
AcDbEntity
  8
0
  6
CONTINUOUS
 62
           7
100
AcDbLine
 10
-631.17385924176
 20
-1921.171035725799
 11
-631.17385924176
 21
-1971.171035725799
  0
LINE
  5
731
100
AcDbEntity
  8
0
  6
CONTINUOUS
 62
           7
100
AcDbLine
 10
-628.17385924176
 20
-1971.171035725799
 11
-618.17385924176
 21
-1971.171035725799
  0
LINE
  5
730
100
AcDbEntity
  8
0
  6
CONTINUOUS
 62
           7
100
AcDbLine
 10
-628.17385924176
 20
-1921.171035725799
 11
-618.17385924176
 21
-1921.171035725799
  0
LINE
  5
72F
100
AcDbEntity
  8
0
  6
CONTINUOUS
 62
           7
100
AcDbLine
 10
-628.17385924176
 20
-1921.171035725799
 11
-628.17385924176
 21
-1971.171035725799
  0
LINE
  5
72E
100
AcDbEntity
  8
0
  6
CONTINUOUS
 62
           7
100
AcDbLine
 10
-618.17385924176
 20
-1921.171035725799
 11
-618.17385924176
 21
-1971.171035725799
  0
LINE
  5
72D
100
AcDbEntity
  8
0
  6
CONTINUOUS
 62
           7
100
AcDbLine
 10
-615.17385924176
 20
-1921.171035725799
 11
-605.17385924176
 21
-1921.171035725799
  0
LINE
  5
72C
100
AcDbEntity
  8
0
  6
CONTINUOUS
 62
           7
100
AcDbLine
 10
-615.17385924176
 20
-1921.171035725799
 11
-615.17385924176
 21
-1971.171035725799
  0
LINE
  5
72B
100
AcDbEntity
  8
0
  6
CONTINUOUS
 62
           7
100
AcDbLine
 10
-615.17385924176
 20
-1971.171035725799
 11
-605.17385924176
 21
-1971.171035725799
  0
LINE
  5
72A
100
AcDbEntity
  8
0
  6
CONTINUOUS
 62
           7
100
AcDbLine
 10
-605.17385924176
 20
-1921.171035725799
 11
-605.17385924176
 21
-1971.171035725799
  0
LINE
  5
729
100
AcDbEntity
  8
0
  6
CONTINUOUS
 62
           7
100
AcDbLine
 10
-602.17385924176
 20
-1921.171035725799
 11
-592.17385924176
 21
-1921.171035725799
  0
LINE
  5
728
100
AcDbEntity
  8
0
  6
CONTINUOUS
 62
           7
100
AcDbLine
 10
-602.17385924176
 20
-1921.171035725799
 11
-602.17385924176
 21
-1971.171035725799
  0
LINE
  5
727
100
AcDbEntity
  8
0
  6
CONTINUOUS
 62
           7
100
AcDbLine
 10
-602.17385924176
 20
-1971.171035725799
 11
-592.17385924176
 21
-1971.171035725799
  0
LINE
  5
726
100
AcDbEntity
  8
0
  6
CONTINUOUS
 62
           7
100
AcDbLine
 10
-592.17385924176
 20
-1921.171035725799
 11
-592.17385924176
 21
-1971.171035725799
  0
LINE
  5
725
100
AcDbEntity
  8
0
  6
CONTINUOUS
 62
           7
100
AcDbLine
 10
-589.17385924176
 20
-1921.171035725799
 11
-579.17385924176
 21
-1921.171035725799
  0
LINE
  5
724
100
AcDbEntity
  8
0
  6
CONTINUOUS
 62
           7
100
AcDbLine
 10
-589.17385924176
 20
-1921.171035725799
 11
-589.17385924176
 21
-1971.171035725799
  0
LINE
  5
723
100
AcDbEntity
  8
0
  6
CONTINUOUS
 62
           7
100
AcDbLine
 10
-589.17385924176
 20
-1971.171035725799
 11
-579.17385924176
 21
-1971.171035725799
  0
LINE
  5
722
100
AcDbEntity
  8
0
  6
CONTINUOUS
 62
           7
100
AcDbLine
 10
-579.17385924176
 20
-1921.171035725799
 11
-579.17385924176
 21
-1971.171035725799
  0
LINE
  5
721
100
AcDbEntity
  8
0
  6
CONTINUOUS
 62
           7
100
AcDbLine
 10
-576.17385924176
 20
-1921.171035725799
 11
-566.17385924176
 21
-1921.171035725799
  0
LINE
  5
720
100
AcDbEntity
  8
0
  6
CONTINUOUS
 62
           7
100
AcDbLine
 10
-576.17385924176
 20
-1921.171035725799
 11
-576.17385924176
 21
-1971.171035725799
  0
LINE
  5
71F
100
AcDbEntity
  8
0
  6
CONTINUOUS
 62
           7
100
AcDbLine
 10
-576.17385924176
 20
-1971.171035725799
 11
-566.17385924176
 21
-1971.171035725799
  0
LINE
  5
71E
100
AcDbEntity
  8
0
  6
CONTINUOUS
 62
           7
100
AcDbLine
 10
-566.17385924176
 20
-1921.171035725799
 11
-566.17385924176
 21
-1971.171035725799
  0
LINE
  5
71D
100
AcDbEntity
  8
0
  6
CONTINUOUS
 62
           7
100
AcDbLine
 10
-563.17385924176
 20
-1971.171035725799
 11
-553.17385924176
 21
-1971.171035725799
  0
LINE
  5
71C
100
AcDbEntity
  8
0
  6
CONTINUOUS
 62
           7
100
AcDbLine
 10
-563.17385924176
 20
-1921.171035725799
 11
-553.17385924176
 21
-1921.171035725799
  0
LINE
  5
71B
100
AcDbEntity
  8
0
  6
CONTINUOUS
 62
           7
100
AcDbLine
 10
-563.17385924176
 20
-1921.171035725799
 11
-563.17385924176
 21
-1971.171035725799
  0
LINE
  5
71A
100
AcDbEntity
  8
0
  6
CONTINUOUS
 62
           7
100
AcDbLine
 10
-553.17385924176
 20
-1921.171035725799
 11
-553.17385924176
 21
-1971.171035725799
  0
LINE
  5
719
100
AcDbEntity
  8
0
  6
CONTINUOUS
 62
           7
100
AcDbLine
 10
-550.17385924176
 20
-1921.171035725799
 11
-540.17385924176
 21
-1921.171035725799
  0
LINE
  5
718
100
AcDbEntity
  8
0
  6
CONTINUOUS
 62
           7
100
AcDbLine
 10
-550.17385924176
 20
-1921.171035725799
 11
-550.17385924176
 21
-1971.171035725799
  0
LINE
  5
717
100
AcDbEntity
  8
0
  6
CONTINUOUS
 62
           7
100
AcDbLine
 10
-550.17385924176
 20
-1971.171035725799
 11
-540.17385924176
 21
-1971.171035725799
  0
LINE
  5
716
100
AcDbEntity
  8
0
  6
CONTINUOUS
 62
           7
100
AcDbLine
 10
-540.17385924176
 20
-1921.171035725799
 11
-540.17385924176
 21
-1971.171035725799
  0
LINE
  5
715
100
AcDbEntity
  8
0
  6
CONTINUOUS
 62
           7
100
AcDbLine
 10
-537.17385924176
 20
-1921.171035725799
 11
-527.17385924176
 21
-1921.171035725799
  0
LINE
  5
714
100
AcDbEntity
  8
0
  6
CONTINUOUS
 62
           7
100
AcDbLine
 10
-537.17385924176
 20
-1921.171035725799
 11
-537.17385924176
 21
-1971.171035725799
  0
LINE
  5
713
100
AcDbEntity
  8
0
  6
CONTINUOUS
 62
           7
100
AcDbLine
 10
-537.17385924176
 20
-1971.171035725799
 11
-527.17385924176
 21
-1971.171035725799
  0
LINE
  5
712
100
AcDbEntity
  8
0
  6
CONTINUOUS
 62
           7
100
AcDbLine
 10
-527.17385924176
 20
-1921.171035725799
 11
-527.17385924176
 21
-1971.171035725799
  0
LINE
  5
711
100
AcDbEntity
  8
0
  6
CONTINUOUS
 62
           7
100
AcDbLine
 10
-914.17385924176
 20
-1981.171035725799
 11
-904.17385924176
 21
-1981.171035725799
  0
LINE
  5
710
100
AcDbEntity
  8
0
  6
CONTINUOUS
 62
           7
100
AcDbLine
 10
-914.17385924176
 20
-1981.171035725799
 11
-914.17385924176
 21
-2031.171035725799
  0
LINE
  5
70F
100
AcDbEntity
  8
0
  6
CONTINUOUS
 62
           7
100
AcDbLine
 10
-914.17385924176
 20
-2031.171035725799
 11
-904.17385924176
 21
-2031.171035725799
  0
LINE
  5
70E
100
AcDbEntity
  8
0
  6
CONTINUOUS
 62
           7
100
AcDbLine
 10
-904.17385924176
 20
-1981.171035725799
 11
-904.17385924176
 21
-2031.171035725799
  0
LINE
  5
70D
100
AcDbEntity
  8
0
  6
CONTINUOUS
 62
           7
100
AcDbLine
 10
-901.17385924176
 20
-1981.171035725799
 11
-891.17385924176
 21
-1981.171035725799
  0
LINE
  5
70C
100
AcDbEntity
  8
0
  6
CONTINUOUS
 62
           7
100
AcDbLine
 10
-901.17385924176
 20
-1981.171035725799
 11
-901.17385924176
 21
-2031.171035725799
  0
LINE
  5
70B
100
AcDbEntity
  8
0
  6
CONTINUOUS
 62
           7
100
AcDbLine
 10
-901.17385924176
 20
-2031.171035725799
 11
-891.17385924176
 21
-2031.171035725799
  0
LINE
  5
70A
100
AcDbEntity
  8
0
  6
CONTINUOUS
 62
           7
100
AcDbLine
 10
-891.17385924176
 20
-1981.171035725799
 11
-891.17385924176
 21
-2031.171035725799
  0
LINE
  5
709
100
AcDbEntity
  8
0
  6
CONTINUOUS
 62
           7
100
AcDbLine
 10
-888.17385924176
 20
-2031.171035725799
 11
-878.17385924176
 21
-2031.171035725799
  0
LINE
  5
708
100
AcDbEntity
  8
0
  6
CONTINUOUS
 62
           7
100
AcDbLine
 10
-888.17385924176
 20
-1981.171035725799
 11
-878.17385924176
 21
-1981.171035725799
  0
LINE
  5
707
100
AcDbEntity
  8
0
  6
CONTINUOUS
 62
           7
100
AcDbLine
 10
-888.17385924176
 20
-1981.171035725799
 11
-888.17385924176
 21
-2031.171035725799
  0
LINE
  5
706
100
AcDbEntity
  8
0
  6
CONTINUOUS
 62
           7
100
AcDbLine
 10
-878.17385924176
 20
-1981.171035725799
 11
-878.17385924176
 21
-2031.171035725799
  0
LINE
  5
705
100
AcDbEntity
  8
0
  6
CONTINUOUS
 62
           7
100
AcDbLine
 10
-875.17385924176
 20
-1981.171035725799
 11
-865.17385924176
 21
-1981.171035725799
  0
LINE
  5
704
100
AcDbEntity
  8
0
  6
CONTINUOUS
 62
           7
100
AcDbLine
 10
-875.17385924176
 20
-1981.171035725799
 11
-875.17385924176
 21
-2031.171035725799
  0
LINE
  5
703
100
AcDbEntity
  8
0
  6
CONTINUOUS
 62
           7
100
AcDbLine
 10
-875.17385924176
 20
-2031.171035725799
 11
-865.17385924176
 21
-2031.171035725799
  0
LINE
  5
702
100
AcDbEntity
  8
0
  6
CONTINUOUS
 62
           7
100
AcDbLine
 10
-865.17385924176
 20
-1981.171035725799
 11
-865.17385924176
 21
-2031.171035725799
  0
LINE
  5
701
100
AcDbEntity
  8
0
  6
CONTINUOUS
 62
           7
100
AcDbLine
 10
-862.17385924176
 20
-1981.171035725799
 11
-852.17385924176
 21
-1981.171035725799
  0
LINE
  5
700
100
AcDbEntity
  8
0
  6
CONTINUOUS
 62
           7
100
AcDbLine
 10
-862.17385924176
 20
-1981.171035725799
 11
-862.17385924176
 21
-2031.171035725799
  0
LINE
  5
6FF
100
AcDbEntity
  8
0
  6
CONTINUOUS
 62
           7
100
AcDbLine
 10
-862.17385924176
 20
-2031.171035725799
 11
-852.17385924176
 21
-2031.171035725799
  0
LINE
  5
6FE
100
AcDbEntity
  8
0
  6
CONTINUOUS
 62
           7
100
AcDbLine
 10
-852.17385924176
 20
-1981.171035725799
 11
-852.17385924176
 21
-2031.171035725799
  0
LINE
  5
6FD
100
AcDbEntity
  8
0
  6
CONTINUOUS
 62
           7
100
AcDbLine
 10
-849.17385924176
 20
-1981.171035725799
 11
-839.173859241761
 21
-1981.171035725799
  0
LINE
  5
6FC
100
AcDbEntity
  8
0
  6
CONTINUOUS
 62
           7
100
AcDbLine
 10
-849.17385924176
 20
-1981.171035725799
 11
-849.17385924176
 21
-2031.171035725799
  0
LINE
  5
6FB
100
AcDbEntity
  8
0
  6
CONTINUOUS
 62
           7
100
AcDbLine
 10
-849.17385924176
 20
-2031.171035725799
 11
-839.173859241761
 21
-2031.171035725799
  0
LINE
  5
6FA
100
AcDbEntity
  8
0
  6
CONTINUOUS
 62
           7
100
AcDbLine
 10
-839.173859241761
 20
-1981.171035725799
 11
-839.173859241761
 21
-2031.171035725799
  0
LINE
  5
6F9
100
AcDbEntity
  8
0
  6
CONTINUOUS
 62
           7
100
AcDbLine
 10
-836.173859241761
 20
-1981.171035725799
 11
-826.173859241761
 21
-1981.171035725799
  0
LINE
  5
6F8
100
AcDbEntity
  8
0
  6
CONTINUOUS
 62
           7
100
AcDbLine
 10
-836.173859241761
 20
-1981.171035725799
 11
-836.173859241761
 21
-2031.171035725799
  0
LINE
  5
6F7
100
AcDbEntity
  8
0
  6
CONTINUOUS
 62
           7
100
AcDbLine
 10
-836.173859241761
 20
-2031.171035725799
 11
-826.173859241761
 21
-2031.171035725799
  0
LINE
  5
6F6
100
AcDbEntity
  8
0
  6
CONTINUOUS
 62
           7
100
AcDbLine
 10
-826.173859241761
 20
-1981.171035725799
 11
-826.173859241761
 21
-2031.171035725799
  0
LINE
  5
6F5
100
AcDbEntity
  8
0
  6
CONTINUOUS
 62
           7
100
AcDbLine
 10
-823.173859241761
 20
-2031.171035725799
 11
-813.17385924176
 21
-2031.171035725799
  0
LINE
  5
6F4
100
AcDbEntity
  8
0
  6
CONTINUOUS
 62
           7
100
AcDbLine
 10
-823.173859241761
 20
-1981.171035725799
 11
-813.17385924176
 21
-1981.171035725799
  0
LINE
  5
6F3
100
AcDbEntity
  8
0
  6
CONTINUOUS
 62
           7
100
AcDbLine
 10
-823.173859241761
 20
-1981.171035725799
 11
-823.173859241761
 21
-2031.171035725799
  0
LINE
  5
6F2
100
AcDbEntity
  8
0
  6
CONTINUOUS
 62
           7
100
AcDbLine
 10
-813.17385924176
 20
-1981.171035725799
 11
-813.17385924176
 21
-2031.171035725799
  0
LINE
  5
6F1
100
AcDbEntity
  8
0
  6
CONTINUOUS
 62
           7
100
AcDbLine
 10
-810.17385924176
 20
-1981.171035725799
 11
-800.17385924176
 21
-1981.171035725799
  0
LINE
  5
6F0
100
AcDbEntity
  8
0
  6
CONTINUOUS
 62
           7
100
AcDbLine
 10
-810.17385924176
 20
-1981.171035725799
 11
-810.17385924176
 21
-2031.171035725799
  0
LINE
  5
6EF
100
AcDbEntity
  8
0
  6
CONTINUOUS
 62
           7
100
AcDbLine
 10
-810.17385924176
 20
-2031.171035725799
 11
-800.17385924176
 21
-2031.171035725799
  0
LINE
  5
6EE
100
AcDbEntity
  8
0
  6
CONTINUOUS
 62
           7
100
AcDbLine
 10
-800.17385924176
 20
-1981.171035725799
 11
-800.17385924176
 21
-2031.171035725799
  0
LINE
  5
6ED
100
AcDbEntity
  8
0
  6
CONTINUOUS
 62
           7
100
AcDbLine
 10
-797.17385924176
 20
-1981.171035725799
 11
-787.17385924176
 21
-1981.171035725799
  0
LINE
  5
6EC
100
AcDbEntity
  8
0
  6
CONTINUOUS
 62
           7
100
AcDbLine
 10
-797.17385924176
 20
-1981.171035725799
 11
-797.17385924176
 21
-2031.171035725799
  0
LINE
  5
6EB
100
AcDbEntity
  8
0
  6
CONTINUOUS
 62
           7
100
AcDbLine
 10
-797.17385924176
 20
-2031.171035725799
 11
-787.17385924176
 21
-2031.171035725799
  0
LINE
  5
6EA
100
AcDbEntity
  8
0
  6
CONTINUOUS
 62
           7
100
AcDbLine
 10
-787.17385924176
 20
-1981.171035725799
 11
-787.17385924176
 21
-2031.171035725799
  0
LINE
  5
6E9
100
AcDbEntity
  8
0
  6
CONTINUOUS
 62
           7
100
AcDbLine
 10
-784.17385924176
 20
-1981.171035725799
 11
-774.17385924176
 21
-1981.171035725799
  0
LINE
  5
6E8
100
AcDbEntity
  8
0
  6
CONTINUOUS
 62
           7
100
AcDbLine
 10
-784.17385924176
 20
-1981.171035725799
 11
-784.17385924176
 21
-2031.171035725799
  0
LINE
  5
6E7
100
AcDbEntity
  8
0
  6
CONTINUOUS
 62
           7
100
AcDbLine
 10
-784.17385924176
 20
-2031.171035725799
 11
-774.17385924176
 21
-2031.171035725799
  0
LINE
  5
6E6
100
AcDbEntity
  8
0
  6
CONTINUOUS
 62
           7
100
AcDbLine
 10
-774.17385924176
 20
-1981.171035725799
 11
-774.17385924176
 21
-2031.171035725799
  0
LINE
  5
6E5
100
AcDbEntity
  8
0
  6
CONTINUOUS
 62
           7
100
AcDbLine
 10
-771.17385924176
 20
-1981.171035725799
 11
-761.17385924176
 21
-1981.171035725799
  0
LINE
  5
6E4
100
AcDbEntity
  8
0
  6
CONTINUOUS
 62
           7
100
AcDbLine
 10
-771.17385924176
 20
-1981.171035725799
 11
-771.17385924176
 21
-2031.171035725799
  0
LINE
  5
6E3
100
AcDbEntity
  8
0
  6
CONTINUOUS
 62
           7
100
AcDbLine
 10
-771.17385924176
 20
-2031.171035725799
 11
-761.17385924176
 21
-2031.171035725799
  0
LINE
  5
6E2
100
AcDbEntity
  8
0
  6
CONTINUOUS
 62
           7
100
AcDbLine
 10
-761.17385924176
 20
-1981.171035725799
 11
-761.17385924176
 21
-2031.171035725799
  0
LINE
  5
6E1
100
AcDbEntity
  8
0
  6
CONTINUOUS
 62
           7
100
AcDbLine
 10
-758.17385924176
 20
-2031.171035725799
 11
-748.17385924176
 21
-2031.171035725799
  0
LINE
  5
6E0
100
AcDbEntity
  8
0
  6
CONTINUOUS
 62
           7
100
AcDbLine
 10
-758.17385924176
 20
-1981.171035725799
 11
-748.17385924176
 21
-1981.171035725799
  0
LINE
  5
6DF
100
AcDbEntity
  8
0
  6
CONTINUOUS
 62
           7
100
AcDbLine
 10
-758.17385924176
 20
-1981.171035725799
 11
-758.17385924176
 21
-2031.171035725799
  0
LINE
  5
6DE
100
AcDbEntity
  8
0
  6
CONTINUOUS
 62
           7
100
AcDbLine
 10
-748.17385924176
 20
-1981.171035725799
 11
-748.17385924176
 21
-2031.171035725799
  0
LINE
  5
6DD
100
AcDbEntity
  8
0
  6
CONTINUOUS
 62
           7
100
AcDbLine
 10
-745.17385924176
 20
-1981.171035725799
 11
-735.17385924176
 21
-1981.171035725799
  0
LINE
  5
6DC
100
AcDbEntity
  8
0
  6
CONTINUOUS
 62
           7
100
AcDbLine
 10
-745.17385924176
 20
-1981.171035725799
 11
-745.17385924176
 21
-2031.171035725799
  0
LINE
  5
6DB
100
AcDbEntity
  8
0
  6
CONTINUOUS
 62
           7
100
AcDbLine
 10
-745.17385924176
 20
-2031.171035725799
 11
-735.17385924176
 21
-2031.171035725799
  0
LINE
  5
6DA
100
AcDbEntity
  8
0
  6
CONTINUOUS
 62
           7
100
AcDbLine
 10
-735.17385924176
 20
-1981.171035725799
 11
-735.17385924176
 21
-2031.171035725799
  0
LINE
  5
6D9
100
AcDbEntity
  8
0
  6
CONTINUOUS
 62
           7
100
AcDbLine
 10
-732.17385924176
 20
-1981.171035725799
 11
-722.17385924176
 21
-1981.171035725799
  0
LINE
  5
6D8
100
AcDbEntity
  8
0
  6
CONTINUOUS
 62
           7
100
AcDbLine
 10
-732.17385924176
 20
-1981.171035725799
 11
-732.17385924176
 21
-2031.171035725799
  0
LINE
  5
6D7
100
AcDbEntity
  8
0
  6
CONTINUOUS
 62
           7
100
AcDbLine
 10
-732.17385924176
 20
-2031.171035725799
 11
-722.17385924176
 21
-2031.171035725799
  0
LINE
  5
6D6
100
AcDbEntity
  8
0
  6
CONTINUOUS
 62
           7
100
AcDbLine
 10
-722.17385924176
 20
-1981.171035725799
 11
-722.17385924176
 21
-2031.171035725799
  0
LINE
  5
6D5
100
AcDbEntity
  8
0
  6
CONTINUOUS
 62
           7
100
AcDbLine
 10
-719.17385924176
 20
-1981.171035725799
 11
-709.17385924176
 21
-1981.171035725799
  0
LINE
  5
6D4
100
AcDbEntity
  8
0
  6
CONTINUOUS
 62
           7
100
AcDbLine
 10
-719.17385924176
 20
-1981.171035725799
 11
-719.17385924176
 21
-2031.171035725799
  0
LINE
  5
6D3
100
AcDbEntity
  8
0
  6
CONTINUOUS
 62
           7
100
AcDbLine
 10
-719.17385924176
 20
-2031.171035725799
 11
-709.17385924176
 21
-2031.171035725799
  0
LINE
  5
6D2
100
AcDbEntity
  8
0
  6
CONTINUOUS
 62
           7
100
AcDbLine
 10
-709.17385924176
 20
-1981.171035725799
 11
-709.17385924176
 21
-2031.171035725799
  0
LINE
  5
6D1
100
AcDbEntity
  8
0
  6
CONTINUOUS
 62
           7
100
AcDbLine
 10
-706.17385924176
 20
-1981.171035725799
 11
-696.17385924176
 21
-1981.171035725799
  0
LINE
  5
6D0
100
AcDbEntity
  8
0
  6
CONTINUOUS
 62
           7
100
AcDbLine
 10
-706.17385924176
 20
-1981.171035725799
 11
-706.17385924176
 21
-2031.171035725799
  0
LINE
  5
6CF
100
AcDbEntity
  8
0
  6
CONTINUOUS
 62
           7
100
AcDbLine
 10
-706.17385924176
 20
-2031.171035725799
 11
-696.17385924176
 21
-2031.171035725799
  0
LINE
  5
6CE
100
AcDbEntity
  8
0
  6
CONTINUOUS
 62
           7
100
AcDbLine
 10
-696.17385924176
 20
-1981.171035725799
 11
-696.17385924176
 21
-2031.171035725799
  0
LINE
  5
6CD
100
AcDbEntity
  8
0
  6
CONTINUOUS
 62
           7
100
AcDbLine
 10
-693.173859241761
 20
-2031.171035725799
 11
-683.173859241761
 21
-2031.171035725799
  0
LINE
  5
6CC
100
AcDbEntity
  8
0
  6
CONTINUOUS
 62
           7
100
AcDbLine
 10
-693.173859241761
 20
-1981.171035725799
 11
-683.173859241761
 21
-1981.171035725799
  0
LINE
  5
6CB
100
AcDbEntity
  8
0
  6
CONTINUOUS
 62
           7
100
AcDbLine
 10
-693.173859241761
 20
-1981.171035725799
 11
-693.173859241761
 21
-2031.171035725799
  0
LINE
  5
6CA
100
AcDbEntity
  8
0
  6
CONTINUOUS
 62
           7
100
AcDbLine
 10
-683.173859241761
 20
-1981.171035725799
 11
-683.173859241761
 21
-2031.171035725799
  0
LINE
  5
6C9
100
AcDbEntity
  8
0
  6
CONTINUOUS
 62
           7
100
AcDbLine
 10
-680.17385924176
 20
-1981.171035725799
 11
-670.17385924176
 21
-1981.171035725799
  0
LINE
  5
6C8
100
AcDbEntity
  8
0
  6
CONTINUOUS
 62
           7
100
AcDbLine
 10
-680.17385924176
 20
-1981.171035725799
 11
-680.17385924176
 21
-2031.171035725799
  0
LINE
  5
6C7
100
AcDbEntity
  8
0
  6
CONTINUOUS
 62
           7
100
AcDbLine
 10
-680.17385924176
 20
-2031.171035725799
 11
-670.17385924176
 21
-2031.171035725799
  0
LINE
  5
6C6
100
AcDbEntity
  8
0
  6
CONTINUOUS
 62
           7
100
AcDbLine
 10
-670.17385924176
 20
-1981.171035725799
 11
-670.17385924176
 21
-2031.171035725799
  0
LINE
  5
6C5
100
AcDbEntity
  8
0
  6
CONTINUOUS
 62
           7
100
AcDbLine
 10
-667.17385924176
 20
-1981.171035725799
 11
-657.17385924176
 21
-1981.171035725799
  0
LINE
  5
6C4
100
AcDbEntity
  8
0
  6
CONTINUOUS
 62
           7
100
AcDbLine
 10
-667.17385924176
 20
-1981.171035725799
 11
-667.17385924176
 21
-2031.171035725799
  0
LINE
  5
6C3
100
AcDbEntity
  8
0
  6
CONTINUOUS
 62
           7
100
AcDbLine
 10
-667.17385924176
 20
-2031.171035725799
 11
-657.17385924176
 21
-2031.171035725799
  0
LINE
  5
6C2
100
AcDbEntity
  8
0
  6
CONTINUOUS
 62
           7
100
AcDbLine
 10
-657.17385924176
 20
-1981.171035725799
 11
-657.17385924176
 21
-2031.171035725799
  0
LINE
  5
6C1
100
AcDbEntity
  8
0
  6
CONTINUOUS
 62
           7
100
AcDbLine
 10
-654.17385924176
 20
-1981.171035725799
 11
-644.17385924176
 21
-1981.171035725799
  0
LINE
  5
6C0
100
AcDbEntity
  8
0
  6
CONTINUOUS
 62
           7
100
AcDbLine
 10
-654.17385924176
 20
-1981.171035725799
 11
-654.17385924176
 21
-2031.171035725799
  0
LINE
  5
6BF
100
AcDbEntity
  8
0
  6
CONTINUOUS
 62
           7
100
AcDbLine
 10
-654.17385924176
 20
-2031.171035725799
 11
-644.17385924176
 21
-2031.171035725799
  0
LINE
  5
6BE
100
AcDbEntity
  8
0
  6
CONTINUOUS
 62
           7
100
AcDbLine
 10
-644.17385924176
 20
-1981.171035725799
 11
-644.17385924176
 21
-2031.171035725799
  0
LINE
  5
6BD
100
AcDbEntity
  8
0
  6
CONTINUOUS
 62
           7
100
AcDbLine
 10
-641.17385924176
 20
-1981.171035725799
 11
-631.17385924176
 21
-1981.171035725799
  0
LINE
  5
6BC
100
AcDbEntity
  8
0
  6
CONTINUOUS
 62
           7
100
AcDbLine
 10
-641.17385924176
 20
-1981.171035725799
 11
-641.17385924176
 21
-2031.171035725799
  0
LINE
  5
6BB
100
AcDbEntity
  8
0
  6
CONTINUOUS
 62
           7
100
AcDbLine
 10
-641.17385924176
 20
-2031.171035725799
 11
-631.17385924176
 21
-2031.171035725799
  0
LINE
  5
6BA
100
AcDbEntity
  8
0
  6
CONTINUOUS
 62
           7
100
AcDbLine
 10
-631.17385924176
 20
-1981.171035725799
 11
-631.17385924176
 21
-2031.171035725799
  0
LINE
  5
6B9
100
AcDbEntity
  8
0
  6
CONTINUOUS
 62
           7
100
AcDbLine
 10
-628.17385924176
 20
-2031.171035725799
 11
-618.17385924176
 21
-2031.171035725799
  0
LINE
  5
6B8
100
AcDbEntity
  8
0
  6
CONTINUOUS
 62
           7
100
AcDbLine
 10
-628.17385924176
 20
-1981.171035725799
 11
-618.17385924176
 21
-1981.171035725799
  0
LINE
  5
6B7
100
AcDbEntity
  8
0
  6
CONTINUOUS
 62
           7
100
AcDbLine
 10
-628.17385924176
 20
-1981.171035725799
 11
-628.17385924176
 21
-2031.171035725799
  0
LINE
  5
6B6
100
AcDbEntity
  8
0
  6
CONTINUOUS
 62
           7
100
AcDbLine
 10
-618.17385924176
 20
-1981.171035725799
 11
-618.17385924176
 21
-2031.171035725799
  0
LINE
  5
6B5
100
AcDbEntity
  8
0
  6
CONTINUOUS
 62
           7
100
AcDbLine
 10
-615.17385924176
 20
-1981.171035725799
 11
-605.17385924176
 21
-1981.171035725799
  0
LINE
  5
6B4
100
AcDbEntity
  8
0
  6
CONTINUOUS
 62
           7
100
AcDbLine
 10
-615.17385924176
 20
-1981.171035725799
 11
-615.17385924176
 21
-2031.171035725799
  0
LINE
  5
6B3
100
AcDbEntity
  8
0
  6
CONTINUOUS
 62
           7
100
AcDbLine
 10
-615.17385924176
 20
-2031.171035725799
 11
-605.17385924176
 21
-2031.171035725799
  0
LINE
  5
6B2
100
AcDbEntity
  8
0
  6
CONTINUOUS
 62
           7
100
AcDbLine
 10
-605.17385924176
 20
-1981.171035725799
 11
-605.17385924176
 21
-2031.171035725799
  0
LINE
  5
6B1
100
AcDbEntity
  8
0
  6
CONTINUOUS
 62
           7
100
AcDbLine
 10
-602.17385924176
 20
-1981.171035725799
 11
-592.17385924176
 21
-1981.171035725799
  0
LINE
  5
6B0
100
AcDbEntity
  8
0
  6
CONTINUOUS
 62
           7
100
AcDbLine
 10
-602.17385924176
 20
-1981.171035725799
 11
-602.17385924176
 21
-2031.171035725799
  0
LINE
  5
6AF
100
AcDbEntity
  8
0
  6
CONTINUOUS
 62
           7
100
AcDbLine
 10
-602.17385924176
 20
-2031.171035725799
 11
-592.17385924176
 21
-2031.171035725799
  0
LINE
  5
6AE
100
AcDbEntity
  8
0
  6
CONTINUOUS
 62
           7
100
AcDbLine
 10
-592.17385924176
 20
-1981.171035725799
 11
-592.17385924176
 21
-2031.171035725799
  0
LINE
  5
6AD
100
AcDbEntity
  8
0
  6
CONTINUOUS
 62
           7
100
AcDbLine
 10
-589.17385924176
 20
-1981.171035725799
 11
-579.173859241761
 21
-1981.171035725799
  0
LINE
  5
6AC
100
AcDbEntity
  8
0
  6
CONTINUOUS
 62
           7
100
AcDbLine
 10
-589.17385924176
 20
-1981.171035725799
 11
-589.17385924176
 21
-2031.171035725799
  0
LINE
  5
6AB
100
AcDbEntity
  8
0
  6
CONTINUOUS
 62
           7
100
AcDbLine
 10
-589.17385924176
 20
-2031.171035725799
 11
-579.173859241761
 21
-2031.171035725799
  0
LINE
  5
6AA
100
AcDbEntity
  8
0
  6
CONTINUOUS
 62
           7
100
AcDbLine
 10
-579.173859241761
 20
-1981.171035725799
 11
-579.173859241761
 21
-2031.171035725799
  0
LINE
  5
6A9
100
AcDbEntity
  8
0
  6
CONTINUOUS
 62
           7
100
AcDbLine
 10
-576.17385924176
 20
-1981.171035725799
 11
-566.17385924176
 21
-1981.171035725799
  0
LINE
  5
6A8
100
AcDbEntity
  8
0
  6
CONTINUOUS
 62
           7
100
AcDbLine
 10
-576.17385924176
 20
-1981.171035725799
 11
-576.17385924176
 21
-2031.171035725799
  0
LINE
  5
6A7
100
AcDbEntity
  8
0
  6
CONTINUOUS
 62
           7
100
AcDbLine
 10
-576.17385924176
 20
-2031.171035725799
 11
-566.17385924176
 21
-2031.171035725799
  0
LINE
  5
6A6
100
AcDbEntity
  8
0
  6
CONTINUOUS
 62
           7
100
AcDbLine
 10
-566.17385924176
 20
-1981.171035725799
 11
-566.17385924176
 21
-2031.171035725799
  0
LINE
  5
6A5
100
AcDbEntity
  8
0
  6
CONTINUOUS
 62
           7
100
AcDbLine
 10
-563.17385924176
 20
-2031.171035725799
 11
-553.17385924176
 21
-2031.171035725799
  0
LINE
  5
6A4
100
AcDbEntity
  8
0
  6
CONTINUOUS
 62
           7
100
AcDbLine
 10
-563.17385924176
 20
-1981.171035725799
 11
-553.17385924176
 21
-1981.171035725799
  0
LINE
  5
6A3
100
AcDbEntity
  8
0
  6
CONTINUOUS
 62
           7
100
AcDbLine
 10
-563.17385924176
 20
-1981.171035725799
 11
-563.17385924176
 21
-2031.171035725799
  0
LINE
  5
6A2
100
AcDbEntity
  8
0
  6
CONTINUOUS
 62
           7
100
AcDbLine
 10
-553.17385924176
 20
-1981.171035725799
 11
-553.17385924176
 21
-2031.171035725799
  0
LINE
  5
6A1
100
AcDbEntity
  8
0
  6
CONTINUOUS
 62
           7
100
AcDbLine
 10
-550.17385924176
 20
-1981.171035725799
 11
-540.17385924176
 21
-1981.171035725799
  0
LINE
  5
6A0
100
AcDbEntity
  8
0
  6
CONTINUOUS
 62
           7
100
AcDbLine
 10
-550.17385924176
 20
-1981.171035725799
 11
-550.17385924176
 21
-2031.171035725799
  0
LINE
  5
69F
100
AcDbEntity
  8
0
  6
CONTINUOUS
 62
           7
100
AcDbLine
 10
-550.17385924176
 20
-2031.171035725799
 11
-540.17385924176
 21
-2031.171035725799
  0
LINE
  5
69E
100
AcDbEntity
  8
0
  6
CONTINUOUS
 62
           7
100
AcDbLine
 10
-540.17385924176
 20
-1981.171035725799
 11
-540.17385924176
 21
-2031.171035725799
  0
LINE
  5
69D
100
AcDbEntity
  8
0
  6
CONTINUOUS
 62
           7
100
AcDbLine
 10
-537.17385924176
 20
-1981.171035725799
 11
-527.17385924176
 21
-1981.171035725799
  0
LINE
  5
69C
100
AcDbEntity
  8
0
  6
CONTINUOUS
 62
           7
100
AcDbLine
 10
-537.17385924176
 20
-1981.171035725799
 11
-537.17385924176
 21
-2031.171035725799
  0
LINE
  5
69B
100
AcDbEntity
  8
0
  6
CONTINUOUS
 62
           7
100
AcDbLine
 10
-537.17385924176
 20
-2031.171035725799
 11
-527.17385924176
 21
-2031.171035725799
  0
LINE
  5
69A
100
AcDbEntity
  8
0
  6
CONTINUOUS
 62
           7
100
AcDbLine
 10
-527.17385924176
 20
-1981.171035725799
 11
-527.17385924176
 21
-2031.171035725799
  0
LINE
  5
699
100
AcDbEntity
  8
0
  6
CONTINUOUS
 62
           7
100
AcDbLine
 10
-914.17385924176
 20
-2041.1710357258
 11
-904.17385924176
 21
-2041.171035725799
  0
LINE
  5
698
100
AcDbEntity
  8
0
  6
CONTINUOUS
 62
           7
100
AcDbLine
 10
-914.17385924176
 20
-2041.1710357258
 11
-914.17385924176
 21
-2091.171035725799
  0
LINE
  5
697
100
AcDbEntity
  8
0
  6
CONTINUOUS
 62
           7
100
AcDbLine
 10
-914.17385924176
 20
-2091.171035725799
 11
-904.17385924176
 21
-2091.171035725799
  0
LINE
  5
696
100
AcDbEntity
  8
0
  6
CONTINUOUS
 62
           7
100
AcDbLine
 10
-904.17385924176
 20
-2041.171035725799
 11
-904.17385924176
 21
-2091.171035725799
  0
LINE
  5
695
100
AcDbEntity
  8
0
  6
CONTINUOUS
 62
           7
100
AcDbLine
 10
-901.17385924176
 20
-2041.1710357258
 11
-891.173859241761
 21
-2041.171035725799
  0
LINE
  5
694
100
AcDbEntity
  8
0
  6
CONTINUOUS
 62
           7
100
AcDbLine
 10
-901.17385924176
 20
-2041.1710357258
 11
-901.173859241761
 21
-2091.171035725799
  0
LINE
  5
693
100
AcDbEntity
  8
0
  6
CONTINUOUS
 62
           7
100
AcDbLine
 10
-901.173859241761
 20
-2091.171035725799
 11
-891.173859241761
 21
-2091.171035725799
  0
LINE
  5
692
100
AcDbEntity
  8
0
  6
CONTINUOUS
 62
           7
100
AcDbLine
 10
-891.173859241761
 20
-2041.171035725799
 11
-891.173859241761
 21
-2091.171035725799
  0
LINE
  5
691
100
AcDbEntity
  8
0
  6
CONTINUOUS
 62
           7
100
AcDbLine
 10
-888.173859241761
 20
-2091.171035725799
 11
-878.17385924176
 21
-2091.171035725799
  0
LINE
  5
690
100
AcDbEntity
  8
0
  6
CONTINUOUS
 62
           7
100
AcDbLine
 10
-888.17385924176
 20
-2041.1710357258
 11
-878.17385924176
 21
-2041.171035725799
  0
LINE
  5
68F
100
AcDbEntity
  8
0
  6
CONTINUOUS
 62
           7
100
AcDbLine
 10
-888.17385924176
 20
-2041.1710357258
 11
-888.173859241761
 21
-2091.171035725799
  0
LINE
  5
68E
100
AcDbEntity
  8
0
  6
CONTINUOUS
 62
           7
100
AcDbLine
 10
-878.17385924176
 20
-2041.171035725799
 11
-878.17385924176
 21
-2091.171035725799
  0
LINE
  5
68D
100
AcDbEntity
  8
0
  6
CONTINUOUS
 62
           7
100
AcDbLine
 10
-875.17385924176
 20
-2041.1710357258
 11
-865.17385924176
 21
-2041.171035725799
  0
LINE
  5
68C
100
AcDbEntity
  8
0
  6
CONTINUOUS
 62
           7
100
AcDbLine
 10
-875.17385924176
 20
-2041.1710357258
 11
-875.17385924176
 21
-2091.171035725799
  0
LINE
  5
68B
100
AcDbEntity
  8
0
  6
CONTINUOUS
 62
           7
100
AcDbLine
 10
-875.17385924176
 20
-2091.171035725799
 11
-865.17385924176
 21
-2091.171035725799
  0
LINE
  5
68A
100
AcDbEntity
  8
0
  6
CONTINUOUS
 62
           7
100
AcDbLine
 10
-865.17385924176
 20
-2041.171035725799
 11
-865.17385924176
 21
-2091.171035725799
  0
LINE
  5
689
100
AcDbEntity
  8
0
  6
CONTINUOUS
 62
           7
100
AcDbLine
 10
-862.17385924176
 20
-2041.1710357258
 11
-852.17385924176
 21
-2041.171035725799
  0
LINE
  5
688
100
AcDbEntity
  8
0
  6
CONTINUOUS
 62
           7
100
AcDbLine
 10
-862.17385924176
 20
-2041.1710357258
 11
-862.17385924176
 21
-2091.171035725799
  0
LINE
  5
687
100
AcDbEntity
  8
0
  6
CONTINUOUS
 62
           7
100
AcDbLine
 10
-862.17385924176
 20
-2091.171035725799
 11
-852.17385924176
 21
-2091.171035725799
  0
LINE
  5
686
100
AcDbEntity
  8
0
  6
CONTINUOUS
 62
           7
100
AcDbLine
 10
-852.17385924176
 20
-2041.171035725799
 11
-852.17385924176
 21
-2091.171035725799
  0
LINE
  5
685
100
AcDbEntity
  8
0
  6
CONTINUOUS
 62
           7
100
AcDbLine
 10
-849.17385924176
 20
-2041.1710357258
 11
-839.173859241761
 21
-2041.171035725799
  0
LINE
  5
684
100
AcDbEntity
  8
0
  6
CONTINUOUS
 62
           7
100
AcDbLine
 10
-849.17385924176
 20
-2041.1710357258
 11
-849.17385924176
 21
-2091.171035725799
  0
LINE
  5
683
100
AcDbEntity
  8
0
  6
CONTINUOUS
 62
           7
100
AcDbLine
 10
-849.17385924176
 20
-2091.171035725799
 11
-839.173859241761
 21
-2091.171035725799
  0
LINE
  5
682
100
AcDbEntity
  8
0
  6
CONTINUOUS
 62
           7
100
AcDbLine
 10
-839.173859241761
 20
-2041.171035725799
 11
-839.173859241761
 21
-2091.171035725799
  0
LINE
  5
681
100
AcDbEntity
  8
0
  6
CONTINUOUS
 62
           7
100
AcDbLine
 10
-836.17385924176
 20
-2041.1710357258
 11
-826.173859241761
 21
-2041.171035725799
  0
LINE
  5
680
100
AcDbEntity
  8
0
  6
CONTINUOUS
 62
           7
100
AcDbLine
 10
-836.17385924176
 20
-2041.1710357258
 11
-836.173859241761
 21
-2091.171035725799
  0
LINE
  5
67F
100
AcDbEntity
  8
0
  6
CONTINUOUS
 62
           7
100
AcDbLine
 10
-836.173859241761
 20
-2091.171035725799
 11
-826.173859241761
 21
-2091.171035725799
  0
LINE
  5
67E
100
AcDbEntity
  8
0
  6
CONTINUOUS
 62
           7
100
AcDbLine
 10
-826.173859241761
 20
-2041.171035725799
 11
-826.173859241761
 21
-2091.171035725799
  0
LINE
  5
67D
100
AcDbEntity
  8
0
  6
CONTINUOUS
 62
           7
100
AcDbLine
 10
-823.173859241761
 20
-2091.171035725799
 11
-813.17385924176
 21
-2091.171035725799
  0
LINE
  5
67C
100
AcDbEntity
  8
0
  6
CONTINUOUS
 62
           7
100
AcDbLine
 10
-823.17385924176
 20
-2041.1710357258
 11
-813.17385924176
 21
-2041.171035725799
  0
LINE
  5
67B
100
AcDbEntity
  8
0
  6
CONTINUOUS
 62
           7
100
AcDbLine
 10
-823.17385924176
 20
-2041.1710357258
 11
-823.173859241761
 21
-2091.171035725799
  0
LINE
  5
67A
100
AcDbEntity
  8
0
  6
CONTINUOUS
 62
           7
100
AcDbLine
 10
-813.17385924176
 20
-2041.171035725799
 11
-813.17385924176
 21
-2091.171035725799
  0
LINE
  5
679
100
AcDbEntity
  8
0
  6
CONTINUOUS
 62
           7
100
AcDbLine
 10
-810.17385924176
 20
-2041.1710357258
 11
-800.17385924176
 21
-2041.171035725799
  0
LINE
  5
678
100
AcDbEntity
  8
0
  6
CONTINUOUS
 62
           7
100
AcDbLine
 10
-810.17385924176
 20
-2041.1710357258
 11
-810.17385924176
 21
-2091.171035725799
  0
LINE
  5
677
100
AcDbEntity
  8
0
  6
CONTINUOUS
 62
           7
100
AcDbLine
 10
-810.17385924176
 20
-2091.171035725799
 11
-800.17385924176
 21
-2091.171035725799
  0
LINE
  5
676
100
AcDbEntity
  8
0
  6
CONTINUOUS
 62
           7
100
AcDbLine
 10
-800.17385924176
 20
-2041.171035725799
 11
-800.17385924176
 21
-2091.171035725799
  0
LINE
  5
675
100
AcDbEntity
  8
0
  6
CONTINUOUS
 62
           7
100
AcDbLine
 10
-797.17385924176
 20
-2041.1710357258
 11
-787.17385924176
 21
-2041.171035725799
  0
LINE
  5
674
100
AcDbEntity
  8
0
  6
CONTINUOUS
 62
           7
100
AcDbLine
 10
-797.17385924176
 20
-2041.1710357258
 11
-797.17385924176
 21
-2091.171035725799
  0
LINE
  5
673
100
AcDbEntity
  8
0
  6
CONTINUOUS
 62
           7
100
AcDbLine
 10
-797.17385924176
 20
-2091.171035725799
 11
-787.17385924176
 21
-2091.171035725799
  0
LINE
  5
672
100
AcDbEntity
  8
0
  6
CONTINUOUS
 62
           7
100
AcDbLine
 10
-787.17385924176
 20
-2041.171035725799
 11
-787.17385924176
 21
-2091.171035725799
  0
LINE
  5
671
100
AcDbEntity
  8
0
  6
CONTINUOUS
 62
           7
100
AcDbLine
 10
-784.17385924176
 20
-2041.1710357258
 11
-774.17385924176
 21
-2041.171035725799
  0
LINE
  5
670
100
AcDbEntity
  8
0
  6
CONTINUOUS
 62
           7
100
AcDbLine
 10
-784.17385924176
 20
-2041.1710357258
 11
-784.17385924176
 21
-2091.171035725799
  0
LINE
  5
66F
100
AcDbEntity
  8
0
  6
CONTINUOUS
 62
           7
100
AcDbLine
 10
-784.17385924176
 20
-2091.171035725799
 11
-774.17385924176
 21
-2091.171035725799
  0
LINE
  5
66E
100
AcDbEntity
  8
0
  6
CONTINUOUS
 62
           7
100
AcDbLine
 10
-774.17385924176
 20
-2041.171035725799
 11
-774.17385924176
 21
-2091.171035725799
  0
LINE
  5
66D
100
AcDbEntity
  8
0
  6
CONTINUOUS
 62
           7
100
AcDbLine
 10
-771.17385924176
 20
-2041.1710357258
 11
-761.17385924176
 21
-2041.171035725799
  0
LINE
  5
66C
100
AcDbEntity
  8
0
  6
CONTINUOUS
 62
           7
100
AcDbLine
 10
-771.17385924176
 20
-2041.1710357258
 11
-771.17385924176
 21
-2091.171035725799
  0
LINE
  5
66B
100
AcDbEntity
  8
0
  6
CONTINUOUS
 62
           7
100
AcDbLine
 10
-771.17385924176
 20
-2091.171035725799
 11
-761.17385924176
 21
-2091.171035725799
  0
LINE
  5
66A
100
AcDbEntity
  8
0
  6
CONTINUOUS
 62
           7
100
AcDbLine
 10
-761.17385924176
 20
-2041.171035725799
 11
-761.17385924176
 21
-2091.171035725799
  0
LINE
  5
669
100
AcDbEntity
  8
0
  6
CONTINUOUS
 62
           7
100
AcDbLine
 10
-758.17385924176
 20
-2091.171035725799
 11
-748.17385924176
 21
-2091.171035725799
  0
LINE
  5
668
100
AcDbEntity
  8
0
  6
CONTINUOUS
 62
           7
100
AcDbLine
 10
-758.17385924176
 20
-2041.1710357258
 11
-748.17385924176
 21
-2041.171035725799
  0
LINE
  5
667
100
AcDbEntity
  8
0
  6
CONTINUOUS
 62
           7
100
AcDbLine
 10
-758.17385924176
 20
-2041.1710357258
 11
-758.17385924176
 21
-2091.171035725799
  0
LINE
  5
666
100
AcDbEntity
  8
0
  6
CONTINUOUS
 62
           7
100
AcDbLine
 10
-748.17385924176
 20
-2041.171035725799
 11
-748.17385924176
 21
-2091.171035725799
  0
LINE
  5
665
100
AcDbEntity
  8
0
  6
CONTINUOUS
 62
           7
100
AcDbLine
 10
-745.17385924176
 20
-2041.1710357258
 11
-735.17385924176
 21
-2041.171035725799
  0
LINE
  5
664
100
AcDbEntity
  8
0
  6
CONTINUOUS
 62
           7
100
AcDbLine
 10
-745.17385924176
 20
-2041.1710357258
 11
-745.17385924176
 21
-2091.171035725799
  0
LINE
  5
663
100
AcDbEntity
  8
0
  6
CONTINUOUS
 62
           7
100
AcDbLine
 10
-745.17385924176
 20
-2091.171035725799
 11
-735.17385924176
 21
-2091.171035725799
  0
LINE
  5
662
100
AcDbEntity
  8
0
  6
CONTINUOUS
 62
           7
100
AcDbLine
 10
-735.17385924176
 20
-2041.171035725799
 11
-735.17385924176
 21
-2091.171035725799
  0
LINE
  5
661
100
AcDbEntity
  8
0
  6
CONTINUOUS
 62
           7
100
AcDbLine
 10
-732.17385924176
 20
-2041.1710357258
 11
-722.17385924176
 21
-2041.171035725799
  0
LINE
  5
660
100
AcDbEntity
  8
0
  6
CONTINUOUS
 62
           7
100
AcDbLine
 10
-732.17385924176
 20
-2041.1710357258
 11
-732.17385924176
 21
-2091.171035725799
  0
LINE
  5
65F
100
AcDbEntity
  8
0
  6
CONTINUOUS
 62
           7
100
AcDbLine
 10
-732.17385924176
 20
-2091.171035725799
 11
-722.17385924176
 21
-2091.171035725799
  0
LINE
  5
65E
100
AcDbEntity
  8
0
  6
CONTINUOUS
 62
           7
100
AcDbLine
 10
-722.17385924176
 20
-2041.171035725799
 11
-722.17385924176
 21
-2091.171035725799
  0
LINE
  5
65D
100
AcDbEntity
  8
0
  6
CONTINUOUS
 62
           7
100
AcDbLine
 10
-719.17385924176
 20
-2041.1710357258
 11
-709.17385924176
 21
-2041.171035725799
  0
LINE
  5
65C
100
AcDbEntity
  8
0
  6
CONTINUOUS
 62
           7
100
AcDbLine
 10
-719.17385924176
 20
-2041.1710357258
 11
-719.17385924176
 21
-2091.171035725799
  0
LINE
  5
65B
100
AcDbEntity
  8
0
  6
CONTINUOUS
 62
           7
100
AcDbLine
 10
-719.17385924176
 20
-2091.171035725799
 11
-709.17385924176
 21
-2091.171035725799
  0
LINE
  5
65A
100
AcDbEntity
  8
0
  6
CONTINUOUS
 62
           7
100
AcDbLine
 10
-709.17385924176
 20
-2041.171035725799
 11
-709.17385924176
 21
-2091.171035725799
  0
LINE
  5
659
100
AcDbEntity
  8
0
  6
CONTINUOUS
 62
           7
100
AcDbLine
 10
-706.17385924176
 20
-2041.1710357258
 11
-696.17385924176
 21
-2041.171035725799
  0
LINE
  5
658
100
AcDbEntity
  8
0
  6
CONTINUOUS
 62
           7
100
AcDbLine
 10
-706.17385924176
 20
-2041.1710357258
 11
-706.17385924176
 21
-2091.171035725799
  0
LINE
  5
657
100
AcDbEntity
  8
0
  6
CONTINUOUS
 62
           7
100
AcDbLine
 10
-706.17385924176
 20
-2091.171035725799
 11
-696.17385924176
 21
-2091.171035725799
  0
LINE
  5
656
100
AcDbEntity
  8
0
  6
CONTINUOUS
 62
           7
100
AcDbLine
 10
-696.17385924176
 20
-2041.171035725799
 11
-696.17385924176
 21
-2091.171035725799
  0
LINE
  5
655
100
AcDbEntity
  8
0
  6
CONTINUOUS
 62
           7
100
AcDbLine
 10
-693.173859241761
 20
-2091.171035725799
 11
-683.173859241761
 21
-2091.171035725799
  0
LINE
  5
654
100
AcDbEntity
  8
0
  6
CONTINUOUS
 62
           7
100
AcDbLine
 10
-693.173859241761
 20
-2041.1710357258
 11
-683.173859241761
 21
-2041.171035725799
  0
LINE
  5
653
100
AcDbEntity
  8
0
  6
CONTINUOUS
 62
           7
100
AcDbLine
 10
-693.173859241761
 20
-2041.1710357258
 11
-693.173859241761
 21
-2091.171035725799
  0
LINE
  5
652
100
AcDbEntity
  8
0
  6
CONTINUOUS
 62
           7
100
AcDbLine
 10
-683.173859241761
 20
-2041.171035725799
 11
-683.173859241761
 21
-2091.171035725799
  0
LINE
  5
651
100
AcDbEntity
  8
0
  6
CONTINUOUS
 62
           7
100
AcDbLine
 10
-680.17385924176
 20
-2041.1710357258
 11
-670.17385924176
 21
-2041.171035725799
  0
LINE
  5
650
100
AcDbEntity
  8
0
  6
CONTINUOUS
 62
           7
100
AcDbLine
 10
-680.17385924176
 20
-2041.1710357258
 11
-680.17385924176
 21
-2091.171035725799
  0
LINE
  5
64F
100
AcDbEntity
  8
0
  6
CONTINUOUS
 62
           7
100
AcDbLine
 10
-680.17385924176
 20
-2091.171035725799
 11
-670.17385924176
 21
-2091.171035725799
  0
LINE
  5
64E
100
AcDbEntity
  8
0
  6
CONTINUOUS
 62
           7
100
AcDbLine
 10
-670.17385924176
 20
-2041.171035725799
 11
-670.17385924176
 21
-2091.171035725799
  0
LINE
  5
64D
100
AcDbEntity
  8
0
  6
CONTINUOUS
 62
           7
100
AcDbLine
 10
-667.17385924176
 20
-2041.1710357258
 11
-657.17385924176
 21
-2041.171035725799
  0
LINE
  5
64C
100
AcDbEntity
  8
0
  6
CONTINUOUS
 62
           7
100
AcDbLine
 10
-667.17385924176
 20
-2041.1710357258
 11
-667.17385924176
 21
-2091.171035725799
  0
LINE
  5
64B
100
AcDbEntity
  8
0
  6
CONTINUOUS
 62
           7
100
AcDbLine
 10
-667.17385924176
 20
-2091.171035725799
 11
-657.17385924176
 21
-2091.171035725799
  0
LINE
  5
64A
100
AcDbEntity
  8
0
  6
CONTINUOUS
 62
           7
100
AcDbLine
 10
-657.17385924176
 20
-2041.171035725799
 11
-657.17385924176
 21
-2091.171035725799
  0
LINE
  5
649
100
AcDbEntity
  8
0
  6
CONTINUOUS
 62
           7
100
AcDbLine
 10
-654.17385924176
 20
-2041.1710357258
 11
-644.17385924176
 21
-2041.171035725799
  0
LINE
  5
648
100
AcDbEntity
  8
0
  6
CONTINUOUS
 62
           7
100
AcDbLine
 10
-654.17385924176
 20
-2041.1710357258
 11
-654.17385924176
 21
-2091.171035725799
  0
LINE
  5
647
100
AcDbEntity
  8
0
  6
CONTINUOUS
 62
           7
100
AcDbLine
 10
-654.17385924176
 20
-2091.171035725799
 11
-644.17385924176
 21
-2091.171035725799
  0
LINE
  5
646
100
AcDbEntity
  8
0
  6
CONTINUOUS
 62
           7
100
AcDbLine
 10
-644.17385924176
 20
-2041.171035725799
 11
-644.17385924176
 21
-2091.171035725799
  0
LINE
  5
645
100
AcDbEntity
  8
0
  6
CONTINUOUS
 62
           7
100
AcDbLine
 10
-641.17385924176
 20
-2041.1710357258
 11
-631.17385924176
 21
-2041.171035725799
  0
LINE
  5
644
100
AcDbEntity
  8
0
  6
CONTINUOUS
 62
           7
100
AcDbLine
 10
-641.17385924176
 20
-2041.1710357258
 11
-641.17385924176
 21
-2091.171035725799
  0
LINE
  5
643
100
AcDbEntity
  8
0
  6
CONTINUOUS
 62
           7
100
AcDbLine
 10
-641.17385924176
 20
-2091.171035725799
 11
-631.17385924176
 21
-2091.171035725799
  0
LINE
  5
642
100
AcDbEntity
  8
0
  6
CONTINUOUS
 62
           7
100
AcDbLine
 10
-631.17385924176
 20
-2041.171035725799
 11
-631.17385924176
 21
-2091.171035725799
  0
LINE
  5
641
100
AcDbEntity
  8
0
  6
CONTINUOUS
 62
           7
100
AcDbLine
 10
-628.17385924176
 20
-2091.171035725799
 11
-618.17385924176
 21
-2091.171035725799
  0
LINE
  5
640
100
AcDbEntity
  8
0
  6
CONTINUOUS
 62
           7
100
AcDbLine
 10
-628.17385924176
 20
-2041.1710357258
 11
-618.17385924176
 21
-2041.171035725799
  0
LINE
  5
63F
100
AcDbEntity
  8
0
  6
CONTINUOUS
 62
           7
100
AcDbLine
 10
-628.17385924176
 20
-2041.1710357258
 11
-628.17385924176
 21
-2091.171035725799
  0
LINE
  5
63E
100
AcDbEntity
  8
0
  6
CONTINUOUS
 62
           7
100
AcDbLine
 10
-618.17385924176
 20
-2041.171035725799
 11
-618.17385924176
 21
-2091.171035725799
  0
LINE
  5
63D
100
AcDbEntity
  8
0
  6
CONTINUOUS
 62
           7
100
AcDbLine
 10
-615.17385924176
 20
-2041.1710357258
 11
-605.17385924176
 21
-2041.171035725799
  0
LINE
  5
63C
100
AcDbEntity
  8
0
  6
CONTINUOUS
 62
           7
100
AcDbLine
 10
-615.17385924176
 20
-2041.1710357258
 11
-615.17385924176
 21
-2091.171035725799
  0
LINE
  5
63B
100
AcDbEntity
  8
0
  6
CONTINUOUS
 62
           7
100
AcDbLine
 10
-615.17385924176
 20
-2091.171035725799
 11
-605.17385924176
 21
-2091.171035725799
  0
LINE
  5
63A
100
AcDbEntity
  8
0
  6
CONTINUOUS
 62
           7
100
AcDbLine
 10
-605.17385924176
 20
-2041.171035725799
 11
-605.17385924176
 21
-2091.171035725799
  0
LINE
  5
639
100
AcDbEntity
  8
0
  6
CONTINUOUS
 62
           7
100
AcDbLine
 10
-602.17385924176
 20
-2041.1710357258
 11
-592.17385924176
 21
-2041.171035725799
  0
LINE
  5
638
100
AcDbEntity
  8
0
  6
CONTINUOUS
 62
           7
100
AcDbLine
 10
-602.17385924176
 20
-2041.1710357258
 11
-602.17385924176
 21
-2091.171035725799
  0
LINE
  5
637
100
AcDbEntity
  8
0
  6
CONTINUOUS
 62
           7
100
AcDbLine
 10
-602.17385924176
 20
-2091.171035725799
 11
-592.17385924176
 21
-2091.171035725799
  0
LINE
  5
636
100
AcDbEntity
  8
0
  6
CONTINUOUS
 62
           7
100
AcDbLine
 10
-592.17385924176
 20
-2041.171035725799
 11
-592.17385924176
 21
-2091.171035725799
  0
LINE
  5
635
100
AcDbEntity
  8
0
  6
CONTINUOUS
 62
           7
100
AcDbLine
 10
-589.17385924176
 20
-2041.171035725799
 11
-579.173859241761
 21
-2041.171035725799
  0
LINE
  5
634
100
AcDbEntity
  8
0
  6
CONTINUOUS
 62
           7
100
AcDbLine
 10
-589.17385924176
 20
-2041.171035725799
 11
-589.17385924176
 21
-2091.171035725799
  0
LINE
  5
633
100
AcDbEntity
  8
0
  6
CONTINUOUS
 62
           7
100
AcDbLine
 10
-589.17385924176
 20
-2091.171035725799
 11
-579.173859241761
 21
-2091.171035725799
  0
LINE
  5
632
100
AcDbEntity
  8
0
  6
CONTINUOUS
 62
           7
100
AcDbLine
 10
-579.173859241761
 20
-2041.171035725799
 11
-579.173859241761
 21
-2091.171035725799
  0
LINE
  5
631
100
AcDbEntity
  8
0
  6
CONTINUOUS
 62
           7
100
AcDbLine
 10
-576.17385924176
 20
-2041.171035725799
 11
-566.17385924176
 21
-2041.171035725799
  0
LINE
  5
630
100
AcDbEntity
  8
0
  6
CONTINUOUS
 62
           7
100
AcDbLine
 10
-576.17385924176
 20
-2041.171035725799
 11
-576.17385924176
 21
-2091.171035725799
  0
LINE
  5
62F
100
AcDbEntity
  8
0
  6
CONTINUOUS
 62
           7
100
AcDbLine
 10
-576.17385924176
 20
-2091.171035725799
 11
-566.17385924176
 21
-2091.171035725799
  0
LINE
  5
62E
100
AcDbEntity
  8
0
  6
CONTINUOUS
 62
           7
100
AcDbLine
 10
-566.17385924176
 20
-2041.171035725799
 11
-566.17385924176
 21
-2091.171035725799
  0
LINE
  5
62D
100
AcDbEntity
  8
0
  6
CONTINUOUS
 62
           7
100
AcDbLine
 10
-563.17385924176
 20
-2091.171035725799
 11
-553.17385924176
 21
-2091.171035725799
  0
LINE
  5
62C
100
AcDbEntity
  8
0
  6
CONTINUOUS
 62
           7
100
AcDbLine
 10
-563.17385924176
 20
-2041.171035725799
 11
-553.17385924176
 21
-2041.171035725799
  0
LINE
  5
62B
100
AcDbEntity
  8
0
  6
CONTINUOUS
 62
           7
100
AcDbLine
 10
-563.17385924176
 20
-2041.171035725799
 11
-563.17385924176
 21
-2091.171035725799
  0
LINE
  5
62A
100
AcDbEntity
  8
0
  6
CONTINUOUS
 62
           7
100
AcDbLine
 10
-553.17385924176
 20
-2041.171035725799
 11
-553.17385924176
 21
-2091.171035725799
  0
LINE
  5
629
100
AcDbEntity
  8
0
  6
CONTINUOUS
 62
           7
100
AcDbLine
 10
-550.17385924176
 20
-2041.171035725799
 11
-540.17385924176
 21
-2041.171035725799
  0
LINE
  5
628
100
AcDbEntity
  8
0
  6
CONTINUOUS
 62
           7
100
AcDbLine
 10
-550.17385924176
 20
-2041.171035725799
 11
-550.17385924176
 21
-2091.171035725799
  0
LINE
  5
627
100
AcDbEntity
  8
0
  6
CONTINUOUS
 62
           7
100
AcDbLine
 10
-550.17385924176
 20
-2091.171035725799
 11
-540.17385924176
 21
-2091.171035725799
  0
LINE
  5
626
100
AcDbEntity
  8
0
  6
CONTINUOUS
 62
           7
100
AcDbLine
 10
-540.17385924176
 20
-2041.171035725799
 11
-540.17385924176
 21
-2091.171035725799
  0
LINE
  5
625
100
AcDbEntity
  8
0
  6
CONTINUOUS
 62
           7
100
AcDbLine
 10
-537.17385924176
 20
-2041.171035725799
 11
-527.17385924176
 21
-2041.171035725799
  0
LINE
  5
624
100
AcDbEntity
  8
0
  6
CONTINUOUS
 62
           7
100
AcDbLine
 10
-537.17385924176
 20
-2041.171035725799
 11
-537.17385924176
 21
-2091.171035725799
  0
LINE
  5
623
100
AcDbEntity
  8
0
  6
CONTINUOUS
 62
           7
100
AcDbLine
 10
-537.17385924176
 20
-2091.171035725799
 11
-527.17385924176
 21
-2091.171035725799
  0
LINE
  5
622
100
AcDbEntity
  8
0
  6
CONTINUOUS
 62
           7
100
AcDbLine
 10
-527.17385924176
 20
-2041.171035725799
 11
-527.17385924176
 21
-2091.171035725799
  0
POINT
  5
621
100
AcDbEntity
  8
0
 62
           6
100
AcDbPoint
 10
-914.17385924176
 20
-1801.171035725799
  0
POINT
  5
620
100
AcDbEntity
  8
0
 62
           6
100
AcDbPoint
 10
-914.17385924176
 20
-1801.171035725799
  0
POINT
  5
61F
100
AcDbEntity
  8
0
 62
           6
100
AcDbPoint
 10
-720.67385924176
 20
-1946.171035725799
  0
POINT
  5
61E
100
AcDbEntity
  8
0
 62
           6
100
AcDbPoint
 10
-862.17385924176
 20
-2031.171035725799
  0
POINT
  5
61D
100
AcDbEntity
  8
0
 62
           6
100
AcDbPoint
 10
-862.17385924176
 20
-2031.171035725799
  0
POINT
  5
61C
100
AcDbEntity
  8
0
 62
           6
100
AcDbPoint
 10
-862.17385924176
 20
-1981.171035725799
  0
POINT
  5
61B
100
AcDbEntity
  8
0
 62
           6
100
AcDbPoint
 10
-852.17385924176
 20
-1981.171035725799
  0
POINT
  5
61A
100
AcDbEntity
  8
0
 62
           6
100
AcDbPoint
 10
-865.17385924176
 20
-1981.171035725799
  0
POINT
  5
619
100
AcDbEntity
  8
0
 62
           6
100
AcDbPoint
 10
-862.17385924176
 20
-1981.171035725799
  0
POINT
  5
618
100
AcDbEntity
  8
0
 62
           6
100
AcDbPoint
 10
-865.17385924176
 20
-2031.171035725799
  0
POINT
  5
617
100
AcDbEntity
  8
0
 62
           6
100
AcDbPoint
 10
-865.17385924176
 20
-2031.171035725799
  0
POINT
  5
616
100
AcDbEntity
  8
0
 62
           6
100
AcDbPoint
 10
-875.17385924176
 20
-1981.171035725799
  0
POINT
  5
615
100
AcDbEntity
  8
0
 62
           6
100
AcDbPoint
 10
-875.17385924176
 20
-2031.171035725799
  0
POINT
  5
614
100
AcDbEntity
  8
0
 62
           6
100
AcDbPoint
 10
-875.17385924176
 20
-2031.171035725799
  0
POINT
  5
613
100
AcDbEntity
  8
0
 62
           6
100
AcDbPoint
 10
-875.17385924176
 20
-1981.171035725799
  0
POINT
  5
612
100
AcDbEntity
  8
0
 62
           6
100
AcDbPoint
 10
-865.17385924176
 20
-1981.171035725799
  0
POINT
  5
611
100
AcDbEntity
  8
0
 62
           6
100
AcDbPoint
 10
-878.17385924176
 20
-2031.171035725799
  0
POINT
  5
610
100
AcDbEntity
  8
0
 62
           6
100
AcDbPoint
 10
-878.17385924176
 20
-2031.171035725799
  0
POINT
  5
60F
100
AcDbEntity
  8
0
 62
           6
100
AcDbPoint
 10
-878.17385924176
 20
-1981.171035725799
  0
POINT
  5
60E
100
AcDbEntity
  8
0
 62
           6
100
AcDbPoint
 10
-888.17385924176
 20
-2031.171035725799
  0
POINT
  5
60D
100
AcDbEntity
  8
0
 62
           6
100
AcDbPoint
 10
-888.17385924176
 20
-1981.171035725799
  0
POINT
  5
60C
100
AcDbEntity
  8
0
 62
           6
100
AcDbPoint
 10
-878.17385924176
 20
-1981.171035725799
  0
POINT
  5
60B
100
AcDbEntity
  8
0
 62
           6
100
AcDbPoint
 10
-888.17385924176
 20
-1981.171035725799
  0
POINT
  5
60A
100
AcDbEntity
  8
0
 62
           6
100
AcDbPoint
 10
-888.17385924176
 20
-2031.171035725799
  0
POINT
  5
609
100
AcDbEntity
  8
0
 62
           6
100
AcDbPoint
 10
-901.17385924176
 20
-2031.171035725799
  0
POINT
  5
608
100
AcDbEntity
  8
0
 62
           6
100
AcDbPoint
 10
-891.17385924176
 20
-2031.171035725799
  0
POINT
  5
607
100
AcDbEntity
  8
0
 62
           6
100
AcDbPoint
 10
-891.17385924176
 20
-1981.171035725799
  0
POINT
  5
606
100
AcDbEntity
  8
0
 62
           6
100
AcDbPoint
 10
-891.17385924176
 20
-2031.171035725799
  0
POINT
  5
605
100
AcDbEntity
  8
0
 62
           6
100
AcDbPoint
 10
-901.17385924176
 20
-2031.171035725799
  0
POINT
  5
604
100
AcDbEntity
  8
0
 62
           6
100
AcDbPoint
 10
-901.17385924176
 20
-1981.171035725799
  0
POINT
  5
603
100
AcDbEntity
  8
0
 62
           6
100
AcDbPoint
 10
-891.17385924176
 20
-1981.171035725799
  0
POINT
  5
602
100
AcDbEntity
  8
0
 62
           6
100
AcDbPoint
 10
-901.17385924176
 20
-1981.171035725799
  0
POINT
  5
601
100
AcDbEntity
  8
0
 62
           6
100
AcDbPoint
 10
-904.17385924176
 20
-2031.171035725799
  0
POINT
  5
600
100
AcDbEntity
  8
0
 62
           6
100
AcDbPoint
 10
-904.17385924176
 20
-1981.171035725799
  0
POINT
  5
5FF
100
AcDbEntity
  8
0
 62
           6
100
AcDbPoint
 10
-904.17385924176
 20
-2031.171035725799
  0
POINT
  5
5FE
100
AcDbEntity
  8
0
 62
           6
100
AcDbPoint
 10
-914.17385924176
 20
-2031.171035725799
  0
POINT
  5
5FD
100
AcDbEntity
  8
0
 62
           6
100
AcDbPoint
 10
-914.17385924176
 20
-2031.171035725799
  0
POINT
  5
5FC
100
AcDbEntity
  8
0
 62
           6
100
AcDbPoint
 10
-914.17385924176
 20
-1981.171035725799
  0
POINT
  5
5FB
100
AcDbEntity
  8
0
 62
           6
100
AcDbPoint
 10
-904.17385924176
 20
-1981.171035725799
  0
POINT
  5
5FA
100
AcDbEntity
  8
0
 62
           6
100
AcDbPoint
 10
-914.17385924176
 20
-1981.171035725799
  0
POINT
  5
5F9
100
AcDbEntity
  8
0
 62
           6
100
AcDbPoint
 10
-527.17385924176
 20
-1971.171035725799
  0
POINT
  5
5F8
100
AcDbEntity
  8
0
 62
           6
100
AcDbPoint
 10
-537.17385924176
 20
-1921.171035725799
  0
POINT
  5
5F7
100
AcDbEntity
  8
0
 62
           6
100
AcDbPoint
 10
-527.17385924176
 20
-1921.171035725799
  0
POINT
  5
5F6
100
AcDbEntity
  8
0
 62
           6
100
AcDbPoint
 10
-527.17385924176
 20
-1971.171035725799
  0
POINT
  5
5F5
100
AcDbEntity
  8
0
 62
           6
100
AcDbPoint
 10
-537.17385924176
 20
-1971.171035725799
  0
POINT
  5
5F4
100
AcDbEntity
  8
0
 62
           6
100
AcDbPoint
 10
-537.17385924176
 20
-1971.171035725799
  0
POINT
  5
5F3
100
AcDbEntity
  8
0
 62
           6
100
AcDbPoint
 10
-527.17385924176
 20
-1921.171035725799
  0
POINT
  5
5F2
100
AcDbEntity
  8
0
 62
           6
100
AcDbPoint
 10
-537.17385924176
 20
-1921.171035725799
  0
POINT
  5
5F1
100
AcDbEntity
  8
0
 62
           6
100
AcDbPoint
 10
-540.17385924176
 20
-1971.171035725799
  0
POINT
  5
5F0
100
AcDbEntity
  8
0
 62
           6
100
AcDbPoint
 10
-540.17385924176
 20
-1921.171035725799
  0
POINT
  5
5EF
100
AcDbEntity
  8
0
 62
           6
100
AcDbPoint
 10
-540.17385924176
 20
-1971.171035725799
  0
POINT
  5
5EE
100
AcDbEntity
  8
0
 62
           6
100
AcDbPoint
 10
-550.17385924176
 20
-1971.171035725799
  0
POINT
  5
5ED
100
AcDbEntity
  8
0
 62
           6
100
AcDbPoint
 10
-550.17385924176
 20
-1971.171035725799
  0
POINT
  5
5EC
100
AcDbEntity
  8
0
 62
           6
100
AcDbPoint
 10
-550.17385924176
 20
-1921.171035725799
  0
POINT
  5
5EB
100
AcDbEntity
  8
0
 62
           6
100
AcDbPoint
 10
-540.17385924176
 20
-1921.171035725799
  0
POINT
  5
5EA
100
AcDbEntity
  8
0
 62
           6
100
AcDbPoint
 10
-550.17385924176
 20
-1921.171035725799
  0
POINT
  5
5E9
100
AcDbEntity
  8
0
 62
           6
100
AcDbPoint
 10
-553.17385924176
 20
-1971.171035725799
  0
POINT
  5
5E8
100
AcDbEntity
  8
0
 62
           6
100
AcDbPoint
 10
-553.17385924176
 20
-1921.171035725799
  0
POINT
  5
5E7
100
AcDbEntity
  8
0
 62
           6
100
AcDbPoint
 10
-563.17385924176
 20
-1971.171035725799
  0
POINT
  5
5E6
100
AcDbEntity
  8
0
 62
           6
100
AcDbPoint
 10
-563.17385924176
 20
-1921.171035725799
  0
POINT
  5
5E5
100
AcDbEntity
  8
0
 62
           6
100
AcDbPoint
 10
-553.17385924176
 20
-1921.171035725799
  0
POINT
  5
5E4
100
AcDbEntity
  8
0
 62
           6
100
AcDbPoint
 10
-563.17385924176
 20
-1921.171035725799
  0
POINT
  5
5E3
100
AcDbEntity
  8
0
 62
           6
100
AcDbPoint
 10
-553.17385924176
 20
-1971.171035725799
  0
POINT
  5
5E2
100
AcDbEntity
  8
0
 62
           6
100
AcDbPoint
 10
-563.17385924176
 20
-1971.171035725799
  0
POINT
  5
5E1
100
AcDbEntity
  8
0
 62
           6
100
AcDbPoint
 10
-566.17385924176
 20
-1971.171035725799
  0
POINT
  5
5E0
100
AcDbEntity
  8
0
 62
           6
100
AcDbPoint
 10
-566.17385924176
 20
-1921.171035725799
  0
POINT
  5
5DF
100
AcDbEntity
  8
0
 62
           6
100
AcDbPoint
 10
-566.17385924176
 20
-1971.171035725799
  0
POINT
  5
5DE
100
AcDbEntity
  8
0
 62
           6
100
AcDbPoint
 10
-576.17385924176
 20
-1971.171035725799
  0
POINT
  5
5DD
100
AcDbEntity
  8
0
 62
           6
100
AcDbPoint
 10
-576.17385924176
 20
-1971.171035725799
  0
POINT
  5
5DC
100
AcDbEntity
  8
0
 62
           6
100
AcDbPoint
 10
-576.17385924176
 20
-1921.171035725799
  0
POINT
  5
5DB
100
AcDbEntity
  8
0
 62
           6
100
AcDbPoint
 10
-566.17385924176
 20
-1921.171035725799
  0
POINT
  5
5DA
100
AcDbEntity
  8
0
 62
           6
100
AcDbPoint
 10
-576.17385924176
 20
-1921.171035725799
  0
POINT
  5
5D9
100
AcDbEntity
  8
0
 62
           6
100
AcDbPoint
 10
-579.17385924176
 20
-1971.171035725799
  0
POINT
  5
5D8
100
AcDbEntity
  8
0
 62
           6
100
AcDbPoint
 10
-579.17385924176
 20
-1921.171035725799
  0
POINT
  5
5D7
100
AcDbEntity
  8
0
 62
           6
100
AcDbPoint
 10
-579.17385924176
 20
-1971.171035725799
  0
POINT
  5
5D6
100
AcDbEntity
  8
0
 62
           6
100
AcDbPoint
 10
-589.17385924176
 20
-1971.171035725799
  0
POINT
  5
5D5
100
AcDbEntity
  8
0
 62
           6
100
AcDbPoint
 10
-589.17385924176
 20
-1971.171035725799
  0
POINT
  5
5D4
100
AcDbEntity
  8
0
 62
           6
100
AcDbPoint
 10
-589.17385924176
 20
-1921.171035725799
  0
POINT
  5
5D3
100
AcDbEntity
  8
0
 62
           6
100
AcDbPoint
 10
-579.17385924176
 20
-1921.171035725799
  0
POINT
  5
5D2
100
AcDbEntity
  8
0
 62
           6
100
AcDbPoint
 10
-589.17385924176
 20
-1921.171035725799
  0
POINT
  5
5D1
100
AcDbEntity
  8
0
 62
           6
100
AcDbPoint
 10
-592.17385924176
 20
-1971.171035725799
  0
POINT
  5
5D0
100
AcDbEntity
  8
0
 62
           6
100
AcDbPoint
 10
-592.17385924176
 20
-1921.171035725799
  0
POINT
  5
5CF
100
AcDbEntity
  8
0
 62
           6
100
AcDbPoint
 10
-592.17385924176
 20
-1971.171035725799
  0
POINT
  5
5CE
100
AcDbEntity
  8
0
 62
           6
100
AcDbPoint
 10
-602.17385924176
 20
-1971.171035725799
  0
POINT
  5
5CD
100
AcDbEntity
  8
0
 62
           6
100
AcDbPoint
 10
-602.17385924176
 20
-1971.171035725799
  0
POINT
  5
5CC
100
AcDbEntity
  8
0
 62
           6
100
AcDbPoint
 10
-602.17385924176
 20
-1921.171035725799
  0
POINT
  5
5CB
100
AcDbEntity
  8
0
 62
           6
100
AcDbPoint
 10
-592.17385924176
 20
-1921.171035725799
  0
POINT
  5
5CA
100
AcDbEntity
  8
0
 62
           6
100
AcDbPoint
 10
-602.17385924176
 20
-1921.171035725799
  0
POINT
  5
5C9
100
AcDbEntity
  8
0
 62
           6
100
AcDbPoint
 10
-605.17385924176
 20
-1971.171035725799
  0
POINT
  5
5C8
100
AcDbEntity
  8
0
 62
           6
100
AcDbPoint
 10
-605.17385924176
 20
-1921.171035725799
  0
POINT
  5
5C7
100
AcDbEntity
  8
0
 62
           6
100
AcDbPoint
 10
-605.17385924176
 20
-1971.171035725799
  0
POINT
  5
5C6
100
AcDbEntity
  8
0
 62
           6
100
AcDbPoint
 10
-615.17385924176
 20
-1971.171035725799
  0
POINT
  5
5C5
100
AcDbEntity
  8
0
 62
           6
100
AcDbPoint
 10
-615.17385924176
 20
-1971.171035725799
  0
POINT
  5
5C4
100
AcDbEntity
  8
0
 62
           6
100
AcDbPoint
 10
-615.17385924176
 20
-1921.171035725799
  0
POINT
  5
5C3
100
AcDbEntity
  8
0
 62
           6
100
AcDbPoint
 10
-605.17385924176
 20
-1921.171035725799
  0
POINT
  5
5C2
100
AcDbEntity
  8
0
 62
           6
100
AcDbPoint
 10
-615.17385924176
 20
-1921.171035725799
  0
POINT
  5
5C1
100
AcDbEntity
  8
0
 62
           6
100
AcDbPoint
 10
-618.17385924176
 20
-1971.171035725799
  0
POINT
  5
5C0
100
AcDbEntity
  8
0
 62
           6
100
AcDbPoint
 10
-618.17385924176
 20
-1921.171035725799
  0
POINT
  5
5BF
100
AcDbEntity
  8
0
 62
           6
100
AcDbPoint
 10
-628.17385924176
 20
-1971.171035725799
  0
POINT
  5
5BE
100
AcDbEntity
  8
0
 62
           6
100
AcDbPoint
 10
-628.17385924176
 20
-1921.171035725799
  0
POINT
  5
5BD
100
AcDbEntity
  8
0
 62
           6
100
AcDbPoint
 10
-618.17385924176
 20
-1921.171035725799
  0
POINT
  5
5BC
100
AcDbEntity
  8
0
 62
           6
100
AcDbPoint
 10
-628.17385924176
 20
-1921.171035725799
  0
POINT
  5
5BB
100
AcDbEntity
  8
0
 62
           6
100
AcDbPoint
 10
-618.17385924176
 20
-1971.171035725799
  0
POINT
  5
5BA
100
AcDbEntity
  8
0
 62
           6
100
AcDbPoint
 10
-628.17385924176
 20
-1971.171035725799
  0
POINT
  5
5B9
100
AcDbEntity
  8
0
 62
           6
100
AcDbPoint
 10
-631.17385924176
 20
-1971.171035725799
  0
POINT
  5
5B8
100
AcDbEntity
  8
0
 62
           6
100
AcDbPoint
 10
-631.17385924176
 20
-1921.171035725799
  0
POINT
  5
5B7
100
AcDbEntity
  8
0
 62
           6
100
AcDbPoint
 10
-631.17385924176
 20
-1971.171035725799
  0
POINT
  5
5B6
100
AcDbEntity
  8
0
 62
           6
100
AcDbPoint
 10
-641.17385924176
 20
-1971.171035725799
  0
POINT
  5
5B5
100
AcDbEntity
  8
0
 62
           6
100
AcDbPoint
 10
-641.17385924176
 20
-1971.171035725799
  0
POINT
  5
5B4
100
AcDbEntity
  8
0
 62
           6
100
AcDbPoint
 10
-641.17385924176
 20
-1921.171035725799
  0
POINT
  5
5B3
100
AcDbEntity
  8
0
 62
           6
100
AcDbPoint
 10
-631.17385924176
 20
-1921.171035725799
  0
POINT
  5
5B2
100
AcDbEntity
  8
0
 62
           6
100
AcDbPoint
 10
-641.17385924176
 20
-1921.171035725799
  0
POINT
  5
5B1
100
AcDbEntity
  8
0
 62
           6
100
AcDbPoint
 10
-644.17385924176
 20
-1971.171035725799
  0
POINT
  5
5B0
100
AcDbEntity
  8
0
 62
           6
100
AcDbPoint
 10
-644.17385924176
 20
-1921.171035725799
  0
POINT
  5
5AF
100
AcDbEntity
  8
0
 62
           6
100
AcDbPoint
 10
-644.17385924176
 20
-1971.171035725799
  0
POINT
  5
5AE
100
AcDbEntity
  8
0
 62
           6
100
AcDbPoint
 10
-654.17385924176
 20
-1971.171035725799
  0
POINT
  5
5AD
100
AcDbEntity
  8
0
 62
           6
100
AcDbPoint
 10
-654.17385924176
 20
-1971.171035725799
  0
POINT
  5
5AC
100
AcDbEntity
  8
0
 62
           6
100
AcDbPoint
 10
-654.17385924176
 20
-1921.171035725799
  0
POINT
  5
5AB
100
AcDbEntity
  8
0
 62
           6
100
AcDbPoint
 10
-644.17385924176
 20
-1921.171035725799
  0
POINT
  5
5AA
100
AcDbEntity
  8
0
 62
           6
100
AcDbPoint
 10
-654.17385924176
 20
-1921.171035725799
  0
POINT
  5
5A9
100
AcDbEntity
  8
0
 62
           6
100
AcDbPoint
 10
-657.17385924176
 20
-1971.171035725799
  0
POINT
  5
5A8
100
AcDbEntity
  8
0
 62
           6
100
AcDbPoint
 10
-657.17385924176
 20
-1921.171035725799
  0
POINT
  5
5A7
100
AcDbEntity
  8
0
 62
           6
100
AcDbPoint
 10
-657.17385924176
 20
-1971.171035725799
  0
POINT
  5
5A6
100
AcDbEntity
  8
0
 62
           6
100
AcDbPoint
 10
-667.17385924176
 20
-1971.171035725799
  0
POINT
  5
5A5
100
AcDbEntity
  8
0
 62
           6
100
AcDbPoint
 10
-667.17385924176
 20
-1971.171035725799
  0
POINT
  5
5A4
100
AcDbEntity
  8
0
 62
           6
100
AcDbPoint
 10
-667.17385924176
 20
-1921.171035725799
  0
POINT
  5
5A3
100
AcDbEntity
  8
0
 62
           6
100
AcDbPoint
 10
-657.17385924176
 20
-1921.171035725799
  0
POINT
  5
5A2
100
AcDbEntity
  8
0
 62
           6
100
AcDbPoint
 10
-667.17385924176
 20
-1921.171035725799
  0
POINT
  5
5A1
100
AcDbEntity
  8
0
 62
           6
100
AcDbPoint
 10
-670.17385924176
 20
-1971.171035725799
  0
POINT
  5
5A0
100
AcDbEntity
  8
0
 62
           6
100
AcDbPoint
 10
-670.17385924176
 20
-1921.171035725799
  0
POINT
  5
59F
100
AcDbEntity
  8
0
 62
           6
100
AcDbPoint
 10
-670.17385924176
 20
-1971.171035725799
  0
POINT
  5
59E
100
AcDbEntity
  8
0
 62
           6
100
AcDbPoint
 10
-680.17385924176
 20
-1971.171035725799
  0
POINT
  5
59D
100
AcDbEntity
  8
0
 62
           6
100
AcDbPoint
 10
-680.17385924176
 20
-1971.171035725799
  0
POINT
  5
59C
100
AcDbEntity
  8
0
 62
           6
100
AcDbPoint
 10
-680.17385924176
 20
-1921.171035725799
  0
POINT
  5
59B
100
AcDbEntity
  8
0
 62
           6
100
AcDbPoint
 10
-670.17385924176
 20
-1921.171035725799
  0
POINT
  5
59A
100
AcDbEntity
  8
0
 62
           6
100
AcDbPoint
 10
-680.17385924176
 20
-1921.171035725799
  0
POINT
  5
599
100
AcDbEntity
  8
0
 62
           6
100
AcDbPoint
 10
-683.17385924176
 20
-1971.171035725799
  0
POINT
  5
598
100
AcDbEntity
  8
0
 62
           6
100
AcDbPoint
 10
-683.17385924176
 20
-1921.171035725799
  0
POINT
  5
597
100
AcDbEntity
  8
0
 62
           6
100
AcDbPoint
 10
-693.17385924176
 20
-1971.171035725799
  0
POINT
  5
596
100
AcDbEntity
  8
0
 62
           6
100
AcDbPoint
 10
-693.17385924176
 20
-1921.1710357258
  0
POINT
  5
595
100
AcDbEntity
  8
0
 62
           6
100
AcDbPoint
 10
-683.17385924176
 20
-1921.171035725799
  0
POINT
  5
594
100
AcDbEntity
  8
0
 62
           6
100
AcDbPoint
 10
-693.17385924176
 20
-1921.1710357258
  0
POINT
  5
593
100
AcDbEntity
  8
0
 62
           6
100
AcDbPoint
 10
-683.17385924176
 20
-1971.171035725799
  0
POINT
  5
592
100
AcDbEntity
  8
0
 62
           6
100
AcDbPoint
 10
-693.17385924176
 20
-1971.171035725799
  0
POINT
  5
591
100
AcDbEntity
  8
0
 62
           6
100
AcDbPoint
 10
-696.17385924176
 20
-1971.171035725799
  0
POINT
  5
590
100
AcDbEntity
  8
0
 62
           6
100
AcDbPoint
 10
-696.17385924176
 20
-1921.171035725799
  0
POINT
  5
58F
100
AcDbEntity
  8
0
 62
           6
100
AcDbPoint
 10
-696.17385924176
 20
-1971.171035725799
  0
POINT
  5
58E
100
AcDbEntity
  8
0
 62
           6
100
AcDbPoint
 10
-706.17385924176
 20
-1971.171035725799
  0
POINT
  5
58D
100
AcDbEntity
  8
0
 62
           6
100
AcDbPoint
 10
-706.17385924176
 20
-1971.171035725799
  0
POINT
  5
58C
100
AcDbEntity
  8
0
 62
           6
100
AcDbPoint
 10
-706.17385924176
 20
-1921.171035725799
  0
POINT
  5
58B
100
AcDbEntity
  8
0
 62
           6
100
AcDbPoint
 10
-696.17385924176
 20
-1921.171035725799
  0
POINT
  5
58A
100
AcDbEntity
  8
0
 62
           6
100
AcDbPoint
 10
-706.17385924176
 20
-1921.171035725799
  0
POINT
  5
589
100
AcDbEntity
  8
0
 62
           6
100
AcDbPoint
 10
-709.17385924176
 20
-1971.171035725799
  0
POINT
  5
588
100
AcDbEntity
  8
0
 62
           6
100
AcDbPoint
 10
-709.17385924176
 20
-1921.171035725799
  0
POINT
  5
587
100
AcDbEntity
  8
0
 62
           6
100
AcDbPoint
 10
-709.17385924176
 20
-1971.171035725799
  0
POINT
  5
586
100
AcDbEntity
  8
0
 62
           6
100
AcDbPoint
 10
-719.17385924176
 20
-1971.171035725799
  0
POINT
  5
585
100
AcDbEntity
  8
0
 62
           6
100
AcDbPoint
 10
-719.17385924176
 20
-1971.171035725799
  0
POINT
  5
584
100
AcDbEntity
  8
0
 62
           6
100
AcDbPoint
 10
-719.17385924176
 20
-1921.171035725799
  0
POINT
  5
583
100
AcDbEntity
  8
0
 62
           6
100
AcDbPoint
 10
-709.17385924176
 20
-1921.171035725799
  0
POINT
  5
582
100
AcDbEntity
  8
0
 62
           6
100
AcDbPoint
 10
-719.17385924176
 20
-1921.171035725799
  0
POINT
  5
581
100
AcDbEntity
  8
0
 62
           6
100
AcDbPoint
 10
-722.17385924176
 20
-1971.171035725799
  0
POINT
  5
580
100
AcDbEntity
  8
0
 62
           6
100
AcDbPoint
 10
-722.17385924176
 20
-1921.171035725799
  0
POINT
  5
57F
100
AcDbEntity
  8
0
 62
           6
100
AcDbPoint
 10
-722.17385924176
 20
-1971.171035725799
  0
POINT
  5
57E
100
AcDbEntity
  8
0
 62
           6
100
AcDbPoint
 10
-732.17385924176
 20
-1971.171035725799
  0
POINT
  5
57D
100
AcDbEntity
  8
0
 62
           6
100
AcDbPoint
 10
-732.17385924176
 20
-1971.171035725799
  0
POINT
  5
57C
100
AcDbEntity
  8
0
 62
           6
100
AcDbPoint
 10
-732.17385924176
 20
-1921.171035725799
  0
POINT
  5
57B
100
AcDbEntity
  8
0
 62
           6
100
AcDbPoint
 10
-722.17385924176
 20
-1921.171035725799
  0
POINT
  5
57A
100
AcDbEntity
  8
0
 62
           6
100
AcDbPoint
 10
-732.17385924176
 20
-1921.171035725799
  0
POINT
  5
579
100
AcDbEntity
  8
0
 62
           6
100
AcDbPoint
 10
-735.17385924176
 20
-1971.171035725799
  0
POINT
  5
578
100
AcDbEntity
  8
0
 62
           6
100
AcDbPoint
 10
-735.17385924176
 20
-1921.171035725799
  0
POINT
  5
577
100
AcDbEntity
  8
0
 62
           6
100
AcDbPoint
 10
-735.17385924176
 20
-1971.171035725799
  0
POINT
  5
576
100
AcDbEntity
  8
0
 62
           6
100
AcDbPoint
 10
-745.17385924176
 20
-1971.171035725799
  0
POINT
  5
575
100
AcDbEntity
  8
0
 62
           6
100
AcDbPoint
 10
-745.17385924176
 20
-1971.171035725799
  0
POINT
  5
574
100
AcDbEntity
  8
0
 62
           6
100
AcDbPoint
 10
-745.17385924176
 20
-1921.171035725799
  0
POINT
  5
573
100
AcDbEntity
  8
0
 62
           6
100
AcDbPoint
 10
-735.17385924176
 20
-1921.171035725799
  0
POINT
  5
572
100
AcDbEntity
  8
0
 62
           6
100
AcDbPoint
 10
-745.17385924176
 20
-1921.171035725799
  0
POINT
  5
571
100
AcDbEntity
  8
0
 62
           6
100
AcDbPoint
 10
-748.17385924176
 20
-1971.171035725799
  0
POINT
  5
570
100
AcDbEntity
  8
0
 62
           6
100
AcDbPoint
 10
-748.17385924176
 20
-1921.171035725799
  0
POINT
  5
56F
100
AcDbEntity
  8
0
 62
           6
100
AcDbPoint
 10
-758.17385924176
 20
-1971.171035725799
  0
POINT
  5
56E
100
AcDbEntity
  8
0
 62
           6
100
AcDbPoint
 10
-758.17385924176
 20
-1921.171035725799
  0
POINT
  5
56D
100
AcDbEntity
  8
0
 62
           6
100
AcDbPoint
 10
-748.17385924176
 20
-1921.171035725799
  0
POINT
  5
56C
100
AcDbEntity
  8
0
 62
           6
100
AcDbPoint
 10
-758.17385924176
 20
-1921.171035725799
  0
POINT
  5
56B
100
AcDbEntity
  8
0
 62
           6
100
AcDbPoint
 10
-748.17385924176
 20
-1971.171035725799
  0
POINT
  5
56A
100
AcDbEntity
  8
0
 62
           6
100
AcDbPoint
 10
-758.17385924176
 20
-1971.171035725799
  0
POINT
  5
569
100
AcDbEntity
  8
0
 62
           6
100
AcDbPoint
 10
-761.17385924176
 20
-1971.171035725799
  0
POINT
  5
568
100
AcDbEntity
  8
0
 62
           6
100
AcDbPoint
 10
-761.17385924176
 20
-1921.171035725799
  0
POINT
  5
567
100
AcDbEntity
  8
0
 62
           6
100
AcDbPoint
 10
-761.17385924176
 20
-1971.171035725799
  0
POINT
  5
566
100
AcDbEntity
  8
0
 62
           6
100
AcDbPoint
 10
-771.17385924176
 20
-1971.171035725799
  0
POINT
  5
565
100
AcDbEntity
  8
0
 62
           6
100
AcDbPoint
 10
-771.17385924176
 20
-1971.171035725799
  0
POINT
  5
564
100
AcDbEntity
  8
0
 62
           6
100
AcDbPoint
 10
-771.17385924176
 20
-1921.171035725799
  0
POINT
  5
563
100
AcDbEntity
  8
0
 62
           6
100
AcDbPoint
 10
-761.17385924176
 20
-1921.171035725799
  0
POINT
  5
562
100
AcDbEntity
  8
0
 62
           6
100
AcDbPoint
 10
-771.17385924176
 20
-1921.171035725799
  0
POINT
  5
561
100
AcDbEntity
  8
0
 62
           6
100
AcDbPoint
 10
-774.17385924176
 20
-1971.171035725799
  0
POINT
  5
560
100
AcDbEntity
  8
0
 62
           6
100
AcDbPoint
 10
-774.17385924176
 20
-1921.171035725799
  0
POINT
  5
55F
100
AcDbEntity
  8
0
 62
           6
100
AcDbPoint
 10
-774.17385924176
 20
-1971.171035725799
  0
POINT
  5
55E
100
AcDbEntity
  8
0
 62
           6
100
AcDbPoint
 10
-784.17385924176
 20
-1971.171035725799
  0
POINT
  5
55D
100
AcDbEntity
  8
0
 62
           6
100
AcDbPoint
 10
-784.17385924176
 20
-1971.171035725799
  0
POINT
  5
55C
100
AcDbEntity
  8
0
 62
           6
100
AcDbPoint
 10
-784.17385924176
 20
-1921.171035725799
  0
POINT
  5
55B
100
AcDbEntity
  8
0
 62
           6
100
AcDbPoint
 10
-774.17385924176
 20
-1921.171035725799
  0
POINT
  5
55A
100
AcDbEntity
  8
0
 62
           6
100
AcDbPoint
 10
-784.17385924176
 20
-1921.171035725799
  0
POINT
  5
559
100
AcDbEntity
  8
0
 62
           6
100
AcDbPoint
 10
-787.17385924176
 20
-1971.171035725799
  0
POINT
  5
558
100
AcDbEntity
  8
0
 62
           6
100
AcDbPoint
 10
-787.17385924176
 20
-1921.171035725799
  0
POINT
  5
557
100
AcDbEntity
  8
0
 62
           6
100
AcDbPoint
 10
-787.17385924176
 20
-1971.171035725799
  0
POINT
  5
556
100
AcDbEntity
  8
0
 62
           6
100
AcDbPoint
 10
-797.17385924176
 20
-1971.171035725799
  0
POINT
  5
555
100
AcDbEntity
  8
0
 62
           6
100
AcDbPoint
 10
-797.17385924176
 20
-1971.171035725799
  0
POINT
  5
554
100
AcDbEntity
  8
0
 62
           6
100
AcDbPoint
 10
-797.17385924176
 20
-1921.171035725799
  0
POINT
  5
553
100
AcDbEntity
  8
0
 62
           6
100
AcDbPoint
 10
-787.17385924176
 20
-1921.171035725799
  0
POINT
  5
552
100
AcDbEntity
  8
0
 62
           6
100
AcDbPoint
 10
-797.17385924176
 20
-1921.171035725799
  0
POINT
  5
551
100
AcDbEntity
  8
0
 62
           6
100
AcDbPoint
 10
-800.17385924176
 20
-1971.171035725799
  0
POINT
  5
550
100
AcDbEntity
  8
0
 62
           6
100
AcDbPoint
 10
-800.17385924176
 20
-1921.171035725799
  0
POINT
  5
54F
100
AcDbEntity
  8
0
 62
           6
100
AcDbPoint
 10
-800.17385924176
 20
-1971.171035725799
  0
POINT
  5
54E
100
AcDbEntity
  8
0
 62
           6
100
AcDbPoint
 10
-810.17385924176
 20
-1971.171035725799
  0
POINT
  5
54D
100
AcDbEntity
  8
0
 62
           6
100
AcDbPoint
 10
-810.17385924176
 20
-1971.171035725799
  0
POINT
  5
54C
100
AcDbEntity
  8
0
 62
           6
100
AcDbPoint
 10
-810.17385924176
 20
-1921.171035725799
  0
POINT
  5
54B
100
AcDbEntity
  8
0
 62
           6
100
AcDbPoint
 10
-800.17385924176
 20
-1921.171035725799
  0
POINT
  5
54A
100
AcDbEntity
  8
0
 62
           6
100
AcDbPoint
 10
-810.17385924176
 20
-1921.171035725799
  0
POINT
  5
549
100
AcDbEntity
  8
0
 62
           6
100
AcDbPoint
 10
-813.17385924176
 20
-1971.171035725799
  0
POINT
  5
548
100
AcDbEntity
  8
0
 62
           6
100
AcDbPoint
 10
-813.17385924176
 20
-1921.171035725799
  0
POINT
  5
547
100
AcDbEntity
  8
0
 62
           6
100
AcDbPoint
 10
-823.17385924176
 20
-1971.171035725799
  0
POINT
  5
546
100
AcDbEntity
  8
0
 62
           6
100
AcDbPoint
 10
-823.17385924176
 20
-1921.1710357258
  0
POINT
  5
545
100
AcDbEntity
  8
0
 62
           6
100
AcDbPoint
 10
-813.17385924176
 20
-1921.171035725799
  0
POINT
  5
544
100
AcDbEntity
  8
0
 62
           6
100
AcDbPoint
 10
-823.17385924176
 20
-1921.1710357258
  0
POINT
  5
543
100
AcDbEntity
  8
0
 62
           6
100
AcDbPoint
 10
-813.17385924176
 20
-1971.171035725799
  0
POINT
  5
542
100
AcDbEntity
  8
0
 62
           6
100
AcDbPoint
 10
-823.17385924176
 20
-1971.171035725799
  0
POINT
  5
541
100
AcDbEntity
  8
0
 62
           6
100
AcDbPoint
 10
-826.17385924176
 20
-1971.171035725799
  0
POINT
  5
540
100
AcDbEntity
  8
0
 62
           6
100
AcDbPoint
 10
-826.17385924176
 20
-1921.171035725799
  0
POINT
  5
53F
100
AcDbEntity
  8
0
 62
           6
100
AcDbPoint
 10
-826.17385924176
 20
-1971.171035725799
  0
POINT
  5
53E
100
AcDbEntity
  8
0
 62
           6
100
AcDbPoint
 10
-836.17385924176
 20
-1971.171035725799
  0
POINT
  5
53D
100
AcDbEntity
  8
0
 62
           6
100
AcDbPoint
 10
-836.17385924176
 20
-1971.171035725799
  0
POINT
  5
53C
100
AcDbEntity
  8
0
 62
           6
100
AcDbPoint
 10
-836.17385924176
 20
-1921.171035725799
  0
POINT
  5
53B
100
AcDbEntity
  8
0
 62
           6
100
AcDbPoint
 10
-826.17385924176
 20
-1921.171035725799
  0
POINT
  5
53A
100
AcDbEntity
  8
0
 62
           6
100
AcDbPoint
 10
-836.17385924176
 20
-1921.171035725799
  0
POINT
  5
539
100
AcDbEntity
  8
0
 62
           6
100
AcDbPoint
 10
-839.17385924176
 20
-1971.171035725799
  0
POINT
  5
538
100
AcDbEntity
  8
0
 62
           6
100
AcDbPoint
 10
-839.17385924176
 20
-1921.171035725799
  0
POINT
  5
537
100
AcDbEntity
  8
0
 62
           6
100
AcDbPoint
 10
-839.17385924176
 20
-1971.171035725799
  0
POINT
  5
536
100
AcDbEntity
  8
0
 62
           6
100
AcDbPoint
 10
-849.17385924176
 20
-1971.171035725799
  0
POINT
  5
535
100
AcDbEntity
  8
0
 62
           6
100
AcDbPoint
 10
-849.17385924176
 20
-1971.171035725799
  0
POINT
  5
534
100
AcDbEntity
  8
0
 62
           6
100
AcDbPoint
 10
-849.17385924176
 20
-1921.171035725799
  0
POINT
  5
533
100
AcDbEntity
  8
0
 62
           6
100
AcDbPoint
 10
-839.17385924176
 20
-1921.171035725799
  0
POINT
  5
532
100
AcDbEntity
  8
0
 62
           6
100
AcDbPoint
 10
-849.17385924176
 20
-1921.171035725799
  0
POINT
  5
531
100
AcDbEntity
  8
0
 62
           6
100
AcDbPoint
 10
-852.17385924176
 20
-1971.171035725799
  0
POINT
  5
530
100
AcDbEntity
  8
0
 62
           6
100
AcDbPoint
 10
-852.17385924176
 20
-1921.171035725799
  0
POINT
  5
52F
100
AcDbEntity
  8
0
 62
           6
100
AcDbPoint
 10
-852.17385924176
 20
-1971.171035725799
  0
POINT
  5
52E
100
AcDbEntity
  8
0
 62
           6
100
AcDbPoint
 10
-862.17385924176
 20
-1971.171035725799
  0
POINT
  5
52D
100
AcDbEntity
  8
0
 62
           6
100
AcDbPoint
 10
-862.17385924176
 20
-1971.171035725799
  0
POINT
  5
52C
100
AcDbEntity
  8
0
 62
           6
100
AcDbPoint
 10
-862.17385924176
 20
-1921.1710357258
  0
POINT
  5
52B
100
AcDbEntity
  8
0
 62
           6
100
AcDbPoint
 10
-852.17385924176
 20
-1921.171035725799
  0
POINT
  5
52A
100
AcDbEntity
  8
0
 62
           6
100
AcDbPoint
 10
-862.17385924176
 20
-1921.1710357258
  0
POINT
  5
529
100
AcDbEntity
  8
0
 62
           6
100
AcDbPoint
 10
-865.17385924176
 20
-1971.171035725799
  0
POINT
  5
528
100
AcDbEntity
  8
0
 62
           6
100
AcDbPoint
 10
-865.17385924176
 20
-1921.1710357258
  0
POINT
  5
527
100
AcDbEntity
  8
0
 62
           6
100
AcDbPoint
 10
-865.17385924176
 20
-1971.171035725799
  0
POINT
  5
526
100
AcDbEntity
  8
0
 62
           6
100
AcDbPoint
 10
-875.17385924176
 20
-1971.171035725799
  0
POINT
  5
525
100
AcDbEntity
  8
0
 62
           6
100
AcDbPoint
 10
-875.17385924176
 20
-1971.171035725799
  0
POINT
  5
524
100
AcDbEntity
  8
0
 62
           6
100
AcDbPoint
 10
-875.17385924176
 20
-1921.1710357258
  0
POINT
  5
523
100
AcDbEntity
  8
0
 62
           6
100
AcDbPoint
 10
-865.17385924176
 20
-1921.1710357258
  0
POINT
  5
522
100
AcDbEntity
  8
0
 62
           6
100
AcDbPoint
 10
-875.17385924176
 20
-1921.1710357258
  0
POINT
  5
521
100
AcDbEntity
  8
0
 62
           6
100
AcDbPoint
 10
-878.17385924176
 20
-1971.171035725799
  0
POINT
  5
520
100
AcDbEntity
  8
0
 62
           6
100
AcDbPoint
 10
-878.17385924176
 20
-1921.1710357258
  0
POINT
  5
51F
100
AcDbEntity
  8
0
 62
           6
100
AcDbPoint
 10
-888.17385924176
 20
-1971.171035725799
  0
POINT
  5
51E
100
AcDbEntity
  8
0
 62
           6
100
AcDbPoint
 10
-888.17385924176
 20
-1921.1710357258
  0
POINT
  5
51D
100
AcDbEntity
  8
0
 62
           6
100
AcDbPoint
 10
-878.17385924176
 20
-1921.1710357258
  0
POINT
  5
51C
100
AcDbEntity
  8
0
 62
           6
100
AcDbPoint
 10
-888.17385924176
 20
-1921.1710357258
  0
POINT
  5
51B
100
AcDbEntity
  8
0
 62
           6
100
AcDbPoint
 10
-878.17385924176
 20
-1971.171035725799
  0
POINT
  5
51A
100
AcDbEntity
  8
0
 62
           6
100
AcDbPoint
 10
-888.17385924176
 20
-1971.171035725799
  0
POINT
  5
519
100
AcDbEntity
  8
0
 62
           6
100
AcDbPoint
 10
-891.17385924176
 20
-1971.171035725799
  0
POINT
  5
518
100
AcDbEntity
  8
0
 62
           6
100
AcDbPoint
 10
-891.17385924176
 20
-1921.1710357258
  0
POINT
  5
517
100
AcDbEntity
  8
0
 62
           6
100
AcDbPoint
 10
-891.17385924176
 20
-1971.171035725799
  0
POINT
  5
516
100
AcDbEntity
  8
0
 62
           6
100
AcDbPoint
 10
-901.17385924176
 20
-1971.171035725799
  0
POINT
  5
515
100
AcDbEntity
  8
0
 62
           6
100
AcDbPoint
 10
-901.17385924176
 20
-1971.171035725799
  0
POINT
  5
514
100
AcDbEntity
  8
0
 62
           6
100
AcDbPoint
 10
-901.173859241761
 20
-1921.1710357258
  0
POINT
  5
513
100
AcDbEntity
  8
0
 62
           6
100
AcDbPoint
 10
-891.17385924176
 20
-1921.1710357258
  0
POINT
  5
512
100
AcDbEntity
  8
0
 62
           6
100
AcDbPoint
 10
-901.173859241761
 20
-1921.1710357258
  0
POINT
  5
511
100
AcDbEntity
  8
0
 62
           6
100
AcDbPoint
 10
-904.17385924176
 20
-1971.171035725799
  0
POINT
  5
510
100
AcDbEntity
  8
0
 62
           6
100
AcDbPoint
 10
-904.17385924176
 20
-1921.1710357258
  0
POINT
  5
50F
100
AcDbEntity
  8
0
 62
           6
100
AcDbPoint
 10
-904.17385924176
 20
-1971.171035725799
  0
POINT
  5
50E
100
AcDbEntity
  8
0
 62
           6
100
AcDbPoint
 10
-914.17385924176
 20
-1971.171035725799
  0
POINT
  5
50D
100
AcDbEntity
  8
0
 62
           6
100
AcDbPoint
 10
-914.17385924176
 20
-1971.171035725799
  0
POINT
  5
50C
100
AcDbEntity
  8
0
 62
           6
100
AcDbPoint
 10
-914.17385924176
 20
-1921.1710357258
  0
POINT
  5
50B
100
AcDbEntity
  8
0
 62
           6
100
AcDbPoint
 10
-904.17385924176
 20
-1921.1710357258
  0
POINT
  5
50A
100
AcDbEntity
  8
0
 62
           6
100
AcDbPoint
 10
-914.17385924176
 20
-1921.1710357258
  0
POINT
  5
509
100
AcDbEntity
  8
0
 62
           6
100
AcDbPoint
 10
-527.17385924176
 20
-1911.171035725799
  0
POINT
  5
508
100
AcDbEntity
  8
0
 62
           6
100
AcDbPoint
 10
-527.17385924176
 20
-1861.171035725799
  0
POINT
  5
507
100
AcDbEntity
  8
0
 62
           6
100
AcDbPoint
 10
-527.17385924176
 20
-1911.171035725799
  0
POINT
  5
506
100
AcDbEntity
  8
0
 62
           6
100
AcDbPoint
 10
-537.17385924176
 20
-1911.171035725799
  0
POINT
  5
505
100
AcDbEntity
  8
0
 62
           6
100
AcDbPoint
 10
-537.17385924176
 20
-1911.171035725799
  0
POINT
  5
504
100
AcDbEntity
  8
0
 62
           6
100
AcDbPoint
 10
-537.17385924176
 20
-1861.171035725799
  0
POINT
  5
503
100
AcDbEntity
  8
0
 62
           6
100
AcDbPoint
 10
-527.17385924176
 20
-1861.171035725799
  0
POINT
  5
502
100
AcDbEntity
  8
0
 62
           6
100
AcDbPoint
 10
-537.17385924176
 20
-1861.171035725799
  0
POINT
  5
501
100
AcDbEntity
  8
0
 62
           6
100
AcDbPoint
 10
-540.17385924176
 20
-1911.171035725799
  0
POINT
  5
500
100
AcDbEntity
  8
0
 62
           6
100
AcDbPoint
 10
-540.17385924176
 20
-1861.171035725799
  0
POINT
  5
4FF
100
AcDbEntity
  8
0
 62
           6
100
AcDbPoint
 10
-540.17385924176
 20
-1911.171035725799
  0
POINT
  5
4FE
100
AcDbEntity
  8
0
 62
           6
100
AcDbPoint
 10
-550.17385924176
 20
-1911.171035725799
  0
POINT
  5
4FD
100
AcDbEntity
  8
0
 62
           6
100
AcDbPoint
 10
-550.17385924176
 20
-1911.171035725799
  0
POINT
  5
4FC
100
AcDbEntity
  8
0
 62
           6
100
AcDbPoint
 10
-550.17385924176
 20
-1861.171035725799
  0
POINT
  5
4FB
100
AcDbEntity
  8
0
 62
           6
100
AcDbPoint
 10
-540.17385924176
 20
-1861.171035725799
  0
POINT
  5
4FA
100
AcDbEntity
  8
0
 62
           6
100
AcDbPoint
 10
-550.17385924176
 20
-1861.171035725799
  0
POINT
  5
4F9
100
AcDbEntity
  8
0
 62
           6
100
AcDbPoint
 10
-553.17385924176
 20
-1911.171035725799
  0
POINT
  5
4F8
100
AcDbEntity
  8
0
 62
           6
100
AcDbPoint
 10
-553.17385924176
 20
-1861.171035725799
  0
POINT
  5
4F7
100
AcDbEntity
  8
0
 62
           6
100
AcDbPoint
 10
-563.17385924176
 20
-1911.171035725799
  0
POINT
  5
4F6
100
AcDbEntity
  8
0
 62
           6
100
AcDbPoint
 10
-563.17385924176
 20
-1861.171035725799
  0
POINT
  5
4F5
100
AcDbEntity
  8
0
 62
           6
100
AcDbPoint
 10
-553.17385924176
 20
-1861.171035725799
  0
POINT
  5
4F4
100
AcDbEntity
  8
0
 62
           6
100
AcDbPoint
 10
-563.17385924176
 20
-1861.171035725799
  0
POINT
  5
4F3
100
AcDbEntity
  8
0
 62
           6
100
AcDbPoint
 10
-553.17385924176
 20
-1911.171035725799
  0
POINT
  5
4F2
100
AcDbEntity
  8
0
 62
           6
100
AcDbPoint
 10
-563.17385924176
 20
-1911.171035725799
  0
POINT
  5
4F1
100
AcDbEntity
  8
0
 62
           6
100
AcDbPoint
 10
-566.17385924176
 20
-1911.171035725799
  0
POINT
  5
4F0
100
AcDbEntity
  8
0
 62
           6
100
AcDbPoint
 10
-566.17385924176
 20
-1861.171035725799
  0
POINT
  5
4EF
100
AcDbEntity
  8
0
 62
           6
100
AcDbPoint
 10
-566.17385924176
 20
-1911.171035725799
  0
POINT
  5
4EE
100
AcDbEntity
  8
0
 62
           6
100
AcDbPoint
 10
-576.17385924176
 20
-1911.171035725799
  0
POINT
  5
4ED
100
AcDbEntity
  8
0
 62
           6
100
AcDbPoint
 10
-576.17385924176
 20
-1911.171035725799
  0
POINT
  5
4EC
100
AcDbEntity
  8
0
 62
           6
100
AcDbPoint
 10
-576.17385924176
 20
-1861.171035725799
  0
POINT
  5
4EB
100
AcDbEntity
  8
0
 62
           6
100
AcDbPoint
 10
-566.17385924176
 20
-1861.171035725799
  0
POINT
  5
4EA
100
AcDbEntity
  8
0
 62
           6
100
AcDbPoint
 10
-576.17385924176
 20
-1861.171035725799
  0
POINT
  5
4E9
100
AcDbEntity
  8
0
 62
           6
100
AcDbPoint
 10
-579.17385924176
 20
-1911.171035725799
  0
POINT
  5
4E8
100
AcDbEntity
  8
0
 62
           6
100
AcDbPoint
 10
-579.17385924176
 20
-1861.171035725799
  0
POINT
  5
4E7
100
AcDbEntity
  8
0
 62
           6
100
AcDbPoint
 10
-579.17385924176
 20
-1911.171035725799
  0
POINT
  5
4E6
100
AcDbEntity
  8
0
 62
           6
100
AcDbPoint
 10
-589.17385924176
 20
-1911.171035725799
  0
POINT
  5
4E5
100
AcDbEntity
  8
0
 62
           6
100
AcDbPoint
 10
-589.17385924176
 20
-1911.171035725799
  0
POINT
  5
4E4
100
AcDbEntity
  8
0
 62
           6
100
AcDbPoint
 10
-589.17385924176
 20
-1861.171035725799
  0
POINT
  5
4E3
100
AcDbEntity
  8
0
 62
           6
100
AcDbPoint
 10
-579.17385924176
 20
-1861.171035725799
  0
POINT
  5
4E2
100
AcDbEntity
  8
0
 62
           6
100
AcDbPoint
 10
-589.17385924176
 20
-1861.171035725799
  0
POINT
  5
4E1
100
AcDbEntity
  8
0
 62
           6
100
AcDbPoint
 10
-592.17385924176
 20
-1911.171035725799
  0
POINT
  5
4E0
100
AcDbEntity
  8
0
 62
           6
100
AcDbPoint
 10
-592.17385924176
 20
-1861.171035725799
  0
POINT
  5
4DF
100
AcDbEntity
  8
0
 62
           6
100
AcDbPoint
 10
-592.17385924176
 20
-1911.171035725799
  0
POINT
  5
4DE
100
AcDbEntity
  8
0
 62
           6
100
AcDbPoint
 10
-602.17385924176
 20
-1911.171035725799
  0
POINT
  5
4DD
100
AcDbEntity
  8
0
 62
           6
100
AcDbPoint
 10
-602.17385924176
 20
-1911.171035725799
  0
POINT
  5
4DC
100
AcDbEntity
  8
0
 62
           6
100
AcDbPoint
 10
-602.17385924176
 20
-1861.171035725799
  0
POINT
  5
4DB
100
AcDbEntity
  8
0
 62
           6
100
AcDbPoint
 10
-592.17385924176
 20
-1861.171035725799
  0
POINT
  5
4DA
100
AcDbEntity
  8
0
 62
           6
100
AcDbPoint
 10
-602.17385924176
 20
-1861.171035725799
  0
POINT
  5
4D9
100
AcDbEntity
  8
0
 62
           6
100
AcDbPoint
 10
-605.17385924176
 20
-1911.171035725799
  0
POINT
  5
4D8
100
AcDbEntity
  8
0
 62
           6
100
AcDbPoint
 10
-605.17385924176
 20
-1861.171035725799
  0
POINT
  5
4D7
100
AcDbEntity
  8
0
 62
           6
100
AcDbPoint
 10
-605.17385924176
 20
-1911.171035725799
  0
POINT
  5
4D6
100
AcDbEntity
  8
0
 62
           6
100
AcDbPoint
 10
-615.17385924176
 20
-1911.171035725799
  0
POINT
  5
4D5
100
AcDbEntity
  8
0
 62
           6
100
AcDbPoint
 10
-615.17385924176
 20
-1911.171035725799
  0
POINT
  5
4D4
100
AcDbEntity
  8
0
 62
           6
100
AcDbPoint
 10
-615.17385924176
 20
-1861.171035725799
  0
POINT
  5
4D3
100
AcDbEntity
  8
0
 62
           6
100
AcDbPoint
 10
-605.17385924176
 20
-1861.171035725799
  0
POINT
  5
4D2
100
AcDbEntity
  8
0
 62
           6
100
AcDbPoint
 10
-615.17385924176
 20
-1861.171035725799
  0
POINT
  5
4D1
100
AcDbEntity
  8
0
 62
           6
100
AcDbPoint
 10
-618.17385924176
 20
-1911.171035725799
  0
POINT
  5
4D0
100
AcDbEntity
  8
0
 62
           6
100
AcDbPoint
 10
-618.17385924176
 20
-1861.171035725799
  0
POINT
  5
4CF
100
AcDbEntity
  8
0
 62
           6
100
AcDbPoint
 10
-628.17385924176
 20
-1911.171035725799
  0
POINT
  5
4CE
100
AcDbEntity
  8
0
 62
           6
100
AcDbPoint
 10
-628.17385924176
 20
-1861.171035725799
  0
POINT
  5
4CD
100
AcDbEntity
  8
0
 62
           6
100
AcDbPoint
 10
-618.17385924176
 20
-1861.171035725799
  0
POINT
  5
4CC
100
AcDbEntity
  8
0
 62
           6
100
AcDbPoint
 10
-628.17385924176
 20
-1861.171035725799
  0
POINT
  5
4CB
100
AcDbEntity
  8
0
 62
           6
100
AcDbPoint
 10
-618.17385924176
 20
-1911.171035725799
  0
POINT
  5
4CA
100
AcDbEntity
  8
0
 62
           6
100
AcDbPoint
 10
-628.17385924176
 20
-1911.171035725799
  0
POINT
  5
4C9
100
AcDbEntity
  8
0
 62
           6
100
AcDbPoint
 10
-631.17385924176
 20
-1911.171035725799
  0
POINT
  5
4C8
100
AcDbEntity
  8
0
 62
           6
100
AcDbPoint
 10
-631.17385924176
 20
-1861.171035725799
  0
POINT
  5
4C7
100
AcDbEntity
  8
0
 62
           6
100
AcDbPoint
 10
-631.17385924176
 20
-1911.171035725799
  0
POINT
  5
4C6
100
AcDbEntity
  8
0
 62
           6
100
AcDbPoint
 10
-641.17385924176
 20
-1911.171035725799
  0
POINT
  5
4C5
100
AcDbEntity
  8
0
 62
           6
100
AcDbPoint
 10
-641.17385924176
 20
-1911.171035725799
  0
POINT
  5
4C4
100
AcDbEntity
  8
0
 62
           6
100
AcDbPoint
 10
-641.17385924176
 20
-1861.171035725799
  0
POINT
  5
4C3
100
AcDbEntity
  8
0
 62
           6
100
AcDbPoint
 10
-631.17385924176
 20
-1861.171035725799
  0
POINT
  5
4C2
100
AcDbEntity
  8
0
 62
           6
100
AcDbPoint
 10
-641.17385924176
 20
-1861.171035725799
  0
POINT
  5
4C1
100
AcDbEntity
  8
0
 62
           6
100
AcDbPoint
 10
-644.17385924176
 20
-1911.171035725799
  0
POINT
  5
4C0
100
AcDbEntity
  8
0
 62
           6
100
AcDbPoint
 10
-644.17385924176
 20
-1861.171035725799
  0
POINT
  5
4BF
100
AcDbEntity
  8
0
 62
           6
100
AcDbPoint
 10
-644.17385924176
 20
-1911.171035725799
  0
POINT
  5
4BE
100
AcDbEntity
  8
0
 62
           6
100
AcDbPoint
 10
-654.17385924176
 20
-1911.171035725799
  0
POINT
  5
4BD
100
AcDbEntity
  8
0
 62
           6
100
AcDbPoint
 10
-654.17385924176
 20
-1911.171035725799
  0
POINT
  5
4BC
100
AcDbEntity
  8
0
 62
           6
100
AcDbPoint
 10
-654.17385924176
 20
-1861.171035725799
  0
POINT
  5
4BB
100
AcDbEntity
  8
0
 62
           6
100
AcDbPoint
 10
-644.17385924176
 20
-1861.171035725799
  0
POINT
  5
4BA
100
AcDbEntity
  8
0
 62
           6
100
AcDbPoint
 10
-654.17385924176
 20
-1861.171035725799
  0
POINT
  5
4B9
100
AcDbEntity
  8
0
 62
           6
100
AcDbPoint
 10
-657.17385924176
 20
-1911.171035725799
  0
POINT
  5
4B8
100
AcDbEntity
  8
0
 62
           6
100
AcDbPoint
 10
-657.17385924176
 20
-1861.171035725799
  0
POINT
  5
4B7
100
AcDbEntity
  8
0
 62
           6
100
AcDbPoint
 10
-657.17385924176
 20
-1911.171035725799
  0
POINT
  5
4B6
100
AcDbEntity
  8
0
 62
           6
100
AcDbPoint
 10
-667.17385924176
 20
-1911.171035725799
  0
POINT
  5
4B5
100
AcDbEntity
  8
0
 62
           6
100
AcDbPoint
 10
-667.17385924176
 20
-1911.171035725799
  0
POINT
  5
4B4
100
AcDbEntity
  8
0
 62
           6
100
AcDbPoint
 10
-667.17385924176
 20
-1861.171035725799
  0
POINT
  5
4B3
100
AcDbEntity
  8
0
 62
           6
100
AcDbPoint
 10
-657.17385924176
 20
-1861.171035725799
  0
POINT
  5
4B2
100
AcDbEntity
  8
0
 62
           6
100
AcDbPoint
 10
-667.17385924176
 20
-1861.171035725799
  0
POINT
  5
4B1
100
AcDbEntity
  8
0
 62
           6
100
AcDbPoint
 10
-670.17385924176
 20
-1911.171035725799
  0
POINT
  5
4B0
100
AcDbEntity
  8
0
 62
           6
100
AcDbPoint
 10
-670.17385924176
 20
-1861.171035725799
  0
POINT
  5
4AF
100
AcDbEntity
  8
0
 62
           6
100
AcDbPoint
 10
-670.17385924176
 20
-1911.171035725799
  0
POINT
  5
4AE
100
AcDbEntity
  8
0
 62
           6
100
AcDbPoint
 10
-680.17385924176
 20
-1911.171035725799
  0
POINT
  5
4AD
100
AcDbEntity
  8
0
 62
           6
100
AcDbPoint
 10
-680.17385924176
 20
-1911.171035725799
  0
POINT
  5
4AC
100
AcDbEntity
  8
0
 62
           6
100
AcDbPoint
 10
-680.17385924176
 20
-1861.171035725799
  0
POINT
  5
4AB
100
AcDbEntity
  8
0
 62
           6
100
AcDbPoint
 10
-670.17385924176
 20
-1861.171035725799
  0
POINT
  5
4AA
100
AcDbEntity
  8
0
 62
           6
100
AcDbPoint
 10
-680.17385924176
 20
-1861.171035725799
  0
POINT
  5
4A9
100
AcDbEntity
  8
0
 62
           6
100
AcDbPoint
 10
-683.17385924176
 20
-1911.171035725799
  0
POINT
  5
4A8
100
AcDbEntity
  8
0
 62
           6
100
AcDbPoint
 10
-683.17385924176
 20
-1861.171035725799
  0
POINT
  5
4A7
100
AcDbEntity
  8
0
 62
           6
100
AcDbPoint
 10
-693.17385924176
 20
-1911.171035725799
  0
POINT
  5
4A6
100
AcDbEntity
  8
0
 62
           6
100
AcDbPoint
 10
-693.17385924176
 20
-1861.171035725799
  0
POINT
  5
4A5
100
AcDbEntity
  8
0
 62
           6
100
AcDbPoint
 10
-683.17385924176
 20
-1861.171035725799
  0
POINT
  5
4A4
100
AcDbEntity
  8
0
 62
           6
100
AcDbPoint
 10
-693.17385924176
 20
-1861.171035725799
  0
POINT
  5
4A3
100
AcDbEntity
  8
0
 62
           6
100
AcDbPoint
 10
-683.17385924176
 20
-1911.171035725799
  0
POINT
  5
4A2
100
AcDbEntity
  8
0
 62
           6
100
AcDbPoint
 10
-693.17385924176
 20
-1911.171035725799
  0
POINT
  5
4A1
100
AcDbEntity
  8
0
 62
           6
100
AcDbPoint
 10
-696.17385924176
 20
-1911.171035725799
  0
POINT
  5
4A0
100
AcDbEntity
  8
0
 62
           6
100
AcDbPoint
 10
-696.17385924176
 20
-1861.171035725799
  0
POINT
  5
49F
100
AcDbEntity
  8
0
 62
           6
100
AcDbPoint
 10
-696.17385924176
 20
-1911.171035725799
  0
POINT
  5
49E
100
AcDbEntity
  8
0
 62
           6
100
AcDbPoint
 10
-706.17385924176
 20
-1911.171035725799
  0
POINT
  5
49D
100
AcDbEntity
  8
0
 62
           6
100
AcDbPoint
 10
-706.17385924176
 20
-1911.171035725799
  0
POINT
  5
49C
100
AcDbEntity
  8
0
 62
           6
100
AcDbPoint
 10
-706.17385924176
 20
-1861.171035725799
  0
POINT
  5
49B
100
AcDbEntity
  8
0
 62
           6
100
AcDbPoint
 10
-696.17385924176
 20
-1861.171035725799
  0
POINT
  5
49A
100
AcDbEntity
  8
0
 62
           6
100
AcDbPoint
 10
-706.17385924176
 20
-1861.171035725799
  0
POINT
  5
499
100
AcDbEntity
  8
0
 62
           6
100
AcDbPoint
 10
-709.17385924176
 20
-1911.171035725799
  0
POINT
  5
498
100
AcDbEntity
  8
0
 62
           6
100
AcDbPoint
 10
-709.17385924176
 20
-1861.171035725799
  0
POINT
  5
497
100
AcDbEntity
  8
0
 62
           6
100
AcDbPoint
 10
-709.17385924176
 20
-1911.171035725799
  0
POINT
  5
496
100
AcDbEntity
  8
0
 62
           6
100
AcDbPoint
 10
-719.17385924176
 20
-1911.171035725799
  0
POINT
  5
495
100
AcDbEntity
  8
0
 62
           6
100
AcDbPoint
 10
-719.17385924176
 20
-1911.171035725799
  0
POINT
  5
494
100
AcDbEntity
  8
0
 62
           6
100
AcDbPoint
 10
-719.17385924176
 20
-1861.171035725799
  0
POINT
  5
493
100
AcDbEntity
  8
0
 62
           6
100
AcDbPoint
 10
-709.17385924176
 20
-1861.171035725799
  0
POINT
  5
492
100
AcDbEntity
  8
0
 62
           6
100
AcDbPoint
 10
-719.17385924176
 20
-1861.171035725799
  0
POINT
  5
491
100
AcDbEntity
  8
0
 62
           6
100
AcDbPoint
 10
-722.17385924176
 20
-1911.171035725799
  0
POINT
  5
490
100
AcDbEntity
  8
0
 62
           6
100
AcDbPoint
 10
-722.17385924176
 20
-1861.171035725799
  0
POINT
  5
48F
100
AcDbEntity
  8
0
 62
           6
100
AcDbPoint
 10
-722.17385924176
 20
-1911.171035725799
  0
POINT
  5
48E
100
AcDbEntity
  8
0
 62
           6
100
AcDbPoint
 10
-732.17385924176
 20
-1911.171035725799
  0
POINT
  5
48D
100
AcDbEntity
  8
0
 62
           6
100
AcDbPoint
 10
-732.17385924176
 20
-1911.171035725799
  0
POINT
  5
48C
100
AcDbEntity
  8
0
 62
           6
100
AcDbPoint
 10
-732.17385924176
 20
-1861.171035725799
  0
POINT
  5
48B
100
AcDbEntity
  8
0
 62
           6
100
AcDbPoint
 10
-722.17385924176
 20
-1861.171035725799
  0
POINT
  5
48A
100
AcDbEntity
  8
0
 62
           6
100
AcDbPoint
 10
-732.17385924176
 20
-1861.171035725799
  0
POINT
  5
489
100
AcDbEntity
  8
0
 62
           6
100
AcDbPoint
 10
-735.17385924176
 20
-1911.171035725799
  0
POINT
  5
488
100
AcDbEntity
  8
0
 62
           6
100
AcDbPoint
 10
-735.17385924176
 20
-1861.171035725799
  0
POINT
  5
487
100
AcDbEntity
  8
0
 62
           6
100
AcDbPoint
 10
-735.17385924176
 20
-1911.171035725799
  0
POINT
  5
486
100
AcDbEntity
  8
0
 62
           6
100
AcDbPoint
 10
-745.17385924176
 20
-1911.171035725799
  0
POINT
  5
485
100
AcDbEntity
  8
0
 62
           6
100
AcDbPoint
 10
-745.17385924176
 20
-1911.171035725799
  0
POINT
  5
484
100
AcDbEntity
  8
0
 62
           6
100
AcDbPoint
 10
-745.17385924176
 20
-1861.171035725799
  0
POINT
  5
483
100
AcDbEntity
  8
0
 62
           6
100
AcDbPoint
 10
-735.17385924176
 20
-1861.171035725799
  0
POINT
  5
482
100
AcDbEntity
  8
0
 62
           6
100
AcDbPoint
 10
-745.17385924176
 20
-1861.171035725799
  0
POINT
  5
481
100
AcDbEntity
  8
0
 62
           6
100
AcDbPoint
 10
-748.17385924176
 20
-1911.171035725799
  0
POINT
  5
480
100
AcDbEntity
  8
0
 62
           6
100
AcDbPoint
 10
-748.17385924176
 20
-1861.171035725799
  0
POINT
  5
47F
100
AcDbEntity
  8
0
 62
           6
100
AcDbPoint
 10
-758.17385924176
 20
-1911.171035725799
  0
POINT
  5
47E
100
AcDbEntity
  8
0
 62
           6
100
AcDbPoint
 10
-758.17385924176
 20
-1861.171035725799
  0
POINT
  5
47D
100
AcDbEntity
  8
0
 62
           6
100
AcDbPoint
 10
-748.17385924176
 20
-1861.171035725799
  0
POINT
  5
47C
100
AcDbEntity
  8
0
 62
           6
100
AcDbPoint
 10
-758.17385924176
 20
-1861.171035725799
  0
POINT
  5
47B
100
AcDbEntity
  8
0
 62
           6
100
AcDbPoint
 10
-748.17385924176
 20
-1911.171035725799
  0
POINT
  5
47A
100
AcDbEntity
  8
0
 62
           6
100
AcDbPoint
 10
-758.17385924176
 20
-1911.171035725799
  0
POINT
  5
479
100
AcDbEntity
  8
0
 62
           6
100
AcDbPoint
 10
-761.17385924176
 20
-1911.171035725799
  0
POINT
  5
478
100
AcDbEntity
  8
0
 62
           6
100
AcDbPoint
 10
-761.17385924176
 20
-1861.171035725799
  0
POINT
  5
477
100
AcDbEntity
  8
0
 62
           6
100
AcDbPoint
 10
-761.17385924176
 20
-1911.171035725799
  0
POINT
  5
476
100
AcDbEntity
  8
0
 62
           6
100
AcDbPoint
 10
-771.17385924176
 20
-1911.171035725799
  0
POINT
  5
475
100
AcDbEntity
  8
0
 62
           6
100
AcDbPoint
 10
-771.17385924176
 20
-1911.171035725799
  0
POINT
  5
474
100
AcDbEntity
  8
0
 62
           6
100
AcDbPoint
 10
-771.17385924176
 20
-1861.171035725799
  0
POINT
  5
473
100
AcDbEntity
  8
0
 62
           6
100
AcDbPoint
 10
-761.17385924176
 20
-1861.171035725799
  0
POINT
  5
472
100
AcDbEntity
  8
0
 62
           6
100
AcDbPoint
 10
-771.17385924176
 20
-1861.171035725799
  0
POINT
  5
471
100
AcDbEntity
  8
0
 62
           6
100
AcDbPoint
 10
-774.17385924176
 20
-1911.171035725799
  0
POINT
  5
470
100
AcDbEntity
  8
0
 62
           6
100
AcDbPoint
 10
-774.17385924176
 20
-1861.171035725799
  0
POINT
  5
46F
100
AcDbEntity
  8
0
 62
           6
100
AcDbPoint
 10
-774.17385924176
 20
-1911.171035725799
  0
POINT
  5
46E
100
AcDbEntity
  8
0
 62
           6
100
AcDbPoint
 10
-784.17385924176
 20
-1911.171035725799
  0
POINT
  5
46D
100
AcDbEntity
  8
0
 62
           6
100
AcDbPoint
 10
-784.17385924176
 20
-1911.171035725799
  0
POINT
  5
46C
100
AcDbEntity
  8
0
 62
           6
100
AcDbPoint
 10
-784.17385924176
 20
-1861.171035725799
  0
POINT
  5
46B
100
AcDbEntity
  8
0
 62
           6
100
AcDbPoint
 10
-774.17385924176
 20
-1861.171035725799
  0
POINT
  5
46A
100
AcDbEntity
  8
0
 62
           6
100
AcDbPoint
 10
-784.17385924176
 20
-1861.171035725799
  0
POINT
  5
469
100
AcDbEntity
  8
0
 62
           6
100
AcDbPoint
 10
-787.17385924176
 20
-1911.171035725799
  0
POINT
  5
468
100
AcDbEntity
  8
0
 62
           6
100
AcDbPoint
 10
-787.17385924176
 20
-1861.171035725799
  0
POINT
  5
467
100
AcDbEntity
  8
0
 62
           6
100
AcDbPoint
 10
-787.17385924176
 20
-1911.171035725799
  0
POINT
  5
466
100
AcDbEntity
  8
0
 62
           6
100
AcDbPoint
 10
-797.17385924176
 20
-1911.171035725799
  0
POINT
  5
465
100
AcDbEntity
  8
0
 62
           6
100
AcDbPoint
 10
-797.17385924176
 20
-1911.171035725799
  0
POINT
  5
464
100
AcDbEntity
  8
0
 62
           6
100
AcDbPoint
 10
-797.17385924176
 20
-1861.171035725799
  0
POINT
  5
463
100
AcDbEntity
  8
0
 62
           6
100
AcDbPoint
 10
-787.17385924176
 20
-1861.171035725799
  0
POINT
  5
462
100
AcDbEntity
  8
0
 62
           6
100
AcDbPoint
 10
-797.17385924176
 20
-1861.171035725799
  0
POINT
  5
461
100
AcDbEntity
  8
0
 62
           6
100
AcDbPoint
 10
-800.17385924176
 20
-1911.171035725799
  0
POINT
  5
460
100
AcDbEntity
  8
0
 62
           6
100
AcDbPoint
 10
-800.17385924176
 20
-1861.171035725799
  0
POINT
  5
45F
100
AcDbEntity
  8
0
 62
           6
100
AcDbPoint
 10
-800.17385924176
 20
-1911.171035725799
  0
POINT
  5
45E
100
AcDbEntity
  8
0
 62
           6
100
AcDbPoint
 10
-810.17385924176
 20
-1911.171035725799
  0
POINT
  5
45D
100
AcDbEntity
  8
0
 62
           6
100
AcDbPoint
 10
-810.17385924176
 20
-1911.171035725799
  0
POINT
  5
45C
100
AcDbEntity
  8
0
 62
           6
100
AcDbPoint
 10
-810.17385924176
 20
-1861.171035725799
  0
POINT
  5
45B
100
AcDbEntity
  8
0
 62
           6
100
AcDbPoint
 10
-800.17385924176
 20
-1861.171035725799
  0
POINT
  5
45A
100
AcDbEntity
  8
0
 62
           6
100
AcDbPoint
 10
-810.17385924176
 20
-1861.171035725799
  0
POINT
  5
459
100
AcDbEntity
  8
0
 62
           6
100
AcDbPoint
 10
-813.17385924176
 20
-1911.171035725799
  0
POINT
  5
458
100
AcDbEntity
  8
0
 62
           6
100
AcDbPoint
 10
-813.17385924176
 20
-1861.171035725799
  0
POINT
  5
457
100
AcDbEntity
  8
0
 62
           6
100
AcDbPoint
 10
-823.17385924176
 20
-1911.171035725799
  0
POINT
  5
456
100
AcDbEntity
  8
0
 62
           6
100
AcDbPoint
 10
-823.17385924176
 20
-1861.171035725799
  0
POINT
  5
455
100
AcDbEntity
  8
0
 62
           6
100
AcDbPoint
 10
-813.17385924176
 20
-1861.171035725799
  0
POINT
  5
454
100
AcDbEntity
  8
0
 62
           6
100
AcDbPoint
 10
-823.17385924176
 20
-1861.171035725799
  0
POINT
  5
453
100
AcDbEntity
  8
0
 62
           6
100
AcDbPoint
 10
-813.17385924176
 20
-1911.171035725799
  0
POINT
  5
452
100
AcDbEntity
  8
0
 62
           6
100
AcDbPoint
 10
-823.17385924176
 20
-1911.171035725799
  0
POINT
  5
451
100
AcDbEntity
  8
0
 62
           6
100
AcDbPoint
 10
-826.17385924176
 20
-1911.171035725799
  0
POINT
  5
450
100
AcDbEntity
  8
0
 62
           6
100
AcDbPoint
 10
-826.17385924176
 20
-1861.171035725799
  0
POINT
  5
44F
100
AcDbEntity
  8
0
 62
           6
100
AcDbPoint
 10
-826.17385924176
 20
-1911.171035725799
  0
POINT
  5
44E
100
AcDbEntity
  8
0
 62
           6
100
AcDbPoint
 10
-836.17385924176
 20
-1911.171035725799
  0
POINT
  5
44D
100
AcDbEntity
  8
0
 62
           6
100
AcDbPoint
 10
-836.17385924176
 20
-1911.171035725799
  0
POINT
  5
44C
100
AcDbEntity
  8
0
 62
           6
100
AcDbPoint
 10
-836.17385924176
 20
-1861.171035725799
  0
POINT
  5
44B
100
AcDbEntity
  8
0
 62
           6
100
AcDbPoint
 10
-826.17385924176
 20
-1861.171035725799
  0
POINT
  5
44A
100
AcDbEntity
  8
0
 62
           6
100
AcDbPoint
 10
-836.17385924176
 20
-1861.171035725799
  0
POINT
  5
449
100
AcDbEntity
  8
0
 62
           6
100
AcDbPoint
 10
-839.17385924176
 20
-1911.171035725799
  0
POINT
  5
448
100
AcDbEntity
  8
0
 62
           6
100
AcDbPoint
 10
-839.17385924176
 20
-1861.171035725799
  0
POINT
  5
447
100
AcDbEntity
  8
0
 62
           6
100
AcDbPoint
 10
-839.17385924176
 20
-1911.171035725799
  0
POINT
  5
446
100
AcDbEntity
  8
0
 62
           6
100
AcDbPoint
 10
-849.17385924176
 20
-1911.171035725799
  0
POINT
  5
445
100
AcDbEntity
  8
0
 62
           6
100
AcDbPoint
 10
-849.17385924176
 20
-1911.171035725799
  0
POINT
  5
444
100
AcDbEntity
  8
0
 62
           6
100
AcDbPoint
 10
-849.17385924176
 20
-1861.171035725799
  0
POINT
  5
443
100
AcDbEntity
  8
0
 62
           6
100
AcDbPoint
 10
-839.17385924176
 20
-1861.171035725799
  0
POINT
  5
442
100
AcDbEntity
  8
0
 62
           6
100
AcDbPoint
 10
-849.17385924176
 20
-1861.171035725799
  0
POINT
  5
441
100
AcDbEntity
  8
0
 62
           6
100
AcDbPoint
 10
-852.17385924176
 20
-1911.171035725799
  0
POINT
  5
440
100
AcDbEntity
  8
0
 62
           6
100
AcDbPoint
 10
-852.17385924176
 20
-1861.171035725799
  0
POINT
  5
43F
100
AcDbEntity
  8
0
 62
           6
100
AcDbPoint
 10
-852.17385924176
 20
-1911.171035725799
  0
POINT
  5
43E
100
AcDbEntity
  8
0
 62
           6
100
AcDbPoint
 10
-862.17385924176
 20
-1911.171035725799
  0
POINT
  5
43D
100
AcDbEntity
  8
0
 62
           6
100
AcDbPoint
 10
-862.17385924176
 20
-1911.171035725799
  0
POINT
  5
43C
100
AcDbEntity
  8
0
 62
           6
100
AcDbPoint
 10
-862.17385924176
 20
-1861.171035725799
  0
POINT
  5
43B
100
AcDbEntity
  8
0
 62
           6
100
AcDbPoint
 10
-852.17385924176
 20
-1861.171035725799
  0
POINT
  5
43A
100
AcDbEntity
  8
0
 62
           6
100
AcDbPoint
 10
-862.17385924176
 20
-1861.171035725799
  0
POINT
  5
439
100
AcDbEntity
  8
0
 62
           6
100
AcDbPoint
 10
-865.17385924176
 20
-1911.171035725799
  0
POINT
  5
438
100
AcDbEntity
  8
0
 62
           6
100
AcDbPoint
 10
-865.17385924176
 20
-1861.171035725799
  0
POINT
  5
437
100
AcDbEntity
  8
0
 62
           6
100
AcDbPoint
 10
-865.17385924176
 20
-1911.171035725799
  0
POINT
  5
436
100
AcDbEntity
  8
0
 62
           6
100
AcDbPoint
 10
-875.17385924176
 20
-1911.171035725799
  0
POINT
  5
435
100
AcDbEntity
  8
0
 62
           6
100
AcDbPoint
 10
-875.17385924176
 20
-1911.171035725799
  0
POINT
  5
434
100
AcDbEntity
  8
0
 62
           6
100
AcDbPoint
 10
-875.17385924176
 20
-1861.171035725799
  0
POINT
  5
433
100
AcDbEntity
  8
0
 62
           6
100
AcDbPoint
 10
-865.17385924176
 20
-1861.171035725799
  0
POINT
  5
432
100
AcDbEntity
  8
0
 62
           6
100
AcDbPoint
 10
-875.17385924176
 20
-1861.171035725799
  0
POINT
  5
431
100
AcDbEntity
  8
0
 62
           6
100
AcDbPoint
 10
-878.17385924176
 20
-1911.171035725799
  0
POINT
  5
430
100
AcDbEntity
  8
0
 62
           6
100
AcDbPoint
 10
-878.17385924176
 20
-1861.171035725799
  0
POINT
  5
42F
100
AcDbEntity
  8
0
 62
           6
100
AcDbPoint
 10
-888.17385924176
 20
-1911.171035725799
  0
POINT
  5
42E
100
AcDbEntity
  8
0
 62
           6
100
AcDbPoint
 10
-888.17385924176
 20
-1861.171035725799
  0
POINT
  5
42D
100
AcDbEntity
  8
0
 62
           6
100
AcDbPoint
 10
-878.17385924176
 20
-1861.171035725799
  0
POINT
  5
42C
100
AcDbEntity
  8
0
 62
           6
100
AcDbPoint
 10
-888.17385924176
 20
-1861.171035725799
  0
POINT
  5
42B
100
AcDbEntity
  8
0
 62
           6
100
AcDbPoint
 10
-878.17385924176
 20
-1911.171035725799
  0
POINT
  5
42A
100
AcDbEntity
  8
0
 62
           6
100
AcDbPoint
 10
-888.17385924176
 20
-1911.171035725799
  0
POINT
  5
429
100
AcDbEntity
  8
0
 62
           6
100
AcDbPoint
 10
-891.17385924176
 20
-1911.171035725799
  0
POINT
  5
428
100
AcDbEntity
  8
0
 62
           6
100
AcDbPoint
 10
-891.17385924176
 20
-1861.171035725799
  0
POINT
  5
427
100
AcDbEntity
  8
0
 62
           6
100
AcDbPoint
 10
-891.17385924176
 20
-1911.171035725799
  0
POINT
  5
426
100
AcDbEntity
  8
0
 62
           6
100
AcDbPoint
 10
-901.17385924176
 20
-1911.171035725799
  0
POINT
  5
425
100
AcDbEntity
  8
0
 62
           6
100
AcDbPoint
 10
-901.17385924176
 20
-1911.171035725799
  0
POINT
  5
424
100
AcDbEntity
  8
0
 62
           6
100
AcDbPoint
 10
-901.17385924176
 20
-1861.171035725799
  0
POINT
  5
423
100
AcDbEntity
  8
0
 62
           6
100
AcDbPoint
 10
-891.17385924176
 20
-1861.171035725799
  0
POINT
  5
422
100
AcDbEntity
  8
0
 62
           6
100
AcDbPoint
 10
-901.17385924176
 20
-1861.171035725799
  0
POINT
  5
421
100
AcDbEntity
  8
0
 62
           6
100
AcDbPoint
 10
-904.17385924176
 20
-1911.171035725799
  0
POINT
  5
420
100
AcDbEntity
  8
0
 62
           6
100
AcDbPoint
 10
-904.17385924176
 20
-1861.171035725799
  0
POINT
  5
41F
100
AcDbEntity
  8
0
 62
           6
100
AcDbPoint
 10
-904.17385924176
 20
-1911.171035725799
  0
POINT
  5
41E
100
AcDbEntity
  8
0
 62
           6
100
AcDbPoint
 10
-914.17385924176
 20
-1911.171035725799
  0
POINT
  5
41D
100
AcDbEntity
  8
0
 62
           6
100
AcDbPoint
 10
-914.17385924176
 20
-1911.171035725799
  0
POINT
  5
41C
100
AcDbEntity
  8
0
 62
           6
100
AcDbPoint
 10
-914.17385924176
 20
-1861.171035725799
  0
POINT
  5
41B
100
AcDbEntity
  8
0
 62
           6
100
AcDbPoint
 10
-904.17385924176
 20
-1861.171035725799
  0
POINT
  5
41A
100
AcDbEntity
  8
0
 62
           6
100
AcDbPoint
 10
-914.17385924176
 20
-1861.171035725799
  0
POINT
  5
419
100
AcDbEntity
  8
0
 62
           6
100
AcDbPoint
 10
-527.17385924176
 20
-1851.171035725799
  0
POINT
  5
418
100
AcDbEntity
  8
0
 62
           6
100
AcDbPoint
 10
-527.17385924176
 20
-1801.171035725799
  0
POINT
  5
417
100
AcDbEntity
  8
0
 62
           6
100
AcDbPoint
 10
-527.17385924176
 20
-1851.171035725799
  0
POINT
  5
416
100
AcDbEntity
  8
0
 62
           6
100
AcDbPoint
 10
-537.17385924176
 20
-1851.171035725799
  0
POINT
  5
415
100
AcDbEntity
  8
0
 62
           6
100
AcDbPoint
 10
-537.17385924176
 20
-1851.171035725799
  0
POINT
  5
414
100
AcDbEntity
  8
0
 62
           6
100
AcDbPoint
 10
-537.17385924176
 20
-1801.171035725799
  0
POINT
  5
413
100
AcDbEntity
  8
0
 62
           6
100
AcDbPoint
 10
-527.17385924176
 20
-1801.171035725799
  0
POINT
  5
412
100
AcDbEntity
  8
0
 62
           6
100
AcDbPoint
 10
-537.17385924176
 20
-1801.171035725799
  0
POINT
  5
411
100
AcDbEntity
  8
0
 62
           6
100
AcDbPoint
 10
-540.17385924176
 20
-1851.171035725799
  0
POINT
  5
410
100
AcDbEntity
  8
0
 62
           6
100
AcDbPoint
 10
-540.17385924176
 20
-1801.171035725799
  0
POINT
  5
40F
100
AcDbEntity
  8
0
 62
           6
100
AcDbPoint
 10
-540.17385924176
 20
-1851.171035725799
  0
POINT
  5
40E
100
AcDbEntity
  8
0
 62
           6
100
AcDbPoint
 10
-550.17385924176
 20
-1851.171035725799
  0
POINT
  5
40D
100
AcDbEntity
  8
0
 62
           6
100
AcDbPoint
 10
-550.17385924176
 20
-1851.171035725799
  0
POINT
  5
40C
100
AcDbEntity
  8
0
 62
           6
100
AcDbPoint
 10
-550.17385924176
 20
-1801.171035725799
  0
POINT
  5
40B
100
AcDbEntity
  8
0
 62
           6
100
AcDbPoint
 10
-540.17385924176
 20
-1801.171035725799
  0
POINT
  5
40A
100
AcDbEntity
  8
0
 62
           6
100
AcDbPoint
 10
-550.17385924176
 20
-1801.171035725799
  0
POINT
  5
409
100
AcDbEntity
  8
0
 62
           6
100
AcDbPoint
 10
-553.17385924176
 20
-1851.171035725799
  0
POINT
  5
408
100
AcDbEntity
  8
0
 62
           6
100
AcDbPoint
 10
-553.17385924176
 20
-1801.171035725799
  0
POINT
  5
407
100
AcDbEntity
  8
0
 62
           6
100
AcDbPoint
 10
-563.17385924176
 20
-1851.171035725799
  0
POINT
  5
406
100
AcDbEntity
  8
0
 62
           6
100
AcDbPoint
 10
-563.17385924176
 20
-1801.171035725799
  0
POINT
  5
405
100
AcDbEntity
  8
0
 62
           6
100
AcDbPoint
 10
-553.17385924176
 20
-1801.171035725799
  0
POINT
  5
404
100
AcDbEntity
  8
0
 62
           6
100
AcDbPoint
 10
-563.17385924176
 20
-1801.171035725799
  0
POINT
  5
403
100
AcDbEntity
  8
0
 62
           6
100
AcDbPoint
 10
-553.17385924176
 20
-1851.171035725799
  0
POINT
  5
402
100
AcDbEntity
  8
0
 62
           6
100
AcDbPoint
 10
-563.17385924176
 20
-1851.171035725799
  0
POINT
  5
401
100
AcDbEntity
  8
0
 62
           6
100
AcDbPoint
 10
-566.17385924176
 20
-1851.171035725799
  0
POINT
  5
400
100
AcDbEntity
  8
0
 62
           6
100
AcDbPoint
 10
-566.17385924176
 20
-1801.171035725799
  0
POINT
  5
3FF
100
AcDbEntity
  8
0
 62
           6
100
AcDbPoint
 10
-566.17385924176
 20
-1851.171035725799
  0
POINT
  5
3FE
100
AcDbEntity
  8
0
 62
           6
100
AcDbPoint
 10
-576.17385924176
 20
-1851.171035725799
  0
POINT
  5
3FD
100
AcDbEntity
  8
0
 62
           6
100
AcDbPoint
 10
-576.17385924176
 20
-1851.171035725799
  0
POINT
  5
3FC
100
AcDbEntity
  8
0
 62
           6
100
AcDbPoint
 10
-576.17385924176
 20
-1801.171035725799
  0
POINT
  5
3FB
100
AcDbEntity
  8
0
 62
           6
100
AcDbPoint
 10
-566.17385924176
 20
-1801.171035725799
  0
POINT
  5
3FA
100
AcDbEntity
  8
0
 62
           6
100
AcDbPoint
 10
-576.17385924176
 20
-1801.171035725799
  0
POINT
  5
3F9
100
AcDbEntity
  8
0
 62
           6
100
AcDbPoint
 10
-579.17385924176
 20
-1851.171035725799
  0
POINT
  5
3F8
100
AcDbEntity
  8
0
 62
           6
100
AcDbPoint
 10
-579.17385924176
 20
-1801.171035725799
  0
POINT
  5
3F7
100
AcDbEntity
  8
0
 62
           6
100
AcDbPoint
 10
-579.17385924176
 20
-1851.171035725799
  0
POINT
  5
3F6
100
AcDbEntity
  8
0
 62
           6
100
AcDbPoint
 10
-589.17385924176
 20
-1851.171035725799
  0
POINT
  5
3F5
100
AcDbEntity
  8
0
 62
           6
100
AcDbPoint
 10
-589.17385924176
 20
-1851.171035725799
  0
POINT
  5
3F4
100
AcDbEntity
  8
0
 62
           6
100
AcDbPoint
 10
-589.17385924176
 20
-1801.171035725799
  0
POINT
  5
3F3
100
AcDbEntity
  8
0
 62
           6
100
AcDbPoint
 10
-579.17385924176
 20
-1801.171035725799
  0
POINT
  5
3F2
100
AcDbEntity
  8
0
 62
           6
100
AcDbPoint
 10
-589.17385924176
 20
-1801.171035725799
  0
POINT
  5
3F1
100
AcDbEntity
  8
0
 62
           6
100
AcDbPoint
 10
-592.17385924176
 20
-1851.171035725799
  0
POINT
  5
3F0
100
AcDbEntity
  8
0
 62
           6
100
AcDbPoint
 10
-592.17385924176
 20
-1801.171035725799
  0
POINT
  5
3EF
100
AcDbEntity
  8
0
 62
           6
100
AcDbPoint
 10
-592.17385924176
 20
-1851.171035725799
  0
POINT
  5
3EE
100
AcDbEntity
  8
0
 62
           6
100
AcDbPoint
 10
-602.17385924176
 20
-1851.171035725799
  0
POINT
  5
3ED
100
AcDbEntity
  8
0
 62
           6
100
AcDbPoint
 10
-602.17385924176
 20
-1851.171035725799
  0
POINT
  5
3EC
100
AcDbEntity
  8
0
 62
           6
100
AcDbPoint
 10
-602.17385924176
 20
-1801.171035725799
  0
POINT
  5
3EB
100
AcDbEntity
  8
0
 62
           6
100
AcDbPoint
 10
-592.17385924176
 20
-1801.171035725799
  0
POINT
  5
3EA
100
AcDbEntity
  8
0
 62
           6
100
AcDbPoint
 10
-602.17385924176
 20
-1801.171035725799
  0
POINT
  5
3E9
100
AcDbEntity
  8
0
 62
           6
100
AcDbPoint
 10
-605.17385924176
 20
-1851.171035725799
  0
POINT
  5
3E8
100
AcDbEntity
  8
0
 62
           6
100
AcDbPoint
 10
-605.17385924176
 20
-1801.171035725799
  0
POINT
  5
3E7
100
AcDbEntity
  8
0
 62
           6
100
AcDbPoint
 10
-605.17385924176
 20
-1851.171035725799
  0
POINT
  5
3E6
100
AcDbEntity
  8
0
 62
           6
100
AcDbPoint
 10
-615.17385924176
 20
-1851.171035725799
  0
POINT
  5
3E5
100
AcDbEntity
  8
0
 62
           6
100
AcDbPoint
 10
-615.17385924176
 20
-1851.171035725799
  0
POINT
  5
3E4
100
AcDbEntity
  8
0
 62
           6
100
AcDbPoint
 10
-615.17385924176
 20
-1801.171035725799
  0
POINT
  5
3E3
100
AcDbEntity
  8
0
 62
           6
100
AcDbPoint
 10
-605.17385924176
 20
-1801.171035725799
  0
POINT
  5
3E2
100
AcDbEntity
  8
0
 62
           6
100
AcDbPoint
 10
-615.17385924176
 20
-1801.171035725799
  0
POINT
  5
3E1
100
AcDbEntity
  8
0
 62
           6
100
AcDbPoint
 10
-618.17385924176
 20
-1851.171035725799
  0
POINT
  5
3E0
100
AcDbEntity
  8
0
 62
           6
100
AcDbPoint
 10
-618.17385924176
 20
-1801.171035725799
  0
POINT
  5
3DF
100
AcDbEntity
  8
0
 62
           6
100
AcDbPoint
 10
-628.17385924176
 20
-1851.171035725799
  0
POINT
  5
3DE
100
AcDbEntity
  8
0
 62
           6
100
AcDbPoint
 10
-628.17385924176
 20
-1801.171035725799
  0
POINT
  5
3DD
100
AcDbEntity
  8
0
 62
           6
100
AcDbPoint
 10
-618.17385924176
 20
-1801.171035725799
  0
POINT
  5
3DC
100
AcDbEntity
  8
0
 62
           6
100
AcDbPoint
 10
-628.17385924176
 20
-1801.171035725799
  0
POINT
  5
3DB
100
AcDbEntity
  8
0
 62
           6
100
AcDbPoint
 10
-618.17385924176
 20
-1851.171035725799
  0
POINT
  5
3DA
100
AcDbEntity
  8
0
 62
           6
100
AcDbPoint
 10
-628.17385924176
 20
-1851.171035725799
  0
POINT
  5
3D9
100
AcDbEntity
  8
0
 62
           6
100
AcDbPoint
 10
-631.17385924176
 20
-1851.171035725799
  0
POINT
  5
3D8
100
AcDbEntity
  8
0
 62
           6
100
AcDbPoint
 10
-631.17385924176
 20
-1801.171035725799
  0
POINT
  5
3D7
100
AcDbEntity
  8
0
 62
           6
100
AcDbPoint
 10
-631.17385924176
 20
-1851.171035725799
  0
POINT
  5
3D6
100
AcDbEntity
  8
0
 62
           6
100
AcDbPoint
 10
-641.17385924176
 20
-1851.171035725799
  0
POINT
  5
3D5
100
AcDbEntity
  8
0
 62
           6
100
AcDbPoint
 10
-641.17385924176
 20
-1851.171035725799
  0
POINT
  5
3D4
100
AcDbEntity
  8
0
 62
           6
100
AcDbPoint
 10
-641.17385924176
 20
-1801.171035725799
  0
POINT
  5
3D3
100
AcDbEntity
  8
0
 62
           6
100
AcDbPoint
 10
-631.17385924176
 20
-1801.171035725799
  0
POINT
  5
3D2
100
AcDbEntity
  8
0
 62
           6
100
AcDbPoint
 10
-641.17385924176
 20
-1801.171035725799
  0
POINT
  5
3D1
100
AcDbEntity
  8
0
 62
           6
100
AcDbPoint
 10
-644.17385924176
 20
-1851.171035725799
  0
POINT
  5
3D0
100
AcDbEntity
  8
0
 62
           6
100
AcDbPoint
 10
-644.17385924176
 20
-1801.171035725799
  0
POINT
  5
3CF
100
AcDbEntity
  8
0
 62
           6
100
AcDbPoint
 10
-644.17385924176
 20
-1851.171035725799
  0
POINT
  5
3CE
100
AcDbEntity
  8
0
 62
           6
100
AcDbPoint
 10
-654.17385924176
 20
-1851.171035725799
  0
POINT
  5
3CD
100
AcDbEntity
  8
0
 62
           6
100
AcDbPoint
 10
-654.17385924176
 20
-1851.171035725799
  0
POINT
  5
3CC
100
AcDbEntity
  8
0
 62
           6
100
AcDbPoint
 10
-654.17385924176
 20
-1801.171035725799
  0
POINT
  5
3CB
100
AcDbEntity
  8
0
 62
           6
100
AcDbPoint
 10
-644.17385924176
 20
-1801.171035725799
  0
POINT
  5
3CA
100
AcDbEntity
  8
0
 62
           6
100
AcDbPoint
 10
-654.17385924176
 20
-1801.171035725799
  0
POINT
  5
3C9
100
AcDbEntity
  8
0
 62
           6
100
AcDbPoint
 10
-657.17385924176
 20
-1851.171035725799
  0
POINT
  5
3C8
100
AcDbEntity
  8
0
 62
           6
100
AcDbPoint
 10
-657.17385924176
 20
-1801.171035725799
  0
POINT
  5
3C7
100
AcDbEntity
  8
0
 62
           6
100
AcDbPoint
 10
-657.17385924176
 20
-1851.171035725799
  0
POINT
  5
3C6
100
AcDbEntity
  8
0
 62
           6
100
AcDbPoint
 10
-667.17385924176
 20
-1851.171035725799
  0
POINT
  5
3C5
100
AcDbEntity
  8
0
 62
           6
100
AcDbPoint
 10
-667.17385924176
 20
-1851.171035725799
  0
POINT
  5
3C4
100
AcDbEntity
  8
0
 62
           6
100
AcDbPoint
 10
-667.17385924176
 20
-1801.171035725799
  0
POINT
  5
3C3
100
AcDbEntity
  8
0
 62
           6
100
AcDbPoint
 10
-657.17385924176
 20
-1801.171035725799
  0
POINT
  5
3C2
100
AcDbEntity
  8
0
 62
           6
100
AcDbPoint
 10
-667.17385924176
 20
-1801.171035725799
  0
POINT
  5
3C1
100
AcDbEntity
  8
0
 62
           6
100
AcDbPoint
 10
-670.17385924176
 20
-1851.171035725799
  0
POINT
  5
3C0
100
AcDbEntity
  8
0
 62
           6
100
AcDbPoint
 10
-670.17385924176
 20
-1801.171035725799
  0
POINT
  5
3BF
100
AcDbEntity
  8
0
 62
           6
100
AcDbPoint
 10
-670.17385924176
 20
-1851.171035725799
  0
POINT
  5
3BE
100
AcDbEntity
  8
0
 62
           6
100
AcDbPoint
 10
-680.17385924176
 20
-1851.171035725799
  0
POINT
  5
3BD
100
AcDbEntity
  8
0
 62
           6
100
AcDbPoint
 10
-680.17385924176
 20
-1851.171035725799
  0
POINT
  5
3BC
100
AcDbEntity
  8
0
 62
           6
100
AcDbPoint
 10
-680.17385924176
 20
-1801.171035725799
  0
POINT
  5
3BB
100
AcDbEntity
  8
0
 62
           6
100
AcDbPoint
 10
-670.17385924176
 20
-1801.171035725799
  0
POINT
  5
3BA
100
AcDbEntity
  8
0
 62
           6
100
AcDbPoint
 10
-680.17385924176
 20
-1801.171035725799
  0
POINT
  5
3B9
100
AcDbEntity
  8
0
 62
           6
100
AcDbPoint
 10
-683.17385924176
 20
-1851.171035725799
  0
POINT
  5
3B8
100
AcDbEntity
  8
0
 62
           6
100
AcDbPoint
 10
-683.17385924176
 20
-1801.171035725799
  0
POINT
  5
3B7
100
AcDbEntity
  8
0
 62
           6
100
AcDbPoint
 10
-693.17385924176
 20
-1851.171035725799
  0
POINT
  5
3B6
100
AcDbEntity
  8
0
 62
           6
100
AcDbPoint
 10
-693.17385924176
 20
-1801.171035725799
  0
POINT
  5
3B5
100
AcDbEntity
  8
0
 62
           6
100
AcDbPoint
 10
-683.17385924176
 20
-1801.171035725799
  0
POINT
  5
3B4
100
AcDbEntity
  8
0
 62
           6
100
AcDbPoint
 10
-693.17385924176
 20
-1801.171035725799
  0
POINT
  5
3B3
100
AcDbEntity
  8
0
 62
           6
100
AcDbPoint
 10
-683.17385924176
 20
-1851.171035725799
  0
POINT
  5
3B2
100
AcDbEntity
  8
0
 62
           6
100
AcDbPoint
 10
-693.17385924176
 20
-1851.171035725799
  0
POINT
  5
3B1
100
AcDbEntity
  8
0
 62
           6
100
AcDbPoint
 10
-696.17385924176
 20
-1851.171035725799
  0
POINT
  5
3B0
100
AcDbEntity
  8
0
 62
           6
100
AcDbPoint
 10
-696.17385924176
 20
-1801.171035725799
  0
POINT
  5
3AF
100
AcDbEntity
  8
0
 62
           6
100
AcDbPoint
 10
-696.17385924176
 20
-1851.171035725799
  0
POINT
  5
3AE
100
AcDbEntity
  8
0
 62
           6
100
AcDbPoint
 10
-706.17385924176
 20
-1851.171035725799
  0
POINT
  5
3AD
100
AcDbEntity
  8
0
 62
           6
100
AcDbPoint
 10
-706.17385924176
 20
-1851.171035725799
  0
POINT
  5
3AC
100
AcDbEntity
  8
0
 62
           6
100
AcDbPoint
 10
-706.17385924176
 20
-1801.171035725799
  0
POINT
  5
3AB
100
AcDbEntity
  8
0
 62
           6
100
AcDbPoint
 10
-696.17385924176
 20
-1801.171035725799
  0
POINT
  5
3AA
100
AcDbEntity
  8
0
 62
           6
100
AcDbPoint
 10
-706.17385924176
 20
-1801.171035725799
  0
POINT
  5
3A9
100
AcDbEntity
  8
0
 62
           6
100
AcDbPoint
 10
-709.17385924176
 20
-1851.171035725799
  0
POINT
  5
3A8
100
AcDbEntity
  8
0
 62
           6
100
AcDbPoint
 10
-709.17385924176
 20
-1801.171035725799
  0
POINT
  5
3A7
100
AcDbEntity
  8
0
 62
           6
100
AcDbPoint
 10
-709.17385924176
 20
-1851.171035725799
  0
POINT
  5
3A6
100
AcDbEntity
  8
0
 62
           6
100
AcDbPoint
 10
-719.17385924176
 20
-1851.171035725799
  0
POINT
  5
3A5
100
AcDbEntity
  8
0
 62
           6
100
AcDbPoint
 10
-719.17385924176
 20
-1851.171035725799
  0
POINT
  5
3A4
100
AcDbEntity
  8
0
 62
           6
100
AcDbPoint
 10
-719.17385924176
 20
-1801.171035725799
  0
POINT
  5
3A3
100
AcDbEntity
  8
0
 62
           6
100
AcDbPoint
 10
-709.17385924176
 20
-1801.171035725799
  0
POINT
  5
3A2
100
AcDbEntity
  8
0
 62
           6
100
AcDbPoint
 10
-719.17385924176
 20
-1801.171035725799
  0
POINT
  5
3A1
100
AcDbEntity
  8
0
 62
           6
100
AcDbPoint
 10
-722.17385924176
 20
-1851.171035725799
  0
POINT
  5
3A0
100
AcDbEntity
  8
0
 62
           6
100
AcDbPoint
 10
-722.17385924176
 20
-1801.171035725799
  0
POINT
  5
39F
100
AcDbEntity
  8
0
 62
           6
100
AcDbPoint
 10
-722.17385924176
 20
-1851.171035725799
  0
POINT
  5
39E
100
AcDbEntity
  8
0
 62
           6
100
AcDbPoint
 10
-732.17385924176
 20
-1851.171035725799
  0
POINT
  5
39D
100
AcDbEntity
  8
0
 62
           6
100
AcDbPoint
 10
-732.17385924176
 20
-1851.171035725799
  0
POINT
  5
39C
100
AcDbEntity
  8
0
 62
           6
100
AcDbPoint
 10
-732.17385924176
 20
-1801.171035725799
  0
POINT
  5
39B
100
AcDbEntity
  8
0
 62
           6
100
AcDbPoint
 10
-722.17385924176
 20
-1801.171035725799
  0
POINT
  5
39A
100
AcDbEntity
  8
0
 62
           6
100
AcDbPoint
 10
-732.17385924176
 20
-1801.171035725799
  0
POINT
  5
399
100
AcDbEntity
  8
0
 62
           6
100
AcDbPoint
 10
-735.17385924176
 20
-1851.171035725799
  0
POINT
  5
398
100
AcDbEntity
  8
0
 62
           6
100
AcDbPoint
 10
-735.17385924176
 20
-1801.171035725799
  0
POINT
  5
397
100
AcDbEntity
  8
0
 62
           6
100
AcDbPoint
 10
-735.17385924176
 20
-1851.171035725799
  0
POINT
  5
396
100
AcDbEntity
  8
0
 62
           6
100
AcDbPoint
 10
-745.17385924176
 20
-1851.171035725799
  0
POINT
  5
395
100
AcDbEntity
  8
0
 62
           6
100
AcDbPoint
 10
-745.17385924176
 20
-1851.171035725799
  0
POINT
  5
394
100
AcDbEntity
  8
0
 62
           6
100
AcDbPoint
 10
-745.17385924176
 20
-1801.171035725799
  0
POINT
  5
393
100
AcDbEntity
  8
0
 62
           6
100
AcDbPoint
 10
-735.17385924176
 20
-1801.171035725799
  0
POINT
  5
392
100
AcDbEntity
  8
0
 62
           6
100
AcDbPoint
 10
-745.17385924176
 20
-1801.171035725799
  0
POINT
  5
391
100
AcDbEntity
  8
0
 62
           6
100
AcDbPoint
 10
-748.17385924176
 20
-1851.171035725799
  0
POINT
  5
390
100
AcDbEntity
  8
0
 62
           6
100
AcDbPoint
 10
-748.17385924176
 20
-1801.171035725799
  0
POINT
  5
38F
100
AcDbEntity
  8
0
 62
           6
100
AcDbPoint
 10
-758.17385924176
 20
-1851.171035725799
  0
POINT
  5
38E
100
AcDbEntity
  8
0
 62
           6
100
AcDbPoint
 10
-758.17385924176
 20
-1801.171035725799
  0
POINT
  5
38D
100
AcDbEntity
  8
0
 62
           6
100
AcDbPoint
 10
-748.17385924176
 20
-1801.171035725799
  0
POINT
  5
38C
100
AcDbEntity
  8
0
 62
           6
100
AcDbPoint
 10
-758.17385924176
 20
-1801.171035725799
  0
POINT
  5
38B
100
AcDbEntity
  8
0
 62
           6
100
AcDbPoint
 10
-748.17385924176
 20
-1851.171035725799
  0
POINT
  5
38A
100
AcDbEntity
  8
0
 62
           6
100
AcDbPoint
 10
-758.17385924176
 20
-1851.171035725799
  0
POINT
  5
389
100
AcDbEntity
  8
0
 62
           6
100
AcDbPoint
 10
-761.17385924176
 20
-1851.171035725799
  0
POINT
  5
388
100
AcDbEntity
  8
0
 62
           6
100
AcDbPoint
 10
-761.17385924176
 20
-1801.171035725799
  0
POINT
  5
387
100
AcDbEntity
  8
0
 62
           6
100
AcDbPoint
 10
-761.17385924176
 20
-1851.171035725799
  0
POINT
  5
386
100
AcDbEntity
  8
0
 62
           6
100
AcDbPoint
 10
-771.17385924176
 20
-1851.171035725799
  0
POINT
  5
385
100
AcDbEntity
  8
0
 62
           6
100
AcDbPoint
 10
-771.17385924176
 20
-1851.171035725799
  0
POINT
  5
384
100
AcDbEntity
  8
0
 62
           6
100
AcDbPoint
 10
-771.17385924176
 20
-1801.171035725799
  0
POINT
  5
383
100
AcDbEntity
  8
0
 62
           6
100
AcDbPoint
 10
-761.17385924176
 20
-1801.171035725799
  0
POINT
  5
382
100
AcDbEntity
  8
0
 62
           6
100
AcDbPoint
 10
-771.17385924176
 20
-1801.171035725799
  0
POINT
  5
381
100
AcDbEntity
  8
0
 62
           6
100
AcDbPoint
 10
-774.17385924176
 20
-1851.171035725799
  0
POINT
  5
380
100
AcDbEntity
  8
0
 62
           6
100
AcDbPoint
 10
-774.17385924176
 20
-1801.171035725799
  0
POINT
  5
37F
100
AcDbEntity
  8
0
 62
           6
100
AcDbPoint
 10
-774.17385924176
 20
-1851.171035725799
  0
POINT
  5
37E
100
AcDbEntity
  8
0
 62
           6
100
AcDbPoint
 10
-784.17385924176
 20
-1851.171035725799
  0
POINT
  5
37D
100
AcDbEntity
  8
0
 62
           6
100
AcDbPoint
 10
-784.17385924176
 20
-1851.171035725799
  0
POINT
  5
37C
100
AcDbEntity
  8
0
 62
           6
100
AcDbPoint
 10
-784.17385924176
 20
-1801.171035725799
  0
POINT
  5
37B
100
AcDbEntity
  8
0
 62
           6
100
AcDbPoint
 10
-774.17385924176
 20
-1801.171035725799
  0
POINT
  5
37A
100
AcDbEntity
  8
0
 62
           6
100
AcDbPoint
 10
-784.17385924176
 20
-1801.171035725799
  0
POINT
  5
379
100
AcDbEntity
  8
0
 62
           6
100
AcDbPoint
 10
-787.17385924176
 20
-1851.171035725799
  0
POINT
  5
378
100
AcDbEntity
  8
0
 62
           6
100
AcDbPoint
 10
-787.17385924176
 20
-1801.171035725799
  0
POINT
  5
377
100
AcDbEntity
  8
0
 62
           6
100
AcDbPoint
 10
-787.17385924176
 20
-1851.171035725799
  0
POINT
  5
376
100
AcDbEntity
  8
0
 62
           6
100
AcDbPoint
 10
-797.17385924176
 20
-1851.171035725799
  0
POINT
  5
375
100
AcDbEntity
  8
0
 62
           6
100
AcDbPoint
 10
-797.17385924176
 20
-1851.171035725799
  0
POINT
  5
374
100
AcDbEntity
  8
0
 62
           6
100
AcDbPoint
 10
-797.17385924176
 20
-1801.171035725799
  0
POINT
  5
373
100
AcDbEntity
  8
0
 62
           6
100
AcDbPoint
 10
-787.17385924176
 20
-1801.171035725799
  0
POINT
  5
372
100
AcDbEntity
  8
0
 62
           6
100
AcDbPoint
 10
-797.17385924176
 20
-1801.171035725799
  0
POINT
  5
371
100
AcDbEntity
  8
0
 62
           6
100
AcDbPoint
 10
-800.17385924176
 20
-1851.171035725799
  0
POINT
  5
370
100
AcDbEntity
  8
0
 62
           6
100
AcDbPoint
 10
-800.17385924176
 20
-1801.171035725799
  0
POINT
  5
36F
100
AcDbEntity
  8
0
 62
           6
100
AcDbPoint
 10
-800.17385924176
 20
-1851.171035725799
  0
POINT
  5
36E
100
AcDbEntity
  8
0
 62
           6
100
AcDbPoint
 10
-810.17385924176
 20
-1851.171035725799
  0
POINT
  5
36D
100
AcDbEntity
  8
0
 62
           6
100
AcDbPoint
 10
-810.17385924176
 20
-1851.171035725799
  0
POINT
  5
36C
100
AcDbEntity
  8
0
 62
           6
100
AcDbPoint
 10
-810.17385924176
 20
-1801.171035725799
  0
POINT
  5
36B
100
AcDbEntity
  8
0
 62
           6
100
AcDbPoint
 10
-800.17385924176
 20
-1801.171035725799
  0
POINT
  5
36A
100
AcDbEntity
  8
0
 62
           6
100
AcDbPoint
 10
-810.17385924176
 20
-1801.171035725799
  0
POINT
  5
369
100
AcDbEntity
  8
0
 62
           6
100
AcDbPoint
 10
-813.17385924176
 20
-1851.171035725799
  0
POINT
  5
368
100
AcDbEntity
  8
0
 62
           6
100
AcDbPoint
 10
-813.17385924176
 20
-1801.171035725799
  0
POINT
  5
367
100
AcDbEntity
  8
0
 62
           6
100
AcDbPoint
 10
-823.17385924176
 20
-1851.171035725799
  0
POINT
  5
366
100
AcDbEntity
  8
0
 62
           6
100
AcDbPoint
 10
-823.17385924176
 20
-1801.171035725799
  0
POINT
  5
365
100
AcDbEntity
  8
0
 62
           6
100
AcDbPoint
 10
-813.17385924176
 20
-1801.171035725799
  0
POINT
  5
364
100
AcDbEntity
  8
0
 62
           6
100
AcDbPoint
 10
-823.17385924176
 20
-1801.171035725799
  0
POINT
  5
363
100
AcDbEntity
  8
0
 62
           6
100
AcDbPoint
 10
-813.17385924176
 20
-1851.171035725799
  0
POINT
  5
362
100
AcDbEntity
  8
0
 62
           6
100
AcDbPoint
 10
-823.17385924176
 20
-1851.171035725799
  0
POINT
  5
361
100
AcDbEntity
  8
0
 62
           6
100
AcDbPoint
 10
-826.17385924176
 20
-1851.171035725799
  0
POINT
  5
360
100
AcDbEntity
  8
0
 62
           6
100
AcDbPoint
 10
-826.17385924176
 20
-1801.171035725799
  0
POINT
  5
35F
100
AcDbEntity
  8
0
 62
           6
100
AcDbPoint
 10
-826.17385924176
 20
-1851.171035725799
  0
POINT
  5
35E
100
AcDbEntity
  8
0
 62
           6
100
AcDbPoint
 10
-836.17385924176
 20
-1851.171035725799
  0
POINT
  5
35D
100
AcDbEntity
  8
0
 62
           6
100
AcDbPoint
 10
-836.17385924176
 20
-1851.171035725799
  0
POINT
  5
35C
100
AcDbEntity
  8
0
 62
           6
100
AcDbPoint
 10
-836.17385924176
 20
-1801.171035725799
  0
POINT
  5
35B
100
AcDbEntity
  8
0
 62
           6
100
AcDbPoint
 10
-826.17385924176
 20
-1801.171035725799
  0
POINT
  5
35A
100
AcDbEntity
  8
0
 62
           6
100
AcDbPoint
 10
-836.17385924176
 20
-1801.171035725799
  0
POINT
  5
359
100
AcDbEntity
  8
0
 62
           6
100
AcDbPoint
 10
-839.17385924176
 20
-1851.171035725799
  0
POINT
  5
358
100
AcDbEntity
  8
0
 62
           6
100
AcDbPoint
 10
-839.17385924176
 20
-1801.171035725799
  0
POINT
  5
357
100
AcDbEntity
  8
0
 62
           6
100
AcDbPoint
 10
-839.17385924176
 20
-1851.171035725799
  0
POINT
  5
356
100
AcDbEntity
  8
0
 62
           6
100
AcDbPoint
 10
-849.17385924176
 20
-1851.171035725799
  0
POINT
  5
355
100
AcDbEntity
  8
0
 62
           6
100
AcDbPoint
 10
-849.17385924176
 20
-1851.171035725799
  0
POINT
  5
354
100
AcDbEntity
  8
0
 62
           6
100
AcDbPoint
 10
-849.17385924176
 20
-1801.171035725799
  0
POINT
  5
353
100
AcDbEntity
  8
0
 62
           6
100
AcDbPoint
 10
-839.17385924176
 20
-1801.171035725799
  0
POINT
  5
352
100
AcDbEntity
  8
0
 62
           6
100
AcDbPoint
 10
-849.17385924176
 20
-1801.171035725799
  0
POINT
  5
351
100
AcDbEntity
  8
0
 62
           6
100
AcDbPoint
 10
-852.17385924176
 20
-1851.171035725799
  0
POINT
  5
350
100
AcDbEntity
  8
0
 62
           6
100
AcDbPoint
 10
-852.17385924176
 20
-1801.171035725799
  0
POINT
  5
34F
100
AcDbEntity
  8
0
 62
           6
100
AcDbPoint
 10
-852.17385924176
 20
-1851.171035725799
  0
POINT
  5
34E
100
AcDbEntity
  8
0
 62
           6
100
AcDbPoint
 10
-862.17385924176
 20
-1851.171035725799
  0
POINT
  5
34D
100
AcDbEntity
  8
0
 62
           6
100
AcDbPoint
 10
-862.17385924176
 20
-1851.171035725799
  0
POINT
  5
34C
100
AcDbEntity
  8
0
 62
           6
100
AcDbPoint
 10
-862.17385924176
 20
-1801.171035725799
  0
POINT
  5
34B
100
AcDbEntity
  8
0
 62
           6
100
AcDbPoint
 10
-852.17385924176
 20
-1801.171035725799
  0
POINT
  5
34A
100
AcDbEntity
  8
0
 62
           6
100
AcDbPoint
 10
-862.17385924176
 20
-1801.171035725799
  0
POINT
  5
349
100
AcDbEntity
  8
0
 62
           6
100
AcDbPoint
 10
-865.17385924176
 20
-1851.171035725799
  0
POINT
  5
348
100
AcDbEntity
  8
0
 62
           6
100
AcDbPoint
 10
-865.17385924176
 20
-1801.171035725799
  0
POINT
  5
347
100
AcDbEntity
  8
0
 62
           6
100
AcDbPoint
 10
-865.17385924176
 20
-1851.171035725799
  0
POINT
  5
346
100
AcDbEntity
  8
0
 62
           6
100
AcDbPoint
 10
-875.17385924176
 20
-1851.171035725799
  0
POINT
  5
345
100
AcDbEntity
  8
0
 62
           6
100
AcDbPoint
 10
-875.17385924176
 20
-1851.171035725799
  0
POINT
  5
344
100
AcDbEntity
  8
0
 62
           6
100
AcDbPoint
 10
-875.17385924176
 20
-1801.171035725799
  0
POINT
  5
343
100
AcDbEntity
  8
0
 62
           6
100
AcDbPoint
 10
-865.17385924176
 20
-1801.171035725799
  0
POINT
  5
342
100
AcDbEntity
  8
0
 62
           6
100
AcDbPoint
 10
-875.17385924176
 20
-1801.171035725799
  0
POINT
  5
341
100
AcDbEntity
  8
0
 62
           6
100
AcDbPoint
 10
-878.17385924176
 20
-1851.171035725799
  0
POINT
  5
340
100
AcDbEntity
  8
0
 62
           6
100
AcDbPoint
 10
-878.17385924176
 20
-1801.171035725799
  0
POINT
  5
33F
100
AcDbEntity
  8
0
 62
           6
100
AcDbPoint
 10
-888.17385924176
 20
-1851.171035725799
  0
POINT
  5
33E
100
AcDbEntity
  8
0
 62
           6
100
AcDbPoint
 10
-888.17385924176
 20
-1801.171035725799
  0
POINT
  5
33D
100
AcDbEntity
  8
0
 62
           6
100
AcDbPoint
 10
-878.17385924176
 20
-1801.171035725799
  0
POINT
  5
33C
100
AcDbEntity
  8
0
 62
           6
100
AcDbPoint
 10
-888.17385924176
 20
-1801.171035725799
  0
POINT
  5
33B
100
AcDbEntity
  8
0
 62
           6
100
AcDbPoint
 10
-878.17385924176
 20
-1851.171035725799
  0
POINT
  5
33A
100
AcDbEntity
  8
0
 62
           6
100
AcDbPoint
 10
-888.17385924176
 20
-1851.171035725799
  0
POINT
  5
339
100
AcDbEntity
  8
0
 62
           6
100
AcDbPoint
 10
-891.17385924176
 20
-1851.171035725799
  0
POINT
  5
338
100
AcDbEntity
  8
0
 62
           6
100
AcDbPoint
 10
-891.17385924176
 20
-1801.171035725799
  0
POINT
  5
337
100
AcDbEntity
  8
0
 62
           6
100
AcDbPoint
 10
-891.17385924176
 20
-1851.171035725799
  0
POINT
  5
336
100
AcDbEntity
  8
0
 62
           6
100
AcDbPoint
 10
-901.17385924176
 20
-1851.171035725799
  0
POINT
  5
335
100
AcDbEntity
  8
0
 62
           6
100
AcDbPoint
 10
-901.17385924176
 20
-1851.171035725799
  0
POINT
  5
334
100
AcDbEntity
  8
0
 62
           6
100
AcDbPoint
 10
-901.17385924176
 20
-1801.171035725799
  0
POINT
  5
333
100
AcDbEntity
  8
0
 62
           6
100
AcDbPoint
 10
-891.17385924176
 20
-1801.171035725799
  0
POINT
  5
332
100
AcDbEntity
  8
0
 62
           6
100
AcDbPoint
 10
-901.17385924176
 20
-1801.171035725799
  0
POINT
  5
331
100
AcDbEntity
  8
0
 62
           6
100
AcDbPoint
 10
-904.17385924176
 20
-1851.171035725799
  0
POINT
  5
330
100
AcDbEntity
  8
0
 62
           6
100
AcDbPoint
 10
-904.17385924176
 20
-1801.171035725799
  0
POINT
  5
32F
100
AcDbEntity
  8
0
 62
           6
100
AcDbPoint
 10
-904.17385924176
 20
-1851.171035725799
  0
POINT
  5
32E
100
AcDbEntity
  8
0
 62
           6
100
AcDbPoint
 10
-914.17385924176
 20
-1851.171035725799
  0
POINT
  5
32D
100
AcDbEntity
  8
0
 62
           6
100
AcDbPoint
 10
-914.17385924176
 20
-1851.171035725799
  0
POINT
  5
32C
100
AcDbEntity
  8
0
 62
           6
100
AcDbPoint
 10
-904.17385924176
 20
-1801.171035725799
  0
POINT
  5
32B
100
AcDbEntity
  8
0
 62
           6
100
AcDbPoint
 10
-852.17385924176
 20
-2031.171035725799
  0
POINT
  5
32A
100
AcDbEntity
  8
0
 62
           6
100
AcDbPoint
 10
-852.17385924176
 20
-1981.171035725799
  0
POINT
  5
329
100
AcDbEntity
  8
0
 62
           6
100
AcDbPoint
 10
-852.17385924176
 20
-2031.171035725799
  0
POINT
  5
328
100
AcDbEntity
  8
0
 62
           6
100
AcDbPoint
 10
-849.17385924176
 20
-1981.171035725799
  0
POINT
  5
327
100
AcDbEntity
  8
0
 62
           6
100
AcDbPoint
 10
-839.173859241761
 20
-1981.171035725799
  0
POINT
  5
326
100
AcDbEntity
  8
0
 62
           6
100
AcDbPoint
 10
-849.17385924176
 20
-1981.171035725799
  0
POINT
  5
325
100
AcDbEntity
  8
0
 62
           6
100
AcDbPoint
 10
-849.17385924176
 20
-2031.171035725799
  0
POINT
  5
324
100
AcDbEntity
  8
0
 62
           6
100
AcDbPoint
 10
-849.17385924176
 20
-2031.171035725799
  0
POINT
  5
323
100
AcDbEntity
  8
0
 62
           6
100
AcDbPoint
 10
-839.173859241761
 20
-2031.171035725799
  0
POINT
  5
322
100
AcDbEntity
  8
0
 62
           6
100
AcDbPoint
 10
-839.173859241761
 20
-1981.171035725799
  0
POINT
  5
321
100
AcDbEntity
  8
0
 62
           6
100
AcDbPoint
 10
-839.173859241761
 20
-2031.171035725799
  0
POINT
  5
320
100
AcDbEntity
  8
0
 62
           6
100
AcDbPoint
 10
-836.173859241761
 20
-1981.171035725799
  0
POINT
  5
31F
100
AcDbEntity
  8
0
 62
           6
100
AcDbPoint
 10
-826.173859241761
 20
-1981.171035725799
  0
POINT
  5
31E
100
AcDbEntity
  8
0
 62
           6
100
AcDbPoint
 10
-836.173859241761
 20
-1981.171035725799
  0
POINT
  5
31D
100
AcDbEntity
  8
0
 62
           6
100
AcDbPoint
 10
-836.173859241761
 20
-2031.171035725799
  0
POINT
  5
31C
100
AcDbEntity
  8
0
 62
           6
100
AcDbPoint
 10
-836.173859241761
 20
-2031.171035725799
  0
POINT
  5
31B
100
AcDbEntity
  8
0
 62
           6
100
AcDbPoint
 10
-826.173859241761
 20
-2031.171035725799
  0
POINT
  5
31A
100
AcDbEntity
  8
0
 62
           6
100
AcDbPoint
 10
-826.173859241761
 20
-1981.171035725799
  0
POINT
  5
319
100
AcDbEntity
  8
0
 62
           6
100
AcDbPoint
 10
-826.173859241761
 20
-2031.171035725799
  0
POINT
  5
318
100
AcDbEntity
  8
0
 62
           6
100
AcDbPoint
 10
-823.173859241761
 20
-2031.171035725799
  0
POINT
  5
317
100
AcDbEntity
  8
0
 62
           6
100
AcDbPoint
 10
-813.17385924176
 20
-2031.171035725799
  0
POINT
  5
316
100
AcDbEntity
  8
0
 62
           6
100
AcDbPoint
 10
-823.173859241761
 20
-1981.171035725799
  0
POINT
  5
315
100
AcDbEntity
  8
0
 62
           6
100
AcDbPoint
 10
-813.17385924176
 20
-1981.171035725799
  0
POINT
  5
314
100
AcDbEntity
  8
0
 62
           6
100
AcDbPoint
 10
-823.173859241761
 20
-1981.171035725799
  0
POINT
  5
313
100
AcDbEntity
  8
0
 62
           6
100
AcDbPoint
 10
-823.173859241761
 20
-2031.171035725799
  0
POINT
  5
312
100
AcDbEntity
  8
0
 62
           6
100
AcDbPoint
 10
-813.17385924176
 20
-1981.171035725799
  0
POINT
  5
311
100
AcDbEntity
  8
0
 62
           6
100
AcDbPoint
 10
-813.17385924176
 20
-2031.171035725799
  0
POINT
  5
310
100
AcDbEntity
  8
0
 62
           6
100
AcDbPoint
 10
-810.17385924176
 20
-1981.171035725799
  0
POINT
  5
30F
100
AcDbEntity
  8
0
 62
           6
100
AcDbPoint
 10
-800.17385924176
 20
-1981.171035725799
  0
POINT
  5
30E
100
AcDbEntity
  8
0
 62
           6
100
AcDbPoint
 10
-810.17385924176
 20
-1981.171035725799
  0
POINT
  5
30D
100
AcDbEntity
  8
0
 62
           6
100
AcDbPoint
 10
-810.17385924176
 20
-2031.171035725799
  0
POINT
  5
30C
100
AcDbEntity
  8
0
 62
           6
100
AcDbPoint
 10
-810.17385924176
 20
-2031.171035725799
  0
POINT
  5
30B
100
AcDbEntity
  8
0
 62
           6
100
AcDbPoint
 10
-800.17385924176
 20
-2031.171035725799
  0
POINT
  5
30A
100
AcDbEntity
  8
0
 62
           6
100
AcDbPoint
 10
-800.17385924176
 20
-1981.171035725799
  0
POINT
  5
309
100
AcDbEntity
  8
0
 62
           6
100
AcDbPoint
 10
-800.17385924176
 20
-2031.171035725799
  0
POINT
  5
308
100
AcDbEntity
  8
0
 62
           6
100
AcDbPoint
 10
-797.17385924176
 20
-1981.171035725799
  0
POINT
  5
307
100
AcDbEntity
  8
0
 62
           6
100
AcDbPoint
 10
-787.17385924176
 20
-1981.171035725799
  0
POINT
  5
306
100
AcDbEntity
  8
0
 62
           6
100
AcDbPoint
 10
-797.17385924176
 20
-1981.171035725799
  0
POINT
  5
305
100
AcDbEntity
  8
0
 62
           6
100
AcDbPoint
 10
-797.17385924176
 20
-2031.171035725799
  0
POINT
  5
304
100
AcDbEntity
  8
0
 62
           6
100
AcDbPoint
 10
-797.17385924176
 20
-2031.171035725799
  0
POINT
  5
303
100
AcDbEntity
  8
0
 62
           6
100
AcDbPoint
 10
-787.17385924176
 20
-2031.171035725799
  0
POINT
  5
302
100
AcDbEntity
  8
0
 62
           6
100
AcDbPoint
 10
-787.17385924176
 20
-1981.171035725799
  0
POINT
  5
301
100
AcDbEntity
  8
0
 62
           6
100
AcDbPoint
 10
-787.17385924176
 20
-2031.171035725799
  0
POINT
  5
300
100
AcDbEntity
  8
0
 62
           6
100
AcDbPoint
 10
-784.17385924176
 20
-1981.171035725799
  0
POINT
  5
2FF
100
AcDbEntity
  8
0
 62
           6
100
AcDbPoint
 10
-774.17385924176
 20
-1981.171035725799
  0
POINT
  5
2FE
100
AcDbEntity
  8
0
 62
           6
100
AcDbPoint
 10
-784.17385924176
 20
-1981.171035725799
  0
POINT
  5
2FD
100
AcDbEntity
  8
0
 62
           6
100
AcDbPoint
 10
-784.17385924176
 20
-2031.171035725799
  0
POINT
  5
2FC
100
AcDbEntity
  8
0
 62
           6
100
AcDbPoint
 10
-784.17385924176
 20
-2031.171035725799
  0
POINT
  5
2FB
100
AcDbEntity
  8
0
 62
           6
100
AcDbPoint
 10
-774.17385924176
 20
-2031.171035725799
  0
POINT
  5
2FA
100
AcDbEntity
  8
0
 62
           6
100
AcDbPoint
 10
-774.17385924176
 20
-1981.171035725799
  0
POINT
  5
2F9
100
AcDbEntity
  8
0
 62
           6
100
AcDbPoint
 10
-774.17385924176
 20
-2031.171035725799
  0
POINT
  5
2F8
100
AcDbEntity
  8
0
 62
           6
100
AcDbPoint
 10
-771.17385924176
 20
-1981.171035725799
  0
POINT
  5
2F7
100
AcDbEntity
  8
0
 62
           6
100
AcDbPoint
 10
-761.17385924176
 20
-1981.171035725799
  0
POINT
  5
2F6
100
AcDbEntity
  8
0
 62
           6
100
AcDbPoint
 10
-771.17385924176
 20
-1981.171035725799
  0
POINT
  5
2F5
100
AcDbEntity
  8
0
 62
           6
100
AcDbPoint
 10
-771.17385924176
 20
-2031.171035725799
  0
POINT
  5
2F4
100
AcDbEntity
  8
0
 62
           6
100
AcDbPoint
 10
-771.17385924176
 20
-2031.171035725799
  0
POINT
  5
2F3
100
AcDbEntity
  8
0
 62
           6
100
AcDbPoint
 10
-761.17385924176
 20
-2031.171035725799
  0
POINT
  5
2F2
100
AcDbEntity
  8
0
 62
           6
100
AcDbPoint
 10
-761.17385924176
 20
-1981.171035725799
  0
POINT
  5
2F1
100
AcDbEntity
  8
0
 62
           6
100
AcDbPoint
 10
-761.17385924176
 20
-2031.171035725799
  0
POINT
  5
2F0
100
AcDbEntity
  8
0
 62
           6
100
AcDbPoint
 10
-758.17385924176
 20
-2031.171035725799
  0
POINT
  5
2EF
100
AcDbEntity
  8
0
 62
           6
100
AcDbPoint
 10
-748.17385924176
 20
-2031.171035725799
  0
POINT
  5
2EE
100
AcDbEntity
  8
0
 62
           6
100
AcDbPoint
 10
-758.17385924176
 20
-1981.171035725799
  0
POINT
  5
2ED
100
AcDbEntity
  8
0
 62
           6
100
AcDbPoint
 10
-748.17385924176
 20
-1981.171035725799
  0
POINT
  5
2EC
100
AcDbEntity
  8
0
 62
           6
100
AcDbPoint
 10
-758.17385924176
 20
-1981.171035725799
  0
POINT
  5
2EB
100
AcDbEntity
  8
0
 62
           6
100
AcDbPoint
 10
-758.17385924176
 20
-2031.171035725799
  0
POINT
  5
2EA
100
AcDbEntity
  8
0
 62
           6
100
AcDbPoint
 10
-748.17385924176
 20
-1981.171035725799
  0
POINT
  5
2E9
100
AcDbEntity
  8
0
 62
           6
100
AcDbPoint
 10
-748.17385924176
 20
-2031.171035725799
  0
POINT
  5
2E8
100
AcDbEntity
  8
0
 62
           6
100
AcDbPoint
 10
-745.17385924176
 20
-1981.171035725799
  0
POINT
  5
2E7
100
AcDbEntity
  8
0
 62
           6
100
AcDbPoint
 10
-735.17385924176
 20
-1981.171035725799
  0
POINT
  5
2E6
100
AcDbEntity
  8
0
 62
           6
100
AcDbPoint
 10
-745.17385924176
 20
-1981.171035725799
  0
POINT
  5
2E5
100
AcDbEntity
  8
0
 62
           6
100
AcDbPoint
 10
-745.17385924176
 20
-2031.171035725799
  0
POINT
  5
2E4
100
AcDbEntity
  8
0
 62
           6
100
AcDbPoint
 10
-745.17385924176
 20
-2031.171035725799
  0
POINT
  5
2E3
100
AcDbEntity
  8
0
 62
           6
100
AcDbPoint
 10
-735.17385924176
 20
-2031.171035725799
  0
POINT
  5
2E2
100
AcDbEntity
  8
0
 62
           6
100
AcDbPoint
 10
-735.17385924176
 20
-1981.171035725799
  0
POINT
  5
2E1
100
AcDbEntity
  8
0
 62
           6
100
AcDbPoint
 10
-735.17385924176
 20
-2031.171035725799
  0
POINT
  5
2E0
100
AcDbEntity
  8
0
 62
           6
100
AcDbPoint
 10
-732.17385924176
 20
-1981.171035725799
  0
POINT
  5
2DF
100
AcDbEntity
  8
0
 62
           6
100
AcDbPoint
 10
-722.17385924176
 20
-1981.171035725799
  0
POINT
  5
2DE
100
AcDbEntity
  8
0
 62
           6
100
AcDbPoint
 10
-732.17385924176
 20
-1981.171035725799
  0
POINT
  5
2DD
100
AcDbEntity
  8
0
 62
           6
100
AcDbPoint
 10
-732.17385924176
 20
-2031.171035725799
  0
POINT
  5
2DC
100
AcDbEntity
  8
0
 62
           6
100
AcDbPoint
 10
-732.17385924176
 20
-2031.171035725799
  0
POINT
  5
2DB
100
AcDbEntity
  8
0
 62
           6
100
AcDbPoint
 10
-722.17385924176
 20
-2031.171035725799
  0
POINT
  5
2DA
100
AcDbEntity
  8
0
 62
           6
100
AcDbPoint
 10
-722.17385924176
 20
-1981.171035725799
  0
POINT
  5
2D9
100
AcDbEntity
  8
0
 62
           6
100
AcDbPoint
 10
-722.17385924176
 20
-2031.171035725799
  0
POINT
  5
2D8
100
AcDbEntity
  8
0
 62
           6
100
AcDbPoint
 10
-719.17385924176
 20
-1981.171035725799
  0
POINT
  5
2D7
100
AcDbEntity
  8
0
 62
           6
100
AcDbPoint
 10
-709.17385924176
 20
-1981.171035725799
  0
POINT
  5
2D6
100
AcDbEntity
  8
0
 62
           6
100
AcDbPoint
 10
-719.17385924176
 20
-1981.171035725799
  0
POINT
  5
2D5
100
AcDbEntity
  8
0
 62
           6
100
AcDbPoint
 10
-719.17385924176
 20
-2031.171035725799
  0
POINT
  5
2D4
100
AcDbEntity
  8
0
 62
           6
100
AcDbPoint
 10
-719.17385924176
 20
-2031.171035725799
  0
POINT
  5
2D3
100
AcDbEntity
  8
0
 62
           6
100
AcDbPoint
 10
-709.17385924176
 20
-2031.171035725799
  0
POINT
  5
2D2
100
AcDbEntity
  8
0
 62
           6
100
AcDbPoint
 10
-709.17385924176
 20
-1981.171035725799
  0
POINT
  5
2D1
100
AcDbEntity
  8
0
 62
           6
100
AcDbPoint
 10
-709.17385924176
 20
-2031.171035725799
  0
POINT
  5
2D0
100
AcDbEntity
  8
0
 62
           6
100
AcDbPoint
 10
-706.17385924176
 20
-1981.171035725799
  0
POINT
  5
2CF
100
AcDbEntity
  8
0
 62
           6
100
AcDbPoint
 10
-696.17385924176
 20
-1981.171035725799
  0
POINT
  5
2CE
100
AcDbEntity
  8
0
 62
           6
100
AcDbPoint
 10
-706.17385924176
 20
-1981.171035725799
  0
POINT
  5
2CD
100
AcDbEntity
  8
0
 62
           6
100
AcDbPoint
 10
-706.17385924176
 20
-2031.171035725799
  0
POINT
  5
2CC
100
AcDbEntity
  8
0
 62
           6
100
AcDbPoint
 10
-706.17385924176
 20
-2031.171035725799
  0
POINT
  5
2CB
100
AcDbEntity
  8
0
 62
           6
100
AcDbPoint
 10
-696.17385924176
 20
-2031.171035725799
  0
POINT
  5
2CA
100
AcDbEntity
  8
0
 62
           6
100
AcDbPoint
 10
-696.17385924176
 20
-1981.171035725799
  0
POINT
  5
2C9
100
AcDbEntity
  8
0
 62
           6
100
AcDbPoint
 10
-696.17385924176
 20
-2031.171035725799
  0
POINT
  5
2C8
100
AcDbEntity
  8
0
 62
           6
100
AcDbPoint
 10
-693.173859241761
 20
-2031.171035725799
  0
POINT
  5
2C7
100
AcDbEntity
  8
0
 62
           6
100
AcDbPoint
 10
-683.173859241761
 20
-2031.171035725799
  0
POINT
  5
2C6
100
AcDbEntity
  8
0
 62
           6
100
AcDbPoint
 10
-693.173859241761
 20
-1981.171035725799
  0
POINT
  5
2C5
100
AcDbEntity
  8
0
 62
           6
100
AcDbPoint
 10
-683.173859241761
 20
-1981.171035725799
  0
POINT
  5
2C4
100
AcDbEntity
  8
0
 62
           6
100
AcDbPoint
 10
-693.173859241761
 20
-1981.171035725799
  0
POINT
  5
2C3
100
AcDbEntity
  8
0
 62
           6
100
AcDbPoint
 10
-693.173859241761
 20
-2031.171035725799
  0
POINT
  5
2C2
100
AcDbEntity
  8
0
 62
           6
100
AcDbPoint
 10
-683.173859241761
 20
-1981.171035725799
  0
POINT
  5
2C1
100
AcDbEntity
  8
0
 62
           6
100
AcDbPoint
 10
-683.173859241761
 20
-2031.171035725799
  0
POINT
  5
2C0
100
AcDbEntity
  8
0
 62
           6
100
AcDbPoint
 10
-680.17385924176
 20
-1981.171035725799
  0
POINT
  5
2BF
100
AcDbEntity
  8
0
 62
           6
100
AcDbPoint
 10
-670.17385924176
 20
-1981.171035725799
  0
POINT
  5
2BE
100
AcDbEntity
  8
0
 62
           6
100
AcDbPoint
 10
-680.17385924176
 20
-1981.171035725799
  0
POINT
  5
2BD
100
AcDbEntity
  8
0
 62
           6
100
AcDbPoint
 10
-680.17385924176
 20
-2031.171035725799
  0
POINT
  5
2BC
100
AcDbEntity
  8
0
 62
           6
100
AcDbPoint
 10
-680.17385924176
 20
-2031.171035725799
  0
POINT
  5
2BB
100
AcDbEntity
  8
0
 62
           6
100
AcDbPoint
 10
-670.17385924176
 20
-2031.171035725799
  0
POINT
  5
2BA
100
AcDbEntity
  8
0
 62
           6
100
AcDbPoint
 10
-670.17385924176
 20
-1981.171035725799
  0
POINT
  5
2B9
100
AcDbEntity
  8
0
 62
           6
100
AcDbPoint
 10
-670.17385924176
 20
-2031.171035725799
  0
POINT
  5
2B8
100
AcDbEntity
  8
0
 62
           6
100
AcDbPoint
 10
-667.17385924176
 20
-1981.171035725799
  0
POINT
  5
2B7
100
AcDbEntity
  8
0
 62
           6
100
AcDbPoint
 10
-657.17385924176
 20
-1981.171035725799
  0
POINT
  5
2B6
100
AcDbEntity
  8
0
 62
           6
100
AcDbPoint
 10
-667.17385924176
 20
-1981.171035725799
  0
POINT
  5
2B5
100
AcDbEntity
  8
0
 62
           6
100
AcDbPoint
 10
-667.17385924176
 20
-2031.171035725799
  0
POINT
  5
2B4
100
AcDbEntity
  8
0
 62
           6
100
AcDbPoint
 10
-667.17385924176
 20
-2031.171035725799
  0
POINT
  5
2B3
100
AcDbEntity
  8
0
 62
           6
100
AcDbPoint
 10
-657.17385924176
 20
-2031.171035725799
  0
POINT
  5
2B2
100
AcDbEntity
  8
0
 62
           6
100
AcDbPoint
 10
-657.17385924176
 20
-1981.171035725799
  0
POINT
  5
2B1
100
AcDbEntity
  8
0
 62
           6
100
AcDbPoint
 10
-657.17385924176
 20
-2031.171035725799
  0
POINT
  5
2B0
100
AcDbEntity
  8
0
 62
           6
100
AcDbPoint
 10
-654.17385924176
 20
-1981.171035725799
  0
POINT
  5
2AF
100
AcDbEntity
  8
0
 62
           6
100
AcDbPoint
 10
-644.17385924176
 20
-1981.171035725799
  0
POINT
  5
2AE
100
AcDbEntity
  8
0
 62
           6
100
AcDbPoint
 10
-654.17385924176
 20
-1981.171035725799
  0
POINT
  5
2AD
100
AcDbEntity
  8
0
 62
           6
100
AcDbPoint
 10
-654.17385924176
 20
-2031.171035725799
  0
POINT
  5
2AC
100
AcDbEntity
  8
0
 62
           6
100
AcDbPoint
 10
-654.17385924176
 20
-2031.171035725799
  0
POINT
  5
2AB
100
AcDbEntity
  8
0
 62
           6
100
AcDbPoint
 10
-644.17385924176
 20
-2031.171035725799
  0
POINT
  5
2AA
100
AcDbEntity
  8
0
 62
           6
100
AcDbPoint
 10
-644.17385924176
 20
-1981.171035725799
  0
POINT
  5
2A9
100
AcDbEntity
  8
0
 62
           6
100
AcDbPoint
 10
-644.17385924176
 20
-2031.171035725799
  0
POINT
  5
2A8
100
AcDbEntity
  8
0
 62
           6
100
AcDbPoint
 10
-641.17385924176
 20
-1981.171035725799
  0
POINT
  5
2A7
100
AcDbEntity
  8
0
 62
           6
100
AcDbPoint
 10
-631.17385924176
 20
-1981.171035725799
  0
POINT
  5
2A6
100
AcDbEntity
  8
0
 62
           6
100
AcDbPoint
 10
-641.17385924176
 20
-1981.171035725799
  0
POINT
  5
2A5
100
AcDbEntity
  8
0
 62
           6
100
AcDbPoint
 10
-641.17385924176
 20
-2031.171035725799
  0
POINT
  5
2A4
100
AcDbEntity
  8
0
 62
           6
100
AcDbPoint
 10
-641.17385924176
 20
-2031.171035725799
  0
POINT
  5
2A3
100
AcDbEntity
  8
0
 62
           6
100
AcDbPoint
 10
-631.17385924176
 20
-2031.171035725799
  0
POINT
  5
2A2
100
AcDbEntity
  8
0
 62
           6
100
AcDbPoint
 10
-631.17385924176
 20
-1981.171035725799
  0
POINT
  5
2A1
100
AcDbEntity
  8
0
 62
           6
100
AcDbPoint
 10
-631.17385924176
 20
-2031.171035725799
  0
POINT
  5
2A0
100
AcDbEntity
  8
0
 62
           6
100
AcDbPoint
 10
-628.17385924176
 20
-2031.171035725799
  0
POINT
  5
29F
100
AcDbEntity
  8
0
 62
           6
100
AcDbPoint
 10
-618.17385924176
 20
-2031.171035725799
  0
POINT
  5
29E
100
AcDbEntity
  8
0
 62
           6
100
AcDbPoint
 10
-628.17385924176
 20
-1981.171035725799
  0
POINT
  5
29D
100
AcDbEntity
  8
0
 62
           6
100
AcDbPoint
 10
-618.17385924176
 20
-1981.171035725799
  0
POINT
  5
29C
100
AcDbEntity
  8
0
 62
           6
100
AcDbPoint
 10
-628.17385924176
 20
-1981.171035725799
  0
POINT
  5
29B
100
AcDbEntity
  8
0
 62
           6
100
AcDbPoint
 10
-628.17385924176
 20
-2031.171035725799
  0
POINT
  5
29A
100
AcDbEntity
  8
0
 62
           6
100
AcDbPoint
 10
-618.17385924176
 20
-1981.171035725799
  0
POINT
  5
299
100
AcDbEntity
  8
0
 62
           6
100
AcDbPoint
 10
-618.17385924176
 20
-2031.171035725799
  0
POINT
  5
298
100
AcDbEntity
  8
0
 62
           6
100
AcDbPoint
 10
-615.17385924176
 20
-1981.171035725799
  0
POINT
  5
297
100
AcDbEntity
  8
0
 62
           6
100
AcDbPoint
 10
-605.17385924176
 20
-1981.171035725799
  0
POINT
  5
296
100
AcDbEntity
  8
0
 62
           6
100
AcDbPoint
 10
-615.17385924176
 20
-1981.171035725799
  0
POINT
  5
295
100
AcDbEntity
  8
0
 62
           6
100
AcDbPoint
 10
-615.17385924176
 20
-2031.171035725799
  0
POINT
  5
294
100
AcDbEntity
  8
0
 62
           6
100
AcDbPoint
 10
-615.17385924176
 20
-2031.171035725799
  0
POINT
  5
293
100
AcDbEntity
  8
0
 62
           6
100
AcDbPoint
 10
-605.17385924176
 20
-2031.171035725799
  0
POINT
  5
292
100
AcDbEntity
  8
0
 62
           6
100
AcDbPoint
 10
-605.17385924176
 20
-1981.171035725799
  0
POINT
  5
291
100
AcDbEntity
  8
0
 62
           6
100
AcDbPoint
 10
-605.17385924176
 20
-2031.171035725799
  0
POINT
  5
290
100
AcDbEntity
  8
0
 62
           6
100
AcDbPoint
 10
-602.17385924176
 20
-1981.171035725799
  0
POINT
  5
28F
100
AcDbEntity
  8
0
 62
           6
100
AcDbPoint
 10
-592.17385924176
 20
-1981.171035725799
  0
POINT
  5
28E
100
AcDbEntity
  8
0
 62
           6
100
AcDbPoint
 10
-602.17385924176
 20
-1981.171035725799
  0
POINT
  5
28D
100
AcDbEntity
  8
0
 62
           6
100
AcDbPoint
 10
-602.17385924176
 20
-2031.171035725799
  0
POINT
  5
28C
100
AcDbEntity
  8
0
 62
           6
100
AcDbPoint
 10
-602.17385924176
 20
-2031.171035725799
  0
POINT
  5
28B
100
AcDbEntity
  8
0
 62
           6
100
AcDbPoint
 10
-592.17385924176
 20
-2031.171035725799
  0
POINT
  5
28A
100
AcDbEntity
  8
0
 62
           6
100
AcDbPoint
 10
-592.17385924176
 20
-1981.171035725799
  0
POINT
  5
289
100
AcDbEntity
  8
0
 62
           6
100
AcDbPoint
 10
-592.17385924176
 20
-2031.171035725799
  0
POINT
  5
288
100
AcDbEntity
  8
0
 62
           6
100
AcDbPoint
 10
-589.17385924176
 20
-1981.171035725799
  0
POINT
  5
287
100
AcDbEntity
  8
0
 62
           6
100
AcDbPoint
 10
-579.173859241761
 20
-1981.171035725799
  0
POINT
  5
286
100
AcDbEntity
  8
0
 62
           6
100
AcDbPoint
 10
-589.17385924176
 20
-1981.171035725799
  0
POINT
  5
285
100
AcDbEntity
  8
0
 62
           6
100
AcDbPoint
 10
-589.17385924176
 20
-2031.171035725799
  0
POINT
  5
284
100
AcDbEntity
  8
0
 62
           6
100
AcDbPoint
 10
-589.17385924176
 20
-2031.171035725799
  0
POINT
  5
283
100
AcDbEntity
  8
0
 62
           6
100
AcDbPoint
 10
-579.173859241761
 20
-2031.171035725799
  0
POINT
  5
282
100
AcDbEntity
  8
0
 62
           6
100
AcDbPoint
 10
-579.173859241761
 20
-1981.171035725799
  0
POINT
  5
281
100
AcDbEntity
  8
0
 62
           6
100
AcDbPoint
 10
-579.173859241761
 20
-2031.171035725799
  0
POINT
  5
280
100
AcDbEntity
  8
0
 62
           6
100
AcDbPoint
 10
-576.17385924176
 20
-1981.171035725799
  0
POINT
  5
27F
100
AcDbEntity
  8
0
 62
           6
100
AcDbPoint
 10
-566.17385924176
 20
-1981.171035725799
  0
POINT
  5
27E
100
AcDbEntity
  8
0
 62
           6
100
AcDbPoint
 10
-576.17385924176
 20
-1981.171035725799
  0
POINT
  5
27D
100
AcDbEntity
  8
0
 62
           6
100
AcDbPoint
 10
-576.17385924176
 20
-2031.171035725799
  0
POINT
  5
27C
100
AcDbEntity
  8
0
 62
           6
100
AcDbPoint
 10
-576.17385924176
 20
-2031.171035725799
  0
POINT
  5
27B
100
AcDbEntity
  8
0
 62
           6
100
AcDbPoint
 10
-566.17385924176
 20
-2031.171035725799
  0
POINT
  5
27A
100
AcDbEntity
  8
0
 62
           6
100
AcDbPoint
 10
-566.17385924176
 20
-1981.171035725799
  0
POINT
  5
279
100
AcDbEntity
  8
0
 62
           6
100
AcDbPoint
 10
-566.17385924176
 20
-2031.171035725799
  0
POINT
  5
278
100
AcDbEntity
  8
0
 62
           6
100
AcDbPoint
 10
-563.17385924176
 20
-2031.171035725799
  0
POINT
  5
277
100
AcDbEntity
  8
0
 62
           6
100
AcDbPoint
 10
-553.17385924176
 20
-2031.171035725799
  0
POINT
  5
276
100
AcDbEntity
  8
0
 62
           6
100
AcDbPoint
 10
-563.17385924176
 20
-1981.171035725799
  0
POINT
  5
275
100
AcDbEntity
  8
0
 62
           6
100
AcDbPoint
 10
-553.17385924176
 20
-1981.171035725799
  0
POINT
  5
274
100
AcDbEntity
  8
0
 62
           6
100
AcDbPoint
 10
-563.17385924176
 20
-1981.171035725799
  0
POINT
  5
273
100
AcDbEntity
  8
0
 62
           6
100
AcDbPoint
 10
-563.17385924176
 20
-2031.171035725799
  0
POINT
  5
272
100
AcDbEntity
  8
0
 62
           6
100
AcDbPoint
 10
-553.17385924176
 20
-1981.171035725799
  0
POINT
  5
271
100
AcDbEntity
  8
0
 62
           6
100
AcDbPoint
 10
-553.17385924176
 20
-2031.171035725799
  0
POINT
  5
270
100
AcDbEntity
  8
0
 62
           6
100
AcDbPoint
 10
-550.17385924176
 20
-1981.171035725799
  0
POINT
  5
26F
100
AcDbEntity
  8
0
 62
           6
100
AcDbPoint
 10
-540.17385924176
 20
-1981.171035725799
  0
POINT
  5
26E
100
AcDbEntity
  8
0
 62
           6
100
AcDbPoint
 10
-550.17385924176
 20
-1981.171035725799
  0
POINT
  5
26D
100
AcDbEntity
  8
0
 62
           6
100
AcDbPoint
 10
-550.17385924176
 20
-2031.171035725799
  0
POINT
  5
26C
100
AcDbEntity
  8
0
 62
           6
100
AcDbPoint
 10
-550.17385924176
 20
-2031.171035725799
  0
POINT
  5
26B
100
AcDbEntity
  8
0
 62
           6
100
AcDbPoint
 10
-540.17385924176
 20
-2031.171035725799
  0
POINT
  5
26A
100
AcDbEntity
  8
0
 62
           6
100
AcDbPoint
 10
-540.17385924176
 20
-1981.171035725799
  0
POINT
  5
269
100
AcDbEntity
  8
0
 62
           6
100
AcDbPoint
 10
-540.17385924176
 20
-2031.171035725799
  0
POINT
  5
268
100
AcDbEntity
  8
0
 62
           6
100
AcDbPoint
 10
-537.17385924176
 20
-1981.171035725799
  0
POINT
  5
267
100
AcDbEntity
  8
0
 62
           6
100
AcDbPoint
 10
-527.17385924176
 20
-1981.171035725799
  0
POINT
  5
266
100
AcDbEntity
  8
0
 62
           6
100
AcDbPoint
 10
-537.17385924176
 20
-1981.171035725799
  0
POINT
  5
265
100
AcDbEntity
  8
0
 62
           6
100
AcDbPoint
 10
-537.17385924176
 20
-2031.171035725799
  0
POINT
  5
264
100
AcDbEntity
  8
0
 62
           6
100
AcDbPoint
 10
-537.17385924176
 20
-2031.171035725799
  0
POINT
  5
263
100
AcDbEntity
  8
0
 62
           6
100
AcDbPoint
 10
-527.17385924176
 20
-2031.171035725799
  0
POINT
  5
262
100
AcDbEntity
  8
0
 62
           6
100
AcDbPoint
 10
-527.17385924176
 20
-1981.171035725799
  0
POINT
  5
261
100
AcDbEntity
  8
0
 62
           6
100
AcDbPoint
 10
-527.17385924176
 20
-2031.171035725799
  0
POINT
  5
260
100
AcDbEntity
  8
0
 62
           6
100
AcDbPoint
 10
-914.17385924176
 20
-2041.1710357258
  0
POINT
  5
25F
100
AcDbEntity
  8
0
 62
           6
100
AcDbPoint
 10
-904.17385924176
 20
-2041.171035725799
  0
POINT
  5
25E
100
AcDbEntity
  8
0
 62
           6
100
AcDbPoint
 10
-914.17385924176
 20
-2041.1710357258
  0
POINT
  5
25D
100
AcDbEntity
  8
0
 62
           6
100
AcDbPoint
 10
-914.17385924176
 20
-2091.171035725799
  0
POINT
  5
25C
100
AcDbEntity
  8
0
 62
           6
100
AcDbPoint
 10
-914.17385924176
 20
-2091.171035725799
  0
POINT
  5
25B
100
AcDbEntity
  8
0
 62
           6
100
AcDbPoint
 10
-904.17385924176
 20
-2091.171035725799
  0
POINT
  5
25A
100
AcDbEntity
  8
0
 62
           6
100
AcDbPoint
 10
-904.17385924176
 20
-2041.171035725799
  0
POINT
  5
259
100
AcDbEntity
  8
0
 62
           6
100
AcDbPoint
 10
-904.17385924176
 20
-2091.171035725799
  0
POINT
  5
258
100
AcDbEntity
  8
0
 62
           6
100
AcDbPoint
 10
-901.17385924176
 20
-2041.1710357258
  0
POINT
  5
257
100
AcDbEntity
  8
0
 62
           6
100
AcDbPoint
 10
-891.173859241761
 20
-2041.171035725799
  0
POINT
  5
256
100
AcDbEntity
  8
0
 62
           6
100
AcDbPoint
 10
-901.17385924176
 20
-2041.1710357258
  0
POINT
  5
255
100
AcDbEntity
  8
0
 62
           6
100
AcDbPoint
 10
-901.173859241761
 20
-2091.171035725799
  0
POINT
  5
254
100
AcDbEntity
  8
0
 62
           6
100
AcDbPoint
 10
-901.173859241761
 20
-2091.171035725799
  0
POINT
  5
253
100
AcDbEntity
  8
0
 62
           6
100
AcDbPoint
 10
-891.173859241761
 20
-2091.171035725799
  0
POINT
  5
252
100
AcDbEntity
  8
0
 62
           6
100
AcDbPoint
 10
-891.173859241761
 20
-2041.171035725799
  0
POINT
  5
251
100
AcDbEntity
  8
0
 62
           6
100
AcDbPoint
 10
-891.173859241761
 20
-2091.171035725799
  0
POINT
  5
250
100
AcDbEntity
  8
0
 62
           6
100
AcDbPoint
 10
-888.173859241761
 20
-2091.171035725799
  0
POINT
  5
24F
100
AcDbEntity
  8
0
 62
           6
100
AcDbPoint
 10
-878.17385924176
 20
-2091.171035725799
  0
POINT
  5
24E
100
AcDbEntity
  8
0
 62
           6
100
AcDbPoint
 10
-888.17385924176
 20
-2041.1710357258
  0
POINT
  5
24D
100
AcDbEntity
  8
0
 62
           6
100
AcDbPoint
 10
-878.17385924176
 20
-2041.171035725799
  0
POINT
  5
24C
100
AcDbEntity
  8
0
 62
           6
100
AcDbPoint
 10
-888.17385924176
 20
-2041.1710357258
  0
POINT
  5
24B
100
AcDbEntity
  8
0
 62
           6
100
AcDbPoint
 10
-888.173859241761
 20
-2091.171035725799
  0
POINT
  5
24A
100
AcDbEntity
  8
0
 62
           6
100
AcDbPoint
 10
-878.17385924176
 20
-2041.171035725799
  0
POINT
  5
249
100
AcDbEntity
  8
0
 62
           6
100
AcDbPoint
 10
-878.17385924176
 20
-2091.171035725799
  0
POINT
  5
248
100
AcDbEntity
  8
0
 62
           6
100
AcDbPoint
 10
-875.17385924176
 20
-2041.1710357258
  0
POINT
  5
247
100
AcDbEntity
  8
0
 62
           6
100
AcDbPoint
 10
-865.17385924176
 20
-2041.171035725799
  0
POINT
  5
246
100
AcDbEntity
  8
0
 62
           6
100
AcDbPoint
 10
-875.17385924176
 20
-2041.1710357258
  0
POINT
  5
245
100
AcDbEntity
  8
0
 62
           6
100
AcDbPoint
 10
-875.17385924176
 20
-2091.171035725799
  0
POINT
  5
244
100
AcDbEntity
  8
0
 62
           6
100
AcDbPoint
 10
-875.17385924176
 20
-2091.171035725799
  0
POINT
  5
243
100
AcDbEntity
  8
0
 62
           6
100
AcDbPoint
 10
-865.17385924176
 20
-2091.171035725799
  0
POINT
  5
242
100
AcDbEntity
  8
0
 62
           6
100
AcDbPoint
 10
-865.17385924176
 20
-2041.171035725799
  0
POINT
  5
241
100
AcDbEntity
  8
0
 62
           6
100
AcDbPoint
 10
-865.17385924176
 20
-2091.171035725799
  0
POINT
  5
240
100
AcDbEntity
  8
0
 62
           6
100
AcDbPoint
 10
-862.17385924176
 20
-2041.1710357258
  0
POINT
  5
23F
100
AcDbEntity
  8
0
 62
           6
100
AcDbPoint
 10
-852.17385924176
 20
-2041.171035725799
  0
POINT
  5
23E
100
AcDbEntity
  8
0
 62
           6
100
AcDbPoint
 10
-862.17385924176
 20
-2041.1710357258
  0
POINT
  5
23D
100
AcDbEntity
  8
0
 62
           6
100
AcDbPoint
 10
-862.17385924176
 20
-2091.171035725799
  0
POINT
  5
23C
100
AcDbEntity
  8
0
 62
           6
100
AcDbPoint
 10
-862.17385924176
 20
-2091.171035725799
  0
POINT
  5
23B
100
AcDbEntity
  8
0
 62
           6
100
AcDbPoint
 10
-852.17385924176
 20
-2091.171035725799
  0
POINT
  5
23A
100
AcDbEntity
  8
0
 62
           6
100
AcDbPoint
 10
-852.17385924176
 20
-2041.171035725799
  0
POINT
  5
239
100
AcDbEntity
  8
0
 62
           6
100
AcDbPoint
 10
-852.17385924176
 20
-2091.171035725799
  0
POINT
  5
238
100
AcDbEntity
  8
0
 62
           6
100
AcDbPoint
 10
-849.17385924176
 20
-2041.1710357258
  0
POINT
  5
237
100
AcDbEntity
  8
0
 62
           6
100
AcDbPoint
 10
-839.173859241761
 20
-2041.171035725799
  0
POINT
  5
236
100
AcDbEntity
  8
0
 62
           6
100
AcDbPoint
 10
-849.17385924176
 20
-2041.1710357258
  0
POINT
  5
235
100
AcDbEntity
  8
0
 62
           6
100
AcDbPoint
 10
-849.17385924176
 20
-2091.171035725799
  0
POINT
  5
234
100
AcDbEntity
  8
0
 62
           6
100
AcDbPoint
 10
-849.17385924176
 20
-2091.171035725799
  0
POINT
  5
233
100
AcDbEntity
  8
0
 62
           6
100
AcDbPoint
 10
-839.173859241761
 20
-2091.171035725799
  0
POINT
  5
232
100
AcDbEntity
  8
0
 62
           6
100
AcDbPoint
 10
-839.173859241761
 20
-2041.171035725799
  0
POINT
  5
231
100
AcDbEntity
  8
0
 62
           6
100
AcDbPoint
 10
-839.173859241761
 20
-2091.171035725799
  0
POINT
  5
230
100
AcDbEntity
  8
0
 62
           6
100
AcDbPoint
 10
-836.17385924176
 20
-2041.1710357258
  0
POINT
  5
22F
100
AcDbEntity
  8
0
 62
           6
100
AcDbPoint
 10
-826.173859241761
 20
-2041.171035725799
  0
POINT
  5
22E
100
AcDbEntity
  8
0
 62
           6
100
AcDbPoint
 10
-836.17385924176
 20
-2041.1710357258
  0
POINT
  5
22D
100
AcDbEntity
  8
0
 62
           6
100
AcDbPoint
 10
-836.173859241761
 20
-2091.171035725799
  0
POINT
  5
22C
100
AcDbEntity
  8
0
 62
           6
100
AcDbPoint
 10
-836.173859241761
 20
-2091.171035725799
  0
POINT
  5
22B
100
AcDbEntity
  8
0
 62
           6
100
AcDbPoint
 10
-826.173859241761
 20
-2091.171035725799
  0
POINT
  5
22A
100
AcDbEntity
  8
0
 62
           6
100
AcDbPoint
 10
-826.173859241761
 20
-2041.171035725799
  0
POINT
  5
229
100
AcDbEntity
  8
0
 62
           6
100
AcDbPoint
 10
-826.173859241761
 20
-2091.171035725799
  0
POINT
  5
228
100
AcDbEntity
  8
0
 62
           6
100
AcDbPoint
 10
-823.173859241761
 20
-2091.171035725799
  0
POINT
  5
227
100
AcDbEntity
  8
0
 62
           6
100
AcDbPoint
 10
-813.17385924176
 20
-2091.171035725799
  0
POINT
  5
226
100
AcDbEntity
  8
0
 62
           6
100
AcDbPoint
 10
-823.17385924176
 20
-2041.1710357258
  0
POINT
  5
225
100
AcDbEntity
  8
0
 62
           6
100
AcDbPoint
 10
-813.17385924176
 20
-2041.171035725799
  0
POINT
  5
224
100
AcDbEntity
  8
0
 62
           6
100
AcDbPoint
 10
-823.17385924176
 20
-2041.1710357258
  0
POINT
  5
223
100
AcDbEntity
  8
0
 62
           6
100
AcDbPoint
 10
-823.173859241761
 20
-2091.171035725799
  0
POINT
  5
222
100
AcDbEntity
  8
0
 62
           6
100
AcDbPoint
 10
-813.17385924176
 20
-2041.171035725799
  0
POINT
  5
221
100
AcDbEntity
  8
0
 62
           6
100
AcDbPoint
 10
-813.17385924176
 20
-2091.171035725799
  0
POINT
  5
220
100
AcDbEntity
  8
0
 62
           6
100
AcDbPoint
 10
-810.17385924176
 20
-2041.1710357258
  0
POINT
  5
21F
100
AcDbEntity
  8
0
 62
           6
100
AcDbPoint
 10
-800.17385924176
 20
-2041.171035725799
  0
POINT
  5
21E
100
AcDbEntity
  8
0
 62
           6
100
AcDbPoint
 10
-810.17385924176
 20
-2041.1710357258
  0
POINT
  5
21D
100
AcDbEntity
  8
0
 62
           6
100
AcDbPoint
 10
-810.17385924176
 20
-2091.171035725799
  0
POINT
  5
21C
100
AcDbEntity
  8
0
 62
           6
100
AcDbPoint
 10
-810.17385924176
 20
-2091.171035725799
  0
POINT
  5
21B
100
AcDbEntity
  8
0
 62
           6
100
AcDbPoint
 10
-800.17385924176
 20
-2091.171035725799
  0
POINT
  5
21A
100
AcDbEntity
  8
0
 62
           6
100
AcDbPoint
 10
-800.17385924176
 20
-2041.171035725799
  0
POINT
  5
219
100
AcDbEntity
  8
0
 62
           6
100
AcDbPoint
 10
-800.17385924176
 20
-2091.171035725799
  0
POINT
  5
218
100
AcDbEntity
  8
0
 62
           6
100
AcDbPoint
 10
-797.17385924176
 20
-2041.1710357258
  0
POINT
  5
217
100
AcDbEntity
  8
0
 62
           6
100
AcDbPoint
 10
-787.17385924176
 20
-2041.171035725799
  0
POINT
  5
216
100
AcDbEntity
  8
0
 62
           6
100
AcDbPoint
 10
-797.17385924176
 20
-2041.1710357258
  0
POINT
  5
215
100
AcDbEntity
  8
0
 62
           6
100
AcDbPoint
 10
-797.17385924176
 20
-2091.171035725799
  0
POINT
  5
214
100
AcDbEntity
  8
0
 62
           6
100
AcDbPoint
 10
-797.17385924176
 20
-2091.171035725799
  0
POINT
  5
213
100
AcDbEntity
  8
0
 62
           6
100
AcDbPoint
 10
-787.17385924176
 20
-2091.171035725799
  0
POINT
  5
212
100
AcDbEntity
  8
0
 62
           6
100
AcDbPoint
 10
-787.17385924176
 20
-2041.171035725799
  0
POINT
  5
211
100
AcDbEntity
  8
0
 62
           6
100
AcDbPoint
 10
-787.17385924176
 20
-2091.171035725799
  0
POINT
  5
210
100
AcDbEntity
  8
0
 62
           6
100
AcDbPoint
 10
-784.17385924176
 20
-2041.1710357258
  0
POINT
  5
20F
100
AcDbEntity
  8
0
 62
           6
100
AcDbPoint
 10
-774.17385924176
 20
-2041.171035725799
  0
POINT
  5
20E
100
AcDbEntity
  8
0
 62
           6
100
AcDbPoint
 10
-784.17385924176
 20
-2041.1710357258
  0
POINT
  5
20D
100
AcDbEntity
  8
0
 62
           6
100
AcDbPoint
 10
-784.17385924176
 20
-2091.171035725799
  0
POINT
  5
20C
100
AcDbEntity
  8
0
 62
           6
100
AcDbPoint
 10
-784.17385924176
 20
-2091.171035725799
  0
POINT
  5
20B
100
AcDbEntity
  8
0
 62
           6
100
AcDbPoint
 10
-774.17385924176
 20
-2091.171035725799
  0
POINT
  5
20A
100
AcDbEntity
  8
0
 62
           6
100
AcDbPoint
 10
-774.17385924176
 20
-2041.171035725799
  0
POINT
  5
209
100
AcDbEntity
  8
0
 62
           6
100
AcDbPoint
 10
-774.17385924176
 20
-2091.171035725799
  0
POINT
  5
208
100
AcDbEntity
  8
0
 62
           6
100
AcDbPoint
 10
-771.17385924176
 20
-2041.1710357258
  0
POINT
  5
207
100
AcDbEntity
  8
0
 62
           6
100
AcDbPoint
 10
-761.17385924176
 20
-2041.171035725799
  0
POINT
  5
206
100
AcDbEntity
  8
0
 62
           6
100
AcDbPoint
 10
-771.17385924176
 20
-2041.1710357258
  0
POINT
  5
205
100
AcDbEntity
  8
0
 62
           6
100
AcDbPoint
 10
-771.17385924176
 20
-2091.171035725799
  0
POINT
  5
204
100
AcDbEntity
  8
0
 62
           6
100
AcDbPoint
 10
-771.17385924176
 20
-2091.171035725799
  0
POINT
  5
203
100
AcDbEntity
  8
0
 62
           6
100
AcDbPoint
 10
-761.17385924176
 20
-2091.171035725799
  0
POINT
  5
202
100
AcDbEntity
  8
0
 62
           6
100
AcDbPoint
 10
-761.17385924176
 20
-2041.171035725799
  0
POINT
  5
201
100
AcDbEntity
  8
0
 62
           6
100
AcDbPoint
 10
-761.17385924176
 20
-2091.171035725799
  0
POINT
  5
200
100
AcDbEntity
  8
0
 62
           6
100
AcDbPoint
 10
-758.17385924176
 20
-2091.171035725799
  0
POINT
  5
1FF
100
AcDbEntity
  8
0
 62
           6
100
AcDbPoint
 10
-748.17385924176
 20
-2091.171035725799
  0
POINT
  5
1FE
100
AcDbEntity
  8
0
 62
           6
100
AcDbPoint
 10
-758.17385924176
 20
-2041.1710357258
  0
POINT
  5
1FD
100
AcDbEntity
  8
0
 62
           6
100
AcDbPoint
 10
-748.17385924176
 20
-2041.171035725799
  0
POINT
  5
1FC
100
AcDbEntity
  8
0
 62
           6
100
AcDbPoint
 10
-758.17385924176
 20
-2041.1710357258
  0
POINT
  5
1FB
100
AcDbEntity
  8
0
 62
           6
100
AcDbPoint
 10
-758.17385924176
 20
-2091.171035725799
  0
POINT
  5
1FA
100
AcDbEntity
  8
0
 62
           6
100
AcDbPoint
 10
-748.17385924176
 20
-2041.171035725799
  0
POINT
  5
1F9
100
AcDbEntity
  8
0
 62
           6
100
AcDbPoint
 10
-748.17385924176
 20
-2091.171035725799
  0
POINT
  5
1F8
100
AcDbEntity
  8
0
 62
           6
100
AcDbPoint
 10
-745.17385924176
 20
-2041.1710357258
  0
POINT
  5
1F7
100
AcDbEntity
  8
0
 62
           6
100
AcDbPoint
 10
-735.17385924176
 20
-2041.171035725799
  0
POINT
  5
1F6
100
AcDbEntity
  8
0
 62
           6
100
AcDbPoint
 10
-745.17385924176
 20
-2041.1710357258
  0
POINT
  5
1F5
100
AcDbEntity
  8
0
 62
           6
100
AcDbPoint
 10
-745.17385924176
 20
-2091.171035725799
  0
POINT
  5
1F4
100
AcDbEntity
  8
0
 62
           6
100
AcDbPoint
 10
-745.17385924176
 20
-2091.171035725799
  0
POINT
  5
1F3
100
AcDbEntity
  8
0
 62
           6
100
AcDbPoint
 10
-735.17385924176
 20
-2091.171035725799
  0
POINT
  5
1F2
100
AcDbEntity
  8
0
 62
           6
100
AcDbPoint
 10
-735.17385924176
 20
-2041.171035725799
  0
POINT
  5
1F1
100
AcDbEntity
  8
0
 62
           6
100
AcDbPoint
 10
-735.17385924176
 20
-2091.171035725799
  0
POINT
  5
1F0
100
AcDbEntity
  8
0
 62
           6
100
AcDbPoint
 10
-732.17385924176
 20
-2041.1710357258
  0
POINT
  5
1EF
100
AcDbEntity
  8
0
 62
           6
100
AcDbPoint
 10
-722.17385924176
 20
-2041.171035725799
  0
POINT
  5
1EE
100
AcDbEntity
  8
0
 62
           6
100
AcDbPoint
 10
-732.17385924176
 20
-2041.1710357258
  0
POINT
  5
1ED
100
AcDbEntity
  8
0
 62
           6
100
AcDbPoint
 10
-732.17385924176
 20
-2091.171035725799
  0
POINT
  5
1EC
100
AcDbEntity
  8
0
 62
           6
100
AcDbPoint
 10
-732.17385924176
 20
-2091.171035725799
  0
POINT
  5
1EB
100
AcDbEntity
  8
0
 62
           6
100
AcDbPoint
 10
-722.17385924176
 20
-2091.171035725799
  0
POINT
  5
1EA
100
AcDbEntity
  8
0
 62
           6
100
AcDbPoint
 10
-722.17385924176
 20
-2041.171035725799
  0
POINT
  5
1E9
100
AcDbEntity
  8
0
 62
           6
100
AcDbPoint
 10
-722.17385924176
 20
-2091.171035725799
  0
POINT
  5
1E8
100
AcDbEntity
  8
0
 62
           6
100
AcDbPoint
 10
-719.17385924176
 20
-2041.1710357258
  0
POINT
  5
1E7
100
AcDbEntity
  8
0
 62
           6
100
AcDbPoint
 10
-709.17385924176
 20
-2041.171035725799
  0
POINT
  5
1E6
100
AcDbEntity
  8
0
 62
           6
100
AcDbPoint
 10
-719.17385924176
 20
-2041.1710357258
  0
POINT
  5
1E5
100
AcDbEntity
  8
0
 62
           6
100
AcDbPoint
 10
-719.17385924176
 20
-2091.171035725799
  0
POINT
  5
1E4
100
AcDbEntity
  8
0
 62
           6
100
AcDbPoint
 10
-719.17385924176
 20
-2091.171035725799
  0
POINT
  5
1E3
100
AcDbEntity
  8
0
 62
           6
100
AcDbPoint
 10
-709.17385924176
 20
-2091.171035725799
  0
POINT
  5
1E2
100
AcDbEntity
  8
0
 62
           6
100
AcDbPoint
 10
-709.17385924176
 20
-2041.171035725799
  0
POINT
  5
1E1
100
AcDbEntity
  8
0
 62
           6
100
AcDbPoint
 10
-709.17385924176
 20
-2091.171035725799
  0
POINT
  5
1E0
100
AcDbEntity
  8
0
 62
           6
100
AcDbPoint
 10
-706.17385924176
 20
-2041.1710357258
  0
POINT
  5
1DF
100
AcDbEntity
  8
0
 62
           6
100
AcDbPoint
 10
-696.17385924176
 20
-2041.171035725799
  0
POINT
  5
1DE
100
AcDbEntity
  8
0
 62
           6
100
AcDbPoint
 10
-706.17385924176
 20
-2041.1710357258
  0
POINT
  5
1DD
100
AcDbEntity
  8
0
 62
           6
100
AcDbPoint
 10
-706.17385924176
 20
-2091.171035725799
  0
POINT
  5
1DC
100
AcDbEntity
  8
0
 62
           6
100
AcDbPoint
 10
-706.17385924176
 20
-2091.171035725799
  0
POINT
  5
1DB
100
AcDbEntity
  8
0
 62
           6
100
AcDbPoint
 10
-696.17385924176
 20
-2091.171035725799
  0
POINT
  5
1DA
100
AcDbEntity
  8
0
 62
           6
100
AcDbPoint
 10
-696.17385924176
 20
-2041.171035725799
  0
POINT
  5
1D9
100
AcDbEntity
  8
0
 62
           6
100
AcDbPoint
 10
-696.17385924176
 20
-2091.171035725799
  0
POINT
  5
1D8
100
AcDbEntity
  8
0
 62
           6
100
AcDbPoint
 10
-693.173859241761
 20
-2091.171035725799
  0
POINT
  5
1D7
100
AcDbEntity
  8
0
 62
           6
100
AcDbPoint
 10
-683.173859241761
 20
-2091.171035725799
  0
POINT
  5
1D6
100
AcDbEntity
  8
0
 62
           6
100
AcDbPoint
 10
-693.173859241761
 20
-2041.1710357258
  0
POINT
  5
1D5
100
AcDbEntity
  8
0
 62
           6
100
AcDbPoint
 10
-683.173859241761
 20
-2041.171035725799
  0
POINT
  5
1D4
100
AcDbEntity
  8
0
 62
           6
100
AcDbPoint
 10
-693.173859241761
 20
-2041.1710357258
  0
POINT
  5
1D3
100
AcDbEntity
  8
0
 62
           6
100
AcDbPoint
 10
-693.173859241761
 20
-2091.171035725799
  0
POINT
  5
1D2
100
AcDbEntity
  8
0
 62
           6
100
AcDbPoint
 10
-683.173859241761
 20
-2041.171035725799
  0
POINT
  5
1D1
100
AcDbEntity
  8
0
 62
           6
100
AcDbPoint
 10
-683.173859241761
 20
-2091.171035725799
  0
POINT
  5
1D0
100
AcDbEntity
  8
0
 62
           6
100
AcDbPoint
 10
-680.17385924176
 20
-2041.1710357258
  0
POINT
  5
1CF
100
AcDbEntity
  8
0
 62
           6
100
AcDbPoint
 10
-670.17385924176
 20
-2041.171035725799
  0
POINT
  5
1CE
100
AcDbEntity
  8
0
 62
           6
100
AcDbPoint
 10
-680.17385924176
 20
-2041.1710357258
  0
POINT
  5
1CD
100
AcDbEntity
  8
0
 62
           6
100
AcDbPoint
 10
-680.17385924176
 20
-2091.171035725799
  0
POINT
  5
1CC
100
AcDbEntity
  8
0
 62
           6
100
AcDbPoint
 10
-680.17385924176
 20
-2091.171035725799
  0
POINT
  5
1CB
100
AcDbEntity
  8
0
 62
           6
100
AcDbPoint
 10
-670.17385924176
 20
-2091.171035725799
  0
POINT
  5
1CA
100
AcDbEntity
  8
0
 62
           6
100
AcDbPoint
 10
-670.17385924176
 20
-2041.171035725799
  0
POINT
  5
1C9
100
AcDbEntity
  8
0
 62
           6
100
AcDbPoint
 10
-670.17385924176
 20
-2091.171035725799
  0
POINT
  5
1C8
100
AcDbEntity
  8
0
 62
           6
100
AcDbPoint
 10
-667.17385924176
 20
-2041.1710357258
  0
POINT
  5
1C7
100
AcDbEntity
  8
0
 62
           6
100
AcDbPoint
 10
-657.17385924176
 20
-2041.171035725799
  0
POINT
  5
1C6
100
AcDbEntity
  8
0
 62
           6
100
AcDbPoint
 10
-667.17385924176
 20
-2041.1710357258
  0
POINT
  5
1C5
100
AcDbEntity
  8
0
 62
           6
100
AcDbPoint
 10
-667.17385924176
 20
-2091.171035725799
  0
POINT
  5
1C4
100
AcDbEntity
  8
0
 62
           6
100
AcDbPoint
 10
-667.17385924176
 20
-2091.171035725799
  0
POINT
  5
1C3
100
AcDbEntity
  8
0
 62
           6
100
AcDbPoint
 10
-657.17385924176
 20
-2091.171035725799
  0
POINT
  5
1C2
100
AcDbEntity
  8
0
 62
           6
100
AcDbPoint
 10
-657.17385924176
 20
-2041.171035725799
  0
POINT
  5
1C1
100
AcDbEntity
  8
0
 62
           6
100
AcDbPoint
 10
-657.17385924176
 20
-2091.171035725799
  0
POINT
  5
1C0
100
AcDbEntity
  8
0
 62
           6
100
AcDbPoint
 10
-654.17385924176
 20
-2041.1710357258
  0
POINT
  5
1BF
100
AcDbEntity
  8
0
 62
           6
100
AcDbPoint
 10
-644.17385924176
 20
-2041.171035725799
  0
POINT
  5
1BE
100
AcDbEntity
  8
0
 62
           6
100
AcDbPoint
 10
-654.17385924176
 20
-2041.1710357258
  0
POINT
  5
1BD
100
AcDbEntity
  8
0
 62
           6
100
AcDbPoint
 10
-654.17385924176
 20
-2091.171035725799
  0
POINT
  5
1BC
100
AcDbEntity
  8
0
 62
           6
100
AcDbPoint
 10
-654.17385924176
 20
-2091.171035725799
  0
POINT
  5
1BB
100
AcDbEntity
  8
0
 62
           6
100
AcDbPoint
 10
-644.17385924176
 20
-2091.171035725799
  0
POINT
  5
1BA
100
AcDbEntity
  8
0
 62
           6
100
AcDbPoint
 10
-644.17385924176
 20
-2041.171035725799
  0
POINT
  5
1B9
100
AcDbEntity
  8
0
 62
           6
100
AcDbPoint
 10
-644.17385924176
 20
-2091.171035725799
  0
POINT
  5
1B8
100
AcDbEntity
  8
0
 62
           6
100
AcDbPoint
 10
-641.17385924176
 20
-2041.1710357258
  0
POINT
  5
1B7
100
AcDbEntity
  8
0
 62
           6
100
AcDbPoint
 10
-631.17385924176
 20
-2041.171035725799
  0
POINT
  5
1B6
100
AcDbEntity
  8
0
 62
           6
100
AcDbPoint
 10
-641.17385924176
 20
-2041.1710357258
  0
POINT
  5
1B5
100
AcDbEntity
  8
0
 62
           6
100
AcDbPoint
 10
-641.17385924176
 20
-2091.171035725799
  0
POINT
  5
1B4
100
AcDbEntity
  8
0
 62
           6
100
AcDbPoint
 10
-641.17385924176
 20
-2091.171035725799
  0
POINT
  5
1B3
100
AcDbEntity
  8
0
 62
           6
100
AcDbPoint
 10
-631.17385924176
 20
-2091.171035725799
  0
POINT
  5
1B2
100
AcDbEntity
  8
0
 62
           6
100
AcDbPoint
 10
-631.17385924176
 20
-2041.171035725799
  0
POINT
  5
1B1
100
AcDbEntity
  8
0
 62
           6
100
AcDbPoint
 10
-631.17385924176
 20
-2091.171035725799
  0
POINT
  5
1B0
100
AcDbEntity
  8
0
 62
           6
100
AcDbPoint
 10
-628.17385924176
 20
-2091.171035725799
  0
POINT
  5
1AF
100
AcDbEntity
  8
0
 62
           6
100
AcDbPoint
 10
-618.17385924176
 20
-2091.171035725799
  0
POINT
  5
1AE
100
AcDbEntity
  8
0
 62
           6
100
AcDbPoint
 10
-628.17385924176
 20
-2041.1710357258
  0
POINT
  5
1AD
100
AcDbEntity
  8
0
 62
           6
100
AcDbPoint
 10
-618.17385924176
 20
-2041.171035725799
  0
POINT
  5
1AC
100
AcDbEntity
  8
0
 62
           6
100
AcDbPoint
 10
-628.17385924176
 20
-2041.1710357258
  0
POINT
  5
1AB
100
AcDbEntity
  8
0
 62
           6
100
AcDbPoint
 10
-628.17385924176
 20
-2091.171035725799
  0
POINT
  5
1AA
100
AcDbEntity
  8
0
 62
           6
100
AcDbPoint
 10
-618.17385924176
 20
-2041.171035725799
  0
POINT
  5
1A9
100
AcDbEntity
  8
0
 62
           6
100
AcDbPoint
 10
-618.17385924176
 20
-2091.171035725799
  0
POINT
  5
1A8
100
AcDbEntity
  8
0
 62
           6
100
AcDbPoint
 10
-615.17385924176
 20
-2041.1710357258
  0
POINT
  5
1A7
100
AcDbEntity
  8
0
 62
           6
100
AcDbPoint
 10
-605.17385924176
 20
-2041.171035725799
  0
POINT
  5
1A6
100
AcDbEntity
  8
0
 62
           6
100
AcDbPoint
 10
-615.17385924176
 20
-2041.1710357258
  0
POINT
  5
1A5
100
AcDbEntity
  8
0
 62
           6
100
AcDbPoint
 10
-615.17385924176
 20
-2091.171035725799
  0
POINT
  5
1A4
100
AcDbEntity
  8
0
 62
           6
100
AcDbPoint
 10
-615.17385924176
 20
-2091.171035725799
  0
POINT
  5
1A3
100
AcDbEntity
  8
0
 62
           6
100
AcDbPoint
 10
-605.17385924176
 20
-2091.171035725799
  0
POINT
  5
1A2
100
AcDbEntity
  8
0
 62
           6
100
AcDbPoint
 10
-605.17385924176
 20
-2041.171035725799
  0
POINT
  5
1A1
100
AcDbEntity
  8
0
 62
           6
100
AcDbPoint
 10
-605.17385924176
 20
-2091.171035725799
  0
POINT
  5
1A0
100
AcDbEntity
  8
0
 62
           6
100
AcDbPoint
 10
-602.17385924176
 20
-2041.1710357258
  0
POINT
  5
19F
100
AcDbEntity
  8
0
 62
           6
100
AcDbPoint
 10
-592.17385924176
 20
-2041.171035725799
  0
POINT
  5
19E
100
AcDbEntity
  8
0
 62
           6
100
AcDbPoint
 10
-602.17385924176
 20
-2041.1710357258
  0
POINT
  5
19D
100
AcDbEntity
  8
0
 62
           6
100
AcDbPoint
 10
-602.17385924176
 20
-2091.171035725799
  0
POINT
  5
19C
100
AcDbEntity
  8
0
 62
           6
100
AcDbPoint
 10
-602.17385924176
 20
-2091.171035725799
  0
POINT
  5
19B
100
AcDbEntity
  8
0
 62
           6
100
AcDbPoint
 10
-592.17385924176
 20
-2091.171035725799
  0
POINT
  5
19A
100
AcDbEntity
  8
0
 62
           6
100
AcDbPoint
 10
-592.17385924176
 20
-2041.171035725799
  0
POINT
  5
199
100
AcDbEntity
  8
0
 62
           6
100
AcDbPoint
 10
-592.17385924176
 20
-2091.171035725799
  0
POINT
  5
198
100
AcDbEntity
  8
0
 62
           6
100
AcDbPoint
 10
-589.17385924176
 20
-2041.171035725799
  0
POINT
  5
197
100
AcDbEntity
  8
0
 62
           6
100
AcDbPoint
 10
-579.173859241761
 20
-2041.171035725799
  0
POINT
  5
196
100
AcDbEntity
  8
0
 62
           6
100
AcDbPoint
 10
-589.17385924176
 20
-2041.171035725799
  0
POINT
  5
195
100
AcDbEntity
  8
0
 62
           6
100
AcDbPoint
 10
-589.17385924176
 20
-2091.171035725799
  0
POINT
  5
194
100
AcDbEntity
  8
0
 62
           6
100
AcDbPoint
 10
-589.17385924176
 20
-2091.171035725799
  0
POINT
  5
193
100
AcDbEntity
  8
0
 62
           6
100
AcDbPoint
 10
-579.173859241761
 20
-2091.171035725799
  0
POINT
  5
192
100
AcDbEntity
  8
0
 62
           6
100
AcDbPoint
 10
-579.173859241761
 20
-2041.171035725799
  0
POINT
  5
191
100
AcDbEntity
  8
0
 62
           6
100
AcDbPoint
 10
-579.173859241761
 20
-2091.171035725799
  0
POINT
  5
190
100
AcDbEntity
  8
0
 62
           6
100
AcDbPoint
 10
-576.17385924176
 20
-2041.171035725799
  0
POINT
  5
18F
100
AcDbEntity
  8
0
 62
           6
100
AcDbPoint
 10
-566.17385924176
 20
-2041.171035725799
  0
POINT
  5
18E
100
AcDbEntity
  8
0
 62
           6
100
AcDbPoint
 10
-576.17385924176
 20
-2041.171035725799
  0
POINT
  5
18D
100
AcDbEntity
  8
0
 62
           6
100
AcDbPoint
 10
-576.17385924176
 20
-2091.171035725799
  0
POINT
  5
18C
100
AcDbEntity
  8
0
 62
           6
100
AcDbPoint
 10
-576.17385924176
 20
-2091.171035725799
  0
POINT
  5
18B
100
AcDbEntity
  8
0
 62
           6
100
AcDbPoint
 10
-566.17385924176
 20
-2091.171035725799
  0
POINT
  5
18A
100
AcDbEntity
  8
0
 62
           6
100
AcDbPoint
 10
-566.17385924176
 20
-2041.171035725799
  0
POINT
  5
189
100
AcDbEntity
  8
0
 62
           6
100
AcDbPoint
 10
-566.17385924176
 20
-2091.171035725799
  0
POINT
  5
188
100
AcDbEntity
  8
0
 62
           6
100
AcDbPoint
 10
-563.17385924176
 20
-2091.171035725799
  0
POINT
  5
187
100
AcDbEntity
  8
0
 62
           6
100
AcDbPoint
 10
-553.17385924176
 20
-2091.171035725799
  0
POINT
  5
186
100
AcDbEntity
  8
0
 62
           6
100
AcDbPoint
 10
-563.17385924176
 20
-2041.171035725799
  0
POINT
  5
185
100
AcDbEntity
  8
0
 62
           6
100
AcDbPoint
 10
-553.17385924176
 20
-2041.171035725799
  0
POINT
  5
184
100
AcDbEntity
  8
0
 62
           6
100
AcDbPoint
 10
-563.17385924176
 20
-2041.171035725799
  0
POINT
  5
183
100
AcDbEntity
  8
0
 62
           6
100
AcDbPoint
 10
-563.17385924176
 20
-2091.171035725799
  0
POINT
  5
182
100
AcDbEntity
  8
0
 62
           6
100
AcDbPoint
 10
-553.17385924176
 20
-2041.171035725799
  0
POINT
  5
181
100
AcDbEntity
  8
0
 62
           6
100
AcDbPoint
 10
-553.17385924176
 20
-2091.171035725799
  0
POINT
  5
180
100
AcDbEntity
  8
0
 62
           6
100
AcDbPoint
 10
-550.17385924176
 20
-2041.171035725799
  0
POINT
  5
17F
100
AcDbEntity
  8
0
 62
           6
100
AcDbPoint
 10
-540.17385924176
 20
-2041.171035725799
  0
POINT
  5
17E
100
AcDbEntity
  8
0
 62
           6
100
AcDbPoint
 10
-550.17385924176
 20
-2041.171035725799
  0
POINT
  5
17D
100
AcDbEntity
  8
0
 62
           6
100
AcDbPoint
 10
-550.17385924176
 20
-2091.171035725799
  0
POINT
  5
17C
100
AcDbEntity
  8
0
 62
           6
100
AcDbPoint
 10
-550.17385924176
 20
-2091.171035725799
  0
POINT
  5
17B
100
AcDbEntity
  8
0
 62
           6
100
AcDbPoint
 10
-540.17385924176
 20
-2091.171035725799
  0
POINT
  5
17A
100
AcDbEntity
  8
0
 62
           6
100
AcDbPoint
 10
-540.17385924176
 20
-2041.171035725799
  0
POINT
  5
179
100
AcDbEntity
  8
0
 62
           6
100
AcDbPoint
 10
-540.17385924176
 20
-2091.171035725799
  0
POINT
  5
178
100
AcDbEntity
  8
0
 62
           6
100
AcDbPoint
 10
-537.17385924176
 20
-2041.171035725799
  0
POINT
  5
177
100
AcDbEntity
  8
0
 62
           6
100
AcDbPoint
 10
-527.17385924176
 20
-2041.171035725799
  0
POINT
  5
176
100
AcDbEntity
  8
0
 62
           6
100
AcDbPoint
 10
-537.17385924176
 20
-2041.171035725799
  0
POINT
  5
175
100
AcDbEntity
  8
0
 62
           6
100
AcDbPoint
 10
-537.17385924176
 20
-2091.171035725799
  0
POINT
  5
174
100
AcDbEntity
  8
0
 62
           6
100
AcDbPoint
 10
-537.17385924176
 20
-2091.171035725799
  0
POINT
  5
173
100
AcDbEntity
  8
0
 62
           6
100
AcDbPoint
 10
-527.17385924176
 20
-2091.171035725799
  0
POINT
  5
172
100
AcDbEntity
  8
0
 62
           6
100
AcDbPoint
 10
-527.17385924176
 20
-2041.171035725799
  0
POINT
  5
171
100
AcDbEntity
  8
0
 62
           6
100
AcDbPoint
 10
-527.17385924176
 20
-2091.171035725799
  0
ENDBLK
  5
87A
100
AcDbEntity
  8
0
100
AcDbBlockEnd
  0
BLOCK
  5
40
100
AcDbEntity
  8
0
100
AcDbBlockBegin
  2
KOZU0017__S__2
 70
           0
 10
0.0
 20
0.0
 30
0.0
  3
KOZU0017__S__2
  1

  0
LINE
  5
87E
100
AcDbEntity
  8
0
  6
CONTINUOUS
 62
           7
100
AcDbLine
 10
-517.67385924176
 20
-1322.371035725799
 11
-517.67385924176
 21
-1337.371035725799
  0
LINE
  5
87D
100
AcDbEntity
  8
0
  6
CONTINUOUS
 62
           7
100
AcDbLine
 10
-996.67385924176
 20
-1322.371035725799
 11
-517.67385924176
 21
-1322.371035725799
  0
LINE
  5
87C
100
AcDbEntity
  8
0
  6
CONTINUOUS
 62
           7
100
AcDbLine
 10
-996.67385924176
 20
-1322.371035725799
 11
-996.67385924176
 21
-1337.371035725799
  0
LINE
  5
87B
100
AcDbEntity
  8
0
  6
CONTINUOUS
 62
           7
100
AcDbLine
 10
-996.67385924176
 20
-1337.371035725799
 11
-516.67385924176
 21
-1337.371035725799
  0
ENDBLK
  5
87F
100
AcDbEntity
  8
0
100
AcDbBlockEnd
  0
ENDSEC
  0
SECTION
  2
ENTITIES
  0
TEXT
  5
926
100
AcDbEntity
  8
1
 62
           2
100
AcDbText
 10
1151.682365631736
 20
-672.630702625259
 40
24.0
  1
RDG-37C
 41
0.9
  7
CONVERTER_1
100
AcDbText
  0
CIRCLE
  5
925
100
AcDbEntity
  8
0
  6
CONTINUOUS
 62
           7
100
AcDbCircle
 10
-500.009516125215
 20
682.524332613735
 40
15.75
  0
CIRCLE
  5
924
100
AcDbEntity
  8
0
  6
CONTINUOUS
 62
           7
100
AcDbCircle
 10
-500.009516125215
 20
682.524332613735
 40
14.4
  0
CIRCLE
  5
923
100
AcDbEntity
  8
0
  6
CONTINUOUS
 62
           7
100
AcDbCircle
 10
-500.009516125215
 20
682.524332613735
 40
20.264994448556
  0
CIRCLE
  5
922
100
AcDbEntity
  8
0
  6
CONTINUOUS
 62
           7
100
AcDbCircle
 10
-950.009516125215
 20
682.524332613735
 40
15.75
  0
CIRCLE
  5
921
100
AcDbEntity
  8
0
  6
CONTINUOUS
 62
           7
100
AcDbCircle
 10
-950.009516125215
 20
682.524332613735
 40
14.4
  0
CIRCLE
  5
920
100
AcDbEntity
  8
0
  6
CONTINUOUS
 62
           7
100
AcDbCircle
 10
-950.009516125215
 20
682.524332613735
 40
20.264994448556
  0
ARC
  5
91F
100
AcDbEntity
  8
0
  6
CONTINUOUS
 62
           7
100
AcDbCircle
 10
-1017.509516125215
 20
-582.725667386263
 40
7.049999999999
100
AcDbArc
 50
90.0
 51
-89.999999999991
  0
ARC
  5
91E
100
AcDbEntity
  8
0
  6
CONTINUOUS
 62
           7
100
AcDbCircle
 10
-1033.281686518992
 20
658.074333209783
 40
10.499999105932
100
AcDbArc
 50
90.000035972187
 51
-179.999982013912
  0
ARC
  5
91D
100
AcDbEntity
  8
0
  6
CONTINUOUS
 62
           7
100
AcDbCircle
 10
-1033.281686518992
 20
658.074333209783
 40
19.499999701978
100
AcDbArc
 50
90.000035972183
 51
-179.999982013911
  0
ARC
  5
91C
100
AcDbEntity
  8
0
  6
CONTINUOUS
 62
           7
100
AcDbCircle
 10
-1055.781685624923
 20
551.686932041732
 40
7.499999701976
100
AcDbArc
 50
90.000035972185
 51
-179.999982013904
  0
ARC
  5
91B
100
AcDbEntity
  8
0
  6
CONTINUOUS
 62
           7
100
AcDbCircle
 10
-1040.781686220969
 20
551.686932041732
 40
7.499999701975
100
AcDbArc
 50
-0.000017986096
 51
90.000018669341
  0
ARC
  5
91A
100
AcDbEntity
  8
0
  6
CONTINUOUS
 62
           7
100
AcDbCircle
 10
-1028.119289373414
 20
825.399332613737
 40
23.890226751803
100
AcDbArc
 50
154.924416713965
 51
-154.924416713965
  0
ARC
  5
919
100
AcDbEntity
  8
0
  6
CONTINUOUS
 62
           7
100
AcDbCircle
 10
-1028.119289373414
 20
845.649332613737
 40
23.890226751798
100
AcDbArc
 50
154.924416713964
 51
-154.924416713965
  0
ARC
  5
918
100
AcDbEntity
  8
0
  6
CONTINUOUS
 62
           7
100
AcDbCircle
 10
-1020.186191427459
 20
-282.725667386263
 40
31.523324697756
100
AcDbArc
 50
158.21321070174
 51
-158.213210701737
  0
ARC
  5
917
100
AcDbEntity
  8
0
  6
CONTINUOUS
 62
           7
100
AcDbCircle
 10
-1042.984310182088
 20
-265.175667386263
 40
8.725205943127
100
AcDbArc
 50
180.0
 51
-137.896551129251
  0
ARC
  5
916
100
AcDbEntity
  8
0
  6
CONTINUOUS
 62
           7
100
AcDbCircle
 10
-1042.984310182086
 20
-300.275667386263
 40
8.725205943128
100
AcDbArc
 50
137.896551129267
 51
-179.99999999999
  0
ARC
  5
915
100
AcDbEntity
  8
0
  6
CONTINUOUS
 62
           4
100
AcDbCircle
 10
-1113.509469745352
 20
835.524332613737
 40
74.999998882414
100
AcDbArc
 50
-174.260801955069
 51
-15.664267090783
  0
ARC
  5
914
100
AcDbEntity
  8
0
  6
CONTINUOUS
 62
           4
100
AcDbCircle
 10
-1224.509490979506
 20
871.524354965478
 40
8.999976977706
100
AcDbArc
 50
0.0
 51
180.0
  0
ARC
  5
913
100
AcDbEntity
  8
0
  6
CONTINUOUS
 62
           4
100
AcDbCircle
 10
-1224.509490979506
 20
799.524310261995
 40
8.999976977706
100
AcDbArc
 50
180.0
 51
0.0
  0
ARC
  5
912
100
AcDbEntity
  8
0
  6
CONTINUOUS
 62
           4
100
AcDbCircle
 10
-1113.509469745352
 20
835.524332613737
 40
74.999998882413
100
AcDbArc
 50
15.664267090784
 51
174.260897577717
  0
LINE
  5
911
100
AcDbEntity
  8
1
  6
CONTINUOUS
 62
           7
100
AcDbLine
 10
-1105.259525279856
 20
-567.725892021262
 11
-1122.599405716161
 21
-567.725892021262
  0
LINE
  5
910
100
AcDbEntity
  8
1
  6
CONTINUOUS
 62
           7
100
AcDbLine
 10
-1113.50946974535
 20
-567.72577758035
 11
-1113.50946974535
 21
-577.606380777825
  0
LINE
  5
90F
100
AcDbEntity
  8
1
  6
CONTINUOUS
 62
           7
100
AcDbLine
 10
-1233.509467957212
 20
-282.725667386263
 11
-1251.94050678675
 21
-282.725667386263
  0
LINE
  5
90E
100
AcDbEntity
  8
1
  6
CONTINUOUS
 62
           7
100
AcDbLine
 10
-1233.509467957212
 20
-246.725673644751
 11
-1233.509467957212
 21
-321.671819560126
  0
LINE
  5
90D
100
AcDbEntity
  8
1
  6
CONTINUOUS
 62
           7
100
AcDbLine
 10
-1233.509467957212
 20
-246.725673644751
 11
-1233.509467957212
 21
-318.725689738005
  0
LINE
  5
90C
100
AcDbEntity
  8
1
  6
CONTINUOUS
 62
           7
100
AcDbLine
 10
-1233.509467957212
 20
-246.725673644751
 11
-1233.509467957212
 21
-318.725689738005
  0
LINE
  5
90B
100
AcDbEntity
  8
1
  6
CONTINUOUS
 62
           7
100
AcDbLine
 10
-950.009516125215
 20
131.574332613737
 11
-950.009516125215
 21
180.07043940576
  0
LINE
  5
90A
100
AcDbEntity
  8
1
  6
CONTINUOUS
 62
           7
100
AcDbLine
 10
-950.009516125215
 20
176.974603821059
 11
-950.009516125215
 21
133.951007915978
  0
LINE
  5
909
100
AcDbEntity
  8
1
  6
CONTINUOUS
 62
           7
100
AcDbLine
 10
-950.009516125215
 20
176.974603821059
 11
-950.009516125215
 21
131.574332613737
  0
LINE
  5
908
100
AcDbEntity
  8
1
  6
CONTINUOUS
 62
           7
100
AcDbLine
 10
-950.009516125215
 20
176.974603821059
 11
-950.009516125215
 21
131.574332613737
  0
LINE
  5
907
100
AcDbEntity
  8
1
  6
CONTINUOUS
 62
           7
100
AcDbLine
 10
-500.009516125216
 20
175.867995103941
 11
-500.009516125216
 21
131.574332613737
  0
LINE
  5
906
100
AcDbEntity
  8
1
  6
CONTINUOUS
 62
           7
100
AcDbLine
 10
-267.509516125214
 20
131.574332613737
 11
-267.509516125214
 21
-612.725667386263
  0
LINE
  5
905
100
AcDbEntity
  8
0
  6
CONTINUOUS
 62
           7
100
AcDbLine
 10
241.590483874786
 20
-530.225667386265
 11
241.590483874786
 21
-597.725667386265
  0
LINE
  5
904
100
AcDbEntity
  8
0
  6
CONTINUOUS
 62
           7
100
AcDbLine
 10
376.590483874784
 20
-530.225667386265
 11
376.590483874784
 21
-597.725667386265
  0
LINE
  5
903
100
AcDbEntity
  8
0
  6
CONTINUOUS
 62
           7
100
AcDbLine
 10
241.590483874786
 20
-530.225667386265
 11
376.590483874784
 21
-530.225667386265
  0
LINE
  5
902
100
AcDbEntity
  8
0
  6
CONTINUOUS
 62
           7
100
AcDbLine
 10
241.590483874786
 20
-597.725667386265
 11
376.590483874784
 21
-597.725667386265
  0
LINE
  5
901
100
AcDbEntity
  8
0
  6
CONTINUOUS
 62
           7
100
AcDbLine
 10
-1017.509516125215
 20
-234.135134755965
 11
-1020.509516125215
 21
-234.135134755965
  0
LINE
  5
900
100
AcDbEntity
  8
0
  6
CONTINUOUS
 62
           7
100
AcDbLine
 10
-1020.509516125215
 20
-222.135134755965
 11
-1017.509516125215
 21
-222.135134755965
  0
LINE
  5
8FF
100
AcDbEntity
  8
0
  6
CONTINUOUS
 62
           7
100
AcDbLine
 10
-1020.509516125215
 20
-222.135134755965
 11
-1020.509516125215
 21
-234.135134755965
  0
LINE
  5
8FE
100
AcDbEntity
  8
0
  6
CONTINUOUS
 62
           7
100
AcDbLine
 10
-297.509516125215
 20
129.774332613735
 11
-299.009516125215
 21
129.774332613735
  0
LINE
  5
8FD
100
AcDbEntity
  8
0
  6
CONTINUOUS
 62
           7
100
AcDbLine
 10
-284.909516125215
 20
-612.725667386265
 11
-284.909516125215
 21
-632.825667386265
  0
LINE
  5
8FC
100
AcDbEntity
  8
0
  6
CONTINUOUS
 62
           7
100
AcDbLine
 10
-299.009516125215
 20
131.574332613735
 11
-299.009516125215
 21
129.774332613735
  0
LINE
  5
8FB
100
AcDbEntity
  8
0
  6
CONTINUOUS
 62
           7
100
AcDbLine
 10
-284.909516125215
 20
-632.825667386265
 11
-1017.509516125215
 21
-632.825667386265
  0
LINE
  5
8FA
100
AcDbEntity
  8
0
  6
CONTINUOUS
 62
           7
100
AcDbLine
 10
-1017.509516125215
 20
131.574332613735
 11
-1017.509516125215
 21
-632.825667386265
  0
LINE
  5
8F9
100
AcDbEntity
  8
0
  6
CONTINUOUS
 62
           7
100
AcDbLine
 10
-1017.509516125215
 20
131.574332613735
 11
-299.009516125215
 21
131.574332613735
  0
LINE
  5
8F8
100
AcDbEntity
  8
0
  6
CONTINUOUS
 62
           7
100
AcDbLine
 10
-462.509516125214
 20
26.574332613737
 11
-312.509516125214
 21
26.574332613737
  0
LINE
  5
8F7
100
AcDbEntity
  8
0
  6
CONTINUOUS
 62
           7
100
AcDbLine
 10
-462.509516125214
 20
116.574332613737
 11
-462.509516125214
 21
26.574332613737
  0
LINE
  5
8F6
100
AcDbEntity
  8
0
  6
CONTINUOUS
 62
           7
100
AcDbLine
 10
-462.509516125214
 20
116.574332613737
 11
-312.509516125214
 21
116.574332613737
  0
LINE
  5
8F5
100
AcDbEntity
  8
0
  6
CONTINUOUS
 62
           7
100
AcDbLine
 10
-312.509516125214
 20
116.574332613737
 11
-312.509516125214
 21
26.574332613737
  0
LINE
  5
8F4
100
AcDbEntity
  8
0
  6
CONTINUOUS
 62
           7
100
AcDbLine
 10
-1070.509455725844
 20
-608.225698082653
 11
-1093.48898200089
 21
-608.225698082653
  0
LINE
  5
8F3
100
AcDbEntity
  8
0
  6
CONTINUOUS
 62
           7
100
AcDbLine
 10
-1072.669413525756
 20
-617.225636689872
 11
-1093.48898200089
 21
-617.225636689872
  0
LINE
  5
8F2
100
AcDbEntity
  8
0
  6
CONTINUOUS
 62
           7
100
AcDbLine
 10
-1067.962356428655
 20
-597.612891863166
 11
-1073.799899453877
 21
-621.935962890525
  0
LINE
  5
8F1
100
AcDbEntity
  8
0
  6
CONTINUOUS
 62
           7
100
AcDbLine
 10
-1060.66945236039
 20
-599.363190632158
 11
-1066.506995385612
 21
-623.686261659515
  0
LINE
  5
8F0
100
AcDbEntity
  8
0
  6
CONTINUOUS
 62
           7
100
AcDbLine
 10
-1017.509516125215
 20
-617.225636689872
 11
-1064.956401136932
 21
-617.225636689872
  0
LINE
  5
8EF
100
AcDbEntity
  8
0
  6
CONTINUOUS
 62
           7
100
AcDbLine
 10
-1017.509516125215
 20
-608.225698082653
 11
-1062.796443337019
 21
-608.225698082653
  0
LINE
  5
8EE
100
AcDbEntity
  8
0
  6
CONTINUOUS
 62
           7
100
AcDbLine
 10
-1052.781655226555
 20
597.274393609154
 11
-1052.781655226555
 21
559.186931743707
  0
LINE
  5
8ED
100
AcDbEntity
  8
0
  6
CONTINUOUS
 62
           7
100
AcDbLine
 10
-1043.781716619338
 20
595.11443580924
 11
-1043.781716619338
 21
559.186931743707
  0
LINE
  5
8EC
100
AcDbEntity
  8
0
  6
CONTINUOUS
 62
           7
100
AcDbLine
 10
-1063.394461446044
 20
599.821492906344
 11
-1039.071390418686
 21
593.983949881121
  0
LINE
  5
8EB
100
AcDbEntity
  8
0
  6
CONTINUOUS
 62
           7
100
AcDbLine
 10
-1061.644162677051
 20
607.114396974608
 11
-1037.321091649694
 21
601.276853949386
  0
LINE
  5
8EA
100
AcDbEntity
  8
0
  6
CONTINUOUS
 62
           7
100
AcDbLine
 10
-1040.781686220969
 20
529.186932935801
 11
-1040.781686220969
 21
514.187772765212
  0
LINE
  5
8E9
100
AcDbEntity
  8
0
  6
CONTINUOUS
 62
           7
100
AcDbLine
 10
-1015.709516125215
 20
668.574363310128
 11
-1033.281686518992
 21
668.574363310128
  0
LINE
  5
8E8
100
AcDbEntity
  8
0
  6
CONTINUOUS
 62
           7
100
AcDbLine
 10
-1017.509516125215
 20
677.574301917346
 11
-1033.281686518992
 21
677.574301917346
  0
LINE
  5
8E7
100
AcDbEntity
  8
0
  6
CONTINUOUS
 62
           7
100
AcDbLine
 10
-1043.781716619338
 20
658.074333209783
 11
-1043.781716619338
 21
602.827448198066
  0
LINE
  5
8E6
100
AcDbEntity
  8
0
  6
CONTINUOUS
 62
           7
100
AcDbLine
 10
-1052.781655226555
 20
658.074333209783
 11
-1052.781655226555
 21
604.987405997979
  0
LINE
  5
8E5
100
AcDbEntity
  8
0
  6
CONTINUOUS
 62
           7
100
AcDbLine
 10
-1063.2816853269
 20
551.68693204173
 11
-1063.2816853269
 21
529.186932935801
  0
LINE
  5
8E4
100
AcDbEntity
  8
0
  6
CONTINUOUS
 62
           7
100
AcDbLine
 10
-1063.2816853269
 20
529.186932935801
 11
-1033.281686518992
 21
529.186932935801
  0
LINE
  5
8E3
100
AcDbEntity
  8
0
  6
CONTINUOUS
 62
           7
100
AcDbLine
 10
-1033.281686518992
 20
551.68693204173
 11
-1033.281686518992
 21
529.186932935801
  0
LINE
  5
8E2
100
AcDbEntity
  8
0
  6
CONTINUOUS
 62
           7
100
AcDbLine
 10
-1055.781685624923
 20
559.186931743709
 11
-1040.781686220969
 21
559.186931743709
  0
LINE
  5
8E1
100
AcDbEntity
  8
0
  6
CONTINUOUS
 62
           7
100
AcDbLine
 10
-1055.781685624923
 20
529.186932935801
 11
-1055.781685624923
 21
513.553998986685
  0
LINE
  5
8E0
100
AcDbEntity
  8
0
  6
CONTINUOUS
 62
           7
100
AcDbLine
 10
-1049.757850075377
 20
815.274332613737
 11
-1052.009516125215
 21
819.174332613737
  0
LINE
  5
8DF
100
AcDbEntity
  8
0
  6
CONTINUOUS
 62
           7
100
AcDbLine
 10
-1049.757850075373
 20
855.774332613735
 11
-1017.509516125215
 21
855.774332613737
  0
LINE
  5
8DE
100
AcDbEntity
  8
0
  6
CONTINUOUS
 62
           7
100
AcDbLine
 10
-1049.757850075377
 20
815.274332613737
 11
-1017.509516125215
 21
815.274332613737
  0
LINE
  5
8DD
100
AcDbEntity
  8
0
  6
CONTINUOUS
 62
           7
100
AcDbLine
 10
-1052.009516125215
 20
819.174332613737
 11
-1052.009516125214
 21
851.874332613735
  0
LINE
  5
8DC
100
AcDbEntity
  8
0
  6
CONTINUOUS
 62
           7
100
AcDbLine
 10
-1052.009516125214
 20
851.874332613735
 11
-1049.757850075373
 21
855.774332613735
  0
LINE
  5
8DB
100
AcDbEntity
  8
0
  6
CONTINUOUS
 62
           7
100
AcDbLine
 10
-1049.757850075377
 20
835.524332613737
 11
-1017.509516125215
 21
835.524332613737
  0
LINE
  5
8DA
100
AcDbEntity
  8
0
  6
CONTINUOUS
 62
           7
100
AcDbLine
 10
-1015.709516125215
 20
-635.225667386263
 11
-1015.709516125215
 21
-632.825667386263
  0
LINE
  5
8D9
100
AcDbEntity
  8
0
  6
CONTINUOUS
 62
           7
100
AcDbLine
 10
-282.509516125214
 20
-635.225667386263
 11
-1015.709516125215
 21
-635.225667386263
  0
LINE
  5
8D8
100
AcDbEntity
  8
0
  6
CONTINUOUS
 62
           3
100
AcDbLine
 10
-500.009516125215
 20
717.112641293396
 11
-500.009516125215
 21
647.437139211782
  0
LINE
  5
8D7
100
AcDbEntity
  8
0
  6
CONTINUOUS
 62
           7
100
AcDbLine
 10
-488.309516125215
 20
702.789327062292
 11
-511.709516125212
 21
702.789327062291
  0
LINE
  5
8D6
100
AcDbEntity
  8
0
  6
CONTINUOUS
 62
           7
100
AcDbLine
 10
-476.609516125212
 20
682.524332613737
 11
-488.309516125215
 21
702.789327062292
  0
LINE
  5
8D5
100
AcDbEntity
  8
0
  6
CONTINUOUS
 62
           7
100
AcDbLine
 10
-488.309516125215
 20
662.259338165178
 11
-476.609516125212
 21
682.524332613737
  0
LINE
  5
8D4
100
AcDbEntity
  8
0
  6
CONTINUOUS
 62
           7
100
AcDbLine
 10
-511.709516125215
 20
662.25933816518
 11
-488.309516125215
 21
662.259338165178
  0
LINE
  5
8D3
100
AcDbEntity
  8
0
  6
CONTINUOUS
 62
           7
100
AcDbLine
 10
-523.409516125212
 20
682.524332613735
 11
-511.709516125215
 21
662.25933816518
  0
LINE
  5
8D2
100
AcDbEntity
  8
0
  6
CONTINUOUS
 62
           7
100
AcDbLine
 10
-511.709516125212
 20
702.789327062291
 11
-523.409516125212
 21
682.524332613735
  0
LINE
  5
8D1
100
AcDbEntity
  8
0
  6
CONTINUOUS
 62
           3
100
AcDbLine
 10
-533.783166034848
 20
682.524332613735
 11
-465.110197015466
 21
682.524332613735
  0
LINE
  5
8D0
100
AcDbEntity
  8
0
  6
CONTINUOUS
 62
           3
100
AcDbLine
 10
-950.009516125215
 20
717.112641293396
 11
-950.009516125215
 21
647.437139211782
  0
LINE
  5
8CF
100
AcDbEntity
  8
0
  6
CONTINUOUS
 62
           7
100
AcDbLine
 10
-938.309516125215
 20
702.789327062292
 11
-961.709516125212
 21
702.789327062291
  0
LINE
  5
8CE
100
AcDbEntity
  8
0
  6
CONTINUOUS
 62
           7
100
AcDbLine
 10
-926.609516125214
 20
682.524332613735
 11
-938.309516125215
 21
702.789327062292
  0
LINE
  5
8CD
100
AcDbEntity
  8
0
  6
CONTINUOUS
 62
           7
100
AcDbLine
 10
-938.309516125217
 20
662.259338165178
 11
-926.609516125214
 21
682.524332613735
  0
LINE
  5
8CC
100
AcDbEntity
  8
0
  6
CONTINUOUS
 62
           7
100
AcDbLine
 10
-961.709516125215
 20
662.25933816518
 11
-938.309516125217
 21
662.259338165178
  0
LINE
  5
8CB
100
AcDbEntity
  8
0
  6
CONTINUOUS
 62
           7
100
AcDbLine
 10
-973.409516125212
 20
682.524332613735
 11
-961.709516125215
 21
662.25933816518
  0
LINE
  5
8CA
100
AcDbEntity
  8
0
  6
CONTINUOUS
 62
           7
100
AcDbLine
 10
-961.709516125212
 20
702.789327062291
 11
-973.409516125212
 21
682.524332613735
  0
LINE
  5
8C9
100
AcDbEntity
  8
0
  6
CONTINUOUS
 62
           3
100
AcDbLine
 10
-983.783166034848
 20
682.524332613735
 11
-915.110197015466
 21
682.524332613735
  0
LINE
  5
8C8
100
AcDbEntity
  8
0
  6
CONTINUOUS
 62
           7
100
AcDbLine
 10
-288.509516125215
 20
-665.225667386263
 11
-318.509516125215
 21
-665.225667386263
  0
LINE
  5
8C7
100
AcDbEntity
  8
0
  6
CONTINUOUS
 62
           7
100
AcDbLine
 10
-288.509516125215
 20
-665.225667386263
 11
-286.259516125215
 21
-635.225667386263
  0
LINE
  5
8C6
100
AcDbEntity
  8
0
  6
CONTINUOUS
 62
           7
100
AcDbLine
 10
-320.759516125215
 20
-635.225667386263
 11
-318.509516125215
 21
-665.225667386263
  0
LINE
  5
8C5
100
AcDbEntity
  8
0
  6
CONTINUOUS
 62
           3
100
AcDbLine
 10
-303.509516125214
 20
-635.225667386263
 11
-303.509516125214
 21
-665.225667386263
  0
LINE
  5
8C4
100
AcDbEntity
  8
0
  6
CONTINUOUS
 62
           7
100
AcDbLine
 10
-979.709516125215
 20
-665.225667386263
 11
-1009.709516125215
 21
-665.225667386263
  0
LINE
  5
8C3
100
AcDbEntity
  8
0
  6
CONTINUOUS
 62
           7
100
AcDbLine
 10
-979.709516125215
 20
-665.225667386263
 11
-977.459516125215
 21
-635.225667386263
  0
LINE
  5
8C2
100
AcDbEntity
  8
0
  6
CONTINUOUS
 62
           7
100
AcDbLine
 10
-1011.959516125215
 20
-635.225667386263
 11
-1009.709516125215
 21
-665.225667386263
  0
LINE
  5
8C1
100
AcDbEntity
  8
0
  6
CONTINUOUS
 62
           3
100
AcDbLine
 10
-994.709516125215
 20
-635.225667386263
 11
-994.709516125215
 21
-665.225667386263
  0
LINE
  5
8C0
100
AcDbEntity
  8
0
  6
CONTINUOUS
 62
           7
100
AcDbLine
 10
380.790483874785
 20
-665.225667386263
 11
350.790483874784
 21
-665.225667386263
  0
LINE
  5
8BF
100
AcDbEntity
  8
0
  6
CONTINUOUS
 62
           7
100
AcDbLine
 10
380.790483874785
 20
-665.225667386263
 11
383.040483874784
 21
-635.225667386263
  0
LINE
  5
8BE
100
AcDbEntity
  8
0
  6
CONTINUOUS
 62
           7
100
AcDbLine
 10
348.540483874784
 20
-635.225667386263
 11
350.790483874784
 21
-665.225667386263
  0
LINE
  5
8BD
100
AcDbEntity
  8
0
  6
CONTINUOUS
 62
           3
100
AcDbLine
 10
365.790483874784
 20
-635.225667386263
 11
365.790483874784
 21
-665.225667386263
  0
LINE
  5
8BC
100
AcDbEntity
  8
0
  6
CONTINUOUS
 62
           7
100
AcDbLine
 10
28.890483874785
 20
-665.225667386263
 11
-1.109516125215
 21
-665.225667386265
  0
LINE
  5
8BB
100
AcDbEntity
  8
0
  6
CONTINUOUS
 62
           7
100
AcDbLine
 10
28.890483874785
 20
-665.225667386263
 11
31.140483874785
 21
-635.225667386263
  0
LINE
  5
8BA
100
AcDbEntity
  8
0
  6
CONTINUOUS
 62
           7
100
AcDbLine
 10
-3.359516125215
 20
-635.225667386263
 11
-1.109516125215
 21
-665.225667386265
  0
LINE
  5
8B9
100
AcDbEntity
  8
0
  6
CONTINUOUS
 62
           3
100
AcDbLine
 10
13.890483874786
 20
-635.225667386263
 11
13.890483874786
 21
-665.225667386263
  0
LINE
  5
8B8
100
AcDbEntity
  8
0
  6
CONTINUOUS
 62
           3
100
AcDbLine
 10
-1247.009513219489
 20
-282.725667386263
 11
-1017.509516125215
 21
-282.725667386263
  0
LINE
  5
8B7
100
AcDbEntity
  8
0
  6
CONTINUOUS
 62
           3
100
AcDbLine
 10
-1113.50946974535
 20
-252.725696443528
 11
-1113.50946974535
 21
-576.966886143187
  0
LINE
  5
8B6
100
AcDbEntity
  8
0
  6
CONTINUOUS
 62
           7
100
AcDbLine
 10
-1049.457850075373
 20
-259.325667386265
 11
-1017.509516125215
 21
-259.325667386265
  0
LINE
  5
8B5
100
AcDbEntity
  8
0
  6
CONTINUOUS
 62
           7
100
AcDbLine
 10
-1049.457850075373
 20
-259.325667386265
 11
-1051.709516125215
 21
-263.225667386265
  0
LINE
  5
8B4
100
AcDbEntity
  8
0
  6
CONTINUOUS
 62
           7
100
AcDbLine
 10
-1051.709516125214
 20
-302.225667386263
 11
-1051.709516125215
 21
-263.225667386265
  0
LINE
  5
8B3
100
AcDbEntity
  8
0
  6
CONTINUOUS
 62
           7
100
AcDbLine
 10
-1051.709516125214
 20
-302.225667386263
 11
-1049.457850075376
 21
-306.125667386263
  0
LINE
  5
8B2
100
AcDbEntity
  8
0
  6
CONTINUOUS
 62
           7
100
AcDbLine
 10
-1049.457850075376
 20
-306.125667386263
 11
-1017.509516125215
 21
-306.125667386263
  0
LINE
  5
8B1
100
AcDbEntity
  8
0
  6
CONTINUOUS
 62
           7
100
AcDbLine
 10
-1049.457850075376
 20
-294.425667386265
 11
-1017.509516125215
 21
-294.425667386265
  0
LINE
  5
8B0
100
AcDbEntity
  8
0
  6
CONTINUOUS
 62
           7
100
AcDbLine
 10
-1049.457850075376
 20
-271.025667386263
 11
-1017.509516125215
 21
-271.025667386263
  0
LINE
  5
8AF
100
AcDbEntity
  8
0
  6
CONTINUOUS
 62
           4
100
AcDbLine
 10
-1073.009573345673
 20
819.77440151298
 11
-1052.009516125215
 21
819.77440151298
  0
LINE
  5
8AE
100
AcDbEntity
  8
0
  6
CONTINUOUS
 62
           4
100
AcDbLine
 10
-1138.421140058954
 20
865.524332166702
 11
-1088.598028313583
 21
865.524332166702
  0
LINE
  5
8AD
100
AcDbEntity
  8
0
  6
CONTINUOUS
 62
           4
100
AcDbLine
 10
-1176.509423030213
 20
850.52433239022
 11
-1176.509423030213
 21
820.524332837255
  0
LINE
  5
8AC
100
AcDbEntity
  8
0
  6
CONTINUOUS
 62
           4
100
AcDbLine
 10
-1176.509594691587
 20
850.52433239022
 11
-1154.009595026862
 21
850.52433239022
  0
LINE
  5
8AB
100
AcDbEntity
  8
0
  6
CONTINUOUS
 62
           4
100
AcDbLine
 10
-1176.509594691587
 20
820.524332837255
 11
-1154.009595026862
 21
820.524332837255
  0
LINE
  5
8AA
100
AcDbEntity
  8
0
  6
CONTINUOUS
 62
           4
100
AcDbLine
 10
-1138.421140058954
 20
805.524333060771
 11
-1088.59811414427
 21
805.524333060771
  0
LINE
  5
8A9
100
AcDbEntity
  8
0
  6
CONTINUOUS
 62
           4
100
AcDbLine
 10
-1215.509599832487
 20
828.024332725496
 11
-1176.509594691587
 21
828.024332725496
  0
LINE
  5
8A8
100
AcDbEntity
  8
0
  6
CONTINUOUS
 62
           4
100
AcDbLine
 10
-1154.009358203821
 20
814.524357657849
 11
-1138.42094088143
 21
805.524380558993
  0
LINE
  5
8A7
100
AcDbEntity
  8
0
  6
CONTINUOUS
 62
           4
100
AcDbLine
 10
-1088.598037342463
 20
865.524403698852
 11
-1073.009570465702
 21
856.524397989765
  0
LINE
  5
8A6
100
AcDbEntity
  8
0
  6
CONTINUOUS
 62
           4
100
AcDbLine
 10
-1154.009233000428
 20
856.524407400801
 11
-1138.420766123666
 21
865.524413109887
  0
LINE
  5
8A5
100
AcDbEntity
  8
0
  6
CONTINUOUS
 62
           4
100
AcDbLine
 10
-1088.597723366595
 20
805.524206057663
 11
-1073.009256489834
 21
814.524211766749
  0
LINE
  5
8A4
100
AcDbEntity
  8
0
  6
CONTINUOUS
 62
           4
100
AcDbLine
 10
-1215.509599832487
 20
843.024332501979
 11
-1176.509594691587
 21
843.024332501979
  0
LINE
  5
8A3
100
AcDbEntity
  8
0
  6
CONTINUOUS
 62
           3
100
AcDbLine
 10
-1247.56309393544
 20
835.524332613737
 11
-1017.509516125215
 21
835.524332613737
  0
LINE
  5
8A2
100
AcDbEntity
  8
0
  6
CONTINUOUS
 62
           4
100
AcDbLine
 10
-1233.509467957212
 20
871.524354965478
 11
-1233.509467957212
 21
799.524310261995
  0
LINE
  5
8A1
100
AcDbEntity
  8
0
  6
CONTINUOUS
 62
           3
100
AcDbLine
 10
-1113.509469745352
 20
910.52433149615
 11
-1113.509469745352
 21
760.524333731324
  0
LINE
  5
8A0
100
AcDbEntity
  8
0
  6
CONTINUOUS
 62
           4
100
AcDbLine
 10
-1215.5095140018
 20
871.524354965478
 11
-1215.5095140018
 21
799.524310261995
  0
LINE
  5
89F
100
AcDbEntity
  8
0
  6
CONTINUOUS
 62
           4
100
AcDbLine
 10
-1073.009516125215
 20
856.524355188996
 11
-1073.009516125215
 21
814.524310038479
  0
LINE
  5
89E
100
AcDbEntity
  8
0
  6
CONTINUOUS
 62
           4
100
AcDbLine
 10
-1154.009423365488
 20
856.524355188996
 11
-1154.009423365488
 21
814.524310038479
  0
LINE
  5
89D
100
AcDbEntity
  8
0
  6
CONTINUOUS
 62
           4
100
AcDbLine
 10
-1073.009573345673
 20
851.274378155411
 11
-1052.009516125215
 21
851.274378155411
  0
POINT
  5
89C
100
AcDbEntity
  8
0
 62
           7
100
AcDbPoint
 10
391.590483874785
 20
131.574332613737
  0
POINT
  5
89B
100
AcDbEntity
  8
0
 62
           7
100
AcDbPoint
 10
369.090483874785
 20
101.574332613737
  0
POINT
  5
89A
100
AcDbEntity
  8
0
 62
           7
100
AcDbPoint
 10
369.090483874785
 20
101.574332613737
  0
POINT
  5
899
100
AcDbEntity
  8
0
 62
           7
100
AcDbPoint
 10
391.590483874785
 20
131.574332613737
  0
POINT
  5
898
100
AcDbEntity
  8
0
 62
           7
100
AcDbPoint
 10
-1017.509516125215
 20
131.574332613735
  0
POINT
  5
897
100
AcDbEntity
  8
0
 62
           7
100
AcDbPoint
 10
-1233.509467957212
 20
-282.725667386263
  0
POINT
  5
896
100
AcDbEntity
  8
0
 62
           7
100
AcDbPoint
 10
30.690483874785
 20
165.474332613737
  0
POINT
  5
895
100
AcDbEntity
  8
0
 62
           7
100
AcDbPoint
 10
-1.109516125215
 20
-665.225667386265
  0
POINT
  5
894
100
AcDbEntity
  8
0
 62
           7
100
AcDbPoint
 10
30.690483874785
 20
165.474332613737
  0
POINT
  5
893
100
AcDbEntity
  8
0
 62
           7
100
AcDbPoint
 10
-11.909516125215
 20
131.574332613737
  0
POINT
  5
892
100
AcDbEntity
  8
0
 62
           7
100
AcDbPoint
 10
-11.909516125215
 20
131.574332613737
  0
POINT
  5
891
100
AcDbEntity
  8
0
 62
           7
100
AcDbPoint
 10
-7.109516125215
 20
-635.225667386265
  0
POINT
  5
890
100
AcDbEntity
  8
0
 62
           7
100
AcDbPoint
 10
-1.109516125215
 20
-665.225667386265
  0
POINT
  5
88F
100
AcDbEntity
  8
0
 62
           7
100
AcDbPoint
 10
-7.109516125215
 20
-635.225667386265
  0
POINT
  5
88E
100
AcDbEntity
  8
0
 62
           7
100
AcDbPoint
 10
391.590483874785
 20
131.574332613737
  0
POINT
  5
88D
100
AcDbEntity
  8
0
 62
           7
100
AcDbPoint
 10
-11.909516125215
 20
131.574332613737
  0
POINT
  5
88C
100
AcDbEntity
  8
0
 62
           7
100
AcDbPoint
 10
391.590483874785
 20
131.574332613737
  0
POINT
  5
88B
100
AcDbEntity
  8
0
 62
           7
100
AcDbPoint
 10
-11.909516125215
 20
131.574332613737
  0
POINT
  5
88A
100
AcDbEntity
  8
0
 62
           7
100
AcDbPoint
 10
-1009.709516125215
 20
-665.225667386263
  0
POINT
  5
889
100
AcDbEntity
  8
0
 62
           7
100
AcDbPoint
 10
-1113.50946974535
 20
-567.72577758035
  0
POINT
  5
888
100
AcDbEntity
  8
0
 62
           7
100
AcDbPoint
 10
-1247.009513219489
 20
-282.725667386263
  0
POINT
  5
887
100
AcDbEntity
  8
0
 62
           7
100
AcDbPoint
 10
-1009.709516125215
 20
-665.225667386263
  0
POINT
  5
886
100
AcDbEntity
  8
0
 62
           7
100
AcDbPoint
 10
-267.509516125214
 20
131.574332613737
  0
POINT
  5
885
100
AcDbEntity
  8
0
 62
           7
100
AcDbPoint
 10
-500.009516125215
 20
142.407780004991
  0
POINT
  5
884
100
AcDbEntity
  8
0
 62
           7
100
AcDbPoint
 10
-950.009516125214
 20
142.407780004991
  0
POINT
  5
883
100
AcDbEntity
  8
0
 62
           7
100
AcDbPoint
 10
-1017.509516125215
 20
131.574332613735
  0
POINT
  5
882
100
AcDbEntity
  8
0
 62
           7
100
AcDbPoint
 10
-500.009516125215
 20
165.474332613735
  0
POINT
  5
881
100
AcDbEntity
  8
0
 62
           7
100
AcDbPoint
 10
-950.009516125214
 20
165.474332613735
  0
INSERT
  5
43
100
AcDbEntity
  8
0
100
AcDbBlockReference
  2
KOZU0017__S__1
 10
477.501272737425
 20
2632.630886202435
 41
1.5
 42
1.5
 43
1.5
  0
INSERT
  5
44
100
AcDbEntity
  8
0
100
AcDbBlockReference
  2
KOZU0001__S
 10
477.501272737425
 20
2632.630886202435
 41
1.5
 42
1.5
 43
1.5
  0
INSERT
  5
45
100
AcDbEntity
  8
0
100
AcDbBlockReference
  2
KOZU0002__S
 10
477.501272737425
 20
2632.630886202435
 41
1.5
 42
1.5
 43
1.5
  0
INSERT
  5
46
100
AcDbEntity
  8
0
100
AcDbBlockReference
  2
KOZU0004__S
 10
477.501272737425
 20
2632.630886202435
 41
1.5
 42
1.5
 43
1.5
  0
INSERT
  5
47
100
AcDbEntity
  8
0
100
AcDbBlockReference
  2
KOZU0011__S
 10
477.501272737425
 20
2632.630886202435
 41
1.5
 42
1.5
 43
1.5
  0
INSERT
  5
48
100
AcDbEntity
  8
0
100
AcDbBlockReference
  2
KOZU0010__S
 10
477.501272737425
 20
2632.630886202435
 41
1.5
 42
1.5
 43
1.5
  0
INSERT
  5
49
100
AcDbEntity
  8
0
100
AcDbBlockReference
  2
KOZU0009__S
 10
477.501272737425
 20
2632.630886202435
 41
1.5
 42
1.5
 43
1.5
  0
INSERT
  5
4A
100
AcDbEntity
  8
0
100
AcDbBlockReference
  2
KOZU0013__S
 10
477.501272737425
 20
2632.630886202435
 41
1.5
 42
1.5
 43
1.5
  0
INSERT
  5
4B
100
AcDbEntity
  8
0
100
AcDbBlockReference
  2
KOZU0003__S
 10
477.501272737425
 20
2632.630886202435
 41
1.5
 42
1.5
 43
1.5
  0
INSERT
  5
4C
100
AcDbEntity
  8
0
100
AcDbBlockReference
  2
KOZU0008__S
 10
477.501272737425
 20
2632.630886202435
 41
1.5
 42
1.5
 43
1.5
  0
INSERT
  5
4D
100
AcDbEntity
  8
0
100
AcDbBlockReference
  2
KOZU0014__S
 10
477.501272737425
 20
2632.630886202435
 41
1.5
 42
1.5
 43
1.5
  0
INSERT
  5
4E
100
AcDbEntity
  8
0
100
AcDbBlockReference
  2
KOZU0020__S
 10
477.501272737425
 20
2632.630886202435
 41
1.5
 42
1.5
 43
1.5
  0
INSERT
  5
4F
100
AcDbEntity
  8
0
100
AcDbBlockReference
  2
KOZU0015__S
 10
477.501272737425
 20
2632.630886202435
 41
1.5
 42
1.5
 43
1.5
  0
INSERT
  5
50
100
AcDbEntity
  8
0
100
AcDbBlockReference
  2
KOZU0017__S__2
 10
477.501272737425
 20
2632.630886202435
 41
1.5
 42
1.5
 43
1.5
  0
ENDSEC
  0
SECTION
  2
OBJECTS
  0
DICTIONARY
  5
19
100
AcDbDictionary
  3
ACAD_GROUP
350
1A
  3
ACAD_MLINESTYLE
350
1B
  0
DICTIONARY
  5
1A
102
{ACAD_REACTORS
330
19
102
}
100
AcDbDictionary
  0
DICTIONARY
  5
1B
102
{ACAD_REACTORS
330
19
102
}
100
AcDbDictionary
  3
STANDARD
350
1C
  0
MLINESTYLE
  5
1C
102
{ACAD_REACTORS
330
1B
102
}
100
AcDbMlineStyle
  2
STANDARD
 70
           0
  3

 62
           0
 51
90.0
 52
90.0
 71
           2
 49
0.5
 62
         256
  6
BYLAYER
 49
-0.5
 62
         256
  6
BYLAYER
  0
ENDSEC
  0
EOF
