  0
SECTION
  2
HEADER
  9
$ACADVER
  1
AC1014
  9
$ACADMAINTVER
 70
           0
  9
$DWGCODEPAGE
  3
DOS932
  9
$INSBASE
 10
0.0
 20
0.0
 30
0.0
  9
$EXTMIN
 10
1.000000000000E+20
 20
1.000000000000E+20
 30
1.000000000000E+20
  9
$EXTMAX
 10
-1.000000000000E+20
 20
-1.000000000000E+20
 30
-1.000000000000E+20
  9
$LIMMIN
 10
0.0
 20
0.0
  9
$LIMMAX
 10
0.0
 20
0.0
  9
$ORTHOMODE
 70
           0
  9
$REGENMODE
 70
           1
  9
$FILLMODE
 70
           1
  9
$QTEXTMODE
 70
           0
  9
$MIRRTEXT
 70
           1
  9
$DRAGMODE
 70
           2
  9
$LTSCALE
 40
1.0
  9
$OSMODE
 70
           0
  9
$ATTMODE
 70
           1
  9
$TEXTSIZE
 40
0.2
  9
$TRACEWID
 40
0.05
  9
$TEXTSTYLE
  7
STANDARD
  9
$CLAYER
  8
0
  9
$CELTYPE
  6
CONTINUOUS
  9
$CECOLOR
 62
         256
  9
$CELTSCALE
 40
1.0
  9
$DELOBJ
 70
           1
  9
$DISPSILH
 70
           0
  9
$DIMSCALE
 40
1.0
  9
$DIMASZ
 40
0.18
  9
$DIMEXO
 40
0.0625
  9
$DIMDLI
 40
0.38
  9
$DIMRND
 40
0.0
  9
$DIMDLE
 40
0.0
  9
$DIMEXE
 40
0.18
  9
$DIMTP
 40
0.0
  9
$DIMTM
 40
0.0
  9
$DIMTXT
 40
0.18
  9
$DIMCEN
 40
0.09
  9
$DIMTSZ
 40
0.0
  9
$DIMTOL
 70
           0
  9
$DIMLIM
 70
           0
  9
$DIMTIH
 70
           1
  9
$DIMTOH
 70
           1
  9
$DIMSE1
 70
           0
  9
$DIMSE2
 70
           0
  9
$DIMTAD
 70
           0
  9
$DIMZIN
 70
           0
  9
$DIMBLK
  1

  9
$DIMASO
 70
           1
  9
$DIMSHO
 70
           1
  9
$DIMPOST
  1

  9
$DIMAPOST
  1

  9
$DIMALT
 70
           0
  9
$DIMALTD
 70
           2
  9
$DIMALTF
 40
25.4
  9
$DIMLFAC
 40
1.0
  9
$DIMTOFL
 70
           0
  9
$DIMTVP
 40
0.0
  9
$DIMTIX
 70
           0
  9
$DIMSOXD
 70
           0
  9
$DIMSAH
 70
           0
  9
$DIMBLK1
  1

  9
$DIMBLK2
  1

  9
$DIMSTYLE
  2
STANDARD
  9
$DIMCLRD
 70
           0
  9
$DIMCLRE
 70
           0
  9
$DIMCLRT
 70
           0
  9
$DIMTFAC
 40
1.0
  9
$DIMGAP
 40
0.09
  9
$DIMJUST
 70
           0
  9
$DIMSD1
 70
           0
  9
$DIMSD2
 70
           0
  9
$DIMTOLJ
 70
           1
  9
$DIMTZIN
 70
           0
  9
$DIMALTZ
 70
           0
  9
$DIMALTTZ
 70
           0
  9
$DIMFIT
 70
           3
  9
$DIMUPT
 70
           0
  9
$DIMUNIT
 70
           2
  9
$DIMDEC
 70
           4
  9
$DIMTDEC
 70
           4
  9
$DIMALTU
 70
           2
  9
$DIMALTTD
 70
           2
  9
$DIMTXSTY
  7
STANDARD
  9
$DIMAUNIT
 70
           0
  9
$LUNITS
 70
           2
  9
$LUPREC
 70
           4
  9
$SKETCHINC
 40
0.1
  9
$FILLETRAD
 40
0.0
  9
$AUNITS
 70
           0
  9
$AUPREC
 70
           0
  9
$MENU
  1
acad
  9
$ELEVATION
 40
0.0
  9
$PELEVATION
 40
0.0
  9
$THICKNESS
 40
0.0
  9
$LIMCHECK
 70
           0
  9
$BLIPMODE
 70
           1
  9
$CHAMFERA
 40
0.0
  9
$CHAMFERB
 40
0.0
  9
$CHAMFERC
 40
0.0
  9
$CHAMFERD
 40
0.0
  9
$SKPOLY
 70
           0
  9
$TDCREATE
 40
0.000000000
  9
$TDUPDATE
 40
0.000000000
  9
$TDINDWG
 40
0.0000000000
  9
$TDUSRTIMER
 40
0.0000000000
  9
$USRTIMER
 70
           1
  9
$ANGBASE
 50
0.0
  9
$ANGDIR
 70
           0
  9
$PDMODE
 70
           0
  9
$PDSIZE
 40
0.0
  9
$PLINEWID
 40
0.0
  9
$COORDS
 70
           0
  9
$SPLFRAME
 70
           0
  9
$SPLINETYPE
 70
           6
  9
$SPLINESEGS
 70
           8
  9
$ATTDIA
 70
           0
  9
$ATTREQ
 70
           1
  9
$HANDLING
 70
           1
  9
$HANDSEED
  5
262
  9
$SURFTAB1
 70
           6
  9
$SURFTAB2
 70
           6
  9
$SURFTYPE
 70
           6
  9
$SURFU
 70
           6
  9
$SURFV
 70
           6
  9
$UCSNAME
  2

  9
$UCSORG
 10
0.0
 20
0.0
 30
0.0
  9
$UCSXDIR
 10
1.0
 20
0.0
 30
0.0
  9
$UCSYDIR
 10
0.0
 20
1.0
 30
0.0
  9
$PUCSNAME
  2

  9
$PUCSORG
 10
0.0
 20
0.0
 30
0.0
  9
$PUCSXDIR
 10
1.0
 20
0.0
 30
0.0
  9
$PUCSYDIR
 10
0.0
 20
1.0
 30
0.0
  9
$USERI1
 70
           0
  9
$USERI2
 70
           0
  9
$USERI3
 70
           0
  9
$USERI4
 70
           0
  9
$USERI5
 70
           0
  9
$USERR1
 40
0.0
  9
$USERR2
 40
0.0
  9
$USERR3
 40
0.0
  9
$USERR4
 40
0.0
  9
$USERR5
 40
0.0
  9
$WORLDVIEW
 70
           1
  9
$SHADEDGE
 70
           3
  9
$SHADEDIF
 70
          70
  9
$TILEMODE
 70
           1
  9
$MAXACTVP
 70
          16
  9
$PINSBASE
 10
0.0
 20
0.0
 30
0.0
  9
$PLIMCHECK
 70
           0
  9
$PEXTMIN
 10
1.000000000000E+20
 20
1.000000000000E+20
 30
1.000000000000E+20
  9
$PEXTMAX
 10
-1.000000000000E+20
 20
-1.000000000000E+20
 30
-1.000000000000E+20
  9
$PLIMMIN
 10
0.0
 20
0.0
  9
$PLIMMAX
 10
12.0
 20
9.0
  9
$UNITMODE
 70
           0
  9
$VISRETAIN
 70
           0
  9
$PLINEGEN
 70
           1
  9
$PSLTSCALE
 70
           0
  9
$TREEDEPTH
 70
        3020
  9
$PICKSTYLE
 70
           1
  9
$CMLSTYLE
  2
STANDARD
  9
$CMLJUST
 70
           0
  9
$CMLSCALE
 40
1.0
  9
$PROXYGRAPHICS
 70
           0
  9
$MEASUREMENT
 70
           0
  0
ENDSEC
  0
SECTION
  2
CLASSES
  0
CLASS
  1
LWPOLYLINE
  2
AcDbPolyline
  3
"AutoCAD"
 90
        0
280
           0
281
           1
  0
CLASS
  1
IMAGE
  2
AcDbRasterImage
  3
ISM
 90
      127
280
           0
281
           1
  0
CLASS
  1
OLE2FRAME
  2
AcDbOle2Frame
  3
""
 90
        0
280
           0
281
           1
  0
CLASS
  1
HATCH
  2
AcDbHatch
  3
"ACAD_SEDONA"
 90
        0
280
           0
281
           1
  0
CLASS
  1
DICTIONARYVAR
  2
AcDbDictionaryVar
  3
"AutoCAD"
 90
        0
280
           0
281
           0
  0
CLASS
  1
RASTERVARIABLES
  2
AcDbRasterVariables
  3
ISM
 90
        0
280
           0
281
           0
  0
CLASS
  1
IMAGEDEF
  2
AcDbRasterImageDef
  3
ISM
 90
        0
280
           0
281
           0
  0
CLASS
  1
IMAGEDEF_REACTOR
  2
AcDbRasterImageDefReactor
  3
ISM
 90
        1
280
           0
281
           0
  0
CLASS
  1
IDBUFFER
  2
AcDbIdBuffer
  3
"Acad"
 90
        0
280
           0
281
           0
  0
CLASS
  1
SPATIAL_FILTER
  2
AcDbSpatialFilter
  3
"Acad"
 90
        0
280
           0
281
           0
  0
CLASS
  1
XRECORD
  2
AcDbXrecord
  3
"<Built In>"
 90
        0
280
           0
281
           0
  0
CLASS
  1
SORTENTSTABLE
  2
AcDbSortentsTable
  3
"AutoCAD"
 90
        0
280
           0
281
           0
  0
CLASS
  1
LAYER_INDEX
  2
AcDbLayerIndex
  3
"Acad"
 90
        0
280
           0
281
           0
  0
CLASS
  1
SPATIAL_INDEX
  2
AcDbSpatialIndex
  3
"Acad"
 90
        0
280
           0
281
           0
  0
CLASS
  1
OBJECT_PTR
  2
CAseDLPNTableRecord
  3
"ASE-LPNTableRecord"
 90
        1
280
           0
281
           0
  0
CLASS
  1
LAYOUT
  2
AcDbLayout
  3
"AutoCAD 2000"
 90
        1
280
           0
281
           0
  0
CLASS
  1
PLOTSETTINGS
  2
AcDbPlotSettings
  3
"AutoCAD 2000"
 90
        1
280
           0
281
           0
  0
CLASS
  1
ACDBDICTIONARYWDFLT
  2
AcDbDictionaryWithDefault
  3
"AutoCAD 2000"
 90
        1
280
           0
281
           0
  0
CLASS
  1
ACDBPLACEHOLDER
  2
AcDbPlaceHolder
  3
"AutoCAD 2000"
 90
        1
280
           0
281
           0
  0
CLASS
  1
VBA_PROJECT
  2
AcDbVbaProject
  3
"acadvba"
 90
        1
280
           0
281
           0
  0
CLASS
  1
WIPEOUT
  2
AcDbWipeout
  3
WipeOut|AutoCAD Express Tool|expresstools@autodesk.com
 90
      127
280
           0
281
           1
  0
CLASS
  1
WIPEOUTVARIABLES
  2
AcDbWipeoutVariables
  3
WipeOut|AutoCAD Express Tool|expresstools@autodesk.com
 90
        0
280
           0
281
           0
  0
CLASS
  1
RTEXT
  2
RText
  3
RText|AutoCAD Express Tool|expresstools@autodesk.com
 90
        0
280
           0
281
           1
  0
CLASS
  1
ARCALIGNEDTEXT
  2
AcDbArcAlignedText
  3
ATEXT|AutoCAD Express Tool|expresstools@autodesk.com
 90
        0
280
           0
281
           1
  0
ENDSEC
  0
SECTION
  2
TABLES
  0
TABLE
  2
VPORT
  5
7
100
AcDbSymbolTable
 70
           1
  0
VPORT
  5
15
100
AcDbSymbolTableRecord
100
AcDbViewportTableRecord
  2
*ACTIVE
 70
           0
 10
0.0
 20
0.0
 11
1.0
 21
1.0
 12
6.591288
 22
4.579184
 13
0.0
 23
0.0
 14
1.0
 24
1.0
 15
0.0
 25
0.0
 16
0.0
 26
0.0
 36
1.0
 17
0.0
 27
0.0
 37
0.0
 40
9.158369
 41
0.688564
 42
50.0
 43
0.0
 44
0.0
 50
0.0
 51
0.0
 71
           0
 72
         100
 73
           1
 74
           1
 75
           0
 76
           0
 77
           0
 78
           0
  0
ENDTAB
  0
TABLE
  2
LTYPE
  5
4
100
AcDbSymbolTable
 70
          10
  0
LTYPE
  5
11
100
AcDbSymbolTableRecord
100
AcDbLinetypeTableRecord
  2
BYBLOCK
 70
          64
  3

 72
          65
 73
           0
 40
0.0
  0
LTYPE
  5
12
100
AcDbSymbolTableRecord
100
AcDbLinetypeTableRecord
  2
BYLAYER
 70
          64
  3

 72
          65
 73
           0
 40
0.0
  0
LTYPE
  5
13
100
AcDbSymbolTableRecord
100
AcDbLinetypeTableRecord
  2
CONTINUOUS
 70
          64
  3
Solid line
 72
          65
 73
           0
 40
0.0
  0
LTYPE
  5
1D
100
AcDbSymbolTableRecord
100
AcDbLinetypeTableRecord
  2
DASHED
 70
          64
  3
Dashed
 72
          65
 73
           2
 40
15.0
 49
12.0
 74
           0
 49
-3.0
 74
           0
  0
LTYPE
  5
1E
100
AcDbSymbolTableRecord
100
AcDbLinetypeTableRecord
  2
DOTTED
 70
          64
  3
Dotted
 72
          65
 73
           2
 40
3.5
 49
0.5
 74
           0
 49
-3.0
 74
           0
  0
LTYPE
  5
1F
100
AcDbSymbolTableRecord
100
AcDbLinetypeTableRecord
  2
DOT_CENTER
 70
          64
  3
Dot_Center
 72
          65
 73
           4
 40
2.0
 49
1.25
 74
           0
 49
-0.25
 74
           0
 49
0.25
 74
           0
 49
-0.25
 74
           0
  0
LTYPE
  5
20
100
AcDbSymbolTableRecord
100
AcDbLinetypeTableRecord
  2
LONG_DASHED
 70
          64
  3
Long_Dashed
 72
          65
 73
           2
 40
2.0
 49
1.5
 74
           0
 49
-0.5
 74
           0
  0
LTYPE
  5
21
100
AcDbSymbolTableRecord
100
AcDbLinetypeTableRecord
  2
DASH_CENTER
 70
          64
  3
Dash_Center
 72
          65
 73
           4
 40
36.0
 49
24.0
 74
           0
 49
-3.0
 74
           0
 49
6.0
 74
           0
 49
-3.0
 74
           0
  0
LTYPE
  5
22
100
AcDbSymbolTableRecord
100
AcDbLinetypeTableRecord
  2
PHANTOM
 70
          64
  3
Phantom
 72
          65
 73
           6
 40
2.5
 49
1.25
 74
           0
 49
-0.25
 74
           0
 49
0.25
 74
           0
 49
-0.25
 74
           0
 49
0.25
 74
           0
 49
-0.25
 74
           0
  0
LTYPE
  5
23
100
AcDbSymbolTableRecord
100
AcDbLinetypeTableRecord
  2
CENTER_DASH_DASH
 70
          64
  3
Center_Dash_Dash
 72
          65
 73
           6
 40
22.0
 49
12.0
 74
           0
 49
-3.0
 74
           0
 49
0.5
 74
           0
 49
-3.0
 74
           0
 49
0.5
 74
           0
 49
-3.0
 74
           0
  0
ENDTAB
  0
TABLE
  2
LAYER
  5
2
100
AcDbSymbolTable
 70
           6
  0
LAYER
  5
14
100
AcDbSymbolTableRecord
100
AcDbLayerTableRecord
  2
0
 70
           0
 62
           7
  6
CONTINUOUS
  0
LAYER
  5
24
100
AcDbSymbolTableRecord
100
AcDbLayerTableRecord
  2
AM_0
 70
           0
 62
           7
  6
CONTINUOUS
  0
LAYER
  5
25
100
AcDbSymbolTableRecord
100
AcDbLayerTableRecord
  2
AM_5
 70
           0
 62
           7
  6
CONTINUOUS
  0
LAYER
  5
26
100
AcDbSymbolTableRecord
100
AcDbLayerTableRecord
  2
AM_7
 70
           0
 62
           7
  6
CONTINUOUS
  0
LAYER
  5
27
100
AcDbSymbolTableRecord
100
AcDbLayerTableRecord
  2
976
 70
           0
 62
           7
  6
CONTINUOUS
  0
LAYER
  5
28
100
AcDbSymbolTableRecord
100
AcDbLayerTableRecord
  2
1
 70
           0
 62
           7
  6
CONTINUOUS
  0
ENDTAB
  0
TABLE
  2
STYLE
  5
3
100
AcDbSymbolTable
 70
           1
  0
STYLE
  5
17
100
AcDbSymbolTableRecord
100
AcDbTextStyleTableRecord
  2
STANDARD
 70
           0
 40
0.0
 41
1.0
 50
0.0
 71
           0
 42
0.0
  3
txt
  4

  0
ENDTAB
  0
TABLE
  2
VIEW
  5
5
100
AcDbSymbolTable
 70
           0
  0
ENDTAB
  0
TABLE
  2
UCS
  5
6
100
AcDbSymbolTable
 70
           0
  0
ENDTAB
  0
TABLE
  2
APPID
  5
8
100
AcDbSymbolTable
 70
           1
  0
APPID
  5
16
100
AcDbSymbolTableRecord
100
AcDbRegAppTableRecord
  2
ACAD
 70
           0
  0
ENDTAB
  0
TABLE
  2
DIMSTYLE
  5
9
100
AcDbSymbolTable
 70
           1
  0
DIMSTYLE
105
18
100
AcDbSymbolTableRecord
100
AcDbDimStyleTableRecord
  2
STANDARD
 70
           0
  3

  4

  5

  6

  7

 40
1.0
 41
0.18
 42
0.0625
 43
0.38
 44
0.18
 45
0.0
 46
0.0
 47
0.0
 48
0.0
 71
           0
 72
           0
 73
           1
 74
           1
 75
           0
 76
           0
 77
           0
 78
           0
140
0.18
141
0.09
142
0.0
143
25.4
144
1.0
145
0.0
146
1.0
147
0.09
170
           0
171
           2
172
           0
173
           0
174
           0
175
           0
176
           0
177
           0
178
           0
270
           2
271
           4
272
           4
273
           2
274
           2
275
           0
280
           0
281
           0
282
           0
283
           1
284
           0
285
           0
286
           0
287
           0
288
           0
340
17
  0
ENDTAB
  0
TABLE
  2
BLOCK_RECORD
  5
1
100
AcDbSymbolTable
 70
           3
  0
BLOCK_RECORD
  5
A
100
AcDbSymbolTableRecord
100
AcDbBlockTableRecord
  2
*MODEL_SPACE
  0
BLOCK_RECORD
  5
B
100
AcDbSymbolTableRecord
100
AcDbBlockTableRecord
  2
*PAPER_SPACE
  0
BLOCK_RECORD
  5
29
100
AcDbSymbolTableRecord
100
AcDbBlockTableRecord
  2
3_AFM40_02C_2_A_0
  0
BLOCK_RECORD
  5
2B
100
AcDbSymbolTableRecord
100
AcDbBlockTableRecord
  2
1_AFM40_02C_2_A_0
  0
BLOCK_RECORD
  5
2E
100
AcDbSymbolTableRecord
100
AcDbBlockTableRecord
  2
AMF500B_10DDATA
  0
ENDTAB
  0
ENDSEC
  0
SECTION
  2
BLOCKS
  0
BLOCK
  5
D
100
AcDbEntity
  8
0
100
AcDbBlockBegin
  2
*MODEL_SPACE
 70
           0
 10
0.0
 20
0.0
 30
0.0
  3
*MODEL_SPACE
  1

  0
ENDBLK
  5
E
100
AcDbEntity
  8
0
100
AcDbBlockEnd
  0
BLOCK
  5
F
100
AcDbEntity
 67
           1
  8
0
100
AcDbBlockBegin
  2
*PAPER_SPACE
 70
           0
 10
0.0
 20
0.0
 30
0.0
  3
*PAPER_SPACE
  1

  0
ENDBLK
  5
10
100
AcDbEntity
 67
           1
  8
0
100
AcDbBlockEnd
  0
BLOCK
  5
2A
100
AcDbEntity
  8
0
100
AcDbBlockBegin
  2
3_AFM40_02C_2_A_0
 70
           0
 10
0.0
 20
0.0
 30
0.0
  3
3_AFM40_02C_2_A_0
  1

  0
LEADER
  5
1D8
100
AcDbEntity
  8
976
  6
CONTINUOUS
 62
           2
100
AcDbLeader
  3
Standard
 71
           0
 73
           3
 74
           0
 75
           0
 40
0.0
 76
           2
 10
-537.676535876274
 20
245.740380755211
 30
0.0
 10
-551.975165961742
 20
245.740380755211
 30
0.0
 77
           2
  0
LEADER
  5
1D6
100
AcDbEntity
  8
976
  6
CONTINUOUS
 62
           2
100
AcDbLeader
  3
Standard
 71
           0
 73
           3
 74
           0
 75
           0
 40
0.0
 76
           2
 10
-631.339121940716
 20
245.609200662683
 30
0.0
 10
-644.457131193439
 20
245.609200662683
 30
0.0
 77
           2
  0
CIRCLE
  5
1D4
100
AcDbEntity
  8
AM_0
  6
CONTINUOUS
 62
           7
100
AcDbCircle
 10
-615.819579801661
 20
416.018161861822
 40
2.067
  0
CIRCLE
  5
1D3
100
AcDbEntity
  8
AM_0
  6
CONTINUOUS
 62
           7
100
AcDbCircle
 10
-568.819579801661
 20
416.018161861822
 40
2.067
  0
CIRCLE
  5
1D2
100
AcDbEntity
  8
AM_0
  6
CONTINUOUS
 62
           7
100
AcDbCircle
 10
-568.819579801661
 20
356.018161861822
 40
2.067
  0
CIRCLE
  5
1D1
100
AcDbEntity
  8
AM_0
  6
CONTINUOUS
 62
           7
100
AcDbCircle
 10
-615.819579801661
 20
356.018161861822
 40
2.067
  0
CIRCLE
  5
1D0
100
AcDbEntity
  8
AM_5
  6
CONTINUOUS
 62
           3
100
AcDbCircle
 10
-568.819579801661
 20
356.018161861822
 40
2.5
  0
CIRCLE
  5
1CF
100
AcDbEntity
  8
AM_5
  6
CONTINUOUS
 62
           3
100
AcDbCircle
 10
-615.819579801661
 20
356.018161861822
 40
2.5
  0
CIRCLE
  5
1CE
100
AcDbEntity
  8
AM_0
  6
CONTINUOUS
 62
           7
100
AcDbCircle
 10
-431.529578123194
 20
242.228160183355
 40
5.7225
  0
CIRCLE
  5
1CD
100
AcDbEntity
  8
AM_5
  6
CONTINUOUS
 62
           3
100
AcDbCircle
 10
-431.529578123194
 20
242.228160183355
 40
6.5785
  0
CIRCLE
  5
1CC
100
AcDbEntity
  8
AM_0
  6
CONTINUOUS
 62
           7
100
AcDbCircle
 10
-753.109581480128
 20
242.228160183355
 40
5.7225
  0
CIRCLE
  5
1CB
100
AcDbEntity
  8
AM_5
  6
CONTINUOUS
 62
           3
100
AcDbCircle
 10
-753.109581480128
 20
242.228160183355
 40
6.5785
  0
ARC
  5
1CA
100
AcDbEntity
  8
AM_0
  6
CONTINUOUS
 62
           7
100
AcDbCircle
 10
-592.319579801661
 20
386.018161861822
 40
38.4
100
AcDbArc
 50
-102.611754908338
 51
-77.388245091662
  0
ARC
  5
1C9
100
AcDbEntity
  8
AM_0
  6
CONTINUOUS
 62
           7
100
AcDbCircle
 10
-569.91265259708
 20
415.518161861822
 40
6.000000000001
100
AcDbArc
 50
14.999999999997
 51
90.0
  0
ARC
  5
1C8
100
AcDbEntity
  8
AM_0
  6
CONTINUOUS
 62
           7
100
AcDbCircle
 10
-614.726507006242
 20
415.518161861822
 40
6.0
100
AcDbArc
 50
90.0
 51
165.000000000001
  0
ARC
  5
1C7
100
AcDbEntity
  8
AM_0
  6
CONTINUOUS
 62
           7
100
AcDbCircle
 10
-614.726507006242
 20
356.518161861822
 40
6.0
100
AcDbArc
 50
-164.999999999991
 51
-90.0
  0
ARC
  5
1C6
100
AcDbEntity
  8
AM_0
  6
CONTINUOUS
 62
           7
100
AcDbCircle
 10
-569.91265259708
 20
356.518161861822
 40
6.0
100
AcDbArc
 50
-90.0
 51
-14.999999999997
  0
ARC
  5
1C5
100
AcDbEntity
  8
AM_0
  6
CONTINUOUS
 62
           7
100
AcDbCircle
 10
-592.319579801661
 20
386.018161861822
 40
27.0
100
AcDbArc
 50
42.343413804063
 51
137.656586195937
  0
ARC
  5
1C4
100
AcDbEntity
  8
AM_0
  6
CONTINUOUS
 62
           7
100
AcDbCircle
 10
-592.319579801661
 20
386.018161861822
 40
27.0
100
AcDbArc
 50
-137.656586195935
 51
-42.343413804065
  0
ARC
  5
1C3
100
AcDbEntity
  8
AM_5
  6
CONTINUOUS
 62
           3
100
AcDbCircle
 10
-568.819579801661
 20
416.018161861822
 40
2.499999999999
100
AcDbArc
 50
75.000000000001
 51
14.999999999996
  0
ARC
  5
1C2
100
AcDbEntity
  8
AM_5
  6
CONTINUOUS
 62
           3
100
AcDbCircle
 10
-615.819579801661
 20
416.018161861822
 40
2.499999999999
100
AcDbArc
 50
74.999999999996
 51
14.999999999993
  0
ARC
  5
1C1
100
AcDbEntity
  8
AM_5
  6
CONTINUOUS
 62
           3
100
AcDbCircle
 10
-568.819579801661
 20
416.018161861822
 40
2.499999999999
100
AcDbArc
 50
14.999999999996
 51
-75.000000000006
  0
ARC
  5
1C0
100
AcDbEntity
  8
AM_5
  6
CONTINUOUS
 62
           3
100
AcDbCircle
 10
-615.819579801661
 20
416.018161861822
 40
2.5
100
AcDbArc
 50
14.999999999993
 51
-75.000000000001
  0
ARC
  5
1BF
100
AcDbEntity
  8
AM_0
  6
CONTINUOUS
 62
           7
100
AcDbCircle
 10
-450.129578123194
 20
101.322467297367
 40
10.2
100
AcDbArc
 50
180.0
 51
-105.000000000002
  0
ARC
  5
1BE
100
AcDbEntity
  8
AM_0
  6
CONTINUOUS
 62
           7
100
AcDbCircle
 10
-412.929578123194
 20
101.322467297367
 40
10.199999999999
100
AcDbArc
 50
-75.000000000003
 51
0.0
  0
ARC
  5
1BD
100
AcDbEntity
  8
AM_0
  6
CONTINUOUS
 62
           7
100
AcDbCircle
 10
-610.919579801661
 20
101.322467297367
 40
10.2
100
AcDbArc
 50
180.0
 51
-105.0
  0
ARC
  5
1BC
100
AcDbEntity
  8
AM_0
  6
CONTINUOUS
 62
           7
100
AcDbCircle
 10
-573.719579801661
 20
101.322467297367
 40
10.2
100
AcDbArc
 50
-74.999999999997
 51
0.0
  0
ARC
  5
1BB
100
AcDbEntity
  8
AM_0
  6
CONTINUOUS
 62
           7
100
AcDbCircle
 10
-771.709581480128
 20
101.322467297367
 40
10.2
100
AcDbArc
 50
180.0
 51
-105.0
  0
ARC
  5
1BA
100
AcDbEntity
  8
AM_0
  6
CONTINUOUS
 62
           7
100
AcDbCircle
 10
-734.509581480128
 20
101.322467297367
 40
10.199999999999
100
AcDbArc
 50
-74.999999999999
 51
0.0
  0
LINE
  5
1B9
100
AcDbEntity
  8
1
  6
DOT_CENTER
 62
           3
100
AcDbLine
 10
-628.826649789137
 20
242.228160183355
 11
-555.446601442253
 21
242.228160183355
  0
LINE
  5
1B8
100
AcDbEntity
  8
AM_7
  6
DOT_CENTER
 62
           3
100
AcDbLine
 10
-592.319579801661
 20
355.778161861822
 11
-592.319579801661
 21
416.258161861822
  0
LINE
  5
1B7
100
AcDbEntity
  8
AM_7
  6
CONTINUOUS
 62
           4
100
AcDbLine
 10
-571.444579801661
 20
416.018161861822
 11
-566.194579801661
 21
416.018161861822
  0
LINE
  5
1B6
100
AcDbEntity
  8
AM_7
  6
CONTINUOUS
 62
           4
100
AcDbLine
 10
-568.819579801661
 20
413.393161861822
 11
-568.819579801661
 21
418.643161861822
  0
LINE
  5
1B5
100
AcDbEntity
  8
AM_7
  6
CONTINUOUS
 62
           4
100
AcDbLine
 10
-618.444579801661
 20
416.018161861822
 11
-613.194579801661
 21
416.018161861822
  0
LINE
  5
1B4
100
AcDbEntity
  8
AM_7
  6
CONTINUOUS
 62
           4
100
AcDbLine
 10
-615.819579801661
 20
413.393161861822
 11
-615.819579801661
 21
418.643161861822
  0
LINE
  5
1B3
100
AcDbEntity
  8
AM_7
  6
CONTINUOUS
 62
           4
100
AcDbLine
 10
-571.444579801661
 20
356.018161861822
 11
-566.194579801661
 21
356.018161861822
  0
LINE
  5
1B2
100
AcDbEntity
  8
AM_7
  6
CONTINUOUS
 62
           4
100
AcDbLine
 10
-568.819579801661
 20
353.393161861822
 11
-568.819579801661
 21
358.643161861822
  0
LINE
  5
1B1
100
AcDbEntity
  8
AM_7
  6
CONTINUOUS
 62
           4
100
AcDbLine
 10
-618.444579801661
 20
356.018161861822
 11
-613.194579801661
 21
356.018161861822
  0
LINE
  5
1B0
100
AcDbEntity
  8
AM_7
  6
CONTINUOUS
 62
           4
100
AcDbLine
 10
-615.819579801661
 20
353.393161861822
 11
-615.819579801661
 21
358.643161861822
  0
LINE
  5
1AF
100
AcDbEntity
  8
AM_7
  6
DOT_CENTER
 62
           3
100
AcDbLine
 10
-628.054774147433
 20
386.018161861822
 11
-556.584385455889
 21
386.018161861822
  0
LINE
  5
1AE
100
AcDbEntity
  8
AM_0
  6
CONTINUOUS
 62
           7
100
AcDbLine
 10
-600.703968577194
 20
348.54467757145
 11
-601.05194710359
 21
350.518161861822
  0
LINE
  5
1AD
100
AcDbEntity
  8
AM_0
  6
CONTINUOUS
 62
           7
100
AcDbLine
 10
-583.587212499732
 20
350.518161861822
 11
-583.935191026128
 21
348.54467757145
  0
LINE
  5
1AC
100
AcDbEntity
  8
AM_0
  6
CONTINUOUS
 62
           7
100
AcDbLine
 10
-620.522061963977
 20
417.071076132437
 11
-624.019579801661
 21
404.018161861822
  0
LINE
  5
1AB
100
AcDbEntity
  8
AM_0
  6
CONTINUOUS
 62
           7
100
AcDbLine
 10
-560.619579801661
 20
404.018161861822
 11
-564.117097639345
 21
417.071076132437
  0
LINE
  5
1AA
100
AcDbEntity
  8
AM_0
  6
CONTINUOUS
 62
           7
100
AcDbLine
 10
-569.91265259708
 20
421.518161861822
 11
-614.726507006242
 21
421.518161861822
  0
LINE
  5
1A9
100
AcDbEntity
  8
AM_0
  6
CONTINUOUS
 62
           7
100
AcDbLine
 10
-564.117097639345
 20
354.965247591207
 11
-560.619579801661
 21
368.018161861822
  0
LINE
  5
1A8
100
AcDbEntity
  8
AM_0
  6
CONTINUOUS
 62
           7
100
AcDbLine
 10
-624.019579801661
 20
368.018161861822
 11
-620.522061963977
 21
354.965247591206
  0
LINE
  5
1A7
100
AcDbEntity
  8
AM_0
  6
CONTINUOUS
 62
           7
100
AcDbLine
 10
-614.726507006242
 20
350.518161861822
 11
-569.91265259708
 21
350.518161861822
  0
LINE
  5
1A6
100
AcDbEntity
  8
AM_0
  6
CONTINUOUS
 62
           7
100
AcDbLine
 10
-612.27584496084
 20
404.204626083779
 11
-613.219579801661
 21
400.518161861822
  0
LINE
  5
1A5
100
AcDbEntity
  8
AM_0
  6
CONTINUOUS
 62
           7
100
AcDbLine
 10
-571.419579801661
 20
400.518161861822
 11
-572.363314642482
 21
404.204626083779
  0
LINE
  5
1A4
100
AcDbEntity
  8
AM_0
  6
CONTINUOUS
 62
           7
100
AcDbLine
 10
-613.219579801661
 20
371.518161861822
 11
-612.27584496084
 21
367.831697639864
  0
LINE
  5
1A3
100
AcDbEntity
  8
AM_0
  6
CONTINUOUS
 62
           7
100
AcDbLine
 10
-572.363314642482
 20
367.831697639864
 11
-571.419579801661
 21
371.518161861822
  0
LINE
  5
1A2
100
AcDbEntity
  8
AM_0
  6
CONTINUOUS
 62
           7
100
AcDbLine
 10
-614.319579801661
 20
386.018161861822
 11
-619.819579801661
 21
389.193588342365
  0
LINE
  5
1A1
100
AcDbEntity
  8
AM_0
  6
CONTINUOUS
 62
           7
100
AcDbLine
 10
-619.819579801661
 20
389.193588342365
 11
-619.819579801661
 21
387.318161861822
  0
LINE
  5
1A0
100
AcDbEntity
  8
AM_0
  6
CONTINUOUS
 62
           7
100
AcDbLine
 10
-623.319579801661
 20
387.318161861822
 11
-623.319579801661
 21
384.718161861822
  0
LINE
  5
19F
100
AcDbEntity
  8
AM_0
  6
CONTINUOUS
 62
           7
100
AcDbLine
 10
-623.319579801661
 20
384.718161861822
 11
-619.819579801661
 21
384.718161861822
  0
LINE
  5
19E
100
AcDbEntity
  8
AM_0
  6
CONTINUOUS
 62
           7
100
AcDbLine
 10
-619.819579801661
 20
384.718161861822
 11
-619.819579801661
 21
382.842735381279
  0
LINE
  5
19D
100
AcDbEntity
  8
AM_0
  6
CONTINUOUS
 62
           7
100
AcDbLine
 10
-619.819579801661
 20
382.842735381279
 11
-614.319579801661
 21
386.018161861822
  0
LINE
  5
19C
100
AcDbEntity
  8
AM_0
  6
CONTINUOUS
 62
           7
100
AcDbLine
 10
-619.819579801661
 20
387.318161861822
 11
-623.319579801661
 21
387.318161861822
  0
LINE
  5
19B
100
AcDbEntity
  8
AM_0
  6
CONTINUOUS
 62
           7
100
AcDbLine
 10
-624.019579801661
 20
368.018161861822
 11
-621.998853859497
 21
371.518161861822
  0
LINE
  5
19A
100
AcDbEntity
  8
AM_0
  6
CONTINUOUS
 62
           7
100
AcDbLine
 10
-621.998853859497
 20
371.518161861822
 11
-562.640305743825
 21
371.518161861822
  0
LINE
  5
199
100
AcDbEntity
  8
AM_0
  6
CONTINUOUS
 62
           7
100
AcDbLine
 10
-562.640305743825
 20
371.518161861822
 11
-560.619579801661
 21
368.018161861822
  0
LINE
  5
198
100
AcDbEntity
  8
AM_0
  6
CONTINUOUS
 62
           7
100
AcDbLine
 10
-557.319579801661
 20
368.018161861822
 11
-560.619579801661
 21
368.018161861822
  0
LINE
  5
197
100
AcDbEntity
  8
AM_0
  6
CONTINUOUS
 62
           7
100
AcDbLine
 10
-557.319579801661
 20
373.518161861822
 11
-627.319579801661
 21
373.518161861822
  0
LINE
  5
196
100
AcDbEntity
  8
AM_0
  6
CONTINUOUS
 62
           7
100
AcDbLine
 10
-627.319579801661
 20
368.018161861822
 11
-627.319579801661
 21
404.018161861822
  0
LINE
  5
195
100
AcDbEntity
  8
AM_0
  6
CONTINUOUS
 62
           7
100
AcDbLine
 10
-624.019579801661
 20
368.018161861822
 11
-627.319579801661
 21
368.018161861822
  0
LINE
  5
194
100
AcDbEntity
  8
AM_0
  6
CONTINUOUS
 62
           7
100
AcDbLine
 10
-560.619579801661
 20
404.018161861822
 11
-562.640305743825
 21
400.518161861822
  0
LINE
  5
193
100
AcDbEntity
  8
AM_0
  6
CONTINUOUS
 62
           7
100
AcDbLine
 10
-562.640305743825
 20
400.518161861822
 11
-621.998853859497
 21
400.518161861822
  0
LINE
  5
192
100
AcDbEntity
  8
AM_0
  6
CONTINUOUS
 62
           7
100
AcDbLine
 10
-621.998853859497
 20
400.518161861822
 11
-624.019579801661
 21
404.018161861822
  0
LINE
  5
191
100
AcDbEntity
  8
AM_0
  6
CONTINUOUS
 62
           7
100
AcDbLine
 10
-624.019579801661
 20
404.018161861822
 11
-627.319579801661
 21
404.018161861822
  0
LINE
  5
190
100
AcDbEntity
  8
AM_0
  6
CONTINUOUS
 62
           7
100
AcDbLine
 10
-557.319579801661
 20
398.518161861822
 11
-627.319579801661
 21
398.518161861822
  0
LINE
  5
18F
100
AcDbEntity
  8
AM_0
  6
CONTINUOUS
 62
           7
100
AcDbLine
 10
-557.319579801661
 20
368.018161861822
 11
-557.319579801661
 21
404.018161861822
  0
LINE
  5
18E
100
AcDbEntity
  8
AM_0
  6
CONTINUOUS
 62
           7
100
AcDbLine
 10
-557.319579801661
 20
404.018161861822
 11
-560.619579801661
 21
404.018161861822
  0
LINE
  5
18D
100
AcDbEntity
  8
AM_7
  6
DOT_CENTER
 62
           3
100
AcDbLine
 10
-438.437003123194
 20
242.228160183355
 11
-424.622153123194
 21
242.228160183355
  0
LINE
  5
18C
100
AcDbEntity
  8
AM_7
  6
DOT_CENTER
 62
           3
100
AcDbLine
 10
-431.529578123194
 20
39.262987034932
 11
-431.529578123194
 21
270.98397455421
  0
LINE
  5
18B
100
AcDbEntity
  8
AM_0
  6
CONTINUOUS
 62
           7
100
AcDbLine
 10
-437.079578123194
 20
56.928160183355
 11
-437.079578123194
 21
54.828160183355
  0
LINE
  5
18A
100
AcDbEntity
  8
AM_0
  6
CONTINUOUS
 62
           7
100
AcDbLine
 10
-425.979578123194
 20
54.828160183355
 11
-425.979578123194
 21
56.928160183355
  0
LINE
  5
189
100
AcDbEntity
  8
AM_0
  6
CONTINUOUS
 62
           7
100
AcDbLine
 10
-423.279578123194
 20
54.828160183355
 11
-439.779578123194
 21
54.828160183355
  0
LINE
  5
188
100
AcDbEntity
  8
AM_0
  6
CONTINUOUS
 62
           7
100
AcDbLine
 10
-423.279578123194
 20
53.328160183355
 11
-439.779578123194
 21
53.328160183355
  0
LINE
  5
187
100
AcDbEntity
  8
AM_0
  6
CONTINUOUS
 62
           7
100
AcDbLine
 10
-439.779578123194
 20
54.828160183355
 11
-439.779578123194
 21
53.328160183355
  0
LINE
  5
186
100
AcDbEntity
  8
AM_0
  6
CONTINUOUS
 62
           7
100
AcDbLine
 10
-423.279578123194
 20
53.328160183355
 11
-423.279578123194
 21
54.828160183355
  0
LINE
  5
185
100
AcDbEntity
  8
AM_0
  6
CONTINUOUS
 62
           7
100
AcDbLine
 10
-421.529578123194
 20
56.928160183355
 11
-441.529578123194
 21
56.928160183355
  0
LINE
  5
184
100
AcDbEntity
  8
AM_0
  6
CONTINUOUS
 62
           7
100
AcDbLine
 10
-441.529578123194
 20
77.928160183355
 11
-441.529578123194
 21
56.928160183355
  0
LINE
  5
183
100
AcDbEntity
  8
AM_0
  6
CONTINUOUS
 62
           7
100
AcDbLine
 10
-421.529578123194
 20
56.928160183355
 11
-421.529578123194
 21
77.928160183355
  0
LINE
  5
182
100
AcDbEntity
  8
AM_0
  6
CONTINUOUS
 62
           7
100
AcDbLine
 10
-443.429578123194
 20
86.128160183355
 11
-443.529578123194
 21
86.070425156436
  0
LINE
  5
181
100
AcDbEntity
  8
AM_0
  6
CONTINUOUS
 62
           7
100
AcDbLine
 10
-419.529578123194
 20
86.070425156436
 11
-419.629578123194
 21
86.128160183355
  0
LINE
  5
180
100
AcDbEntity
  8
AM_0
  6
CONTINUOUS
 62
           7
100
AcDbLine
 10
-421.529578123194
 20
77.928160183355
 11
-441.529578123194
 21
77.928160183355
  0
LINE
  5
17F
100
AcDbEntity
  8
AM_0
  6
CONTINUOUS
 62
           7
100
AcDbLine
 10
-419.529578123194
 20
86.070425156436
 11
-419.529578123194
 21
79.082860725976
  0
LINE
  5
17E
100
AcDbEntity
  8
AM_0
  6
CONTINUOUS
 62
           7
100
AcDbLine
 10
-421.529578123194
 20
77.928160183355
 11
-419.529578123194
 21
79.082860725976
  0
LINE
  5
17D
100
AcDbEntity
  8
AM_0
  6
CONTINUOUS
 62
           7
100
AcDbLine
 10
-443.529578123194
 20
79.082860721734
 11
-441.529578123194
 21
77.928160183355
  0
LINE
  5
17C
100
AcDbEntity
  8
AM_0
  6
CONTINUOUS
 62
           7
100
AcDbLine
 10
-443.529578123194
 20
79.082860721734
 11
-443.529578123194
 21
86.070425156436
  0
LINE
  5
17B
100
AcDbEntity
  8
AM_0
  6
CONTINUOUS
 62
           7
100
AcDbLine
 10
-436.500140871671
 20
79.653690629949
 11
-436.500140871671
 21
85.499595248221
  0
LINE
  5
17A
100
AcDbEntity
  8
AM_0
  6
CONTINUOUS
 62
           7
100
AcDbLine
 10
-426.559015374717
 20
79.653690629949
 11
-426.559015374717
 21
85.499595248221
  0
LINE
  5
179
100
AcDbEntity
  8
AM_0
  6
CONTINUOUS
 62
           7
100
AcDbLine
 10
-465.329578123194
 20
176.178160183355
 11
-465.329578123194
 21
183.678160183355
  0
LINE
  5
178
100
AcDbEntity
  8
AM_0
  6
CONTINUOUS
 62
           7
100
AcDbLine
 10
-459.799526832027
 20
176.178160183355
 11
-465.329578123194
 21
176.178160183355
  0
LINE
  5
177
100
AcDbEntity
  8
AM_0
  6
CONTINUOUS
 62
           7
100
AcDbLine
 10
-466.929578123194
 20
182.428160183355
 11
-469.929578123194
 21
182.428160183355
  0
LINE
  5
176
100
AcDbEntity
  8
AM_0
  6
CONTINUOUS
 62
           7
100
AcDbLine
 10
-469.929578123194
 20
182.428160183355
 11
-469.929578123194
 21
181.028160183355
  0
LINE
  5
175
100
AcDbEntity
  8
AM_0
  6
CONTINUOUS
 62
           7
100
AcDbLine
 10
-458.984085949779
 20
183.678160183355
 11
-465.529578123194
 21
183.678160183355
  0
LINE
  5
174
100
AcDbEntity
  8
AM_0
  6
CONTINUOUS
 62
           7
100
AcDbLine
 10
-458.984085949779
 20
196.688160183355
 11
-465.529578123194
 21
196.688160183355
  0
LINE
  5
173
100
AcDbEntity
  8
AM_0
  6
CONTINUOUS
 62
           7
100
AcDbLine
 10
-465.529578123194
 20
181.028160183355
 11
-465.529578123194
 21
200.928160183355
  0
LINE
  5
172
100
AcDbEntity
  8
AM_0
  6
CONTINUOUS
 62
           7
100
AcDbLine
 10
-469.003062413566
 20
181.028160183355
 11
-469.003062413566
 21
182.428160183355
  0
LINE
  5
171
100
AcDbEntity
  8
AM_0
  6
CONTINUOUS
 62
           7
100
AcDbLine
 10
-466.929578123194
 20
199.063096673894
 11
-465.529578123194
 21
199.063096673894
  0
LINE
  5
170
100
AcDbEntity
  8
AM_0
  6
CONTINUOUS
 62
           7
100
AcDbLine
 10
-466.929578123194
 20
181.028160183355
 11
-466.929578123194
 21
200.928160183355
  0
LINE
  5
16F
100
AcDbEntity
  8
AM_0
  6
CONTINUOUS
 62
           7
100
AcDbLine
 10
-465.529578123194
 20
181.028160183355
 11
-469.929578123194
 21
181.028160183355
  0
LINE
  5
16E
100
AcDbEntity
  8
AM_0
  6
CONTINUOUS
 62
           7
100
AcDbLine
 10
-419.029578123194
 20
86.128160183355
 11
-444.029578123194
 21
86.128160183355
  0
LINE
  5
16D
100
AcDbEntity
  8
AM_0
  6
CONTINUOUS
 62
           7
100
AcDbLine
 10
-444.029578123194
 20
89.128160183355
 11
-444.029578123194
 21
86.128160183355
  0
LINE
  5
16C
100
AcDbEntity
  8
AM_0
  6
CONTINUOUS
 62
           7
100
AcDbLine
 10
-419.029578123194
 20
86.128160183355
 11
-419.029578123194
 21
89.128160183355
  0
LINE
  5
16B
100
AcDbEntity
  8
AM_0
  6
CONTINUOUS
 62
           7
100
AcDbLine
 10
-419.029578123194
 20
89.128160183355
 11
-444.029578123194
 21
89.128160183355
  0
LINE
  5
16A
100
AcDbEntity
  8
AM_0
  6
CONTINUOUS
 62
           7
100
AcDbLine
 10
-419.029578123194
 20
89.128160183355
 11
-410.289623863149
 21
91.470023869219
  0
LINE
  5
169
100
AcDbEntity
  8
AM_0
  6
CONTINUOUS
 62
           7
100
AcDbLine
 10
-452.76953238324
 20
91.470023869219
 11
-444.029578123194
 21
89.128160183355
  0
LINE
  5
168
100
AcDbEntity
  8
AM_0
  6
CONTINUOUS
 62
           7
100
AcDbLine
 10
-458.984085949779
 20
196.688160183355
 11
-458.984085949779
 21
183.678160183355
  0
LINE
  5
167
100
AcDbEntity
  8
AM_0
  6
CONTINUOUS
 62
           7
100
AcDbLine
 10
-459.799526832027
 20
183.678160183355
 11
-459.799526832027
 21
176.178160183355
  0
LINE
  5
166
100
AcDbEntity
  8
AM_0
  6
CONTINUOUS
 62
           7
100
AcDbLine
 10
-460.329578123195
 20
200.928160183355
 11
-460.329578123195
 21
196.688160183355
  0
LINE
  5
165
100
AcDbEntity
  8
AM_0
  6
CONTINUOUS
 62
           7
100
AcDbLine
 10
-460.329578123195
 20
176.178160183355
 11
-460.329578123194
 21
101.322467297367
  0
LINE
  5
164
100
AcDbEntity
  8
AM_0
  6
CONTINUOUS
 62
           7
100
AcDbLine
 10
-402.729578123194
 20
101.322467297367
 11
-402.729578123194
 21
200.928160183355
  0
LINE
  5
163
100
AcDbEntity
  8
AM_0
  6
CONTINUOUS
 62
           7
100
AcDbLine
 10
-413.529578123194
 20
254.228160183355
 11
-404.529578123194
 21
254.228160183355
  0
LINE
  5
162
100
AcDbEntity
  8
AM_0
  6
CONTINUOUS
 62
           7
100
AcDbLine
 10
-404.529578123194
 20
230.228160183355
 11
-404.529578123194
 21
254.228160183355
  0
LINE
  5
161
100
AcDbEntity
  8
AM_0
  6
CONTINUOUS
 62
           7
100
AcDbLine
 10
-458.529578123194
 20
254.228160183355
 11
-458.529578123194
 21
230.228160183355
  0
LINE
  5
160
100
AcDbEntity
  8
AM_0
  6
CONTINUOUS
 62
           7
100
AcDbLine
 10
-458.529578123194
 20
254.228160183355
 11
-449.529578123194
 21
254.228160183355
  0
LINE
  5
15F
100
AcDbEntity
  8
AM_0
  6
CONTINUOUS
 62
           7
100
AcDbLine
 10
-413.343113901237
 20
254.228160183355
 11
-413.343113901237
 21
230.228160183355
  0
LINE
  5
15E
100
AcDbEntity
  8
AM_0
  6
CONTINUOUS
 62
           7
100
AcDbLine
 10
-449.716042345152
 20
254.228160183355
 11
-449.716042345152
 21
230.228160183355
  0
LINE
  5
15D
100
AcDbEntity
  8
AM_0
  6
CONTINUOUS
 62
           7
100
AcDbLine
 10
-413.529578123194
 20
230.228160183355
 11
-396.029578123194
 21
230.228160183355
  0
LINE
  5
15C
100
AcDbEntity
  8
AM_0
  6
CONTINUOUS
 62
           7
100
AcDbLine
 10
-396.029578123194
 20
230.228160183355
 11
-396.029578123194
 21
200.928160183355
  0
LINE
  5
15B
100
AcDbEntity
  8
AM_0
  6
CONTINUOUS
 62
           7
100
AcDbLine
 10
-467.029578123194
 20
200.928160183355
 11
-396.029578123194
 21
200.928160183355
  0
LINE
  5
15A
100
AcDbEntity
  8
AM_0
  6
CONTINUOUS
 62
           7
100
AcDbLine
 10
-467.029578123194
 20
230.228160183355
 11
-449.529578123194
 21
230.228160183355
  0
LINE
  5
159
100
AcDbEntity
  8
AM_0
  6
CONTINUOUS
 62
           7
100
AcDbLine
 10
-467.029578123194
 20
230.228160183355
 11
-467.029578123194
 21
200.928160183355
  0
LINE
  5
158
100
AcDbEntity
  8
AM_0
  6
CONTINUOUS
 62
           7
100
AcDbLine
 10
-419.029578123194
 20
260.228160183355
 11
-413.529578123194
 21
254.728160183355
  0
LINE
  5
157
100
AcDbEntity
  8
AM_0
  6
CONTINUOUS
 62
           7
100
AcDbLine
 10
-449.529578123194
 20
254.728160183355
 11
-444.029578123194
 21
260.228160183355
  0
LINE
  5
156
100
AcDbEntity
  8
AM_0
  6
CONTINUOUS
 62
           7
100
AcDbLine
 10
-444.029578123194
 20
260.228160183355
 11
-419.029578123194
 21
260.228160183355
  0
LINE
  5
155
100
AcDbEntity
  8
AM_0
  6
CONTINUOUS
 62
           7
100
AcDbLine
 10
-413.529578123194
 20
254.728160183355
 11
-413.529578123194
 21
200.928160183355
  0
LINE
  5
154
100
AcDbEntity
  8
AM_0
  6
CONTINUOUS
 62
           7
100
AcDbLine
 10
-449.529578123194
 20
224.228160183355
 11
-413.529578123194
 21
224.228160183355
  0
LINE
  5
153
100
AcDbEntity
  8
AM_0
  6
CONTINUOUS
 62
           7
100
AcDbLine
 10
-449.529578123194
 20
254.728160183355
 11
-449.529578123194
 21
200.928160183355
  0
LINE
  5
152
100
AcDbEntity
  8
AM_0
  6
CONTINUOUS
 62
           7
100
AcDbLine
 10
-449.529578123194
 20
221.028160183355
 11
-413.529578123194
 21
221.028160183355
  0
LINE
  5
151
100
AcDbEntity
  8
AM_0
  6
CONTINUOUS
 62
           7
100
AcDbLine
 10
-436.500140871671
 20
85.499595248221
 11
-437.713535990872
 21
85.819835924487
  0
LINE
  5
150
100
AcDbEntity
  8
AM_0
  6
CONTINUOUS
 62
           7
100
AcDbLine
 10
-437.713535990872
 20
85.819835924487
 11
-438.939836307231
 21
86.015044070165
  0
LINE
  5
14F
100
AcDbEntity
  8
AM_0
  6
CONTINUOUS
 62
           7
100
AcDbLine
 10
-438.939836307231
 20
86.015044070165
 11
-440.204151212106
 21
86.068014322692
  0
LINE
  5
14E
100
AcDbEntity
  8
AM_0
  6
CONTINUOUS
 62
           7
100
AcDbLine
 10
-440.204151212106
 20
86.068014322692
 11
-441.467147212355
 21
85.96968158998
  0
LINE
  5
14D
100
AcDbEntity
  8
AM_0
  6
CONTINUOUS
 62
           7
100
AcDbLine
 10
-441.467147212355
 20
85.96968158998
 11
-442.50142286816
 21
85.779071733812
  0
LINE
  5
14C
100
AcDbEntity
  8
AM_0
  6
CONTINUOUS
 62
           7
100
AcDbLine
 10
-442.50142286816
 20
85.779071733812
 11
-443.529578123194
 21
85.499595248221
  0
LINE
  5
14B
100
AcDbEntity
  8
AM_0
  6
CONTINUOUS
 62
           7
100
AcDbLine
 10
-419.529578123194
 20
85.499595248221
 11
-420.742973242395
 21
85.819835924487
  0
LINE
  5
14A
100
AcDbEntity
  8
AM_0
  6
CONTINUOUS
 62
           7
100
AcDbLine
 10
-420.742973242395
 20
85.819835924487
 11
-421.969273558754
 21
86.015044070165
  0
LINE
  5
149
100
AcDbEntity
  8
AM_0
  6
CONTINUOUS
 62
           7
100
AcDbLine
 10
-421.969273558754
 20
86.015044070165
 11
-423.233588463629
 21
86.068014322692
  0
LINE
  5
148
100
AcDbEntity
  8
AM_0
  6
CONTINUOUS
 62
           7
100
AcDbLine
 10
-423.233588463629
 20
86.068014322692
 11
-424.496584463878
 21
85.96968158998
  0
LINE
  5
147
100
AcDbEntity
  8
AM_0
  6
CONTINUOUS
 62
           7
100
AcDbLine
 10
-424.496584463878
 20
85.96968158998
 11
-425.530860119683
 21
85.779071733812
  0
LINE
  5
146
100
AcDbEntity
  8
AM_0
  6
CONTINUOUS
 62
           7
100
AcDbLine
 10
-425.530860119683
 20
85.779071733812
 11
-426.559015374717
 21
85.499595248221
  0
LINE
  5
145
100
AcDbEntity
  8
AM_0
  6
CONTINUOUS
 62
           7
100
AcDbLine
 10
-426.559015374717
 20
79.653690629949
 11
-425.345620255516
 21
79.333449953683
  0
LINE
  5
144
100
AcDbEntity
  8
AM_0
  6
CONTINUOUS
 62
           7
100
AcDbLine
 10
-425.345620255516
 20
79.333449953683
 11
-424.119319939158
 21
79.138241808005
  0
LINE
  5
143
100
AcDbEntity
  8
AM_0
  6
CONTINUOUS
 62
           7
100
AcDbLine
 10
-424.119319939158
 20
79.138241808005
 11
-422.855005034282
 21
79.085271555478
  0
LINE
  5
142
100
AcDbEntity
  8
AM_0
  6
CONTINUOUS
 62
           7
100
AcDbLine
 10
-422.855005034282
 20
79.085271555478
 11
-421.592009034034
 21
79.18360428819
  0
LINE
  5
141
100
AcDbEntity
  8
AM_0
  6
CONTINUOUS
 62
           7
100
AcDbLine
 10
-421.592009034034
 20
79.18360428819
 11
-420.557733378229
 21
79.374214144358
  0
LINE
  5
140
100
AcDbEntity
  8
AM_0
  6
CONTINUOUS
 62
           7
100
AcDbLine
 10
-420.557733378229
 20
79.374214144358
 11
-419.529578123194
 21
79.653690629949
  0
LINE
  5
13F
100
AcDbEntity
  8
AM_0
  6
CONTINUOUS
 62
           7
100
AcDbLine
 10
-443.529578123194
 20
79.653690629949
 11
-442.316183003994
 21
79.333449953683
  0
LINE
  5
13E
100
AcDbEntity
  8
AM_0
  6
CONTINUOUS
 62
           7
100
AcDbLine
 10
-442.316183003994
 20
79.333449953683
 11
-441.089882687635
 21
79.138241808005
  0
LINE
  5
13D
100
AcDbEntity
  8
AM_0
  6
CONTINUOUS
 62
           7
100
AcDbLine
 10
-441.089882687635
 20
79.138241808005
 11
-439.82556778276
 21
79.085271555478
  0
LINE
  5
13C
100
AcDbEntity
  8
AM_0
  6
CONTINUOUS
 62
           7
100
AcDbLine
 10
-439.82556778276
 20
79.085271555478
 11
-438.562571782511
 21
79.18360428819
  0
LINE
  5
13B
100
AcDbEntity
  8
AM_0
  6
CONTINUOUS
 62
           7
100
AcDbLine
 10
-438.562571782511
 20
79.18360428819
 11
-437.528296126706
 21
79.374214144358
  0
LINE
  5
13A
100
AcDbEntity
  8
AM_0
  6
CONTINUOUS
 62
           7
100
AcDbLine
 10
-437.528296126706
 20
79.374214144358
 11
-436.500140871671
 21
79.653690629949
  0
LINE
  5
139
100
AcDbEntity
  8
AM_0
  6
CONTINUOUS
 62
           7
100
AcDbLine
 10
-426.559015374717
 20
85.499595248221
 11
-427.764742263842
 21
85.737453342963
  0
LINE
  5
138
100
AcDbEntity
  8
AM_0
  6
CONTINUOUS
 62
           7
100
AcDbLine
 10
-427.764742263842
 20
85.737453342963
 11
-429.435235907372
 21
85.96569942558
  0
LINE
  5
137
100
AcDbEntity
  8
AM_0
  6
CONTINUOUS
 62
           7
100
AcDbLine
 10
-429.435235907372
 20
85.96569942558
 11
-431.127748644066
 21
86.066541954035
  0
LINE
  5
136
100
AcDbEntity
  8
AM_0
  6
CONTINUOUS
 62
           7
100
AcDbLine
 10
-431.127748644066
 20
86.066541954035
 11
-432.855099565405
 21
86.028286283826
  0
LINE
  5
135
100
AcDbEntity
  8
AM_0
  6
CONTINUOUS
 62
           7
100
AcDbLine
 10
-432.855099565405
 20
86.028286283826
 11
-434.585168786197
 21
85.849347903105
  0
LINE
  5
134
100
AcDbEntity
  8
AM_0
  6
CONTINUOUS
 62
           7
100
AcDbLine
 10
-434.585168786197
 20
85.849347903105
 11
-436.500140871671
 21
85.499595248221
  0
LINE
  5
133
100
AcDbEntity
  8
AM_0
  6
CONTINUOUS
 62
           7
100
AcDbLine
 10
-436.500140871671
 20
79.653690629949
 11
-434.662357621284
 21
79.315065007414
  0
LINE
  5
132
100
AcDbEntity
  8
AM_0
  6
CONTINUOUS
 62
           7
100
AcDbLine
 10
-434.662357621284
 20
79.315065007414
 11
-432.990283824496
 21
79.133999894718
  0
LINE
  5
131
100
AcDbEntity
  8
AM_0
  6
CONTINUOUS
 62
           7
100
AcDbLine
 10
-432.990283824496
 20
79.133999894718
 11
-431.299075497807
 21
79.084138748145
  0
LINE
  5
130
100
AcDbEntity
  8
AM_0
  6
CONTINUOUS
 62
           7
100
AcDbLine
 10
-431.299075497807
 20
79.084138748145
 11
-429.576790232884
 21
79.173996979486
  0
LINE
  5
12F
100
AcDbEntity
  8
AM_0
  6
CONTINUOUS
 62
           7
100
AcDbLine
 10
-429.576790232884
 20
79.173996979486
 11
-427.856017116319
 21
79.400232013681
  0
LINE
  5
12E
100
AcDbEntity
  8
AM_0
  6
CONTINUOUS
 62
           7
100
AcDbLine
 10
-427.856017116319
 20
79.400232013681
 11
-426.559015374717
 21
79.653690629949
  0
LINE
  5
12D
100
AcDbEntity
  8
AM_0
  6
CONTINUOUS
 62
           7
100
AcDbLine
 10
-597.869579801661
 20
56.928160183355
 11
-597.869579801661
 21
54.828160183355
  0
LINE
  5
12C
100
AcDbEntity
  8
AM_0
  6
CONTINUOUS
 62
           7
100
AcDbLine
 10
-586.769579801661
 20
54.828160183355
 11
-586.769579801661
 21
56.928160183355
  0
LINE
  5
12B
100
AcDbEntity
  8
AM_0
  6
CONTINUOUS
 62
           7
100
AcDbLine
 10
-600.569579801661
 20
54.828160183355
 11
-600.569579801661
 21
53.328160183355
  0
LINE
  5
12A
100
AcDbEntity
  8
AM_0
  6
CONTINUOUS
 62
           7
100
AcDbLine
 10
-584.069579801661
 20
53.328160183355
 11
-584.069579801661
 21
54.828160183355
  0
LINE
  5
129
100
AcDbEntity
  8
AM_0
  6
CONTINUOUS
 62
           7
100
AcDbLine
 10
-584.069579801661
 20
53.328160183355
 11
-600.569579801661
 21
53.328160183355
  0
LINE
  5
128
100
AcDbEntity
  8
AM_0
  6
CONTINUOUS
 62
           7
100
AcDbLine
 10
-584.069579801661
 20
54.828160183355
 11
-600.569579801661
 21
54.828160183355
  0
LINE
  5
127
100
AcDbEntity
  8
AM_0
  6
CONTINUOUS
 62
           7
100
AcDbLine
 10
-602.319579801661
 20
77.928160183355
 11
-602.319579801661
 21
56.928160183355
  0
LINE
  5
126
100
AcDbEntity
  8
AM_0
  6
CONTINUOUS
 62
           7
100
AcDbLine
 10
-582.319579801661
 20
56.928160183355
 11
-582.319579801661
 21
77.928160183355
  0
LINE
  5
125
100
AcDbEntity
  8
AM_0
  6
CONTINUOUS
 62
           7
100
AcDbLine
 10
-582.319579801661
 20
56.928160183355
 11
-602.319579801661
 21
56.928160183355
  0
LINE
  5
124
100
AcDbEntity
  8
AM_0
  6
CONTINUOUS
 62
           7
100
AcDbLine
 10
-604.319579801661
 20
79.082860725919
 11
-604.319579801661
 21
86.070425152547
  0
LINE
  5
123
100
AcDbEntity
  8
AM_0
  6
CONTINUOUS
 62
           7
100
AcDbLine
 10
-604.219579801661
 20
86.128160183355
 11
-604.319579801661
 21
86.070425152547
  0
LINE
  5
122
100
AcDbEntity
  8
AM_0
  6
CONTINUOUS
 62
           7
100
AcDbLine
 10
-580.319579801661
 20
86.070425156436
 11
-580.419579801661
 21
86.128160183355
  0
LINE
  5
121
100
AcDbEntity
  8
AM_0
  6
CONTINUOUS
 62
           7
100
AcDbLine
 10
-597.290142550138
 20
79.653690629949
 11
-597.290142550138
 21
85.499595248221
  0
LINE
  5
120
100
AcDbEntity
  8
AM_0
  6
CONTINUOUS
 62
           7
100
AcDbLine
 10
-587.349017053184
 20
79.653690629949
 11
-587.349017053184
 21
85.499595248221
  0
LINE
  5
11F
100
AcDbEntity
  8
AM_0
  6
CONTINUOUS
 62
           7
100
AcDbLine
 10
-580.319579801661
 20
86.070425156436
 11
-580.319579801661
 21
79.08286072574
  0
LINE
  5
11E
100
AcDbEntity
  8
AM_0
  6
CONTINUOUS
 62
           7
100
AcDbLine
 10
-582.319579801661
 20
77.928160183355
 11
-580.319579801661
 21
79.08286072574
  0
LINE
  5
11D
100
AcDbEntity
  8
AM_0
  6
CONTINUOUS
 62
           7
100
AcDbLine
 10
-604.319579801661
 20
79.082860725919
 11
-602.319579801661
 21
77.928160183355
  0
LINE
  5
11C
100
AcDbEntity
  8
AM_0
  6
CONTINUOUS
 62
           7
100
AcDbLine
 10
-582.319579801661
 20
77.928160183355
 11
-602.319579801661
 21
77.928160183355
  0
LINE
  5
11B
100
AcDbEntity
  8
AM_0
  6
CONTINUOUS
 62
           7
100
AcDbLine
 10
-604.819579801661
 20
89.128160183355
 11
-604.819579801661
 21
86.128160183355
  0
LINE
  5
11A
100
AcDbEntity
  8
AM_0
  6
CONTINUOUS
 62
           7
100
AcDbLine
 10
-579.819579801661
 20
86.128160183355
 11
-579.819579801661
 21
89.128160183355
  0
LINE
  5
119
100
AcDbEntity
  8
AM_0
  6
CONTINUOUS
 62
           7
100
AcDbLine
 10
-579.819579801661
 20
86.128160183355
 11
-604.819579801661
 21
86.128160183355
  0
LINE
  5
118
100
AcDbEntity
  8
AM_0
  6
CONTINUOUS
 62
           7
100
AcDbLine
 10
-579.819579801661
 20
89.128160183355
 11
-571.079625541615
 21
91.470023869219
  0
LINE
  5
117
100
AcDbEntity
  8
AM_0
  6
CONTINUOUS
 62
           7
100
AcDbLine
 10
-613.559534061707
 20
91.470023869219
 11
-604.819579801661
 21
89.128160183355
  0
LINE
  5
116
100
AcDbEntity
  8
AM_0
  6
CONTINUOUS
 62
           7
100
AcDbLine
 10
-579.819579801661
 20
89.128160183355
 11
-604.819579801661
 21
89.128160183355
  0
LINE
  5
115
100
AcDbEntity
  8
AM_0
  6
CONTINUOUS
 62
           7
100
AcDbLine
 10
-621.119579801661
 20
200.928160183355
 11
-621.119579801661
 21
101.322467297367
  0
LINE
  5
114
100
AcDbEntity
  8
AM_0
  6
CONTINUOUS
 62
           7
100
AcDbLine
 10
-563.519579801661
 20
101.322467297367
 11
-563.519579801661
 21
200.928160183355
  0
LINE
  5
113
100
AcDbEntity
  8
AM_0
  6
CONTINUOUS
 62
           7
100
AcDbLine
 10
-597.819579801661
 20
176.178160183355
 11
-595.869579801661
 21
176.178160183355
  0
LINE
  5
112
100
AcDbEntity
  8
AM_0
  6
CONTINUOUS
 62
           7
100
AcDbLine
 10
-597.819579801661
 20
181.028160183355
 11
-597.819579801661
 21
176.178160183355
  0
LINE
  5
111
100
AcDbEntity
  8
AM_0
  6
CONTINUOUS
 62
           7
100
AcDbLine
 10
-595.869579801661
 20
181.028160183355
 11
-595.869579801661
 21
176.178160183355
  0
LINE
  5
110
100
AcDbEntity
  8
AM_0
  6
CONTINUOUS
 62
           7
100
AcDbLine
 10
-588.769579801661
 20
176.178160183355
 11
-588.769579801661
 21
181.028160183355
  0
LINE
  5
10F
100
AcDbEntity
  8
AM_0
  6
CONTINUOUS
 62
           7
100
AcDbLine
 10
-588.769579801661
 20
176.178160183355
 11
-586.819579801661
 21
176.178160183355
  0
LINE
  5
10E
100
AcDbEntity
  8
AM_0
  6
CONTINUOUS
 62
           7
100
AcDbLine
 10
-586.819579801661
 20
176.178160183355
 11
-586.819579801661
 21
181.028160183355
  0
LINE
  5
10D
100
AcDbEntity
  8
AM_0
  6
CONTINUOUS
 62
           7
100
AcDbLine
 10
-583.569579801661
 20
181.028160183355
 11
-583.569579801661
 21
199.063096673894
  0
LINE
  5
10C
100
AcDbEntity
  8
AM_0
  6
CONTINUOUS
 62
           7
100
AcDbLine
 10
-599.819579801661
 20
202.928160183355
 11
-599.819579801661
 21
201.228160183355
  0
LINE
  5
10B
100
AcDbEntity
  8
AM_0
  6
CONTINUOUS
 62
           7
100
AcDbLine
 10
-601.069579801661
 20
199.063096673894
 11
-601.069579801661
 21
181.028160183355
  0
LINE
  5
10A
100
AcDbEntity
  8
AM_0
  6
CONTINUOUS
 62
           7
100
AcDbLine
 10
-583.569579801661
 20
199.063096673894
 11
-584.819579801661
 21
201.228160183355
  0
LINE
  5
109
100
AcDbEntity
  8
AM_0
  6
CONTINUOUS
 62
           7
100
AcDbLine
 10
-584.819579801661
 20
201.228160183355
 11
-584.819579801661
 21
202.928160183355
  0
LINE
  5
108
100
AcDbEntity
  8
AM_0
  6
CONTINUOUS
 62
           7
100
AcDbLine
 10
-599.819579801661
 20
201.228160183355
 11
-601.069579801661
 21
199.063096673894
  0
LINE
  5
107
100
AcDbEntity
  8
AM_0
  6
CONTINUOUS
 62
           7
100
AcDbLine
 10
-583.569579801661
 20
181.028160183355
 11
-601.069579801661
 21
181.028160183355
  0
LINE
  5
106
100
AcDbEntity
  8
AM_0
  6
CONTINUOUS
 62
           7
100
AcDbLine
 10
-583.569579801661
 20
182.428160183355
 11
-601.069579801661
 21
182.428160183355
  0
LINE
  5
105
100
AcDbEntity
  8
AM_0
  6
CONTINUOUS
 62
           7
100
AcDbLine
 10
-600.703968577194
 20
181.028160183355
 11
-600.703968577194
 21
182.428160183355
  0
LINE
  5
104
100
AcDbEntity
  8
AM_0
  6
CONTINUOUS
 62
           7
100
AcDbLine
 10
-583.935191026129
 20
181.028160183355
 11
-583.935191026129
 21
182.428160183355
  0
LINE
  5
103
100
AcDbEntity
  8
AM_0
  6
CONTINUOUS
 62
           7
100
AcDbLine
 10
-557.319579801661
 20
221.028160183355
 11
-557.319579801661
 21
200.928160183355
  0
LINE
  5
102
100
AcDbEntity
  8
AM_0
  6
CONTINUOUS
 62
           7
100
AcDbLine
 10
-559.519579801661
 20
224.228160183355
 11
-559.519579801661
 21
221.028160183355
  0
LINE
  5
101
100
AcDbEntity
  8
AM_0
  6
CONTINUOUS
 62
           7
100
AcDbLine
 10
-557.319579801661
 20
260.228160183355
 11
-557.319579801661
 21
224.228160183355
  0
LINE
  5
100
100
AcDbEntity
  8
AM_0
  6
CONTINUOUS
 62
           7
100
AcDbLine
 10
-559.519579801661
 20
221.028160183355
 11
-557.319579801661
 21
221.028160183355
  0
LINE
  5
FF
100
AcDbEntity
  8
AM_0
  6
CONTINUOUS
 62
           7
100
AcDbLine
 10
-557.319579801661
 20
224.228160183355
 11
-559.519579801661
 21
224.228160183355
  0
LINE
  5
FE
100
AcDbEntity
  8
AM_0
  6
CONTINUOUS
 62
           7
100
AcDbLine
 10
-625.119579801661
 20
221.028160183355
 11
-625.119579801661
 21
224.228160183355
  0
LINE
  5
FD
100
AcDbEntity
  8
AM_0
  6
CONTINUOUS
 62
           7
100
AcDbLine
 10
-625.119579801661
 20
224.228160183355
 11
-627.319579801661
 21
224.228160183355
  0
LINE
  5
FC
100
AcDbEntity
  8
AM_0
  6
CONTINUOUS
 62
           7
100
AcDbLine
 10
-627.319579801661
 20
221.028160183355
 11
-627.319579801661
 21
200.928160183355
  0
LINE
  5
FB
100
AcDbEntity
  8
AM_0
  6
CONTINUOUS
 62
           7
100
AcDbLine
 10
-627.319579801661
 20
260.228160183355
 11
-627.319579801661
 21
224.228160183355
  0
LINE
  5
FA
100
AcDbEntity
  8
AM_0
  6
CONTINUOUS
 62
           7
100
AcDbLine
 10
-627.319579801661
 20
221.028160183355
 11
-625.119579801661
 21
221.028160183355
  0
LINE
  5
F9
100
AcDbEntity
  8
AM_0
  6
CONTINUOUS
 62
           7
100
AcDbLine
 10
-562.640305743825
 20
258.228160183355
 11
-562.640305743825
 21
230.228160183355
  0
LINE
  5
F8
100
AcDbEntity
  8
AM_0
  6
CONTINUOUS
 62
           7
100
AcDbLine
 10
-560.619579801661
 20
254.728160183355
 11
-560.619579801661
 21
200.928160183355
  0
LINE
  5
F7
100
AcDbEntity
  8
AM_0
  6
CONTINUOUS
 62
           7
100
AcDbLine
 10
-621.998853859497
 20
258.228160183355
 11
-562.640305743825
 21
258.228160183355
  0
LINE
  5
F6
100
AcDbEntity
  8
AM_0
  6
CONTINUOUS
 62
           7
100
AcDbLine
 10
-562.640305743825
 20
258.228160183355
 11
-560.619579801661
 21
254.728160183355
  0
LINE
  5
F5
100
AcDbEntity
  8
AM_0
  6
CONTINUOUS
 62
           7
100
AcDbLine
 10
-557.319579801661
 20
254.728160183355
 11
-560.619579801661
 21
254.728160183355
  0
LINE
  5
F4
100
AcDbEntity
  8
AM_0
  6
CONTINUOUS
 62
           7
100
AcDbLine
 10
-557.319579801661
 20
260.228160183355
 11
-627.319579801661
 21
260.228160183355
  0
LINE
  5
F3
100
AcDbEntity
  8
AM_0
  6
CONTINUOUS
 62
           7
100
AcDbLine
 10
-624.019579801661
 20
254.728160183355
 11
-627.319579801661
 21
254.728160183355
  0
LINE
  5
F2
100
AcDbEntity
  8
AM_0
  6
CONTINUOUS
 62
           7
100
AcDbLine
 10
-624.019579801661
 20
254.728160183355
 11
-621.998853859497
 21
258.228160183355
  0
LINE
  5
F1
100
AcDbEntity
  8
AM_0
  6
CONTINUOUS
 62
           7
100
AcDbLine
 10
-624.019579801661
 20
254.728160183355
 11
-624.019579801661
 21
200.928160183355
  0
LINE
  5
F0
100
AcDbEntity
  8
AM_0
  6
CONTINUOUS
 62
           7
100
AcDbLine
 10
-621.998853859497
 20
258.228160183355
 11
-621.998853859497
 21
230.228160183355
  0
LINE
  5
EF
100
AcDbEntity
  8
AM_0
  6
CONTINUOUS
 62
           7
100
AcDbLine
 10
-571.419579801661
 20
254.228160183355
 11
-571.419579801661
 21
230.228160183355
  0
LINE
  5
EE
100
AcDbEntity
  8
AM_0
  6
CONTINUOUS
 62
           7
100
AcDbLine
 10
-613.219579801661
 20
254.228160183355
 11
-571.419579801661
 21
254.228160183355
  0
LINE
  5
ED
100
AcDbEntity
  8
AM_0
  6
CONTINUOUS
 62
           7
100
AcDbLine
 10
-613.219579801661
 20
254.228160183355
 11
-613.219579801661
 21
230.228160183355
  0
LINE
  5
EC
100
AcDbEntity
  8
AM_0
  6
CONTINUOUS
 62
           7
100
AcDbLine
 10
-572.363314642482
 20
254.228160183355
 11
-572.363314642482
 21
230.228160183355
  0
LINE
  5
EB
100
AcDbEntity
  8
AM_0
  6
CONTINUOUS
 62
           7
100
AcDbLine
 10
-612.27584496084
 20
254.228160183355
 11
-612.27584496084
 21
230.228160183355
  0
LINE
  5
EA
100
AcDbEntity
  8
AM_0
  6
CONTINUOUS
 62
           7
100
AcDbLine
 10
-624.019579801661
 20
230.228160183355
 11
-560.619579801661
 21
230.228160183355
  0
LINE
  5
E9
100
AcDbEntity
  8
AM_0
  6
CONTINUOUS
 62
           7
100
AcDbLine
 10
-584.646374720904
 20
200.928160183355
 11
-557.319579801661
 21
200.928160183355
  0
LINE
  5
E8
100
AcDbEntity
  8
AM_0
  6
CONTINUOUS
 62
           7
100
AcDbLine
 10
-627.319579801661
 20
200.928160183355
 11
-599.992784882418
 21
200.928160183355
  0
LINE
  5
E7
100
AcDbEntity
  8
AM_0
  6
CONTINUOUS
 62
           7
100
AcDbLine
 10
-600.164879263282
 20
202.928160183355
 11
-601.319579801661
 21
200.928160183355
  0
LINE
  5
E6
100
AcDbEntity
  8
AM_0
  6
CONTINUOUS
 62
           7
100
AcDbLine
 10
-584.474280340041
 20
202.928160183355
 11
-600.164879263282
 21
202.928160183355
  0
LINE
  5
E5
100
AcDbEntity
  8
AM_0
  6
CONTINUOUS
 62
           7
100
AcDbLine
 10
-583.319579801661
 20
200.928160183355
 11
-584.474280340041
 21
202.928160183355
  0
LINE
  5
E4
100
AcDbEntity
  8
AM_0
  6
CONTINUOUS
 62
           7
100
AcDbLine
 10
-597.290142550138
 20
85.499595248221
 11
-598.503537669339
 21
85.819835924487
  0
LINE
  5
E3
100
AcDbEntity
  8
AM_0
  6
CONTINUOUS
 62
           7
100
AcDbLine
 10
-598.503537669339
 20
85.819835924487
 11
-599.729837985698
 21
86.015044070165
  0
LINE
  5
E2
100
AcDbEntity
  8
AM_0
  6
CONTINUOUS
 62
           7
100
AcDbLine
 10
-599.729837985698
 20
86.015044070165
 11
-600.994152890573
 21
86.068014322692
  0
LINE
  5
E1
100
AcDbEntity
  8
AM_0
  6
CONTINUOUS
 62
           7
100
AcDbLine
 10
-600.994152890573
 20
86.068014322692
 11
-602.257148890822
 21
85.96968158998
  0
LINE
  5
E0
100
AcDbEntity
  8
AM_0
  6
CONTINUOUS
 62
           7
100
AcDbLine
 10
-602.257148890822
 20
85.96968158998
 11
-603.291424546627
 21
85.779071733812
  0
LINE
  5
DF
100
AcDbEntity
  8
AM_0
  6
CONTINUOUS
 62
           7
100
AcDbLine
 10
-603.291424546627
 20
85.779071733812
 11
-604.319579801661
 21
85.499595248221
  0
LINE
  5
DE
100
AcDbEntity
  8
AM_0
  6
CONTINUOUS
 62
           7
100
AcDbLine
 10
-580.319579801661
 20
85.499595248221
 11
-581.532974920862
 21
85.819835924487
  0
LINE
  5
DD
100
AcDbEntity
  8
AM_0
  6
CONTINUOUS
 62
           7
100
AcDbLine
 10
-581.532974920862
 20
85.819835924487
 11
-582.759275237221
 21
86.015044070165
  0
LINE
  5
DC
100
AcDbEntity
  8
AM_0
  6
CONTINUOUS
 62
           7
100
AcDbLine
 10
-582.759275237221
 20
86.015044070165
 11
-584.023590142096
 21
86.068014322692
  0
LINE
  5
DB
100
AcDbEntity
  8
AM_0
  6
CONTINUOUS
 62
           7
100
AcDbLine
 10
-584.023590142096
 20
86.068014322692
 11
-585.286586142344
 21
85.96968158998
  0
LINE
  5
DA
100
AcDbEntity
  8
AM_0
  6
CONTINUOUS
 62
           7
100
AcDbLine
 10
-585.286586142344
 20
85.96968158998
 11
-586.32086179815
 21
85.779071733812
  0
LINE
  5
D9
100
AcDbEntity
  8
AM_0
  6
CONTINUOUS
 62
           7
100
AcDbLine
 10
-586.32086179815
 20
85.779071733812
 11
-587.349017053184
 21
85.499595248221
  0
LINE
  5
D8
100
AcDbEntity
  8
AM_0
  6
CONTINUOUS
 62
           7
100
AcDbLine
 10
-587.349017053184
 20
85.499595248221
 11
-589.263989138659
 21
85.849347903105
  0
LINE
  5
D7
100
AcDbEntity
  8
AM_0
  6
CONTINUOUS
 62
           7
100
AcDbLine
 10
-589.263989138659
 20
85.849347903105
 11
-590.940114755844
 21
86.0247981667
  0
LINE
  5
D6
100
AcDbEntity
  8
AM_0
  6
CONTINUOUS
 62
           7
100
AcDbLine
 10
-590.940114755844
 20
86.0247981667
 11
-592.635076869873
 21
86.068031048337
  0
LINE
  5
D5
100
AcDbEntity
  8
AM_0
  6
CONTINUOUS
 62
           7
100
AcDbLine
 10
-592.635076869873
 20
86.068031048337
 11
-594.360780643097
 21
85.97090943779
  0
LINE
  5
D4
100
AcDbEntity
  8
AM_0
  6
CONTINUOUS
 62
           7
100
AcDbLine
 10
-594.360780643097
 20
85.97090943779
 11
-596.084415661013
 21
85.737453342963
  0
LINE
  5
D3
100
AcDbEntity
  8
AM_0
  6
CONTINUOUS
 62
           7
100
AcDbLine
 10
-596.084415661013
 20
85.737453342963
 11
-597.290142550138
 21
85.499595248221
  0
LINE
  5
D2
100
AcDbEntity
  8
AM_0
  6
CONTINUOUS
 62
           7
100
AcDbLine
 10
-587.349017053184
 20
79.653690629949
 11
-586.135621933983
 21
79.333449953683
  0
LINE
  5
D1
100
AcDbEntity
  8
AM_0
  6
CONTINUOUS
 62
           7
100
AcDbLine
 10
-586.135621933983
 20
79.333449953683
 11
-584.909321617625
 21
79.138241808005
  0
LINE
  5
D0
100
AcDbEntity
  8
AM_0
  6
CONTINUOUS
 62
           7
100
AcDbLine
 10
-584.909321617625
 20
79.138241808005
 11
-583.645006712749
 21
79.085271555478
  0
LINE
  5
CF
100
AcDbEntity
  8
AM_0
  6
CONTINUOUS
 62
           7
100
AcDbLine
 10
-583.645006712749
 20
79.085271555478
 11
-582.382010712501
 21
79.18360428819
  0
LINE
  5
CE
100
AcDbEntity
  8
AM_0
  6
CONTINUOUS
 62
           7
100
AcDbLine
 10
-582.382010712501
 20
79.18360428819
 11
-581.347735056696
 21
79.374214144358
  0
LINE
  5
CD
100
AcDbEntity
  8
AM_0
  6
CONTINUOUS
 62
           7
100
AcDbLine
 10
-581.347735056696
 20
79.374214144358
 11
-580.319579801661
 21
79.653690629949
  0
LINE
  5
CC
100
AcDbEntity
  8
AM_0
  6
CONTINUOUS
 62
           7
100
AcDbLine
 10
-597.290142550138
 20
79.653690629949
 11
-595.993140808537
 21
79.400232013681
  0
LINE
  5
CB
100
AcDbEntity
  8
AM_0
  6
CONTINUOUS
 62
           7
100
AcDbLine
 10
-595.993140808537
 20
79.400232013681
 11
-594.325350291463
 21
79.178975139405
  0
LINE
  5
CA
100
AcDbEntity
  8
AM_0
  6
CONTINUOUS
 62
           7
100
AcDbLine
 10
-594.325350291463
 20
79.178975139405
 11
-592.636003394345
 21
79.085268909653
  0
LINE
  5
C9
100
AcDbEntity
  8
AM_0
  6
CONTINUOUS
 62
           7
100
AcDbLine
 10
-592.636003394345
 20
79.085268909653
 11
-590.912464690418
 21
79.130328855475
  0
LINE
  5
C8
100
AcDbEntity
  8
AM_0
  6
CONTINUOUS
 62
           7
100
AcDbLine
 10
-590.912464690418
 20
79.130328855475
 11
-589.186800303571
 21
79.315065007414
  0
LINE
  5
C7
100
AcDbEntity
  8
AM_0
  6
CONTINUOUS
 62
           7
100
AcDbLine
 10
-589.186800303571
 20
79.315065007414
 11
-587.349017053184
 21
79.653690629949
  0
LINE
  5
C6
100
AcDbEntity
  8
AM_0
  6
CONTINUOUS
 62
           7
100
AcDbLine
 10
-604.319579801661
 20
79.653690629949
 11
-603.10618468246
 21
79.333449953683
  0
LINE
  5
C5
100
AcDbEntity
  8
AM_0
  6
CONTINUOUS
 62
           7
100
AcDbLine
 10
-603.10618468246
 20
79.333449953683
 11
-601.879884366102
 21
79.138241808005
  0
LINE
  5
C4
100
AcDbEntity
  8
AM_0
  6
CONTINUOUS
 62
           7
100
AcDbLine
 10
-601.879884366102
 20
79.138241808005
 11
-600.615569461226
 21
79.085271555478
  0
LINE
  5
C3
100
AcDbEntity
  8
AM_0
  6
CONTINUOUS
 62
           7
100
AcDbLine
 10
-600.615569461226
 20
79.085271555478
 11
-599.352573460978
 21
79.18360428819
  0
LINE
  5
C2
100
AcDbEntity
  8
AM_0
  6
CONTINUOUS
 62
           7
100
AcDbLine
 10
-599.352573460978
 20
79.18360428819
 11
-598.318297805173
 21
79.374214144358
  0
LINE
  5
C1
100
AcDbEntity
  8
AM_0
  6
CONTINUOUS
 62
           7
100
AcDbLine
 10
-598.318297805173
 20
79.374214144358
 11
-597.290142550138
 21
79.653690629949
  0
LINE
  5
C0
100
AcDbEntity
  8
AM_7
  6
DOT_CENTER
 62
           3
100
AcDbLine
 10
-760.017006480128
 20
242.228160183355
 11
-746.202156480128
 21
242.228160183355
  0
LINE
  5
BF
100
AcDbEntity
  8
AM_0
  6
CONTINUOUS
 62
           7
100
AcDbLine
 10
-758.659581480128
 20
56.928160183355
 11
-758.659581480128
 21
54.828160183355
  0
LINE
  5
BE
100
AcDbEntity
  8
AM_0
  6
CONTINUOUS
 62
           7
100
AcDbLine
 10
-747.559581480128
 20
54.828160183355
 11
-747.559581480128
 21
56.928160183355
  0
LINE
  5
BD
100
AcDbEntity
  8
AM_0
  6
CONTINUOUS
 62
           7
100
AcDbLine
 10
-761.359581480128
 20
54.828160183355
 11
-761.359581480128
 21
53.328160183355
  0
LINE
  5
BC
100
AcDbEntity
  8
AM_0
  6
CONTINUOUS
 62
           7
100
AcDbLine
 10
-744.859581480128
 20
53.328160183355
 11
-744.859581480128
 21
54.828160183355
  0
LINE
  5
BB
100
AcDbEntity
  8
AM_0
  6
CONTINUOUS
 62
           7
100
AcDbLine
 10
-744.859581480128
 20
53.328160183355
 11
-761.359581480128
 21
53.328160183355
  0
LINE
  5
BA
100
AcDbEntity
  8
AM_0
  6
CONTINUOUS
 62
           7
100
AcDbLine
 10
-744.859581480128
 20
54.828160183355
 11
-761.359581480128
 21
54.828160183355
  0
LINE
  5
B9
100
AcDbEntity
  8
AM_0
  6
CONTINUOUS
 62
           7
100
AcDbLine
 10
-763.109581480128
 20
77.928160183355
 11
-763.109581480128
 21
56.928160183355
  0
LINE
  5
B8
100
AcDbEntity
  8
AM_0
  6
CONTINUOUS
 62
           7
100
AcDbLine
 10
-743.109581480128
 20
56.928160183355
 11
-743.109581480128
 21
77.928160183355
  0
LINE
  5
B7
100
AcDbEntity
  8
AM_0
  6
CONTINUOUS
 62
           7
100
AcDbLine
 10
-743.109581480128
 20
56.928160183355
 11
-763.109581480128
 21
56.928160183355
  0
LINE
  5
B6
100
AcDbEntity
  8
AM_0
  6
CONTINUOUS
 62
           7
100
AcDbLine
 10
-743.109581480128
 20
77.928160183355
 11
-741.109581480128
 21
79.082860721734
  0
LINE
  5
B5
100
AcDbEntity
  8
AM_0
  6
CONTINUOUS
 62
           7
100
AcDbLine
 10
-765.109581480128
 20
79.082860721734
 11
-763.109581480128
 21
77.928160183355
  0
LINE
  5
B4
100
AcDbEntity
  8
AM_0
  6
CONTINUOUS
 62
           7
100
AcDbLine
 10
-743.109581480128
 20
77.928160183355
 11
-763.109581480128
 21
77.928160183355
  0
LINE
  5
B3
100
AcDbEntity
  8
AM_0
  6
CONTINUOUS
 62
           7
100
AcDbLine
 10
-758.080144228605
 20
79.653690629949
 11
-758.080144228605
 21
85.499595248221
  0
LINE
  5
B2
100
AcDbEntity
  8
AM_0
  6
CONTINUOUS
 62
           7
100
AcDbLine
 10
-765.109581480128
 20
79.082860721734
 11
-765.109581480128
 21
86.070425152595
  0
LINE
  5
B1
100
AcDbEntity
  8
AM_0
  6
CONTINUOUS
 62
           7
100
AcDbLine
 10
-765.009581480128
 20
86.128160183355
 11
-765.109581480128
 21
86.070425152595
  0
LINE
  5
B0
100
AcDbEntity
  8
AM_0
  6
CONTINUOUS
 62
           7
100
AcDbLine
 10
-741.109581480128
 20
86.070425156436
 11
-741.209581480128
 21
86.128160183355
  0
LINE
  5
AF
100
AcDbEntity
  8
AM_0
  6
CONTINUOUS
 62
           7
100
AcDbLine
 10
-741.109581480128
 20
86.070425156436
 11
-741.109581480128
 21
79.082860721734
  0
LINE
  5
AE
100
AcDbEntity
  8
AM_0
  6
CONTINUOUS
 62
           7
100
AcDbLine
 10
-748.139018731651
 20
79.653690629949
 11
-748.139018731651
 21
85.499595248221
  0
LINE
  5
AD
100
AcDbEntity
  8
AM_0
  6
CONTINUOUS
 62
           7
100
AcDbLine
 10
-724.839632771295
 20
176.178160183355
 11
-719.309581480128
 21
176.178160183355
  0
LINE
  5
AC
100
AcDbEntity
  8
AM_0
  6
CONTINUOUS
 62
           7
100
AcDbLine
 10
-719.309581480128
 20
183.678160183355
 11
-719.309581480128
 21
176.178160183355
  0
LINE
  5
AB
100
AcDbEntity
  8
AM_0
  6
CONTINUOUS
 62
           7
100
AcDbLine
 10
-714.709581480128
 20
181.028160183355
 11
-714.709581480128
 21
182.428160183355
  0
LINE
  5
AA
100
AcDbEntity
  8
AM_0
  6
CONTINUOUS
 62
           7
100
AcDbLine
 10
-714.709581480128
 20
182.428160183355
 11
-717.709581480128
 21
182.428160183355
  0
LINE
  5
A9
100
AcDbEntity
  8
AM_0
  6
CONTINUOUS
 62
           7
100
AcDbLine
 10
-725.655073653543
 20
183.678160183355
 11
-719.109581480128
 21
183.678160183355
  0
LINE
  5
A8
100
AcDbEntity
  8
AM_0
  6
CONTINUOUS
 62
           7
100
AcDbLine
 10
-725.655073653543
 20
196.688160183355
 11
-719.109581480128
 21
196.688160183355
  0
LINE
  5
A7
100
AcDbEntity
  8
AM_0
  6
CONTINUOUS
 62
           7
100
AcDbLine
 10
-715.636097189756
 20
181.028160183355
 11
-715.636097189756
 21
182.428160183355
  0
LINE
  5
A6
100
AcDbEntity
  8
AM_0
  6
CONTINUOUS
 62
           7
100
AcDbLine
 10
-714.709581480128
 20
181.028160183355
 11
-719.109581480128
 21
181.028160183355
  0
LINE
  5
A5
100
AcDbEntity
  8
AM_0
  6
CONTINUOUS
 62
           7
100
AcDbLine
 10
-719.109581480128
 20
200.928160183355
 11
-719.109581480128
 21
181.028160183355
  0
LINE
  5
A4
100
AcDbEntity
  8
AM_0
  6
CONTINUOUS
 62
           7
100
AcDbLine
 10
-717.709581480128
 20
199.063096673894
 11
-719.109581480128
 21
199.063096673894
  0
LINE
  5
A3
100
AcDbEntity
  8
AM_0
  6
CONTINUOUS
 62
           7
100
AcDbLine
 10
-717.709581480128
 20
200.928160183355
 11
-717.709581480128
 21
181.028160183355
  0
LINE
  5
A2
100
AcDbEntity
  8
AM_0
  6
CONTINUOUS
 62
           7
100
AcDbLine
 10
-765.609581480128
 20
89.128160183355
 11
-765.609581480128
 21
86.128160183355
  0
LINE
  5
A1
100
AcDbEntity
  8
AM_0
  6
CONTINUOUS
 62
           7
100
AcDbLine
 10
-740.609581480128
 20
86.128160183355
 11
-740.609581480128
 21
89.128160183355
  0
LINE
  5
A0
100
AcDbEntity
  8
AM_0
  6
CONTINUOUS
 62
           7
100
AcDbLine
 10
-740.609581480128
 20
86.128160183355
 11
-765.609581480128
 21
86.128160183355
  0
LINE
  5
9F
100
AcDbEntity
  8
AM_0
  6
CONTINUOUS
 62
           7
100
AcDbLine
 10
-740.609581480128
 20
89.128160183355
 11
-731.869627220082
 21
91.470023869219
  0
LINE
  5
9E
100
AcDbEntity
  8
AM_0
  6
CONTINUOUS
 62
           7
100
AcDbLine
 10
-774.349535740173
 20
91.470023869219
 11
-765.609581480128
 21
89.128160183355
  0
LINE
  5
9D
100
AcDbEntity
  8
AM_0
  6
CONTINUOUS
 62
           7
100
AcDbLine
 10
-740.609581480128
 20
89.128160183355
 11
-765.609581480128
 21
89.128160183355
  0
LINE
  5
9C
100
AcDbEntity
  8
AM_0
  6
CONTINUOUS
 62
           7
100
AcDbLine
 10
-725.655073653543
 20
183.678160183355
 11
-725.655073653543
 21
196.688160183355
  0
LINE
  5
9B
100
AcDbEntity
  8
AM_0
  6
CONTINUOUS
 62
           7
100
AcDbLine
 10
-724.839632771295
 20
176.178160183355
 11
-724.839632771295
 21
183.678160183355
  0
LINE
  5
9A
100
AcDbEntity
  8
AM_0
  6
CONTINUOUS
 62
           7
100
AcDbLine
 10
-781.909581480128
 20
200.928160183355
 11
-781.909581480128
 21
101.322467297367
  0
LINE
  5
99
100
AcDbEntity
  8
AM_0
  6
CONTINUOUS
 62
           7
100
AcDbLine
 10
-724.309581480128
 20
101.322467297367
 11
-724.309581480128
 21
176.178160183355
  0
LINE
  5
98
100
AcDbEntity
  8
AM_0
  6
CONTINUOUS
 62
           7
100
AcDbLine
 10
-724.309581480128
 20
196.688160183355
 11
-724.309581480128
 21
200.928160183355
  0
LINE
  5
97
100
AcDbEntity
  8
AM_0
  6
CONTINUOUS
 62
           7
100
AcDbLine
 10
-780.109581480128
 20
254.228160183355
 11
-780.109581480128
 21
230.228160183355
  0
LINE
  5
96
100
AcDbEntity
  8
AM_0
  6
CONTINUOUS
 62
           7
100
AcDbLine
 10
-780.109581480128
 20
254.228160183355
 11
-771.109581480128
 21
254.228160183355
  0
LINE
  5
95
100
AcDbEntity
  8
AM_0
  6
CONTINUOUS
 62
           7
100
AcDbLine
 10
-735.109581480128
 20
254.228160183355
 11
-726.109581480128
 21
254.228160183355
  0
LINE
  5
94
100
AcDbEntity
  8
AM_0
  6
CONTINUOUS
 62
           7
100
AcDbLine
 10
-726.109581480128
 20
230.228160183355
 11
-726.109581480128
 21
254.228160183355
  0
LINE
  5
93
100
AcDbEntity
  8
AM_0
  6
CONTINUOUS
 62
           7
100
AcDbLine
 10
-734.92311725817
 20
254.228160183355
 11
-734.92311725817
 21
230.228160183355
  0
LINE
  5
92
100
AcDbEntity
  8
AM_0
  6
CONTINUOUS
 62
           7
100
AcDbLine
 10
-771.296045702085
 20
254.228160183355
 11
-771.296045702085
 21
230.228160183355
  0
LINE
  5
91
100
AcDbEntity
  8
AM_0
  6
CONTINUOUS
 62
           7
100
AcDbLine
 10
-788.609581480128
 20
230.228160183355
 11
-771.109581480128
 21
230.228160183355
  0
LINE
  5
90
100
AcDbEntity
  8
AM_0
  6
CONTINUOUS
 62
           7
100
AcDbLine
 10
-788.609581480128
 20
230.228160183355
 11
-788.609581480128
 21
200.928160183355
  0
LINE
  5
8F
100
AcDbEntity
  8
AM_0
  6
CONTINUOUS
 62
           7
100
AcDbLine
 10
-788.609581480128
 20
200.928160183355
 11
-717.609581480128
 21
200.928160183355
  0
LINE
  5
8E
100
AcDbEntity
  8
AM_0
  6
CONTINUOUS
 62
           7
100
AcDbLine
 10
-735.109581480128
 20
230.228160183355
 11
-717.609581480128
 21
230.228160183355
  0
LINE
  5
8D
100
AcDbEntity
  8
AM_0
  6
CONTINUOUS
 62
           7
100
AcDbLine
 10
-717.609581480128
 20
230.228160183355
 11
-717.609581480128
 21
200.928160183355
  0
LINE
  5
8C
100
AcDbEntity
  8
AM_0
  6
CONTINUOUS
 62
           7
100
AcDbLine
 10
-765.609581480128
 20
260.228160183355
 11
-740.609581480128
 21
260.228160183355
  0
LINE
  5
8B
100
AcDbEntity
  8
AM_0
  6
CONTINUOUS
 62
           7
100
AcDbLine
 10
-765.609581480128
 20
260.228160183355
 11
-771.109581480128
 21
254.728160183355
  0
LINE
  5
8A
100
AcDbEntity
  8
AM_0
  6
CONTINUOUS
 62
           7
100
AcDbLine
 10
-735.109581480128
 20
254.728160183355
 11
-740.609581480128
 21
260.228160183355
  0
LINE
  5
89
100
AcDbEntity
  8
AM_0
  6
CONTINUOUS
 62
           7
100
AcDbLine
 10
-735.109581480128
 20
254.728160183355
 11
-735.109581480128
 21
200.928160183355
  0
LINE
  5
88
100
AcDbEntity
  8
AM_0
  6
CONTINUOUS
 62
           7
100
AcDbLine
 10
-735.109581480128
 20
224.228160183355
 11
-771.109581480128
 21
224.228160183355
  0
LINE
  5
87
100
AcDbEntity
  8
AM_0
  6
CONTINUOUS
 62
           7
100
AcDbLine
 10
-735.109581480128
 20
221.028160183355
 11
-771.109581480128
 21
221.028160183355
  0
LINE
  5
86
100
AcDbEntity
  8
AM_0
  6
CONTINUOUS
 62
           7
100
AcDbLine
 10
-771.109581480128
 20
254.728160183355
 11
-771.109581480128
 21
200.928160183355
  0
LINE
  5
85
100
AcDbEntity
  8
AM_0
  6
CONTINUOUS
 62
           7
100
AcDbLine
 10
-765.109581480128
 20
79.653690629949
 11
-763.896186360927
 21
79.333449953683
  0
LINE
  5
84
100
AcDbEntity
  8
AM_0
  6
CONTINUOUS
 62
           7
100
AcDbLine
 10
-763.896186360927
 20
79.333449953683
 11
-762.669886044568
 21
79.138241808005
  0
LINE
  5
83
100
AcDbEntity
  8
AM_0
  6
CONTINUOUS
 62
           7
100
AcDbLine
 10
-762.669886044568
 20
79.138241808005
 11
-761.405571139693
 21
79.085271555478
  0
LINE
  5
82
100
AcDbEntity
  8
AM_0
  6
CONTINUOUS
 62
           7
100
AcDbLine
 10
-761.405571139693
 20
79.085271555478
 11
-760.142575139444
 21
79.18360428819
  0
LINE
  5
81
100
AcDbEntity
  8
AM_0
  6
CONTINUOUS
 62
           7
100
AcDbLine
 10
-760.142575139444
 20
79.18360428819
 11
-759.108299483639
 21
79.374214144358
  0
LINE
  5
80
100
AcDbEntity
  8
AM_0
  6
CONTINUOUS
 62
           7
100
AcDbLine
 10
-759.108299483639
 20
79.374214144358
 11
-758.080144228605
 21
79.653690629949
  0
LINE
  5
7F
100
AcDbEntity
  8
AM_0
  6
CONTINUOUS
 62
           7
100
AcDbLine
 10
-758.080144228605
 20
79.653690629949
 11
-756.783142487003
 21
79.400232013681
  0
LINE
  5
7E
100
AcDbEntity
  8
AM_0
  6
CONTINUOUS
 62
           7
100
AcDbLine
 10
-756.783142487003
 20
79.400232013681
 11
-755.110418229074
 21
79.178928102414
  0
LINE
  5
7D
100
AcDbEntity
  8
AM_0
  6
CONTINUOUS
 62
           7
100
AcDbLine
 10
-755.110418229074
 20
79.178928102414
 11
-753.426005072811
 21
79.085268909653
  0
LINE
  5
7C
100
AcDbEntity
  8
AM_0
  6
CONTINUOUS
 62
           7
100
AcDbLine
 10
-753.426005072811
 20
79.085268909653
 11
-751.696930406914
 21
79.131233774983
  0
LINE
  5
7B
100
AcDbEntity
  8
AM_0
  6
CONTINUOUS
 62
           7
100
AcDbLine
 10
-751.696930406914
 20
79.131233774983
 11
-749.976801982038
 21
79.315065007414
  0
LINE
  5
7A
100
AcDbEntity
  8
AM_0
  6
CONTINUOUS
 62
           7
100
AcDbLine
 10
-749.976801982038
 20
79.315065007414
 11
-748.139018731651
 21
79.653690629949
  0
LINE
  5
79
100
AcDbEntity
  8
AM_0
  6
CONTINUOUS
 62
           7
100
AcDbLine
 10
-758.080144228605
 20
85.499595248221
 11
-759.293539347806
 21
85.819835924487
  0
LINE
  5
78
100
AcDbEntity
  8
AM_0
  6
CONTINUOUS
 62
           7
100
AcDbLine
 10
-759.293539347806
 20
85.819835924487
 11
-760.519839664164
 21
86.015044070165
  0
LINE
  5
77
100
AcDbEntity
  8
AM_0
  6
CONTINUOUS
 62
           7
100
AcDbLine
 10
-760.519839664164
 20
86.015044070165
 11
-761.78415456904
 21
86.068014322692
  0
LINE
  5
76
100
AcDbEntity
  8
AM_0
  6
CONTINUOUS
 62
           7
100
AcDbLine
 10
-761.78415456904
 20
86.068014322692
 11
-763.047150569288
 21
85.96968158998
  0
LINE
  5
75
100
AcDbEntity
  8
AM_0
  6
CONTINUOUS
 62
           7
100
AcDbLine
 10
-763.047150569288
 20
85.96968158998
 11
-764.081426225093
 21
85.779071733812
  0
LINE
  5
74
100
AcDbEntity
  8
AM_0
  6
CONTINUOUS
 62
           7
100
AcDbLine
 10
-764.081426225093
 20
85.779071733812
 11
-765.109581480128
 21
85.499595248221
  0
LINE
  5
73
100
AcDbEntity
  8
AM_0
  6
CONTINUOUS
 62
           7
100
AcDbLine
 10
-748.139018731651
 20
85.499595248221
 11
-750.053990817125
 21
85.849347903105
  0
LINE
  5
72
100
AcDbEntity
  8
AM_0
  6
CONTINUOUS
 62
           7
100
AcDbLine
 10
-750.053990817125
 20
85.849347903105
 11
-751.735362100124
 21
86.024654364483
  0
LINE
  5
71
100
AcDbEntity
  8
AM_0
  6
CONTINUOUS
 62
           7
100
AcDbLine
 10
-751.735362100124
 20
86.024654364483
 11
-753.425078548339
 21
86.068031048337
  0
LINE
  5
70
100
AcDbEntity
  8
AM_0
  6
CONTINUOUS
 62
           7
100
AcDbLine
 10
-753.425078548339
 20
86.068031048337
 11
-755.156025677741
 21
85.969936676443
  0
LINE
  5
6F
100
AcDbEntity
  8
AM_0
  6
CONTINUOUS
 62
           7
100
AcDbLine
 10
-755.156025677741
 20
85.969936676443
 11
-756.87441733948
 21
85.737453342963
  0
LINE
  5
6E
100
AcDbEntity
  8
AM_0
  6
CONTINUOUS
 62
           7
100
AcDbLine
 10
-756.87441733948
 20
85.737453342963
 11
-758.080144228605
 21
85.499595248221
  0
LINE
  5
6D
100
AcDbEntity
  8
AM_0
  6
CONTINUOUS
 62
           7
100
AcDbLine
 10
-741.109581480128
 20
85.499595248221
 11
-742.322976599328
 21
85.819835924487
  0
LINE
  5
6C
100
AcDbEntity
  8
AM_0
  6
CONTINUOUS
 62
           7
100
AcDbLine
 10
-742.322976599328
 20
85.819835924487
 11
-743.549276915687
 21
86.015044070165
  0
LINE
  5
6B
100
AcDbEntity
  8
AM_0
  6
CONTINUOUS
 62
           7
100
AcDbLine
 10
-743.549276915687
 20
86.015044070165
 11
-744.813591820563
 21
86.068014322692
  0
LINE
  5
6A
100
AcDbEntity
  8
AM_0
  6
CONTINUOUS
 62
           7
100
AcDbLine
 10
-744.813591820563
 20
86.068014322692
 11
-746.076587820811
 21
85.96968158998
  0
LINE
  5
69
100
AcDbEntity
  8
AM_0
  6
CONTINUOUS
 62
           7
100
AcDbLine
 10
-746.076587820811
 20
85.96968158998
 11
-747.110863476616
 21
85.779071733812
  0
LINE
  5
68
100
AcDbEntity
  8
AM_0
  6
CONTINUOUS
 62
           7
100
AcDbLine
 10
-747.110863476616
 20
85.779071733812
 11
-748.139018731651
 21
85.499595248221
  0
LINE
  5
67
100
AcDbEntity
  8
AM_0
  6
CONTINUOUS
 62
           7
100
AcDbLine
 10
-748.139018731651
 20
79.653690629949
 11
-746.92562361245
 21
79.333449953683
  0
LINE
  5
66
100
AcDbEntity
  8
AM_0
  6
CONTINUOUS
 62
           7
100
AcDbLine
 10
-746.92562361245
 20
79.333449953683
 11
-745.699323296091
 21
79.138241808005
  0
LINE
  5
65
100
AcDbEntity
  8
AM_0
  6
CONTINUOUS
 62
           7
100
AcDbLine
 10
-745.699323296091
 20
79.138241808005
 11
-744.435008391216
 21
79.085271555478
  0
LINE
  5
64
100
AcDbEntity
  8
AM_0
  6
CONTINUOUS
 62
           7
100
AcDbLine
 10
-744.435008391216
 20
79.085271555478
 11
-743.172012390967
 21
79.18360428819
  0
LINE
  5
63
100
AcDbEntity
  8
AM_0
  6
CONTINUOUS
 62
           7
100
AcDbLine
 10
-743.172012390967
 20
79.18360428819
 11
-742.137736735162
 21
79.374214144358
  0
LINE
  5
62
100
AcDbEntity
  8
AM_0
  6
CONTINUOUS
 62
           7
100
AcDbLine
 10
-742.137736735162
 20
79.374214144358
 11
-741.109581480128
 21
79.653690629949
  0
LINE
  5
61
100
AcDbEntity
  8
AM_7
  6
DOT_CENTER
 62
           3
100
AcDbLine
 10
-592.319579801661
 20
39.262987034932
 11
-592.319579801661
 21
270.98397455421
  0
LINE
  5
60
100
AcDbEntity
  8
AM_7
  6
DOT_CENTER
 62
           3
100
AcDbLine
 10
-753.109581480128
 20
39.262987034932
 11
-753.109581480128
 21
270.98397455421
  0
LINE
  5
5F
100
AcDbEntity
  8
1
  6
CONTINUOUS
 62
           2
100
AcDbLine
 10
-550.415048483424
 20
256.477092033449
 11
-550.940048483424
 21
256.652092033449
  0
LINE
  5
5E
100
AcDbEntity
  8
1
  6
CONTINUOUS
 62
           2
100
AcDbLine
 10
-550.940048483424
 20
256.652092033449
 11
-551.990048483424
 21
256.652092033449
  0
LINE
  5
5D
100
AcDbEntity
  8
1
  6
CONTINUOUS
 62
           2
100
AcDbLine
 10
-551.990048483424
 20
256.652092033449
 11
-552.515048483424
 21
256.477092033449
  0
LINE
  5
5C
100
AcDbEntity
  8
1
  6
CONTINUOUS
 62
           2
100
AcDbLine
 10
-552.515048483424
 20
256.477092033449
 11
-553.040048483424
 21
256.127092033449
  0
LINE
  5
5B
100
AcDbEntity
  8
1
  6
CONTINUOUS
 62
           2
100
AcDbLine
 10
-553.040048483424
 20
256.127092033449
 11
-553.390048483424
 21
255.777092033449
  0
LINE
  5
5A
100
AcDbEntity
  8
1
  6
CONTINUOUS
 62
           2
100
AcDbLine
 10
-553.390048483424
 20
255.777092033449
 11
-553.740048483424
 21
255.252092033449
  0
LINE
  5
59
100
AcDbEntity
  8
1
  6
CONTINUOUS
 62
           2
100
AcDbLine
 10
-553.740048483424
 20
255.252092033449
 11
-553.915048483424
 21
254.552092033449
  0
LINE
  5
58
100
AcDbEntity
  8
1
  6
CONTINUOUS
 62
           2
100
AcDbLine
 10
-553.915048483424
 20
254.552092033449
 11
-553.915048483424
 21
251.752092033449
  0
LINE
  5
57
100
AcDbEntity
  8
1
  6
CONTINUOUS
 62
           2
100
AcDbLine
 10
-553.915048483424
 20
251.752092033449
 11
-553.740048483424
 21
251.052092033449
  0
LINE
  5
56
100
AcDbEntity
  8
1
  6
CONTINUOUS
 62
           2
100
AcDbLine
 10
-553.740048483424
 20
251.052092033449
 11
-553.390048483424
 21
250.527092033449
  0
LINE
  5
55
100
AcDbEntity
  8
1
  6
CONTINUOUS
 62
           2
100
AcDbLine
 10
-553.390048483424
 20
250.527092033449
 11
-553.040048483424
 21
250.177092033449
  0
LINE
  5
54
100
AcDbEntity
  8
1
  6
CONTINUOUS
 62
           2
100
AcDbLine
 10
-553.040048483424
 20
250.177092033449
 11
-552.515048483424
 21
249.827092033449
  0
LINE
  5
53
100
AcDbEntity
  8
1
  6
CONTINUOUS
 62
           2
100
AcDbLine
 10
-552.515048483424
 20
249.827092033449
 11
-551.990048483424
 21
249.652092033449
  0
LINE
  5
52
100
AcDbEntity
  8
1
  6
CONTINUOUS
 62
           2
100
AcDbLine
 10
-551.990048483424
 20
249.652092033449
 11
-550.940048483424
 21
249.652092033449
  0
LINE
  5
51
100
AcDbEntity
  8
1
  6
CONTINUOUS
 62
           2
100
AcDbLine
 10
-550.940048483424
 20
249.652092033449
 11
-550.415048483424
 21
249.827092033449
  0
LINE
  5
50
100
AcDbEntity
  8
1
  6
CONTINUOUS
 62
           2
100
AcDbLine
 10
-550.415048483424
 20
249.827092033449
 11
-549.890048483424
 21
250.177092033449
  0
LINE
  5
4F
100
AcDbEntity
  8
1
  6
CONTINUOUS
 62
           2
100
AcDbLine
 10
-549.890048483424
 20
250.177092033449
 11
-549.540048483424
 21
250.527092033449
  0
LINE
  5
4E
100
AcDbEntity
  8
1
  6
CONTINUOUS
 62
           2
100
AcDbLine
 10
-549.540048483424
 20
250.527092033449
 11
-549.190048483424
 21
251.052092033449
  0
LINE
  5
4D
100
AcDbEntity
  8
1
  6
CONTINUOUS
 62
           2
100
AcDbLine
 10
-549.190048483424
 20
251.052092033449
 11
-549.015048483424
 21
251.752092033449
  0
LINE
  5
4C
100
AcDbEntity
  8
1
  6
CONTINUOUS
 62
           2
100
AcDbLine
 10
-549.015048483424
 20
251.752092033449
 11
-549.015048483424
 21
254.552092033449
  0
LINE
  5
4B
100
AcDbEntity
  8
1
  6
CONTINUOUS
 62
           2
100
AcDbLine
 10
-549.015048483424
 20
254.552092033449
 11
-549.190048483424
 21
255.252092033449
  0
LINE
  5
4A
100
AcDbEntity
  8
1
  6
CONTINUOUS
 62
           2
100
AcDbLine
 10
-549.190048483424
 20
255.252092033449
 11
-549.540048483424
 21
255.777092033449
  0
LINE
  5
49
100
AcDbEntity
  8
1
  6
CONTINUOUS
 62
           2
100
AcDbLine
 10
-549.540048483424
 20
255.777092033449
 11
-549.890048483424
 21
256.127092033449
  0
LINE
  5
48
100
AcDbEntity
  8
1
  6
CONTINUOUS
 62
           2
100
AcDbLine
 10
-549.890048483424
 20
256.127092033449
 11
-550.415048483424
 21
256.477092033449
  0
LINE
  5
47
100
AcDbEntity
  8
1
  6
CONTINUOUS
 62
           2
100
AcDbLine
 10
-542.015048483424
 20
256.652092033449
 11
-542.015048483424
 21
251.752092033449
  0
LINE
  5
46
100
AcDbEntity
  8
1
  6
CONTINUOUS
 62
           2
100
AcDbLine
 10
-542.015048483424
 20
251.752092033449
 11
-542.190048483424
 21
251.052092033449
  0
LINE
  5
45
100
AcDbEntity
  8
1
  6
CONTINUOUS
 62
           2
100
AcDbLine
 10
-542.190048483424
 20
251.052092033449
 11
-542.540048483424
 21
250.527092033449
  0
LINE
  5
44
100
AcDbEntity
  8
1
  6
CONTINUOUS
 62
           2
100
AcDbLine
 10
-542.540048483424
 20
250.527092033449
 11
-542.890048483424
 21
250.177092033449
  0
LINE
  5
43
100
AcDbEntity
  8
1
  6
CONTINUOUS
 62
           2
100
AcDbLine
 10
-542.890048483424
 20
250.177092033449
 11
-543.415048483424
 21
249.827092033449
  0
LINE
  5
42
100
AcDbEntity
  8
1
  6
CONTINUOUS
 62
           2
100
AcDbLine
 10
-543.415048483424
 20
249.827092033449
 11
-543.940048483424
 21
249.652092033449
  0
LINE
  5
41
100
AcDbEntity
  8
1
  6
CONTINUOUS
 62
           2
100
AcDbLine
 10
-543.940048483424
 20
249.652092033449
 11
-544.990048483424
 21
249.652092033449
  0
LINE
  5
40
100
AcDbEntity
  8
1
  6
CONTINUOUS
 62
           2
100
AcDbLine
 10
-544.990048483424
 20
249.652092033449
 11
-545.515048483424
 21
249.827092033449
  0
LINE
  5
3F
100
AcDbEntity
  8
1
  6
CONTINUOUS
 62
           2
100
AcDbLine
 10
-545.515048483424
 20
249.827092033449
 11
-546.040048483424
 21
250.177092033449
  0
LINE
  5
3E
100
AcDbEntity
  8
1
  6
CONTINUOUS
 62
           2
100
AcDbLine
 10
-546.040048483424
 20
250.177092033449
 11
-546.390048483424
 21
250.527092033449
  0
LINE
  5
3D
100
AcDbEntity
  8
1
  6
CONTINUOUS
 62
           2
100
AcDbLine
 10
-546.390048483424
 20
250.527092033449
 11
-546.740048483424
 21
251.052092033449
  0
LINE
  5
3C
100
AcDbEntity
  8
1
  6
CONTINUOUS
 62
           2
100
AcDbLine
 10
-546.740048483424
 20
251.052092033449
 11
-546.915048483424
 21
251.752092033449
  0
LINE
  5
3B
100
AcDbEntity
  8
1
  6
CONTINUOUS
 62
           2
100
AcDbLine
 10
-546.915048483424
 20
251.752092033449
 11
-546.915048483424
 21
256.652092033449
  0
LINE
  5
3A
100
AcDbEntity
  8
1
  6
CONTINUOUS
 62
           2
100
AcDbLine
 10
-537.465048483424
 20
256.652092033449
 11
-535.015048483424
 21
256.652092033449
  0
LINE
  5
39
100
AcDbEntity
  8
1
  6
CONTINUOUS
 62
           2
100
AcDbLine
 10
-539.915048483424
 20
256.652092033449
 11
-537.465048483424
 21
256.652092033449
  0
LINE
  5
38
100
AcDbEntity
  8
1
  6
CONTINUOUS
 62
           2
100
AcDbLine
 10
-537.465048483424
 20
256.652092033449
 11
-537.465048483424
 21
249.652092033449
  0
LINE
  5
37
100
AcDbEntity
  8
1
  6
CONTINUOUS
 62
           2
100
AcDbLine
 10
-641.719093956244
 20
249.116701512274
 11
-641.719093956244
 21
256.116701512274
  0
LINE
  5
36
100
AcDbEntity
  8
1
  6
CONTINUOUS
 62
           2
100
AcDbLine
 10
-639.619093956244
 20
249.116701512274
 11
-639.619093956244
 21
256.116701512274
  0
LINE
  5
35
100
AcDbEntity
  8
1
  6
CONTINUOUS
 62
           2
100
AcDbLine
 10
-639.619093956244
 20
256.116701512274
 11
-634.719093956244
 21
249.116701512274
  0
LINE
  5
34
100
AcDbEntity
  8
1
  6
CONTINUOUS
 62
           2
100
AcDbLine
 10
-634.719093956244
 20
249.116701512274
 11
-634.719093956244
 21
256.116701512274
  0
SOLID
  5
1D5
100
AcDbEntity
  8
0
 62
           2
100
AcDbTrace
 10
-636.939121940716
 20
244.871946676194
 11
-636.939121940716
 21
246.346454649172
 12
-631.339121940716
 22
245.609200662683
 13
-631.339121940716
 23
245.609200662683
  0
SOLID
  5
1D7
100
AcDbEntity
  8
0
 62
           2
100
AcDbTrace
 10
-543.276535876274
 20
245.003126768722
 11
-543.276535876274
 21
246.4776347417
 12
-537.676535876274
 22
245.740380755211
 13
-537.676535876274
 23
245.740380755211
  0
ENDBLK
  5
1D9
100
AcDbEntity
  8
0
100
AcDbBlockEnd
  0
BLOCK
  5
2C
100
AcDbEntity
  8
0
100
AcDbBlockBegin
  2
1_AFM40_02C_2_A_0
 70
           0
 10
0.0
 20
0.0
 30
0.0
  3
1_AFM40_02C_2_A_0
  1

  0
INSERT
  5
2D
100
AcDbEntity
  8
0
100
AcDbBlockReference
  2
3_AFM40_02C_2_A_0
 10
0.0
 20
0.0
  0
ENDBLK
  5
1DA
100
AcDbEntity
  8
0
100
AcDbBlockEnd
  0
BLOCK
  5
2F
100
AcDbEntity
  8
0
100
AcDbBlockBegin
  2
AMF500B_10DDATA
 70
           0
 10
0.0
 20
0.0
 30
0.0
  3
AMF500B_10DDATA
  1

  0
INSERT
  5
30
100
AcDbEntity
  8
0
100
AcDbBlockReference
  2
1_AFM40_02C_2_A_0
 10
0.0
 20
0.0
  0
ENDBLK
  5
1DB
100
AcDbEntity
  8
0
100
AcDbBlockEnd
  0
ENDSEC
  0
SECTION
  2
ENTITIES
  0
LINE
  5
260
100
AcDbEntity
  8
1
  6
CONTINUOUS
 62
           2
100
AcDbLine
 10
-202.990153644828
 20
82.912875864948
 11
-199.690153644828
 21
82.912875864948
  0
LINE
  5
25F
100
AcDbEntity
  8
1
  6
CONTINUOUS
 62
           2
100
AcDbLine
 10
-203.740153644828
 20
81.112875864948
 11
-201.340153644828
 21
87.112875864948
  0
LINE
  5
25E
100
AcDbEntity
  8
1
  6
CONTINUOUS
 62
           2
100
AcDbLine
 10
-201.340153644828
 20
87.112875864948
 11
-198.940153644828
 21
81.112875864948
  0
LINE
  5
25D
100
AcDbEntity
  8
1
  6
CONTINUOUS
 62
           2
100
AcDbLine
 10
-197.140153644828
 20
81.112875864948
 11
-197.140153644828
 21
87.112875864948
  0
LINE
  5
25C
100
AcDbEntity
  8
1
  6
CONTINUOUS
 62
           2
100
AcDbLine
 10
-197.140153644828
 20
87.112875864948
 11
-195.040153644828
 21
83.812875864948
  0
LINE
  5
25B
100
AcDbEntity
  8
1
  6
CONTINUOUS
 62
           2
100
AcDbLine
 10
-195.040153644828
 20
83.812875864948
 11
-192.940153644828
 21
87.112875864948
  0
LINE
  5
25A
100
AcDbEntity
  8
1
  6
CONTINUOUS
 62
           2
100
AcDbLine
 10
-192.940153644828
 20
87.112875864948
 11
-192.940153644828
 21
81.112875864948
  0
LINE
  5
259
100
AcDbEntity
  8
1
  6
CONTINUOUS
 62
           2
100
AcDbLine
 10
-191.140153644828
 20
84.412875864948
 11
-186.940153644828
 21
84.412875864948
  0
LINE
  5
258
100
AcDbEntity
  8
1
  6
CONTINUOUS
 62
           2
100
AcDbLine
 10
-186.940153644828
 20
87.112875864948
 11
-191.140153644828
 21
87.112875864948
  0
LINE
  5
257
100
AcDbEntity
  8
1
  6
CONTINUOUS
 62
           2
100
AcDbLine
 10
-191.140153644828
 20
87.112875864948
 11
-191.140153644828
 21
84.412875864948
  0
LINE
  5
256
100
AcDbEntity
  8
1
  6
CONTINUOUS
 62
           2
100
AcDbLine
 10
-191.140153644828
 20
84.412875864948
 11
-191.140153644828
 21
81.112875864948
  0
LINE
  5
255
100
AcDbEntity
  8
1
  6
CONTINUOUS
 62
           2
100
AcDbLine
 10
-181.840153644828
 20
87.112875864948
 11
-185.140153644828
 21
87.112875864948
  0
LINE
  5
254
100
AcDbEntity
  8
1
  6
CONTINUOUS
 62
           2
100
AcDbLine
 10
-185.140153644828
 20
87.112875864948
 11
-185.140153644828
 21
84.712875864948
  0
LINE
  5
253
100
AcDbEntity
  8
1
  6
CONTINUOUS
 62
           2
100
AcDbLine
 10
-185.140153644828
 20
84.712875864948
 11
-182.890153644828
 21
84.712875864948
  0
LINE
  5
252
100
AcDbEntity
  8
1
  6
CONTINUOUS
 62
           2
100
AcDbLine
 10
-182.890153644828
 20
84.712875864948
 11
-182.140153644828
 21
84.562875864948
  0
LINE
  5
251
100
AcDbEntity
  8
1
  6
CONTINUOUS
 62
           2
100
AcDbLine
 10
-182.140153644828
 20
84.562875864948
 11
-181.690153644828
 21
84.112875864948
  0
LINE
  5
250
100
AcDbEntity
  8
1
  6
CONTINUOUS
 62
           2
100
AcDbLine
 10
-181.690153644828
 20
84.112875864948
 11
-181.540153644828
 21
83.512875864948
  0
LINE
  5
24F
100
AcDbEntity
  8
1
  6
CONTINUOUS
 62
           2
100
AcDbLine
 10
-181.540153644828
 20
83.512875864948
 11
-181.540153644828
 21
82.612875864948
  0
LINE
  5
24E
100
AcDbEntity
  8
1
  6
CONTINUOUS
 62
           2
100
AcDbLine
 10
-181.540153644828
 20
82.612875864948
 11
-181.690153644828
 21
82.012875864948
  0
LINE
  5
24D
100
AcDbEntity
  8
1
  6
CONTINUOUS
 62
           2
100
AcDbLine
 10
-181.690153644828
 20
82.012875864948
 11
-181.990153644828
 21
81.562875864948
  0
LINE
  5
24C
100
AcDbEntity
  8
1
  6
CONTINUOUS
 62
           2
100
AcDbLine
 10
-181.990153644828
 20
81.562875864948
 11
-182.440153644828
 21
81.262875864948
  0
LINE
  5
24B
100
AcDbEntity
  8
1
  6
CONTINUOUS
 62
           2
100
AcDbLine
 10
-182.440153644828
 20
81.262875864948
 11
-182.890153644828
 21
81.112875864948
  0
LINE
  5
24A
100
AcDbEntity
  8
1
  6
CONTINUOUS
 62
           2
100
AcDbLine
 10
-182.890153644828
 20
81.112875864948
 11
-185.140153644828
 21
81.112875864948
  0
LINE
  5
249
100
AcDbEntity
  8
1
  6
CONTINUOUS
 62
           2
100
AcDbLine
 10
-176.140153644828
 20
83.362875864948
 11
-176.290153644828
 21
82.462875864948
  0
LINE
  5
248
100
AcDbEntity
  8
1
  6
CONTINUOUS
 62
           2
100
AcDbLine
 10
-176.290153644828
 20
82.462875864948
 11
-176.590153644828
 21
81.862875864948
  0
LINE
  5
247
100
AcDbEntity
  8
1
  6
CONTINUOUS
 62
           2
100
AcDbLine
 10
-176.590153644828
 20
81.862875864948
 11
-176.890153644828
 21
81.562875864948
  0
LINE
  5
246
100
AcDbEntity
  8
1
  6
CONTINUOUS
 62
           2
100
AcDbLine
 10
-176.890153644828
 20
81.562875864948
 11
-177.340153644828
 21
81.262875864948
  0
LINE
  5
245
100
AcDbEntity
  8
1
  6
CONTINUOUS
 62
           2
100
AcDbLine
 10
-177.340153644828
 20
81.262875864948
 11
-177.790153644828
 21
81.112875864948
  0
LINE
  5
244
100
AcDbEntity
  8
1
  6
CONTINUOUS
 62
           2
100
AcDbLine
 10
-177.790153644828
 20
81.112875864948
 11
-178.090153644828
 21
81.112875864948
  0
LINE
  5
243
100
AcDbEntity
  8
1
  6
CONTINUOUS
 62
           2
100
AcDbLine
 10
-178.090153644828
 20
81.112875864948
 11
-178.540153644828
 21
81.262875864948
  0
LINE
  5
242
100
AcDbEntity
  8
1
  6
CONTINUOUS
 62
           2
100
AcDbLine
 10
-178.540153644828
 20
81.262875864948
 11
-178.990153644828
 21
81.562875864948
  0
LINE
  5
241
100
AcDbEntity
  8
1
  6
CONTINUOUS
 62
           2
100
AcDbLine
 10
-178.990153644828
 20
81.562875864948
 11
-179.290153644828
 21
81.862875864948
  0
LINE
  5
240
100
AcDbEntity
  8
1
  6
CONTINUOUS
 62
           2
100
AcDbLine
 10
-179.290153644828
 20
81.862875864948
 11
-179.590153644828
 21
82.462875864948
  0
LINE
  5
23F
100
AcDbEntity
  8
1
  6
CONTINUOUS
 62
           2
100
AcDbLine
 10
-179.590153644828
 20
82.462875864948
 11
-179.740153644828
 21
83.362875864948
  0
LINE
  5
23E
100
AcDbEntity
  8
1
  6
CONTINUOUS
 62
           2
100
AcDbLine
 10
-179.740153644828
 20
83.362875864948
 11
-179.740153644828
 21
84.862875864948
  0
LINE
  5
23D
100
AcDbEntity
  8
1
  6
CONTINUOUS
 62
           2
100
AcDbLine
 10
-179.740153644828
 20
84.862875864948
 11
-179.590153644828
 21
85.762875864948
  0
LINE
  5
23C
100
AcDbEntity
  8
1
  6
CONTINUOUS
 62
           2
100
AcDbLine
 10
-179.590153644828
 20
85.762875864948
 11
-179.290153644828
 21
86.362875864948
  0
LINE
  5
23B
100
AcDbEntity
  8
1
  6
CONTINUOUS
 62
           2
100
AcDbLine
 10
-179.290153644828
 20
86.362875864948
 11
-178.990153644828
 21
86.662875864948
  0
LINE
  5
23A
100
AcDbEntity
  8
1
  6
CONTINUOUS
 62
           2
100
AcDbLine
 10
-178.990153644828
 20
86.662875864948
 11
-178.540153644828
 21
86.962875864948
  0
LINE
  5
239
100
AcDbEntity
  8
1
  6
CONTINUOUS
 62
           2
100
AcDbLine
 10
-178.540153644828
 20
86.962875864948
 11
-178.090153644828
 21
87.112875864948
  0
LINE
  5
238
100
AcDbEntity
  8
1
  6
CONTINUOUS
 62
           2
100
AcDbLine
 10
-178.090153644828
 20
87.112875864948
 11
-177.790153644828
 21
87.112875864948
  0
LINE
  5
237
100
AcDbEntity
  8
1
  6
CONTINUOUS
 62
           2
100
AcDbLine
 10
-177.790153644828
 20
87.112875864948
 11
-177.340153644828
 21
86.962875864948
  0
LINE
  5
236
100
AcDbEntity
  8
1
  6
CONTINUOUS
 62
           2
100
AcDbLine
 10
-177.340153644828
 20
86.962875864948
 11
-176.890153644828
 21
86.662875864948
  0
LINE
  5
235
100
AcDbEntity
  8
1
  6
CONTINUOUS
 62
           2
100
AcDbLine
 10
-176.890153644828
 20
86.662875864948
 11
-176.590153644828
 21
86.362875864948
  0
LINE
  5
234
100
AcDbEntity
  8
1
  6
CONTINUOUS
 62
           2
100
AcDbLine
 10
-176.590153644828
 20
86.362875864948
 11
-176.290153644828
 21
85.762875864948
  0
LINE
  5
233
100
AcDbEntity
  8
1
  6
CONTINUOUS
 62
           2
100
AcDbLine
 10
-176.290153644828
 20
85.762875864948
 11
-176.140153644828
 21
84.862875864948
  0
LINE
  5
232
100
AcDbEntity
  8
1
  6
CONTINUOUS
 62
           2
100
AcDbLine
 10
-176.140153644828
 20
84.862875864948
 11
-176.140153644828
 21
83.362875864948
  0
LINE
  5
231
100
AcDbEntity
  8
1
  6
CONTINUOUS
 62
           2
100
AcDbLine
 10
-170.740153644828
 20
83.362875864948
 11
-170.890153644828
 21
82.462875864948
  0
LINE
  5
230
100
AcDbEntity
  8
1
  6
CONTINUOUS
 62
           2
100
AcDbLine
 10
-170.890153644828
 20
82.462875864948
 11
-171.190153644828
 21
81.862875864948
  0
LINE
  5
22F
100
AcDbEntity
  8
1
  6
CONTINUOUS
 62
           2
100
AcDbLine
 10
-171.190153644828
 20
81.862875864948
 11
-171.490153644828
 21
81.562875864948
  0
LINE
  5
22E
100
AcDbEntity
  8
1
  6
CONTINUOUS
 62
           2
100
AcDbLine
 10
-171.490153644828
 20
81.562875864948
 11
-171.940153644828
 21
81.262875864948
  0
LINE
  5
22D
100
AcDbEntity
  8
1
  6
CONTINUOUS
 62
           2
100
AcDbLine
 10
-171.940153644828
 20
81.262875864948
 11
-172.390153644828
 21
81.112875864948
  0
LINE
  5
22C
100
AcDbEntity
  8
1
  6
CONTINUOUS
 62
           2
100
AcDbLine
 10
-172.390153644828
 20
81.112875864948
 11
-172.690153644828
 21
81.112875864948
  0
LINE
  5
22B
100
AcDbEntity
  8
1
  6
CONTINUOUS
 62
           2
100
AcDbLine
 10
-172.690153644828
 20
81.112875864948
 11
-173.140153644828
 21
81.262875864948
  0
LINE
  5
22A
100
AcDbEntity
  8
1
  6
CONTINUOUS
 62
           2
100
AcDbLine
 10
-173.140153644828
 20
81.262875864948
 11
-173.590153644828
 21
81.562875864948
  0
LINE
  5
229
100
AcDbEntity
  8
1
  6
CONTINUOUS
 62
           2
100
AcDbLine
 10
-173.590153644828
 20
81.562875864948
 11
-173.890153644828
 21
81.862875864948
  0
LINE
  5
228
100
AcDbEntity
  8
1
  6
CONTINUOUS
 62
           2
100
AcDbLine
 10
-173.890153644828
 20
81.862875864948
 11
-174.190153644828
 21
82.462875864948
  0
LINE
  5
227
100
AcDbEntity
  8
1
  6
CONTINUOUS
 62
           2
100
AcDbLine
 10
-174.190153644828
 20
82.462875864948
 11
-174.340153644828
 21
83.362875864948
  0
LINE
  5
226
100
AcDbEntity
  8
1
  6
CONTINUOUS
 62
           2
100
AcDbLine
 10
-174.340153644828
 20
83.362875864948
 11
-174.340153644828
 21
84.862875864948
  0
LINE
  5
225
100
AcDbEntity
  8
1
  6
CONTINUOUS
 62
           2
100
AcDbLine
 10
-174.340153644828
 20
84.862875864948
 11
-174.190153644828
 21
85.762875864948
  0
LINE
  5
224
100
AcDbEntity
  8
1
  6
CONTINUOUS
 62
           2
100
AcDbLine
 10
-174.190153644828
 20
85.762875864948
 11
-173.890153644828
 21
86.362875864948
  0
LINE
  5
223
100
AcDbEntity
  8
1
  6
CONTINUOUS
 62
           2
100
AcDbLine
 10
-173.890153644828
 20
86.362875864948
 11
-173.590153644828
 21
86.662875864948
  0
LINE
  5
222
100
AcDbEntity
  8
1
  6
CONTINUOUS
 62
           2
100
AcDbLine
 10
-173.590153644828
 20
86.662875864948
 11
-173.140153644828
 21
86.962875864948
  0
LINE
  5
221
100
AcDbEntity
  8
1
  6
CONTINUOUS
 62
           2
100
AcDbLine
 10
-173.140153644828
 20
86.962875864948
 11
-172.690153644828
 21
87.112875864948
  0
LINE
  5
220
100
AcDbEntity
  8
1
  6
CONTINUOUS
 62
           2
100
AcDbLine
 10
-172.690153644828
 20
87.112875864948
 11
-172.390153644828
 21
87.112875864948
  0
LINE
  5
21F
100
AcDbEntity
  8
1
  6
CONTINUOUS
 62
           2
100
AcDbLine
 10
-172.390153644828
 20
87.112875864948
 11
-171.940153644828
 21
86.962875864948
  0
LINE
  5
21E
100
AcDbEntity
  8
1
  6
CONTINUOUS
 62
           2
100
AcDbLine
 10
-171.940153644828
 20
86.962875864948
 11
-171.490153644828
 21
86.662875864948
  0
LINE
  5
21D
100
AcDbEntity
  8
1
  6
CONTINUOUS
 62
           2
100
AcDbLine
 10
-171.490153644828
 20
86.662875864948
 11
-171.190153644828
 21
86.362875864948
  0
LINE
  5
21C
100
AcDbEntity
  8
1
  6
CONTINUOUS
 62
           2
100
AcDbLine
 10
-171.190153644828
 20
86.362875864948
 11
-170.890153644828
 21
85.762875864948
  0
LINE
  5
21B
100
AcDbEntity
  8
1
  6
CONTINUOUS
 62
           2
100
AcDbLine
 10
-170.890153644828
 20
85.762875864948
 11
-170.740153644828
 21
84.862875864948
  0
LINE
  5
21A
100
AcDbEntity
  8
1
  6
CONTINUOUS
 62
           2
100
AcDbLine
 10
-170.740153644828
 20
84.862875864948
 11
-170.740153644828
 21
83.362875864948
  0
LINE
  5
219
100
AcDbEntity
  8
1
  6
CONTINUOUS
 62
           2
100
AcDbLine
 10
-168.940153644828
 20
84.412875864948
 11
-166.540153644828
 21
84.412875864948
  0
LINE
  5
218
100
AcDbEntity
  8
1
  6
CONTINUOUS
 62
           2
100
AcDbLine
 10
-166.540153644828
 20
84.412875864948
 11
-166.240153644828
 21
84.412875864948
  0
LINE
  5
217
100
AcDbEntity
  8
1
  6
CONTINUOUS
 62
           2
100
AcDbLine
 10
-166.240153644828
 20
84.412875864948
 11
-165.640153644828
 21
84.112875864948
  0
LINE
  5
216
100
AcDbEntity
  8
1
  6
CONTINUOUS
 62
           2
100
AcDbLine
 10
-165.640153644828
 20
84.112875864948
 11
-165.340153644828
 21
83.812875864948
  0
LINE
  5
215
100
AcDbEntity
  8
1
  6
CONTINUOUS
 62
           2
100
AcDbLine
 10
-165.340153644828
 20
83.812875864948
 11
-165.040153644828
 21
83.062875864948
  0
LINE
  5
214
100
AcDbEntity
  8
1
  6
CONTINUOUS
 62
           2
100
AcDbLine
 10
-165.040153644828
 20
83.062875864948
 11
-165.040153644828
 21
82.312875864948
  0
LINE
  5
213
100
AcDbEntity
  8
1
  6
CONTINUOUS
 62
           2
100
AcDbLine
 10
-165.040153644828
 20
82.312875864948
 11
-165.340153644828
 21
81.712875864948
  0
LINE
  5
212
100
AcDbEntity
  8
1
  6
CONTINUOUS
 62
           2
100
AcDbLine
 10
-165.340153644828
 20
81.712875864948
 11
-165.640153644828
 21
81.412875864948
  0
LINE
  5
211
100
AcDbEntity
  8
1
  6
CONTINUOUS
 62
           2
100
AcDbLine
 10
-165.640153644828
 20
81.412875864948
 11
-166.240153644828
 21
81.112875864948
  0
LINE
  5
210
100
AcDbEntity
  8
1
  6
CONTINUOUS
 62
           2
100
AcDbLine
 10
-166.240153644828
 20
81.112875864948
 11
-168.940153644828
 21
81.112875864948
  0
LINE
  5
20F
100
AcDbEntity
  8
1
  6
CONTINUOUS
 62
           2
100
AcDbLine
 10
-168.940153644828
 20
81.112875864948
 11
-168.940153644828
 21
84.412875864948
  0
LINE
  5
20E
100
AcDbEntity
  8
1
  6
CONTINUOUS
 62
           2
100
AcDbLine
 10
-168.940153644828
 20
87.112875864948
 11
-166.690153644828
 21
87.112875864948
  0
LINE
  5
20D
100
AcDbEntity
  8
1
  6
CONTINUOUS
 62
           2
100
AcDbLine
 10
-166.690153644828
 20
87.112875864948
 11
-165.940153644828
 21
86.962875864948
  0
LINE
  5
20C
100
AcDbEntity
  8
1
  6
CONTINUOUS
 62
           2
100
AcDbLine
 10
-165.940153644828
 20
86.962875864948
 11
-165.490153644828
 21
86.512875864948
  0
LINE
  5
20B
100
AcDbEntity
  8
1
  6
CONTINUOUS
 62
           2
100
AcDbLine
 10
-165.490153644828
 20
86.512875864948
 11
-165.340153644828
 21
85.912875864948
  0
LINE
  5
20A
100
AcDbEntity
  8
1
  6
CONTINUOUS
 62
           2
100
AcDbLine
 10
-165.340153644828
 20
85.912875864948
 11
-165.340153644828
 21
85.462875864948
  0
LINE
  5
209
100
AcDbEntity
  8
1
  6
CONTINUOUS
 62
           2
100
AcDbLine
 10
-165.340153644828
 20
85.462875864948
 11
-165.640153644828
 21
84.862875864948
  0
LINE
  5
208
100
AcDbEntity
  8
1
  6
CONTINUOUS
 62
           2
100
AcDbLine
 10
-165.640153644828
 20
84.862875864948
 11
-166.090153644828
 21
84.562875864948
  0
LINE
  5
207
100
AcDbEntity
  8
1
  6
CONTINUOUS
 62
           2
100
AcDbLine
 10
-166.090153644828
 20
84.562875864948
 11
-166.540153644828
 21
84.412875864948
  0
LINE
  5
206
100
AcDbEntity
  8
1
  6
CONTINUOUS
 62
           2
100
AcDbLine
 10
-168.940153644828
 20
84.412875864948
 11
-168.940153644828
 21
87.112875864948
  0
LINE
  5
205
100
AcDbEntity
  8
1
  6
CONTINUOUS
 62
           2
100
AcDbLine
 10
-163.240153644828
 20
83.212875864948
 11
-160.240153644828
 21
83.212875864948
  0
LINE
  5
204
100
AcDbEntity
  8
1
  6
CONTINUOUS
 62
           2
100
AcDbLine
 10
-158.440153644828
 20
85.312875864948
 11
-156.640153644828
 21
87.112875864948
  0
LINE
  5
203
100
AcDbEntity
  8
1
  6
CONTINUOUS
 62
           2
100
AcDbLine
 10
-156.640153644828
 20
87.112875864948
 11
-156.640153644828
 21
81.112875864948
  0
LINE
  5
202
100
AcDbEntity
  8
1
  6
CONTINUOUS
 62
           2
100
AcDbLine
 10
-151.240153644828
 20
83.362875864948
 11
-151.390153644828
 21
82.462875864948
  0
LINE
  5
201
100
AcDbEntity
  8
1
  6
CONTINUOUS
 62
           2
100
AcDbLine
 10
-151.390153644828
 20
82.462875864948
 11
-151.690153644828
 21
81.862875864948
  0
LINE
  5
200
100
AcDbEntity
  8
1
  6
CONTINUOUS
 62
           2
100
AcDbLine
 10
-151.690153644828
 20
81.862875864948
 11
-151.990153644828
 21
81.562875864948
  0
LINE
  5
1FF
100
AcDbEntity
  8
1
  6
CONTINUOUS
 62
           2
100
AcDbLine
 10
-151.990153644828
 20
81.562875864948
 11
-152.440153644828
 21
81.262875864948
  0
LINE
  5
1FE
100
AcDbEntity
  8
1
  6
CONTINUOUS
 62
           2
100
AcDbLine
 10
-152.440153644828
 20
81.262875864948
 11
-152.890153644828
 21
81.112875864948
  0
LINE
  5
1FD
100
AcDbEntity
  8
1
  6
CONTINUOUS
 62
           2
100
AcDbLine
 10
-152.890153644828
 20
81.112875864948
 11
-153.190153644828
 21
81.112875864948
  0
LINE
  5
1FC
100
AcDbEntity
  8
1
  6
CONTINUOUS
 62
           2
100
AcDbLine
 10
-153.190153644828
 20
81.112875864948
 11
-153.640153644828
 21
81.262875864948
  0
LINE
  5
1FB
100
AcDbEntity
  8
1
  6
CONTINUOUS
 62
           2
100
AcDbLine
 10
-153.640153644828
 20
81.262875864948
 11
-154.090153644828
 21
81.562875864948
  0
LINE
  5
1FA
100
AcDbEntity
  8
1
  6
CONTINUOUS
 62
           2
100
AcDbLine
 10
-154.090153644828
 20
81.562875864948
 11
-154.390153644828
 21
81.862875864948
  0
LINE
  5
1F9
100
AcDbEntity
  8
1
  6
CONTINUOUS
 62
           2
100
AcDbLine
 10
-154.390153644828
 20
81.862875864948
 11
-154.690153644828
 21
82.462875864948
  0
LINE
  5
1F8
100
AcDbEntity
  8
1
  6
CONTINUOUS
 62
           2
100
AcDbLine
 10
-154.690153644828
 20
82.462875864948
 11
-154.840153644828
 21
83.362875864948
  0
LINE
  5
1F7
100
AcDbEntity
  8
1
  6
CONTINUOUS
 62
           2
100
AcDbLine
 10
-154.840153644828
 20
83.362875864948
 11
-154.840153644828
 21
84.862875864948
  0
LINE
  5
1F6
100
AcDbEntity
  8
1
  6
CONTINUOUS
 62
           2
100
AcDbLine
 10
-154.840153644828
 20
84.862875864948
 11
-154.690153644828
 21
85.762875864948
  0
LINE
  5
1F5
100
AcDbEntity
  8
1
  6
CONTINUOUS
 62
           2
100
AcDbLine
 10
-154.690153644828
 20
85.762875864948
 11
-154.390153644828
 21
86.362875864948
  0
LINE
  5
1F4
100
AcDbEntity
  8
1
  6
CONTINUOUS
 62
           2
100
AcDbLine
 10
-154.390153644828
 20
86.362875864948
 11
-154.090153644828
 21
86.662875864948
  0
LINE
  5
1F3
100
AcDbEntity
  8
1
  6
CONTINUOUS
 62
           2
100
AcDbLine
 10
-154.090153644828
 20
86.662875864948
 11
-153.640153644828
 21
86.962875864948
  0
LINE
  5
1F2
100
AcDbEntity
  8
1
  6
CONTINUOUS
 62
           2
100
AcDbLine
 10
-153.640153644828
 20
86.962875864948
 11
-153.190153644828
 21
87.112875864948
  0
LINE
  5
1F1
100
AcDbEntity
  8
1
  6
CONTINUOUS
 62
           2
100
AcDbLine
 10
-153.190153644828
 20
87.112875864948
 11
-152.890153644828
 21
87.112875864948
  0
LINE
  5
1F0
100
AcDbEntity
  8
1
  6
CONTINUOUS
 62
           2
100
AcDbLine
 10
-152.890153644828
 20
87.112875864948
 11
-152.440153644828
 21
86.962875864948
  0
LINE
  5
1EF
100
AcDbEntity
  8
1
  6
CONTINUOUS
 62
           2
100
AcDbLine
 10
-152.440153644828
 20
86.962875864948
 11
-151.990153644828
 21
86.662875864948
  0
LINE
  5
1EE
100
AcDbEntity
  8
1
  6
CONTINUOUS
 62
           2
100
AcDbLine
 10
-151.990153644828
 20
86.662875864948
 11
-151.690153644828
 21
86.362875864948
  0
LINE
  5
1ED
100
AcDbEntity
  8
1
  6
CONTINUOUS
 62
           2
100
AcDbLine
 10
-151.690153644828
 20
86.362875864948
 11
-151.390153644828
 21
85.762875864948
  0
LINE
  5
1EC
100
AcDbEntity
  8
1
  6
CONTINUOUS
 62
           2
100
AcDbLine
 10
-151.390153644828
 20
85.762875864948
 11
-151.240153644828
 21
84.862875864948
  0
LINE
  5
1EB
100
AcDbEntity
  8
1
  6
CONTINUOUS
 62
           2
100
AcDbLine
 10
-151.240153644828
 20
84.862875864948
 11
-151.240153644828
 21
83.362875864948
  0
LINE
  5
1EA
100
AcDbEntity
  8
1
  6
CONTINUOUS
 62
           2
100
AcDbLine
 10
-145.240153644828
 20
85.312875864948
 11
-145.240153644828
 21
82.912875864948
  0
LINE
  5
1E9
100
AcDbEntity
  8
1
  6
CONTINUOUS
 62
           2
100
AcDbLine
 10
-145.240153644828
 20
82.912875864948
 11
-145.390153644828
 21
82.312875864948
  0
LINE
  5
1E8
100
AcDbEntity
  8
1
  6
CONTINUOUS
 62
           2
100
AcDbLine
 10
-145.390153644828
 20
82.312875864948
 11
-145.690153644828
 21
81.862875864948
  0
LINE
  5
1E7
100
AcDbEntity
  8
1
  6
CONTINUOUS
 62
           2
100
AcDbLine
 10
-145.690153644828
 20
81.862875864948
 11
-145.990153644828
 21
81.562875864948
  0
LINE
  5
1E6
100
AcDbEntity
  8
1
  6
CONTINUOUS
 62
           2
100
AcDbLine
 10
-145.990153644828
 20
81.562875864948
 11
-146.440153644828
 21
81.262875864948
  0
LINE
  5
1E5
100
AcDbEntity
  8
1
  6
CONTINUOUS
 62
           2
100
AcDbLine
 10
-146.440153644828
 20
81.262875864948
 11
-147.040153644828
 21
81.112875864948
  0
LINE
  5
1E4
100
AcDbEntity
  8
1
  6
CONTINUOUS
 62
           2
100
AcDbLine
 10
-147.040153644828
 20
81.112875864948
 11
-149.440153644828
 21
81.112875864948
  0
LINE
  5
1E3
100
AcDbEntity
  8
1
  6
CONTINUOUS
 62
           2
100
AcDbLine
 10
-149.440153644828
 20
81.112875864948
 11
-149.440153644828
 21
87.112875864948
  0
LINE
  5
1E2
100
AcDbEntity
  8
1
  6
CONTINUOUS
 62
           2
100
AcDbLine
 10
-149.440153644828
 20
87.112875864948
 11
-147.040153644828
 21
87.112875864948
  0
LINE
  5
1E1
100
AcDbEntity
  8
1
  6
CONTINUOUS
 62
           2
100
AcDbLine
 10
-147.040153644828
 20
87.112875864948
 11
-146.440153644828
 21
86.962875864948
  0
LINE
  5
1E0
100
AcDbEntity
  8
1
  6
CONTINUOUS
 62
           2
100
AcDbLine
 10
-146.440153644828
 20
86.962875864948
 11
-145.990153644828
 21
86.662875864948
  0
LINE
  5
1DF
100
AcDbEntity
  8
1
  6
CONTINUOUS
 62
           2
100
AcDbLine
 10
-145.990153644828
 20
86.662875864948
 11
-145.690153644828
 21
86.362875864948
  0
LINE
  5
1DE
100
AcDbEntity
  8
1
  6
CONTINUOUS
 62
           2
100
AcDbLine
 10
-145.690153644828
 20
86.362875864948
 11
-145.390153644828
 21
85.912875864948
  0
LINE
  5
1DD
100
AcDbEntity
  8
1
  6
CONTINUOUS
 62
           2
100
AcDbLine
 10
-145.390153644828
 20
85.912875864948
 11
-145.240153644828
 21
85.312875864948
  0
INSERT
  5
33
100
AcDbEntity
  8
0
100
AcDbBlockReference
  2
AMF500B_10DDATA
 10
0.0
 20
0.0
  0
ENDSEC
  0
SECTION
  2
OBJECTS
  0
DICTIONARY
  5
19
100
AcDbDictionary
  3
ACAD_GROUP
350
1A
  3
ACAD_MLINESTYLE
350
1B
  0
DICTIONARY
  5
1A
102
{ACAD_REACTORS
330
19
102
}
100
AcDbDictionary
  0
DICTIONARY
  5
1B
102
{ACAD_REACTORS
330
19
102
}
100
AcDbDictionary
  3
STANDARD
350
1C
  0
MLINESTYLE
  5
1C
102
{ACAD_REACTORS
330
1B
102
}
100
AcDbMlineStyle
  2
STANDARD
 70
           0
  3

 62
           0
 51
90.0
 52
90.0
 71
           2
 49
0.5
 62
         256
  6
BYLAYER
 49
-0.5
 62
         256
  6
BYLAYER
  0
ENDSEC
  0
EOF
