  0
SECTION
  2
HEADER
  9
$ACADVER
  1
AC1014
  9
$ACADMAINTVER
 70
           0
  9
$DWGCODEPAGE
  3
DOS932
  9
$INSBASE
 10
0.0
 20
0.0
 30
0.0
  9
$EXTMIN
 10
1.000000000000E+20
 20
1.000000000000E+20
 30
1.000000000000E+20
  9
$EXTMAX
 10
-1.000000000000E+20
 20
-1.000000000000E+20
 30
-1.000000000000E+20
  9
$LIMMIN
 10
0.0
 20
0.0
  9
$LIMMAX
 10
0.0
 20
0.0
  9
$ORTHOMODE
 70
           0
  9
$REGENMODE
 70
           1
  9
$FILLMODE
 70
           1
  9
$QTEXTMODE
 70
           0
  9
$MIRRTEXT
 70
           1
  9
$DRAGMODE
 70
           2
  9
$LTSCALE
 40
1.0
  9
$OSMODE
 70
           0
  9
$ATTMODE
 70
           1
  9
$TEXTSIZE
 40
0.2
  9
$TRACEWID
 40
0.05
  9
$TEXTSTYLE
  7
STANDARD
  9
$CLAYER
  8
0
  9
$CELTYPE
  6
CONTINUOUS
  9
$CECOLOR
 62
         256
  9
$CELTSCALE
 40
1.0
  9
$DELOBJ
 70
           1
  9
$DISPSILH
 70
           0
  9
$DIMSCALE
 40
1.0
  9
$DIMASZ
 40
0.18
  9
$DIMEXO
 40
0.0625
  9
$DIMDLI
 40
0.38
  9
$DIMRND
 40
0.0
  9
$DIMDLE
 40
0.0
  9
$DIMEXE
 40
0.18
  9
$DIMTP
 40
0.0
  9
$DIMTM
 40
0.0
  9
$DIMTXT
 40
0.18
  9
$DIMCEN
 40
0.09
  9
$DIMTSZ
 40
0.0
  9
$DIMTOL
 70
           0
  9
$DIMLIM
 70
           0
  9
$DIMTIH
 70
           1
  9
$DIMTOH
 70
           1
  9
$DIMSE1
 70
           0
  9
$DIMSE2
 70
           0
  9
$DIMTAD
 70
           0
  9
$DIMZIN
 70
           0
  9
$DIMBLK
  1

  9
$DIMASO
 70
           1
  9
$DIMSHO
 70
           1
  9
$DIMPOST
  1

  9
$DIMAPOST
  1

  9
$DIMALT
 70
           0
  9
$DIMALTD
 70
           2
  9
$DIMALTF
 40
25.4
  9
$DIMLFAC
 40
1.0
  9
$DIMTOFL
 70
           0
  9
$DIMTVP
 40
0.0
  9
$DIMTIX
 70
           0
  9
$DIMSOXD
 70
           0
  9
$DIMSAH
 70
           0
  9
$DIMBLK1
  1

  9
$DIMBLK2
  1

  9
$DIMSTYLE
  2
STANDARD
  9
$DIMCLRD
 70
           0
  9
$DIMCLRE
 70
           0
  9
$DIMCLRT
 70
           0
  9
$DIMTFAC
 40
1.0
  9
$DIMGAP
 40
0.09
  9
$DIMJUST
 70
           0
  9
$DIMSD1
 70
           0
  9
$DIMSD2
 70
           0
  9
$DIMTOLJ
 70
           1
  9
$DIMTZIN
 70
           0
  9
$DIMALTZ
 70
           0
  9
$DIMALTTZ
 70
           0
  9
$DIMFIT
 70
           3
  9
$DIMUPT
 70
           0
  9
$DIMUNIT
 70
           2
  9
$DIMDEC
 70
           4
  9
$DIMTDEC
 70
           4
  9
$DIMALTU
 70
           2
  9
$DIMALTTD
 70
           2
  9
$DIMTXSTY
  7
STANDARD
  9
$DIMAUNIT
 70
           0
  9
$LUNITS
 70
           2
  9
$LUPREC
 70
           4
  9
$SKETCHINC
 40
0.1
  9
$FILLETRAD
 40
0.0
  9
$AUNITS
 70
           0
  9
$AUPREC
 70
           0
  9
$MENU
  1
acad
  9
$ELEVATION
 40
0.0
  9
$PELEVATION
 40
0.0
  9
$THICKNESS
 40
0.0
  9
$LIMCHECK
 70
           0
  9
$BLIPMODE
 70
           1
  9
$CHAMFERA
 40
0.0
  9
$CHAMFERB
 40
0.0
  9
$CHAMFERC
 40
0.0
  9
$CHAMFERD
 40
0.0
  9
$SKPOLY
 70
           0
  9
$TDCREATE
 40
0.000000000
  9
$TDUPDATE
 40
0.000000000
  9
$TDINDWG
 40
0.0000000000
  9
$TDUSRTIMER
 40
0.0000000000
  9
$USRTIMER
 70
           1
  9
$ANGBASE
 50
0.0
  9
$ANGDIR
 70
           0
  9
$PDMODE
 70
           0
  9
$PDSIZE
 40
0.0
  9
$PLINEWID
 40
0.0
  9
$COORDS
 70
           0
  9
$SPLFRAME
 70
           0
  9
$SPLINETYPE
 70
           6
  9
$SPLINESEGS
 70
           8
  9
$ATTDIA
 70
           0
  9
$ATTREQ
 70
           1
  9
$HANDLING
 70
           1
  9
$HANDSEED
  5
12B
  9
$SURFTAB1
 70
           6
  9
$SURFTAB2
 70
           6
  9
$SURFTYPE
 70
           6
  9
$SURFU
 70
           6
  9
$SURFV
 70
           6
  9
$UCSNAME
  2

  9
$UCSORG
 10
0.0
 20
0.0
 30
0.0
  9
$UCSXDIR
 10
1.0
 20
0.0
 30
0.0
  9
$UCSYDIR
 10
0.0
 20
1.0
 30
0.0
  9
$PUCSNAME
  2

  9
$PUCSORG
 10
0.0
 20
0.0
 30
0.0
  9
$PUCSXDIR
 10
1.0
 20
0.0
 30
0.0
  9
$PUCSYDIR
 10
0.0
 20
1.0
 30
0.0
  9
$USERI1
 70
           0
  9
$USERI2
 70
           0
  9
$USERI3
 70
           0
  9
$USERI4
 70
           0
  9
$USERI5
 70
           0
  9
$USERR1
 40
0.0
  9
$USERR2
 40
0.0
  9
$USERR3
 40
0.0
  9
$USERR4
 40
0.0
  9
$USERR5
 40
0.0
  9
$WORLDVIEW
 70
           1
  9
$SHADEDGE
 70
           3
  9
$SHADEDIF
 70
          70
  9
$TILEMODE
 70
           1
  9
$MAXACTVP
 70
          16
  9
$PINSBASE
 10
0.0
 20
0.0
 30
0.0
  9
$PLIMCHECK
 70
           0
  9
$PEXTMIN
 10
1.000000000000E+20
 20
1.000000000000E+20
 30
1.000000000000E+20
  9
$PEXTMAX
 10
-1.000000000000E+20
 20
-1.000000000000E+20
 30
-1.000000000000E+20
  9
$PLIMMIN
 10
0.0
 20
0.0
  9
$PLIMMAX
 10
12.0
 20
9.0
  9
$UNITMODE
 70
           0
  9
$VISRETAIN
 70
           0
  9
$PLINEGEN
 70
           1
  9
$PSLTSCALE
 70
           0
  9
$TREEDEPTH
 70
        3020
  9
$PICKSTYLE
 70
           1
  9
$CMLSTYLE
  2
STANDARD
  9
$CMLJUST
 70
           0
  9
$CMLSCALE
 40
1.0
  9
$PROXYGRAPHICS
 70
           0
  9
$MEASUREMENT
 70
           0
  0
ENDSEC
  0
SECTION
  2
CLASSES
  0
CLASS
  1
LWPOLYLINE
  2
AcDbPolyline
  3
"AutoCAD"
 90
        0
280
           0
281
           1
  0
CLASS
  1
IMAGE
  2
AcDbRasterImage
  3
ISM
 90
      127
280
           0
281
           1
  0
CLASS
  1
OLE2FRAME
  2
AcDbOle2Frame
  3
""
 90
        0
280
           0
281
           1
  0
CLASS
  1
HATCH
  2
AcDbHatch
  3
"ACAD_SEDONA"
 90
        0
280
           0
281
           1
  0
CLASS
  1
DICTIONARYVAR
  2
AcDbDictionaryVar
  3
"AutoCAD"
 90
        0
280
           0
281
           0
  0
CLASS
  1
RASTERVARIABLES
  2
AcDbRasterVariables
  3
ISM
 90
        0
280
           0
281
           0
  0
CLASS
  1
IMAGEDEF
  2
AcDbRasterImageDef
  3
ISM
 90
        0
280
           0
281
           0
  0
CLASS
  1
IMAGEDEF_REACTOR
  2
AcDbRasterImageDefReactor
  3
ISM
 90
        1
280
           0
281
           0
  0
CLASS
  1
IDBUFFER
  2
AcDbIdBuffer
  3
"Acad"
 90
        0
280
           0
281
           0
  0
CLASS
  1
SPATIAL_FILTER
  2
AcDbSpatialFilter
  3
"Acad"
 90
        0
280
           0
281
           0
  0
CLASS
  1
XRECORD
  2
AcDbXrecord
  3
"<Built In>"
 90
        0
280
           0
281
           0
  0
CLASS
  1
SORTENTSTABLE
  2
AcDbSortentsTable
  3
"AutoCAD"
 90
        0
280
           0
281
           0
  0
CLASS
  1
LAYER_INDEX
  2
AcDbLayerIndex
  3
"Acad"
 90
        0
280
           0
281
           0
  0
CLASS
  1
SPATIAL_INDEX
  2
AcDbSpatialIndex
  3
"Acad"
 90
        0
280
           0
281
           0
  0
CLASS
  1
OBJECT_PTR
  2
CAseDLPNTableRecord
  3
"ASE-LPNTableRecord"
 90
        1
280
           0
281
           0
  0
CLASS
  1
LAYOUT
  2
AcDbLayout
  3
"AutoCAD 2000"
 90
        1
280
           0
281
           0
  0
CLASS
  1
PLOTSETTINGS
  2
AcDbPlotSettings
  3
"AutoCAD 2000"
 90
        1
280
           0
281
           0
  0
CLASS
  1
ACDBDICTIONARYWDFLT
  2
AcDbDictionaryWithDefault
  3
"AutoCAD 2000"
 90
        1
280
           0
281
           0
  0
CLASS
  1
ACDBPLACEHOLDER
  2
AcDbPlaceHolder
  3
"AutoCAD 2000"
 90
        1
280
           0
281
           0
  0
CLASS
  1
VBA_PROJECT
  2
AcDbVbaProject
  3
"acadvba"
 90
        1
280
           0
281
           0
  0
CLASS
  1
WIPEOUT
  2
AcDbWipeout
  3
WipeOut|AutoCAD Express Tool|expresstools@autodesk.com
 90
      127
280
           0
281
           1
  0
CLASS
  1
WIPEOUTVARIABLES
  2
AcDbWipeoutVariables
  3
WipeOut|AutoCAD Express Tool|expresstools@autodesk.com
 90
        0
280
           0
281
           0
  0
CLASS
  1
RTEXT
  2
RText
  3
RText|AutoCAD Express Tool|expresstools@autodesk.com
 90
        0
280
           0
281
           1
  0
CLASS
  1
ARCALIGNEDTEXT
  2
AcDbArcAlignedText
  3
ATEXT|AutoCAD Express Tool|expresstools@autodesk.com
 90
        0
280
           0
281
           1
  0
ENDSEC
  0
SECTION
  2
TABLES
  0
TABLE
  2
VPORT
  5
7
100
AcDbSymbolTable
 70
           1
  0
VPORT
  5
15
100
AcDbSymbolTableRecord
100
AcDbViewportTableRecord
  2
*ACTIVE
 70
           0
 10
0.0
 20
0.0
 11
1.0
 21
1.0
 12
6.591288
 22
4.579184
 13
0.0
 23
0.0
 14
1.0
 24
1.0
 15
0.0
 25
0.0
 16
0.0
 26
0.0
 36
1.0
 17
0.0
 27
0.0
 37
0.0
 40
9.158369
 41
0.688564
 42
50.0
 43
0.0
 44
0.0
 50
0.0
 51
0.0
 71
           0
 72
         100
 73
           1
 74
           1
 75
           0
 76
           0
 77
           0
 78
           0
  0
ENDTAB
  0
TABLE
  2
LTYPE
  5
4
100
AcDbSymbolTable
 70
          10
  0
LTYPE
  5
11
100
AcDbSymbolTableRecord
100
AcDbLinetypeTableRecord
  2
BYBLOCK
 70
          64
  3

 72
          65
 73
           0
 40
0.0
  0
LTYPE
  5
12
100
AcDbSymbolTableRecord
100
AcDbLinetypeTableRecord
  2
BYLAYER
 70
          64
  3

 72
          65
 73
           0
 40
0.0
  0
LTYPE
  5
13
100
AcDbSymbolTableRecord
100
AcDbLinetypeTableRecord
  2
CONTINUOUS
 70
          64
  3
Solid line
 72
          65
 73
           0
 40
0.0
  0
LTYPE
  5
1D
100
AcDbSymbolTableRecord
100
AcDbLinetypeTableRecord
  2
DASHED
 70
          64
  3
Dashed
 72
          65
 73
           2
 40
15.0
 49
12.0
 74
           0
 49
-3.0
 74
           0
  0
LTYPE
  5
1E
100
AcDbSymbolTableRecord
100
AcDbLinetypeTableRecord
  2
DOTTED
 70
          64
  3
Dotted
 72
          65
 73
           2
 40
3.5
 49
0.5
 74
           0
 49
-3.0
 74
           0
  0
LTYPE
  5
1F
100
AcDbSymbolTableRecord
100
AcDbLinetypeTableRecord
  2
DOT_CENTER
 70
          64
  3
Dot_Center
 72
          65
 73
           4
 40
2.0
 49
1.25
 74
           0
 49
-0.25
 74
           0
 49
0.25
 74
           0
 49
-0.25
 74
           0
  0
LTYPE
  5
20
100
AcDbSymbolTableRecord
100
AcDbLinetypeTableRecord
  2
LONG_DASHED
 70
          64
  3
Long_Dashed
 72
          65
 73
           2
 40
2.0
 49
1.5
 74
           0
 49
-0.5
 74
           0
  0
LTYPE
  5
21
100
AcDbSymbolTableRecord
100
AcDbLinetypeTableRecord
  2
DASH_CENTER
 70
          64
  3
Dash_Center
 72
          65
 73
           4
 40
36.0
 49
24.0
 74
           0
 49
-3.0
 74
           0
 49
6.0
 74
           0
 49
-3.0
 74
           0
  0
LTYPE
  5
22
100
AcDbSymbolTableRecord
100
AcDbLinetypeTableRecord
  2
PHANTOM
 70
          64
  3
Phantom
 72
          65
 73
           6
 40
2.5
 49
1.25
 74
           0
 49
-0.25
 74
           0
 49
0.25
 74
           0
 49
-0.25
 74
           0
 49
0.25
 74
           0
 49
-0.25
 74
           0
  0
LTYPE
  5
23
100
AcDbSymbolTableRecord
100
AcDbLinetypeTableRecord
  2
CENTER_DASH_DASH
 70
          64
  3
Center_Dash_Dash
 72
          65
 73
           6
 40
22.0
 49
12.0
 74
           0
 49
-3.0
 74
           0
 49
0.5
 74
           0
 49
-3.0
 74
           0
 49
0.5
 74
           0
 49
-3.0
 74
           0
  0
ENDTAB
  0
TABLE
  2
LAYER
  5
2
100
AcDbSymbolTable
 70
           6
  0
LAYER
  5
14
100
AcDbSymbolTableRecord
100
AcDbLayerTableRecord
  2
0
 70
           0
 62
           7
  6
CONTINUOUS
  0
LAYER
  5
24
100
AcDbSymbolTableRecord
100
AcDbLayerTableRecord
  2
AM_0
 70
           0
 62
           7
  6
CONTINUOUS
  0
LAYER
  5
25
100
AcDbSymbolTableRecord
100
AcDbLayerTableRecord
  2
AM_5
 70
           0
 62
           7
  6
CONTINUOUS
  0
LAYER
  5
26
100
AcDbSymbolTableRecord
100
AcDbLayerTableRecord
  2
AM_7
 70
           0
 62
           7
  6
CONTINUOUS
  0
LAYER
  5
27
100
AcDbSymbolTableRecord
100
AcDbLayerTableRecord
  2
976
 70
           0
 62
           7
  6
CONTINUOUS
  0
LAYER
  5
28
100
AcDbSymbolTableRecord
100
AcDbLayerTableRecord
  2
1
 70
           0
 62
           7
  6
CONTINUOUS
  0
ENDTAB
  0
TABLE
  2
STYLE
  5
3
100
AcDbSymbolTable
 70
           2
  0
STYLE
  5
17
100
AcDbSymbolTableRecord
100
AcDbTextStyleTableRecord
  2
STANDARD
 70
           0
 40
0.0
 41
1.0
 50
0.0
 71
           0
 42
0.0
  3
txt
  4

  0
STYLE
  5
122
100
AcDbSymbolTableRecord
100
AcDbTextStyleTableRecord
  2
CONVERTER_1
 70
           0
 40
0.0
 41
0.9
 50
0.0
 71
           0
 42
0.0
  3
txt.shx
  4

  0
ENDTAB
  0
TABLE
  2
VIEW
  5
5
100
AcDbSymbolTable
 70
           0
  0
ENDTAB
  0
TABLE
  2
UCS
  5
6
100
AcDbSymbolTable
 70
           0
  0
ENDTAB
  0
TABLE
  2
APPID
  5
8
100
AcDbSymbolTable
 70
           1
  0
APPID
  5
16
100
AcDbSymbolTableRecord
100
AcDbRegAppTableRecord
  2
ACAD
 70
           0
  0
ENDTAB
  0
TABLE
  2
DIMSTYLE
  5
9
100
AcDbSymbolTable
 70
           1
  0
DIMSTYLE
105
18
100
AcDbSymbolTableRecord
100
AcDbDimStyleTableRecord
  2
STANDARD
 70
           0
  3

  4

  5

  6

  7

 40
1.0
 41
0.18
 42
0.0625
 43
0.38
 44
0.18
 45
0.0
 46
0.0
 47
0.0
 48
0.0
 71
           0
 72
           0
 73
           1
 74
           1
 75
           0
 76
           0
 77
           0
 78
           0
140
0.18
141
0.09
142
0.0
143
25.4
144
1.0
145
0.0
146
1.0
147
0.09
170
           0
171
           2
172
           0
173
           0
174
           0
175
           0
176
           0
177
           0
178
           0
270
           2
271
           4
272
           4
273
           2
274
           2
275
           0
280
           0
281
           0
282
           0
283
           1
284
           0
285
           0
286
           0
287
           0
288
           0
340
17
  0
ENDTAB
  0
TABLE
  2
BLOCK_RECORD
  5
1
100
AcDbSymbolTable
 70
           3
  0
BLOCK_RECORD
  5
A
100
AcDbSymbolTableRecord
100
AcDbBlockTableRecord
  2
*MODEL_SPACE
  0
BLOCK_RECORD
  5
B
100
AcDbSymbolTableRecord
100
AcDbBlockTableRecord
  2
*PAPER_SPACE
  0
BLOCK_RECORD
  5
29
100
AcDbSymbolTableRecord
100
AcDbBlockTableRecord
  2
3_AFM40_02_2_A_0
  0
BLOCK_RECORD
  5
2B
100
AcDbSymbolTableRecord
100
AcDbBlockTableRecord
  2
1_AFM40_02_2_A_0
  0
BLOCK_RECORD
  5
2E
100
AcDbSymbolTableRecord
100
AcDbBlockTableRecord
  2
AMF500B_10DATA
  0
ENDTAB
  0
ENDSEC
  0
SECTION
  2
BLOCKS
  0
BLOCK
  5
D
100
AcDbEntity
  8
0
100
AcDbBlockBegin
  2
*MODEL_SPACE
 70
           0
 10
0.0
 20
0.0
 30
0.0
  3
*MODEL_SPACE
  1

  0
ENDBLK
  5
E
100
AcDbEntity
  8
0
100
AcDbBlockEnd
  0
BLOCK
  5
F
100
AcDbEntity
 67
           1
  8
0
100
AcDbBlockBegin
  2
*PAPER_SPACE
 70
           0
 10
0.0
 20
0.0
 30
0.0
  3
*PAPER_SPACE
  1

  0
ENDBLK
  5
10
100
AcDbEntity
 67
           1
  8
0
100
AcDbBlockEnd
  0
BLOCK
  5
2A
100
AcDbEntity
  8
0
100
AcDbBlockBegin
  2
3_AFM40_02_2_A_0
 70
           0
 10
0.0
 20
0.0
 30
0.0
  3
3_AFM40_02_2_A_0
  1

  0
TEXT
  5
124
100
AcDbEntity
  8
1
 62
           2
100
AcDbText
 10
-532.361822043237
 20
215.986665898795
 40
7.0
  1
OUT
 41
0.9
  7
CONVERTER_1
100
AcDbText
  0
TEXT
  5
123
100
AcDbEntity
  8
1
 62
           2
100
AcDbText
 10
-619.395068003771
 20
216.38086913556
 40
7.0
  1
IN
 41
0.9
  7
CONVERTER_1
100
AcDbText
  0
LEADER
  5
121
100
AcDbEntity
  8
976
  6
CONTINUOUS
 62
           2
100
AcDbLeader
  3
Standard
 71
           0
 73
           3
 74
           0
 75
           0
 40
0.0
 76
           2
 10
-515.874194066419
 20
212.005833999954
 30
0.0
 10
-531.030842925714
 20
212.005833999954
 30
0.0
 77
           2
  0
LEADER
  5
11F
100
AcDbEntity
  8
976
  6
CONTINUOUS
 62
           2
100
AcDbLeader
  3
Standard
 71
           0
 73
           3
 74
           0
 75
           0
 40
0.0
 76
           2
 10
-608.888154960824
 20
212.803552360969
 30
0.0
 10
-621.492105064868
 20
212.803552360969
 30
0.0
 77
           2
  0
CIRCLE
  5
11D
100
AcDbEntity
  8
AM_5
  6
CONTINUOUS
 62
           3
100
AcDbCircle
 10
-730.654618549775
 20
208.834661942201
 40
6.5785
  0
CIRCLE
  5
11C
100
AcDbEntity
  8
AM_0
  6
CONTINUOUS
 62
           7
100
AcDbCircle
 10
-730.654618549775
 20
208.834661942201
 40
5.7225
  0
CIRCLE
  5
11B
100
AcDbEntity
  8
AM_5
  6
CONTINUOUS
 62
           3
100
AcDbCircle
 10
-409.074615192841
 20
208.834661942201
 40
6.5785
  0
CIRCLE
  5
11A
100
AcDbEntity
  8
AM_0
  6
CONTINUOUS
 62
           7
100
AcDbCircle
 10
-409.074615192841
 20
208.834661942201
 40
5.7225
  0
CIRCLE
  5
119
100
AcDbEntity
  8
AM_5
  6
CONTINUOUS
 62
           3
100
AcDbCircle
 10
-593.364616871308
 20
322.624663620668
 40
2.5
  0
CIRCLE
  5
118
100
AcDbEntity
  8
AM_5
  6
CONTINUOUS
 62
           3
100
AcDbCircle
 10
-546.364616871308
 20
322.624663620668
 40
2.5
  0
CIRCLE
  5
117
100
AcDbEntity
  8
AM_0
  6
CONTINUOUS
 62
           7
100
AcDbCircle
 10
-546.364616871308
 20
322.624663620668
 40
2.067
  0
CIRCLE
  5
116
100
AcDbEntity
  8
AM_0
  6
CONTINUOUS
 62
           7
100
AcDbCircle
 10
-593.364616871308
 20
322.624663620668
 40
2.067
  0
CIRCLE
  5
115
100
AcDbEntity
  8
AM_0
  6
CONTINUOUS
 62
           7
100
AcDbCircle
 10
-546.364616871308
 20
382.624663620668
 40
2.067
  0
CIRCLE
  5
114
100
AcDbEntity
  8
AM_0
  6
CONTINUOUS
 62
           7
100
AcDbCircle
 10
-593.364616871308
 20
382.624663620668
 40
2.067
  0
ARC
  5
113
100
AcDbEntity
  8
AM_0
  6
CONTINUOUS
 62
           7
100
AcDbCircle
 10
-712.054618549775
 20
87.928969056214
 40
10.2
100
AcDbArc
 50
-75.0
 51
0.0
  0
ARC
  5
112
100
AcDbEntity
  8
AM_0
  6
CONTINUOUS
 62
           7
100
AcDbCircle
 10
-749.254618549775
 20
87.928969056214
 40
10.2
100
AcDbArc
 50
-179.999999999994
 51
-104.999999999999
  0
ARC
  5
111
100
AcDbEntity
  8
AM_0
  6
CONTINUOUS
 62
           7
100
AcDbCircle
 10
-551.264616871308
 20
87.928969056214
 40
10.200000000001
100
AcDbArc
 50
-74.999999999999
 51
0.0
  0
ARC
  5
110
100
AcDbEntity
  8
AM_0
  6
CONTINUOUS
 62
           7
100
AcDbCircle
 10
-588.464616871308
 20
87.928969056214
 40
10.2
100
AcDbArc
 50
-179.999999999994
 51
-104.999999999999
  0
ARC
  5
10F
100
AcDbEntity
  8
AM_0
  6
CONTINUOUS
 62
           7
100
AcDbCircle
 10
-390.474615192841
 20
87.928969056214
 40
10.2
100
AcDbArc
 50
-75.000000000005
 51
0.0
  0
ARC
  5
10E
100
AcDbEntity
  8
AM_0
  6
CONTINUOUS
 62
           7
100
AcDbCircle
 10
-427.674615192841
 20
87.928969056214
 40
10.200000000001
100
AcDbArc
 50
-179.999999999994
 51
-105.000000000001
  0
ARC
  5
10D
100
AcDbEntity
  8
AM_5
  6
CONTINUOUS
 62
           3
100
AcDbCircle
 10
-593.364616871308
 20
382.624663620668
 40
2.5
100
AcDbArc
 50
14.999999999993
 51
-75.000000000002
  0
ARC
  5
10C
100
AcDbEntity
  8
AM_5
  6
CONTINUOUS
 62
           3
100
AcDbCircle
 10
-546.364616871308
 20
382.624663620668
 40
2.499999999999
100
AcDbArc
 50
14.999999999997
 51
-75.000000000007
  0
ARC
  5
10B
100
AcDbEntity
  8
AM_5
  6
CONTINUOUS
 62
           3
100
AcDbCircle
 10
-593.364616871308
 20
382.624663620668
 40
2.499999999999
100
AcDbArc
 50
74.999999999996
 51
14.999999999993
  0
ARC
  5
10A
100
AcDbEntity
  8
AM_5
  6
CONTINUOUS
 62
           3
100
AcDbCircle
 10
-546.364616871308
 20
382.624663620668
 40
2.499999999999
100
AcDbArc
 50
75.000000000001
 51
14.999999999997
  0
ARC
  5
109
100
AcDbEntity
  8
AM_0
  6
CONTINUOUS
 62
           7
100
AcDbCircle
 10
-569.864616871308
 20
352.624663620668
 40
27.0
100
AcDbArc
 50
-137.656586195935
 51
-42.343413804065
  0
ARC
  5
108
100
AcDbEntity
  8
AM_0
  6
CONTINUOUS
 62
           7
100
AcDbCircle
 10
-569.864616871308
 20
352.624663620668
 40
27.0
100
AcDbArc
 50
42.343413804063
 51
137.656586195937
  0
ARC
  5
107
100
AcDbEntity
  8
AM_0
  6
CONTINUOUS
 62
           7
100
AcDbCircle
 10
-592.27154407589
 20
323.124663620668
 40
6.0
100
AcDbArc
 50
-164.999999999992
 51
-89.999999999999
  0
ARC
  5
106
100
AcDbEntity
  8
AM_0
  6
CONTINUOUS
 62
           7
100
AcDbCircle
 10
-547.457689666727
 20
323.124663620668
 40
6.0
100
AcDbArc
 50
-90.0
 51
-14.999999999997
  0
ARC
  5
105
100
AcDbEntity
  8
AM_0
  6
CONTINUOUS
 62
           7
100
AcDbCircle
 10
-547.457689666727
 20
382.124663620668
 40
6.000000000001
100
AcDbArc
 50
14.999999999997
 51
90.0
  0
ARC
  5
104
100
AcDbEntity
  8
AM_0
  6
CONTINUOUS
 62
           7
100
AcDbCircle
 10
-592.27154407589
 20
382.124663620668
 40
6.0
100
AcDbArc
 50
90.0
 51
165.0
  0
ARC
  5
103
100
AcDbEntity
  8
AM_0
  6
CONTINUOUS
 62
           7
100
AcDbCircle
 10
-569.864616871308
 20
352.624663620668
 40
38.400000000001
100
AcDbArc
 50
-102.611754908338
 51
-77.388245091663
  0
LINE
  5
102
100
AcDbEntity
  8
1
  6
DOT_CENTER
 62
           3
100
AcDbLine
 10
-605.751011355854
 20
208.834661942201
 11
-533.709291396065
 21
208.834661942201
  0
LINE
  5
101
100
AcDbEntity
  8
AM_0
  6
CONTINUOUS
 62
           7
100
AcDbLine
 10
-712.654618549775
 20
187.634661942201
 11
-748.654618549775
 21
187.634661942201
  0
LINE
  5
100
100
AcDbEntity
  8
AM_0
  6
CONTINUOUS
 62
           7
100
AcDbLine
 10
-748.654618549775
 20
221.334661942201
 11
-748.654618549775
 21
167.534661942201
  0
LINE
  5
FF
100
AcDbEntity
  8
AM_0
  6
CONTINUOUS
 62
           7
100
AcDbLine
 10
-743.154618549775
 20
226.834661942201
 11
-718.154618549775
 21
226.834661942201
  0
LINE
  5
FE
100
AcDbEntity
  8
AM_0
  6
CONTINUOUS
 62
           7
100
AcDbLine
 10
-712.654618549775
 20
221.334661942201
 11
-712.654618549775
 21
167.534661942201
  0
LINE
  5
FD
100
AcDbEntity
  8
AM_0
  6
CONTINUOUS
 62
           7
100
AcDbLine
 10
-712.654618549775
 20
221.334661942201
 11
-718.154618549775
 21
226.834661942201
  0
LINE
  5
FC
100
AcDbEntity
  8
AM_0
  6
CONTINUOUS
 62
           7
100
AcDbLine
 10
-743.154618549775
 20
226.834661942201
 11
-748.654618549775
 21
221.334661942201
  0
LINE
  5
FB
100
AcDbEntity
  8
AM_0
  6
CONTINUOUS
 62
           7
100
AcDbLine
 10
-712.654618549775
 20
190.834661942201
 11
-748.654618549775
 21
190.834661942201
  0
LINE
  5
FA
100
AcDbEntity
  8
AM_0
  6
CONTINUOUS
 62
           7
100
AcDbLine
 10
-695.154618549775
 20
196.834661942201
 11
-695.154618549775
 21
167.534661942201
  0
LINE
  5
F9
100
AcDbEntity
  8
AM_0
  6
CONTINUOUS
 62
           7
100
AcDbLine
 10
-712.654618549775
 20
196.834661942201
 11
-695.154618549775
 21
196.834661942201
  0
LINE
  5
F8
100
AcDbEntity
  8
AM_0
  6
CONTINUOUS
 62
           7
100
AcDbLine
 10
-766.154618549775
 20
196.834661942201
 11
-766.154618549775
 21
167.534661942201
  0
LINE
  5
F7
100
AcDbEntity
  8
AM_0
  6
CONTINUOUS
 62
           7
100
AcDbLine
 10
-766.154618549775
 20
196.834661942201
 11
-748.654618549775
 21
196.834661942201
  0
LINE
  5
F6
100
AcDbEntity
  8
AM_0
  6
CONTINUOUS
 62
           7
100
AcDbLine
 10
-766.154618549775
 20
167.534661942201
 11
-695.154618549775
 21
167.534661942201
  0
LINE
  5
F5
100
AcDbEntity
  8
AM_0
  6
CONTINUOUS
 62
           7
100
AcDbLine
 10
-712.468154327817
 20
220.834661942201
 11
-712.468154327817
 21
196.834661942201
  0
LINE
  5
F4
100
AcDbEntity
  8
AM_0
  6
CONTINUOUS
 62
           7
100
AcDbLine
 10
-748.841082771733
 20
220.834661942201
 11
-748.841082771733
 21
196.834661942201
  0
LINE
  5
F3
100
AcDbEntity
  8
AM_0
  6
CONTINUOUS
 62
           7
100
AcDbLine
 10
-703.654618549775
 20
196.834661942201
 11
-703.654618549775
 21
220.834661942201
  0
LINE
  5
F2
100
AcDbEntity
  8
AM_0
  6
CONTINUOUS
 62
           7
100
AcDbLine
 10
-712.654618549775
 20
220.834661942201
 11
-703.654618549775
 21
220.834661942201
  0
LINE
  5
F1
100
AcDbEntity
  8
AM_0
  6
CONTINUOUS
 62
           7
100
AcDbLine
 10
-757.654618549775
 20
220.834661942201
 11
-748.654618549775
 21
220.834661942201
  0
LINE
  5
F0
100
AcDbEntity
  8
AM_0
  6
CONTINUOUS
 62
           7
100
AcDbLine
 10
-757.654618549775
 20
220.834661942201
 11
-757.654618549775
 21
196.834661942201
  0
LINE
  5
EF
100
AcDbEntity
  8
AM_0
  6
CONTINUOUS
 62
           7
100
AcDbLine
 10
-701.854618549775
 20
163.294661942201
 11
-701.854618549775
 21
167.534661942201
  0
LINE
  5
EE
100
AcDbEntity
  8
AM_0
  6
CONTINUOUS
 62
           7
100
AcDbLine
 10
-701.854618549775
 20
87.928969056214
 11
-701.854618549775
 21
142.784661942201
  0
LINE
  5
ED
100
AcDbEntity
  8
AM_0
  6
CONTINUOUS
 62
           7
100
AcDbLine
 10
-759.454618549775
 20
167.534661942201
 11
-759.454618549775
 21
87.928969056213
  0
LINE
  5
EC
100
AcDbEntity
  8
AM_0
  6
CONTINUOUS
 62
           7
100
AcDbLine
 10
-702.384669840943
 20
142.784661942201
 11
-702.384669840943
 21
150.284661942201
  0
LINE
  5
EB
100
AcDbEntity
  8
AM_0
  6
CONTINUOUS
 62
           7
100
AcDbLine
 10
-703.20011072319
 20
150.284661942201
 11
-703.20011072319
 21
163.294661942201
  0
LINE
  5
EA
100
AcDbEntity
  8
AM_0
  6
CONTINUOUS
 62
           7
100
AcDbLine
 10
-718.154618549775
 20
75.734661942201
 11
-743.154618549775
 21
75.734661942201
  0
LINE
  5
E9
100
AcDbEntity
  8
AM_0
  6
CONTINUOUS
 62
           7
100
AcDbLine
 10
-751.894572809821
 20
78.076525628065
 11
-743.154618549775
 21
75.734661942201
  0
LINE
  5
E8
100
AcDbEntity
  8
AM_0
  6
CONTINUOUS
 62
           7
100
AcDbLine
 10
-718.154618549775
 20
75.734661942201
 11
-709.414664289729
 21
78.076525628065
  0
LINE
  5
E7
100
AcDbEntity
  8
AM_0
  6
CONTINUOUS
 62
           7
100
AcDbLine
 10
-718.154618549775
 20
72.734661942201
 11
-743.154618549775
 21
72.734661942201
  0
LINE
  5
E6
100
AcDbEntity
  8
AM_0
  6
CONTINUOUS
 62
           7
100
AcDbLine
 10
-718.154618549775
 20
72.734661942201
 11
-718.154618549775
 21
75.734661942201
  0
LINE
  5
E5
100
AcDbEntity
  8
AM_0
  6
CONTINUOUS
 62
           7
100
AcDbLine
 10
-743.154618549775
 20
75.734661942201
 11
-743.154618549775
 21
72.734661942201
  0
LINE
  5
E4
100
AcDbEntity
  8
AM_0
  6
CONTINUOUS
 62
           7
100
AcDbLine
 10
-693.181134259403
 20
147.634661942201
 11
-693.181134259403
 21
149.034661942201
  0
LINE
  5
E3
100
AcDbEntity
  8
AM_0
  6
CONTINUOUS
 62
           7
100
AcDbLine
 10
-695.254618549775
 20
147.634661942201
 11
-695.254618549775
 21
167.534661942201
  0
LINE
  5
E2
100
AcDbEntity
  8
AM_0
  6
CONTINUOUS
 62
           7
100
AcDbLine
 10
-695.254618549775
 20
165.66959843274
 11
-696.654618549775
 21
165.66959843274
  0
LINE
  5
E1
100
AcDbEntity
  8
AM_0
  6
CONTINUOUS
 62
           7
100
AcDbLine
 10
-696.654618549775
 20
167.534661942201
 11
-696.654618549775
 21
147.634661942201
  0
LINE
  5
E0
100
AcDbEntity
  8
AM_0
  6
CONTINUOUS
 62
           7
100
AcDbLine
 10
-692.254618549775
 20
147.634661942201
 11
-696.654618549775
 21
147.634661942201
  0
LINE
  5
DF
100
AcDbEntity
  8
AM_0
  6
CONTINUOUS
 62
           7
100
AcDbLine
 10
-703.20011072319
 20
150.284661942201
 11
-696.654618549775
 21
150.284661942201
  0
LINE
  5
DE
100
AcDbEntity
  8
AM_0
  6
CONTINUOUS
 62
           7
100
AcDbLine
 10
-703.20011072319
 20
163.294661942201
 11
-696.654618549775
 21
163.294661942201
  0
LINE
  5
DD
100
AcDbEntity
  8
AM_0
  6
CONTINUOUS
 62
           7
100
AcDbLine
 10
-692.254618549775
 20
149.034661942201
 11
-695.254618549775
 21
149.034661942201
  0
LINE
  5
DC
100
AcDbEntity
  8
AM_0
  6
CONTINUOUS
 62
           7
100
AcDbLine
 10
-692.254618549775
 20
147.634661942201
 11
-692.254618549775
 21
149.034661942201
  0
LINE
  5
DB
100
AcDbEntity
  8
AM_0
  6
CONTINUOUS
 62
           7
100
AcDbLine
 10
-702.384669840943
 20
142.784661942201
 11
-696.854618549775
 21
142.784661942201
  0
LINE
  5
DA
100
AcDbEntity
  8
AM_0
  6
CONTINUOUS
 62
           7
100
AcDbLine
 10
-696.854618549775
 20
150.284661942201
 11
-696.854618549775
 21
142.784661942201
  0
LINE
  5
D9
100
AcDbEntity
  8
AM_0
  6
CONTINUOUS
 62
           7
100
AcDbLine
 10
-727.228054717237
 20
59.234661942201
 11
-727.228054717237
 21
70.234661942201
  0
LINE
  5
D8
100
AcDbEntity
  8
AM_0
  6
CONTINUOUS
 62
           7
100
AcDbLine
 10
-734.227788178686
 20
59.234661942201
 11
-734.227788178686
 21
70.234661942201
  0
LINE
  5
D7
100
AcDbEntity
  8
AM_0
  6
CONTINUOUS
 62
           7
100
AcDbLine
 10
-722.654618549775
 20
59.234661942201
 11
-738.654618549775
 21
59.234661942201
  0
LINE
  5
D6
100
AcDbEntity
  8
AM_0
  6
CONTINUOUS
 62
           7
100
AcDbLine
 10
-722.654618549775
 20
70.234661942201
 11
-738.654618549775
 21
70.234661942201
  0
LINE
  5
D5
100
AcDbEntity
  8
AM_0
  6
CONTINUOUS
 62
           7
100
AcDbLine
 10
-722.654618549775
 20
59.234661942201
 11
-722.654618549775
 21
70.234661942201
  0
LINE
  5
D4
100
AcDbEntity
  8
AM_0
  6
CONTINUOUS
 62
           7
100
AcDbLine
 10
-738.654618549775
 20
70.234661942201
 11
-738.654618549775
 21
59.234661942201
  0
LINE
  5
D3
100
AcDbEntity
  8
AM_0
  6
CONTINUOUS
 62
           7
100
AcDbLine
 10
-734.054618549775
 20
72.734661942201
 11
-734.054618549775
 21
70.234661942201
  0
LINE
  5
D2
100
AcDbEntity
  8
AM_0
  6
CONTINUOUS
 62
           7
100
AcDbLine
 10
-727.254618549775
 20
70.234661942201
 11
-727.254618549775
 21
72.734661942201
  0
LINE
  5
D1
100
AcDbEntity
  8
AM_7
  6
DOT_CENTER
 62
           3
100
AcDbLine
 10
-730.654618549775
 20
40.074955992982
 11
-730.654618549775
 21
231.46769523344
  0
LINE
  5
D0
100
AcDbEntity
  8
AM_7
  6
DOT_CENTER
 62
           3
100
AcDbLine
 10
-737.562043549775
 20
208.834661942201
 11
-723.747193549775
 21
208.834661942201
  0
LINE
  5
CF
100
AcDbEntity
  8
AM_0
  6
CONTINUOUS
 62
           7
100
AcDbLine
 10
-604.864616871308
 20
167.534661942201
 11
-577.537821952065
 21
167.534661942201
  0
LINE
  5
CE
100
AcDbEntity
  8
AM_0
  6
CONTINUOUS
 62
           7
100
AcDbLine
 10
-560.864616871308
 20
167.534661942201
 11
-562.019317409688
 21
169.534661942201
  0
LINE
  5
CD
100
AcDbEntity
  8
AM_0
  6
CONTINUOUS
 62
           7
100
AcDbLine
 10
-562.019317409688
 20
169.534661942201
 11
-577.709916332929
 21
169.534661942201
  0
LINE
  5
CC
100
AcDbEntity
  8
AM_0
  6
CONTINUOUS
 62
           7
100
AcDbLine
 10
-577.709916332929
 20
169.534661942201
 11
-578.864616871308
 21
167.534661942201
  0
LINE
  5
CB
100
AcDbEntity
  8
AM_0
  6
CONTINUOUS
 62
           7
100
AcDbLine
 10
-562.191411790551
 20
167.534661942201
 11
-534.864616871308
 21
167.534661942201
  0
LINE
  5
CA
100
AcDbEntity
  8
AM_0
  6
CONTINUOUS
 62
           7
100
AcDbLine
 10
-601.564616871308
 20
196.834661942201
 11
-538.164616871308
 21
196.834661942201
  0
LINE
  5
C9
100
AcDbEntity
  8
AM_0
  6
CONTINUOUS
 62
           7
100
AcDbLine
 10
-589.820882030487
 20
220.834661942201
 11
-589.820882030487
 21
196.834661942201
  0
LINE
  5
C8
100
AcDbEntity
  8
AM_0
  6
CONTINUOUS
 62
           7
100
AcDbLine
 10
-549.908351712129
 20
220.834661942201
 11
-549.908351712129
 21
196.834661942201
  0
LINE
  5
C7
100
AcDbEntity
  8
AM_0
  6
CONTINUOUS
 62
           7
100
AcDbLine
 10
-590.764616871308
 20
220.834661942201
 11
-590.764616871308
 21
196.834661942201
  0
LINE
  5
C6
100
AcDbEntity
  8
AM_0
  6
CONTINUOUS
 62
           7
100
AcDbLine
 10
-590.764616871308
 20
220.834661942201
 11
-548.964616871308
 21
220.834661942201
  0
LINE
  5
C5
100
AcDbEntity
  8
AM_0
  6
CONTINUOUS
 62
           7
100
AcDbLine
 10
-548.964616871308
 20
220.834661942201
 11
-548.964616871308
 21
196.834661942201
  0
LINE
  5
C4
100
AcDbEntity
  8
AM_0
  6
CONTINUOUS
 62
           7
100
AcDbLine
 10
-537.064616871308
 20
190.834661942201
 11
-537.064616871308
 21
187.634661942201
  0
LINE
  5
C3
100
AcDbEntity
  8
AM_0
  6
CONTINUOUS
 62
           7
100
AcDbLine
 10
-537.064616871308
 20
187.634661942201
 11
-534.864616871308
 21
187.634661942201
  0
LINE
  5
C2
100
AcDbEntity
  8
AM_0
  6
CONTINUOUS
 62
           7
100
AcDbLine
 10
-534.864616871308
 20
187.634661942201
 11
-534.864616871308
 21
167.534661942201
  0
LINE
  5
C1
100
AcDbEntity
  8
AM_0
  6
CONTINUOUS
 62
           7
100
AcDbLine
 10
-538.164616871308
 20
221.334661942201
 11
-538.164616871308
 21
167.534661942201
  0
LINE
  5
C0
100
AcDbEntity
  8
AM_0
  6
CONTINUOUS
 62
           7
100
AcDbLine
 10
-534.864616871308
 20
221.334661942201
 11
-538.164616871308
 21
221.334661942201
  0
LINE
  5
BF
100
AcDbEntity
  8
AM_0
  6
CONTINUOUS
 62
           7
100
AcDbLine
 10
-534.864616871308
 20
190.834661942201
 11
-537.064616871308
 21
190.834661942201
  0
LINE
  5
BE
100
AcDbEntity
  8
AM_0
  6
CONTINUOUS
 62
           7
100
AcDbLine
 10
-601.564616871308
 20
221.334661942201
 11
-604.864616871308
 21
221.334661942201
  0
LINE
  5
BD
100
AcDbEntity
  8
AM_0
  6
CONTINUOUS
 62
           7
100
AcDbLine
 10
-601.564616871308
 20
221.334661942201
 11
-601.564616871308
 21
167.534661942201
  0
LINE
  5
BC
100
AcDbEntity
  8
AM_0
  6
CONTINUOUS
 62
           7
100
AcDbLine
 10
-604.864616871308
 20
187.634661942201
 11
-604.864616871308
 21
167.534661942201
  0
LINE
  5
BB
100
AcDbEntity
  8
AM_0
  6
CONTINUOUS
 62
           7
100
AcDbLine
 10
-604.864616871308
 20
187.634661942201
 11
-602.664616871308
 21
187.634661942201
  0
LINE
  5
BA
100
AcDbEntity
  8
AM_0
  6
CONTINUOUS
 62
           7
100
AcDbLine
 10
-602.664616871308
 20
187.634661942201
 11
-602.664616871308
 21
190.834661942201
  0
LINE
  5
B9
100
AcDbEntity
  8
AM_0
  6
CONTINUOUS
 62
           7
100
AcDbLine
 10
-602.664616871308
 20
190.834661942201
 11
-604.864616871308
 21
190.834661942201
  0
LINE
  5
B8
100
AcDbEntity
  8
AM_0
  6
CONTINUOUS
 62
           7
100
AcDbLine
 10
-540.185342813472
 20
224.834661942201
 11
-540.185342813472
 21
196.834661942201
  0
LINE
  5
B7
100
AcDbEntity
  8
AM_0
  6
CONTINUOUS
 62
           7
100
AcDbLine
 10
-540.185342813472
 20
224.834661942201
 11
-538.164616871308
 21
221.334661942201
  0
LINE
  5
B6
100
AcDbEntity
  8
AM_0
  6
CONTINUOUS
 62
           7
100
AcDbLine
 10
-599.543890929144
 20
224.834661942201
 11
-599.543890929144
 21
196.834661942201
  0
LINE
  5
B5
100
AcDbEntity
  8
AM_0
  6
CONTINUOUS
 62
           7
100
AcDbLine
 10
-601.564616871308
 20
221.334661942201
 11
-599.543890929144
 21
224.834661942201
  0
LINE
  5
B4
100
AcDbEntity
  8
AM_0
  6
CONTINUOUS
 62
           7
100
AcDbLine
 10
-604.864616871308
 20
190.834661942201
 11
-604.864616871308
 21
226.834661942201
  0
LINE
  5
B3
100
AcDbEntity
  8
AM_0
  6
CONTINUOUS
 62
           7
100
AcDbLine
 10
-534.864616871308
 20
226.834661942201
 11
-604.864616871308
 21
226.834661942201
  0
LINE
  5
B2
100
AcDbEntity
  8
AM_0
  6
CONTINUOUS
 62
           7
100
AcDbLine
 10
-599.543890929144
 20
224.834661942201
 11
-540.185342813472
 21
224.834661942201
  0
LINE
  5
B1
100
AcDbEntity
  8
AM_0
  6
CONTINUOUS
 62
           7
100
AcDbLine
 10
-534.864616871308
 20
190.834661942201
 11
-534.864616871308
 21
226.834661942201
  0
LINE
  5
B0
100
AcDbEntity
  8
AM_0
  6
CONTINUOUS
 62
           7
100
AcDbLine
 10
-561.480228095776
 20
147.634661942201
 11
-561.480228095776
 21
149.034661942201
  0
LINE
  5
AF
100
AcDbEntity
  8
AM_0
  6
CONTINUOUS
 62
           7
100
AcDbLine
 10
-578.249005646841
 20
147.634661942201
 11
-578.249005646841
 21
149.034661942201
  0
LINE
  5
AE
100
AcDbEntity
  8
AM_0
  6
CONTINUOUS
 62
           7
100
AcDbLine
 10
-561.114616871308
 20
149.034661942201
 11
-578.614616871308
 21
149.034661942201
  0
LINE
  5
AD
100
AcDbEntity
  8
AM_0
  6
CONTINUOUS
 62
           7
100
AcDbLine
 10
-561.114616871308
 20
147.634661942201
 11
-578.614616871308
 21
147.634661942201
  0
LINE
  5
AC
100
AcDbEntity
  8
AM_0
  6
CONTINUOUS
 62
           7
100
AcDbLine
 10
-577.364616871308
 20
167.834661942201
 11
-578.614616871308
 21
165.66959843274
  0
LINE
  5
AB
100
AcDbEntity
  8
AM_0
  6
CONTINUOUS
 62
           7
100
AcDbLine
 10
-577.364616871308
 20
169.534661942201
 11
-577.364616871308
 21
167.834661942201
  0
LINE
  5
AA
100
AcDbEntity
  8
AM_0
  6
CONTINUOUS
 62
           7
100
AcDbLine
 10
-561.114616871308
 20
147.634661942201
 11
-561.114616871308
 21
165.66959843274
  0
LINE
  5
A9
100
AcDbEntity
  8
AM_0
  6
CONTINUOUS
 62
           7
100
AcDbLine
 10
-562.364616871308
 20
167.834661942201
 11
-562.364616871308
 21
169.534661942201
  0
LINE
  5
A8
100
AcDbEntity
  8
AM_0
  6
CONTINUOUS
 62
           7
100
AcDbLine
 10
-578.614616871308
 20
165.66959843274
 11
-578.614616871308
 21
147.634661942201
  0
LINE
  5
A7
100
AcDbEntity
  8
AM_0
  6
CONTINUOUS
 62
           7
100
AcDbLine
 10
-561.114616871308
 20
165.66959843274
 11
-562.364616871308
 21
167.834661942201
  0
LINE
  5
A6
100
AcDbEntity
  8
AM_0
  6
CONTINUOUS
 62
           7
100
AcDbLine
 10
-573.414616871308
 20
147.634661942201
 11
-573.414616871308
 21
142.784661942201
  0
LINE
  5
A5
100
AcDbEntity
  8
AM_0
  6
CONTINUOUS
 62
           7
100
AcDbLine
 10
-575.364616871308
 20
142.784661942201
 11
-573.414616871308
 21
142.784661942201
  0
LINE
  5
A4
100
AcDbEntity
  8
AM_0
  6
CONTINUOUS
 62
           7
100
AcDbLine
 10
-575.364616871308
 20
147.634661942201
 11
-575.364616871308
 21
142.784661942201
  0
LINE
  5
A3
100
AcDbEntity
  8
AM_0
  6
CONTINUOUS
 62
           7
100
AcDbLine
 10
-566.314616871308
 20
142.784661942201
 11
-564.364616871308
 21
142.784661942201
  0
LINE
  5
A2
100
AcDbEntity
  8
AM_0
  6
CONTINUOUS
 62
           7
100
AcDbLine
 10
-564.364616871308
 20
142.784661942201
 11
-564.364616871308
 21
147.634661942201
  0
LINE
  5
A1
100
AcDbEntity
  8
AM_0
  6
CONTINUOUS
 62
           7
100
AcDbLine
 10
-566.314616871308
 20
142.784661942201
 11
-566.314616871308
 21
147.634661942201
  0
LINE
  5
A0
100
AcDbEntity
  8
AM_0
  6
CONTINUOUS
 62
           7
100
AcDbLine
 10
-541.064616871308
 20
87.928969056214
 11
-541.064616871308
 21
167.534661942201
  0
LINE
  5
9F
100
AcDbEntity
  8
AM_0
  6
CONTINUOUS
 62
           7
100
AcDbLine
 10
-598.664616871308
 20
167.534661942201
 11
-598.664616871308
 21
87.928969056213
  0
LINE
  5
9E
100
AcDbEntity
  8
AM_0
  6
CONTINUOUS
 62
           7
100
AcDbLine
 10
-557.364616871308
 20
75.734661942201
 11
-582.364616871308
 21
75.734661942201
  0
LINE
  5
9D
100
AcDbEntity
  8
AM_0
  6
CONTINUOUS
 62
           7
100
AcDbLine
 10
-591.104571131354
 20
78.076525628065
 11
-582.364616871308
 21
75.734661942201
  0
LINE
  5
9C
100
AcDbEntity
  8
AM_0
  6
CONTINUOUS
 62
           7
100
AcDbLine
 10
-557.364616871308
 20
75.734661942201
 11
-548.624662611262
 21
78.076525628065
  0
LINE
  5
9B
100
AcDbEntity
  8
AM_0
  6
CONTINUOUS
 62
           7
100
AcDbLine
 10
-557.364616871308
 20
72.734661942201
 11
-582.364616871308
 21
72.734661942201
  0
LINE
  5
9A
100
AcDbEntity
  8
AM_0
  6
CONTINUOUS
 62
           7
100
AcDbLine
 10
-557.364616871308
 20
72.734661942201
 11
-557.364616871308
 21
75.734661942201
  0
LINE
  5
99
100
AcDbEntity
  8
AM_0
  6
CONTINUOUS
 62
           7
100
AcDbLine
 10
-582.364616871308
 20
75.734661942201
 11
-582.364616871308
 21
72.734661942201
  0
LINE
  5
98
100
AcDbEntity
  8
AM_0
  6
CONTINUOUS
 62
           7
100
AcDbLine
 10
-561.495479591813
 20
59.234661942201
 11
-561.495479591813
 21
70.234661942201
  0
LINE
  5
97
100
AcDbEntity
  8
AM_0
  6
CONTINUOUS
 62
           7
100
AcDbLine
 10
-578.294839899292
 20
59.234661942201
 11
-578.294839899292
 21
70.234661942201
  0
LINE
  5
96
100
AcDbEntity
  8
AM_0
  6
CONTINUOUS
 62
           7
100
AcDbLine
 10
-561.434393843325
 20
59.234661942201
 11
-561.434393843325
 21
70.234661942201
  0
LINE
  5
95
100
AcDbEntity
  8
AM_0
  6
CONTINUOUS
 62
           7
100
AcDbLine
 10
-561.434393843325
 20
59.234661942201
 11
-578.294839899292
 21
59.234661942201
  0
LINE
  5
94
100
AcDbEntity
  8
AM_0
  6
CONTINUOUS
 62
           7
100
AcDbLine
 10
-561.434393843325
 20
70.234661942201
 11
-578.294839899292
 21
70.234661942201
  0
LINE
  5
93
100
AcDbEntity
  8
AM_0
  6
CONTINUOUS
 62
           7
100
AcDbLine
 10
-573.264616871308
 20
72.734661942201
 11
-573.264616871308
 21
70.234661942201
  0
LINE
  5
92
100
AcDbEntity
  8
AM_0
  6
CONTINUOUS
 62
           7
100
AcDbLine
 10
-566.464616871308
 20
70.234661942201
 11
-566.464616871308
 21
72.734661942201
  0
LINE
  5
91
100
AcDbEntity
  8
AM_0
  6
CONTINUOUS
 62
           7
100
AcDbLine
 10
-427.074615192841
 20
187.634661942201
 11
-391.074615192841
 21
187.634661942201
  0
LINE
  5
90
100
AcDbEntity
  8
AM_0
  6
CONTINUOUS
 62
           7
100
AcDbLine
 10
-427.074615192841
 20
221.334661942201
 11
-427.074615192841
 21
167.534661942201
  0
LINE
  5
8F
100
AcDbEntity
  8
AM_0
  6
CONTINUOUS
 62
           7
100
AcDbLine
 10
-421.574615192841
 20
226.834661942201
 11
-396.574615192841
 21
226.834661942201
  0
LINE
  5
8E
100
AcDbEntity
  8
AM_0
  6
CONTINUOUS
 62
           7
100
AcDbLine
 10
-427.074615192841
 20
190.834661942201
 11
-391.074615192841
 21
190.834661942201
  0
LINE
  5
8D
100
AcDbEntity
  8
AM_0
  6
CONTINUOUS
 62
           7
100
AcDbLine
 10
-427.074615192841
 20
221.334661942201
 11
-421.574615192841
 21
226.834661942201
  0
LINE
  5
8C
100
AcDbEntity
  8
AM_0
  6
CONTINUOUS
 62
           7
100
AcDbLine
 10
-396.574615192841
 20
226.834661942201
 11
-391.074615192841
 21
221.334661942201
  0
LINE
  5
8B
100
AcDbEntity
  8
AM_0
  6
CONTINUOUS
 62
           7
100
AcDbLine
 10
-391.074615192841
 20
221.334661942201
 11
-391.074615192841
 21
167.534661942201
  0
LINE
  5
8A
100
AcDbEntity
  8
AM_0
  6
CONTINUOUS
 62
           7
100
AcDbLine
 10
-444.574615192841
 20
196.834661942201
 11
-444.574615192841
 21
167.534661942201
  0
LINE
  5
89
100
AcDbEntity
  8
AM_0
  6
CONTINUOUS
 62
           7
100
AcDbLine
 10
-444.574615192841
 20
196.834661942201
 11
-427.074615192841
 21
196.834661942201
  0
LINE
  5
88
100
AcDbEntity
  8
AM_0
  6
CONTINUOUS
 62
           7
100
AcDbLine
 10
-373.574615192841
 20
196.834661942201
 11
-373.574615192841
 21
167.534661942201
  0
LINE
  5
87
100
AcDbEntity
  8
AM_0
  6
CONTINUOUS
 62
           7
100
AcDbLine
 10
-391.074615192841
 20
196.834661942201
 11
-373.574615192841
 21
196.834661942201
  0
LINE
  5
86
100
AcDbEntity
  8
AM_0
  6
CONTINUOUS
 62
           7
100
AcDbLine
 10
-444.574615192841
 20
167.534661942201
 11
-373.574615192841
 21
167.534661942201
  0
LINE
  5
85
100
AcDbEntity
  8
AM_0
  6
CONTINUOUS
 62
           7
100
AcDbLine
 10
-427.261079414799
 20
220.834661942201
 11
-427.261079414799
 21
196.834661942201
  0
LINE
  5
84
100
AcDbEntity
  8
AM_0
  6
CONTINUOUS
 62
           7
100
AcDbLine
 10
-390.888150970884
 20
220.834661942201
 11
-390.888150970884
 21
196.834661942201
  0
LINE
  5
83
100
AcDbEntity
  8
AM_0
  6
CONTINUOUS
 62
           7
100
AcDbLine
 10
-436.074615192841
 20
220.834661942201
 11
-427.074615192841
 21
220.834661942201
  0
LINE
  5
82
100
AcDbEntity
  8
AM_0
  6
CONTINUOUS
 62
           7
100
AcDbLine
 10
-436.074615192841
 20
220.834661942201
 11
-436.074615192841
 21
196.834661942201
  0
LINE
  5
81
100
AcDbEntity
  8
AM_0
  6
CONTINUOUS
 62
           7
100
AcDbLine
 10
-382.074615192841
 20
196.834661942201
 11
-382.074615192841
 21
220.834661942201
  0
LINE
  5
80
100
AcDbEntity
  8
AM_0
  6
CONTINUOUS
 62
           7
100
AcDbLine
 10
-391.074615192841
 20
220.834661942201
 11
-382.074615192841
 21
220.834661942201
  0
LINE
  5
7F
100
AcDbEntity
  8
AM_0
  6
CONTINUOUS
 62
           7
100
AcDbLine
 10
-380.274615192841
 20
87.928969056214
 11
-380.274615192841
 21
167.534661942201
  0
LINE
  5
7E
100
AcDbEntity
  8
AM_0
  6
CONTINUOUS
 62
           7
100
AcDbLine
 10
-437.874615192842
 20
142.784661942201
 11
-437.874615192842
 21
87.928969056213
  0
LINE
  5
7D
100
AcDbEntity
  8
AM_0
  6
CONTINUOUS
 62
           7
100
AcDbLine
 10
-437.874615192842
 20
167.534661942201
 11
-437.874615192842
 21
163.294661942201
  0
LINE
  5
7C
100
AcDbEntity
  8
AM_0
  6
CONTINUOUS
 62
           7
100
AcDbLine
 10
-437.344563901674
 20
150.284661942201
 11
-437.344563901674
 21
142.784661942201
  0
LINE
  5
7B
100
AcDbEntity
  8
AM_0
  6
CONTINUOUS
 62
           7
100
AcDbLine
 10
-436.529123019426
 20
163.294661942201
 11
-436.529123019426
 21
150.284661942201
  0
LINE
  5
7A
100
AcDbEntity
  8
AM_0
  6
CONTINUOUS
 62
           7
100
AcDbLine
 10
-430.314569452887
 20
78.076525628065
 11
-421.574615192841
 21
75.734661942201
  0
LINE
  5
79
100
AcDbEntity
  8
AM_0
  6
CONTINUOUS
 62
           7
100
AcDbLine
 10
-396.574615192841
 20
75.734661942201
 11
-387.834660932796
 21
78.076525628065
  0
LINE
  5
78
100
AcDbEntity
  8
AM_0
  6
CONTINUOUS
 62
           7
100
AcDbLine
 10
-396.574615192841
 20
75.734661942201
 11
-421.574615192841
 21
75.734661942201
  0
LINE
  5
77
100
AcDbEntity
  8
AM_0
  6
CONTINUOUS
 62
           7
100
AcDbLine
 10
-396.574615192841
 20
72.734661942201
 11
-396.574615192841
 21
75.734661942201
  0
LINE
  5
76
100
AcDbEntity
  8
AM_0
  6
CONTINUOUS
 62
           7
100
AcDbLine
 10
-421.574615192841
 20
75.734661942201
 11
-421.574615192841
 21
72.734661942201
  0
LINE
  5
75
100
AcDbEntity
  8
AM_0
  6
CONTINUOUS
 62
           7
100
AcDbLine
 10
-396.574615192841
 20
72.734661942201
 11
-421.574615192841
 21
72.734661942201
  0
LINE
  5
74
100
AcDbEntity
  8
AM_0
  6
CONTINUOUS
 62
           7
100
AcDbLine
 10
-443.074615192841
 20
147.634661942201
 11
-447.474615192841
 21
147.634661942201
  0
LINE
  5
73
100
AcDbEntity
  8
AM_0
  6
CONTINUOUS
 62
           7
100
AcDbLine
 10
-444.474615192841
 20
147.634661942201
 11
-444.474615192841
 21
167.534661942201
  0
LINE
  5
72
100
AcDbEntity
  8
AM_0
  6
CONTINUOUS
 62
           7
100
AcDbLine
 10
-444.474615192841
 20
165.66959843274
 11
-443.074615192841
 21
165.66959843274
  0
LINE
  5
71
100
AcDbEntity
  8
AM_0
  6
CONTINUOUS
 62
           7
100
AcDbLine
 10
-446.548099483213
 20
147.634661942201
 11
-446.548099483213
 21
149.034661942201
  0
LINE
  5
70
100
AcDbEntity
  8
AM_0
  6
CONTINUOUS
 62
           7
100
AcDbLine
 10
-443.074615192841
 20
147.634661942201
 11
-443.074615192841
 21
167.534661942201
  0
LINE
  5
6F
100
AcDbEntity
  8
AM_0
  6
CONTINUOUS
 62
           7
100
AcDbLine
 10
-436.529123019426
 20
150.284661942201
 11
-443.074615192841
 21
150.284661942201
  0
LINE
  5
6E
100
AcDbEntity
  8
AM_0
  6
CONTINUOUS
 62
           7
100
AcDbLine
 10
-436.529123019426
 20
163.294661942201
 11
-443.074615192841
 21
163.294661942201
  0
LINE
  5
6D
100
AcDbEntity
  8
AM_0
  6
CONTINUOUS
 62
           7
100
AcDbLine
 10
-447.474615192841
 20
149.034661942201
 11
-447.474615192841
 21
147.634661942201
  0
LINE
  5
6C
100
AcDbEntity
  8
AM_0
  6
CONTINUOUS
 62
           7
100
AcDbLine
 10
-444.474615192841
 20
149.034661942201
 11
-447.474615192841
 21
149.034661942201
  0
LINE
  5
6B
100
AcDbEntity
  8
AM_0
  6
CONTINUOUS
 62
           7
100
AcDbLine
 10
-437.344563901674
 20
142.784661942201
 11
-442.874615192841
 21
142.784661942201
  0
LINE
  5
6A
100
AcDbEntity
  8
AM_0
  6
CONTINUOUS
 62
           7
100
AcDbLine
 10
-442.874615192841
 20
142.784661942201
 11
-442.874615192841
 21
150.284661942201
  0
LINE
  5
69
100
AcDbEntity
  8
AM_0
  6
CONTINUOUS
 62
           7
100
AcDbLine
 10
-405.648051360303
 20
59.234661942201
 11
-405.648051360303
 21
70.234661942201
  0
LINE
  5
68
100
AcDbEntity
  8
AM_0
  6
CONTINUOUS
 62
           7
100
AcDbLine
 10
-412.647784821752
 20
59.234661942201
 11
-412.647784821752
 21
70.234661942201
  0
LINE
  5
67
100
AcDbEntity
  8
AM_0
  6
CONTINUOUS
 62
           7
100
AcDbLine
 10
-401.074615192841
 20
59.234661942201
 11
-417.074615192841
 21
59.234661942201
  0
LINE
  5
66
100
AcDbEntity
  8
AM_0
  6
CONTINUOUS
 62
           7
100
AcDbLine
 10
-401.074615192841
 20
70.234661942201
 11
-417.074615192841
 21
70.234661942201
  0
LINE
  5
65
100
AcDbEntity
  8
AM_0
  6
CONTINUOUS
 62
           7
100
AcDbLine
 10
-401.074615192841
 20
59.234661942201
 11
-401.074615192841
 21
70.234661942201
  0
LINE
  5
64
100
AcDbEntity
  8
AM_0
  6
CONTINUOUS
 62
           7
100
AcDbLine
 10
-417.074615192841
 20
70.234661942201
 11
-417.074615192841
 21
59.234661942201
  0
LINE
  5
63
100
AcDbEntity
  8
AM_0
  6
CONTINUOUS
 62
           7
100
AcDbLine
 10
-412.474615192841
 20
72.734661942201
 11
-412.474615192841
 21
70.234661942201
  0
LINE
  5
62
100
AcDbEntity
  8
AM_0
  6
CONTINUOUS
 62
           7
100
AcDbLine
 10
-405.674615192841
 20
70.234661942201
 11
-405.674615192841
 21
72.734661942201
  0
LINE
  5
61
100
AcDbEntity
  8
AM_7
  6
DOT_CENTER
 62
           3
100
AcDbLine
 10
-409.074615192842
 20
40.074955992982
 11
-409.074615192841
 21
227.688050526128
  0
LINE
  5
60
100
AcDbEntity
  8
AM_7
  6
DOT_CENTER
 62
           3
100
AcDbLine
 10
-415.982040192841
 20
208.834661942201
 11
-402.167190192841
 21
208.834661942201
  0
LINE
  5
5F
100
AcDbEntity
  8
AM_0
  6
CONTINUOUS
 62
           7
100
AcDbLine
 10
-534.864616871308
 20
370.624663620668
 11
-538.164616871308
 21
370.624663620668
  0
LINE
  5
5E
100
AcDbEntity
  8
AM_0
  6
CONTINUOUS
 62
           7
100
AcDbLine
 10
-534.864616871308
 20
334.624663620668
 11
-534.864616871308
 21
370.624663620668
  0
LINE
  5
5D
100
AcDbEntity
  8
AM_0
  6
CONTINUOUS
 62
           7
100
AcDbLine
 10
-534.864616871308
 20
365.124663620668
 11
-604.864616871308
 21
365.124663620668
  0
LINE
  5
5C
100
AcDbEntity
  8
AM_0
  6
CONTINUOUS
 62
           7
100
AcDbLine
 10
-601.564616871308
 20
370.624663620668
 11
-604.864616871308
 21
370.624663620668
  0
LINE
  5
5B
100
AcDbEntity
  8
AM_0
  6
CONTINUOUS
 62
           7
100
AcDbLine
 10
-599.543890929144
 20
367.124663620668
 11
-601.564616871308
 21
370.624663620668
  0
LINE
  5
5A
100
AcDbEntity
  8
AM_0
  6
CONTINUOUS
 62
           7
100
AcDbLine
 10
-540.185342813472
 20
367.124663620668
 11
-599.543890929144
 21
367.124663620668
  0
LINE
  5
59
100
AcDbEntity
  8
AM_0
  6
CONTINUOUS
 62
           7
100
AcDbLine
 10
-538.164616871308
 20
370.624663620668
 11
-540.185342813472
 21
367.124663620668
  0
LINE
  5
58
100
AcDbEntity
  8
AM_0
  6
CONTINUOUS
 62
           7
100
AcDbLine
 10
-601.564616871308
 20
334.624663620668
 11
-604.864616871308
 21
334.624663620668
  0
LINE
  5
57
100
AcDbEntity
  8
AM_0
  6
CONTINUOUS
 62
           7
100
AcDbLine
 10
-604.864616871308
 20
334.624663620668
 11
-604.864616871308
 21
370.624663620668
  0
LINE
  5
56
100
AcDbEntity
  8
AM_0
  6
CONTINUOUS
 62
           7
100
AcDbLine
 10
-534.864616871308
 20
340.124663620668
 11
-604.864616871308
 21
340.124663620668
  0
LINE
  5
55
100
AcDbEntity
  8
AM_0
  6
CONTINUOUS
 62
           7
100
AcDbLine
 10
-534.864616871308
 20
334.624663620668
 11
-538.164616871308
 21
334.624663620668
  0
LINE
  5
54
100
AcDbEntity
  8
AM_0
  6
CONTINUOUS
 62
           7
100
AcDbLine
 10
-540.185342813472
 20
338.124663620668
 11
-538.164616871308
 21
334.624663620668
  0
LINE
  5
53
100
AcDbEntity
  8
AM_0
  6
CONTINUOUS
 62
           7
100
AcDbLine
 10
-599.543890929144
 20
338.124663620668
 11
-540.185342813472
 21
338.124663620668
  0
LINE
  5
52
100
AcDbEntity
  8
AM_0
  6
CONTINUOUS
 62
           7
100
AcDbLine
 10
-601.564616871308
 20
334.624663620668
 11
-599.543890929144
 21
338.124663620668
  0
LINE
  5
51
100
AcDbEntity
  8
AM_0
  6
CONTINUOUS
 62
           7
100
AcDbLine
 10
-591.864616871308
 20
352.624663620668
 11
-597.364616871308
 21
355.80009010121
  0
LINE
  5
50
100
AcDbEntity
  8
AM_0
  6
CONTINUOUS
 62
           7
100
AcDbLine
 10
-597.364616871308
 20
355.80009010121
 11
-597.364616871308
 21
353.924663620668
  0
LINE
  5
4F
100
AcDbEntity
  8
AM_0
  6
CONTINUOUS
 62
           7
100
AcDbLine
 10
-597.364616871308
 20
353.924663620668
 11
-600.864616871308
 21
353.924663620668
  0
LINE
  5
4E
100
AcDbEntity
  8
AM_0
  6
CONTINUOUS
 62
           7
100
AcDbLine
 10
-597.364616871308
 20
349.449237140125
 11
-591.864616871308
 21
352.624663620668
  0
LINE
  5
4D
100
AcDbEntity
  8
AM_0
  6
CONTINUOUS
 62
           7
100
AcDbLine
 10
-597.364616871308
 20
351.324663620668
 11
-597.364616871308
 21
349.449237140125
  0
LINE
  5
4C
100
AcDbEntity
  8
AM_0
  6
CONTINUOUS
 62
           7
100
AcDbLine
 10
-600.864616871308
 20
351.324663620668
 11
-597.364616871308
 21
351.324663620668
  0
LINE
  5
4B
100
AcDbEntity
  8
AM_0
  6
CONTINUOUS
 62
           7
100
AcDbLine
 10
-600.864616871308
 20
353.924663620668
 11
-600.864616871308
 21
351.324663620668
  0
LINE
  5
4A
100
AcDbEntity
  8
AM_0
  6
CONTINUOUS
 62
           7
100
AcDbLine
 10
-549.908351712129
 20
334.43819939871
 11
-548.964616871308
 21
338.124663620668
  0
LINE
  5
49
100
AcDbEntity
  8
AM_0
  6
CONTINUOUS
 62
           7
100
AcDbLine
 10
-590.764616871308
 20
338.124663620668
 11
-589.820882030487
 21
334.43819939871
  0
LINE
  5
48
100
AcDbEntity
  8
AM_0
  6
CONTINUOUS
 62
           7
100
AcDbLine
 10
-589.820882030487
 20
370.811127842625
 11
-590.764616871308
 21
367.124663620668
  0
LINE
  5
47
100
AcDbEntity
  8
AM_0
  6
CONTINUOUS
 62
           7
100
AcDbLine
 10
-548.964616871308
 20
367.124663620668
 11
-549.908351712129
 21
370.811127842625
  0
LINE
  5
46
100
AcDbEntity
  8
AM_0
  6
CONTINUOUS
 62
           7
100
AcDbLine
 10
-601.564616871308
 20
334.624663620668
 11
-598.067099033624
 21
321.571749350052
  0
LINE
  5
45
100
AcDbEntity
  8
AM_0
  6
CONTINUOUS
 62
           7
100
AcDbLine
 10
-541.662134708992
 20
321.571749350053
 11
-538.164616871308
 21
334.624663620668
  0
LINE
  5
44
100
AcDbEntity
  8
AM_0
  6
CONTINUOUS
 62
           7
100
AcDbLine
 10
-592.27154407589
 20
317.124663620668
 11
-547.457689666727
 21
317.124663620668
  0
LINE
  5
43
100
AcDbEntity
  8
AM_0
  6
CONTINUOUS
 62
           7
100
AcDbLine
 10
-547.457689666727
 20
388.124663620668
 11
-592.27154407589
 21
388.124663620668
  0
LINE
  5
42
100
AcDbEntity
  8
AM_0
  6
CONTINUOUS
 62
           7
100
AcDbLine
 10
-598.067099033624
 20
383.677577891283
 11
-601.564616871308
 21
370.624663620668
  0
LINE
  5
41
100
AcDbEntity
  8
AM_0
  6
CONTINUOUS
 62
           7
100
AcDbLine
 10
-538.164616871308
 20
370.624663620668
 11
-541.662134708992
 21
383.677577891283
  0
LINE
  5
40
100
AcDbEntity
  8
AM_0
  6
CONTINUOUS
 62
           7
100
AcDbLine
 10
-561.132249569379
 20
317.124663620668
 11
-561.480228095776
 21
315.151179330296
  0
LINE
  5
3F
100
AcDbEntity
  8
AM_0
  6
CONTINUOUS
 62
           7
100
AcDbLine
 10
-578.249005646841
 20
315.151179330296
 11
-578.596984173237
 21
317.124663620668
  0
LINE
  5
3E
100
AcDbEntity
  8
AM_7
  6
DOT_CENTER
 62
           3
100
AcDbLine
 10
-605.59981121708
 20
352.624663620668
 11
-534.129422525536
 21
352.624663620668
  0
LINE
  5
3D
100
AcDbEntity
  8
AM_7
  6
CONTINUOUS
 62
           4
100
AcDbLine
 10
-546.364616871308
 20
319.999663620668
 11
-546.364616871308
 21
325.249663620668
  0
LINE
  5
3C
100
AcDbEntity
  8
AM_7
  6
CONTINUOUS
 62
           4
100
AcDbLine
 10
-548.989616871308
 20
322.624663620668
 11
-543.739616871308
 21
322.624663620668
  0
LINE
  5
3B
100
AcDbEntity
  8
AM_7
  6
CONTINUOUS
 62
           4
100
AcDbLine
 10
-593.364616871308
 20
319.999663620668
 11
-593.364616871308
 21
325.249663620668
  0
LINE
  5
3A
100
AcDbEntity
  8
AM_7
  6
CONTINUOUS
 62
           4
100
AcDbLine
 10
-595.989616871308
 20
322.624663620668
 11
-590.739616871308
 21
322.624663620668
  0
LINE
  5
39
100
AcDbEntity
  8
AM_7
  6
CONTINUOUS
 62
           4
100
AcDbLine
 10
-546.364616871308
 20
379.999663620668
 11
-546.364616871308
 21
385.249663620668
  0
LINE
  5
38
100
AcDbEntity
  8
AM_7
  6
CONTINUOUS
 62
           4
100
AcDbLine
 10
-548.989616871308
 20
382.624663620668
 11
-543.739616871308
 21
382.624663620668
  0
LINE
  5
37
100
AcDbEntity
  8
AM_7
  6
CONTINUOUS
 62
           4
100
AcDbLine
 10
-593.364616871308
 20
379.999663620668
 11
-593.364616871308
 21
385.249663620668
  0
LINE
  5
36
100
AcDbEntity
  8
AM_7
  6
CONTINUOUS
 62
           4
100
AcDbLine
 10
-595.989616871308
 20
382.624663620668
 11
-590.739616871308
 21
382.624663620668
  0
LINE
  5
35
100
AcDbEntity
  8
AM_7
  6
DOT_CENTER
 62
           3
100
AcDbLine
 10
-569.864616871308
 20
322.384663620668
 11
-569.864616871308
 21
382.864663620668
  0
LINE
  5
34
100
AcDbEntity
  8
AM_7
  6
DOT_CENTER
 62
           3
100
AcDbLine
 10
-569.864616871308
 20
40.074955992982
 11
-569.864616871308
 21
227.688050526128
  0
SOLID
  5
11E
100
AcDbEntity
  8
0
 62
           2
100
AcDbTrace
 10
-614.488154960824
 20
212.06629837448
 11
-614.488154960824
 21
213.540806347458
 12
-608.888154960824
 22
212.803552360969
 13
-608.888154960824
 23
212.803552360969
  0
SOLID
  5
120
100
AcDbEntity
  8
0
 62
           2
100
AcDbTrace
 10
-521.474194066419
 20
211.268580013465
 11
-521.474194066419
 21
212.743087986443
 12
-515.874194066419
 22
212.005833999954
 13
-515.874194066419
 23
212.005833999954
  0
ENDBLK
  5
125
100
AcDbEntity
  8
0
100
AcDbBlockEnd
  0
BLOCK
  5
2C
100
AcDbEntity
  8
0
100
AcDbBlockBegin
  2
1_AFM40_02_2_A_0
 70
           0
 10
0.0
 20
0.0
 30
0.0
  3
1_AFM40_02_2_A_0
  1

  0
INSERT
  5
2D
100
AcDbEntity
  8
0
100
AcDbBlockReference
  2
3_AFM40_02_2_A_0
 10
0.0
 20
0.0
  0
ENDBLK
  5
126
100
AcDbEntity
  8
0
100
AcDbBlockEnd
  0
BLOCK
  5
2F
100
AcDbEntity
  8
0
100
AcDbBlockBegin
  2
AMF500B_10DATA
 70
           0
 10
0.0
 20
0.0
 30
0.0
  3
AMF500B_10DATA
  1

  0
INSERT
  5
30
100
AcDbEntity
  8
0
100
AcDbBlockReference
  2
1_AFM40_02_2_A_0
 10
0.0
 20
0.0
  0
ENDBLK
  5
127
100
AcDbEntity
  8
0
100
AcDbBlockEnd
  0
ENDSEC
  0
SECTION
  2
ENTITIES
  0
TEXT
  5
129
100
AcDbEntity
  8
1
 62
           2
100
AcDbText
 10
-203.740153644828
 20
81.112875864948
 40
6.0
  1
AMF500B-10
 41
0.9
  7
CONVERTER_1
100
AcDbText
  0
INSERT
  5
33
100
AcDbEntity
  8
0
100
AcDbBlockReference
  2
AMF500B_10DATA
 10
0.0
 20
0.0
  0
ENDSEC
  0
SECTION
  2
OBJECTS
  0
DICTIONARY
  5
19
100
AcDbDictionary
  3
ACAD_GROUP
350
1A
  3
ACAD_MLINESTYLE
350
1B
  0
DICTIONARY
  5
1A
102
{ACAD_REACTORS
330
19
102
}
100
AcDbDictionary
  0
DICTIONARY
  5
1B
102
{ACAD_REACTORS
330
19
102
}
100
AcDbDictionary
  3
STANDARD
350
1C
  0
MLINESTYLE
  5
1C
102
{ACAD_REACTORS
330
1B
102
}
100
AcDbMlineStyle
  2
STANDARD
 70
           0
  3

 62
           0
 51
90.0
 52
90.0
 71
           2
 49
0.5
 62
         256
  6
BYLAYER
 49
-0.5
 62
         256
  6
BYLAYER
  0
ENDSEC
  0
EOF
