  0
SECTION
  2
HEADER
  9
$ACADVER
  1
AC1014
  9
$ACADMAINTVER
 70
           0
  9
$DWGCODEPAGE
  3
DOS932
  9
$INSBASE
 10
0.0
 20
0.0
 30
0.0
  9
$EXTMIN
 10
1.000000000000E+20
 20
1.000000000000E+20
 30
1.000000000000E+20
  9
$EXTMAX
 10
-1.000000000000E+20
 20
-1.000000000000E+20
 30
-1.000000000000E+20
  9
$LIMMIN
 10
0.0
 20
0.0
  9
$LIMMAX
 10
0.0
 20
0.0
  9
$ORTHOMODE
 70
           0
  9
$REGENMODE
 70
           1
  9
$FILLMODE
 70
           1
  9
$QTEXTMODE
 70
           0
  9
$MIRRTEXT
 70
           1
  9
$DRAGMODE
 70
           2
  9
$LTSCALE
 40
1.0
  9
$OSMODE
 70
           0
  9
$ATTMODE
 70
           1
  9
$TEXTSIZE
 40
0.2
  9
$TRACEWID
 40
0.05
  9
$TEXTSTYLE
  7
STANDARD
  9
$CLAYER
  8
0
  9
$CELTYPE
  6
CONTINUOUS
  9
$CECOLOR
 62
         256
  9
$CELTSCALE
 40
1.0
  9
$DELOBJ
 70
           1
  9
$DISPSILH
 70
           0
  9
$DIMSCALE
 40
1.0
  9
$DIMASZ
 40
0.18
  9
$DIMEXO
 40
0.0625
  9
$DIMDLI
 40
0.38
  9
$DIMRND
 40
0.0
  9
$DIMDLE
 40
0.0
  9
$DIMEXE
 40
0.18
  9
$DIMTP
 40
0.0
  9
$DIMTM
 40
0.0
  9
$DIMTXT
 40
0.18
  9
$DIMCEN
 40
0.09
  9
$DIMTSZ
 40
0.0
  9
$DIMTOL
 70
           0
  9
$DIMLIM
 70
           0
  9
$DIMTIH
 70
           1
  9
$DIMTOH
 70
           1
  9
$DIMSE1
 70
           0
  9
$DIMSE2
 70
           0
  9
$DIMTAD
 70
           0
  9
$DIMZIN
 70
           0
  9
$DIMBLK
  1

  9
$DIMASO
 70
           1
  9
$DIMSHO
 70
           1
  9
$DIMPOST
  1

  9
$DIMAPOST
  1

  9
$DIMALT
 70
           0
  9
$DIMALTD
 70
           2
  9
$DIMALTF
 40
25.4
  9
$DIMLFAC
 40
1.0
  9
$DIMTOFL
 70
           0
  9
$DIMTVP
 40
0.0
  9
$DIMTIX
 70
           0
  9
$DIMSOXD
 70
           0
  9
$DIMSAH
 70
           0
  9
$DIMBLK1
  1

  9
$DIMBLK2
  1

  9
$DIMSTYLE
  2
STANDARD
  9
$DIMCLRD
 70
           0
  9
$DIMCLRE
 70
           0
  9
$DIMCLRT
 70
           0
  9
$DIMTFAC
 40
1.0
  9
$DIMGAP
 40
0.09
  9
$DIMJUST
 70
           0
  9
$DIMSD1
 70
           0
  9
$DIMSD2
 70
           0
  9
$DIMTOLJ
 70
           1
  9
$DIMTZIN
 70
           0
  9
$DIMALTZ
 70
           0
  9
$DIMALTTZ
 70
           0
  9
$DIMFIT
 70
           3
  9
$DIMUPT
 70
           0
  9
$DIMUNIT
 70
           2
  9
$DIMDEC
 70
           4
  9
$DIMTDEC
 70
           4
  9
$DIMALTU
 70
           2
  9
$DIMALTTD
 70
           2
  9
$DIMTXSTY
  7
STANDARD
  9
$DIMAUNIT
 70
           0
  9
$LUNITS
 70
           2
  9
$LUPREC
 70
           4
  9
$SKETCHINC
 40
0.1
  9
$FILLETRAD
 40
0.0
  9
$AUNITS
 70
           0
  9
$AUPREC
 70
           0
  9
$MENU
  1
acad
  9
$ELEVATION
 40
0.0
  9
$PELEVATION
 40
0.0
  9
$THICKNESS
 40
0.0
  9
$LIMCHECK
 70
           0
  9
$BLIPMODE
 70
           1
  9
$CHAMFERA
 40
0.0
  9
$CHAMFERB
 40
0.0
  9
$CHAMFERC
 40
0.0
  9
$CHAMFERD
 40
0.0
  9
$SKPOLY
 70
           0
  9
$TDCREATE
 40
0.000000000
  9
$TDUPDATE
 40
0.000000000
  9
$TDINDWG
 40
0.0000000000
  9
$TDUSRTIMER
 40
0.0000000000
  9
$USRTIMER
 70
           1
  9
$ANGBASE
 50
0.0
  9
$ANGDIR
 70
           0
  9
$PDMODE
 70
           0
  9
$PDSIZE
 40
0.0
  9
$PLINEWID
 40
0.0
  9
$COORDS
 70
           0
  9
$SPLFRAME
 70
           0
  9
$SPLINETYPE
 70
           6
  9
$SPLINESEGS
 70
           8
  9
$ATTDIA
 70
           0
  9
$ATTREQ
 70
           1
  9
$HANDLING
 70
           1
  9
$HANDSEED
  5
12E
  9
$SURFTAB1
 70
           6
  9
$SURFTAB2
 70
           6
  9
$SURFTYPE
 70
           6
  9
$SURFU
 70
           6
  9
$SURFV
 70
           6
  9
$UCSNAME
  2

  9
$UCSORG
 10
0.0
 20
0.0
 30
0.0
  9
$UCSXDIR
 10
1.0
 20
0.0
 30
0.0
  9
$UCSYDIR
 10
0.0
 20
1.0
 30
0.0
  9
$PUCSNAME
  2

  9
$PUCSORG
 10
0.0
 20
0.0
 30
0.0
  9
$PUCSXDIR
 10
1.0
 20
0.0
 30
0.0
  9
$PUCSYDIR
 10
0.0
 20
1.0
 30
0.0
  9
$USERI1
 70
           0
  9
$USERI2
 70
           0
  9
$USERI3
 70
           0
  9
$USERI4
 70
           0
  9
$USERI5
 70
           0
  9
$USERR1
 40
0.0
  9
$USERR2
 40
0.0
  9
$USERR3
 40
0.0
  9
$USERR4
 40
0.0
  9
$USERR5
 40
0.0
  9
$WORLDVIEW
 70
           1
  9
$SHADEDGE
 70
           3
  9
$SHADEDIF
 70
          70
  9
$TILEMODE
 70
           1
  9
$MAXACTVP
 70
          16
  9
$PINSBASE
 10
0.0
 20
0.0
 30
0.0
  9
$PLIMCHECK
 70
           0
  9
$PEXTMIN
 10
1.000000000000E+20
 20
1.000000000000E+20
 30
1.000000000000E+20
  9
$PEXTMAX
 10
-1.000000000000E+20
 20
-1.000000000000E+20
 30
-1.000000000000E+20
  9
$PLIMMIN
 10
0.0
 20
0.0
  9
$PLIMMAX
 10
12.0
 20
9.0
  9
$UNITMODE
 70
           0
  9
$VISRETAIN
 70
           0
  9
$PLINEGEN
 70
           1
  9
$PSLTSCALE
 70
           0
  9
$TREEDEPTH
 70
        3020
  9
$PICKSTYLE
 70
           1
  9
$CMLSTYLE
  2
STANDARD
  9
$CMLJUST
 70
           0
  9
$CMLSCALE
 40
1.0
  9
$PROXYGRAPHICS
 70
           0
  9
$MEASUREMENT
 70
           0
  0
ENDSEC
  0
SECTION
  2
CLASSES
  0
CLASS
  1
LWPOLYLINE
  2
AcDbPolyline
  3
"AutoCAD"
 90
        0
280
           0
281
           1
  0
CLASS
  1
IMAGE
  2
AcDbRasterImage
  3
ISM
 90
      127
280
           0
281
           1
  0
CLASS
  1
OLE2FRAME
  2
AcDbOle2Frame
  3
""
 90
        0
280
           0
281
           1
  0
CLASS
  1
HATCH
  2
AcDbHatch
  3
"ACAD_SEDONA"
 90
        0
280
           0
281
           1
  0
CLASS
  1
DICTIONARYVAR
  2
AcDbDictionaryVar
  3
"AutoCAD"
 90
        0
280
           0
281
           0
  0
CLASS
  1
RASTERVARIABLES
  2
AcDbRasterVariables
  3
ISM
 90
        0
280
           0
281
           0
  0
CLASS
  1
IMAGEDEF
  2
AcDbRasterImageDef
  3
ISM
 90
        0
280
           0
281
           0
  0
CLASS
  1
IMAGEDEF_REACTOR
  2
AcDbRasterImageDefReactor
  3
ISM
 90
        1
280
           0
281
           0
  0
CLASS
  1
IDBUFFER
  2
AcDbIdBuffer
  3
"Acad"
 90
        0
280
           0
281
           0
  0
CLASS
  1
SPATIAL_FILTER
  2
AcDbSpatialFilter
  3
"Acad"
 90
        0
280
           0
281
           0
  0
CLASS
  1
XRECORD
  2
AcDbXrecord
  3
"<Built In>"
 90
        0
280
           0
281
           0
  0
CLASS
  1
SORTENTSTABLE
  2
AcDbSortentsTable
  3
"AutoCAD"
 90
        0
280
           0
281
           0
  0
CLASS
  1
LAYER_INDEX
  2
AcDbLayerIndex
  3
"Acad"
 90
        0
280
           0
281
           0
  0
CLASS
  1
SPATIAL_INDEX
  2
AcDbSpatialIndex
  3
"Acad"
 90
        0
280
           0
281
           0
  0
CLASS
  1
OBJECT_PTR
  2
CAseDLPNTableRecord
  3
"ASE-LPNTableRecord"
 90
        1
280
           0
281
           0
  0
CLASS
  1
LAYOUT
  2
AcDbLayout
  3
"AutoCAD 2000"
 90
        1
280
           0
281
           0
  0
CLASS
  1
PLOTSETTINGS
  2
AcDbPlotSettings
  3
"AutoCAD 2000"
 90
        1
280
           0
281
           0
  0
CLASS
  1
ACDBDICTIONARYWDFLT
  2
AcDbDictionaryWithDefault
  3
"AutoCAD 2000"
 90
        1
280
           0
281
           0
  0
CLASS
  1
ACDBPLACEHOLDER
  2
AcDbPlaceHolder
  3
"AutoCAD 2000"
 90
        1
280
           0
281
           0
  0
CLASS
  1
VBA_PROJECT
  2
AcDbVbaProject
  3
"acadvba"
 90
        1
280
           0
281
           0
  0
CLASS
  1
WIPEOUT
  2
AcDbWipeout
  3
WipeOut|AutoCAD Express Tool|expresstools@autodesk.com
 90
      127
280
           0
281
           1
  0
CLASS
  1
WIPEOUTVARIABLES
  2
AcDbWipeoutVariables
  3
WipeOut|AutoCAD Express Tool|expresstools@autodesk.com
 90
        0
280
           0
281
           0
  0
CLASS
  1
RTEXT
  2
RText
  3
RText|AutoCAD Express Tool|expresstools@autodesk.com
 90
        0
280
           0
281
           1
  0
CLASS
  1
ARCALIGNEDTEXT
  2
AcDbArcAlignedText
  3
ATEXT|AutoCAD Express Tool|expresstools@autodesk.com
 90
        0
280
           0
281
           1
  0
ENDSEC
  0
SECTION
  2
TABLES
  0
TABLE
  2
VPORT
  5
7
100
AcDbSymbolTable
 70
           1
  0
VPORT
  5
15
100
AcDbSymbolTableRecord
100
AcDbViewportTableRecord
  2
*ACTIVE
 70
           0
 10
0.0
 20
0.0
 11
1.0
 21
1.0
 12
6.591288
 22
4.579184
 13
0.0
 23
0.0
 14
1.0
 24
1.0
 15
0.0
 25
0.0
 16
0.0
 26
0.0
 36
1.0
 17
0.0
 27
0.0
 37
0.0
 40
9.158369
 41
0.688564
 42
50.0
 43
0.0
 44
0.0
 50
0.0
 51
0.0
 71
           0
 72
         100
 73
           1
 74
           1
 75
           0
 76
           0
 77
           0
 78
           0
  0
ENDTAB
  0
TABLE
  2
LTYPE
  5
4
100
AcDbSymbolTable
 70
          10
  0
LTYPE
  5
11
100
AcDbSymbolTableRecord
100
AcDbLinetypeTableRecord
  2
BYBLOCK
 70
          64
  3

 72
          65
 73
           0
 40
0.0
  0
LTYPE
  5
12
100
AcDbSymbolTableRecord
100
AcDbLinetypeTableRecord
  2
BYLAYER
 70
          64
  3

 72
          65
 73
           0
 40
0.0
  0
LTYPE
  5
13
100
AcDbSymbolTableRecord
100
AcDbLinetypeTableRecord
  2
CONTINUOUS
 70
          64
  3
Solid line
 72
          65
 73
           0
 40
0.0
  0
LTYPE
  5
1D
100
AcDbSymbolTableRecord
100
AcDbLinetypeTableRecord
  2
DASHED
 70
          64
  3
Dashed
 72
          65
 73
           2
 40
15.0
 49
12.0
 74
           0
 49
-3.0
 74
           0
  0
LTYPE
  5
1E
100
AcDbSymbolTableRecord
100
AcDbLinetypeTableRecord
  2
DOTTED
 70
          64
  3
Dotted
 72
          65
 73
           2
 40
3.5
 49
0.5
 74
           0
 49
-3.0
 74
           0
  0
LTYPE
  5
1F
100
AcDbSymbolTableRecord
100
AcDbLinetypeTableRecord
  2
DOT_CENTER
 70
          64
  3
Dot_Center
 72
          65
 73
           4
 40
2.0
 49
1.25
 74
           0
 49
-0.25
 74
           0
 49
0.25
 74
           0
 49
-0.25
 74
           0
  0
LTYPE
  5
20
100
AcDbSymbolTableRecord
100
AcDbLinetypeTableRecord
  2
LONG_DASHED
 70
          64
  3
Long_Dashed
 72
          65
 73
           2
 40
2.0
 49
1.5
 74
           0
 49
-0.5
 74
           0
  0
LTYPE
  5
21
100
AcDbSymbolTableRecord
100
AcDbLinetypeTableRecord
  2
DASH_CENTER
 70
          64
  3
Dash_Center
 72
          65
 73
           4
 40
36.0
 49
24.0
 74
           0
 49
-3.0
 74
           0
 49
6.0
 74
           0
 49
-3.0
 74
           0
  0
LTYPE
  5
22
100
AcDbSymbolTableRecord
100
AcDbLinetypeTableRecord
  2
PHANTOM
 70
          64
  3
Phantom
 72
          65
 73
           6
 40
2.5
 49
1.25
 74
           0
 49
-0.25
 74
           0
 49
0.25
 74
           0
 49
-0.25
 74
           0
 49
0.25
 74
           0
 49
-0.25
 74
           0
  0
LTYPE
  5
23
100
AcDbSymbolTableRecord
100
AcDbLinetypeTableRecord
  2
CENTER_DASH_DASH
 70
          64
  3
Center_Dash_Dash
 72
          65
 73
           6
 40
22.0
 49
12.0
 74
           0
 49
-3.0
 74
           0
 49
0.5
 74
           0
 49
-3.0
 74
           0
 49
0.5
 74
           0
 49
-3.0
 74
           0
  0
ENDTAB
  0
TABLE
  2
LAYER
  5
2
100
AcDbSymbolTable
 70
           6
  0
LAYER
  5
14
100
AcDbSymbolTableRecord
100
AcDbLayerTableRecord
  2
0
 70
           0
 62
           7
  6
CONTINUOUS
  0
LAYER
  5
24
100
AcDbSymbolTableRecord
100
AcDbLayerTableRecord
  2
AM_0
 70
           0
 62
           7
  6
CONTINUOUS
  0
LAYER
  5
25
100
AcDbSymbolTableRecord
100
AcDbLayerTableRecord
  2
AM_5
 70
           0
 62
           7
  6
CONTINUOUS
  0
LAYER
  5
26
100
AcDbSymbolTableRecord
100
AcDbLayerTableRecord
  2
AM_7
 70
           0
 62
           7
  6
CONTINUOUS
  0
LAYER
  5
27
100
AcDbSymbolTableRecord
100
AcDbLayerTableRecord
  2
976
 70
           0
 62
           7
  6
CONTINUOUS
  0
LAYER
  5
28
100
AcDbSymbolTableRecord
100
AcDbLayerTableRecord
  2
1
 70
           0
 62
           7
  6
CONTINUOUS
  0
ENDTAB
  0
TABLE
  2
STYLE
  5
3
100
AcDbSymbolTable
 70
           2
  0
STYLE
  5
17
100
AcDbSymbolTableRecord
100
AcDbTextStyleTableRecord
  2
STANDARD
 70
           0
 40
0.0
 41
1.0
 50
0.0
 71
           0
 42
0.0
  3
txt
  4

  0
STYLE
  5
125
100
AcDbSymbolTableRecord
100
AcDbTextStyleTableRecord
  2
CONVERTER_1
 70
           0
 40
0.0
 41
0.9
 50
0.0
 71
           0
 42
0.0
  3
txt.shx
  4

  0
ENDTAB
  0
TABLE
  2
VIEW
  5
5
100
AcDbSymbolTable
 70
           0
  0
ENDTAB
  0
TABLE
  2
UCS
  5
6
100
AcDbSymbolTable
 70
           0
  0
ENDTAB
  0
TABLE
  2
APPID
  5
8
100
AcDbSymbolTable
 70
           1
  0
APPID
  5
16
100
AcDbSymbolTableRecord
100
AcDbRegAppTableRecord
  2
ACAD
 70
           0
  0
ENDTAB
  0
TABLE
  2
DIMSTYLE
  5
9
100
AcDbSymbolTable
 70
           1
  0
DIMSTYLE
105
18
100
AcDbSymbolTableRecord
100
AcDbDimStyleTableRecord
  2
STANDARD
 70
           0
  3

  4

  5

  6

  7

 40
1.0
 41
0.18
 42
0.0625
 43
0.38
 44
0.18
 45
0.0
 46
0.0
 47
0.0
 48
0.0
 71
           0
 72
           0
 73
           1
 74
           1
 75
           0
 76
           0
 77
           0
 78
           0
140
0.18
141
0.09
142
0.0
143
25.4
144
1.0
145
0.0
146
1.0
147
0.09
170
           0
171
           2
172
           0
173
           0
174
           0
175
           0
176
           0
177
           0
178
           0
270
           2
271
           4
272
           4
273
           2
274
           2
275
           0
280
           0
281
           0
282
           0
283
           1
284
           0
285
           0
286
           0
287
           0
288
           0
340
17
  0
ENDTAB
  0
TABLE
  2
BLOCK_RECORD
  5
1
100
AcDbSymbolTable
 70
           3
  0
BLOCK_RECORD
  5
A
100
AcDbSymbolTableRecord
100
AcDbBlockTableRecord
  2
*MODEL_SPACE
  0
BLOCK_RECORD
  5
B
100
AcDbSymbolTableRecord
100
AcDbBlockTableRecord
  2
*PAPER_SPACE
  0
BLOCK_RECORD
  5
29
100
AcDbSymbolTableRecord
100
AcDbBlockTableRecord
  2
3_AFD40_02_2_A_0
  0
BLOCK_RECORD
  5
2B
100
AcDbSymbolTableRecord
100
AcDbBlockTableRecord
  2
1_AFD40_02_2_A_0
  0
BLOCK_RECORD
  5
2E
100
AcDbSymbolTableRecord
100
AcDbBlockTableRecord
  2
ASF650B_10DATA
  0
ENDTAB
  0
ENDSEC
  0
SECTION
  2
BLOCKS
  0
BLOCK
  5
D
100
AcDbEntity
  8
0
100
AcDbBlockBegin
  2
*MODEL_SPACE
 70
           0
 10
0.0
 20
0.0
 30
0.0
  3
*MODEL_SPACE
  1

  0
ENDBLK
  5
E
100
AcDbEntity
  8
0
100
AcDbBlockEnd
  0
BLOCK
  5
F
100
AcDbEntity
 67
           1
  8
0
100
AcDbBlockBegin
  2
*PAPER_SPACE
 70
           0
 10
0.0
 20
0.0
 30
0.0
  3
*PAPER_SPACE
  1

  0
ENDBLK
  5
10
100
AcDbEntity
 67
           1
  8
0
100
AcDbBlockEnd
  0
BLOCK
  5
2A
100
AcDbEntity
  8
0
100
AcDbBlockBegin
  2
3_AFD40_02_2_A_0
 70
           0
 10
0.0
 20
0.0
 30
0.0
  3
3_AFD40_02_2_A_0
  1

  0
TEXT
  5
127
100
AcDbEntity
  8
1
 62
           2
100
AcDbText
 10
-586.803980319547
 20
216.706975856019
 40
7.0
  1
OUT
 41
0.9
  7
CONVERTER_1
100
AcDbText
  0
TEXT
  5
126
100
AcDbEntity
  8
1
 62
           2
100
AcDbText
 10
-676.348188157053
 20
217.091285760901
 40
7.0
  1
IN
 41
0.9
  7
CONVERTER_1
100
AcDbText
  0
LEADER
  5
124
100
AcDbEntity
  8
976
  6
CONTINUOUS
 62
           2
100
AcDbLeader
  3
Standard
 71
           0
 73
           3
 74
           0
 75
           0
 40
0.0
 76
           2
 10
-570.79623941454
 20
212.388583766696
 30
0.0
 10
-586.16863560982
 20
212.388583766696
 30
0.0
 77
           2
  0
LEADER
  5
122
100
AcDbEntity
  8
976
  6
CONTINUOUS
 62
           2
100
AcDbLeader
  3
Standard
 71
           0
 73
           3
 74
           0
 75
           0
 40
0.0
 76
           2
 10
-664.95216611063
 20
211.619963956932
 30
0.0
 10
-680.32456230591
 20
211.619963956932
 30
0.0
 77
           2
  0
CIRCLE
  5
120
100
AcDbEntity
  8
AM_0
  6
CONTINUOUS
 62
           7
100
AcDbCircle
 10
-649.833301587281
 20
381.39007705721
 40
2.067
  0
CIRCLE
  5
11F
100
AcDbEntity
  8
AM_0
  6
CONTINUOUS
 62
           7
100
AcDbCircle
 10
-602.833301587281
 20
381.39007705721
 40
2.067
  0
CIRCLE
  5
11E
100
AcDbEntity
  8
AM_0
  6
CONTINUOUS
 62
           7
100
AcDbCircle
 10
-649.833301587281
 20
321.39007705721
 40
2.067
  0
CIRCLE
  5
11D
100
AcDbEntity
  8
AM_0
  6
CONTINUOUS
 62
           7
100
AcDbCircle
 10
-602.833301587281
 20
321.39007705721
 40
2.067
  0
CIRCLE
  5
11C
100
AcDbEntity
  8
AM_5
  6
CONTINUOUS
 62
           3
100
AcDbCircle
 10
-602.833301587281
 20
321.39007705721
 40
2.5
  0
CIRCLE
  5
11B
100
AcDbEntity
  8
AM_5
  6
CONTINUOUS
 62
           3
100
AcDbCircle
 10
-649.833301587281
 20
321.39007705721
 40
2.5
  0
CIRCLE
  5
11A
100
AcDbEntity
  8
AM_0
  6
CONTINUOUS
 62
           7
100
AcDbCircle
 10
-465.543299908814
 20
207.600075378743
 40
5.7225
  0
CIRCLE
  5
119
100
AcDbEntity
  8
AM_5
  6
CONTINUOUS
 62
           3
100
AcDbCircle
 10
-465.543299908814
 20
207.600075378743
 40
6.5785
  0
CIRCLE
  5
118
100
AcDbEntity
  8
AM_0
  6
CONTINUOUS
 62
           7
100
AcDbCircle
 10
-787.123303265748
 20
207.600075378743
 40
5.7225
  0
CIRCLE
  5
117
100
AcDbEntity
  8
AM_5
  6
CONTINUOUS
 62
           3
100
AcDbCircle
 10
-787.123303265748
 20
207.600075378743
 40
6.5785
  0
ARC
  5
116
100
AcDbEntity
  8
AM_0
  6
CONTINUOUS
 62
           7
100
AcDbCircle
 10
-626.333301587281
 20
351.39007705721
 40
38.400000000001
100
AcDbArc
 50
-102.611754908338
 51
-77.388245091663
  0
ARC
  5
115
100
AcDbEntity
  8
AM_0
  6
CONTINUOUS
 62
           7
100
AcDbCircle
 10
-648.740228791863
 20
380.89007705721
 40
6.0
100
AcDbArc
 50
90.0
 51
165.000000000001
  0
ARC
  5
114
100
AcDbEntity
  8
AM_0
  6
CONTINUOUS
 62
           7
100
AcDbCircle
 10
-603.9263743827
 20
380.89007705721
 40
6.000000000001
100
AcDbArc
 50
14.999999999997
 51
90.0
  0
ARC
  5
113
100
AcDbEntity
  8
AM_0
  6
CONTINUOUS
 62
           7
100
AcDbCircle
 10
-603.9263743827
 20
321.89007705721
 40
6.0
100
AcDbArc
 50
-90.0
 51
-14.999999999997
  0
ARC
  5
112
100
AcDbEntity
  8
AM_0
  6
CONTINUOUS
 62
           7
100
AcDbCircle
 10
-648.740228791863
 20
321.89007705721
 40
6.0
100
AcDbArc
 50
-164.999999999991
 51
-89.999999999999
  0
ARC
  5
111
100
AcDbEntity
  8
AM_0
  6
CONTINUOUS
 62
           7
100
AcDbCircle
 10
-626.333301587281
 20
351.39007705721
 40
27.0
100
AcDbArc
 50
42.343413804063
 51
137.656586195937
  0
ARC
  5
110
100
AcDbEntity
  8
AM_0
  6
CONTINUOUS
 62
           7
100
AcDbCircle
 10
-626.333301587281
 20
351.39007705721
 40
27.0
100
AcDbArc
 50
-137.656586195935
 51
-42.343413804065
  0
ARC
  5
10F
100
AcDbEntity
  8
AM_5
  6
CONTINUOUS
 62
           3
100
AcDbCircle
 10
-602.833301587281
 20
381.39007705721
 40
2.499999999999
100
AcDbArc
 50
75.000000000001
 51
14.999999999996
  0
ARC
  5
10E
100
AcDbEntity
  8
AM_5
  6
CONTINUOUS
 62
           3
100
AcDbCircle
 10
-649.833301587281
 20
381.39007705721
 40
2.499999999999
100
AcDbArc
 50
74.999999999996
 51
14.999999999992
  0
ARC
  5
10D
100
AcDbEntity
  8
AM_5
  6
CONTINUOUS
 62
           3
100
AcDbCircle
 10
-602.833301587281
 20
381.39007705721
 40
2.499999999999
100
AcDbArc
 50
14.999999999996
 51
-75.000000000007
  0
ARC
  5
10C
100
AcDbEntity
  8
AM_5
  6
CONTINUOUS
 62
           3
100
AcDbCircle
 10
-649.833301587281
 20
381.39007705721
 40
2.5
100
AcDbArc
 50
14.999999999992
 51
-75.000000000002
  0
ARC
  5
10B
100
AcDbEntity
  8
AM_0
  6
CONTINUOUS
 62
           7
100
AcDbCircle
 10
-484.143299908814
 20
86.694382492756
 40
10.200000000001
100
AcDbArc
 50
-179.999999999994
 51
-105.000000000001
  0
ARC
  5
10A
100
AcDbEntity
  8
AM_0
  6
CONTINUOUS
 62
           7
100
AcDbCircle
 10
-446.943299908814
 20
86.694382492756
 40
10.2
100
AcDbArc
 50
-75.000000000004
 51
0.0
  0
ARC
  5
109
100
AcDbEntity
  8
AM_0
  6
CONTINUOUS
 62
           7
100
AcDbCircle
 10
-644.933301587281
 20
86.694382492756
 40
10.2
100
AcDbArc
 50
-179.999999999994
 51
-104.999999999999
  0
ARC
  5
108
100
AcDbEntity
  8
AM_0
  6
CONTINUOUS
 62
           7
100
AcDbCircle
 10
-607.733301587281
 20
86.694382492756
 40
10.200000000001
100
AcDbArc
 50
-74.999999999999
 51
0.0
  0
ARC
  5
107
100
AcDbEntity
  8
AM_0
  6
CONTINUOUS
 62
           7
100
AcDbCircle
 10
-805.723303265748
 20
86.694382492756
 40
10.2
100
AcDbArc
 50
-179.999999999994
 51
-104.999999999999
  0
ARC
  5
106
100
AcDbEntity
  8
AM_0
  6
CONTINUOUS
 62
           7
100
AcDbCircle
 10
-768.523303265748
 20
86.694382492756
 40
10.2
100
AcDbArc
 50
-75.0
 51
0.0
  0
LINE
  5
105
100
AcDbEntity
  8
1
  6
DOT_CENTER
 62
           3
100
AcDbLine
 10
-623.828684846813
 20
207.600075378743
 11
-628.102242755768
 21
207.600075378743
  0
LINE
  5
104
100
AcDbEntity
  8
1
  6
DOT_CENTER
 62
           7
100
AcDbLine
 10
-593.037152220755
 20
207.600075378743
 11
-593.146730628677
 21
207.600075378743
  0
LINE
  5
103
100
AcDbEntity
  8
1
  6
DOT_CENTER
 62
           3
100
AcDbLine
 10
-662.290706027406
 20
207.600075378743
 11
-590.188113614785
 21
207.600075378743
  0
LINE
  5
102
100
AcDbEntity
  8
AM_0
  6
CONTINUOUS
 62
           7
100
AcDbLine
 10
-783.69673943321
 20
58.000075378743
 11
-783.69673943321
 21
69.000075378743
  0
LINE
  5
101
100
AcDbEntity
  8
AM_7
  6
DOT_CENTER
 62
           3
100
AcDbLine
 10
-626.333301587281
 20
321.15007705721
 11
-626.333301587281
 21
381.63007705721
  0
LINE
  5
100
100
AcDbEntity
  8
AM_7
  6
CONTINUOUS
 62
           4
100
AcDbLine
 10
-652.458301587281
 20
381.39007705721
 11
-647.208301587281
 21
381.39007705721
  0
LINE
  5
FF
100
AcDbEntity
  8
AM_7
  6
CONTINUOUS
 62
           4
100
AcDbLine
 10
-649.833301587281
 20
378.76507705721
 11
-649.833301587281
 21
384.01507705721
  0
LINE
  5
FE
100
AcDbEntity
  8
AM_7
  6
CONTINUOUS
 62
           4
100
AcDbLine
 10
-605.458301587281
 20
381.39007705721
 11
-600.208301587281
 21
381.39007705721
  0
LINE
  5
FD
100
AcDbEntity
  8
AM_7
  6
CONTINUOUS
 62
           4
100
AcDbLine
 10
-602.833301587281
 20
378.76507705721
 11
-602.833301587281
 21
384.01507705721
  0
LINE
  5
FC
100
AcDbEntity
  8
AM_7
  6
CONTINUOUS
 62
           4
100
AcDbLine
 10
-652.458301587281
 20
321.39007705721
 11
-647.208301587281
 21
321.39007705721
  0
LINE
  5
FB
100
AcDbEntity
  8
AM_7
  6
CONTINUOUS
 62
           4
100
AcDbLine
 10
-649.833301587281
 20
318.76507705721
 11
-649.833301587281
 21
324.01507705721
  0
LINE
  5
FA
100
AcDbEntity
  8
AM_7
  6
CONTINUOUS
 62
           4
100
AcDbLine
 10
-605.458301587281
 20
321.39007705721
 11
-600.208301587281
 21
321.39007705721
  0
LINE
  5
F9
100
AcDbEntity
  8
AM_7
  6
CONTINUOUS
 62
           4
100
AcDbLine
 10
-602.833301587281
 20
318.76507705721
 11
-602.833301587281
 21
324.01507705721
  0
LINE
  5
F8
100
AcDbEntity
  8
AM_7
  6
DOT_CENTER
 62
           3
100
AcDbLine
 10
-662.068495933053
 20
351.39007705721
 11
-590.598107241509
 21
351.39007705721
  0
LINE
  5
F7
100
AcDbEntity
  8
AM_0
  6
CONTINUOUS
 62
           7
100
AcDbLine
 10
-634.717690362814
 20
313.916592766838
 11
-635.06566888921
 21
315.89007705721
  0
LINE
  5
F6
100
AcDbEntity
  8
AM_0
  6
CONTINUOUS
 62
           7
100
AcDbLine
 10
-617.600934285352
 20
315.89007705721
 11
-617.948912811749
 21
313.916592766838
  0
LINE
  5
F5
100
AcDbEntity
  8
AM_0
  6
CONTINUOUS
 62
           7
100
AcDbLine
 10
-594.633301587281
 20
369.39007705721
 11
-598.130819424965
 21
382.442991327825
  0
LINE
  5
F4
100
AcDbEntity
  8
AM_0
  6
CONTINUOUS
 62
           7
100
AcDbLine
 10
-654.535783749597
 20
382.442991327825
 11
-658.033301587281
 21
369.39007705721
  0
LINE
  5
F3
100
AcDbEntity
  8
AM_0
  6
CONTINUOUS
 62
           7
100
AcDbLine
 10
-603.9263743827
 20
386.89007705721
 11
-648.740228791863
 21
386.89007705721
  0
LINE
  5
F2
100
AcDbEntity
  8
AM_0
  6
CONTINUOUS
 62
           7
100
AcDbLine
 10
-648.740228791863
 20
315.89007705721
 11
-603.9263743827
 21
315.89007705721
  0
LINE
  5
F1
100
AcDbEntity
  8
AM_0
  6
CONTINUOUS
 62
           7
100
AcDbLine
 10
-598.130819424965
 20
320.337162786595
 11
-594.633301587281
 21
333.39007705721
  0
LINE
  5
F0
100
AcDbEntity
  8
AM_0
  6
CONTINUOUS
 62
           7
100
AcDbLine
 10
-658.033301587281
 20
333.39007705721
 11
-654.535783749597
 21
320.337162786594
  0
LINE
  5
EF
100
AcDbEntity
  8
AM_0
  6
CONTINUOUS
 62
           7
100
AcDbLine
 10
-605.433301587281
 20
365.89007705721
 11
-606.377036428102
 21
369.576541279167
  0
LINE
  5
EE
100
AcDbEntity
  8
AM_0
  6
CONTINUOUS
 62
           7
100
AcDbLine
 10
-646.28956674646
 20
369.576541279167
 11
-647.233301587281
 21
365.89007705721
  0
LINE
  5
ED
100
AcDbEntity
  8
AM_0
  6
CONTINUOUS
 62
           7
100
AcDbLine
 10
-647.233301587281
 20
336.89007705721
 11
-646.28956674646
 21
333.203612835252
  0
LINE
  5
EC
100
AcDbEntity
  8
AM_0
  6
CONTINUOUS
 62
           7
100
AcDbLine
 10
-606.377036428102
 20
333.203612835252
 11
-605.433301587281
 21
336.89007705721
  0
LINE
  5
EB
100
AcDbEntity
  8
AM_0
  6
CONTINUOUS
 62
           7
100
AcDbLine
 10
-657.333301587281
 20
352.69007705721
 11
-657.333301587281
 21
350.09007705721
  0
LINE
  5
EA
100
AcDbEntity
  8
AM_0
  6
CONTINUOUS
 62
           7
100
AcDbLine
 10
-657.333301587281
 20
350.09007705721
 11
-653.833301587281
 21
350.09007705721
  0
LINE
  5
E9
100
AcDbEntity
  8
AM_0
  6
CONTINUOUS
 62
           7
100
AcDbLine
 10
-653.833301587281
 20
350.09007705721
 11
-653.833301587281
 21
348.214650576667
  0
LINE
  5
E8
100
AcDbEntity
  8
AM_0
  6
CONTINUOUS
 62
           7
100
AcDbLine
 10
-653.833301587281
 20
348.214650576667
 11
-648.333301587281
 21
351.39007705721
  0
LINE
  5
E7
100
AcDbEntity
  8
AM_0
  6
CONTINUOUS
 62
           7
100
AcDbLine
 10
-653.833301587281
 20
352.69007705721
 11
-657.333301587281
 21
352.69007705721
  0
LINE
  5
E6
100
AcDbEntity
  8
AM_0
  6
CONTINUOUS
 62
           7
100
AcDbLine
 10
-653.833301587281
 20
354.565503537752
 11
-653.833301587281
 21
352.69007705721
  0
LINE
  5
E5
100
AcDbEntity
  8
AM_0
  6
CONTINUOUS
 62
           7
100
AcDbLine
 10
-648.333301587281
 20
351.39007705721
 11
-653.833301587281
 21
354.565503537752
  0
LINE
  5
E4
100
AcDbEntity
  8
AM_0
  6
CONTINUOUS
 62
           7
100
AcDbLine
 10
-658.033301587281
 20
333.39007705721
 11
-656.012575645117
 21
336.89007705721
  0
LINE
  5
E3
100
AcDbEntity
  8
AM_0
  6
CONTINUOUS
 62
           7
100
AcDbLine
 10
-656.012575645117
 20
336.89007705721
 11
-596.654027529445
 21
336.89007705721
  0
LINE
  5
E2
100
AcDbEntity
  8
AM_0
  6
CONTINUOUS
 62
           7
100
AcDbLine
 10
-596.654027529445
 20
336.89007705721
 11
-594.633301587281
 21
333.39007705721
  0
LINE
  5
E1
100
AcDbEntity
  8
AM_0
  6
CONTINUOUS
 62
           7
100
AcDbLine
 10
-591.333301587281
 20
333.39007705721
 11
-594.633301587281
 21
333.39007705721
  0
LINE
  5
E0
100
AcDbEntity
  8
AM_0
  6
CONTINUOUS
 62
           7
100
AcDbLine
 10
-591.333301587281
 20
338.89007705721
 11
-661.333301587281
 21
338.89007705721
  0
LINE
  5
DF
100
AcDbEntity
  8
AM_0
  6
CONTINUOUS
 62
           7
100
AcDbLine
 10
-661.333301587281
 20
333.39007705721
 11
-661.333301587281
 21
369.39007705721
  0
LINE
  5
DE
100
AcDbEntity
  8
AM_0
  6
CONTINUOUS
 62
           7
100
AcDbLine
 10
-658.033301587281
 20
333.39007705721
 11
-661.333301587281
 21
333.39007705721
  0
LINE
  5
DD
100
AcDbEntity
  8
AM_0
  6
CONTINUOUS
 62
           7
100
AcDbLine
 10
-594.633301587281
 20
369.39007705721
 11
-596.654027529445
 21
365.89007705721
  0
LINE
  5
DC
100
AcDbEntity
  8
AM_0
  6
CONTINUOUS
 62
           7
100
AcDbLine
 10
-596.654027529445
 20
365.89007705721
 11
-656.012575645117
 21
365.89007705721
  0
LINE
  5
DB
100
AcDbEntity
  8
AM_0
  6
CONTINUOUS
 62
           7
100
AcDbLine
 10
-656.012575645117
 20
365.89007705721
 11
-658.033301587281
 21
369.39007705721
  0
LINE
  5
DA
100
AcDbEntity
  8
AM_0
  6
CONTINUOUS
 62
           7
100
AcDbLine
 10
-658.033301587281
 20
369.39007705721
 11
-661.333301587281
 21
369.39007705721
  0
LINE
  5
D9
100
AcDbEntity
  8
AM_0
  6
CONTINUOUS
 62
           7
100
AcDbLine
 10
-591.333301587281
 20
363.89007705721
 11
-661.333301587281
 21
363.89007705721
  0
LINE
  5
D8
100
AcDbEntity
  8
AM_0
  6
CONTINUOUS
 62
           7
100
AcDbLine
 10
-591.333301587281
 20
333.39007705721
 11
-591.333301587281
 21
369.39007705721
  0
LINE
  5
D7
100
AcDbEntity
  8
AM_0
  6
CONTINUOUS
 62
           7
100
AcDbLine
 10
-591.333301587281
 20
369.39007705721
 11
-594.633301587281
 21
369.39007705721
  0
LINE
  5
D6
100
AcDbEntity
  8
AM_7
  6
DOT_CENTER
 62
           3
100
AcDbLine
 10
-472.450724908814
 20
207.600075378743
 11
-458.635874908814
 21
207.600075378743
  0
LINE
  5
D5
100
AcDbEntity
  8
AM_7
  6
DOT_CENTER
 62
           3
100
AcDbLine
 10
-465.543299908814
 20
54.924908672445
 11
-465.543299908814
 21
231.832493571511
  0
LINE
  5
D4
100
AcDbEntity
  8
AM_0
  6
CONTINUOUS
 62
           7
100
AcDbLine
 10
-462.143299908814
 20
69.000075378743
 11
-462.143299908814
 21
71.500075378743
  0
LINE
  5
D3
100
AcDbEntity
  8
AM_0
  6
CONTINUOUS
 62
           7
100
AcDbLine
 10
-468.943299908814
 20
71.500075378743
 11
-468.943299908814
 21
69.000075378743
  0
LINE
  5
D2
100
AcDbEntity
  8
AM_0
  6
CONTINUOUS
 62
           7
100
AcDbLine
 10
-473.543299908814
 20
69.000075378743
 11
-473.543299908814
 21
58.000075378743
  0
LINE
  5
D1
100
AcDbEntity
  8
AM_0
  6
CONTINUOUS
 62
           7
100
AcDbLine
 10
-457.543299908814
 20
58.000075378743
 11
-457.543299908814
 21
69.000075378743
  0
LINE
  5
D0
100
AcDbEntity
  8
AM_0
  6
CONTINUOUS
 62
           7
100
AcDbLine
 10
-457.543299908814
 20
69.000075378743
 11
-473.543299908814
 21
69.000075378743
  0
LINE
  5
CF
100
AcDbEntity
  8
AM_0
  6
CONTINUOUS
 62
           7
100
AcDbLine
 10
-457.543299908814
 20
58.000075378743
 11
-473.543299908814
 21
58.000075378743
  0
LINE
  5
CE
100
AcDbEntity
  8
AM_0
  6
CONTINUOUS
 62
           7
100
AcDbLine
 10
-469.116469537725
 20
58.000075378743
 11
-469.116469537725
 21
69.000075378743
  0
LINE
  5
CD
100
AcDbEntity
  8
AM_0
  6
CONTINUOUS
 62
           7
100
AcDbLine
 10
-462.116736076276
 20
58.000075378743
 11
-462.116736076276
 21
69.000075378743
  0
LINE
  5
CC
100
AcDbEntity
  8
AM_0
  6
CONTINUOUS
 62
           7
100
AcDbLine
 10
-499.343299908814
 20
141.550075378743
 11
-499.343299908814
 21
149.050075378743
  0
LINE
  5
CB
100
AcDbEntity
  8
AM_0
  6
CONTINUOUS
 62
           7
100
AcDbLine
 10
-493.813248617647
 20
141.550075378743
 11
-499.343299908814
 21
141.550075378743
  0
LINE
  5
CA
100
AcDbEntity
  8
AM_0
  6
CONTINUOUS
 62
           7
100
AcDbLine
 10
-500.943299908814
 20
147.800075378743
 11
-503.943299908814
 21
147.800075378743
  0
LINE
  5
C9
100
AcDbEntity
  8
AM_0
  6
CONTINUOUS
 62
           7
100
AcDbLine
 10
-503.943299908814
 20
147.800075378743
 11
-503.943299908814
 21
146.400075378743
  0
LINE
  5
C8
100
AcDbEntity
  8
AM_0
  6
CONTINUOUS
 62
           7
100
AcDbLine
 10
-492.997807735399
 20
162.060075378743
 11
-499.543299908814
 21
162.060075378743
  0
LINE
  5
C7
100
AcDbEntity
  8
AM_0
  6
CONTINUOUS
 62
           7
100
AcDbLine
 10
-492.997807735399
 20
149.050075378743
 11
-499.543299908814
 21
149.050075378743
  0
LINE
  5
C6
100
AcDbEntity
  8
AM_0
  6
CONTINUOUS
 62
           7
100
AcDbLine
 10
-499.543299908814
 20
146.400075378743
 11
-499.543299908814
 21
166.300075378743
  0
LINE
  5
C5
100
AcDbEntity
  8
AM_0
  6
CONTINUOUS
 62
           7
100
AcDbLine
 10
-503.016784199186
 20
146.400075378743
 11
-503.016784199186
 21
147.800075378743
  0
LINE
  5
C4
100
AcDbEntity
  8
AM_0
  6
CONTINUOUS
 62
           7
100
AcDbLine
 10
-500.943299908814
 20
164.435011869282
 11
-499.543299908814
 21
164.435011869282
  0
LINE
  5
C3
100
AcDbEntity
  8
AM_0
  6
CONTINUOUS
 62
           7
100
AcDbLine
 10
-500.943299908814
 20
146.400075378743
 11
-500.943299908814
 21
166.300075378743
  0
LINE
  5
C2
100
AcDbEntity
  8
AM_0
  6
CONTINUOUS
 62
           7
100
AcDbLine
 10
-499.543299908814
 20
146.400075378743
 11
-503.943299908814
 21
146.400075378743
  0
LINE
  5
C1
100
AcDbEntity
  8
AM_0
  6
CONTINUOUS
 62
           7
100
AcDbLine
 10
-453.043299908814
 20
71.500075378743
 11
-478.043299908814
 21
71.500075378743
  0
LINE
  5
C0
100
AcDbEntity
  8
AM_0
  6
CONTINUOUS
 62
           7
100
AcDbLine
 10
-478.043299908814
 20
74.500075378743
 11
-478.043299908814
 21
71.500075378743
  0
LINE
  5
BF
100
AcDbEntity
  8
AM_0
  6
CONTINUOUS
 62
           7
100
AcDbLine
 10
-453.043299908814
 20
71.500075378743
 11
-453.043299908814
 21
74.500075378743
  0
LINE
  5
BE
100
AcDbEntity
  8
AM_0
  6
CONTINUOUS
 62
           7
100
AcDbLine
 10
-453.043299908814
 20
74.500075378743
 11
-478.043299908814
 21
74.500075378743
  0
LINE
  5
BD
100
AcDbEntity
  8
AM_0
  6
CONTINUOUS
 62
           7
100
AcDbLine
 10
-453.043299908814
 20
74.500075378743
 11
-444.303345648769
 21
76.841939064607
  0
LINE
  5
BC
100
AcDbEntity
  8
AM_0
  6
CONTINUOUS
 62
           7
100
AcDbLine
 10
-486.78325416886
 20
76.841939064607
 11
-478.043299908814
 21
74.500075378743
  0
LINE
  5
BB
100
AcDbEntity
  8
AM_0
  6
CONTINUOUS
 62
           7
100
AcDbLine
 10
-492.997807735399
 20
162.060075378743
 11
-492.997807735399
 21
149.050075378743
  0
LINE
  5
BA
100
AcDbEntity
  8
AM_0
  6
CONTINUOUS
 62
           7
100
AcDbLine
 10
-493.813248617647
 20
149.050075378743
 11
-493.813248617647
 21
141.550075378743
  0
LINE
  5
B9
100
AcDbEntity
  8
AM_0
  6
CONTINUOUS
 62
           7
100
AcDbLine
 10
-494.343299908815
 20
166.300075378743
 11
-494.343299908815
 21
162.060075378743
  0
LINE
  5
B8
100
AcDbEntity
  8
AM_0
  6
CONTINUOUS
 62
           7
100
AcDbLine
 10
-494.343299908815
 20
141.550075378743
 11
-494.343299908815
 21
86.694382492755
  0
LINE
  5
B7
100
AcDbEntity
  8
AM_0
  6
CONTINUOUS
 62
           7
100
AcDbLine
 10
-436.743299908814
 20
86.694382492756
 11
-436.743299908814
 21
166.300075378743
  0
LINE
  5
B6
100
AcDbEntity
  8
AM_0
  6
CONTINUOUS
 62
           7
100
AcDbLine
 10
-447.543299908814
 20
219.600075378743
 11
-438.543299908814
 21
219.600075378743
  0
LINE
  5
B5
100
AcDbEntity
  8
AM_0
  6
CONTINUOUS
 62
           7
100
AcDbLine
 10
-438.543299908814
 20
195.600075378743
 11
-438.543299908814
 21
219.600075378743
  0
LINE
  5
B4
100
AcDbEntity
  8
AM_0
  6
CONTINUOUS
 62
           7
100
AcDbLine
 10
-492.543299908814
 20
219.600075378743
 11
-492.543299908814
 21
195.600075378743
  0
LINE
  5
B3
100
AcDbEntity
  8
AM_0
  6
CONTINUOUS
 62
           7
100
AcDbLine
 10
-492.543299908814
 20
219.600075378743
 11
-483.543299908814
 21
219.600075378743
  0
LINE
  5
B2
100
AcDbEntity
  8
AM_0
  6
CONTINUOUS
 62
           7
100
AcDbLine
 10
-447.356835686857
 20
219.600075378743
 11
-447.356835686857
 21
195.600075378743
  0
LINE
  5
B1
100
AcDbEntity
  8
AM_0
  6
CONTINUOUS
 62
           7
100
AcDbLine
 10
-483.729764130772
 20
219.600075378743
 11
-483.729764130772
 21
195.600075378743
  0
LINE
  5
B0
100
AcDbEntity
  8
AM_0
  6
CONTINUOUS
 62
           7
100
AcDbLine
 10
-501.043299908814
 20
166.300075378743
 11
-430.043299908814
 21
166.300075378743
  0
LINE
  5
AF
100
AcDbEntity
  8
AM_0
  6
CONTINUOUS
 62
           7
100
AcDbLine
 10
-447.543299908814
 20
195.600075378743
 11
-430.043299908814
 21
195.600075378743
  0
LINE
  5
AE
100
AcDbEntity
  8
AM_0
  6
CONTINUOUS
 62
           7
100
AcDbLine
 10
-430.043299908814
 20
195.600075378743
 11
-430.043299908814
 21
166.300075378743
  0
LINE
  5
AD
100
AcDbEntity
  8
AM_0
  6
CONTINUOUS
 62
           7
100
AcDbLine
 10
-501.043299908814
 20
195.600075378743
 11
-483.543299908814
 21
195.600075378743
  0
LINE
  5
AC
100
AcDbEntity
  8
AM_0
  6
CONTINUOUS
 62
           7
100
AcDbLine
 10
-501.043299908814
 20
195.600075378743
 11
-501.043299908814
 21
166.300075378743
  0
LINE
  5
AB
100
AcDbEntity
  8
AM_0
  6
CONTINUOUS
 62
           7
100
AcDbLine
 10
-447.543299908814
 20
220.100075378743
 11
-447.543299908814
 21
166.300075378743
  0
LINE
  5
AA
100
AcDbEntity
  8
AM_0
  6
CONTINUOUS
 62
           7
100
AcDbLine
 10
-453.043299908814
 20
225.600075378743
 11
-447.543299908814
 21
220.100075378743
  0
LINE
  5
A9
100
AcDbEntity
  8
AM_0
  6
CONTINUOUS
 62
           7
100
AcDbLine
 10
-483.543299908814
 20
220.100075378743
 11
-478.043299908814
 21
225.600075378743
  0
LINE
  5
A8
100
AcDbEntity
  8
AM_0
  6
CONTINUOUS
 62
           7
100
AcDbLine
 10
-483.543299908814
 20
189.600075378743
 11
-447.543299908814
 21
189.600075378743
  0
LINE
  5
A7
100
AcDbEntity
  8
AM_0
  6
CONTINUOUS
 62
           7
100
AcDbLine
 10
-478.043299908814
 20
225.600075378743
 11
-453.043299908814
 21
225.600075378743
  0
LINE
  5
A6
100
AcDbEntity
  8
AM_0
  6
CONTINUOUS
 62
           7
100
AcDbLine
 10
-483.543299908814
 20
220.100075378743
 11
-483.543299908814
 21
166.300075378743
  0
LINE
  5
A5
100
AcDbEntity
  8
AM_0
  6
CONTINUOUS
 62
           7
100
AcDbLine
 10
-483.543299908814
 20
186.400075378743
 11
-447.543299908814
 21
186.400075378743
  0
LINE
  5
A4
100
AcDbEntity
  8
AM_0
  6
CONTINUOUS
 62
           7
100
AcDbLine
 10
-622.933301587281
 20
69.000075378743
 11
-622.933301587281
 21
71.500075378743
  0
LINE
  5
A3
100
AcDbEntity
  8
AM_0
  6
CONTINUOUS
 62
           7
100
AcDbLine
 10
-629.733301587281
 20
71.500075378743
 11
-629.733301587281
 21
69.000075378743
  0
LINE
  5
A2
100
AcDbEntity
  8
AM_0
  6
CONTINUOUS
 62
           7
100
AcDbLine
 10
-617.903078559298
 20
69.000075378743
 11
-634.763524615265
 21
69.000075378743
  0
LINE
  5
A1
100
AcDbEntity
  8
AM_0
  6
CONTINUOUS
 62
           7
100
AcDbLine
 10
-617.903078559298
 20
58.000075378743
 11
-634.763524615265
 21
58.000075378743
  0
LINE
  5
A0
100
AcDbEntity
  8
AM_0
  6
CONTINUOUS
 62
           7
100
AcDbLine
 10
-617.903078559298
 20
58.000075378743
 11
-617.903078559298
 21
69.000075378743
  0
LINE
  5
9F
100
AcDbEntity
  8
AM_0
  6
CONTINUOUS
 62
           7
100
AcDbLine
 10
-634.763524615265
 20
58.000075378743
 11
-634.763524615265
 21
69.000075378743
  0
LINE
  5
9E
100
AcDbEntity
  8
AM_0
  6
CONTINUOUS
 62
           7
100
AcDbLine
 10
-617.964164307786
 20
58.000075378743
 11
-617.964164307786
 21
69.000075378743
  0
LINE
  5
9D
100
AcDbEntity
  8
AM_0
  6
CONTINUOUS
 62
           7
100
AcDbLine
 10
-638.833301587281
 20
74.500075378743
 11
-638.833301587281
 21
71.500075378743
  0
LINE
  5
9C
100
AcDbEntity
  8
AM_0
  6
CONTINUOUS
 62
           7
100
AcDbLine
 10
-613.833301587281
 20
71.500075378743
 11
-613.833301587281
 21
74.500075378743
  0
LINE
  5
9B
100
AcDbEntity
  8
AM_0
  6
CONTINUOUS
 62
           7
100
AcDbLine
 10
-613.833301587281
 20
71.500075378743
 11
-638.833301587281
 21
71.500075378743
  0
LINE
  5
9A
100
AcDbEntity
  8
AM_0
  6
CONTINUOUS
 62
           7
100
AcDbLine
 10
-613.833301587281
 20
74.500075378743
 11
-605.093347327235
 21
76.841939064607
  0
LINE
  5
99
100
AcDbEntity
  8
AM_0
  6
CONTINUOUS
 62
           7
100
AcDbLine
 10
-647.573255847327
 20
76.841939064607
 11
-638.833301587281
 21
74.500075378743
  0
LINE
  5
98
100
AcDbEntity
  8
AM_0
  6
CONTINUOUS
 62
           7
100
AcDbLine
 10
-613.833301587281
 20
74.500075378743
 11
-638.833301587281
 21
74.500075378743
  0
LINE
  5
97
100
AcDbEntity
  8
AM_0
  6
CONTINUOUS
 62
           7
100
AcDbLine
 10
-655.133301587281
 20
166.300075378743
 11
-655.133301587281
 21
86.694382492755
  0
LINE
  5
96
100
AcDbEntity
  8
AM_0
  6
CONTINUOUS
 62
           7
100
AcDbLine
 10
-597.533301587281
 20
86.694382492756
 11
-597.533301587281
 21
166.300075378743
  0
LINE
  5
95
100
AcDbEntity
  8
AM_0
  6
CONTINUOUS
 62
           7
100
AcDbLine
 10
-622.783301587281
 20
141.550075378743
 11
-622.783301587281
 21
146.400075378743
  0
LINE
  5
94
100
AcDbEntity
  8
AM_0
  6
CONTINUOUS
 62
           7
100
AcDbLine
 10
-620.833301587281
 20
141.550075378743
 11
-620.833301587281
 21
146.400075378743
  0
LINE
  5
93
100
AcDbEntity
  8
AM_0
  6
CONTINUOUS
 62
           7
100
AcDbLine
 10
-622.783301587281
 20
141.550075378743
 11
-620.833301587281
 21
141.550075378743
  0
LINE
  5
92
100
AcDbEntity
  8
AM_0
  6
CONTINUOUS
 62
           7
100
AcDbLine
 10
-631.833301587281
 20
146.400075378743
 11
-631.833301587281
 21
141.550075378743
  0
LINE
  5
91
100
AcDbEntity
  8
AM_0
  6
CONTINUOUS
 62
           7
100
AcDbLine
 10
-631.833301587281
 20
141.550075378743
 11
-629.883301587281
 21
141.550075378743
  0
LINE
  5
90
100
AcDbEntity
  8
AM_0
  6
CONTINUOUS
 62
           7
100
AcDbLine
 10
-629.883301587281
 20
146.400075378743
 11
-629.883301587281
 21
141.550075378743
  0
LINE
  5
8F
100
AcDbEntity
  8
AM_0
  6
CONTINUOUS
 62
           7
100
AcDbLine
 10
-617.583301587281
 20
164.435011869282
 11
-618.833301587281
 21
166.600075378743
  0
LINE
  5
8E
100
AcDbEntity
  8
AM_0
  6
CONTINUOUS
 62
           7
100
AcDbLine
 10
-635.083301587281
 20
164.435011869282
 11
-635.083301587281
 21
146.400075378743
  0
LINE
  5
8D
100
AcDbEntity
  8
AM_0
  6
CONTINUOUS
 62
           7
100
AcDbLine
 10
-618.833301587281
 20
166.600075378743
 11
-618.833301587281
 21
168.300075378743
  0
LINE
  5
8C
100
AcDbEntity
  8
AM_0
  6
CONTINUOUS
 62
           7
100
AcDbLine
 10
-617.583301587281
 20
146.400075378743
 11
-617.583301587281
 21
164.435011869282
  0
LINE
  5
8B
100
AcDbEntity
  8
AM_0
  6
CONTINUOUS
 62
           7
100
AcDbLine
 10
-633.833301587281
 20
168.300075378743
 11
-633.833301587281
 21
166.600075378743
  0
LINE
  5
8A
100
AcDbEntity
  8
AM_0
  6
CONTINUOUS
 62
           7
100
AcDbLine
 10
-633.833301587281
 20
166.600075378743
 11
-635.083301587281
 21
164.435011869282
  0
LINE
  5
89
100
AcDbEntity
  8
AM_0
  6
CONTINUOUS
 62
           7
100
AcDbLine
 10
-617.583301587281
 20
146.400075378743
 11
-635.083301587281
 21
146.400075378743
  0
LINE
  5
88
100
AcDbEntity
  8
AM_0
  6
CONTINUOUS
 62
           7
100
AcDbLine
 10
-617.583301587281
 20
147.800075378743
 11
-635.083301587281
 21
147.800075378743
  0
LINE
  5
87
100
AcDbEntity
  8
AM_0
  6
CONTINUOUS
 62
           7
100
AcDbLine
 10
-634.717690362814
 20
146.400075378743
 11
-634.717690362814
 21
147.800075378743
  0
LINE
  5
86
100
AcDbEntity
  8
AM_0
  6
CONTINUOUS
 62
           7
100
AcDbLine
 10
-617.948912811749
 20
146.400075378743
 11
-617.948912811749
 21
147.800075378743
  0
LINE
  5
85
100
AcDbEntity
  8
AM_0
  6
CONTINUOUS
 62
           7
100
AcDbLine
 10
-591.333301587281
 20
189.600075378743
 11
-591.333301587281
 21
225.600075378743
  0
LINE
  5
84
100
AcDbEntity
  8
AM_0
  6
CONTINUOUS
 62
           7
100
AcDbLine
 10
-656.012575645117
 20
223.600075378743
 11
-596.654027529445
 21
223.600075378743
  0
LINE
  5
83
100
AcDbEntity
  8
AM_0
  6
CONTINUOUS
 62
           7
100
AcDbLine
 10
-591.333301587281
 20
225.600075378743
 11
-661.333301587281
 21
225.600075378743
  0
LINE
  5
82
100
AcDbEntity
  8
AM_0
  6
CONTINUOUS
 62
           7
100
AcDbLine
 10
-661.333301587281
 20
189.600075378743
 11
-661.333301587281
 21
225.600075378743
  0
LINE
  5
81
100
AcDbEntity
  8
AM_0
  6
CONTINUOUS
 62
           7
100
AcDbLine
 10
-658.033301587281
 20
220.100075378743
 11
-656.012575645117
 21
223.600075378743
  0
LINE
  5
80
100
AcDbEntity
  8
AM_0
  6
CONTINUOUS
 62
           7
100
AcDbLine
 10
-656.012575645117
 20
223.600075378743
 11
-656.012575645117
 21
195.600075378743
  0
LINE
  5
7F
100
AcDbEntity
  8
AM_0
  6
CONTINUOUS
 62
           7
100
AcDbLine
 10
-596.654027529445
 20
223.600075378743
 11
-594.633301587281
 21
220.100075378743
  0
LINE
  5
7E
100
AcDbEntity
  8
AM_0
  6
CONTINUOUS
 62
           7
100
AcDbLine
 10
-596.654027529445
 20
223.600075378743
 11
-596.654027529445
 21
195.600075378743
  0
LINE
  5
7D
100
AcDbEntity
  8
AM_0
  6
CONTINUOUS
 62
           7
100
AcDbLine
 10
-659.133301587281
 20
189.600075378743
 11
-661.333301587281
 21
189.600075378743
  0
LINE
  5
7C
100
AcDbEntity
  8
AM_0
  6
CONTINUOUS
 62
           7
100
AcDbLine
 10
-659.133301587281
 20
186.400075378743
 11
-659.133301587281
 21
189.600075378743
  0
LINE
  5
7B
100
AcDbEntity
  8
AM_0
  6
CONTINUOUS
 62
           7
100
AcDbLine
 10
-661.333301587281
 20
186.400075378743
 11
-659.133301587281
 21
186.400075378743
  0
LINE
  5
7A
100
AcDbEntity
  8
AM_0
  6
CONTINUOUS
 62
           7
100
AcDbLine
 10
-661.333301587281
 20
186.400075378743
 11
-661.333301587281
 21
166.300075378743
  0
LINE
  5
79
100
AcDbEntity
  8
AM_0
  6
CONTINUOUS
 62
           7
100
AcDbLine
 10
-658.033301587281
 20
220.100075378743
 11
-658.033301587281
 21
166.300075378743
  0
LINE
  5
78
100
AcDbEntity
  8
AM_0
  6
CONTINUOUS
 62
           7
100
AcDbLine
 10
-658.033301587281
 20
220.100075378743
 11
-661.333301587281
 21
220.100075378743
  0
LINE
  5
77
100
AcDbEntity
  8
AM_0
  6
CONTINUOUS
 62
           7
100
AcDbLine
 10
-591.333301587281
 20
189.600075378743
 11
-593.533301587281
 21
189.600075378743
  0
LINE
  5
76
100
AcDbEntity
  8
AM_0
  6
CONTINUOUS
 62
           7
100
AcDbLine
 10
-591.333301587281
 20
220.100075378743
 11
-594.633301587281
 21
220.100075378743
  0
LINE
  5
75
100
AcDbEntity
  8
AM_0
  6
CONTINUOUS
 62
           7
100
AcDbLine
 10
-594.633301587281
 20
220.100075378743
 11
-594.633301587281
 21
166.300075378743
  0
LINE
  5
74
100
AcDbEntity
  8
AM_0
  6
CONTINUOUS
 62
           7
100
AcDbLine
 10
-591.333301587281
 20
186.400075378743
 11
-591.333301587281
 21
166.300075378743
  0
LINE
  5
73
100
AcDbEntity
  8
AM_0
  6
CONTINUOUS
 62
           7
100
AcDbLine
 10
-593.533301587281
 20
186.400075378743
 11
-591.333301587281
 21
186.400075378743
  0
LINE
  5
72
100
AcDbEntity
  8
AM_0
  6
CONTINUOUS
 62
           7
100
AcDbLine
 10
-593.533301587281
 20
189.600075378743
 11
-593.533301587281
 21
186.400075378743
  0
LINE
  5
71
100
AcDbEntity
  8
AM_0
  6
CONTINUOUS
 62
           7
100
AcDbLine
 10
-605.433301587281
 20
219.600075378743
 11
-605.433301587281
 21
195.600075378743
  0
LINE
  5
70
100
AcDbEntity
  8
AM_0
  6
CONTINUOUS
 62
           7
100
AcDbLine
 10
-647.233301587281
 20
219.600075378743
 11
-605.433301587281
 21
219.600075378743
  0
LINE
  5
6F
100
AcDbEntity
  8
AM_0
  6
CONTINUOUS
 62
           7
100
AcDbLine
 10
-647.233301587281
 20
219.600075378743
 11
-647.233301587281
 21
195.600075378743
  0
LINE
  5
6E
100
AcDbEntity
  8
AM_0
  6
CONTINUOUS
 62
           7
100
AcDbLine
 10
-606.377036428102
 20
219.600075378743
 11
-606.377036428102
 21
195.600075378743
  0
LINE
  5
6D
100
AcDbEntity
  8
AM_0
  6
CONTINUOUS
 62
           7
100
AcDbLine
 10
-646.28956674646
 20
219.600075378743
 11
-646.28956674646
 21
195.600075378743
  0
LINE
  5
6C
100
AcDbEntity
  8
AM_0
  6
CONTINUOUS
 62
           7
100
AcDbLine
 10
-658.033301587281
 20
195.600075378743
 11
-594.633301587281
 21
195.600075378743
  0
LINE
  5
6B
100
AcDbEntity
  8
AM_0
  6
CONTINUOUS
 62
           7
100
AcDbLine
 10
-618.660096506524
 20
166.300075378743
 11
-591.333301587281
 21
166.300075378743
  0
LINE
  5
6A
100
AcDbEntity
  8
AM_0
  6
CONTINUOUS
 62
           7
100
AcDbLine
 10
-634.178601048902
 20
168.300075378743
 11
-635.333301587281
 21
166.300075378743
  0
LINE
  5
69
100
AcDbEntity
  8
AM_0
  6
CONTINUOUS
 62
           7
100
AcDbLine
 10
-618.488002125661
 20
168.300075378743
 11
-634.178601048902
 21
168.300075378743
  0
LINE
  5
68
100
AcDbEntity
  8
AM_0
  6
CONTINUOUS
 62
           7
100
AcDbLine
 10
-617.333301587281
 20
166.300075378743
 11
-618.488002125661
 21
168.300075378743
  0
LINE
  5
67
100
AcDbEntity
  8
AM_0
  6
CONTINUOUS
 62
           7
100
AcDbLine
 10
-661.333301587281
 20
166.300075378743
 11
-634.006506668038
 21
166.300075378743
  0
LINE
  5
66
100
AcDbEntity
  8
AM_7
  6
DOT_CENTER
 62
           3
100
AcDbLine
 10
-794.030728265748
 20
207.600075378743
 11
-780.215878265748
 21
207.600075378743
  0
LINE
  5
65
100
AcDbEntity
  8
AM_7
  6
DOT_CENTER
 62
           3
100
AcDbLine
 10
-787.123303265748
 20
200.692650378743
 11
-787.123303265748
 21
214.507500378743
  0
LINE
  5
64
100
AcDbEntity
  8
AM_0
  6
CONTINUOUS
 62
           7
100
AcDbLine
 10
-783.723303265748
 20
69.000075378743
 11
-783.723303265748
 21
71.500075378743
  0
LINE
  5
63
100
AcDbEntity
  8
AM_0
  6
CONTINUOUS
 62
           7
100
AcDbLine
 10
-790.523303265748
 20
71.500075378743
 11
-790.523303265748
 21
69.000075378743
  0
LINE
  5
62
100
AcDbEntity
  8
AM_0
  6
CONTINUOUS
 62
           7
100
AcDbLine
 10
-795.123303265748
 20
69.000075378743
 11
-795.123303265748
 21
58.000075378743
  0
LINE
  5
61
100
AcDbEntity
  8
AM_0
  6
CONTINUOUS
 62
           7
100
AcDbLine
 10
-779.123303265748
 20
58.000075378743
 11
-779.123303265748
 21
69.000075378743
  0
LINE
  5
60
100
AcDbEntity
  8
AM_0
  6
CONTINUOUS
 62
           7
100
AcDbLine
 10
-779.123303265748
 20
69.000075378743
 11
-795.123303265748
 21
69.000075378743
  0
LINE
  5
5F
100
AcDbEntity
  8
AM_0
  6
CONTINUOUS
 62
           7
100
AcDbLine
 10
-779.123303265748
 20
58.000075378743
 11
-795.123303265748
 21
58.000075378743
  0
LINE
  5
5E
100
AcDbEntity
  8
AM_0
  6
CONTINUOUS
 62
           7
100
AcDbLine
 10
-790.696472894659
 20
58.000075378743
 11
-790.696472894659
 21
69.000075378743
  0
LINE
  5
5D
100
AcDbEntity
  8
AM_0
  6
CONTINUOUS
 62
           7
100
AcDbLine
 10
-753.323303265748
 20
149.050075378743
 11
-753.323303265748
 21
141.550075378743
  0
LINE
  5
5C
100
AcDbEntity
  8
AM_0
  6
CONTINUOUS
 62
           7
100
AcDbLine
 10
-758.853354556916
 20
141.550075378743
 11
-753.323303265748
 21
141.550075378743
  0
LINE
  5
5B
100
AcDbEntity
  8
AM_0
  6
CONTINUOUS
 62
           7
100
AcDbLine
 10
-748.723303265748
 20
146.400075378743
 11
-748.723303265748
 21
147.800075378743
  0
LINE
  5
5A
100
AcDbEntity
  8
AM_0
  6
CONTINUOUS
 62
           7
100
AcDbLine
 10
-748.723303265748
 20
147.800075378743
 11
-751.723303265748
 21
147.800075378743
  0
LINE
  5
59
100
AcDbEntity
  8
AM_0
  6
CONTINUOUS
 62
           7
100
AcDbLine
 10
-759.668795439163
 20
162.060075378743
 11
-753.123303265748
 21
162.060075378743
  0
LINE
  5
58
100
AcDbEntity
  8
AM_0
  6
CONTINUOUS
 62
           7
100
AcDbLine
 10
-759.668795439163
 20
149.050075378743
 11
-753.123303265748
 21
149.050075378743
  0
LINE
  5
57
100
AcDbEntity
  8
AM_0
  6
CONTINUOUS
 62
           7
100
AcDbLine
 10
-748.723303265748
 20
146.400075378743
 11
-753.123303265748
 21
146.400075378743
  0
LINE
  5
56
100
AcDbEntity
  8
AM_0
  6
CONTINUOUS
 62
           7
100
AcDbLine
 10
-753.123303265748
 20
166.300075378743
 11
-753.123303265748
 21
146.400075378743
  0
LINE
  5
55
100
AcDbEntity
  8
AM_0
  6
CONTINUOUS
 62
           7
100
AcDbLine
 10
-751.723303265748
 20
164.435011869282
 11
-753.123303265748
 21
164.435011869282
  0
LINE
  5
54
100
AcDbEntity
  8
AM_0
  6
CONTINUOUS
 62
           7
100
AcDbLine
 10
-751.723303265748
 20
146.400075378743
 11
-751.723303265748
 21
166.300075378743
  0
LINE
  5
53
100
AcDbEntity
  8
AM_0
  6
CONTINUOUS
 62
           7
100
AcDbLine
 10
-749.649818975376
 20
146.400075378743
 11
-749.649818975376
 21
147.800075378743
  0
LINE
  5
52
100
AcDbEntity
  8
AM_0
  6
CONTINUOUS
 62
           7
100
AcDbLine
 10
-799.623303265748
 20
74.500075378743
 11
-799.623303265748
 21
71.500075378743
  0
LINE
  5
51
100
AcDbEntity
  8
AM_0
  6
CONTINUOUS
 62
           7
100
AcDbLine
 10
-774.623303265748
 20
71.500075378743
 11
-774.623303265748
 21
74.500075378743
  0
LINE
  5
50
100
AcDbEntity
  8
AM_0
  6
CONTINUOUS
 62
           7
100
AcDbLine
 10
-774.623303265748
 20
71.500075378743
 11
-799.623303265748
 21
71.500075378743
  0
LINE
  5
4F
100
AcDbEntity
  8
AM_0
  6
CONTINUOUS
 62
           7
100
AcDbLine
 10
-774.623303265748
 20
74.500075378743
 11
-765.883349005702
 21
76.841939064607
  0
LINE
  5
4E
100
AcDbEntity
  8
AM_0
  6
CONTINUOUS
 62
           7
100
AcDbLine
 10
-808.363257525794
 20
76.841939064607
 11
-799.623303265748
 21
74.500075378743
  0
LINE
  5
4D
100
AcDbEntity
  8
AM_0
  6
CONTINUOUS
 62
           7
100
AcDbLine
 10
-774.623303265748
 20
74.500075378743
 11
-799.623303265748
 21
74.500075378743
  0
LINE
  5
4C
100
AcDbEntity
  8
AM_0
  6
CONTINUOUS
 62
           7
100
AcDbLine
 10
-759.668795439163
 20
149.050075378743
 11
-759.668795439163
 21
162.060075378743
  0
LINE
  5
4B
100
AcDbEntity
  8
AM_0
  6
CONTINUOUS
 62
           7
100
AcDbLine
 10
-758.853354556916
 20
141.550075378743
 11
-758.853354556916
 21
149.050075378743
  0
LINE
  5
4A
100
AcDbEntity
  8
AM_0
  6
CONTINUOUS
 62
           7
100
AcDbLine
 10
-815.923303265748
 20
166.300075378743
 11
-815.923303265748
 21
86.694382492755
  0
LINE
  5
49
100
AcDbEntity
  8
AM_0
  6
CONTINUOUS
 62
           7
100
AcDbLine
 10
-758.323303265748
 20
86.694382492756
 11
-758.323303265748
 21
141.550075378743
  0
LINE
  5
48
100
AcDbEntity
  8
AM_0
  6
CONTINUOUS
 62
           7
100
AcDbLine
 10
-758.323303265748
 20
162.060075378743
 11
-758.323303265748
 21
166.300075378743
  0
LINE
  5
47
100
AcDbEntity
  8
AM_0
  6
CONTINUOUS
 62
           7
100
AcDbLine
 10
-814.123303265748
 20
219.600075378743
 11
-814.123303265748
 21
195.600075378743
  0
LINE
  5
46
100
AcDbEntity
  8
AM_0
  6
CONTINUOUS
 62
           7
100
AcDbLine
 10
-814.123303265748
 20
219.600075378743
 11
-805.123303265748
 21
219.600075378743
  0
LINE
  5
45
100
AcDbEntity
  8
AM_0
  6
CONTINUOUS
 62
           7
100
AcDbLine
 10
-769.123303265748
 20
219.600075378743
 11
-760.123303265748
 21
219.600075378743
  0
LINE
  5
44
100
AcDbEntity
  8
AM_0
  6
CONTINUOUS
 62
           7
100
AcDbLine
 10
-760.123303265748
 20
195.600075378743
 11
-760.123303265748
 21
219.600075378743
  0
LINE
  5
43
100
AcDbEntity
  8
AM_0
  6
CONTINUOUS
 62
           7
100
AcDbLine
 10
-805.309767487706
 20
219.600075378743
 11
-805.309767487706
 21
195.600075378743
  0
LINE
  5
42
100
AcDbEntity
  8
AM_0
  6
CONTINUOUS
 62
           7
100
AcDbLine
 10
-768.93683904379
 20
219.600075378743
 11
-768.93683904379
 21
195.600075378743
  0
LINE
  5
41
100
AcDbEntity
  8
AM_0
  6
CONTINUOUS
 62
           7
100
AcDbLine
 10
-822.623303265748
 20
166.300075378743
 11
-751.623303265748
 21
166.300075378743
  0
LINE
  5
40
100
AcDbEntity
  8
AM_0
  6
CONTINUOUS
 62
           7
100
AcDbLine
 10
-822.623303265748
 20
195.600075378743
 11
-805.123303265748
 21
195.600075378743
  0
LINE
  5
3F
100
AcDbEntity
  8
AM_0
  6
CONTINUOUS
 62
           7
100
AcDbLine
 10
-822.623303265748
 20
195.600075378743
 11
-822.623303265748
 21
166.300075378743
  0
LINE
  5
3E
100
AcDbEntity
  8
AM_0
  6
CONTINUOUS
 62
           7
100
AcDbLine
 10
-769.123303265748
 20
195.600075378743
 11
-751.623303265748
 21
195.600075378743
  0
LINE
  5
3D
100
AcDbEntity
  8
AM_0
  6
CONTINUOUS
 62
           7
100
AcDbLine
 10
-751.623303265748
 20
195.600075378743
 11
-751.623303265748
 21
166.300075378743
  0
LINE
  5
3C
100
AcDbEntity
  8
AM_0
  6
CONTINUOUS
 62
           7
100
AcDbLine
 10
-769.123303265748
 20
189.600075378743
 11
-805.123303265748
 21
189.600075378743
  0
LINE
  5
3B
100
AcDbEntity
  8
AM_0
  6
CONTINUOUS
 62
           7
100
AcDbLine
 10
-799.623303265748
 20
225.600075378743
 11
-805.123303265748
 21
220.100075378743
  0
LINE
  5
3A
100
AcDbEntity
  8
AM_0
  6
CONTINUOUS
 62
           7
100
AcDbLine
 10
-769.123303265748
 20
220.100075378743
 11
-774.623303265748
 21
225.600075378743
  0
LINE
  5
39
100
AcDbEntity
  8
AM_0
  6
CONTINUOUS
 62
           7
100
AcDbLine
 10
-769.123303265748
 20
220.100075378743
 11
-769.123303265748
 21
166.300075378743
  0
LINE
  5
38
100
AcDbEntity
  8
AM_0
  6
CONTINUOUS
 62
           7
100
AcDbLine
 10
-799.623303265748
 20
225.600075378743
 11
-774.623303265748
 21
225.600075378743
  0
LINE
  5
37
100
AcDbEntity
  8
AM_0
  6
CONTINUOUS
 62
           7
100
AcDbLine
 10
-805.123303265748
 20
220.100075378743
 11
-805.123303265748
 21
166.300075378743
  0
LINE
  5
36
100
AcDbEntity
  8
AM_0
  6
CONTINUOUS
 62
           7
100
AcDbLine
 10
-769.123303265748
 20
186.400075378743
 11
-805.123303265748
 21
186.400075378743
  0
LINE
  5
35
100
AcDbEntity
  8
AM_7
  6
DOT_CENTER
 62
           3
100
AcDbLine
 10
-787.123303265748
 20
54.924908672445
 11
-787.123303265748
 21
231.832493571511
  0
LINE
  5
34
100
AcDbEntity
  8
AM_7
  6
DOT_CENTER
 62
           3
100
AcDbLine
 10
-626.333301587281
 20
54.924908672445
 11
-626.333301587281
 21
231.832493571511
  0
SOLID
  5
121
100
AcDbEntity
  8
0
 62
           2
100
AcDbTrace
 10
-670.55216611063
 20
210.882709970443
 11
-670.55216611063
 21
212.357217943421
 12
-664.95216611063
 22
211.619963956932
 13
-664.95216611063
 23
211.619963956932
  0
SOLID
  5
123
100
AcDbEntity
  8
0
 62
           2
100
AcDbTrace
 10
-576.39623941454
 20
211.651329780207
 11
-576.39623941454
 21
213.125837753185
 12
-570.79623941454
 22
212.388583766696
 13
-570.79623941454
 23
212.388583766696
  0
ENDBLK
  5
128
100
AcDbEntity
  8
0
100
AcDbBlockEnd
  0
BLOCK
  5
2C
100
AcDbEntity
  8
0
100
AcDbBlockBegin
  2
1_AFD40_02_2_A_0
 70
           0
 10
0.0
 20
0.0
 30
0.0
  3
1_AFD40_02_2_A_0
  1

  0
INSERT
  5
2D
100
AcDbEntity
  8
0
100
AcDbBlockReference
  2
3_AFD40_02_2_A_0
 10
0.0
 20
0.0
  0
ENDBLK
  5
129
100
AcDbEntity
  8
0
100
AcDbBlockEnd
  0
BLOCK
  5
2F
100
AcDbEntity
  8
0
100
AcDbBlockBegin
  2
ASF650B_10DATA
 70
           0
 10
0.0
 20
0.0
 30
0.0
  3
ASF650B_10DATA
  1

  0
INSERT
  5
30
100
AcDbEntity
  8
0
100
AcDbBlockReference
  2
1_AFD40_02_2_A_0
 10
0.0
 20
0.0
  0
ENDBLK
  5
12A
100
AcDbEntity
  8
0
100
AcDbBlockEnd
  0
ENDSEC
  0
SECTION
  2
ENTITIES
  0
TEXT
  5
12C
100
AcDbEntity
  8
1
 62
           2
100
AcDbText
 10
-241.24145087632
 20
83.384413575972
 40
6.0
  1
ASF650B-10
 41
0.9
  7
CONVERTER_1
100
AcDbText
  0
INSERT
  5
33
100
AcDbEntity
  8
0
100
AcDbBlockReference
  2
ASF650B_10DATA
 10
0.0
 20
0.0
  0
ENDSEC
  0
SECTION
  2
OBJECTS
  0
DICTIONARY
  5
19
100
AcDbDictionary
  3
ACAD_GROUP
350
1A
  3
ACAD_MLINESTYLE
350
1B
  0
DICTIONARY
  5
1A
102
{ACAD_REACTORS
330
19
102
}
100
AcDbDictionary
  0
DICTIONARY
  5
1B
102
{ACAD_REACTORS
330
19
102
}
100
AcDbDictionary
  3
STANDARD
350
1C
  0
MLINESTYLE
  5
1C
102
{ACAD_REACTORS
330
1B
102
}
100
AcDbMlineStyle
  2
STANDARD
 70
           0
  3

 62
           0
 51
90.0
 52
90.0
 71
           2
 49
0.5
 62
         256
  6
BYLAYER
 49
-0.5
 62
         256
  6
BYLAYER
  0
ENDSEC
  0
EOF
