  0
SECTION
  2
HEADER
  9
$ACADVER
  1
AC1014
  9
$ACADMAINTVER
 70
           0
  9
$DWGCODEPAGE
  3
DOS932
  9
$INSBASE
 10
0.0
 20
0.0
 30
0.0
  9
$EXTMIN
 10
1.000000000000E+20
 20
1.000000000000E+20
 30
1.000000000000E+20
  9
$EXTMAX
 10
-1.000000000000E+20
 20
-1.000000000000E+20
 30
-1.000000000000E+20
  9
$LIMMIN
 10
0.0
 20
0.0
  9
$LIMMAX
 10
0.0
 20
0.0
  9
$ORTHOMODE
 70
           0
  9
$REGENMODE
 70
           1
  9
$FILLMODE
 70
           1
  9
$QTEXTMODE
 70
           0
  9
$MIRRTEXT
 70
           1
  9
$DRAGMODE
 70
           2
  9
$LTSCALE
 40
1.0
  9
$OSMODE
 70
           0
  9
$ATTMODE
 70
           1
  9
$TEXTSIZE
 40
0.2
  9
$TRACEWID
 40
0.05
  9
$TEXTSTYLE
  7
STANDARD
  9
$CLAYER
  8
0
  9
$CELTYPE
  6
CONTINUOUS
  9
$CECOLOR
 62
         256
  9
$CELTSCALE
 40
1.0
  9
$DELOBJ
 70
           1
  9
$DISPSILH
 70
           0
  9
$DIMSCALE
 40
1.0
  9
$DIMASZ
 40
0.18
  9
$DIMEXO
 40
0.0625
  9
$DIMDLI
 40
0.38
  9
$DIMRND
 40
0.0
  9
$DIMDLE
 40
0.0
  9
$DIMEXE
 40
0.18
  9
$DIMTP
 40
0.0
  9
$DIMTM
 40
0.0
  9
$DIMTXT
 40
0.18
  9
$DIMCEN
 40
0.09
  9
$DIMTSZ
 40
0.0
  9
$DIMTOL
 70
           0
  9
$DIMLIM
 70
           0
  9
$DIMTIH
 70
           1
  9
$DIMTOH
 70
           1
  9
$DIMSE1
 70
           0
  9
$DIMSE2
 70
           0
  9
$DIMTAD
 70
           0
  9
$DIMZIN
 70
           0
  9
$DIMBLK
  1

  9
$DIMASO
 70
           1
  9
$DIMSHO
 70
           1
  9
$DIMPOST
  1

  9
$DIMAPOST
  1

  9
$DIMALT
 70
           0
  9
$DIMALTD
 70
           2
  9
$DIMALTF
 40
25.4
  9
$DIMLFAC
 40
1.0
  9
$DIMTOFL
 70
           0
  9
$DIMTVP
 40
0.0
  9
$DIMTIX
 70
           0
  9
$DIMSOXD
 70
           0
  9
$DIMSAH
 70
           0
  9
$DIMBLK1
  1

  9
$DIMBLK2
  1

  9
$DIMSTYLE
  2
STANDARD
  9
$DIMCLRD
 70
           0
  9
$DIMCLRE
 70
           0
  9
$DIMCLRT
 70
           0
  9
$DIMTFAC
 40
1.0
  9
$DIMGAP
 40
0.09
  9
$DIMJUST
 70
           0
  9
$DIMSD1
 70
           0
  9
$DIMSD2
 70
           0
  9
$DIMTOLJ
 70
           1
  9
$DIMTZIN
 70
           0
  9
$DIMALTZ
 70
           0
  9
$DIMALTTZ
 70
           0
  9
$DIMFIT
 70
           3
  9
$DIMUPT
 70
           0
  9
$DIMUNIT
 70
           2
  9
$DIMDEC
 70
           4
  9
$DIMTDEC
 70
           4
  9
$DIMALTU
 70
           2
  9
$DIMALTTD
 70
           2
  9
$DIMTXSTY
  7
STANDARD
  9
$DIMAUNIT
 70
           0
  9
$LUNITS
 70
           2
  9
$LUPREC
 70
           4
  9
$SKETCHINC
 40
0.1
  9
$FILLETRAD
 40
0.0
  9
$AUNITS
 70
           0
  9
$AUPREC
 70
           0
  9
$MENU
  1
acad
  9
$ELEVATION
 40
0.0
  9
$PELEVATION
 40
0.0
  9
$THICKNESS
 40
0.0
  9
$LIMCHECK
 70
           0
  9
$BLIPMODE
 70
           1
  9
$CHAMFERA
 40
0.0
  9
$CHAMFERB
 40
0.0
  9
$CHAMFERC
 40
0.0
  9
$CHAMFERD
 40
0.0
  9
$SKPOLY
 70
           0
  9
$TDCREATE
 40
0.000000000
  9
$TDUPDATE
 40
0.000000000
  9
$TDINDWG
 40
0.0000000000
  9
$TDUSRTIMER
 40
0.0000000000
  9
$USRTIMER
 70
           1
  9
$ANGBASE
 50
0.0
  9
$ANGDIR
 70
           0
  9
$PDMODE
 70
           0
  9
$PDSIZE
 40
0.0
  9
$PLINEWID
 40
0.0
  9
$COORDS
 70
           0
  9
$SPLFRAME
 70
           0
  9
$SPLINETYPE
 70
           6
  9
$SPLINESEGS
 70
           8
  9
$ATTDIA
 70
           0
  9
$ATTREQ
 70
           1
  9
$HANDLING
 70
           1
  9
$HANDSEED
  5
106
  9
$SURFTAB1
 70
           6
  9
$SURFTAB2
 70
           6
  9
$SURFTYPE
 70
           6
  9
$SURFU
 70
           6
  9
$SURFV
 70
           6
  9
$UCSNAME
  2

  9
$UCSORG
 10
0.0
 20
0.0
 30
0.0
  9
$UCSXDIR
 10
1.0
 20
0.0
 30
0.0
  9
$UCSYDIR
 10
0.0
 20
1.0
 30
0.0
  9
$PUCSNAME
  2

  9
$PUCSORG
 10
0.0
 20
0.0
 30
0.0
  9
$PUCSXDIR
 10
1.0
 20
0.0
 30
0.0
  9
$PUCSYDIR
 10
0.0
 20
1.0
 30
0.0
  9
$USERI1
 70
           0
  9
$USERI2
 70
           0
  9
$USERI3
 70
           0
  9
$USERI4
 70
           0
  9
$USERI5
 70
           0
  9
$USERR1
 40
0.0
  9
$USERR2
 40
0.0
  9
$USERR3
 40
0.0
  9
$USERR4
 40
0.0
  9
$USERR5
 40
0.0
  9
$WORLDVIEW
 70
           1
  9
$SHADEDGE
 70
           3
  9
$SHADEDIF
 70
          70
  9
$TILEMODE
 70
           1
  9
$MAXACTVP
 70
          16
  9
$PINSBASE
 10
0.0
 20
0.0
 30
0.0
  9
$PLIMCHECK
 70
           0
  9
$PEXTMIN
 10
1.000000000000E+20
 20
1.000000000000E+20
 30
1.000000000000E+20
  9
$PEXTMAX
 10
-1.000000000000E+20
 20
-1.000000000000E+20
 30
-1.000000000000E+20
  9
$PLIMMIN
 10
0.0
 20
0.0
  9
$PLIMMAX
 10
12.0
 20
9.0
  9
$UNITMODE
 70
           0
  9
$VISRETAIN
 70
           0
  9
$PLINEGEN
 70
           1
  9
$PSLTSCALE
 70
           0
  9
$TREEDEPTH
 70
        3020
  9
$PICKSTYLE
 70
           1
  9
$CMLSTYLE
  2
STANDARD
  9
$CMLJUST
 70
           0
  9
$CMLSCALE
 40
1.0
  9
$PROXYGRAPHICS
 70
           0
  9
$MEASUREMENT
 70
           0
  0
ENDSEC
  0
SECTION
  2
CLASSES
  0
CLASS
  1
LWPOLYLINE
  2
AcDbPolyline
  3
"AutoCAD"
 90
        0
280
           0
281
           1
  0
CLASS
  1
IMAGE
  2
AcDbRasterImage
  3
ISM
 90
      127
280
           0
281
           1
  0
CLASS
  1
OLE2FRAME
  2
AcDbOle2Frame
  3
""
 90
        0
280
           0
281
           1
  0
CLASS
  1
HATCH
  2
AcDbHatch
  3
"ACAD_SEDONA"
 90
        0
280
           0
281
           1
  0
CLASS
  1
DICTIONARYVAR
  2
AcDbDictionaryVar
  3
"AutoCAD"
 90
        0
280
           0
281
           0
  0
CLASS
  1
RASTERVARIABLES
  2
AcDbRasterVariables
  3
ISM
 90
        0
280
           0
281
           0
  0
CLASS
  1
IMAGEDEF
  2
AcDbRasterImageDef
  3
ISM
 90
        0
280
           0
281
           0
  0
CLASS
  1
IMAGEDEF_REACTOR
  2
AcDbRasterImageDefReactor
  3
ISM
 90
        1
280
           0
281
           0
  0
CLASS
  1
IDBUFFER
  2
AcDbIdBuffer
  3
"Acad"
 90
        0
280
           0
281
           0
  0
CLASS
  1
SPATIAL_FILTER
  2
AcDbSpatialFilter
  3
"Acad"
 90
        0
280
           0
281
           0
  0
CLASS
  1
XRECORD
  2
AcDbXrecord
  3
"<Built In>"
 90
        0
280
           0
281
           0
  0
CLASS
  1
SORTENTSTABLE
  2
AcDbSortentsTable
  3
"AutoCAD"
 90
        0
280
           0
281
           0
  0
CLASS
  1
LAYER_INDEX
  2
AcDbLayerIndex
  3
"Acad"
 90
        0
280
           0
281
           0
  0
CLASS
  1
SPATIAL_INDEX
  2
AcDbSpatialIndex
  3
"Acad"
 90
        0
280
           0
281
           0
  0
CLASS
  1
OBJECT_PTR
  2
CAseDLPNTableRecord
  3
"ASE-LPNTableRecord"
 90
        1
280
           0
281
           0
  0
CLASS
  1
LAYOUT
  2
AcDbLayout
  3
"AutoCAD 2000"
 90
        1
280
           0
281
           0
  0
CLASS
  1
PLOTSETTINGS
  2
AcDbPlotSettings
  3
"AutoCAD 2000"
 90
        1
280
           0
281
           0
  0
CLASS
  1
ACDBDICTIONARYWDFLT
  2
AcDbDictionaryWithDefault
  3
"AutoCAD 2000"
 90
        1
280
           0
281
           0
  0
CLASS
  1
ACDBPLACEHOLDER
  2
AcDbPlaceHolder
  3
"AutoCAD 2000"
 90
        1
280
           0
281
           0
  0
CLASS
  1
VBA_PROJECT
  2
AcDbVbaProject
  3
"acadvba"
 90
        1
280
           0
281
           0
  0
CLASS
  1
WIPEOUT
  2
AcDbWipeout
  3
WipeOut|AutoCAD Express Tool|expresstools@autodesk.com
 90
      127
280
           0
281
           1
  0
CLASS
  1
WIPEOUTVARIABLES
  2
AcDbWipeoutVariables
  3
WipeOut|AutoCAD Express Tool|expresstools@autodesk.com
 90
        0
280
           0
281
           0
  0
CLASS
  1
RTEXT
  2
RText
  3
RText|AutoCAD Express Tool|expresstools@autodesk.com
 90
        0
280
           0
281
           1
  0
CLASS
  1
ARCALIGNEDTEXT
  2
AcDbArcAlignedText
  3
ATEXT|AutoCAD Express Tool|expresstools@autodesk.com
 90
        0
280
           0
281
           1
  0
ENDSEC
  0
SECTION
  2
TABLES
  0
TABLE
  2
VPORT
  5
7
100
AcDbSymbolTable
 70
           1
  0
VPORT
  5
15
100
AcDbSymbolTableRecord
100
AcDbViewportTableRecord
  2
*ACTIVE
 70
           0
 10
0.0
 20
0.0
 11
1.0
 21
1.0
 12
6.591288
 22
4.579184
 13
0.0
 23
0.0
 14
1.0
 24
1.0
 15
0.0
 25
0.0
 16
0.0
 26
0.0
 36
1.0
 17
0.0
 27
0.0
 37
0.0
 40
9.158369
 41
0.688564
 42
50.0
 43
0.0
 44
0.0
 50
0.0
 51
0.0
 71
           0
 72
         100
 73
           1
 74
           1
 75
           0
 76
           0
 77
           0
 78
           0
  0
ENDTAB
  0
TABLE
  2
LTYPE
  5
4
100
AcDbSymbolTable
 70
          10
  0
LTYPE
  5
11
100
AcDbSymbolTableRecord
100
AcDbLinetypeTableRecord
  2
BYBLOCK
 70
          64
  3

 72
          65
 73
           0
 40
0.0
  0
LTYPE
  5
12
100
AcDbSymbolTableRecord
100
AcDbLinetypeTableRecord
  2
BYLAYER
 70
          64
  3

 72
          65
 73
           0
 40
0.0
  0
LTYPE
  5
13
100
AcDbSymbolTableRecord
100
AcDbLinetypeTableRecord
  2
CONTINUOUS
 70
          64
  3
Solid line
 72
          65
 73
           0
 40
0.0
  0
LTYPE
  5
1D
100
AcDbSymbolTableRecord
100
AcDbLinetypeTableRecord
  2
DASHED
 70
          64
  3
Dashed
 72
          65
 73
           2
 40
15.0
 49
12.0
 74
           0
 49
-3.0
 74
           0
  0
LTYPE
  5
1E
100
AcDbSymbolTableRecord
100
AcDbLinetypeTableRecord
  2
DOTTED
 70
          64
  3
Dotted
 72
          65
 73
           2
 40
3.5
 49
0.5
 74
           0
 49
-3.0
 74
           0
  0
LTYPE
  5
1F
100
AcDbSymbolTableRecord
100
AcDbLinetypeTableRecord
  2
DOT_CENTER
 70
          64
  3
Dot_Center
 72
          65
 73
           4
 40
2.0
 49
1.25
 74
           0
 49
-0.25
 74
           0
 49
0.25
 74
           0
 49
-0.25
 74
           0
  0
LTYPE
  5
20
100
AcDbSymbolTableRecord
100
AcDbLinetypeTableRecord
  2
LONG_DASHED
 70
          64
  3
Long_Dashed
 72
          65
 73
           2
 40
2.0
 49
1.5
 74
           0
 49
-0.5
 74
           0
  0
LTYPE
  5
21
100
AcDbSymbolTableRecord
100
AcDbLinetypeTableRecord
  2
DASH_CENTER
 70
          64
  3
Dash_Center
 72
          65
 73
           4
 40
36.0
 49
24.0
 74
           0
 49
-3.0
 74
           0
 49
6.0
 74
           0
 49
-3.0
 74
           0
  0
LTYPE
  5
22
100
AcDbSymbolTableRecord
100
AcDbLinetypeTableRecord
  2
PHANTOM
 70
          64
  3
Phantom
 72
          65
 73
           6
 40
2.5
 49
1.25
 74
           0
 49
-0.25
 74
           0
 49
0.25
 74
           0
 49
-0.25
 74
           0
 49
0.25
 74
           0
 49
-0.25
 74
           0
  0
LTYPE
  5
23
100
AcDbSymbolTableRecord
100
AcDbLinetypeTableRecord
  2
CENTER_DASH_DASH
 70
          64
  3
Center_Dash_Dash
 72
          65
 73
           6
 40
22.0
 49
12.0
 74
           0
 49
-3.0
 74
           0
 49
0.5
 74
           0
 49
-3.0
 74
           0
 49
0.5
 74
           0
 49
-3.0
 74
           0
  0
ENDTAB
  0
TABLE
  2
LAYER
  5
2
100
AcDbSymbolTable
 70
           4
  0
LAYER
  5
14
100
AcDbSymbolTableRecord
100
AcDbLayerTableRecord
  2
0
 70
           0
 62
           7
  6
CONTINUOUS
  0
LAYER
  5
24
100
AcDbSymbolTableRecord
100
AcDbLayerTableRecord
  2
LAYER003
 70
           0
 62
           7
  6
CONTINUOUS
  0
LAYER
  5
25
100
AcDbSymbolTableRecord
100
AcDbLayerTableRecord
  2
LAYER007
 70
           0
 62
           7
  6
CONTINUOUS
  0
LAYER
  5
26
100
AcDbSymbolTableRecord
100
AcDbLayerTableRecord
  2
1
 70
           0
 62
           7
  6
CONTINUOUS
  0
ENDTAB
  0
TABLE
  2
STYLE
  5
3
100
AcDbSymbolTable
 70
           8
  0
STYLE
  5
17
100
AcDbSymbolTableRecord
100
AcDbTextStyleTableRecord
  2
STANDARD
 70
           0
 40
0.0
 41
1.0
 50
0.0
 71
           0
 42
0.0
  3
txt
  4

  0
STYLE
  5
39
100
AcDbSymbolTableRecord
100
AcDbTextStyleTableRecord
  2
CONVERTER_1
 70
           0
 40
0.0
 41
0.7779519
 50
0.0
 71
           0
 42
0.0
  3
txt.shx
  4

  0
STYLE
  5
40
100
AcDbSymbolTableRecord
100
AcDbTextStyleTableRecord
  2
CONVERTER_2
 70
           0
 40
0.0
 41
0.7604658
 50
0.0
 71
           0
 42
0.0
  3
txt.shx
  4

  0
STYLE
  5
42
100
AcDbSymbolTableRecord
100
AcDbTextStyleTableRecord
  2
CONVERTER_3
 70
           0
 40
0.0
 41
0.7610085
 50
0.0
 71
           0
 42
0.0
  3
txt.shx
  4

  0
STYLE
  5
49
100
AcDbSymbolTableRecord
100
AcDbTextStyleTableRecord
  2
CONVERTER_4
 70
           0
 40
0.0
 41
0.766143
 50
0.0
 71
           0
 42
0.0
  3
txt.shx
  4

  0
STYLE
  5
FE
100
AcDbSymbolTableRecord
100
AcDbTextStyleTableRecord
  2
CONVERTER_5
 70
           0
 40
0.0
 41
0.9
 50
0.0
 71
           0
 42
0.0
  3
txt.shx
  4

  0
STYLE
  5
100
100
AcDbSymbolTableRecord
100
AcDbTextStyleTableRecord
  2
CONVERTER_6
 70
           0
 40
0.0
 41
0.7626699
 50
0.0
 71
           0
 42
0.0
  3
txt.shx
  4

  0
STYLE
  5
102
100
AcDbSymbolTableRecord
100
AcDbTextStyleTableRecord
  2
CONVERTER_7
 70
           0
 40
0.0
 41
0.769833
 50
0.0
 71
           0
 42
0.0
  3
txt.shx
  4

  0
ENDTAB
  0
TABLE
  2
VIEW
  5
5
100
AcDbSymbolTable
 70
           0
  0
ENDTAB
  0
TABLE
  2
UCS
  5
6
100
AcDbSymbolTable
 70
           0
  0
ENDTAB
  0
TABLE
  2
APPID
  5
8
100
AcDbSymbolTable
 70
           1
  0
APPID
  5
16
100
AcDbSymbolTableRecord
100
AcDbRegAppTableRecord
  2
ACAD
 70
           0
  0
ENDTAB
  0
TABLE
  2
DIMSTYLE
  5
9
100
AcDbSymbolTable
 70
           1
  0
DIMSTYLE
105
18
100
AcDbSymbolTableRecord
100
AcDbDimStyleTableRecord
  2
STANDARD
 70
           0
  3

  4

  5

  6

  7

 40
1.0
 41
0.18
 42
0.0625
 43
0.38
 44
0.18
 45
0.0
 46
0.0
 47
0.0
 48
0.0
 71
           0
 72
           0
 73
           1
 74
           1
 75
           0
 76
           0
 77
           0
 78
           0
140
0.18
141
0.09
142
0.0
143
25.4
144
1.0
145
0.0
146
1.0
147
0.09
170
           0
171
           2
172
           0
173
           0
174
           0
175
           0
176
           0
177
           0
178
           0
270
           2
271
           4
272
           4
273
           2
274
           2
275
           0
280
           0
281
           0
282
           0
283
           1
284
           0
285
           0
286
           0
287
           0
288
           0
340
17
  0
ENDTAB
  0
TABLE
  2
BLOCK_RECORD
  5
1
100
AcDbSymbolTable
 70
           4
  0
BLOCK_RECORD
  5
A
100
AcDbSymbolTableRecord
100
AcDbBlockTableRecord
  2
*MODEL_SPACE
  0
BLOCK_RECORD
  5
B
100
AcDbSymbolTableRecord
100
AcDbBlockTableRecord
  2
*PAPER_SPACE
  0
BLOCK_RECORD
  5
27
100
AcDbSymbolTableRecord
100
AcDbBlockTableRecord
  2
KOZU0004__S
  0
BLOCK_RECORD
  5
29
100
AcDbSymbolTableRecord
100
AcDbBlockTableRecord
  2
KOZU0003__S
  0
BLOCK_RECORD
  5
2B
100
AcDbSymbolTableRecord
100
AcDbBlockTableRecord
  2
KOZU0002__S
  0
BLOCK_RECORD
  5
2D
100
AcDbSymbolTableRecord
100
AcDbBlockTableRecord
  2
KOZU0001__S
  0
ENDTAB
  0
ENDSEC
  0
SECTION
  2
BLOCKS
  0
BLOCK
  5
D
100
AcDbEntity
  8
0
100
AcDbBlockBegin
  2
*MODEL_SPACE
 70
           0
 10
0.0
 20
0.0
 30
0.0
  3
*MODEL_SPACE
  1

  0
ENDBLK
  5
E
100
AcDbEntity
  8
0
100
AcDbBlockEnd
  0
BLOCK
  5
F
100
AcDbEntity
 67
           1
  8
0
100
AcDbBlockBegin
  2
*PAPER_SPACE
 70
           0
 10
0.0
 20
0.0
 30
0.0
  3
*PAPER_SPACE
  1

  0
ENDBLK
  5
10
100
AcDbEntity
 67
           1
  8
0
100
AcDbBlockEnd
  0
BLOCK
  5
28
100
AcDbEntity
  8
0
100
AcDbBlockBegin
  2
KOZU0004__S
 70
           0
 10
0.0
 20
0.0
 30
0.0
  3
KOZU0004__S
  1

  0
TEXT
  5
3A
100
AcDbEntity
  8
0
 62
           3
100
AcDbText
 10
17.488892
 20
18.296948
 40
3.2
  1
PP
 41
0.7779519
  7
CONVERTER_1
100
AcDbText
  0
LINE
  5
38
100
AcDbEntity
  8
0
  6
CONTINUOUS
 62
           7
100
AcDbLine
 10
0.0
 20
0.0
 11
12.849704
 21
19.896948
  0
LINE
  5
37
100
AcDbEntity
  8
0
  6
CONTINUOUS
 62
           7
100
AcDbLine
 10
12.849704
 20
19.896948
 11
15.660892
 21
19.896948
  0
LINE
  5
36
100
AcDbEntity
  8
0
  6
CONTINUOUS
 62
           7
100
AcDbLine
 10
0.0
 20
0.0
 11
0.787493
 21
3.062655
  0
LINE
  5
35
100
AcDbEntity
  8
0
  6
CONTINUOUS
 62
           7
100
AcDbLine
 10
0.0
 20
0.0
 11
2.467587
 21
1.977628
  0
ENDBLK
  5
3B
100
AcDbEntity
  8
0
100
AcDbBlockEnd
  0
BLOCK
  5
2A
100
AcDbEntity
  8
0
100
AcDbBlockBegin
  2
KOZU0003__S
 70
           0
 10
0.0
 20
0.0
 30
0.0
  3
KOZU0003__S
  1

  0
TEXT
  5
43
100
AcDbEntity
  8
0
 62
           3
100
AcDbText
 10
-59.175807
 20
22.05004
 40
3.2
  1
Port size
 41
0.7610085
  7
CONVERTER_3
100
AcDbText
  0
TEXT
  5
41
100
AcDbEntity
  8
0
 62
           3
100
AcDbText
 10
-59.175807
 20
17.25004
 40
3.2
  1
 Rc3/4
 41
0.7604658
  7
CONVERTER_2
100
AcDbText
  0
LINE
  5
3F
100
AcDbEntity
  8
0
  6
CONTINUOUS
 62
           7
100
AcDbLine
 10
0.0
 20
0.0
 11
-15.511734
 21
23.650055
  0
LINE
  5
3E
100
AcDbEntity
  8
0
  6
CONTINUOUS
 62
           7
100
AcDbLine
 10
-15.511734
 20
23.650055
 11
-23.061806
 21
23.650055
  0
LINE
  5
3D
100
AcDbEntity
  8
0
  6
CONTINUOUS
 62
           7
100
AcDbLine
 10
0.0
 20
0.0
 11
-2.481518
 21
1.960119
  0
LINE
  5
3C
100
AcDbEntity
  8
0
  6
CONTINUOUS
 62
           7
100
AcDbLine
 10
0.0
 20
0.0
 11
-0.809143
 21
3.057006
  0
ENDBLK
  5
44
100
AcDbEntity
  8
0
100
AcDbBlockEnd
  0
BLOCK
  5
2C
100
AcDbEntity
  8
0
100
AcDbBlockBegin
  2
KOZU0002__S
 70
           0
 10
0.0
 20
0.0
 30
0.0
  3
KOZU0002__S
  1

  0
MTEXT
  5
4A
100
AcDbEntity
  8
0
 62
           3
100
AcDbMText
 10
-23.194024
 20
-17.300478
 30
0.0
 40
3.2
 41
0.0
 71
           7
 72
           1
  1
4-{\Fgdt;n}5
  7
CONVERTER_4
  0
LINE
  5
48
100
AcDbEntity
  8
0
  6
CONTINUOUS
 62
           7
100
AcDbLine
 10
0.0
 20
0.0
 11
-6.832355
 21
-15.700481
  0
LINE
  5
47
100
AcDbEntity
  8
0
  6
CONTINUOUS
 62
           7
100
AcDbLine
 10
-6.832355
 20
-15.700481
 11
-9.480022
 21
-15.700481
  0
LINE
  5
46
100
AcDbEntity
  8
0
  6
CONTINUOUS
 62
           7
100
AcDbLine
 10
0.0
 20
0.0
 11
-0.280131
 21
-3.149846
  0
LINE
  5
45
100
AcDbEntity
  8
0
  6
CONTINUOUS
 62
           7
100
AcDbLine
 10
0.0
 20
0.0
 11
-2.114012
 21
-2.351798
  0
ENDBLK
  5
4B
100
AcDbEntity
  8
0
100
AcDbBlockEnd
  0
BLOCK
  5
2E
100
AcDbEntity
  8
0
100
AcDbBlockBegin
  2
KOZU0001__S
 70
           0
 10
0.0
 20
0.0
 30
0.0
  3
KOZU0001__S
  1

  0
TEXT
  5
50
100
AcDbEntity
  8
0
 62
           3
100
AcDbText
 10
28.755719
 20
49.447588
 40
3.2
  1
PP
 41
0.7779519
  7
CONVERTER_1
100
AcDbText
  0
LINE
  5
4F
100
AcDbEntity
  8
0
  6
CONTINUOUS
 62
           7
100
AcDbLine
 10
0.0
 20
0.0
 11
23.23246
 21
51.047588
  0
LINE
  5
4E
100
AcDbEntity
  8
0
  6
CONTINUOUS
 62
           7
100
AcDbLine
 10
23.23246
 20
51.047588
 11
26.927719
 21
51.047588
  0
LINE
  5
4D
100
AcDbEntity
  8
0
  6
CONTINUOUS
 62
           7
100
AcDbLine
 10
0.0
 20
0.0
 11
0.332523
 21
3.144746
  0
LINE
  5
4C
100
AcDbEntity
  8
0
  6
CONTINUOUS
 62
           7
100
AcDbLine
 10
0.0
 20
0.0
 11
2.152866
 21
2.316283
  0
ENDBLK
  5
51
100
AcDbEntity
  8
0
100
AcDbBlockEnd
  0
ENDSEC
  0
SECTION
  2
ENTITIES
  0
TEXT
  5
104
100
AcDbEntity
  8
LAYER003
 62
           3
100
AcDbText
 10
-316.36776
 20
-4.141443
 40
3.2
  1
IN
 41
0.7779519
  7
CONVERTER_1
100
AcDbText
  0
TEXT
  5
103
100
AcDbEntity
  8
LAYER003
 62
           3
100
AcDbText
 10
-191.36777
 20
-4.141443
 40
3.2
  1
OUT
 41
0.769833
  7
CONVERTER_7
100
AcDbText
  0
MTEXT
  5
101
100
AcDbEntity
  8
LAYER003
 62
           3
100
AcDbMText
 10
-150.33491
 20
70.019903
 30
0.0
 40
3.2
 41
0.0
 71
           7
 72
           1
  1
MAX250
  7
CONVERTER_6
 11
-0.00000005236
 21
1.0
 31
0.0
  0
TEXT
  5
FF
100
AcDbEntity
  8
1
 62
           2
100
AcDbText
 10
-89.564122881008
 20
-47.088062526964
 40
3.5
  1
AR-206BG
 41
0.9
  7
CONVERTER_5
100
AcDbText
  0
CIRCLE
  5
FD
100
AcDbEntity
  8
LAYER007
  6
CONTINUOUS
 62
           7
100
AcDbCircle
 10
-250.0
 20
315.51624
 40
3.7349999
  0
CIRCLE
  5
FC
100
AcDbEntity
  8
LAYER007
  6
CONTINUOUS
 62
           7
100
AcDbCircle
 10
-250.0
 20
315.51624
 40
4.5349998
  0
CIRCLE
  5
FB
100
AcDbEntity
  8
LAYER007
  6
CONTINUOUS
 62
           7
100
AcDbCircle
 10
-250.0
 20
315.51624
 40
32.650002
  0
CIRCLE
  5
FA
100
AcDbEntity
  8
LAYER007
  6
CONTINUOUS
 62
           7
100
AcDbCircle
 10
-222.05
 20
343.46625
 40
3.2
  0
CIRCLE
  5
F9
100
AcDbEntity
  8
LAYER007
  6
CONTINUOUS
 62
           7
100
AcDbCircle
 10
-222.05
 20
343.46625
 40
2.54
  0
CIRCLE
  5
F8
100
AcDbEntity
  8
LAYER007
  6
CONTINUOUS
 62
           7
100
AcDbCircle
 10
-222.05
 20
287.56626
 40
3.2
  0
CIRCLE
  5
F7
100
AcDbEntity
  8
LAYER007
  6
CONTINUOUS
 62
           7
100
AcDbCircle
 10
-222.05
 20
287.56626
 40
2.54
  0
CIRCLE
  5
F6
100
AcDbEntity
  8
LAYER007
  6
CONTINUOUS
 62
           7
100
AcDbCircle
 10
-277.95001
 20
287.56626
 40
3.2
  0
CIRCLE
  5
F5
100
AcDbEntity
  8
LAYER007
  6
CONTINUOUS
 62
           7
100
AcDbCircle
 10
-277.95001
 20
287.56626
 40
2.54
  0
CIRCLE
  5
F4
100
AcDbEntity
  8
LAYER007
  6
CONTINUOUS
 62
           7
100
AcDbCircle
 10
-277.95001
 20
343.46625
 40
3.2
  0
CIRCLE
  5
F3
100
AcDbEntity
  8
LAYER007
  6
CONTINUOUS
 62
           7
100
AcDbCircle
 10
-277.95001
 20
343.46625
 40
2.54
  0
CIRCLE
  5
F2
100
AcDbEntity
  8
LAYER007
  6
CONTINUOUS
 62
           7
100
AcDbCircle
 10
-250.0
 20
315.51624
 40
33.400002
  0
CIRCLE
  5
F1
100
AcDbEntity
  8
LAYER007
  6
CONTINUOUS
 62
           7
100
AcDbCircle
 10
-226.1
 20
8.900009
 40
21.75
  0
CIRCLE
  5
F0
100
AcDbEntity
  8
LAYER007
  6
CONTINUOUS
 62
           7
100
AcDbCircle
 10
-226.1
 20
8.900009
 40
26.1
  0
ARC
  5
EF
100
AcDbEntity
  8
LAYER007
  6
CONTINUOUS
 62
           7
100
AcDbCircle
 10
-250.0
 20
315.51624
 40
21.549999
100
AcDbArc
 50
6.661842
 51
173.338150000001
  0
ARC
  5
EE
100
AcDbEntity
  8
LAYER007
  6
CONTINUOUS
 62
           7
100
AcDbCircle
 10
-250.0
 20
315.51624
 40
20.950001
100
AcDbArc
 50
6.853536999999
 51
173.146460000001
  0
ARC
  5
ED
100
AcDbEntity
  8
LAYER007
  6
CONTINUOUS
 62
           7
100
AcDbCircle
 10
-250.0
 20
315.51624
 40
12.7
100
AcDbArc
 50
11.352838999998
 51
168.647170000001
  0
ARC
  5
EC
100
AcDbEntity
  8
LAYER007
  6
CONTINUOUS
 62
           7
100
AcDbCircle
 10
-250.0
 20
315.51624
 40
5.0
100
AcDbArc
 50
29.999999000002
 51
149.999999999999
  0
ARC
  5
EB
100
AcDbEntity
  8
LAYER007
  6
CONTINUOUS
 62
           7
100
AcDbCircle
 10
-250.0
 20
315.51624
 40
12.7
100
AcDbArc
 50
-168.647170000002
 51
-11.352839999999
  0
ARC
  5
EA
100
AcDbEntity
  8
LAYER007
  6
CONTINUOUS
 62
           7
100
AcDbCircle
 10
-250.0
 20
315.51624
 40
20.950001
100
AcDbArc
 50
-173.146459999998
 51
-6.853539999998
  0
ARC
  5
E9
100
AcDbEntity
  8
LAYER007
  6
CONTINUOUS
 62
           7
100
AcDbCircle
 10
-250.0
 20
315.51624
 40
21.549999
100
AcDbArc
 50
-173.338149999999
 51
-6.661839999999
  0
ARC
  5
E8
100
AcDbEntity
  8
LAYER007
  6
CONTINUOUS
 62
           7
100
AcDbCircle
 10
-250.0
 20
315.51624
 40
5.0
100
AcDbArc
 50
-149.999999999999
 51
-30.000000000001
  0
ARC
  5
E7
100
AcDbEntity
  8
LAYER007
  6
CONTINUOUS
 62
           7
100
AcDbCircle
 10
-245.8875
 20
253.37625
 40
7.8125
100
AcDbArc
 50
159.390279999998
 51
-159.390309999999
  0
ARC
  5
E6
100
AcDbEntity
  8
LAYER007
  6
CONTINUOUS
 62
           7
100
AcDbCircle
 10
-206.1125
 20
253.37625
 40
7.8125
100
AcDbArc
 50
-20.609690000001
 51
20.609667
  0
ARC
  5
E5
100
AcDbEntity
  8
LAYER007
  6
CONTINUOUS
 62
           7
100
AcDbCircle
 10
-258.86511
 20
196.3258
 40
5.0
100
AcDbArc
 50
-30.000000000001
 51
30.000001
  0
ARC
  5
E4
100
AcDbEntity
  8
LAYER007
  6
CONTINUOUS
 62
           7
100
AcDbCircle
 10
-241.13487
 20
196.3258
 40
5.0
100
AcDbArc
 50
149.999999999998
 51
-149.999999999998
  0
ARC
  5
E3
100
AcDbEntity
  8
LAYER007
  6
CONTINUOUS
 62
           7
100
AcDbCircle
 10
-237.34437
 20
-56.355804
 40
50.0
100
AcDbArc
 50
114.06037
 51
141.74836
  0
ARC
  5
E2
100
AcDbEntity
  8
LAYER007
  6
CONTINUOUS
 62
           7
100
AcDbCircle
 10
-262.65561
 20
-56.355804
 40
50.0
100
AcDbArc
 50
38.251626
 51
53.10831
  0
ARC
  5
E1
100
AcDbEntity
  8
LAYER007
  6
CONTINUOUS
 62
           7
100
AcDbCircle
 10
-206.21249
 20
8.900009
 40
7.8125
100
AcDbArc
 50
-20.60969
 51
20.609692937532
  0
ARC
  5
E0
100
AcDbEntity
  8
LAYER007
  6
CONTINUOUS
 62
           7
100
AcDbCircle
 10
-245.9875
 20
8.900009
 40
7.8125
100
AcDbArc
 50
159.390309999999
 51
-159.390309999998
  0
LINE
  5
DF
100
AcDbEntity
  8
LAYER007
  6
CONTINUOUS
 62
           7
100
AcDbLine
 10
-246.21633
 20
318.01624
 11
-221.5
 21
318.01624
  0
LINE
  5
DE
100
AcDbEntity
  8
LAYER007
  6
CONTINUOUS
 62
           7
100
AcDbLine
 10
-278.5
 20
313.01624
 11
-253.78368
 21
313.01624
  0
LINE
  5
DD
100
AcDbEntity
  8
LAYER007
  6
CONTINUOUS
 62
           7
100
AcDbLine
 10
-221.5
 20
318.01624
 11
-221.5
 21
313.01624
  0
LINE
  5
DC
100
AcDbEntity
  8
LAYER007
  6
CONTINUOUS
 62
           7
100
AcDbLine
 10
-278.5
 20
318.01624
 11
-278.5
 21
313.01624
  0
LINE
  5
DB
100
AcDbEntity
  8
LAYER007
  6
CONTINUOUS
 62
           7
100
AcDbLine
 10
-246.21633
 20
313.01624
 11
-221.5
 21
313.01624
  0
LINE
  5
DA
100
AcDbEntity
  8
LAYER007
  6
CONTINUOUS
 62
           7
100
AcDbLine
 10
-278.5
 20
318.01624
 11
-253.78368
 21
318.01624
  0
LINE
  5
D9
100
AcDbEntity
  8
LAYER007
  6
CONTINUOUS
 62
           7
100
AcDbLine
 10
-241.62841
 20
313.01624
 11
-245.09251
 21
307.01625
  0
LINE
  5
D8
100
AcDbEntity
  8
LAYER007
  6
CONTINUOUS
 62
           7
100
AcDbLine
 10
-245.09253
 20
307.01624
 11
-254.90747
 21
307.01624
  0
LINE
  5
D7
100
AcDbEntity
  8
LAYER007
  6
CONTINUOUS
 62
           7
100
AcDbLine
 10
-254.90749
 20
307.01625
 11
-258.37158
 21
313.01624
  0
LINE
  5
D6
100
AcDbEntity
  8
LAYER007
  6
CONTINUOUS
 62
           7
100
AcDbLine
 10
-258.37157
 20
318.01625
 11
-254.90747
 21
324.01624
  0
LINE
  5
D5
100
AcDbEntity
  8
LAYER007
  6
CONTINUOUS
 62
           7
100
AcDbLine
 10
-245.09253
 20
324.01624
 11
-254.90747
 21
324.01624
  0
LINE
  5
D4
100
AcDbEntity
  8
LAYER007
  6
CONTINUOUS
 62
           7
100
AcDbLine
 10
-241.62843
 20
318.01625
 11
-245.09253
 21
324.01624
  0
LINE
  5
D3
100
AcDbEntity
  8
LAYER007
  6
CONTINUOUS
 62
           7
100
AcDbLine
 10
-220.87338
 20
315.51624
 11
-220.5
 21
315.51624
  0
LINE
  5
D2
100
AcDbEntity
  8
LAYER007
  6
CONTINUOUS
 62
           7
100
AcDbLine
 10
-219.0
 20
269.37625
 11
-219.0
 21
276.37625
  0
LINE
  5
D1
100
AcDbEntity
  8
LAYER007
  6
CONTINUOUS
 62
           7
100
AcDbLine
 10
-233.0
 20
276.37625
 11
-219.0
 21
276.37625
  0
LINE
  5
D0
100
AcDbEntity
  8
LAYER007
  6
CONTINUOUS
 62
           7
100
AcDbLine
 10
-232.9
 20
276.37625
 11
-232.9
 21
276.72223
  0
LINE
  5
CF
100
AcDbEntity
  8
LAYER007
  6
CONTINUOUS
 62
           7
100
AcDbLine
 10
-232.9
 20
276.72226
 11
-232.5785
 21
281.86624
  0
LINE
  5
CE
100
AcDbEntity
  8
LAYER007
  6
CONTINUOUS
 62
           7
100
AcDbLine
 10
-219.1
 20
276.72225
 11
-220.04624
 21
278.16624
  0
LINE
  5
CD
100
AcDbEntity
  8
LAYER007
  6
CONTINUOUS
 62
           7
100
AcDbLine
 10
-219.10001
 20
276.72224
 11
-219.42151
 21
281.86626
  0
LINE
  5
CC
100
AcDbEntity
  8
LAYER007
  6
CONTINUOUS
 62
           7
100
AcDbLine
 10
-232.80976
 20
278.16623
 11
-219.19025
 21
278.16623
  0
LINE
  5
CB
100
AcDbEntity
  8
LAYER007
  6
CONTINUOUS
 62
           7
100
AcDbLine
 10
-253.2
 20
250.62625
 11
-253.2
 21
256.12625
  0
LINE
  5
CA
100
AcDbEntity
  8
LAYER007
  6
CONTINUOUS
 62
           7
100
AcDbLine
 10
-233.0
 20
269.37625
 11
-233.0
 21
276.37625
  0
LINE
  5
C9
100
AcDbEntity
  8
LAYER007
  6
CONTINUOUS
 62
           7
100
AcDbLine
 10
-219.0
 20
276.37626
 11
-233.0
 21
269.37626
  0
LINE
  5
C8
100
AcDbEntity
  8
LAYER007
  6
CONTINUOUS
 62
           7
100
AcDbLine
 10
-233.00002
 20
276.37624
 11
-219.0
 21
269.37623
  0
LINE
  5
C7
100
AcDbEntity
  8
LAYER007
  6
CONTINUOUS
 62
           7
100
AcDbLine
 10
-220.04625
 20
278.16624
 11
-220.2775
 21
281.86624
  0
LINE
  5
C6
100
AcDbEntity
  8
LAYER007
  6
CONTINUOUS
 62
           7
100
AcDbLine
 10
-231.95375
 20
278.16626
 11
-231.72251
 21
281.86625
  0
LINE
  5
C5
100
AcDbEntity
  8
LAYER007
  6
CONTINUOUS
 62
           7
100
AcDbLine
 10
-219.10001
 20
276.37625
 11
-219.10001
 21
276.72223
  0
LINE
  5
C4
100
AcDbEntity
  8
LAYER007
  6
CONTINUOUS
 62
           7
100
AcDbLine
 10
-232.9
 20
276.72224
 11
-231.95374
 21
278.16625
  0
LINE
  5
C3
100
AcDbEntity
  8
LAYER007
  6
CONTINUOUS
 62
           7
100
AcDbLine
 10
-198.8
 20
256.12625
 11
-199.89999
 21
256.12625
  0
LINE
  5
C2
100
AcDbEntity
  8
LAYER007
  6
CONTINUOUS
 62
           7
100
AcDbLine
 10
-198.8
 20
256.12625
 11
-198.8
 21
250.62625
  0
LINE
  5
C1
100
AcDbEntity
  8
LAYER007
  6
CONTINUOUS
 62
           7
100
AcDbLine
 10
-198.8
 20
250.62625
 11
-199.89999
 21
250.62625
  0
LINE
  5
C0
100
AcDbEntity
  8
LAYER007
  6
CONTINUOUS
 62
           7
100
AcDbLine
 10
-253.2
 20
250.62625
 11
-252.10001
 21
250.62625
  0
LINE
  5
BF
100
AcDbEntity
  8
LAYER007
  6
CONTINUOUS
 62
           7
100
AcDbLine
 10
-253.2
 20
256.12625
 11
-252.10001
 21
256.12625
  0
LINE
  5
BE
100
AcDbEntity
  8
LAYER007
  6
CONTINUOUS
 62
           7
100
AcDbLine
 10
-252.10001
 20
257.87625
 11
-199.89999
 21
257.87625
  0
LINE
  5
BD
100
AcDbEntity
  8
LAYER007
  6
CONTINUOUS
 62
           7
100
AcDbLine
 10
-200.19998
 20
257.87625
 11
-200.19998
 21
269.37625
  0
LINE
  5
BC
100
AcDbEntity
  8
LAYER007
  6
CONTINUOUS
 62
           7
100
AcDbLine
 10
-251.80002
 20
257.87625
 11
-251.80002
 21
269.37625
  0
LINE
  5
BB
100
AcDbEntity
  8
LAYER007
  6
CONTINUOUS
 62
           7
100
AcDbLine
 10
-251.80002
 20
269.37625
 11
-200.19998
 21
269.37625
  0
LINE
  5
BA
100
AcDbEntity
  8
LAYER007
  6
CONTINUOUS
 62
           7
100
AcDbLine
 10
-199.89999
 20
241.37625
 11
-199.89999
 21
257.87625
  0
LINE
  5
B9
100
AcDbEntity
  8
LAYER007
  6
CONTINUOUS
 62
           7
100
AcDbLine
 10
-252.10001
 20
241.37625
 11
-252.10001
 21
257.87625
  0
LINE
  5
B8
100
AcDbEntity
  8
LAYER007
  6
CONTINUOUS
 62
           7
100
AcDbLine
 10
-252.10001
 20
241.37625
 11
-199.89999
 21
241.37625
  0
LINE
  5
B7
100
AcDbEntity
  8
LAYER007
  6
CONTINUOUS
 62
           4
100
AcDbLine
 10
-226.0
 20
239.25519
 11
-226.0
 21
285.83277
  0
LINE
  5
B6
100
AcDbEntity
  8
LAYER007
  6
CONTINUOUS
 62
           4
100
AcDbLine
 10
-222.05
 20
349.16626
 11
-222.05
 21
337.76624
  0
LINE
  5
B5
100
AcDbEntity
  8
LAYER007
  6
CONTINUOUS
 62
           4
100
AcDbLine
 10
-216.35001
 20
343.46625
 11
-227.75
 21
343.46625
  0
LINE
  5
B4
100
AcDbEntity
  8
LAYER007
  6
CONTINUOUS
 62
           4
100
AcDbLine
 10
-216.35001
 20
287.56626
 11
-227.75
 21
287.56626
  0
LINE
  5
B3
100
AcDbEntity
  8
LAYER007
  6
CONTINUOUS
 62
           4
100
AcDbLine
 10
-222.05
 20
281.86624
 11
-222.05
 21
293.26624
  0
LINE
  5
B2
100
AcDbEntity
  8
LAYER007
  6
CONTINUOUS
 62
           4
100
AcDbLine
 10
-277.95001
 20
281.86624
 11
-277.95001
 21
293.26624
  0
LINE
  5
B1
100
AcDbEntity
  8
LAYER007
  6
CONTINUOUS
 62
           4
100
AcDbLine
 10
-283.64999
 20
287.56626
 11
-272.25
 21
287.56626
  0
LINE
  5
B0
100
AcDbEntity
  8
LAYER007
  6
CONTINUOUS
 62
           4
100
AcDbLine
 10
-283.64999
 20
343.46625
 11
-272.25
 21
343.46625
  0
LINE
  5
AF
100
AcDbEntity
  8
LAYER007
  6
CONTINUOUS
 62
           4
100
AcDbLine
 10
-277.95001
 20
349.16626
 11
-277.95001
 21
337.76624
  0
LINE
  5
AE
100
AcDbEntity
  8
LAYER007
  6
CONTINUOUS
 62
           7
100
AcDbLine
 10
-283.64999
 20
281.86624
 11
-216.35001
 21
281.86624
  0
LINE
  5
AD
100
AcDbEntity
  8
LAYER007
  6
CONTINUOUS
 62
           7
100
AcDbLine
 10
-283.64999
 20
349.16626
 11
-216.35001
 21
349.16626
  0
LINE
  5
AC
100
AcDbEntity
  8
LAYER007
  6
CONTINUOUS
 62
           7
100
AcDbLine
 10
-283.64999
 20
349.16626
 11
-283.64999
 21
281.86624
  0
LINE
  5
AB
100
AcDbEntity
  8
LAYER007
  6
CONTINUOUS
 62
           7
100
AcDbLine
 10
-216.35001
 20
349.16626
 11
-216.35001
 21
281.86624
  0
LINE
  5
AA
100
AcDbEntity
  8
LAYER007
  6
CONTINUOUS
 62
           7
100
AcDbLine
 10
-216.35001
 20
340.91626
 11
-195.0
 21
340.91626
  0
LINE
  5
A9
100
AcDbEntity
  8
LAYER007
  6
CONTINUOUS
 62
           7
100
AcDbLine
 10
-216.35001
 20
290.11624
 11
-195.0
 21
290.11624
  0
LINE
  5
A8
100
AcDbEntity
  8
LAYER007
  6
CONTINUOUS
 62
           7
100
AcDbLine
 10
-305.0
 20
290.11624
 11
-283.64999
 21
290.11624
  0
LINE
  5
A7
100
AcDbEntity
  8
LAYER007
  6
CONTINUOUS
 62
           7
100
AcDbLine
 10
-305.0
 20
340.91626
 11
-283.64999
 21
340.91626
  0
LINE
  5
A6
100
AcDbEntity
  8
LAYER007
  6
CONTINUOUS
 62
           7
100
AcDbLine
 10
-305.0
 20
340.91626
 11
-305.0
 21
290.11624
  0
LINE
  5
A5
100
AcDbEntity
  8
LAYER007
  6
CONTINUOUS
 62
           7
100
AcDbLine
 10
-195.0
 20
340.91626
 11
-195.0
 21
290.11624
  0
LINE
  5
A4
100
AcDbEntity
  8
LAYER007
  6
CONTINUOUS
 62
           4
100
AcDbLine
 10
-319.0
 20
315.51624
 11
-181.0
 21
315.51624
  0
LINE
  5
A3
100
AcDbEntity
  8
LAYER007
  6
CONTINUOUS
 62
           4
100
AcDbLine
 10
-250.0
 20
354.16626
 11
-250.0
 21
276.86624
  0
LINE
  5
A2
100
AcDbEntity
  8
LAYER007
  6
CONTINUOUS
 62
           4
100
AcDbLine
 10
-283.5
 20
196.3258
 11
-216.5
 21
196.3258
  0
LINE
  5
A1
100
AcDbEntity
  8
LAYER007
  6
CONTINUOUS
 62
           7
100
AcDbLine
 10
-254.535
 20
202.72579
 11
-245.46499
 21
202.72579
  0
LINE
  5
A0
100
AcDbEntity
  8
LAYER007
  6
CONTINUOUS
 62
           7
100
AcDbLine
 10
-254.535
 20
202.72579
 11
-254.535
 21
198.8258
  0
LINE
  5
9F
100
AcDbEntity
  8
LAYER007
  6
CONTINUOUS
 62
           7
100
AcDbLine
 10
-245.46499
 20
202.72579
 11
-245.46499
 21
198.8258
  0
LINE
  5
9E
100
AcDbEntity
  8
LAYER007
  6
CONTINUOUS
 62
           7
100
AcDbLine
 10
-255.0
 20
190.02579
 11
-245.0
 21
190.02579
  0
LINE
  5
9D
100
AcDbEntity
  8
LAYER007
  6
CONTINUOUS
 62
           7
100
AcDbLine
 10
-245.46499
 20
190.29425
 11
-245.0
 21
190.02579
  0
LINE
  5
9C
100
AcDbEntity
  8
LAYER007
  6
CONTINUOUS
 62
           7
100
AcDbLine
 10
-255.0
 20
190.0258
 11
-254.535
 21
190.29427
  0
LINE
  5
9B
100
AcDbEntity
  8
LAYER007
  6
CONTINUOUS
 62
           7
100
AcDbLine
 10
-254.535
 20
190.29426
 11
-245.46499
 21
190.29426
  0
LINE
  5
9A
100
AcDbEntity
  8
LAYER007
  6
CONTINUOUS
 62
           7
100
AcDbLine
 10
-278.5
 20
193.8258
 11
-254.535
 21
193.8258
  0
LINE
  5
99
100
AcDbEntity
  8
LAYER007
  6
CONTINUOUS
 62
           7
100
AcDbLine
 10
-278.5
 20
198.8258
 11
-254.535
 21
198.8258
  0
LINE
  5
98
100
AcDbEntity
  8
LAYER007
  6
CONTINUOUS
 62
           7
100
AcDbLine
 10
-278.5
 20
198.8258
 11
-278.5
 21
193.8258
  0
LINE
  5
97
100
AcDbEntity
  8
LAYER007
  6
CONTINUOUS
 62
           7
100
AcDbLine
 10
-221.5
 20
198.8258
 11
-221.5
 21
193.8258
  0
LINE
  5
96
100
AcDbEntity
  8
LAYER007
  6
CONTINUOUS
 62
           7
100
AcDbLine
 10
-254.535
 20
193.8258
 11
-254.535
 21
190.29426
  0
LINE
  5
95
100
AcDbEntity
  8
LAYER007
  6
CONTINUOUS
 62
           7
100
AcDbLine
 10
-245.46499
 20
193.8258
 11
-245.46499
 21
190.29426
  0
LINE
  5
94
100
AcDbEntity
  8
LAYER007
  6
CONTINUOUS
 62
           7
100
AcDbLine
 10
-245.46499
 20
193.8258
 11
-221.5
 21
193.8258
  0
LINE
  5
93
100
AcDbEntity
  8
LAYER007
  6
CONTINUOUS
 62
           7
100
AcDbLine
 10
-245.46499
 20
198.8258
 11
-221.5
 21
198.8258
  0
LINE
  5
92
100
AcDbEntity
  8
LAYER007
  6
CONTINUOUS
 62
           4
100
AcDbLine
 10
-310.0
 20
0.0
 11
-190.0
 21
0.0
  0
LINE
  5
91
100
AcDbEntity
  8
LAYER007
  6
CONTINUOUS
 62
           7
100
AcDbLine
 10
-245.0
 20
190.02579
 11
-245.0
 21
161.32001
  0
LINE
  5
90
100
AcDbEntity
  8
LAYER007
  6
CONTINUOUS
 62
           7
100
AcDbLine
 10
-255.0
 20
190.02579
 11
-255.0
 21
161.32001
  0
LINE
  5
8F
100
AcDbEntity
  8
LAYER007
  6
CONTINUOUS
 62
           7
100
AcDbLine
 10
-254.39999
 20
190.29426
 11
-254.39999
 21
161.32001
  0
LINE
  5
8E
100
AcDbEntity
  8
LAYER007
  6
CONTINUOUS
 62
           7
100
AcDbLine
 10
-245.6
 20
190.29426
 11
-245.6
 21
161.32001
  0
LINE
  5
8D
100
AcDbEntity
  8
LAYER007
  6
CONTINUOUS
 62
           7
100
AcDbLine
 10
-198.89999
 20
11.650009
 11
-200.14528
 21
11.650009
  0
LINE
  5
8C
100
AcDbEntity
  8
LAYER007
  6
CONTINUOUS
 62
           7
100
AcDbLine
 10
-198.89999
 20
11.650009
 11
-198.89999
 21
6.150009
  0
LINE
  5
8B
100
AcDbEntity
  8
LAYER007
  6
CONTINUOUS
 62
           7
100
AcDbLine
 10
-253.3
 20
6.150009
 11
-252.05472
 21
6.150009
  0
LINE
  5
8A
100
AcDbEntity
  8
LAYER007
  6
CONTINUOUS
 62
           7
100
AcDbLine
 10
-253.3
 20
11.650009
 11
-252.05472
 21
11.650009
  0
LINE
  5
89
100
AcDbEntity
  8
LAYER007
  6
CONTINUOUS
 62
           4
100
AcDbLine
 10
-226.1
 20
-21.17012
 11
-226.1
 21
41.485733
  0
LINE
  5
88
100
AcDbEntity
  8
LAYER007
  6
CONTINUOUS
 62
           4
100
AcDbLine
 10
-257.17556
 20
8.900009
 11
-196.01123
 21
8.900009
  0
LINE
  5
87
100
AcDbEntity
  8
LAYER007
  6
CONTINUOUS
 62
           7
100
AcDbLine
 10
-240.18504
 20
161.32001
 11
-240.18504
 21
155.32001
  0
LINE
  5
86
100
AcDbEntity
  8
LAYER007
  6
CONTINUOUS
 62
           7
100
AcDbLine
 10
-245.09253
 20
161.32001
 11
-245.09253
 21
155.32001
  0
LINE
  5
85
100
AcDbEntity
  8
LAYER007
  6
CONTINUOUS
 62
           7
100
AcDbLine
 10
-254.90747
 20
161.32001
 11
-254.90747
 21
155.32001
  0
LINE
  5
84
100
AcDbEntity
  8
LAYER007
  6
CONTINUOUS
 62
           7
100
AcDbLine
 10
-198.89999
 20
6.150009
 11
-200.14528
 21
6.150009
  0
LINE
  5
83
100
AcDbEntity
  8
LAYER007
  6
CONTINUOUS
 62
           4
100
AcDbLine
 10
-250.0
 20
207.72579
 11
-250.0
 21
51.355408
  0
LINE
  5
82
100
AcDbEntity
  8
LAYER007
  6
CONTINUOUS
 62
           7
100
AcDbLine
 10
-305.0
 20
25.400009
 11
-305.0
 21
-25.399994
  0
LINE
  5
81
100
AcDbEntity
  8
LAYER007
  6
CONTINUOUS
 62
           7
100
AcDbLine
 10
-195.0
 20
25.400009
 11
-195.0
 21
-25.399994
  0
LINE
  5
80
100
AcDbEntity
  8
LAYER007
  6
CONTINUOUS
 62
           7
100
AcDbLine
 10
-276.55692
 20
-31.406982
 11
-276.60934
 21
-25.399994
  0
LINE
  5
7F
100
AcDbEntity
  8
LAYER007
  6
CONTINUOUS
 62
           7
100
AcDbLine
 10
-223.44307
 20
-31.406982
 11
-223.39065
 21
-25.399994
  0
LINE
  5
7E
100
AcDbEntity
  8
LAYER007
  6
CONTINUOUS
 62
           7
100
AcDbLine
 10
-223.39065
 20
-25.399994
 11
-195.0
 21
-25.399994
  0
LINE
  5
7D
100
AcDbEntity
  8
LAYER007
  6
CONTINUOUS
 62
           7
100
AcDbLine
 10
-305.0
 20
25.400009
 11
-283.64999
 21
25.400009
  0
LINE
  5
7C
100
AcDbEntity
  8
LAYER007
  6
CONTINUOUS
 62
           7
100
AcDbLine
 10
-216.41499
 20
36.800003
 11
-216.6
 21
58.0
  0
LINE
  5
7B
100
AcDbEntity
  8
LAYER007
  6
CONTINUOUS
 62
           7
100
AcDbLine
 10
-283.58501
 20
36.800011
 11
-283.40001
 21
58.000008
  0
LINE
  5
7A
100
AcDbEntity
  8
LAYER007
  6
CONTINUOUS
 62
           7
100
AcDbLine
 10
-205.87724
 20
25.400009
 11
-195.0
 21
25.400009
  0
LINE
  5
79
100
AcDbEntity
  8
LAYER007
  6
CONTINUOUS
 62
           7
100
AcDbLine
 10
-299.20001
 20
-25.399994
 11
-299.20001
 21
-26.199997
  0
LINE
  5
78
100
AcDbEntity
  8
LAYER007
  6
CONTINUOUS
 62
           7
100
AcDbLine
 10
-299.20001
 20
-26.199997
 11
-283.20001
 21
-26.199997
  0
LINE
  5
77
100
AcDbEntity
  8
LAYER007
  6
CONTINUOUS
 62
           7
100
AcDbLine
 10
-283.20001
 20
-25.399994
 11
-283.20001
 21
-26.199997
  0
LINE
  5
76
100
AcDbEntity
  8
LAYER007
  6
CONTINUOUS
 62
           7
100
AcDbLine
 10
-305.0
 20
-25.399994
 11
-276.60934
 21
-25.399994
  0
LINE
  5
75
100
AcDbEntity
  8
LAYER007
  6
CONTINUOUS
 62
           7
100
AcDbLine
 10
-262.70001
 20
155.32001
 11
-237.3
 21
155.32001
  0
LINE
  5
74
100
AcDbEntity
  8
LAYER007
  6
CONTINUOUS
 62
           7
100
AcDbLine
 10
-262.70001
 20
155.32001
 11
-262.70001
 21
140.32001
  0
LINE
  5
73
100
AcDbEntity
  8
LAYER007
  6
CONTINUOUS
 62
           7
100
AcDbLine
 10
-237.3
 20
155.32001
 11
-237.3
 21
140.32001
  0
LINE
  5
72
100
AcDbEntity
  8
LAYER007
  6
CONTINUOUS
 62
           7
100
AcDbLine
 10
-270.95001
 20
140.32001
 11
-229.05
 21
140.32001
  0
LINE
  5
71
100
AcDbEntity
  8
LAYER007
  6
CONTINUOUS
 62
           7
100
AcDbLine
 10
-271.71251
 20
59.000008
 11
-270.90216
 21
145.42
  0
LINE
  5
70
100
AcDbEntity
  8
LAYER007
  6
CONTINUOUS
 62
           7
100
AcDbLine
 10
-229.09782
 20
145.42001
 11
-228.28747
 21
59.000008
  0
LINE
  5
6F
100
AcDbEntity
  8
LAYER007
  6
CONTINUOUS
 62
           7
100
AcDbLine
 10
-283.39999
 20
58.000008
 11
-216.6
 21
58.000008
  0
LINE
  5
6E
100
AcDbEntity
  8
LAYER007
  6
CONTINUOUS
 62
           7
100
AcDbLine
 10
-259.81494
 20
161.32001
 11
-259.81494
 21
155.32001
  0
LINE
  5
6D
100
AcDbEntity
  8
LAYER007
  6
CONTINUOUS
 62
           7
100
AcDbLine
 10
-259.81494
 20
161.32001
 11
-240.18504
 21
161.32001
  0
LINE
  5
6C
100
AcDbEntity
  8
LAYER007
  6
CONTINUOUS
 62
           7
100
AcDbLine
 10
-277.0
 20
-44.399994
 11
-223.0
 21
-44.399994
  0
LINE
  5
6B
100
AcDbEntity
  8
LAYER007
  6
CONTINUOUS
 62
           7
100
AcDbLine
 10
-277.0
 20
-32.199997
 11
-277.0
 21
-44.399994
  0
LINE
  5
6A
100
AcDbEntity
  8
LAYER007
  6
CONTINUOUS
 62
           7
100
AcDbLine
 10
-223.0
 20
-32.199997
 11
-223.0
 21
-44.399994
  0
LINE
  5
69
100
AcDbEntity
  8
LAYER007
  6
CONTINUOUS
 62
           7
100
AcDbLine
 10
-282.64999
 20
59.000008
 11
-217.35
 21
59.000008
  0
LINE
  5
68
100
AcDbEntity
  8
LAYER007
  6
CONTINUOUS
 62
           7
100
AcDbLine
 10
-217.35
 20
59.000008
 11
-217.35
 21
58.000008
  0
LINE
  5
67
100
AcDbEntity
  8
LAYER007
  6
CONTINUOUS
 62
           7
100
AcDbLine
 10
-282.64999
 20
59.000008
 11
-282.64999
 21
58.000008
  0
LINE
  5
66
100
AcDbEntity
  8
LAYER007
  6
CONTINUOUS
 62
           7
100
AcDbLine
 10
-277.0
 20
-32.199997
 11
-223.0
 21
-32.199997
  0
LINE
  5
65
100
AcDbEntity
  8
LAYER007
  6
CONTINUOUS
 62
           7
100
AcDbLine
 10
-257.72934
 20
21.600006
 11
-257.72934
 21
-10.699997
  0
LINE
  5
64
100
AcDbEntity
  8
LAYER007
  6
CONTINUOUS
 62
           7
100
AcDbLine
 10
-283.64999
 20
36.800011
 11
-216.35
 21
36.800011
  0
LINE
  5
63
100
AcDbEntity
  8
LAYER007
  6
CONTINUOUS
 62
           7
100
AcDbLine
 10
-283.64999
 20
21.600006
 11
-248.90175
 21
21.600006
  0
LINE
  5
62
100
AcDbEntity
  8
LAYER007
  6
CONTINUOUS
 62
           7
100
AcDbLine
 10
-253.3
 20
11.650009
 11
-253.3
 21
6.150009
  0
LINE
  5
61
100
AcDbEntity
  8
LAYER007
  6
CONTINUOUS
 62
           7
100
AcDbLine
 10
-305.0
 20
-10.699997
 11
-257.72934
 21
-10.699997
  0
LINE
  5
60
100
AcDbEntity
  8
LAYER007
  6
CONTINUOUS
 62
           7
100
AcDbLine
 10
-208.86486
 20
-10.699997
 11
-195.0
 21
-10.699997
  0
LINE
  5
5F
100
AcDbEntity
  8
LAYER007
  6
CONTINUOUS
 62
           7
100
AcDbLine
 10
-216.35
 20
36.800011
 11
-216.35
 21
33.110489
  0
LINE
  5
5E
100
AcDbEntity
  8
LAYER007
  6
CONTINUOUS
 62
           7
100
AcDbLine
 10
-283.64999
 20
36.800011
 11
-283.64999
 21
21.600006
  0
LINE
  5
5D
100
AcDbEntity
  8
LAYER007
  6
CONTINUOUS
 62
           7
100
AcDbLine
 10
-270.90219
 20
145.42
 11
-262.70001
 21
145.42
  0
LINE
  5
5C
100
AcDbEntity
  8
LAYER007
  6
CONTINUOUS
 62
           7
100
AcDbLine
 10
-237.3
 20
145.42
 11
-229.09782
 21
145.42
  0
LINE
  5
5B
100
AcDbEntity
  8
LAYER003
  6
CONTINUOUS
 62
           3
100
AcDbLine
 10
-149.53491
 20
202.72579
 11
-149.53491
 21
-44.399994
  0
LINE
  5
5A
100
AcDbEntity
  8
LAYER003
  6
CONTINUOUS
 62
           3
100
AcDbLine
 10
-149.53491
 20
202.72579
 11
-148.53491
 21
199.72579
  0
LINE
  5
59
100
AcDbEntity
  8
LAYER003
  6
CONTINUOUS
 62
           3
100
AcDbLine
 10
-149.53491
 20
202.72579
 11
-150.53491
 21
199.72579
  0
LINE
  5
58
100
AcDbEntity
  8
LAYER003
  6
CONTINUOUS
 62
           3
100
AcDbLine
 10
-149.53491
 20
-44.399994
 11
-150.53491
 21
-41.399994
  0
LINE
  5
57
100
AcDbEntity
  8
LAYER003
  6
CONTINUOUS
 62
           3
100
AcDbLine
 10
-149.53491
 20
-44.399994
 11
-148.53491
 21
-41.399994
  0
LINE
  5
56
100
AcDbEntity
  8
LAYER003
  6
CONTINUOUS
 62
           3
100
AcDbLine
 10
-242.92499
 20
202.72579
 11
-147.24892
 21
202.72579
  0
LINE
  5
55
100
AcDbEntity
  8
LAYER003
  6
CONTINUOUS
 62
           3
100
AcDbLine
 10
-220.46
 20
-44.399994
 11
-147.24892
 21
-44.399994
  0
POINT
  5
54
100
AcDbEntity
  8
LAYER007
 62
           7
100
AcDbPoint
 10
-250.00002
 20
315.51624
  0
POINT
  5
53
100
AcDbEntity
  8
LAYER007
 62
           7
100
AcDbPoint
 10
-250.0
 20
161.32002
  0
INSERT
  5
31
100
AcDbEntity
  8
0
100
AcDbBlockReference
  2
KOZU0004__S
 10
-250.0
 20
161.32002
  0
INSERT
  5
32
100
AcDbEntity
  8
0
100
AcDbBlockReference
  2
KOZU0003__S
 10
-304.99999
 20
0.000015
  0
INSERT
  5
33
100
AcDbEntity
  8
0
100
AcDbBlockReference
  2
KOZU0002__S
 10
-279.22689
 20
284.63205
  0
INSERT
  5
34
100
AcDbEntity
  8
0
100
AcDbBlockReference
  2
KOZU0001__S
 10
-250.00002
 20
315.51624
  0
ENDSEC
  0
SECTION
  2
OBJECTS
  0
DICTIONARY
  5
19
100
AcDbDictionary
  3
ACAD_GROUP
350
1A
  3
ACAD_MLINESTYLE
350
1B
  0
DICTIONARY
  5
1A
102
{ACAD_REACTORS
330
19
102
}
100
AcDbDictionary
  0
DICTIONARY
  5
1B
102
{ACAD_REACTORS
330
19
102
}
100
AcDbDictionary
  3
STANDARD
350
1C
  0
MLINESTYLE
  5
1C
102
{ACAD_REACTORS
330
1B
102
}
100
AcDbMlineStyle
  2
STANDARD
 70
           0
  3

 62
           0
 51
90.0
 52
90.0
 71
           2
 49
0.5
 62
         256
  6
BYLAYER
 49
-0.5
 62
         256
  6
BYLAYER
  0
ENDSEC
  0
EOF
