  0
SECTION
  2
HEADER
  9
$ACADVER
  1
AC1015
  9
$ACADMAINTVER
 70
     6
  9
$DWGCODEPAGE
  3
DOS932
  9
$INSBASE
 10
0.0
 20
0.0
 30
0.0
  9
$EXTMIN
 10
0.0
 20
0.0
 30
0.0
  9
$EXTMAX
 10
297.0
 20
210.0
 30
0.0
  9
$LIMMIN
 10
0.0
 20
0.0
  9
$LIMMAX
 10
0.0
 20
0.0
  9
$ORTHOMODE
 70
     0
  9
$REGENMODE
 70
     1
  9
$FILLMODE
 70
     1
  9
$QTEXTMODE
 70
     0
  9
$MIRRTEXT
 70
     1
  9
$LTSCALE
 40
1.0
  9
$ATTMODE
 70
     1
  9
$TEXTSIZE
 40
3.175
  9
$TRACEWID
 40
1.0
  9
$TEXTSTYLE
  7
Standard
  9
$CLAYER
  8
0
  9
$CELTYPE
  6
ByLayer
  9
$CECOLOR
 62
   256
  9
$CELTSCALE
 40
1.0
  9
$DISPSILH
 70
     0
  9
$DIMSCALE
 40
1.0
  9
$DIMASZ
 40
2.0
  9
$DIMEXO
 40
1.0
  9
$DIMDLI
 40
3.75
  9
$DIMRND
 40
0.0
  9
$DIMDLE
 40
0.0
  9
$DIMEXE
 40
1.0
  9
$DIMTP
 40
0.0
  9
$DIMTM
 40
0.0
  9
$DIMTXT
 40
3.175
  9
$DIMCEN
 40
2.5
  9
$DIMTSZ
 40
0.0
  9
$DIMTOL
 70
     0
  9
$DIMLIM
 70
     0
  9
$DIMTIH
 70
     1
  9
$DIMTOH
 70
     1
  9
$DIMSE1
 70
     0
  9
$DIMSE2
 70
     0
  9
$DIMTAD
 70
     1
  9
$DIMZIN
 70
     0
  9
$DIMBLK
  1

  9
$DIMASO
 70
     1
  9
$DIMSHO
 70
     1
  9
$DIMPOST
  1

  9
$DIMAPOST
  1

  9
$DIMALT
 70
     0
  9
$DIMALTD
 70
     3
  9
$DIMALTF
 40
0.0393700787
  9
$DIMLFAC
 40
7.0
  9
$DIMTOFL
 70
     1
  9
$DIMTVP
 40
0.0
  9
$DIMTIX
 70
     0
  9
$DIMSOXD
 70
     0
  9
$DIMSAH
 70
     0
  9
$DIMBLK1
  1

  9
$DIMBLK2
  1

  9
$DIMSTYLE
  2
ISO-25
  9
$DIMCLRD
 70
     0
  9
$DIMCLRE
 70
     0
  9
$DIMCLRT
 70
     0
  9
$DIMTFAC
 40
1.0
  9
$DIMGAP
 40
1.524
  9
$DIMJUST
 70
     0
  9
$DIMSD1
 70
     0
  9
$DIMSD2
 70
     0
  9
$DIMTOLJ
 70
     0
  9
$DIMTZIN
 70
     0
  9
$DIMALTZ
 70
     0
  9
$DIMALTTZ
 70
     0
  9
$DIMUPT
 70
     0
  9
$DIMDEC
 70
     2
  9
$DIMTDEC
 70
     2
  9
$DIMALTU
 70
     2
  9
$DIMALTTD
 70
     3
  9
$DIMTXSTY
  7
Standard
  9
$DIMAUNIT
 70
     0
  9
$DIMADEC
 70
     0
  9
$DIMALTRND
 40
0.0
  9
$DIMAZIN
 70
     0
  9
$DIMDSEP
 70
    44
  9
$DIMATFIT
 70
     3
  9
$DIMFRAC
 70
     0
  9
$DIMLDRBLK
  1

  9
$DIMLUNIT
 70
     2
  9
$DIMLWD
 70
    -2
  9
$DIMLWE
 70
    -2
  9
$DIMTMOVE
 70
     0
  9
$LUNITS
 70
     2
  9
$LUPREC
 70
     1
  9
$SKETCHINC
 40
1.0
  9
$FILLETRAD
 40
10.0
  9
$AUNITS
 70
     0
  9
$AUPREC
 70
     0
  9
$MENU
  1
.
  9
$ELEVATION
 40
0.0
  9
$PELEVATION
 40
0.0
  9
$THICKNESS
 40
0.0
  9
$LIMCHECK
 70
     0
  9
$CHAMFERA
 40
10.0
  9
$CHAMFERB
 40
10.0
  9
$CHAMFERC
 40
20.0
  9
$CHAMFERD
 40
0.0
  9
$SKPOLY
 70
     0
  9
$TDCREATE
 40
2455622.693457454
  9
$TDUCREATE
 40
2455622.318457454
  9
$TDUPDATE
 40
2455622.693457465
  9
$TDUUPDATE
 40
2455622.318457465
  9
$TDINDWG
 40
0.0000000116
  9
$TDUSRTIMER
 40
0.0000000116
  9
$USRTIMER
 70
     1
  9
$ANGBASE
 50
0.0
  9
$ANGDIR
 70
     0
  9
$PDMODE
 70
     0
  9
$PDSIZE
 40
-1.0
  9
$PLINEWID
 40
0.0
  9
$SPLFRAME
 70
     0
  9
$SPLINETYPE
 70
     6
  9
$SPLINESEGS
 70
     8
  9
$HANDSEED
  5
473
  9
$SURFTAB1
 70
     6
  9
$SURFTAB2
 70
     6
  9
$SURFTYPE
 70
     6
  9
$SURFU
 70
     6
  9
$SURFV
 70
     6
  9
$UCSBASE
  2

  9
$UCSNAME
  2

  9
$UCSORG
 10
0.0
 20
0.0
 30
0.0
  9
$UCSXDIR
 10
1.0
 20
0.0
 30
0.0
  9
$UCSYDIR
 10
0.0
 20
1.0
 30
0.0
  9
$UCSORTHOREF
  2

  9
$UCSORTHOVIEW
 70
     0
  9
$UCSORGTOP
 10
0.0
 20
0.0
 30
0.0
  9
$UCSORGBOTTOM
 10
0.0
 20
0.0
 30
0.0
  9
$UCSORGLEFT
 10
0.0
 20
0.0
 30
0.0
  9
$UCSORGRIGHT
 10
0.0
 20
0.0
 30
0.0
  9
$UCSORGFRONT
 10
0.0
 20
0.0
 30
0.0
  9
$UCSORGBACK
 10
0.0
 20
0.0
 30
0.0
  9
$PUCSBASE
  2

  9
$PUCSNAME
  2

  9
$PUCSORG
 10
0.0
 20
0.0
 30
0.0
  9
$PUCSXDIR
 10
1.0
 20
0.0
 30
0.0
  9
$PUCSYDIR
 10
0.0
 20
1.0
 30
0.0
  9
$PUCSORTHOREF
  2

  9
$PUCSORTHOVIEW
 70
     0
  9
$PUCSORGTOP
 10
0.0
 20
0.0
 30
0.0
  9
$PUCSORGBOTTOM
 10
0.0
 20
0.0
 30
0.0
  9
$PUCSORGLEFT
 10
0.0
 20
0.0
 30
0.0
  9
$PUCSORGRIGHT
 10
0.0
 20
0.0
 30
0.0
  9
$PUCSORGFRONT
 10
0.0
 20
0.0
 30
0.0
  9
$PUCSORGBACK
 10
0.0
 20
0.0
 30
0.0
  9
$USERI1
 70
     0
  9
$USERI2
 70
     0
  9
$USERI3
 70
     0
  9
$USERI4
 70
     0
  9
$USERI5
 70
     0
  9
$USERR1
 40
0.0
  9
$USERR2
 40
0.0
  9
$USERR3
 40
0.0
  9
$USERR4
 40
0.0
  9
$USERR5
 40
0.0
  9
$WORLDVIEW
 70
     1
  9
$SHADEDGE
 70
     3
  9
$SHADEDIF
 70
    70
  9
$TILEMODE
 70
     1
  9
$MAXACTVP
 70
    64
  9
$PINSBASE
 10
0.0
 20
0.0
 30
0.0
  9
$PLIMCHECK
 70
     0
  9
$PEXTMIN
 10
1.0000000000E+20
 20
1.0000000000E+20
 30
1.0000000000E+20
  9
$PEXTMAX
 10
-1.0000000000E+20
 20
-1.0000000000E+20
 30
-1.0000000000E+20
  9
$PLIMMIN
 10
0.0
 20
0.0
  9
$PLIMMAX
 10
420.0
 20
297.0
  9
$UNITMODE
 70
     0
  9
$VISRETAIN
 70
     1
  9
$PLINEGEN
 70
     0
  9
$PSLTSCALE
 70
     1
  9
$TREEDEPTH
 70
  3020
  9
$CMLSTYLE
  2
Standard
  9
$CMLJUST
 70
     0
  9
$CMLSCALE
 40
20.0
  9
$PROXYGRAPHICS
 70
     1
  9
$MEASUREMENT
 70
     1
  9
$CELWEIGHT
370
    -1
  9
$ENDCAPS
280
     0
  9
$JOINSTYLE
280
     0
  9
$LWDISPLAY
290
     1
  9
$INSUNITS
 70
     4
  9
$HYPERLINKBASE
  1

  9
$STYLESHEET
  1

  9
$XEDIT
290
     1
  9
$CEPSNTYPE
380
     0
  9
$PSTYLEMODE
290
     1
  9
$FINGERPRINTGUID
  2
{F7DE4F67-DA50-4AC9-BEF2-0C54EB82D322}
  9
$VERSIONGUID
  2
{FAEB1C32-E019-11D5-929B-00C0DF256EC4}
  9
$EXTNAMES
290
     1
  9
$PSVPSCALE
 40
0.0
  9
$OLESTARTUP
290
     0
  0
ENDSEC
  0
SECTION
  2
CLASSES
  0
CLASS
  1
ACDBDICTIONARYWDFLT
  2
AcDbDictionaryWithDefault
  3
ObjectDBX Classes
 90
        0
280
     0
281
     0
  0
CLASS
  1
ACDBPLACEHOLDER
  2
AcDbPlaceHolder
  3
ObjectDBX Classes
 90
        0
280
     0
281
     0
  0
CLASS
  1
LAYOUT
  2
AcDbLayout
  3
ObjectDBX Classes
 90
        0
280
     0
281
     0
  0
ENDSEC
  0
SECTION
  2
TABLES
  0
TABLE
  2
VPORT
  5
8
330
0
100
AcDbSymbolTable
 70
     1
  0
VPORT
  5
29
330
8
100
AcDbSymbolTableRecord
100
AcDbViewportTableRecord
  2
*Active
 70
     0
 10
0.0
 20
0.0
 11
1.0
 21
1.0
 12
148.5
 22
105.0
 13
0.0
 23
0.0
 14
10.0
 24
10.0
 15
10.0
 25
10.0
 16
0.0
 26
0.0
 36
1.0
 17
0.0
 27
0.0
 37
0.0
 40
210.0
 41
1.4142857143
 42
50.0
 43
0.0
 44
0.0
 50
0.0
 51
0.0
 71
     0
 72
  2000
 73
     1
 74
     3
 75
     0
 76
     0
 77
     0
 78
     0
281
     0
 65
     1
110
0.0
120
0.0
130
0.0
111
1.0
121
0.0
131
0.0
112
0.0
122
1.0
132
0.0
 79
     0
146
0.0
  0
ENDTAB
  0
TABLE
  2
LTYPE
  5
5
330
0
100
AcDbSymbolTable
 70
     6
  0
LTYPE
  5
14
330
5
100
AcDbSymbolTableRecord
100
AcDbLinetypeTableRecord
  2
ByBlock
 70
     0
  3

 72
    65
 73
     0
 40
0.0
  0
LTYPE
  5
15
330
5
100
AcDbSymbolTableRecord
100
AcDbLinetypeTableRecord
  2
ByLayer
 70
     0
  3

 72
    65
 73
     0
 40
0.0
  0
LTYPE
  5
16
330
5
100
AcDbSymbolTableRecord
100
AcDbLinetypeTableRecord
  2
Continuous
 70
     0
  3
Solid line
 72
    65
 73
     0
 40
0.0
  0
LTYPE
  5
2A
330
5
100
AcDbSymbolTableRecord
100
AcDbLinetypeTableRecord
  2
HIDDEN
 70
     0
  3
Hidden __ __ __ __ __ __ __ __ __ __ __ __ __ __
 72
    65
 73
     2
 40
1.905
 49
1.27
 74
     0
 49
-0.635
 74
     0
  0
LTYPE
  5
2B
330
5
100
AcDbSymbolTableRecord
100
AcDbLinetypeTableRecord
  2
PHANTOM
 70
     0
  3
Phantom ______  __  __  ______  __  __  ______
 72
    65
 73
     6
 40
12.7
 49
6.35
 74
     0
 49
-1.27
 74
     0
 49
1.27
 74
     0
 49
-1.27
 74
     0
 49
1.27
 74
     0
 49
-1.27
 74
     0
  0
LTYPE
  5
2C
330
5
100
AcDbSymbolTableRecord
100
AcDbLinetypeTableRecord
  2
CENTER
 70
     0
  3
Center ____ _ ____ _ ____ _ ____ _ ____ _ ____
 72
    65
 73
     4
 40
10.16
 49
6.35
 74
     0
 49
-1.27
 74
     0
 49
1.27
 74
     0
 49
-1.27
 74
     0
  0
LTYPE
  5
2D
330
5
100
AcDbSymbolTableRecord
100
AcDbLinetypeTableRecord
  2
CENTERX2
 70
     0
  3
Center (2x) ________  __  ________  __  _____
 72
    65
 73
     4
 40
20.32
 49
12.7
 74
     0
 49
-2.54
 74
     0
 49
2.54
 74
     0
 49
-2.54
 74
     0
  0
LTYPE
  5
2E
330
5
100
AcDbSymbolTableRecord
100
AcDbLinetypeTableRecord
  2
DOT2
 70
     0
  3
Dot (.5x) ........................................
 72
    65
 73
     2
 40
0.635
 49
0.0
 74
     0
 49
-0.635
 74
     0
  0
ENDTAB
  0
TABLE
  2
LAYER
  5
2
330
0
100
AcDbSymbolTable
 70
     5
  0
LAYER
  5
10
330
2
100
AcDbSymbolTableRecord
100
AcDbLayerTableRecord
  2
0
 70
     0
 62
     7
  6
Continuous
370
    -3
390
F
  0
LAYER
  5
2F
330
2
100
AcDbSymbolTableRecord
100
AcDbLayerTableRecord
  2
ﾚｲﾔｰ0
 70
     0
 62
  -211
  6
Continuous
370
    -3
390
F
  0
LAYER
  5
30
330
2
100
AcDbSymbolTableRecord
100
AcDbLayerTableRecord
  2
寸法線
 70
     0
 62
  -179
  6
Continuous
370
    -3
390
F
  0
LAYER
  5
31
330
2
100
AcDbSymbolTableRecord
100
AcDbLayerTableRecord
  2
中心線
 70
     0
 62
   179
  6
CENTERX2
370
    -3
390
F
  0
LAYER
  5
32
330
2
100
AcDbSymbolTableRecord
100
AcDbLayerTableRecord
  2
注記
 70
     0
 62
  -179
  6
Continuous
370
    -3
390
F
  0
ENDTAB
  0
TABLE
  2
STYLE
  5
3
330
0
100
AcDbSymbolTable
 70
     9
  0
STYLE
  5
11
330
3
100
AcDbSymbolTableRecord
100
AcDbTextStyleTableRecord
  2
Standard
 70
     0
 40
0.0
 41
1.0
 50
0.0
 71
     0
 42
2.5
  3
txt
  4
bigfont
  0
STYLE
  5
43
330
3
100
AcDbSymbolTableRecord
100
AcDbTextStyleTableRecord
  2
SLDTEXTSTYLE0
 70
     0
 40
0.0
 41
0.7
 50
0.0
 71
     0
 42
0.2
  3
TXT
  4
bigfont
  0
STYLE
  5
45
330
3
100
AcDbSymbolTableRecord
100
AcDbTextStyleTableRecord
  2
SLDTEXTSTYLE1
 70
     0
 40
0.0
 41
0.6681818182
 50
0.0
 71
     0
 42
0.2
  3
TXT
  4
bigfont
  0
STYLE
  5
48
330
3
100
AcDbSymbolTableRecord
100
AcDbTextStyleTableRecord
  2
SLDTEXTSTYLE2
 70
     0
 40
0.0
 41
0.63
 50
0.0
 71
     0
 42
0.2
  3
TXT
  4
bigfont
  0
STYLE
  5
126
330
3
100
AcDbSymbolTableRecord
100
AcDbTextStyleTableRecord
  2
SLDTEXTSTYLE3
 70
     0
 40
0.0
 41
0.6588235294
 50
0.0
 71
     0
 42
0.2
  3
TXT
  4
bigfont
  0
STYLE
  5
142
330
3
100
AcDbSymbolTableRecord
100
AcDbTextStyleTableRecord
  2
SLDTEXTSTYLE4
 70
     0
 40
0.0
 41
0.6416666667
 50
0.0
 71
     0
 42
0.2
  3
TXT
  4
bigfont
  0
STYLE
  5
444
330
3
100
AcDbSymbolTableRecord
100
AcDbTextStyleTableRecord
  2
SLDTEXTSTYLE5
 70
     0
 40
0.0
 41
0.5833333333
 50
0.0
 71
     0
 42
0.2
  3
TXT
  4
bigfont
  0
STYLE
  5
446
330
3
100
AcDbSymbolTableRecord
100
AcDbTextStyleTableRecord
  2
SLDTEXTSTYLE6
 70
     0
 40
0.0
 41
0.56
 50
0.0
 71
     0
 42
0.2
  3
TXT
  4
bigfont
  0
STYLE
  5
448
330
3
100
AcDbSymbolTableRecord
100
AcDbTextStyleTableRecord
  2
SLDTEXTSTYLE7
 70
     0
 40
0.0
 41
0.525
 50
0.0
 71
     0
 42
0.2
  3
TXT
  4
bigfont
  0
ENDTAB
  0
TABLE
  2
VIEW
  5
6
330
0
100
AcDbSymbolTable
 70
     0
  0
ENDTAB
  0
TABLE
  2
UCS
  5
7
330
0
100
AcDbSymbolTable
 70
     0
  0
ENDTAB
  0
TABLE
  2
APPID
  5
9
330
0
100
AcDbSymbolTable
 70
     1
  0
APPID
  5
12
330
9
100
AcDbSymbolTableRecord
100
AcDbRegAppTableRecord
  2
ACAD
 70
     0
  0
ENDTAB
  0
TABLE
  2
DIMSTYLE
  5
A
330
0
100
AcDbSymbolTable
 70
     3
100
AcDbDimStyleTable
  0
DIMSTYLE
105
27
330
A
100
AcDbSymbolTableRecord
100
AcDbDimStyleTableRecord
  2
ISO-25
 70
     0
 41
2.5
 42
0.625
 43
3.75
 44
1.25
 73
     0
 74
     0
 77
     1
 78
     8
140
2.5
141
2.5
143
0.0393700787
147
0.625
171
     3
172
     1
271
     2
272
     2
274
     3
278
    44
283
     0
284
     8
340
11
  0
DIMSTYLE
105
10D
330
A
100
AcDbSymbolTableRecord
100
AcDbDimStyleTableRecord
  2
SLDDIMSTYLE0
 70
     0
 41
2.0
 44
0.0
140
2.0
147
0.5
173
     1
271
     0
272
     0
340
11
  0
DIMSTYLE
105
129
330
A
100
AcDbSymbolTableRecord
100
AcDbDimStyleTableRecord
  2
SLDDIMSTYLE1
 70
     0
 41
0.1666666667
 44
0.0
140
0.5
147
0.125
173
     1
271
     0
272
     0
340
11
341
4D
343
4D
344
4D
  0
ENDTAB
  0
TABLE
  2
BLOCK_RECORD
  5
1
330
0
100
AcDbSymbolTable
 70
    20
  0
BLOCK_RECORD
  5
1F
330
1
100
AcDbSymbolTableRecord
100
AcDbBlockTableRecord
  2
*Model_Space
340
22
  0
BLOCK_RECORD
  5
1B
330
1
100
AcDbSymbolTableRecord
100
AcDbBlockTableRecord
  2
*Paper_Space
340
1E
  0
BLOCK_RECORD
  5
23
330
1
100
AcDbSymbolTableRecord
100
AcDbBlockTableRecord
  2
*Paper_Space0
340
26
  0
BLOCK_RECORD
  5
3A
330
1
100
AcDbSymbolTableRecord
100
AcDbBlockTableRecord
  2
SW_NOTE_0
340
0
102
{BLKREFS
331
47
102
}
1001
ACAD
1000
DesignCenter Data
1002
{
1070
     1
1070
     0
1002
}
  0
BLOCK_RECORD
  5
4D
330
1
100
AcDbSymbolTableRecord
100
AcDbBlockTableRecord
  2
_Dot
340
0
102
{BLKREFS
331
52
331
1ED
102
}
1001
ACAD
1000
DesignCenter Data
1002
{
1070
     1
1070
     0
1002
}
  0
BLOCK_RECORD
  5
102
330
1
100
AcDbSymbolTableRecord
100
AcDbBlockTableRecord
  2
SW_NOTE_1
340
0
102
{BLKREFS
331
10C
102
}
1001
ACAD
1000
DesignCenter Data
1002
{
1070
     1
1070
     0
1002
}
  0
BLOCK_RECORD
  5
10F
330
1
100
AcDbSymbolTableRecord
100
AcDbBlockTableRecord
  2
SW_NOTE_2
340
0
102
{BLKREFS
331
11A
102
}
1001
ACAD
1000
DesignCenter Data
1002
{
1070
     1
1070
     0
1002
}
  0
BLOCK_RECORD
  5
11C
330
1
100
AcDbSymbolTableRecord
100
AcDbBlockTableRecord
  2
SW_NOTE_3
340
0
102
{BLKREFS
331
128
102
}
1001
ACAD
1000
DesignCenter Data
1002
{
1070
     1
1070
     0
1002
}
  0
BLOCK_RECORD
  5
12B
330
1
100
AcDbSymbolTableRecord
100
AcDbBlockTableRecord
  2
SW_NOTE_4
340
0
102
{BLKREFS
331
136
102
}
1001
ACAD
1000
DesignCenter Data
1002
{
1070
     1
1070
     0
1002
}
  0
BLOCK_RECORD
  5
138
330
1
100
AcDbSymbolTableRecord
100
AcDbBlockTableRecord
  2
SW_NOTE_5
340
0
102
{BLKREFS
331
144
102
}
1001
ACAD
1000
DesignCenter Data
1002
{
1070
     1
1070
     0
1002
}
  0
BLOCK_RECORD
  5
1D5
330
1
100
AcDbSymbolTableRecord
100
AcDbBlockTableRecord
  2
SW_NOTE_6
340
0
102
{BLKREFS
331
1E0
102
}
1001
ACAD
1000
DesignCenter Data
1002
{
1070
     1
1070
     0
1002
}
  0
BLOCK_RECORD
  5
1E1
330
1
100
AcDbSymbolTableRecord
100
AcDbBlockTableRecord
  2
SW_CENTERMARKSYMBOL_0
340
0
102
{BLKREFS
331
1EC
102
}
1001
ACAD
1000
DesignCenter Data
1002
{
1070
     1
1070
     0
1002
}
  0
BLOCK_RECORD
  5
39A
330
1
100
AcDbSymbolTableRecord
100
AcDbBlockTableRecord
  2
SW_CENTERMARKSYMBOL_1
340
0
102
{BLKREFS
331
3A5
102
}
1001
ACAD
1000
DesignCenter Data
1002
{
1070
     1
1070
     0
1002
}
  0
BLOCK_RECORD
  5
3A6
330
1
100
AcDbSymbolTableRecord
100
AcDbBlockTableRecord
  2
SW_CENTERMARKSYMBOL_2
340
0
102
{BLKREFS
331
3B1
102
}
1001
ACAD
1000
DesignCenter Data
1002
{
1070
     1
1070
     0
1002
}
  0
BLOCK_RECORD
  5
3B2
330
1
100
AcDbSymbolTableRecord
100
AcDbBlockTableRecord
  2
SW_CENTERMARKSYMBOL_3
340
0
102
{BLKREFS
331
3BD
102
}
1001
ACAD
1000
DesignCenter Data
1002
{
1070
     1
1070
     0
1002
}
  0
BLOCK_RECORD
  5
3BE
330
1
100
AcDbSymbolTableRecord
100
AcDbBlockTableRecord
  2
SW_CENTERMARKSYMBOL_4
340
0
102
{BLKREFS
331
3C9
102
}
1001
ACAD
1000
DesignCenter Data
1002
{
1070
     1
1070
     0
1002
}
  0
BLOCK_RECORD
  5
420
330
1
100
AcDbSymbolTableRecord
100
AcDbBlockTableRecord
  2
SW_NOTE_7
340
0
102
{BLKREFS
331
42C
102
}
1001
ACAD
1000
DesignCenter Data
1002
{
1070
     1
1070
     0
1002
}
  0
BLOCK_RECORD
  5
42E
330
1
100
AcDbSymbolTableRecord
100
AcDbBlockTableRecord
  2
SW_NOTE_8
340
0
102
{BLKREFS
331
439
102
}
1001
ACAD
1000
DesignCenter Data
1002
{
1070
     1
1070
     0
1002
}
  0
BLOCK_RECORD
  5
43B
330
1
100
AcDbSymbolTableRecord
100
AcDbBlockTableRecord
  2
SW_NOTE_9
340
0
102
{BLKREFS
331
44A
102
}
1001
ACAD
1000
DesignCenter Data
1002
{
1070
     1
1070
     0
1002
}
  0
BLOCK_RECORD
  5
44C
330
1
100
AcDbSymbolTableRecord
100
AcDbBlockTableRecord
  2
SW_NOTE_10
340
0
102
{BLKREFS
331
458
102
}
1001
ACAD
1000
DesignCenter Data
1002
{
1070
     1
1070
     0
1002
}
  0
BLOCK_RECORD
  5
45A
330
1
100
AcDbSymbolTableRecord
100
AcDbBlockTableRecord
  2
SW_CENTERMARKSYMBOL_5
340
0
102
{BLKREFS
331
465
102
}
1001
ACAD
1000
DesignCenter Data
1002
{
1070
     1
1070
     0
1002
}
  0
BLOCK_RECORD
  5
466
330
1
100
AcDbSymbolTableRecord
100
AcDbBlockTableRecord
  2
SW_CENTERMARKSYMBOL_6
340
0
102
{BLKREFS
331
471
102
}
1001
ACAD
1000
DesignCenter Data
1002
{
1070
     1
1070
     0
1002
}
  0
ENDTAB
  0
ENDSEC
  0
SECTION
  2
BLOCKS
  0
BLOCK
  5
20
330
1F
100
AcDbEntity
  8
0
100
AcDbBlockBegin
  2
*Model_Space
 70
     0
 71
     0
 10
0.0
 20
0.0
 30
0.0
  3
*Model_Space
  1

  0
ENDBLK
  5
21
330
1F
100
AcDbEntity
  8
0
100
AcDbBlockEnd
  0
BLOCK
  5
1C
330
1B
100
AcDbEntity
 67
     1
  8
0
100
AcDbBlockBegin
  2
*Paper_Space
 70
     0
 71
     0
 10
0.0
 20
0.0
 30
0.0
  3
*Paper_Space
  1

  0
ENDBLK
  5
1D
330
1B
100
AcDbEntity
 67
     1
  8
0
100
AcDbBlockEnd
  0
BLOCK
  5
24
330
23
100
AcDbEntity
  8
0
100
AcDbBlockBegin
  2
*Paper_Space0
 70
     0
 71
     0
 10
0.0
 20
0.0
 30
0.0
  3
*Paper_Space0
  1

  0
ENDBLK
  5
25
330
23
100
AcDbEntity
  8
0
100
AcDbBlockEnd
  0
BLOCK
  5
3B
330
3A
100
AcDbEntity
  8
0
100
AcDbBlockBegin
  2
SW_NOTE_0
 70
     0
 71
     0
 10
0.0
 20
0.0
 30
0.0
  3
SW_NOTE_0
  1

  0
LINE
  5
3D
330
3A
100
AcDbEntity
  8
注記
 62
     0
100
AcDbLine
 10
-0.0025174476
 20
-3.1778251737
 30
0.0
 11
39.6869021239
 21
-3.1778251737
 31
0.0
  0
LINE
  5
3E
330
3A
100
AcDbEntity
  8
注記
 62
     0
100
AcDbLine
 10
39.6869021239
 20
-3.1778251737
 30
0.0
 11
-0.0025174476
 21
-3.1778251737
 31
0.0
  0
LINE
  5
3F
330
3A
100
AcDbEntity
  8
注記
 62
     0
100
AcDbLine
 10
-0.0025174476
 20
-3.1778251737
 30
0.0
 11
39.6869021239
 21
-3.1778251737
 31
0.0
  0
LINE
  5
40
330
3A
100
AcDbEntity
  8
注記
 62
     0
100
AcDbLine
 10
39.6869021239
 20
-3.1778251737
 30
0.0
 11
-0.0025174476
 21
-3.1778251737
 31
0.0
  0
LINE
  5
41
330
3A
100
AcDbEntity
  8
注記
 62
     0
100
AcDbLine
 10
-0.0025174476
 20
-3.1778251737
 30
0.0
 11
39.6869021239
 21
-3.1778251737
 31
0.0
  0
LINE
  5
42
330
3A
100
AcDbEntity
  8
注記
 62
     0
100
AcDbLine
 10
39.6869021239
 20
-3.1778251737
 30
0.0
 11
-0.0025174476
 21
-3.1778251737
 31
0.0
  0
MTEXT
  5
44
330
3A
100
AcDbEntity
  8
注記
 62
     0
100
AcDbMText
 10
0.0
 20
2.7709090909
 30
0.0
 40
2.38125
 41
0.0
 71
     1
 72
     1
  1
回転方向銘板
  7
SLDTEXTSTYLE0
 73
     1
 44
1.0
  0
MTEXT
  5
46
330
3A
100
AcDbEntity
  8
注記
 62
     0
100
AcDbMText
 10
0.0
 20
-0.4040908707
 30
0.0
 40
2.38125
 41
0.0
 71
     1
 72
     1
  1
Turning direction plate　
  7
SLDTEXTSTYLE1
 73
     1
 44
1.0
  0
ENDBLK
  5
3C
330
3A
100
AcDbEntity
  8
0
100
AcDbBlockEnd
  0
BLOCK
  5
4E
330
4D
100
AcDbEntity
  8
0
100
AcDbBlockBegin
  2
_Dot
 70
     0
 71
     0
 10
0.0
 20
0.0
 30
0.0
  3
_Dot
  1

  0
LWPOLYLINE
  5
50
330
4D
100
AcDbEntity
  8
0
  6
ByBlock
 62
     0
100
AcDbPolyline
 90
        2
 70
     1
 43
0.5
 10
-0.25
 20
0.0
 42
1.0
 10
0.25
 20
0.0
 42
1.0
  0
LINE
  5
51
330
4D
100
AcDbEntity
  8
0
  6
ByBlock
 62
     0
370
    -2
100
AcDbLine
 10
-0.5
 20
0.0
 30
0.0
 11
-1.0
 21
0.0
 31
0.0
  0
ENDBLK
  5
4F
330
4D
100
AcDbEntity
  8
0
100
AcDbBlockEnd
  0
BLOCK
  5
103
330
102
100
AcDbEntity
  8
0
100
AcDbBlockBegin
  2
SW_NOTE_1
 70
     0
 71
     0
 10
0.0
 20
0.0
 30
0.0
  3
SW_NOTE_1
  1

  0
LINE
  5
105
330
102
100
AcDbEntity
  8
注記
 62
     0
100
AcDbLine
 10
0.0
 20
0.0
 30
0.0
 11
6.3515597923
 21
0.0
 31
0.0
  0
LINE
  5
106
330
102
100
AcDbEntity
  8
注記
 62
     0
100
AcDbLine
 10
6.3515597923
 20
0.0
 30
0.0
 11
0.0
 21
0.0
 31
0.0
  0
LINE
  5
107
330
102
100
AcDbEntity
  8
注記
 62
     0
100
AcDbLine
 10
0.0
 20
0.0
 30
0.0
 11
6.3515597923
 21
0.0
 31
0.0
  0
LINE
  5
108
330
102
100
AcDbEntity
  8
注記
 62
     0
100
AcDbLine
 10
6.3515597923
 20
0.0
 30
0.0
 11
0.0
 21
0.0
 31
0.0
  0
LINE
  5
109
330
102
100
AcDbEntity
  8
注記
 62
     0
100
AcDbLine
 10
0.0
 20
0.0
 30
0.0
 11
6.3515597923
 21
0.0
 31
0.0
  0
LINE
  5
10A
330
102
100
AcDbEntity
  8
注記
 62
     0
100
AcDbLine
 10
6.3515597923
 20
0.0
 30
0.0
 11
0.0
 21
0.0
 31
0.0
  0
MTEXT
  5
10B
330
102
100
AcDbEntity
  8
注記
 62
     0
100
AcDbMText
 10
0.0023329226
 20
4.3596131014
 30
0.0
 40
2.38125
 41
0.0
 71
     1
 72
     1
  1
取手
  7
SLDTEXTSTYLE0
 73
     1
 44
1.0
  0
ENDBLK
  5
104
330
102
100
AcDbEntity
  8
0
100
AcDbBlockEnd
  0
BLOCK
  5
110
330
10F
100
AcDbEntity
  8
0
100
AcDbBlockBegin
  2
SW_NOTE_2
 70
     0
 71
     0
 10
0.0
 20
0.0
 30
0.0
  3
SW_NOTE_2
  1

  0
LINE
  5
112
330
10F
100
AcDbEntity
  8
注記
 62
     0
100
AcDbLine
 10
0.0
 20
0.0
 30
0.0
 11
9.5230692538
 21
0.0
 31
0.0
  0
LINE
  5
113
330
10F
100
AcDbEntity
  8
注記
 62
     0
100
AcDbLine
 10
9.5230692538
 20
0.0
 30
0.0
 11
0.0
 21
0.0
 31
0.0
  0
LINE
  5
114
330
10F
100
AcDbEntity
  8
注記
 62
     0
100
AcDbLine
 10
0.0
 20
0.0
 30
0.0
 11
9.5230692538
 21
0.0
 31
0.0
  0
LINE
  5
115
330
10F
100
AcDbEntity
  8
注記
 62
     0
100
AcDbLine
 10
9.5230692538
 20
0.0
 30
0.0
 11
0.0
 21
0.0
 31
0.0
  0
LINE
  5
116
330
10F
100
AcDbEntity
  8
注記
 62
     0
100
AcDbLine
 10
0.0
 20
0.0
 30
0.0
 11
9.5230692538
 21
0.0
 31
0.0
  0
LINE
  5
117
330
10F
100
AcDbEntity
  8
注記
 62
     0
100
AcDbLine
 10
9.5230692538
 20
0.0
 30
0.0
 11
0.0
 21
0.0
 31
0.0
  0
MTEXT
  5
118
330
10F
100
AcDbEntity
  8
注記
 62
     0
100
AcDbMText
 10
0.0000131804
 20
5.9486237315
 30
0.0
 40
2.38125
 41
0.0
 71
     1
 72
     1
  1
電動機
  7
SLDTEXTSTYLE0
 73
     1
 44
1.0
  0
MTEXT
  5
119
330
10F
100
AcDbEntity
  8
注記
 62
     0
100
AcDbMText
 10
0.0000131804
 20
2.7736237699
 30
0.0
 40
2.38125
 41
0.0
 71
     1
 72
     1
  1
Motor
  7
SLDTEXTSTYLE0
 73
     1
 44
1.0
  0
ENDBLK
  5
111
330
10F
100
AcDbEntity
  8
0
100
AcDbBlockEnd
  0
BLOCK
  5
11D
330
11C
100
AcDbEntity
  8
0
100
AcDbBlockBegin
  2
SW_NOTE_3
 70
     0
 71
     0
 10
0.0
 20
0.0
 30
0.0
  3
SW_NOTE_3
  1

  0
LINE
  5
11F
330
11C
100
AcDbEntity
  8
注記
 62
     0
100
AcDbLine
 10
0.0
 20
0.0
 30
0.0
 11
31.7492580921
 21
0.0
 31
0.0
  0
LINE
  5
120
330
11C
100
AcDbEntity
  8
注記
 62
     0
100
AcDbLine
 10
31.7492580921
 20
0.0
 30
0.0
 11
0.0
 21
0.0
 31
0.0
  0
LINE
  5
121
330
11C
100
AcDbEntity
  8
注記
 62
     0
100
AcDbLine
 10
0.0
 20
0.0
 30
0.0
 11
31.7492580921
 21
0.0
 31
0.0
  0
LINE
  5
122
330
11C
100
AcDbEntity
  8
注記
 62
     0
100
AcDbLine
 10
31.7492580921
 20
0.0
 30
0.0
 11
0.0
 21
0.0
 31
0.0
  0
LINE
  5
123
330
11C
100
AcDbEntity
  8
注記
 62
     0
100
AcDbLine
 10
0.0
 20
0.0
 30
0.0
 11
31.7492580921
 21
0.0
 31
0.0
  0
LINE
  5
124
330
11C
100
AcDbEntity
  8
注記
 62
     0
100
AcDbLine
 10
31.7492580921
 20
0.0
 30
0.0
 11
0.0
 21
0.0
 31
0.0
  0
MTEXT
  5
125
330
11C
100
AcDbEntity
  8
注記
 62
     0
100
AcDbMText
 10
0.0013839372
 20
5.9471526012
 30
0.0
 40
2.38125
 41
0.0
 71
     1
 72
     1
  1
電動機端子箱
  7
SLDTEXTSTYLE0
 73
     1
 44
1.0
  0
MTEXT
  5
127
330
11C
100
AcDbEntity
  8
注記
 62
     0
100
AcDbMText
 10
0.0013839372
 20
2.7721526396
 30
0.0
 40
2.38125
 41
0.0
 71
     1
 72
     1
  1
Motor terminal box　
  7
SLDTEXTSTYLE3
 73
     1
 44
1.0
  0
ENDBLK
  5
11E
330
11C
100
AcDbEntity
  8
0
100
AcDbBlockEnd
  0
BLOCK
  5
12C
330
12B
100
AcDbEntity
  8
0
100
AcDbBlockBegin
  2
SW_NOTE_4
 70
     0
 71
     0
 10
0.0
 20
0.0
 30
0.0
  3
SW_NOTE_4
  1

  0
LINE
  5
12E
330
12B
100
AcDbEntity
  8
注記
 62
     0
100
AcDbLine
 10
0.0
 20
0.0
 30
0.0
 11
19.0518324204
 21
0.0
 31
0.0
  0
LINE
  5
12F
330
12B
100
AcDbEntity
  8
注記
 62
     0
100
AcDbLine
 10
19.0518324204
 20
0.0
 30
0.0
 11
0.0
 21
0.0
 31
0.0
  0
LINE
  5
130
330
12B
100
AcDbEntity
  8
注記
 62
     0
100
AcDbLine
 10
0.0
 20
0.0
 30
0.0
 11
19.0518324204
 21
0.0
 31
0.0
  0
LINE
  5
131
330
12B
100
AcDbEntity
  8
注記
 62
     0
100
AcDbLine
 10
19.0518324204
 20
0.0
 30
0.0
 11
0.0
 21
0.0
 31
0.0
  0
LINE
  5
132
330
12B
100
AcDbEntity
  8
注記
 62
     0
100
AcDbLine
 10
0.0
 20
0.0
 30
0.0
 11
19.0518324204
 21
0.0
 31
0.0
  0
LINE
  5
133
330
12B
100
AcDbEntity
  8
注記
 62
     0
100
AcDbLine
 10
19.0518324204
 20
0.0
 30
0.0
 11
0.0
 21
0.0
 31
0.0
  0
MTEXT
  5
134
330
12B
100
AcDbEntity
  8
注記
 62
     0
100
AcDbMText
 10
0.0023329226
 20
5.9468362727
 30
0.0
 40
2.38125
 41
0.0
 71
     1
 72
     1
  1
時間計
  7
SLDTEXTSTYLE0
 73
     1
 44
1.0
  0
MTEXT
  5
135
330
12B
100
AcDbEntity
  8
注記
 62
     0
100
AcDbMText
 10
0.0023329226
 20
2.7718363111
 30
0.0
 40
2.38125
 41
0.0
 71
     1
 72
     1
  1
Hour meter　
  7
SLDTEXTSTYLE0
 73
     1
 44
1.0
  0
ENDBLK
  5
12D
330
12B
100
AcDbEntity
  8
0
100
AcDbBlockEnd
  0
BLOCK
  5
139
330
138
100
AcDbEntity
  8
0
100
AcDbBlockBegin
  2
SW_NOTE_5
 70
     0
 71
     0
 10
0.0
 20
0.0
 30
0.0
  3
SW_NOTE_5
  1

  0
LINE
  5
13B
330
138
100
AcDbEntity
  8
注記
 62
     0
100
AcDbLine
 10
0.0
 20
0.0
 30
0.0
 11
33.3378597792
 21
0.0
 31
0.0
  0
LINE
  5
13C
330
138
100
AcDbEntity
  8
注記
 62
     0
100
AcDbLine
 10
33.3378597792
 20
0.0
 30
0.0
 11
0.0
 21
0.0
 31
0.0
  0
LINE
  5
13D
330
138
100
AcDbEntity
  8
注記
 62
     0
100
AcDbLine
 10
0.0
 20
0.0
 30
0.0
 11
33.3378597792
 21
0.0
 31
0.0
  0
LINE
  5
13E
330
138
100
AcDbEntity
  8
注記
 62
     0
100
AcDbLine
 10
33.3378597792
 20
0.0
 30
0.0
 11
0.0
 21
0.0
 31
0.0
  0
LINE
  5
13F
330
138
100
AcDbEntity
  8
注記
 62
     0
100
AcDbLine
 10
0.0
 20
0.0
 30
0.0
 11
33.3378597792
 21
0.0
 31
0.0
  0
LINE
  5
140
330
138
100
AcDbEntity
  8
注記
 62
     0
100
AcDbLine
 10
33.3378597792
 20
0.0
 30
0.0
 11
0.0
 21
0.0
 31
0.0
  0
MTEXT
  5
141
330
138
100
AcDbEntity
  8
注記
 62
     0
100
AcDbMText
 10
0.0026492511
 20
5.9478337742
 30
0.0
 40
2.38125
 41
0.0
 71
     1
 72
     1
  1
 電源ｺｰﾄﾞ取入口
  7
SLDTEXTSTYLE0
 73
     1
 44
1.0
  0
MTEXT
  5
143
330
138
100
AcDbEntity
  8
注記
 62
     0
100
AcDbMText
 10
0.0026492511
 20
2.7728338125
 30
0.0
 40
2.38125
 41
0.0
 71
     1
 72
     1
  1
 Power cable access　
  7
SLDTEXTSTYLE4
 73
     1
 44
1.0
  0
ENDBLK
  5
13A
330
138
100
AcDbEntity
  8
0
100
AcDbBlockEnd
  0
BLOCK
  5
1D6
330
1D5
100
AcDbEntity
  8
0
100
AcDbBlockBegin
  2
SW_NOTE_6
 70
     0
 71
     0
 10
0.0
 20
0.0
 30
0.0
  3
SW_NOTE_6
  1

  0
LINE
  5
1D8
330
1D5
100
AcDbEntity
  8
注記
 62
     0
100
AcDbLine
 10
-0.0025174476
 20
-3.1778251737
 30
0.0
 11
39.6869021239
 21
-3.1778251737
 31
0.0
  0
LINE
  5
1D9
330
1D5
100
AcDbEntity
  8
注記
 62
     0
100
AcDbLine
 10
39.6869021239
 20
-3.1778251737
 30
0.0
 11
-0.0025174476
 21
-3.1778251737
 31
0.0
  0
LINE
  5
1DA
330
1D5
100
AcDbEntity
  8
注記
 62
     0
100
AcDbLine
 10
-0.0025174476
 20
-3.1778251737
 30
0.0
 11
39.6869021239
 21
-3.1778251737
 31
0.0
  0
LINE
  5
1DB
330
1D5
100
AcDbEntity
  8
注記
 62
     0
100
AcDbLine
 10
39.6869021239
 20
-3.1778251737
 30
0.0
 11
-0.0025174476
 21
-3.1778251737
 31
0.0
  0
LINE
  5
1DC
330
1D5
100
AcDbEntity
  8
注記
 62
     0
100
AcDbLine
 10
-0.0025174476
 20
-3.1778251737
 30
0.0
 11
39.6869021239
 21
-3.1778251737
 31
0.0
  0
LINE
  5
1DD
330
1D5
100
AcDbEntity
  8
注記
 62
     0
100
AcDbLine
 10
39.6869021239
 20
-3.1778251737
 30
0.0
 11
-0.0025174476
 21
-3.1778251737
 31
0.0
  0
MTEXT
  5
1DE
330
1D5
100
AcDbEntity
  8
注記
 62
     0
100
AcDbMText
 10
0.0
 20
2.7709090909
 30
0.0
 40
2.38125
 41
0.0
 71
     1
 72
     1
  1
回転方向銘板
  7
SLDTEXTSTYLE0
 73
     1
 44
1.0
  0
MTEXT
  5
1DF
330
1D5
100
AcDbEntity
  8
注記
 62
     0
100
AcDbMText
 10
0.0
 20
-0.4040908707
 30
0.0
 40
2.38125
 41
0.0
 71
     1
 72
     1
  1
Turning direction plate　
  7
SLDTEXTSTYLE1
 73
     1
 44
1.0
  0
ENDBLK
  5
1D7
330
1D5
100
AcDbEntity
  8
0
100
AcDbBlockEnd
  0
BLOCK
  5
1E2
330
1E1
100
AcDbEntity
  8
0
100
AcDbBlockBegin
  2
SW_CENTERMARKSYMBOL_0
 70
     0
 71
     0
 10
0.0
 20
0.0
 30
0.0
  3
SW_CENTERMARKSYMBOL_0
  1

  0
LINE
  5
1E4
330
1E1
100
AcDbEntity
  8
中心線
 62
     0
100
AcDbLine
 10
0.0
 20
0.0
 30
0.0
 11
0.0
 21
0.3571428571
 31
0.0
  0
LINE
  5
1E5
330
1E1
100
AcDbEntity
  8
中心線
 62
     0
100
AcDbLine
 10
0.0
 20
0.0
 30
0.0
 11
-0.3571428571
 21
0.0
 31
0.0
  0
LINE
  5
1E6
330
1E1
100
AcDbEntity
  8
中心線
 62
     0
100
AcDbLine
 10
0.0
 20
0.0
 30
0.0
 11
0.0
 21
-0.3571428571
 31
0.0
  0
LINE
  5
1E7
330
1E1
100
AcDbEntity
  8
中心線
 62
     0
100
AcDbLine
 10
0.0
 20
0.0
 30
0.0
 11
0.3571428571
 21
0.0
 31
0.0
  0
LINE
  5
1E8
330
1E1
100
AcDbEntity
  8
中心線
 62
     0
100
AcDbLine
 10
0.0
 20
0.7142857143
 30
0.0
 11
0.0
 21
3.3571428571
 31
0.0
  0
LINE
  5
1E9
330
1E1
100
AcDbEntity
  8
中心線
 62
     0
100
AcDbLine
 10
-0.7142857143
 20
0.0
 30
0.0
 11
-3.3571428571
 21
0.0
 31
0.0
  0
LINE
  5
1EA
330
1E1
100
AcDbEntity
  8
中心線
 62
     0
100
AcDbLine
 10
0.0
 20
-0.7142857143
 30
0.0
 11
0.0
 21
-3.3571428571
 31
0.0
  0
LINE
  5
1EB
330
1E1
100
AcDbEntity
  8
中心線
 62
     0
100
AcDbLine
 10
0.7142857143
 20
0.0
 30
0.0
 11
3.3571428571
 21
0.0
 31
0.0
  0
ENDBLK
  5
1E3
330
1E1
100
AcDbEntity
  8
0
100
AcDbBlockEnd
  0
BLOCK
  5
39B
330
39A
100
AcDbEntity
  8
0
100
AcDbBlockBegin
  2
SW_CENTERMARKSYMBOL_1
 70
     0
 71
     0
 10
0.0
 20
0.0
 30
0.0
  3
SW_CENTERMARKSYMBOL_1
  1

  0
LINE
  5
39D
330
39A
100
AcDbEntity
  8
寸法線
 62
     0
100
AcDbLine
 10
0.0
 20
0.0
 30
0.0
 11
0.0
 21
0.3571428571
 31
0.0
  0
LINE
  5
39E
330
39A
100
AcDbEntity
  8
寸法線
 62
     0
100
AcDbLine
 10
0.0
 20
0.0
 30
0.0
 11
-0.3571428571
 21
0.0
 31
0.0
  0
LINE
  5
39F
330
39A
100
AcDbEntity
  8
寸法線
 62
     0
100
AcDbLine
 10
0.0
 20
0.0
 30
0.0
 11
0.0
 21
-0.3571428571
 31
0.0
  0
LINE
  5
3A0
330
39A
100
AcDbEntity
  8
寸法線
 62
     0
100
AcDbLine
 10
0.0
 20
0.0
 30
0.0
 11
0.3571428571
 21
0.0
 31
0.0
  0
LINE
  5
3A1
330
39A
100
AcDbEntity
  8
寸法線
 62
     0
100
AcDbLine
 10
0.0
 20
0.7142857143
 30
0.0
 11
0.0
 21
1.1428571429
 31
0.0
  0
LINE
  5
3A2
330
39A
100
AcDbEntity
  8
寸法線
 62
     0
100
AcDbLine
 10
-0.7142857143
 20
0.0
 30
0.0
 11
-1.1428571429
 21
0.0
 31
0.0
  0
LINE
  5
3A3
330
39A
100
AcDbEntity
  8
寸法線
 62
     0
100
AcDbLine
 10
0.0
 20
-0.7142857143
 30
0.0
 11
0.0
 21
-1.1428571429
 31
0.0
  0
LINE
  5
3A4
330
39A
100
AcDbEntity
  8
寸法線
 62
     0
100
AcDbLine
 10
0.7142857143
 20
0.0
 30
0.0
 11
1.1428571429
 21
0.0
 31
0.0
  0
ENDBLK
  5
39C
330
39A
100
AcDbEntity
  8
0
100
AcDbBlockEnd
  0
BLOCK
  5
3A7
330
3A6
100
AcDbEntity
  8
0
100
AcDbBlockBegin
  2
SW_CENTERMARKSYMBOL_2
 70
     0
 71
     0
 10
0.0
 20
0.0
 30
0.0
  3
SW_CENTERMARKSYMBOL_2
  1

  0
LINE
  5
3A9
330
3A6
100
AcDbEntity
  8
寸法線
 62
     0
100
AcDbLine
 10
0.0
 20
0.0
 30
0.0
 11
0.0
 21
0.3571428571
 31
0.0
  0
LINE
  5
3AA
330
3A6
100
AcDbEntity
  8
寸法線
 62
     0
100
AcDbLine
 10
0.0
 20
0.0
 30
0.0
 11
-0.3571428571
 21
0.0
 31
0.0
  0
LINE
  5
3AB
330
3A6
100
AcDbEntity
  8
寸法線
 62
     0
100
AcDbLine
 10
0.0
 20
0.0
 30
0.0
 11
0.0
 21
-0.3571428571
 31
0.0
  0
LINE
  5
3AC
330
3A6
100
AcDbEntity
  8
寸法線
 62
     0
100
AcDbLine
 10
0.0
 20
0.0
 30
0.0
 11
0.3571428571
 21
0.0
 31
0.0
  0
LINE
  5
3AD
330
3A6
100
AcDbEntity
  8
寸法線
 62
     0
100
AcDbLine
 10
0.0
 20
0.7142857143
 30
0.0
 11
0.0
 21
1.1428571429
 31
0.0
  0
LINE
  5
3AE
330
3A6
100
AcDbEntity
  8
寸法線
 62
     0
100
AcDbLine
 10
-0.7142857143
 20
0.0
 30
0.0
 11
-1.1428571429
 21
0.0
 31
0.0
  0
LINE
  5
3AF
330
3A6
100
AcDbEntity
  8
寸法線
 62
     0
100
AcDbLine
 10
0.0
 20
-0.7142857143
 30
0.0
 11
0.0
 21
-1.1428571429
 31
0.0
  0
LINE
  5
3B0
330
3A6
100
AcDbEntity
  8
寸法線
 62
     0
100
AcDbLine
 10
0.7142857143
 20
0.0
 30
0.0
 11
1.1428571429
 21
0.0
 31
0.0
  0
ENDBLK
  5
3A8
330
3A6
100
AcDbEntity
  8
0
100
AcDbBlockEnd
  0
BLOCK
  5
3B3
330
3B2
100
AcDbEntity
  8
0
100
AcDbBlockBegin
  2
SW_CENTERMARKSYMBOL_3
 70
     0
 71
     0
 10
0.0
 20
0.0
 30
0.0
  3
SW_CENTERMARKSYMBOL_3
  1

  0
LINE
  5
3B5
330
3B2
100
AcDbEntity
  8
寸法線
 62
     0
100
AcDbLine
 10
0.0
 20
0.0
 30
0.0
 11
0.0
 21
0.3571428571
 31
0.0
  0
LINE
  5
3B6
330
3B2
100
AcDbEntity
  8
寸法線
 62
     0
100
AcDbLine
 10
0.0
 20
0.0
 30
0.0
 11
-0.3571428571
 21
0.0
 31
0.0
  0
LINE
  5
3B7
330
3B2
100
AcDbEntity
  8
寸法線
 62
     0
100
AcDbLine
 10
0.0
 20
0.0
 30
0.0
 11
0.0
 21
-0.3571428571
 31
0.0
  0
LINE
  5
3B8
330
3B2
100
AcDbEntity
  8
寸法線
 62
     0
100
AcDbLine
 10
0.0
 20
0.0
 30
0.0
 11
0.3571428571
 21
0.0
 31
0.0
  0
LINE
  5
3B9
330
3B2
100
AcDbEntity
  8
寸法線
 62
     0
100
AcDbLine
 10
0.0
 20
0.7142857143
 30
0.0
 11
0.0
 21
1.1428571429
 31
0.0
  0
LINE
  5
3BA
330
3B2
100
AcDbEntity
  8
寸法線
 62
     0
100
AcDbLine
 10
-0.7142857143
 20
0.0
 30
0.0
 11
-1.1428571429
 21
0.0
 31
0.0
  0
LINE
  5
3BB
330
3B2
100
AcDbEntity
  8
寸法線
 62
     0
100
AcDbLine
 10
0.0
 20
-0.7142857143
 30
0.0
 11
0.0
 21
-1.1428571429
 31
0.0
  0
LINE
  5
3BC
330
3B2
100
AcDbEntity
  8
寸法線
 62
     0
100
AcDbLine
 10
0.7142857143
 20
0.0
 30
0.0
 11
1.1428571429
 21
0.0
 31
0.0
  0
ENDBLK
  5
3B4
330
3B2
100
AcDbEntity
  8
0
100
AcDbBlockEnd
  0
BLOCK
  5
3BF
330
3BE
100
AcDbEntity
  8
0
100
AcDbBlockBegin
  2
SW_CENTERMARKSYMBOL_4
 70
     0
 71
     0
 10
0.0
 20
0.0
 30
0.0
  3
SW_CENTERMARKSYMBOL_4
  1

  0
LINE
  5
3C1
330
3BE
100
AcDbEntity
  8
寸法線
 62
     0
100
AcDbLine
 10
0.0
 20
0.0
 30
0.0
 11
0.0
 21
0.3571428571
 31
0.0
  0
LINE
  5
3C2
330
3BE
100
AcDbEntity
  8
寸法線
 62
     0
100
AcDbLine
 10
0.0
 20
0.0
 30
0.0
 11
-0.3571428571
 21
0.0
 31
0.0
  0
LINE
  5
3C3
330
3BE
100
AcDbEntity
  8
寸法線
 62
     0
100
AcDbLine
 10
0.0
 20
0.0
 30
0.0
 11
0.0
 21
-0.3571428571
 31
0.0
  0
LINE
  5
3C4
330
3BE
100
AcDbEntity
  8
寸法線
 62
     0
100
AcDbLine
 10
0.0
 20
0.0
 30
0.0
 11
0.3571428571
 21
0.0
 31
0.0
  0
LINE
  5
3C5
330
3BE
100
AcDbEntity
  8
寸法線
 62
     0
100
AcDbLine
 10
0.0
 20
0.7142857143
 30
0.0
 11
0.0
 21
1.1428571429
 31
0.0
  0
LINE
  5
3C6
330
3BE
100
AcDbEntity
  8
寸法線
 62
     0
100
AcDbLine
 10
-0.7142857143
 20
0.0
 30
0.0
 11
-1.1428571429
 21
0.0
 31
0.0
  0
LINE
  5
3C7
330
3BE
100
AcDbEntity
  8
寸法線
 62
     0
100
AcDbLine
 10
0.0
 20
-0.7142857143
 30
0.0
 11
0.0
 21
-1.1428571429
 31
0.0
  0
LINE
  5
3C8
330
3BE
100
AcDbEntity
  8
寸法線
 62
     0
100
AcDbLine
 10
0.7142857143
 20
0.0
 30
0.0
 11
1.1428571429
 21
0.0
 31
0.0
  0
ENDBLK
  5
3C0
330
3BE
100
AcDbEntity
  8
0
100
AcDbBlockEnd
  0
BLOCK
  5
421
330
420
100
AcDbEntity
  8
0
100
AcDbBlockBegin
  2
SW_NOTE_7
 70
     0
 71
     0
 10
0.0
 20
0.0
 30
0.0
  3
SW_NOTE_7
  1

  0
LINE
  5
423
330
420
100
AcDbEntity
  8
注記
 62
     0
100
AcDbLine
 10
0.0
 20
0.0
 30
0.0
 11
9.5259162102
 21
0.0
 31
0.0
  0
LINE
  5
424
330
420
100
AcDbEntity
  8
注記
 62
     0
100
AcDbLine
 10
9.5259162102
 20
0.0
 30
0.0
 11
0.0
 21
0.0
 31
0.0
  0
LINE
  5
425
330
420
100
AcDbEntity
  8
注記
 62
     0
100
AcDbLine
 10
0.0
 20
0.0
 30
0.0
 11
9.5259162102
 21
0.0
 31
0.0
  0
LINE
  5
426
330
420
100
AcDbEntity
  8
注記
 62
     0
100
AcDbLine
 10
9.5259162102
 20
0.0
 30
0.0
 11
0.0
 21
0.0
 31
0.0
  0
LINE
  5
427
330
420
100
AcDbEntity
  8
注記
 62
     0
100
AcDbLine
 10
0.0
 20
0.0
 30
0.0
 11
9.5259162102
 21
0.0
 31
0.0
  0
LINE
  5
428
330
420
100
AcDbEntity
  8
注記
 62
     0
100
AcDbLine
 10
9.5259162102
 20
0.0
 30
0.0
 11
0.0
 21
0.0
 31
0.0
  0
MTEXT
  5
429
330
420
100
AcDbEntity
  8
注記
 62
     0
100
AcDbMText
 10
0.0028297075
 20
9.1219640355
 30
0.0
 40
2.38125
 41
0.0
 71
     1
 72
     1
  1
吸気口
  7
SLDTEXTSTYLE0
 73
     1
 44
1.0
  0
MTEXT
  5
42A
330
420
100
AcDbEntity
  8
注記
 62
     0
100
AcDbMText
 10
0.0028297075
 20
5.9469640739
 30
0.0
 40
2.38125
 41
0.0
 71
     1
 72
     1
  1
Inlet
  7
SLDTEXTSTYLE0
 73
     1
 44
1.0
  0
MTEXT
  5
42B
330
420
100
AcDbEntity
  8
注記
 62
     0
100
AcDbMText
 10
0.0028297075
 20
2.7719641123
 30
0.0
 40
2.38125
 41
0.0
 71
     1
 72
     1
  1
Nw25
  7
SLDTEXTSTYLE0
 73
     1
 44
1.0
  0
ENDBLK
  5
422
330
420
100
AcDbEntity
  8
0
100
AcDbBlockEnd
  0
BLOCK
  5
42F
330
42E
100
AcDbEntity
  8
0
100
AcDbBlockBegin
  2
SW_NOTE_8
 70
     0
 71
     0
 10
0.0
 20
0.0
 30
0.0
  3
SW_NOTE_8
  1

  0
LINE
  5
431
330
42E
100
AcDbEntity
  8
注記
 62
     0
100
AcDbLine
 10
0.0
 20
0.0
 30
0.0
 11
19.048985464
 21
0.0
 31
0.0
  0
LINE
  5
432
330
42E
100
AcDbEntity
  8
注記
 62
     0
100
AcDbLine
 10
19.048985464
 20
0.0
 30
0.0
 11
0.0
 21
0.0
 31
0.0
  0
LINE
  5
433
330
42E
100
AcDbEntity
  8
注記
 62
     0
100
AcDbLine
 10
0.0
 20
0.0
 30
0.0
 11
19.048985464
 21
0.0
 31
0.0
  0
LINE
  5
434
330
42E
100
AcDbEntity
  8
注記
 62
     0
100
AcDbLine
 10
19.048985464
 20
0.0
 30
0.0
 11
0.0
 21
0.0
 31
0.0
  0
LINE
  5
435
330
42E
100
AcDbEntity
  8
注記
 62
     0
100
AcDbLine
 10
0.0
 20
0.0
 30
0.0
 11
19.048985464
 21
0.0
 31
0.0
  0
LINE
  5
436
330
42E
100
AcDbEntity
  8
注記
 62
     0
100
AcDbLine
 10
19.048985464
 20
0.0
 30
0.0
 11
0.0
 21
0.0
 31
0.0
  0
MTEXT
  5
437
330
42E
100
AcDbEntity
  8
注記
 62
     0
100
AcDbMText
 10
0.0017643513
 20
5.9477852582
 30
0.0
 40
2.38125
 41
0.0
 71
     1
 72
     1
  1
ファンカバー
  7
SLDTEXTSTYLE0
 73
     1
 44
1.0
  0
MTEXT
  5
438
330
42E
100
AcDbEntity
  8
注記
 62
     0
100
AcDbMText
 10
0.0017643513
 20
2.7727852966
 30
0.0
 40
2.38125
 41
0.0
 71
     1
 72
     1
  1
Fan cover
  7
SLDTEXTSTYLE0
 73
     1
 44
1.0
  0
ENDBLK
  5
430
330
42E
100
AcDbEntity
  8
0
100
AcDbBlockEnd
  0
BLOCK
  5
43C
330
43B
100
AcDbEntity
  8
0
100
AcDbBlockBegin
  2
SW_NOTE_9
 70
     0
 71
     0
 10
0.0
 20
0.0
 30
0.0
  3
SW_NOTE_9
  1

  0
LINE
  5
43E
330
43B
100
AcDbEntity
  8
注記
 62
     0
100
AcDbLine
 10
0.0
 20
0.0
 30
0.0
 11
30.1635033613
 21
0.0
 31
0.0
  0
LINE
  5
43F
330
43B
100
AcDbEntity
  8
注記
 62
     0
100
AcDbLine
 10
30.1635033613
 20
0.0
 30
0.0
 11
0.0
 21
0.0
 31
0.0
  0
LINE
  5
440
330
43B
100
AcDbEntity
  8
注記
 62
     0
100
AcDbLine
 10
0.0
 20
0.0
 30
0.0
 11
30.1635033613
 21
0.0
 31
0.0
  0
LINE
  5
441
330
43B
100
AcDbEntity
  8
注記
 62
     0
100
AcDbLine
 10
30.1635033613
 20
0.0
 30
0.0
 11
0.0
 21
0.0
 31
0.0
  0
LINE
  5
442
330
43B
100
AcDbEntity
  8
注記
 62
     0
100
AcDbLine
 10
0.0
 20
0.0
 30
0.0
 11
30.1635033613
 21
0.0
 31
0.0
  0
LINE
  5
443
330
43B
100
AcDbEntity
  8
注記
 62
     0
100
AcDbLine
 10
30.1635033613
 20
0.0
 30
0.0
 11
0.0
 21
0.0
 31
0.0
  0
MTEXT
  5
445
330
43B
100
AcDbEntity
  8
注記
 62
     0
100
AcDbMText
 10
0.0023948388
 20
9.1212079656
 30
0.0
 40
2.38125
 41
0.0
 71
     1
 72
     1
  1
   エアーフアッシュ
  7
SLDTEXTSTYLE5
 73
     1
 44
1.0
  0
MTEXT
  5
447
330
43B
100
AcDbEntity
  8
注記
 62
     0
100
AcDbMText
 10
0.0023948388
 20
5.946208004
 30
0.0
 40
2.38125
 41
0.0
 71
     1
 72
     1
  1
   Air flush
  7
SLDTEXTSTYLE6
 73
     1
 44
1.0
  0
MTEXT
  5
449
330
43B
100
AcDbEntity
  8
注記
 62
     0
100
AcDbMText
 10
0.0023948388
 20
2.7712080423
 30
0.0
 40
2.38125
 41
0.0
 71
     1
 72
     1
  1
   RC1/8
  7
SLDTEXTSTYLE7
 73
     1
 44
1.0
  0
ENDBLK
  5
43D
330
43B
100
AcDbEntity
  8
0
100
AcDbBlockEnd
  0
BLOCK
  5
44D
330
44C
100
AcDbEntity
  8
0
100
AcDbBlockBegin
  2
SW_NOTE_10
 70
     0
 71
     0
 10
0.0
 20
0.0
 30
0.0
  3
SW_NOTE_10
  1

  0
LINE
  5
44F
330
44C
100
AcDbEntity
  8
注記
 62
     0
100
AcDbLine
 10
-11.1116709409
 20
0.0
 30
0.0
 11
0.0
 21
0.0
 31
0.0
  0
LINE
  5
450
330
44C
100
AcDbEntity
  8
注記
 62
     0
100
AcDbLine
 10
0.0
 20
0.0
 30
0.0
 11
-11.1116709409
 21
0.0
 31
0.0
  0
LINE
  5
451
330
44C
100
AcDbEntity
  8
注記
 62
     0
100
AcDbLine
 10
-11.1116709409
 20
0.0
 30
0.0
 11
0.0
 21
0.0
 31
0.0
  0
LINE
  5
452
330
44C
100
AcDbEntity
  8
注記
 62
     0
100
AcDbLine
 10
0.0
 20
0.0
 30
0.0
 11
-11.1116709409
 21
0.0
 31
0.0
  0
LINE
  5
453
330
44C
100
AcDbEntity
  8
注記
 62
     0
100
AcDbLine
 10
-11.1116709409
 20
0.0
 30
0.0
 11
0.0
 21
0.0
 31
0.0
  0
LINE
  5
454
330
44C
100
AcDbEntity
  8
注記
 62
     0
100
AcDbLine
 10
0.0
 20
0.0
 30
0.0
 11
-11.1116709409
 21
0.0
 31
0.0
  0
MTEXT
  5
455
330
44C
100
AcDbEntity
  8
注記
 62
     0
100
AcDbMText
 10
-11.1099191274
 20
9.1230852726
 30
0.0
 40
2.38125
 41
0.0
 71
     1
 72
     1
  1
排気口
  7
SLDTEXTSTYLE0
 73
     1
 44
1.0
  0
MTEXT
  5
456
330
44C
100
AcDbEntity
  8
注記
 62
     0
100
AcDbMText
 10
-11.1099191274
 20
5.948085311
 30
0.0
 40
2.38125
 41
0.0
 71
     1
 72
     1
  1
Outlett
  7
SLDTEXTSTYLE0
 73
     1
 44
1.0
  0
MTEXT
  5
457
330
44C
100
AcDbEntity
  8
注記
 62
     0
100
AcDbMText
 10
-11.1099191274
 20
2.7730853494
 30
0.0
 40
2.38125
 41
0.0
 71
     1
 72
     1
  1
NW16
  7
SLDTEXTSTYLE0
 73
     1
 44
1.0
  0
ENDBLK
  5
44E
330
44C
100
AcDbEntity
  8
0
100
AcDbBlockEnd
  0
BLOCK
  5
45B
330
45A
100
AcDbEntity
  8
0
100
AcDbBlockBegin
  2
SW_CENTERMARKSYMBOL_5
 70
     0
 71
     0
 10
0.0
 20
0.0
 30
0.0
  3
SW_CENTERMARKSYMBOL_5
  1

  0
LINE
  5
45D
330
45A
100
AcDbEntity
  8
中心線
 62
     0
100
AcDbLine
 10
0.0
 20
0.0
 30
0.0
 11
0.0
 21
0.3571428571
 31
0.0
  0
LINE
  5
45E
330
45A
100
AcDbEntity
  8
中心線
 62
     0
100
AcDbLine
 10
0.0
 20
0.0
 30
0.0
 11
-0.3571428571
 21
0.0
 31
0.0
  0
LINE
  5
45F
330
45A
100
AcDbEntity
  8
中心線
 62
     0
100
AcDbLine
 10
0.0
 20
0.0
 30
0.0
 11
0.0
 21
-0.3571428571
 31
0.0
  0
LINE
  5
460
330
45A
100
AcDbEntity
  8
中心線
 62
     0
100
AcDbLine
 10
0.0
 20
0.0
 30
0.0
 11
0.3571428571
 21
0.0
 31
0.0
  0
LINE
  5
461
330
45A
100
AcDbEntity
  8
中心線
 62
     0
100
AcDbLine
 10
0.0
 20
0.7142857143
 30
0.0
 11
0.0
 21
17.7857142857
 31
0.0
  0
LINE
  5
462
330
45A
100
AcDbEntity
  8
中心線
 62
     0
100
AcDbLine
 10
-0.7142857143
 20
0.0
 30
0.0
 11
-17.7857142857
 21
0.0
 31
0.0
  0
LINE
  5
463
330
45A
100
AcDbEntity
  8
中心線
 62
     0
100
AcDbLine
 10
0.0
 20
-0.7142857143
 30
0.0
 11
0.0
 21
-17.7857142857
 31
0.0
  0
LINE
  5
464
330
45A
100
AcDbEntity
  8
中心線
 62
     0
100
AcDbLine
 10
0.7142857143
 20
0.0
 30
0.0
 11
17.7857142857
 21
0.0
 31
0.0
  0
ENDBLK
  5
45C
330
45A
100
AcDbEntity
  8
0
100
AcDbBlockEnd
  0
BLOCK
  5
467
330
466
100
AcDbEntity
  8
0
100
AcDbBlockBegin
  2
SW_CENTERMARKSYMBOL_6
 70
     0
 71
     0
 10
0.0
 20
0.0
 30
0.0
  3
SW_CENTERMARKSYMBOL_6
  1

  0
LINE
  5
469
330
466
100
AcDbEntity
  8
寸法線
 62
     0
100
AcDbLine
 10
0.0
 20
0.0
 30
0.0
 11
0.0
 21
0.3571428571
 31
0.0
  0
LINE
  5
46A
330
466
100
AcDbEntity
  8
寸法線
 62
     0
100
AcDbLine
 10
0.0
 20
0.0
 30
0.0
 11
-0.3571428571
 21
0.0
 31
0.0
  0
LINE
  5
46B
330
466
100
AcDbEntity
  8
寸法線
 62
     0
100
AcDbLine
 10
0.0
 20
0.0
 30
0.0
 11
0.0
 21
-0.3571428571
 31
0.0
  0
LINE
  5
46C
330
466
100
AcDbEntity
  8
寸法線
 62
     0
100
AcDbLine
 10
0.0
 20
0.0
 30
0.0
 11
0.3571428571
 21
0.0
 31
0.0
  0
LINE
  5
46D
330
466
100
AcDbEntity
  8
寸法線
 62
     0
100
AcDbLine
 10
0.0
 20
0.7142857143
 30
0.0
 11
0.0
 21
2.5
 31
0.0
  0
LINE
  5
46E
330
466
100
AcDbEntity
  8
寸法線
 62
     0
100
AcDbLine
 10
-0.7142857143
 20
0.0
 30
0.0
 11
-2.5
 21
0.0
 31
0.0
  0
LINE
  5
46F
330
466
100
AcDbEntity
  8
寸法線
 62
     0
100
AcDbLine
 10
0.0
 20
-0.7142857143
 30
0.0
 11
0.0
 21
-2.5
 31
0.0
  0
LINE
  5
470
330
466
100
AcDbEntity
  8
寸法線
 62
     0
100
AcDbLine
 10
0.7142857143
 20
0.0
 30
0.0
 11
2.5
 21
0.0
 31
0.0
  0
ENDBLK
  5
468
330
466
100
AcDbEntity
  8
0
100
AcDbBlockEnd
  0
ENDSEC
  0
SECTION
  2
ENTITIES
  0
LINE
  5
33
330
1F
100
AcDbEntity
  8
中心線
100
AcDbLine
 10
116.3541509529
 20
171.543711784
 30
0.0
 11
159.8619727045
 21
171.543711784
 31
0.0
  0
LINE
  5
34
330
1F
100
AcDbEntity
  8
ﾚｲﾔｰ0
100
AcDbLine
 10
276.0
 20
194.0
 30
0.0
 11
276.0
 21
201.5
 31
0.0
  0
LINE
  5
35
330
1F
100
AcDbEntity
  8
ﾚｲﾔｰ0
100
AcDbLine
 10
21.0
 20
194.0
 30
0.0
 11
21.0
 21
201.5
 31
0.0
  0
LINE
  5
36
330
1F
100
AcDbEntity
  8
ﾚｲﾔｰ0
100
AcDbLine
 10
21.0
 20
16.0
 30
0.0
 11
21.0
 21
8.5
 31
0.0
  0
LINE
  5
37
330
1F
100
AcDbEntity
  8
ﾚｲﾔｰ0
100
AcDbLine
 10
276.0
 20
16.0
 30
0.0
 11
276.0
 21
8.5
 31
0.0
  0
LINE
  5
38
330
1F
100
AcDbEntity
  8
ﾚｲﾔｰ0
100
AcDbLine
 10
276.0
 20
201.5
 30
0.0
 11
21.0
 21
201.5
 31
0.0
  0
LINE
  5
39
330
1F
100
AcDbEntity
  8
ﾚｲﾔｰ0
100
AcDbLine
 10
21.0
 20
8.5
 30
0.0
 11
276.0
 21
8.5
 31
0.0
  0
INSERT
  5
47
330
1F
100
AcDbEntity
  8
注記
100
AcDbBlockReference
  2
SW_NOTE_0
 10
154.6521004633
 20
188.480839359
 30
0.0
  0
MTEXT
  5
49
330
1F
100
AcDbEntity
  8
ﾚｲﾔｰ0
100
AcDbMText
 10
264.6253068675
 20
14.4909243614
 30
0.0
 40
6.0
 41
0.0
 71
     1
 72
     1
  1
★
  7
SLDTEXTSTYLE2
 73
     1
 44
1.0
  0
MTEXT
  5
4A
330
1F
100
AcDbEntity
  8
ﾚｲﾔｰ0
100
AcDbMText
 10
256.3279517445
 20
14.4909243614
 30
0.0
 40
6.0
 41
0.0
 71
     1
 72
     1
  1
★
  7
SLDTEXTSTYLE2
 73
     1
 44
1.0
  0
MTEXT
  5
4B
330
1F
100
AcDbEntity
  8
ﾚｲﾔｰ0
100
AcDbMText
 10
248.0305966214
 20
14.4909243614
 30
0.0
 40
6.0
 41
0.0
 71
     1
 72
     1
  1
★
  7
SLDTEXTSTYLE2
 73
     1
 44
1.0
  0
MTEXT
  5
4C
330
1F
100
AcDbEntity
  8
ﾚｲﾔｰ0
100
AcDbMText
 10
239.2406102764
 20
14.4909243614
 30
0.0
 40
6.0
 41
0.0
 71
     1
 72
     1
  1
★
  7
SLDTEXTSTYLE2
 73
     1
 44
1.0
  0
INSERT
  5
52
330
1F
100
AcDbEntity
  8
注記
100
AcDbBlockReference
  2
_Dot
 10
124.2230129722
 20
179.6764792759
 30
13.219560649
 41
0.5
 42
0.5
 50
190.4768836567
  0
LINE
  5
53
330
1F
100
AcDbEntity
  8
注記
100
AcDbLine
 10
124.2230129722
 20
179.6764792759
 30
0.0
 11
154.6495830158
 21
185.3030141853
 31
0.0
  0
LINE
  5
54
330
1F
100
AcDbEntity
  8
0
  6
CENTERX2
 62
     7
370
     0
100
AcDbLine
 10
113.4970080958
 20
95.6732155907
 30
0.0
 11
113.4970080958
 21
97.6732155907
 31
0.0
  0
LINE
  5
55
330
1F
100
AcDbEntity
  8
中心線
100
AcDbLine
 10
92.9292945086
 20
112.0303584479
 30
0.0
 11
155.8423288169
 21
112.0303584479
 31
0.0
  0
LINE
  5
56
330
1F
100
AcDbEntity
  8
0
  6
Continuous
 62
     7
370
    15
100
AcDbLine
 10
109.0684366842
 20
129.4589300723
 30
0.0
 11
107.4970070569
 21
129.4589300723
 31
0.0
  0
LINE
  5
57
330
1F
100
AcDbEntity
  8
0
  6
Continuous
 62
     7
370
    15
100
AcDbLine
 10
107.4970070569
 20
127.3160728443
 30
0.0
 11
104.9255796606
 21
127.3160728443
 31
0.0
  0
LINE
  5
58
330
1F
100
AcDbEntity
  8
0
  6
Continuous
 62
     7
370
    15
100
AcDbLine
 10
104.9255796606
 20
96.7446440515
 30
0.0
 11
105.7541502138
 21
96.7446440515
 31
0.0
  0
LINE
  5
59
330
1F
100
AcDbEntity
  8
0
  6
Continuous
 62
     7
370
    15
100
AcDbLine
 10
120.4970078574
 20
127.3160728443
 30
0.0
 11
117.4970081639
 21
127.3160728443
 31
0.0
  0
LINE
  5
5A
330
1F
100
AcDbEntity
  8
0
  6
Continuous
 62
     7
370
    15
100
AcDbLine
 10
104.9255796606
 20
126.7446441792
 30
0.0
 11
99.6398653068
 21
126.7446441792
 31
0.0
  0
LINE
  5
5B
330
1F
100
AcDbEntity
  8
0
  6
Continuous
 62
     7
370
    15
100
AcDbLine
 10
99.6398653068
 20
97.3160727166
 30
0.0
 11
104.9255796606
 21
97.3160727166
 31
0.0
  0
LINE
  5
5C
330
1F
100
AcDbEntity
  8
0
  6
Continuous
 62
     7
370
    15
100
AcDbLine
 10
110.3541514468
 20
133.7446434639
 30
0.0
 11
111.2827215641
 21
133.495834518
 31
0.0
  0
LINE
  5
5D
330
1F
100
AcDbEntity
  8
0
  6
Continuous
 62
     7
370
    15
100
AcDbLine
 10
115.4255796521
 20
133.495834518
 30
0.0
 11
116.3541508337
 21
133.7446434639
 31
0.0
  0
LINE
  5
5E
330
1F
100
AcDbEntity
  8
0
  6
Continuous
 62
     7
370
    15
100
AcDbLine
 10
110.3541514468
 20
134.173215761
 30
0.0
 11
110.3541514468
 21
133.7446434639
 31
0.0
  0
LINE
  5
5F
330
1F
100
AcDbEntity
  8
0
  6
Continuous
 62
     7
370
    15
100
AcDbLine
 10
116.3541508337
 20
133.7446434639
 30
0.0
 11
116.3541508337
 21
134.173215761
 31
0.0
  0
LINE
  5
60
330
1F
100
AcDbEntity
  8
0
  6
Continuous
 62
     7
370
    15
100
AcDbLine
 10
103.4255798139
 20
89.4589288376
 30
0.0
 11
103.6361119341
 21
90.2446436513
 31
0.0
  0
LINE
  5
61
330
1F
100
AcDbEntity
  8
0
  6
Continuous
 62
     7
370
    15
100
AcDbLine
 10
103.6361119341
 20
92.9589306087
 30
0.0
 11
103.4255798139
 21
93.7446432936
 31
0.0
  0
LINE
  5
62
330
1F
100
AcDbEntity
  8
0
  6
Continuous
 62
     7
370
    15
100
AcDbLine
 10
102.9970075168
 20
89.4589288376
 30
0.0
 11
103.4255798139
 21
89.4589288376
 31
0.0
  0
LINE
  5
63
330
1F
100
AcDbEntity
  8
0
  6
Continuous
 62
     7
370
    15
100
AcDbLine
 10
103.4255798139
 20
93.7446432936
 30
0.0
 11
102.9970075168
 21
93.7446432936
 31
0.0
  0
LINE
  5
64
330
1F
100
AcDbEntity
  8
0
  6
Continuous
 62
     7
370
    15
100
AcDbLine
 10
111.2827215641
 20
133.495834518
 30
0.0
 11
111.2827215641
 21
131.1732160676
 31
0.0
  0
LINE
  5
65
330
1F
100
AcDbEntity
  8
0
  6
Continuous
 62
     7
370
    15
100
AcDbLine
 10
115.4255796521
 20
131.1732160676
 30
0.0
 11
115.4255796521
 21
133.495834518
 31
0.0
  0
LINE
  5
66
330
1F
100
AcDbEntity
  8
0
  6
Continuous
 62
     7
370
    15
100
AcDbLine
 10
105.7541502138
 20
92.9589306087
 30
0.0
 11
103.6361119341
 21
92.9589306087
 31
0.0
  0
LINE
  5
67
330
1F
100
AcDbEntity
  8
0
  6
Continuous
 62
     7
370
    15
100
AcDbLine
 10
103.6361119341
 20
90.2446436513
 30
0.0
 11
105.7541502138
 21
90.2446436513
 31
0.0
  0
LINE
  5
68
330
1F
100
AcDbEntity
  8
0
  6
Continuous
 62
     7
370
    15
100
AcDbLine
 10
128.5083806173
 20
100.5269131972
 30
0.0
 11
129.4970080686
 21
101.6732158888
 31
0.0
  0
LINE
  5
69
330
1F
100
AcDbEntity
  8
0
  6
Continuous
 62
     7
370
    15
100
AcDbLine
 10
129.4970080686
 20
122.387501007
 30
0.0
 11
126.4784366721
 21
125.8875017137
 31
0.0
  0
LINE
  5
6A
330
1F
100
AcDbEntity
  8
0
  6
Continuous
 62
     7
370
    15
100
AcDbLine
 10
126.4784366721
 20
125.8875017137
 30
0.0
 11
125.9898651156
 21
125.8875017137
 31
0.0
  0
LINE
  5
6B
330
1F
100
AcDbEntity
  8
0
  6
Continuous
 62
     7
370
    15
100
AcDbLine
 10
149.3541517193
 20
123.7067870214
 30
0.0
 11
130.0684366672
 21
123.7067870214
 31
0.0
  0
LINE
  5
6C
330
1F
100
AcDbEntity
  8
0
  6
Continuous
 62
     7
370
    15
100
AcDbLine
 10
130.0684366672
 20
100.3539298744
 30
0.0
 11
149.3541517193
 21
100.3539298744
 31
0.0
  0
LWPOLYLINE
  5
6D
330
1F
100
AcDbEntity
  8
0
  6
Continuous
 62
     7
370
    15
100
AcDbPolyline
 90
        8
 70
   128
 43
0.0
 10
152.4970088451
 20
121.9518581089
 10
152.2056783713
 20
122.1335628685
 10
151.8503729551
 20
122.3024558226
 10
151.3671197826
 20
122.44572623
 10
150.9965768647
 20
122.5129762348
 10
150.5462935757
 20
122.5642585811
 10
150.0031824387
 20
122.5969496
 10
149.3541517193
 20
122.6084298803
  0
LWPOLYLINE
  5
6E
330
1F
100
AcDbEntity
  8
0
  6
Continuous
 62
     7
370
    15
100
AcDbPolyline
 90
        8
 70
   128
 43
0.0
 10
149.3541517193
 20
101.4522870154
 10
150.1612582142
 20
101.4706888851
 10
150.8025743896
 20
101.5222937351
 10
151.3050883773
 20
101.6016935081
 10
151.6957925663
 20
101.703485469
 10
152.0145837514
 20
101.8282528917
 10
152.2713116002
 20
101.9654489471
 10
152.4970088451
 20
102.1088587868
  0
LINE
  5
6F
330
1F
100
AcDbEntity
  8
0
  6
Continuous
 62
     7
370
    15
100
AcDbLine
 10
130.0684366672
 20
122.387501007
 30
0.0
 11
129.4970080686
 21
122.387501007
 31
0.0
  0
LINE
  5
70
330
1F
100
AcDbEntity
  8
0
  6
Continuous
 62
     7
370
    15
100
AcDbLine
 10
129.4970080686
 20
101.6732158888
 30
0.0
 11
130.0684366672
 21
101.6732158888
 31
0.0
  0
SPLINE
  5
71
330
1F
100
AcDbEntity
  8
0
  6
Continuous
 62
     7
370
    15
100
AcDbSpline
210
0.0
220
0.0
230
1.0
 70
     8
 71
     3
 72
     9
 73
     5
 74
     0
 42
0.00000001
 43
0.00000001
 40
0.0
 40
0.0
 40
0.0
 40
0.0
 40
0.4999999489410422
 40
1.0
 40
1.0
 40
1.0
 40
1.0
 10
143.0071606996723
 20
106.7446440940481
 30
0.0
 10
142.9693274482416
 20
106.7485448291763
 30
0.0
 10
142.8936609376535
 20
106.7563463002292
 30
0.0
 10
142.8346401091185
 20
106.804334065739
 30
0.0
 10
142.8051296918375
 20
106.8283279509441
 30
0.0
  0
LINE
  5
72
330
1F
100
AcDbEntity
  8
0
  6
Continuous
 62
     7
370
    15
100
AcDbLine
 10
141.7235491296
 20
107.9099090454
 30
0.0
 11
142.8051296918
 21
106.8283279509
 31
0.0
  0
SPLINE
  5
73
330
1F
100
AcDbEntity
  8
0
  6
Continuous
 62
     7
370
    15
100
AcDbSpline
210
0.0
220
0.0
230
1.0
 70
     8
 71
     3
 72
     9
 73
     5
 74
     0
 42
0.00000001
 43
0.00000001
 40
0.0
 40
0.0
 40
0.0
 40
0.0
 40
0.500001036034645
 40
1.0
 40
1.0
 40
1.0
 40
1.0
 10
141.7235491295865
 20
107.9099090453794
 30
0.0
 10
141.6995549788325
 20
107.9394193353318
 30
0.0
 10
141.6515667767593
 20
107.9984397929423
 30
0.0
 10
141.6437657686587
 20
108.0741063305961
 30
0.0
 10
141.6398652726905
 20
108.1119395210299
 30
0.0
  0
LINE
  5
74
330
1F
100
AcDbEntity
  8
0
  6
Continuous
 62
     7
370
    15
100
AcDbLine
 10
141.6398652727
 20
115.8059202085
 30
0.0
 11
141.6398652727
 21
108.111939521
 31
0.0
  0
SPLINE
  5
75
330
1F
100
AcDbEntity
  8
0
  6
Continuous
 62
     7
370
    15
100
AcDbSpline
210
0.0
220
0.0
230
1.0
 70
     8
 71
     3
 72
     9
 73
     5
 74
     0
 42
0.00000001
 43
0.00000001
 40
0.0
 40
0.0
 40
0.0
 40
0.0
 40
0.499998963965355
 40
1.0
 40
1.0
 40
1.0
 40
1.0
 10
141.6398652726905
 20
115.8059202084608
 30
0.0
 10
141.6437657686587
 20
115.8437533988946
 30
0.0
 10
141.6515667767593
 20
115.9194199365485
 30
0.0
 10
141.6995549788325
 20
115.9784403941589
 30
0.0
 10
141.7235491295865
 20
116.0079506841113
 30
0.0
  0
LINE
  5
76
330
1F
100
AcDbEntity
  8
0
  6
Continuous
 62
     7
370
    15
100
AcDbLine
 10
142.8051296918
 20
117.0895320446
 30
0.0
 11
141.7235491296
 21
116.0079506841
 31
0.0
  0
SPLINE
  5
77
330
1F
100
AcDbEntity
  8
0
  6
Continuous
 62
     7
370
    15
100
AcDbSpline
210
0.0
220
0.0
230
1.0
 70
     8
 71
     3
 72
     9
 73
     5
 74
     0
 42
0.00000001
 43
0.00000001
 40
0.0
 40
0.0
 40
0.0
 40
0.0
 40
0.5000002838868165
 40
1.0
 40
1.0
 40
1.0
 40
1.0
 10
142.8051296918375
 20
117.0895320446388
 30
0.0
 10
142.8346400999869
 20
117.1135259740642
 30
0.0
 10
142.8936608827753
 20
117.1615138056687
 30
0.0
 10
142.9693274416938
 20
117.1693148495996
 30
0.0
 10
143.0071606996723
 20
117.1732153693505
 30
0.0
  0
LINE
  5
78
330
1F
100
AcDbEntity
  8
0
  6
Continuous
 62
     7
370
    15
100
AcDbLine
 10
149.4154274228
 20
117.1732153694
 30
0.0
 11
143.0071606997
 21
117.1732153694
 31
0.0
  0
SPLINE
  5
79
330
1F
100
AcDbEntity
  8
0
  6
Continuous
 62
     7
370
    15
100
AcDbSpline
210
0.0
220
0.0
230
1.0
 70
     8
 71
     3
 72
     9
 73
     5
 74
     0
 42
0.00000001
 43
0.00000001
 40
0.0
 40
0.0
 40
0.0
 40
0.0
 40
0.5000017007506847
 40
1.0
 40
1.0
 40
1.0
 40
1.0
 10
149.4154274228283
 20
117.1732153693505
 30
0.0
 10
149.4532607136902
 20
117.1693149038655
 30
0.0
 10
149.5289270380349
 20
117.1615139994303
 30
0.0
 10
149.5879473237938
 20
117.1135259751588
 30
0.0
 10
149.6174573662944
 20
117.0895320446388
 30
0.0
  0
LINE
  5
7A
330
1F
100
AcDbEntity
  8
0
  6
Continuous
 62
     7
370
    15
100
AcDbLine
 10
150.6990389929
 20
116.0079506841
 30
0.0
 11
149.6174573663
 21
117.0895320446
 31
0.0
  0
SPLINE
  5
7B
330
1F
100
AcDbEntity
  8
0
  6
Continuous
 62
     7
370
    15
100
AcDbSpline
210
0.0
220
0.0
230
1.0
 70
     8
 71
     3
 72
     9
 73
     5
 74
     0
 42
0.00000001
 43
0.00000001
 40
0.0
 40
0.0
 40
0.0
 40
0.0
 40
0.5000015016767516
 40
1.0
 40
1.0
 40
1.0
 40
1.0
 10
150.6990389929141
 20
116.0079506841113
 30
0.0
 10
150.7230332321094
 20
115.9784404124217
 30
0.0
 10
150.7710215663742
 20
115.9194200463014
 30
0.0
 10
150.7788217202279
 20
115.8437534119898
 30
0.0
 10
150.7827217854414
 20
115.8059202084608
 30
0.0
  0
LINE
  5
7C
330
1F
100
AcDbEntity
  8
0
  6
Continuous
 62
     7
370
    15
100
AcDbLine
 10
150.7827217854
 20
108.111939521
 30
0.0
 11
150.7827217854
 21
115.8059202085
 31
0.0
  0
SPLINE
  5
7D
330
1F
100
AcDbEntity
  8
0
  6
Continuous
 62
     7
370
    15
100
AcDbSpline
210
0.0
220
0.0
230
1.0
 70
     8
 71
     3
 72
     9
 73
     5
 74
     0
 42
0.00000001
 43
0.00000001
 40
0.0
 40
0.0
 40
0.0
 40
0.0
 40
0.4999984983232484
 40
1.0
 40
1.0
 40
1.0
 40
1.0
 10
150.7827217854414
 20
108.1119395210299
 30
0.0
 10
150.7788217202279
 20
108.0741063175009
 30
0.0
 10
150.7710215663742
 20
107.9984396831894
 30
0.0
 10
150.7230332321094
 20
107.9394193170691
 30
0.0
 10
150.6990389929141
 20
107.9099090453794
 30
0.0
  0
LINE
  5
7E
330
1F
100
AcDbEntity
  8
0
  6
Continuous
 62
     7
370
    15
100
AcDbLine
 10
149.6174573663
 20
106.8283279509
 30
0.0
 11
150.6990389929
 21
107.9099090454
 31
0.0
  0
SPLINE
  5
7F
330
1F
100
AcDbEntity
  8
0
  6
Continuous
 62
     7
370
    15
100
AcDbSpline
210
0.0
220
0.0
230
1.0
 70
     8
 71
     3
 72
     9
 73
     5
 74
     0
 42
0.00000001
 43
0.00000001
 40
0.0
 40
0.0
 40
0.0
 40
0.0
 40
0.4999980664214566
 40
1.0
 40
1.0
 40
1.0
 40
1.0
 10
149.6174573662944
 20
106.8283279509441
 30
0.0
 10
149.5879473146623
 20
106.8043340646438
 30
0.0
 10
149.5289269831571
 20
106.7563461064663
 30
0.0
 10
149.4532607071423
 20
106.7485447749105
 30
0.0
 10
149.4154274228283
 20
106.7446440940481
 30
0.0
  0
LINE
  5
80
330
1F
100
AcDbEntity
  8
0
  6
Continuous
 62
     7
370
    15
100
AcDbLine
 10
143.0071606997
 20
106.744644094
 30
0.0
 11
149.4154274228
 21
106.744644094
 31
0.0
  0
LWPOLYLINE
  5
81
330
1F
100
AcDbEntity
  8
0
  6
Continuous
 62
     7
370
    15
100
AcDbPolyline
 90
        9
 70
   128
 43
0.0
 10
141.7235491296
 20
116.0079506841
 10
141.6644277082
 20
116.0670721055
 10
141.6075787139
 20
116.1239213659
 10
141.5551862311
 20
116.1763138487
 10
141.509262981
 20
116.2222363005
 10
141.4715758156
 20
116.2599239981
 10
141.4435712119
 20
116.2879286018
 10
141.4263263109
 20
116.3051735028
 10
141.42050315
 20
116.3109963976
  0
LINE
  5
82
330
1F
100
AcDbEntity
  8
0
  6
Continuous
 62
     7
370
    15
100
AcDbLine
 10
142.5020847766
 20
117.392577492
 30
0.0
 11
141.42050315
 21
116.3109963976
 31
0.0
  0
LWPOLYLINE
  5
83
330
1F
100
AcDbEntity
  8
0
  6
Continuous
 62
     7
370
    15
100
AcDbPolyline
 90
        9
 70
   128
 43
0.0
 10
142.5020847766
 20
117.392577492
 10
142.5079068732
 20
117.3867548633
 10
142.5251528385
 20
117.3695094301
 10
142.5531563779
 20
117.3415053586
 10
142.5908446077
 20
117.303817661
 10
142.6367667934
 20
117.2578949431
 10
142.6891592761
 20
117.2055024604
 10
142.7460093348
 20
117.1486529339
 10
142.8051296918
 20
117.0895320446
  0
LWPOLYLINE
  5
84
330
1F
100
AcDbEntity
  8
0
  6
Continuous
 62
     7
370
    15
100
AcDbPolyline
 90
        9
 70
   128
 43
0.0
 10
149.6174573663
 20
117.0895320446
 10
149.6765787877
 20
117.1486529339
 10
149.7334288464
 20
117.2055024604
 10
149.7858213291
 20
117.2578949431
 10
149.8317424505
 20
117.303817661
 10
149.8694317446
 20
117.3415053586
 10
149.897435284
 20
117.3695094301
 10
149.9146801849
 20
117.3867548633
 10
149.9205022815
 20
117.392577492
  0
LINE
  5
85
330
1F
100
AcDbEntity
  8
0
  6
Continuous
 62
     7
370
    15
100
AcDbLine
 10
151.0020839081
 20
116.3109963976
 30
0.0
 11
149.9205022815
 21
117.392577492
 31
0.0
  0
LWPOLYLINE
  5
86
330
1F
100
AcDbEntity
  8
0
  6
Continuous
 62
     7
370
    15
100
AcDbPolyline
 90
        9
 70
   128
 43
0.0
 10
151.0020839081
 20
116.3109963976
 10
150.9962618116
 20
116.3051735028
 10
150.9790169106
 20
116.2879286018
 10
150.9510112425
 20
116.2599239981
 10
150.9133240771
 20
116.2222363005
 10
150.867400827
 20
116.1763138487
 10
150.8150083443
 20
116.1239213659
 10
150.7581604143
 20
116.0670721055
 10
150.6990389929
 20
116.0079506841
  0
LWPOLYLINE
  5
87
330
1F
100
AcDbEntity
  8
0
  6
Continuous
 62
     7
370
    15
100
AcDbPolyline
 90
        9
 70
   128
 43
0.0
 10
141.42050315
 20
107.6068633319
 10
141.4263263109
 20
107.6126862267
 10
141.4435712119
 20
107.6299313938
 10
141.4715758156
 20
107.6579357314
 10
141.509262981
 20
107.695623429
 10
141.5551862311
 20
107.7415458808
 10
141.6075787139
 20
107.7939383636
 10
141.6644277082
 20
107.8507878901
 10
141.7235491296
 20
107.9099090454
  0
LWPOLYLINE
  5
88
330
1F
100
AcDbEntity
  8
0
  6
Continuous
 62
     7
370
    15
100
AcDbPolyline
 90
        9
 70
   128
 43
0.0
 10
142.8051296918
 20
106.8283279509
 10
142.7460093348
 20
106.7692065295
 10
142.6891592761
 20
106.7123575352
 10
142.6367667934
 20
106.6599645203
 10
142.5908446077
 20
106.6140423346
 10
142.5531563779
 20
106.576354637
 10
142.5251528385
 20
106.5483500333
 10
142.5079068732
 20
106.5311051323
 10
142.5020847766
 20
106.5252819714
  0
LINE
  5
89
330
1F
100
AcDbEntity
  8
0
  6
Continuous
 62
     7
370
    15
100
AcDbLine
 10
141.42050315
 20
107.6068633319
 30
0.0
 11
142.5020847766
 21
106.5252819714
 31
0.0
  0
LWPOLYLINE
  5
8A
330
1F
100
AcDbEntity
  8
0
  6
Continuous
 62
     7
370
    15
100
AcDbPolyline
 90
        9
 70
   128
 43
0.0
 10
149.9205022815
 20
106.5252819714
 10
149.9146801849
 20
106.5311051323
 10
149.897435284
 20
106.5483500333
 10
149.8694317446
 20
106.576354637
 10
149.8317424505
 20
106.6140423346
 10
149.7858213291
 20
106.6599645203
 10
149.7334288464
 20
106.7123575352
 10
149.6765787877
 20
106.7692065295
 10
149.6174573663
 20
106.8283279509
  0
LWPOLYLINE
  5
8B
330
1F
100
AcDbEntity
  8
0
  6
Continuous
 62
     7
370
    15
100
AcDbPolyline
 90
        9
 70
   128
 43
0.0
 10
150.6990389929
 20
107.9099090454
 10
150.7581604143
 20
107.8507878901
 10
150.8150083443
 20
107.7939383636
 10
150.867400827
 20
107.7415458808
 10
150.9133240771
 20
107.695623429
 10
150.9510112425
 20
107.6579357314
 10
150.9790169106
 20
107.6299313938
 10
150.9962618116
 20
107.6126862267
 10
151.0020839081
 20
107.6068633319
  0
LINE
  5
8C
330
1F
100
AcDbEntity
  8
0
  6
Continuous
 62
     7
370
    15
100
AcDbLine
 10
149.9205022815
 20
106.5252819714
 30
0.0
 11
151.0020839081
 21
107.6068633319
 31
0.0
  0
LINE
  5
8D
330
1F
100
AcDbEntity
  8
0
  6
Continuous
 62
     7
370
    15
100
AcDbLine
 10
143.0071606997
 20
117.1732153694
 30
0.0
 11
143.0071606997
 21
117.6017871343
 31
0.0
  0
LINE
  5
8E
330
1F
100
AcDbEntity
  8
0
  6
Continuous
 62
     7
370
    15
100
AcDbLine
 10
149.4154274228
 20
117.6017871343
 30
0.0
 11
143.0071606997
 21
117.6017871343
 31
0.0
  0
LINE
  5
8F
330
1F
100
AcDbEntity
  8
0
  6
Continuous
 62
     7
370
    15
100
AcDbLine
 10
149.4154274228
 20
117.6017871343
 30
0.0
 11
149.4154274228
 21
117.1732153694
 31
0.0
  0
LINE
  5
90
330
1F
100
AcDbEntity
  8
0
  6
Continuous
 62
     7
370
    15
100
AcDbLine
 10
143.0071606997
 20
106.3160728613
 30
0.0
 11
143.0071606997
 21
106.744644094
 31
0.0
  0
LINE
  5
91
330
1F
100
AcDbEntity
  8
0
  6
Continuous
 62
     7
370
    15
100
AcDbLine
 10
149.4154274228
 20
106.744644094
 30
0.0
 11
149.4154274228
 21
106.3160728613
 31
0.0
  0
LINE
  5
92
330
1F
100
AcDbEntity
  8
0
  6
Continuous
 62
     7
370
    15
100
AcDbLine
 10
143.0071606997
 20
106.3160728613
 30
0.0
 11
149.4154274228
 21
106.3160728613
 31
0.0
  0
LINE
  5
93
330
1F
100
AcDbEntity
  8
0
  6
Continuous
 62
     7
370
    15
100
AcDbLine
 10
150.7827217854
 20
115.8059202085
 30
0.0
 11
151.2112940825
 21
115.8059202085
 31
0.0
  0
LINE
  5
94
330
1F
100
AcDbEntity
  8
0
  6
Continuous
 62
     7
370
    15
100
AcDbLine
 10
151.2112940825
 20
108.111939521
 30
0.0
 11
151.2112940825
 21
115.8059202085
 31
0.0
  0
LINE
  5
95
330
1F
100
AcDbEntity
  8
0
  6
Continuous
 62
     7
370
    15
100
AcDbLine
 10
151.2112940825
 20
108.111939521
 30
0.0
 11
150.7827217854
 21
108.111939521
 31
0.0
  0
LINE
  5
96
330
1F
100
AcDbEntity
  8
0
  6
Continuous
 62
     7
370
    15
100
AcDbLine
 10
141.21129404
 20
115.8059202085
 30
0.0
 11
141.6398652727
 21
115.8059202085
 31
0.0
  0
LINE
  5
97
330
1F
100
AcDbEntity
  8
0
  6
Continuous
 62
     7
370
    15
100
AcDbLine
 10
141.6398652727
 20
108.111939521
 30
0.0
 11
141.21129404
 21
108.111939521
 31
0.0
  0
LINE
  5
98
330
1F
100
AcDbEntity
  8
0
  6
Continuous
 62
     7
370
    15
100
AcDbLine
 10
141.21129404
 20
115.8059202085
 30
0.0
 11
141.21129404
 21
108.111939521
 31
0.0
  0
ARC
  5
99
330
1F
100
AcDbEntity
  8
0
  6
Continuous
 62
     7
370
    15
100
AcDbCircle
 10
141.9255795243
 20
115.805920189
 30
0.0
 40
0.7142857142857224
100
AcDbArc
 50
135.0
 51
180.000000022
  0
ARC
  5
9A
330
1F
100
AcDbEntity
  8
0
  6
Continuous
 62
     7
370
    15
100
AcDbCircle
 10
150.4970080958
 20
115.805920189
 30
0.0
 40
0.7142857142857258
100
AcDbArc
 50
359.9999999882
 51
45.0000000228
  0
ARC
  5
9B
330
1F
100
AcDbEntity
  8
0
  6
Continuous
 62
     7
370
    15
100
AcDbCircle
 10
141.9255795243
 20
108.1119395639
 30
0.0
 40
0.7142857142857258
100
AcDbArc
 50
180.000000022
 51
224.9999999993
  0
ARC
  5
9C
330
1F
100
AcDbEntity
  8
0
  6
Continuous
 62
     7
370
    15
100
AcDbCircle
 10
150.4970080958
 20
108.1119395639
 30
0.0
 40
0.7142857142857224
100
AcDbArc
 50
315.000000011
 51
359.9999999882
  0
ARC
  5
9D
330
1F
100
AcDbEntity
  8
0
  6
Continuous
 62
     7
370
    15
100
AcDbCircle
 10
143.0071606403
 20
107.0303584479
 30
0.0
 40
0.7142857142857224
100
AcDbArc
 50
224.9999999993
 51
269.9999999765
  0
ARC
  5
9E
330
1F
100
AcDbEntity
  8
0
  6
Continuous
 62
     7
370
    15
100
AcDbCircle
 10
149.4154269798
 20
116.887501305
 30
0.0
 40
0.7142857142857258
100
AcDbArc
 50
45.0000000228
 51
90.0
  0
ARC
  5
9F
330
1F
100
AcDbEntity
  8
0
  6
Continuous
 62
     7
370
    15
100
AcDbCircle
 10
149.4154269798
 20
107.0303584479
 30
0.0
 40
0.7142857142857082
100
AcDbArc
 50
269.9999999765
 51
315.000000011
  0
ARC
  5
A0
330
1F
100
AcDbEntity
  8
0
  6
Continuous
 62
     7
370
    15
100
AcDbCircle
 10
143.0071606403
 20
116.887501305
 30
0.0
 40
0.7142857142857082
100
AcDbArc
 50
90.0000000103
 51
134.9999999875
  0
LINE
  5
A1
330
1F
100
AcDbEntity
  8
0
  6
Continuous
 62
     7
370
    15
100
AcDbLine
 10
151.7827216833
 20
118.8217797932
 30
0.0
 11
140.6398653749
 21
118.8217797932
 31
0.0
  0
ARC
  5
A2
330
1F
100
AcDbEntity
  8
0
  6
Continuous
 62
     7
370
    15
100
AcDbCircle
 10
151.8136202856
 20
118.1382451533
 30
0.0
 40
0.6842326560175098
100
AcDbArc
 50
2.8462722716
 51
92.5882450124
  0
LINE
  5
A3
330
1F
100
AcDbEntity
  8
0
  6
Continuous
 62
     7
370
    15
100
AcDbLine
 10
152.4970088451
 20
106.3398710801
 30
0.0
 11
152.4970088451
 21
118.172221679
 31
0.0
  0
ARC
  5
A4
330
1F
100
AcDbEntity
  8
0
  6
Continuous
 62
     7
370
    15
100
AcDbCircle
 10
151.813619543
 20
106.3738484224
 30
0.0
 40
0.6842334382360703
100
AcDbArc
 50
267.411820194
 51
357.153662522
  0
LINE
  5
A5
330
1F
100
AcDbEntity
  8
0
  6
Continuous
 62
     7
370
    15
100
AcDbLine
 10
140.6398653749
 20
105.690312966
 30
0.0
 11
151.7827216833
 21
105.690312966
 31
0.0
  0
ARC
  5
A6
330
1F
100
AcDbEntity
  8
0
  6
Continuous
 62
     7
370
    15
100
AcDbCircle
 10
140.6089685026
 20
106.3738483885
 30
0.0
 40
0.6842333596984495
100
AcDbArc
 50
182.8463349558
 51
272.5880973347
  0
LINE
  5
A7
330
1F
100
AcDbEntity
  8
0
  6
Continuous
 62
     7
370
    15
100
AcDbLine
 10
139.9255792774
 20
106.3398710801
 30
0.0
 11
139.9255792774
 21
118.172221679
 31
0.0
  0
ARC
  5
A8
330
1F
100
AcDbEntity
  8
0
  6
Continuous
 62
     7
370
    15
100
AcDbCircle
 10
140.60896776
 20
118.1382451873
 30
0.0
 40
0.6842325774771442
100
AcDbArc
 50
87.4118374587
 51
177.1537302508
  0
LINE
  5
A9
330
1F
100
AcDbEntity
  8
0
  6
Continuous
 62
     7
370
    15
100
AcDbLine
 10
152.4970088451
 20
106.0427546983
 30
0.0
 11
152.4970088451
 21
106.3398710801
 31
0.0
  0
ARC
  5
AA
330
1F
100
AcDbEntity
  8
0
  6
Continuous
 62
     7
370
    15
100
AcDbCircle
 10
151.813619757
 20
106.0767318053
 30
0.0
 40
0.6842332128088678
100
AcDbArc
 50
267.4118014023
 51
357.1536813138
  0
LINE
  5
AB
330
1F
100
AcDbEntity
  8
0
  6
Continuous
 62
     7
370
    15
100
AcDbLine
 10
151.7827216833
 20
105.3931965842
 30
0.0
 11
151.7827216833
 21
105.690312966
 31
0.0
  0
LINE
  5
AC
330
1F
100
AcDbEntity
  8
0
  6
Continuous
 62
     7
370
    15
100
AcDbLine
 10
140.6398653749
 20
105.3931965842
 30
0.0
 11
151.7827216833
 21
105.3931965842
 31
0.0
  0
LINE
  5
AD
330
1F
100
AcDbEntity
  8
0
  6
Continuous
 62
     7
370
    15
100
AcDbLine
 10
140.6398653749
 20
105.3931965842
 30
0.0
 11
140.6398653749
 21
105.690312966
 31
0.0
  0
ARC
  5
AE
330
1F
100
AcDbEntity
  8
0
  6
Continuous
 62
     7
370
    15
100
AcDbCircle
 10
140.6089682885
 20
106.0767317713
 30
0.0
 40
0.684233134270888
100
AcDbArc
 50
182.846316164
 51
272.5881161265
  0
LINE
  5
AF
330
1F
100
AcDbEntity
  8
0
  6
Continuous
 62
     7
370
    15
100
AcDbLine
 10
139.9255792774
 20
106.0427546983
 30
0.0
 11
139.9255792774
 21
106.3398710801
 31
0.0
  0
LINE
  5
B0
330
1F
100
AcDbEntity
  8
0
  6
Continuous
 62
     7
370
    15
100
AcDbLine
 10
112.3702295954
 20
96.6248525523
 30
0.0
 11
107.4970070569
 21
96.6248525523
 31
0.0
  0
LINE
  5
B1
330
1F
100
AcDbEntity
  8
0
  6
Continuous
 62
     7
370
    15
100
AcDbLine
 10
109.0684366842
 20
128.5444213294
 30
0.0
 11
117.4970081639
 21
128.5444213294
 31
0.0
  0
LINE
  5
B2
330
1F
100
AcDbEntity
  8
0
  6
Continuous
 62
     7
370
    15
100
AcDbLine
 10
117.4970081639
 20
96.8684535424
 30
0.0
 11
117.4970081639
 21
128.5444213294
 31
0.0
  0
LINE
  5
B3
330
1F
100
AcDbEntity
  8
0
  6
Continuous
 62
     7
370
    15
100
AcDbLine
 10
117.4025071283
 20
96.6248525523
 30
0.0
 11
114.6237864855
 21
96.6248525523
 31
0.0
  0
LINE
  5
B4
330
1F
100
AcDbEntity
  8
0
  6
Continuous
 62
     7
370
    15
100
AcDbLine
 10
107.4970070569
 20
96.6248525523
 30
0.0
 11
107.4970070569
 21
129.4589300723
 31
0.0
  0
LINE
  5
B5
330
1F
100
AcDbEntity
  8
0
  6
Continuous
 62
     7
370
    15
100
AcDbLine
 10
106.0684369908
 20
96.8050107842
 30
0.0
 11
105.7541502138
 21
96.8050107842
 31
0.0
  0
LINE
  5
B6
330
1F
100
AcDbEntity
  8
0
  6
Continuous
 62
     7
370
    15
100
AcDbLine
 10
107.4970070569
 20
98.6236740918
 30
0.0
 11
106.0684369908
 21
98.6236740918
 31
0.0
  0
LINE
  5
B7
330
1F
100
AcDbEntity
  8
0
  6
Continuous
 62
     7
370
    15
100
AcDbLine
 10
104.9255796606
 20
112.0303584479
 30
0.0
 11
104.9255796606
 21
127.3160728443
 31
0.0
  0
LINE
  5
B8
330
1F
100
AcDbEntity
  8
0
  6
Continuous
 62
     7
370
    15
100
AcDbLine
 10
104.9255796606
 20
96.7446440515
 30
0.0
 11
104.9255796606
 21
112.0303584479
 31
0.0
  0
LINE
  5
B9
330
1F
100
AcDbEntity
  8
0
  6
Continuous
 62
     7
370
    15
100
AcDbLine
 10
118.1779124672
 20
98.6236740918
 30
0.0
 11
117.4970081639
 21
98.6236740918
 31
0.0
  0
LINE
  5
BA
330
1F
100
AcDbEntity
  8
0
  6
Continuous
 62
     7
370
    15
100
AcDbLine
 10
120.4970078574
 20
127.3160728443
 30
0.0
 11
120.4970078574
 21
103.763137806
 31
0.0
  0
LINE
  5
BB
330
1F
100
AcDbEntity
  8
0
  6
Continuous
 62
     7
370
    15
100
AcDbLine
 10
99.6398653068
 20
112.0303584479
 30
0.0
 11
99.6398653068
 21
126.7446441792
 31
0.0
  0
LINE
  5
BC
330
1F
100
AcDbEntity
  8
0
  6
Continuous
 62
     7
370
    15
100
AcDbLine
 10
99.6398653068
 20
97.3160727166
 30
0.0
 11
99.6398653068
 21
112.0303584479
 31
0.0
  0
LINE
  5
BD
330
1F
100
AcDbEntity
  8
0
  6
Continuous
 62
     7
370
    15
100
AcDbLine
 10
114.0743583205
 20
95.6732154375
 30
0.0
 11
114.6517091328
 21
96.6732153353
 31
0.0
  0
LINE
  5
BE
330
1F
100
AcDbEntity
  8
0
  6
Continuous
 62
     7
370
    15
100
AcDbLine
 10
112.9196577603
 20
95.6732154375
 30
0.0
 11
114.0743583205
 21
95.6732154375
 31
0.0
  0
LINE
  5
BF
330
1F
100
AcDbEntity
  8
0
  6
Continuous
 62
     7
370
    15
100
AcDbLine
 10
112.3423080124
 20
96.6732153353
 30
0.0
 11
112.9196577603
 21
95.6732154375
 31
0.0
  0
LINE
  5
C0
330
1F
100
AcDbEntity
  8
0
  6
Continuous
 62
     7
370
    15
100
AcDbLine
 10
112.9196577603
 20
97.6732152331
 30
0.0
 11
112.3423080124
 21
96.6732153353
 31
0.0
  0
LINE
  5
C1
330
1F
100
AcDbEntity
  8
0
  6
Continuous
 62
     7
370
    15
100
AcDbLine
 10
114.0743583205
 20
97.6732152331
 30
0.0
 11
112.9196577603
 21
97.6732152331
 31
0.0
  0
LINE
  5
C2
330
1F
100
AcDbEntity
  8
0
  6
Continuous
 62
     7
370
    15
100
AcDbLine
 10
114.6517091328
 20
96.6732153353
 30
0.0
 11
114.0743583205
 21
97.6732152331
 31
0.0
  0
LINE
  5
C3
330
1F
100
AcDbEntity
  8
0
  6
Continuous
 62
     7
370
    15
100
AcDbLine
 10
106.0684369908
 20
94.0098350019
 30
0.0
 11
106.0684369908
 21
95.3477155367
 31
0.0
  0
LINE
  5
C4
330
1F
100
AcDbEntity
  8
0
  6
Continuous
 62
     7
370
    15
100
AcDbLine
 10
106.0684369908
 20
95.3477155367
 30
0.0
 11
116.9070669348
 21
95.3477155367
 31
0.0
  0
LINE
  5
C5
330
1F
100
AcDbEntity
  8
0
  6
Continuous
 62
     7
370
    15
100
AcDbLine
 10
106.0684369908
 20
94.0098350019
 30
0.0
 11
116.3880605547
 21
94.0098350019
 31
0.0
  0
LINE
  5
C6
330
1F
100
AcDbEntity
  8
0
  6
Continuous
 62
     7
370
    15
100
AcDbLine
 10
106.0684369908
 20
95.3477155367
 30
0.0
 11
106.0684369908
 21
98.6236740918
 31
0.0
  0
LINE
  5
C7
330
1F
100
AcDbEntity
  8
0
  6
Continuous
 62
     7
370
    15
100
AcDbLine
 10
109.0684366842
 20
131.1732160676
 30
0.0
 11
117.4970081639
 21
131.1732160676
 31
0.0
  0
LINE
  5
C8
330
1F
100
AcDbEntity
  8
0
  6
Continuous
 62
     7
370
    15
100
AcDbLine
 10
109.0684366842
 20
128.5444213294
 30
0.0
 11
109.0684366842
 21
131.1732160676
 31
0.0
  0
LINE
  5
C9
330
1F
100
AcDbEntity
  8
0
  6
Continuous
 62
     7
370
    15
100
AcDbLine
 10
117.4970081639
 20
128.5444213294
 30
0.0
 11
117.4970081639
 21
131.1732160676
 31
0.0
  0
LINE
  5
CA
330
1F
100
AcDbEntity
  8
0
  6
Continuous
 62
     7
370
    15
100
AcDbLine
 10
110.3541514468
 20
133.7446434639
 30
0.0
 11
116.3541508337
 21
133.7446434639
 31
0.0
  0
LINE
  5
CB
330
1F
100
AcDbEntity
  8
0
  6
Continuous
 62
     7
370
    15
100
AcDbLine
 10
111.2827215641
 20
133.495834518
 30
0.0
 11
115.4255796521
 21
133.495834518
 31
0.0
  0
LINE
  5
CC
330
1F
100
AcDbEntity
  8
0
  6
Continuous
 62
     7
370
    15
100
AcDbLine
 10
110.3541514468
 20
134.173215761
 30
0.0
 11
116.3541508337
 21
134.173215761
 31
0.0
  0
LINE
  5
CD
330
1F
100
AcDbEntity
  8
0
  6
Continuous
 62
     7
370
    15
100
AcDbLine
 10
103.6361119341
 20
91.6017860656
 30
0.0
 11
103.6361119341
 21
92.9589306087
 31
0.0
  0
LINE
  5
CE
330
1F
100
AcDbEntity
  8
0
  6
Continuous
 62
     7
370
    15
100
AcDbLine
 10
103.6361119341
 20
90.2446436513
 30
0.0
 11
103.6361119341
 21
91.6017860656
 31
0.0
  0
LINE
  5
CF
330
1F
100
AcDbEntity
  8
0
  6
Continuous
 62
     7
370
    15
100
AcDbLine
 10
103.4255798139
 20
91.6017860656
 30
0.0
 11
103.4255798139
 21
93.7446432936
 31
0.0
  0
LINE
  5
D0
330
1F
100
AcDbEntity
  8
0
  6
Continuous
 62
     7
370
    15
100
AcDbLine
 10
103.4255798139
 20
89.4589288376
 30
0.0
 11
103.4255798139
 21
91.6017860656
 31
0.0
  0
LINE
  5
D1
330
1F
100
AcDbEntity
  8
0
  6
Continuous
 62
     7
370
    15
100
AcDbLine
 10
102.9970075168
 20
91.6017860656
 30
0.0
 11
102.9970075168
 21
93.7446432936
 31
0.0
  0
LINE
  5
D2
330
1F
100
AcDbEntity
  8
0
  6
Continuous
 62
     7
370
    15
100
AcDbLine
 10
102.9970075168
 20
89.4589288376
 30
0.0
 11
102.9970075168
 21
91.6017860656
 31
0.0
  0
LINE
  5
D3
330
1F
100
AcDbEntity
  8
0
  6
Continuous
 62
     7
370
    15
100
AcDbLine
 10
108.4684371713
 20
90.2446436513
 30
0.0
 11
105.7541502138
 21
90.2446436513
 31
0.0
  0
LINE
  5
D4
330
1F
100
AcDbEntity
  8
0
  6
Continuous
 62
     7
370
    15
100
AcDbLine
 10
108.4684371713
 20
90.2446436513
 30
0.0
 11
108.4684371713
 21
94.0098350019
 31
0.0
  0
LINE
  5
D5
330
1F
100
AcDbEntity
  8
0
  6
Continuous
 62
     7
370
    15
100
AcDbLine
 10
105.7541502138
 20
90.2446436513
 30
0.0
 11
105.7541502138
 21
91.6017860656
 31
0.0
  0
LINE
  5
D6
330
1F
100
AcDbEntity
  8
0
  6
Continuous
 62
     7
370
    15
100
AcDbLine
 10
105.7541502138
 20
91.6017860656
 30
0.0
 11
105.7541502138
 21
96.8050107842
 31
0.0
  0
LINE
  5
D7
330
1F
100
AcDbEntity
  8
0
  6
Continuous
 62
     7
370
    15
100
AcDbLine
 10
121.6398651875
 20
104.6138711756
 30
0.0
 11
120.5016953369
 21
104.6138711756
 31
0.0
  0
LINE
  5
D8
330
1F
100
AcDbEntity
  8
0
  6
Continuous
 62
     7
370
    15
100
AcDbLine
 10
121.6398651875
 20
126.661161488
 30
0.0
 11
120.4970078574
 21
126.661161488
 31
0.0
  0
LINE
  5
D9
330
1F
100
AcDbEntity
  8
0
  6
Continuous
 62
     7
370
    15
100
AcDbLine
 10
121.6398651875
 20
104.6138711756
 30
0.0
 11
121.6398651875
 21
126.661161488
 31
0.0
  0
LINE
  5
DA
330
1F
100
AcDbEntity
  8
0
  6
Continuous
 62
     7
370
    15
100
AcDbLine
 10
126.4784366721
 20
103.1033803792
 30
0.0
 11
126.4784366721
 21
125.8875017137
 31
0.0
  0
LINE
  5
DB
330
1F
100
AcDbEntity
  8
0
  6
Continuous
 62
     7
370
    15
100
AcDbLine
 10
129.4970080686
 20
112.0303584479
 30
0.0
 11
129.4970080686
 21
122.387501007
 31
0.0
  0
LINE
  5
DC
330
1F
100
AcDbEntity
  8
0
  6
Continuous
 62
     7
370
    15
100
AcDbLine
 10
129.4970080686
 20
101.6732158888
 30
0.0
 11
129.4970080686
 21
112.0303584479
 31
0.0
  0
LINE
  5
DD
330
1F
100
AcDbEntity
  8
0
  6
Continuous
 62
     7
370
    15
100
AcDbLine
 10
123.5172795163
 20
106.8617720107
 30
0.0
 11
121.6398651875
 21
106.8617720107
 31
0.0
  0
LINE
  5
DE
330
1F
100
AcDbEntity
  8
0
  6
Continuous
 62
     7
370
    15
100
AcDbLine
 10
126.1035556537
 20
125.6601206376
 30
0.0
 11
121.6398651875
 21
125.6601206376
 31
0.0
  0
LINE
  5
DF
330
1F
100
AcDbEntity
  8
0
  6
Continuous
 62
     7
370
    15
100
AcDbLine
 10
129.7827223679
 20
93.0303582606
 30
0.0
 11
122.9255794179
 21
93.0303582606
 31
0.0
  0
LINE
  5
E0
330
1F
100
AcDbEntity
  8
0
  6
Continuous
 62
     7
370
    15
100
AcDbLine
 10
129.7827223679
 20
89.60178627
 30
0.0
 11
129.7827223679
 21
93.0303582606
 31
0.0
  0
LINE
  5
E1
330
1F
100
AcDbEntity
  8
0
  6
Continuous
 62
     7
370
    15
100
AcDbLine
 10
122.9255794179
 20
93.0303582606
 30
0.0
 11
122.9255794179
 21
89.60178627
 31
0.0
  0
LINE
  5
E2
330
1F
100
AcDbEntity
  8
0
  6
Continuous
 62
     7
370
    15
100
AcDbLine
 10
122.9255794179
 20
89.60178627
 30
0.0
 11
129.7827223679
 21
89.60178627
 31
0.0
  0
LINE
  5
E3
330
1F
100
AcDbEntity
  8
0
  6
Continuous
 62
     7
370
    15
100
AcDbLine
 10
138.3541507145
 20
88.0303587715
 30
0.0
 11
138.3541507145
 21
86.1732164082
 31
0.0
  0
LINE
  5
E4
330
1F
100
AcDbEntity
  8
0
  6
Continuous
 62
     7
370
    15
100
AcDbLine
 10
132.6398651279
 20
86.1732164082
 30
0.0
 11
132.6398651279
 21
86.3160717118
 31
0.0
  0
LINE
  5
E5
330
1F
100
AcDbEntity
  8
0
  6
Continuous
 62
     7
370
    15
100
AcDbLine
 10
132.6398651279
 20
86.3160717118
 30
0.0
 11
119.7827228243
 21
86.3160717118
 31
0.0
  0
LINE
  5
E6
330
1F
100
AcDbEntity
  8
0
  6
Continuous
 62
     7
370
    15
100
AcDbLine
 10
119.7827228243
 20
86.1732164082
 30
0.0
 11
119.7827228243
 21
86.3160717118
 31
0.0
  0
LINE
  5
E7
330
1F
100
AcDbEntity
  8
0
  6
Continuous
 62
     7
370
    15
100
AcDbLine
 10
119.7827228243
 20
86.1732164082
 30
0.0
 11
114.0684361733
 21
86.1732164082
 31
0.0
  0
LINE
  5
E8
330
1F
100
AcDbEntity
  8
0
  6
Continuous
 62
     7
370
    15
100
AcDbLine
 10
114.0684361733
 20
86.1732164082
 30
0.0
 11
114.0684361733
 21
88.0303587715
 31
0.0
  0
LINE
  5
E9
330
1F
100
AcDbEntity
  8
0
  6
Continuous
 62
     7
370
    15
100
AcDbLine
 10
123.5172795163
 20
106.8617720107
 30
0.0
 11
138.3541507145
 21
88.0303587715
 31
0.0
  0
LINE
  5
EA
330
1F
100
AcDbEntity
  8
0
  6
Continuous
 62
     7
370
    15
100
AcDbLine
 10
138.3541507145
 20
86.1732164082
 30
0.0
 11
132.6398651279
 21
86.1732164082
 31
0.0
  0
LINE
  5
EB
330
1F
100
AcDbEntity
  8
0
  6
Continuous
 62
     7
370
    15
100
AcDbLine
 10
114.0684361733
 20
88.0303587715
 30
0.0
 11
120.1716697406
 21
103.763137806
 31
0.0
  0
LINE
  5
EC
330
1F
100
AcDbEntity
  8
0
  6
Continuous
 62
     7
370
    15
100
AcDbLine
 10
120.4970078574
 20
104.601786866
 30
0.0
 11
120.5016953369
 21
104.6138711756
 31
0.0
  0
LINE
  5
ED
330
1F
100
AcDbEntity
  8
0
  6
Continuous
 62
     7
370
    15
100
AcDbLine
 10
130.0684366672
 20
116.4756582202
 30
0.0
 11
130.0684366672
 21
123.7067870214
 31
0.0
  0
LINE
  5
EE
330
1F
100
AcDbEntity
  8
0
  6
Continuous
 62
     7
370
    15
100
AcDbLine
 10
130.0684366672
 20
100.3539298744
 30
0.0
 11
130.0684366672
 21
107.5850586756
 31
0.0
  0
LINE
  5
EF
330
1F
100
AcDbEntity
  8
0
  6
Continuous
 62
     7
370
    15
100
AcDbLine
 10
130.0684366672
 20
107.5850586756
 30
0.0
 11
139.9255792774
 21
107.5850586756
 31
0.0
  0
LINE
  5
F0
330
1F
100
AcDbEntity
  8
0
  6
Continuous
 62
     7
370
    15
100
AcDbLine
 10
130.0684366672
 20
116.4756582202
 30
0.0
 11
139.9255792774
 21
116.4756582202
 31
0.0
  0
LINE
  5
F1
330
1F
100
AcDbEntity
  8
0
  6
Continuous
 62
     7
370
    15
100
AcDbLine
 10
149.3541517193
 20
105.3931965842
 30
0.0
 11
149.3541517193
 21
100.3539298744
 31
0.0
  0
LINE
  5
F2
330
1F
100
AcDbEntity
  8
0
  6
Continuous
 62
     7
370
    15
100
AcDbLine
 10
149.3541517193
 20
123.7067870214
 30
0.0
 11
149.3541517193
 21
118.8217797932
 31
0.0
  0
LINE
  5
F3
330
1F
100
AcDbEntity
  8
0
  6
Continuous
 62
     7
370
    15
100
AcDbLine
 10
130.0684366672
 20
116.4756582202
 30
0.0
 11
130.0684366672
 21
107.5850586756
 31
0.0
  0
LINE
  5
F4
330
1F
100
AcDbEntity
  8
0
  6
Continuous
 62
     7
370
    15
100
AcDbLine
 10
152.4970088451
 20
118.172221679
 30
0.0
 11
152.4970088451
 21
121.9518581089
 31
0.0
  0
LINE
  5
F5
330
1F
100
AcDbEntity
  8
0
  6
Continuous
 62
     7
370
    15
100
AcDbLine
 10
152.4970088451
 20
106.0427546983
 30
0.0
 11
152.4970088451
 21
102.1088587868
 31
0.0
  0
LINE
  5
F6
330
1F
100
AcDbEntity
  8
0
  6
Continuous
 62
     7
370
    15
100
AcDbLine
 10
120.4970078574
 20
126.8732156555
 30
0.0
 11
125.4970078786
 21
126.8732156555
 31
0.0
  0
LINE
  5
F7
330
1F
100
AcDbEntity
  8
0
  6
Continuous
 62
     7
370
    15
100
AcDbLine
 10
125.4970078786
 20
126.8732156555
 30
0.0
 11
126.1035556537
 21
125.6601206376
 31
0.0
  0
LINE
  5
F8
330
1F
100
AcDbEntity
  8
0
  6
Continuous
 62
     7
370
    15
100
AcDbLine
 10
125.4970078786
 20
127.3160728443
 30
0.0
 11
125.4970078786
 21
131.7446436683
 31
0.0
  0
LINE
  5
F9
330
1F
100
AcDbEntity
  8
0
  6
Continuous
 62
     7
370
    15
100
AcDbLine
 10
125.4970078786
 20
131.7446436683
 30
0.0
 11
140.9520532168
 21
131.7446436683
 31
0.0
  0
LINE
  5
FA
330
1F
100
AcDbEntity
  8
0
  6
Continuous
 62
     7
370
    15
100
AcDbLine
 10
140.9520532168
 20
131.7446436683
 30
0.0
 11
143.7827225007
 21
129.4589502953
 31
0.0
  0
LINE
  5
FB
330
1F
100
AcDbEntity
  8
0
  6
Continuous
 62
     7
370
    15
100
AcDbLine
 10
143.7827225007
 20
129.4589502953
 30
0.0
 11
143.2442360455
 21
128.7920722422
 31
0.0
  0
LINE
  5
FC
330
1F
100
AcDbEntity
  8
0
  6
Continuous
 62
     7
370
    15
100
AcDbLine
 10
143.2442360455
 20
128.7920722422
 30
0.0
 11
140.6491966949
 21
130.8875012028
 31
0.0
  0
LINE
  5
FD
330
1F
100
AcDbEntity
  8
0
  6
Continuous
 62
     7
370
    15
100
AcDbLine
 10
126.3541508763
 20
130.8875012028
 30
0.0
 11
126.3541508763
 21
126.4589303788
 31
0.0
  0
LINE
  5
FE
330
1F
100
AcDbEntity
  8
0
  6
Continuous
 62
     7
370
    15
100
AcDbLine
 10
126.3541508763
 20
126.4589303788
 30
0.0
 11
125.7041510491
 21
126.4589303788
 31
0.0
  0
LINE
  5
FF
330
1F
100
AcDbEntity
  8
0
  6
Continuous
 62
     7
370
    15
100
AcDbLine
 10
122.3541507528
 20
127.3160728443
 30
0.0
 11
125.4970078786
 21
127.3160728443
 31
0.0
  0
LINE
  5
100
330
1F
100
AcDbEntity
  8
0
  6
Continuous
 62
     7
370
    15
100
AcDbLine
 10
140.6491966949
 20
130.8875012028
 30
0.0
 11
126.3541508763
 21
130.8875012028
 31
0.0
  0
LINE
  5
101
330
1F
100
AcDbEntity
  8
0
  6
Continuous
 62
     7
370
    15
100
AcDbLine
 10
122.3541507528
 20
126.8732156555
 30
0.0
 11
122.3541507528
 21
127.3160728443
 31
0.0
  0
INSERT
  5
10C
330
1F
100
AcDbEntity
  8
注記
100
AcDbBlockReference
  2
SW_NOTE_1
 10
137.9493366054
 20
136.7866062068
 30
0.0
  0
LEADER
  5
10E
330
1F
100
AcDbEntity
  8
注記
100
AcDbLeader
  3
SLDDIMSTYLE0
 76
     2
 10
128.6516118612
 20
131.7446441622
 30
0.0
 10
137.9493366054
 20
136.7866062068
 30
0.0
  0
INSERT
  5
11A
330
1F
100
AcDbEntity
  8
注記
100
AcDbBlockReference
  2
SW_NOTE_2
 10
167.0623130446
 20
151.0114240024
 30
0.0
  0
LEADER
  5
11B
330
1F
100
AcDbEntity
  8
注記
100
AcDbLeader
  3
SLDDIMSTYLE0
 76
     2
 10
147.2517271949
 20
123.7067870193
 30
0.0
 10
167.0623130446
 20
151.0114240024
 30
0.0
  0
INSERT
  5
128
330
1F
100
AcDbEntity
  8
注記
100
AcDbBlockReference
  2
SW_NOTE_3
 10
167.1790382581
 20
141.2178938879
 30
0.0
  0
LEADER
  5
12A
330
1F
100
AcDbEntity
  8
注記
100
AcDbLeader
  3
SLDDIMSTYLE1
 76
     2
 10
148.5803068616
 20
114.3546456635
 30
0.0
 10
167.1790382581
 20
141.2178938879
 30
0.0
  0
INSERT
  5
136
330
1F
100
AcDbEntity
  8
注記
100
AcDbBlockReference
  2
SW_NOTE_4
 10
149.9065536057
 20
74.5677969373
 30
0.0
  0
LEADER
  5
137
330
1F
100
AcDbEntity
  8
注記
100
AcDbLeader
  3
SLDDIMSTYLE1
 76
     2
 10
126.2158824723
 20
90.6616416074
 30
0.0
 10
149.9065536057
 20
74.5677969373
 30
0.0
  0
INSERT
  5
144
330
1F
100
AcDbEntity
  8
注記
100
AcDbBlockReference
  2
SW_NOTE_5
 10
146.8062180549
 20
82.4282436368
 30
0.0
  0
LEADER
  5
145
330
1F
100
AcDbEntity
  8
注記
100
AcDbLeader
  3
SLDDIMSTYLE0
 76
     2
 10
146.5874373616
 20
105.3931964351
 30
0.0
 10
146.8062180549
 20
82.4282436368
 30
0.0
  0
LINE
  5
146
330
1F
100
AcDbEntity
  8
寸法線
  6
CENTERX2
 62
     7
370
     0
100
AcDbLine
 10
113.3541509529
 20
136.1732155907
 30
0.0
 11
113.3541509529
 21
129.1732155907
 31
0.0
  0
LINE
  5
147
330
1F
100
AcDbEntity
  8
寸法線
  6
CENTERX2
 62
     7
370
     0
100
AcDbLine
 10
101.6361110327
 20
91.6017870193
 30
0.0
 11
107.7541509529
 21
91.6017870193
 31
0.0
  0
LINE
  5
148
330
1F
100
AcDbEntity
  8
中心線
100
AcDbLine
 10
110.3541509529
 20
171.543711784
 30
0.0
 11
97.4037053967
 21
171.543711784
 31
0.0
  0
LINE
  5
149
330
1F
100
AcDbEntity
  8
0
  6
Continuous
 62
     7
370
    15
100
AcDbLine
 10
117.4970080958
 20
188.9722832126
 30
0.0
 11
107.4970080958
 21
188.9722832126
 31
0.0
  0
LINE
  5
14A
330
1F
100
AcDbEntity
  8
0
  6
Continuous
 62
     7
370
    15
100
AcDbLine
 10
107.4970080958
 20
154.1151403554
 30
0.0
 11
117.4970080958
 21
154.1151403554
 31
0.0
  0
LINE
  5
14B
330
1F
100
AcDbEntity
  8
0
  6
Continuous
 62
     7
370
    15
100
AcDbLine
 10
107.4970080958
 20
186.8294260697
 30
0.0
 11
104.9255795243
 21
186.8294260697
 31
0.0
  0
LINE
  5
14C
330
1F
100
AcDbEntity
  8
0
  6
Continuous
 62
     7
370
    15
100
AcDbLine
 10
104.9255795243
 20
156.2579974983
 30
0.0
 11
107.4970080958
 21
156.2579974983
 31
0.0
  0
LINE
  5
14D
330
1F
100
AcDbEntity
  8
0
  6
Continuous
 62
     7
370
    15
100
AcDbLine
 10
117.4970080958
 20
156.2579974983
 30
0.0
 11
120.4970080958
 21
156.2579974983
 31
0.0
  0
LINE
  5
14E
330
1F
100
AcDbEntity
  8
0
  6
Continuous
 62
     7
370
    15
100
AcDbLine
 10
120.4970080958
 20
186.8294260697
 30
0.0
 11
117.4970080958
 21
186.8294260697
 31
0.0
  0
LINE
  5
14F
330
1F
100
AcDbEntity
  8
0
  6
Continuous
 62
     7
370
    15
100
AcDbLine
 10
104.9255795243
 20
186.2579974983
 30
0.0
 11
99.6398652386
 21
186.2579974983
 31
0.0
  0
LINE
  5
150
330
1F
100
AcDbEntity
  8
0
  6
Continuous
 62
     7
370
    15
100
AcDbLine
 10
99.6398652386
 20
156.8294260697
 30
0.0
 11
104.9255795243
 21
156.8294260697
 31
0.0
  0
LINE
  5
151
330
1F
100
AcDbEntity
  8
0
  6
Continuous
 62
     7
370
    15
100
AcDbLine
 10
121.6398652386
 20
186.3865689268
 30
0.0
 11
120.4970080958
 21
186.3865689268
 31
0.0
  0
LINE
  5
152
330
1F
100
AcDbEntity
  8
0
  6
Continuous
 62
     7
370
    15
100
AcDbLine
 10
120.4970080958
 20
156.7008546411
 30
0.0
 11
121.6398652386
 21
156.7008546411
 31
0.0
  0
LINE
  5
153
330
1F
100
AcDbEntity
  8
0
  6
Continuous
 62
     7
370
    15
100
AcDbLine
 10
126.4784366672
 20
185.4008546411
 30
0.0
 11
121.6398652386
 21
185.4008546411
 31
0.0
  0
LINE
  5
154
330
1F
100
AcDbEntity
  8
0
  6
Continuous
 62
     7
370
    15
100
AcDbLine
 10
121.6398652386
 20
157.6865689268
 30
0.0
 11
126.4784366672
 21
157.6865689268
 31
0.0
  0
LINE
  5
155
330
1F
100
AcDbEntity
  8
0
  6
Continuous
 62
     7
370
    15
100
AcDbLine
 10
126.4784366672
 20
157.6865689268
 30
0.0
 11
129.4970080958
 21
161.1865689268
 31
0.0
  0
LINE
  5
156
330
1F
100
AcDbEntity
  8
0
  6
Continuous
 62
     7
370
    15
100
AcDbLine
 10
129.4970080958
 20
181.9008546411
 30
0.0
 11
126.4784366672
 21
185.4008546411
 31
0.0
  0
LINE
  5
157
330
1F
100
AcDbEntity
  8
0
  6
Continuous
 62
     7
370
    15
100
AcDbLine
 10
149.3541509529
 20
183.2201403554
 30
0.0
 11
130.0684366672
 21
183.2201403554
 31
0.0
  0
LWPOLYLINE
  5
158
330
1F
100
AcDbEntity
  8
0
  6
Continuous
 62
     7
370
    15
100
AcDbPolyline
 90
        8
 70
   128
 43
0.0
 10
152.4970080958
 20
181.465211784
 10
152.2056776498
 20
181.6469165164
 10
151.8503731025
 20
181.8158096435
 10
151.3671203529
 20
181.95907956
 10
150.9965759224
 20
182.0263298734
 10
150.5462937287
 20
182.0776117131
 10
150.003182497
 20
182.1103033894
 10
149.3541509529
 20
182.1217832126
  0
LWPOLYLINE
  5
159
330
1F
100
AcDbEntity
  8
0
  6
Continuous
 62
     7
370
    15
100
AcDbPolyline
 90
        8
 70
   128
 43
0.0
 10
149.3541509529
 20
160.9656403554
 10
150.1612574384
 20
160.9840427394
 10
150.8025738981
 20
161.0356466274
 10
151.3050894062
 20
161.1150471234
 10
151.6957930364
 20
161.2168393314
 10
152.0145833385
 20
161.3416061896
 10
152.2713113018
 20
161.478801799
 10
152.4970080958
 20
161.622211784
  0
LINE
  5
15A
330
1F
100
AcDbEntity
  8
0
  6
Continuous
 62
     7
370
    15
100
AcDbLine
 10
130.0684366672
 20
181.9008546411
 30
0.0
 11
129.4970080958
 21
181.9008546411
 31
0.0
  0
LINE
  5
15B
330
1F
100
AcDbEntity
  8
0
  6
Continuous
 62
     7
370
    15
100
AcDbLine
 10
129.4970080958
 20
161.1865689268
 30
0.0
 11
130.0684366672
 21
161.1865689268
 31
0.0
  0
LWPOLYLINE
  5
15C
330
1F
100
AcDbEntity
  8
0
  6
Continuous
 62
     7
370
    15
100
AcDbPolyline
 90
        9
 70
   128
 43
0.0
 10
152.4970080958
 20
159.8212792827
 10
152.4832832961
 20
159.8792438759
 10
152.4426363333
 20
159.9349809222
 10
152.3766292475
 20
159.9863484784
 10
152.2877986538
 20
160.0313725179
 10
152.1795582622
 20
160.0683227922
 10
152.0560676903
 20
160.095779323
 10
151.9220726115
 20
160.1126869711
 10
151.7827223815
 20
160.1183959852
  0
LINE
  5
15D
330
1F
100
AcDbEntity
  8
0
  6
Continuous
 62
     7
370
    15
100
AcDbLine
 10
152.4970080958
 20
159.8212792827
 30
0.0
 11
152.4970080958
 21
159.1717211662
 31
0.0
  0
LWPOLYLINE
  5
15E
330
1F
100
AcDbEntity
  8
0
  6
Continuous
 62
     7
370
    15
100
AcDbPolyline
 90
        9
 70
   128
 43
0.0
 10
152.4970080958
 20
159.1717211662
 10
152.4832832961
 20
159.2296857594
 10
152.4426363333
 20
159.2854228057
 10
152.3766292474
 20
159.3367903619
 10
152.2877986537
 20
159.3818144014
 10
152.1795582622
 20
159.4187646757
 10
152.0560676903
 20
159.4462212065
 10
151.9220726115
 20
159.4631288546
 10
151.7827223815
 20
159.4688378687
  0
LINE
  5
15F
330
1F
100
AcDbEntity
  8
0
  6
Continuous
 62
     7
370
    15
100
AcDbLine
 10
151.7827223815
 20
160.1183959852
 30
0.0
 11
151.7827223815
 21
159.4688378687
 31
0.0
  0
LINE
  5
160
330
1F
100
AcDbEntity
  8
0
  6
Continuous
 62
     7
370
    15
100
AcDbLine
 10
151.7827223815
 20
159.4688378687
 30
0.0
 11
140.6398652386
 21
159.4688378687
 31
0.0
  0
LINE
  5
161
330
1F
100
AcDbEntity
  8
0
  6
Continuous
 62
     7
370
    15
100
AcDbLine
 10
152.4970080958
 20
153.759443312
 30
0.0
 11
152.4970080958
 21
159.1717211662
 31
0.0
  0
LWPOLYLINE
  5
162
330
1F
100
AcDbEntity
  8
0
  6
Continuous
 62
     7
370
    15
100
AcDbPolyline
 90
        9
 70
   128
 43
0.0
 10
151.7827223813
 20
153.462326609
 10
151.9220726115
 20
153.4680356232
 10
152.0560676904
 20
153.4849432714
 10
152.1795582624
 20
153.5123998022
 10
152.287798654
 20
153.5493500765
 10
152.3766292477
 20
153.5943741161
 10
152.4426363335
 20
153.6457416723
 10
152.4832832962
 20
153.7014787187
 10
152.4970080958
 20
153.759443312
  0
LINE
  5
163
330
1F
100
AcDbEntity
  8
0
  6
Continuous
 62
     7
370
    15
100
AcDbLine
 10
140.6398652386
 20
153.4623266091
 30
0.0
 11
141.2112938101
 21
153.4623266091
 31
0.0
  0
LINE
  5
164
330
1F
100
AcDbEntity
  8
0
  6
Continuous
 62
     7
370
    15
100
AcDbLine
 10
151.2112938101
 20
153.4623266091
 30
0.0
 11
151.7827223813
 21
153.462326609
 31
0.0
  0
LWPOLYLINE
  5
165
330
1F
100
AcDbEntity
  8
0
  6
Continuous
 62
     7
370
    15
100
AcDbPolyline
 90
        9
 70
   128
 43
0.0
 10
139.9255795243
 20
153.7594433124
 10
139.9393043241
 20
153.7014787193
 10
139.9799512869
 20
153.6457416729
 10
140.0459583728
 20
153.5943741167
 10
140.1347889665
 20
153.5493500771
 10
140.243029358
 20
153.5123998026
 10
140.3665199299
 20
153.4849432717
 10
140.5005150087
 20
153.4680356234
 10
140.6398652386
 20
153.4623266091
  0
LINE
  5
166
330
1F
100
AcDbEntity
  8
0
  6
Continuous
 62
     7
370
    15
100
AcDbLine
 10
139.9255795243
 20
153.7594433124
 30
0.0
 11
139.9255795243
 21
159.1717211651
 31
0.0
  0
LWPOLYLINE
  5
167
330
1F
100
AcDbEntity
  8
0
  6
Continuous
 62
     7
370
    15
100
AcDbPolyline
 90
        9
 70
   128
 43
0.0
 10
140.6398652386
 20
159.4688378687
 10
140.5005150084
 20
159.4631288546
 10
140.3665199294
 20
159.4462212063
 10
140.2430293574
 20
159.4187646755
 10
140.1347889658
 20
159.3818144011
 10
140.0459583721
 20
159.3367903614
 10
139.9799512864
 20
159.2854228052
 10
139.9393043239
 20
159.2296857587
 10
139.9255795243
 20
159.1717211651
  0
LINE
  5
168
330
1F
100
AcDbEntity
  8
0
  6
Continuous
 62
     7
370
    15
100
AcDbLine
 10
142.502084367
 20
158.8151012635
 30
0.0
 11
141.4205032521
 21
158.3203713766
 31
0.0
  0
ELLIPSE
  5
169
330
1F
100
AcDbEntity
  8
0
  6
Continuous
 62
     7
370
    15
100
AcDbEllipse
 10
141.9255795243
 20
158.0893426306
 30
0.0
 11
0.714285714285694
 21
0.0
 31
0.0
210
0.0
220
0.0
230
1.0
 40
0.4574135786
 41
2.356194488449872
 42
3.141592653589793
  0
ELLIPSE
  5
16A
330
1F
100
AcDbEntity
  8
0
  6
Continuous
 62
     7
370
    15
100
AcDbEllipse
 10
150.4970080958
 20
158.0893426306
 30
0.0
 11
0.7142857142857224
 21
0.0
 31
0.0
210
0.0
220
0.0
230
1.0
 40
0.4574135786
 41
0.0
 42
7.068583472172923
  0
LINE
  5
16B
330
1F
100
AcDbEntity
  8
0
  6
Continuous
 62
     7
370
    15
100
AcDbLine
 10
151.002084369
 20
158.320371377
 30
0.0
 11
149.9205032519
 21
158.8151012641
 31
0.0
  0
ELLIPSE
  5
16C
330
1F
100
AcDbEntity
  8
0
  6
Continuous
 62
     7
370
    15
100
AcDbEllipse
 10
149.4154269798
 20
158.5840725195
 30
0.0
 11
0.7142857142857224
 21
0.0
 31
0.0
210
0.0
220
0.0
230
1.0
 40
0.4574135786
 41
0.7853981623182744
 42
1.570796326794897
  0
LINE
  5
16D
330
1F
100
AcDbEntity
  8
0
  6
Continuous
 62
     7
370
    15
100
AcDbLine
 10
149.4154269798
 20
158.9107965057
 30
0.0
 11
143.0071606403
 21
158.9107965057
 31
0.0
  0
ELLIPSE
  5
16E
330
1F
100
AcDbEntity
  8
0
  6
Continuous
 62
     7
370
    15
100
AcDbEllipse
 10
143.0071606403
 20
158.5840725195
 30
0.0
 11
0.7142857142857224
 21
0.0
 31
0.0
210
0.0
220
0.0
230
1.0
 40
0.4574135786
 41
1.570796326884704
 42
2.35619449378095
  0
LWPOLYLINE
  5
16F
330
1F
100
AcDbEntity
  8
0
  6
Continuous
 62
     7
370
    15
100
AcDbPolyline
 90
        9
 70
   128
 43
0.0
 10
140.6398652386
 20
160.1183959853
 10
140.5005150086
 20
160.1126869711
 10
140.3665199298
 20
160.095779323
 10
140.243029358
 20
160.0683227922
 10
140.1347889665
 20
160.0313725179
 10
140.0459583728
 20
159.9863484784
 10
139.979951287
 20
159.9349809223
 10
139.9393043242
 20
159.879243876
 10
139.9255795243
 20
159.8212792828
  0
LINE
  5
170
330
1F
100
AcDbEntity
  8
0
  6
Continuous
 62
     7
370
    15
100
AcDbLine
 10
140.6398652386
 20
160.1183959853
 30
0.0
 11
140.6398652386
 21
159.4688378687
 31
0.0
  0
LINE
  5
171
330
1F
100
AcDbEntity
  8
0
  6
Continuous
 62
     7
370
    15
100
AcDbLine
 10
139.9255795243
 20
159.1717211651
 30
0.0
 11
139.9255795243
 21
159.8212792828
 31
0.0
  0
LINE
  5
172
330
1F
100
AcDbEntity
  8
0
  6
Continuous
 62
     7
370
    15
100
AcDbLine
 10
151.7827223815
 20
160.1183959852
 30
0.0
 11
140.6398652386
 21
160.1183959853
 31
0.0
  0
SPLINE
  5
173
330
1F
100
AcDbEntity
  8
0
  6
Continuous
 62
     7
370
    15
100
AcDbSpline
210
0.0
220
0.0
230
1.0
 70
    24
 71
     3
 72
     9
 73
     5
 74
     0
 42
0.00000001
 43
0.00000001
 40
0.0
 40
0.0
 40
0.0
 40
0.0
 40
0.499999999837504
 40
1.0
 40
1.0
 40
1.0
 40
1.0
 10
149.4154269797736
 20
152.9722832125589
 30
0.0
 10
149.4532601658026
 20
152.9722832125589
 30
0.0
 10
149.5289265378851
 20
152.9722832125589
 30
0.0
 10
149.5879471718048
 20
152.9722832125589
 30
0.0
 10
149.6174574887743
 20
152.9722832125589
 30
0.0
  0
LINE
  5
174
330
1F
100
AcDbEntity
  8
0
  6
Continuous
 62
     7
370
    15
100
AcDbLine
 10
149.4154269798
 20
153.4008546411
 30
0.0
 11
149.4154269798
 21
152.9722832126
 31
0.0
  0
LINE
  5
175
330
1F
100
AcDbEntity
  8
0
  6
Continuous
 62
     7
370
    15
100
AcDbLine
 10
149.9205032518
 20
153.4008546411
 30
0.0
 11
149.4154269798
 21
153.4008546411
 31
0.0
  0
ARC
  5
176
330
1F
100
AcDbEntity
  8
0
  6
Continuous
 62
     7
370
    15
100
AcDbCircle
 10
149.5416960479
 20
153.3472832126
 30
0.0
 40
0.3825765229524651
100
AcDbArc
 50
281.421753659
 51
8.0494669755
  0
SPLINE
  5
177
330
1F
100
AcDbEntity
  8
0
  6
Continuous
 62
     7
370
    15
100
AcDbSpline
210
0.0
220
0.0
230
1.0
 70
    24
 71
     3
 72
     9
 73
     5
 74
     0
 42
0.00000001
 43
0.00000001
 40
0.0
 40
0.0
 40
0.0
 40
0.0
 40
0.500000000162504
 40
1.0
 40
1.0
 40
1.0
 40
1.0
 10
142.8051301313446
 20
152.9722832125589
 30
0.0
 10
142.834640448314
 20
152.9722832125589
 30
0.0
 10
142.8936610822337
 20
152.9722832125589
 30
0.0
 10
142.9693274543161
 20
152.9722832125589
 30
0.0
 10
143.007160640345
 20
152.9722832125589
 30
0.0
  0
ARC
  5
178
330
1F
100
AcDbEntity
  8
0
  6
Continuous
 62
     7
370
    15
100
AcDbCircle
 10
142.8808915723
 20
153.3472832125
 30
0.0
 40
0.3825765230064627
100
AcDbArc
 50
171.9505330215
 51
258.5782463551
  0
LINE
  5
179
330
1F
100
AcDbEntity
  8
0
  6
Continuous
 62
     7
370
    15
100
AcDbLine
 10
143.0071606402
 20
153.4008546411
 30
0.0
 11
142.5020843682
 21
153.4008546411
 31
0.0
  0
LINE
  5
17A
330
1F
100
AcDbEntity
  8
0
  6
Continuous
 62
     7
370
    15
100
AcDbLine
 10
143.0071606403
 20
152.9722832126
 30
0.0
 11
143.0071606403
 21
153.4008546411
 31
0.0
  0
LINE
  5
17B
330
1F
100
AcDbEntity
  8
0
  6
Continuous
 62
     7
370
    15
100
AcDbLine
 10
143.0071606403
 20
158.9107965057
 30
0.0
 11
143.0071606402
 21
153.4008546411
 31
0.0
  0
LINE
  5
17C
330
1F
100
AcDbEntity
  8
0
  6
Continuous
 62
     7
370
    15
100
AcDbLine
 10
149.4154269798
 20
158.9107965057
 30
0.0
 11
149.4154269798
 21
153.4008546411
 31
0.0
  0
LINE
  5
17D
330
1F
100
AcDbEntity
  8
0
  6
Continuous
 62
     7
370
    15
100
AcDbLine
 10
149.4154269798
 20
153.4008546411
 30
0.0
 11
143.0071606403
 21
153.4008546411
 31
0.0
  0
LINE
  5
17E
330
1F
100
AcDbEntity
  8
0
  6
Continuous
 62
     7
370
    15
100
AcDbLine
 10
142.502084367
 20
158.8151012635
 30
0.0
 11
142.5020843681
 21
153.4008546411
 31
0.0
  0
LINE
  5
17F
330
1F
100
AcDbEntity
  8
0
  6
Continuous
 62
     7
370
    15
100
AcDbLine
 10
149.4154269798
 20
152.9722832126
 30
0.0
 11
143.0071606403
 21
152.9722832126
 31
0.0
  0
LINE
  5
180
330
1F
100
AcDbEntity
  8
0
  6
Continuous
 62
     7
370
    15
100
AcDbLine
 10
149.9205032519
 20
158.8151012641
 30
0.0
 11
149.9205032518
 21
153.4008546411
 31
0.0
  0
LINE
  5
181
330
1F
100
AcDbEntity
  8
0
  6
Continuous
 62
     7
370
    15
100
AcDbLine
 10
149.4154269798
 20
160.2579974983
 30
0.0
 11
143.0071606403
 21
160.2579974983
 31
0.0
  0
LINE
  5
182
330
1F
100
AcDbEntity
  8
0
  6
Continuous
 62
     7
370
    15
100
AcDbLine
 10
149.9205032521
 20
160.2579974983
 30
0.0
 11
149.4154269798
 21
160.2579974983
 31
0.0
  0
LINE
  5
183
330
1F
100
AcDbEntity
  8
0
  6
Continuous
 62
     7
370
    15
100
AcDbLine
 10
143.0071606403
 20
160.2579974983
 30
0.0
 11
142.5020843681
 21
160.2579974983
 31
0.0
  0
LINE
  5
184
330
1F
100
AcDbEntity
  8
0
  6
Continuous
 62
     7
370
    15
100
AcDbLine
 10
151.002084369
 20
158.320371377
 30
0.0
 11
151.0020843681
 21
153.4008546411
 31
0.0
  0
LINE
  5
185
330
1F
100
AcDbEntity
  8
0
  6
Continuous
 62
     7
370
    15
100
AcDbLine
 10
151.0020843681
 20
153.4008546411
 30
0.0
 11
149.9205032521
 21
153.4008546411
 31
0.0
  0
ARC
  5
186
330
1F
100
AcDbEntity
  8
0
  6
Continuous
 62
     7
370
    15
100
AcDbCircle
 10
150.6232771638
 20
153.3472832125
 30
0.0
 40
0.3825765230070039
100
AcDbArc
 50
281.421753645
 51
8.0494669785
  0
LINE
  5
187
330
1F
100
AcDbEntity
  8
0
  6
Continuous
 62
     7
370
    15
100
AcDbLine
 10
150.6990386046
 20
152.9722832125
 30
0.0
 11
149.6174574886
 21
152.9722832125
 31
0.0
  0
LINE
  5
188
330
1F
100
AcDbEntity
  8
0
  6
Continuous
 62
     7
370
    15
100
AcDbLine
 10
141.4205032521
 20
153.4008546411
 30
0.0
 11
141.4205032521
 21
158.3203713766
 31
0.0
  0
LINE
  5
189
330
1F
100
AcDbEntity
  8
0
  6
Continuous
 62
     7
370
    15
100
AcDbLine
 10
142.5020843681
 20
153.4008546411
 30
0.0
 11
141.4205032521
 21
153.4008546411
 31
0.0
  0
ARC
  5
18A
330
1F
100
AcDbEntity
  8
0
  6
Continuous
 62
     7
370
    15
100
AcDbCircle
 10
141.7993104563
 20
153.3472832125
 30
0.0
 40
0.382576523007391
100
AcDbArc
 50
171.9505330215
 51
258.5782463551
  0
LINE
  5
18B
330
1F
100
AcDbEntity
  8
0
  6
Continuous
 62
     7
370
    15
100
AcDbLine
 10
142.8051301316
 20
152.9722832125
 30
0.0
 11
141.7235490156
 21
152.9722832125
 31
0.0
  0
LINE
  5
18C
330
1F
100
AcDbEntity
  8
0
  6
Continuous
 62
     7
370
    15
100
AcDbLine
 10
149.9205032521
 20
160.2579974983
 30
0.0
 11
151.0020843681
 21
160.2579974983
 31
0.0
  0
LINE
  5
18D
330
1F
100
AcDbEntity
  8
0
  6
Continuous
 62
     7
370
    15
100
AcDbLine
 10
142.5020843681
 20
160.2579974983
 30
0.0
 11
141.4205032521
 21
160.2579974983
 31
0.0
  0
LINE
  5
18E
330
1F
100
AcDbEntity
  8
0
  6
Continuous
 62
     7
370
    15
100
AcDbLine
 10
141.4205032521
 20
153.4008546411
 30
0.0
 11
141.2112938101
 21
153.4008546411
 31
0.0
  0
ARC
  5
18F
330
1F
100
AcDbEntity
  8
0
  6
Continuous
 62
     7
370
    15
100
AcDbCircle
 10
141.6398652386
 20
153.4008546411
 30
0.0
 40
0.4285714285714164
100
AcDbArc
 50
180.0
 51
269.9999999897
  0
SPLINE
  5
190
330
1F
100
AcDbEntity
  8
0
  6
Continuous
 62
     7
370
    15
100
AcDbSpline
210
0.0
220
0.0
230
1.0
 70
    24
 71
     3
 72
     9
 73
     5
 74
     0
 42
0.00000001
 43
0.00000001
 40
0.0
 40
0.0
 40
0.0
 40
0.0
 40
0.4999999998375045
 40
0.9999999999999999
 40
0.9999999999999999
 40
0.9999999999999999
 40
0.9999999999999999
 10
141.6398652386307
 20
152.9722832125589
 30
0.0
 10
141.6437659430643
 20
152.9722832125589
 30
0.0
 10
141.651567351934
 20
152.9722832125589
 30
0.0
 10
141.6995551276314
 20
152.9722832125589
 30
0.0
 10
141.7235490154879
 20
152.9722832125589
 30
0.0
  0
LINE
  5
191
330
1F
100
AcDbEntity
  8
0
  6
Continuous
 62
     7
370
    15
100
AcDbLine
 10
151.2112938101
 20
153.4008546411
 30
0.0
 11
151.0020843678
 21
153.4008546411
 31
0.0
  0
ARC
  5
192
330
1F
100
AcDbEntity
  8
0
  6
Continuous
 62
     7
370
    15
100
AcDbCircle
 10
150.7827223815
 20
153.4008546411
 30
0.0
 40
0.4285714285714448
100
AcDbArc
 50
269.9999999995
 51
0.0
  0
SPLINE
  5
193
330
1F
100
AcDbEntity
  8
0
  6
Continuous
 62
     7
370
    15
100
AcDbSpline
210
0.0
220
0.0
230
1.0
 70
    24
 71
     3
 72
     9
 73
     5
 74
     0
 42
0.00000001
 43
0.00000001
 40
0.0
 40
0.0
 40
0.0
 40
0.0
 40
0.5000000001624992
 40
1.0
 40
1.0
 40
1.0
 40
1.0
 10
150.6990386046312
 20
152.9722832125589
 30
0.0
 10
150.7230324924878
 20
152.9722832125589
 30
0.0
 10
150.7710202681852
 20
152.9722832125589
 30
0.0
 10
150.7788216770549
 20
152.9722832125589
 30
0.0
 10
150.7827223814886
 20
152.9722832125589
 30
0.0
  0
LINE
  5
194
330
1F
100
AcDbEntity
  8
0
  6
Continuous
 62
     7
370
    15
100
AcDbLine
 10
151.2112938109
 20
158.0893426306
 30
0.0
 11
151.2112938101
 21
153.4008546411
 31
0.0
  0
LINE
  5
195
330
1F
100
AcDbEntity
  8
0
  6
Continuous
 62
     7
370
    15
100
AcDbLine
 10
141.2112938092
 20
158.0893426306
 30
0.0
 11
141.2112938101
 21
153.4008546411
 31
0.0
  0
LINE
  5
196
330
1F
100
AcDbEntity
  8
0
  6
Continuous
 62
     7
370
    15
100
AcDbLine
 10
141.2112938101
 20
160.2579974983
 30
0.0
 11
141.2112938101
 21
160.1183959853
 31
0.0
  0
LINE
  5
197
330
1F
100
AcDbEntity
  8
0
  6
Continuous
 62
     7
370
    15
100
AcDbLine
 10
141.4205032521
 20
160.2579974983
 30
0.0
 11
141.2112938101
 21
160.2579974983
 31
0.0
  0
LINE
  5
198
330
1F
100
AcDbEntity
  8
0
  6
Continuous
 62
     7
370
    15
100
AcDbLine
 10
151.2112938101
 20
160.2579974983
 30
0.0
 11
151.2112938101
 21
160.1183959853
 31
0.0
  0
LINE
  5
199
330
1F
100
AcDbEntity
  8
0
  6
Continuous
 62
     7
370
    15
100
AcDbLine
 10
151.2112938101
 20
160.2579974983
 30
0.0
 11
151.0020843681
 21
160.2579974983
 31
0.0
  0
CIRCLE
  5
19A
330
1F
100
AcDbEntity
  8
0
  6
Continuous
 62
     7
370
    15
100
AcDbCircle
 10
113.3541509529
 20
171.543711784
 30
0.0
 40
1.871428571428581
  0
CIRCLE
  5
19B
330
1F
100
AcDbEntity
  8
0
  6
Continuous
 62
     7
370
    15
100
AcDbCircle
 10
113.3541509529
 20
171.543711784
 30
0.0
 40
3.0
  0
LINE
  5
19C
330
1F
100
AcDbEntity
  8
0
  6
Continuous
 62
     7
370
    15
100
AcDbLine
 10
117.4970080958
 20
165.9722832126
 30
0.0
 11
117.4970080958
 21
177.1151403554
 31
0.0
  0
LINE
  5
19D
330
1F
100
AcDbEntity
  8
0
  6
Continuous
 62
     7
370
    15
100
AcDbLine
 10
109.0684366672
 20
165.9722832126
 30
0.0
 11
117.4970080958
 21
165.9722832126
 31
0.0
  0
LINE
  5
19E
330
1F
100
AcDbEntity
  8
0
  6
Continuous
 62
     7
370
    15
100
AcDbLine
 10
109.0684366672
 20
165.9722832126
 30
0.0
 11
109.0684366672
 21
177.1151403554
 31
0.0
  0
LINE
  5
19F
330
1F
100
AcDbEntity
  8
0
  6
Continuous
 62
     7
370
    15
100
AcDbLine
 10
109.0684366672
 20
177.1151403554
 30
0.0
 11
117.4970080958
 21
177.1151403554
 31
0.0
  0
LINE
  5
1A0
330
1F
100
AcDbEntity
  8
0
  6
Continuous
 62
     7
370
    15
100
AcDbLine
 10
107.4970080958
 20
154.1151403554
 30
0.0
 11
107.4970080958
 21
188.9722832126
 31
0.0
  0
LINE
  5
1A1
330
1F
100
AcDbEntity
  8
0
  6
Continuous
 62
     7
370
    15
100
AcDbLine
 10
117.4970080958
 20
154.1151403554
 30
0.0
 11
117.4970080958
 21
165.9722832126
 31
0.0
  0
LINE
  5
1A2
330
1F
100
AcDbEntity
  8
0
  6
Continuous
 62
     7
370
    15
100
AcDbLine
 10
117.4970080958
 20
177.1151403554
 30
0.0
 11
117.4970080958
 21
188.9722832126
 31
0.0
  0
LINE
  5
1A3
330
1F
100
AcDbEntity
  8
0
  6
Continuous
 62
     7
370
    15
100
AcDbLine
 10
104.9255795243
 20
156.2579974983
 30
0.0
 11
104.9255795243
 21
186.8294260697
 31
0.0
  0
LINE
  5
1A4
330
1F
100
AcDbEntity
  8
0
  6
Continuous
 62
     7
370
    15
100
AcDbLine
 10
120.4970080958
 20
186.8294260697
 30
0.0
 11
120.4970080958
 21
156.2579974983
 31
0.0
  0
LINE
  5
1A5
330
1F
100
AcDbEntity
  8
0
  6
Continuous
 62
     7
370
    15
100
AcDbLine
 10
99.6398652386
 20
156.8294260697
 30
0.0
 11
99.6398652386
 21
186.2579974983
 31
0.0
  0
LINE
  5
1A6
330
1F
100
AcDbEntity
  8
0
  6
Continuous
 62
     7
370
    15
100
AcDbLine
 10
140.9520534145
 20
173.3294260697
 30
0.0
 11
140.9520534145
 21
169.7579974983
 31
0.0
  0
LINE
  5
1A7
330
1F
100
AcDbEntity
  8
0
  6
Continuous
 62
     7
370
    15
100
AcDbLine
 10
143.7827223815
 20
173.3294260697
 30
0.0
 11
143.7827223815
 21
169.7579974983
 31
0.0
  0
LINE
  5
1A8
330
1F
100
AcDbEntity
  8
0
  6
Continuous
 62
     7
370
    15
100
AcDbLine
 10
140.9520534145
 20
169.7579974983
 30
0.0
 11
143.7827223815
 21
169.7579974983
 31
0.0
  0
LINE
  5
1A9
330
1F
100
AcDbEntity
  8
0
  6
Continuous
 62
     7
370
    15
100
AcDbLine
 10
140.9520534145
 20
173.3294260697
 30
0.0
 11
143.7827223815
 21
173.3294260697
 31
0.0
  0
LINE
  5
1AA
330
1F
100
AcDbEntity
  8
0
  6
Continuous
 62
     7
370
    15
100
AcDbLine
 10
125.4970080958
 20
173.3294260697
 30
0.0
 11
125.4970080958
 21
169.7579974983
 31
0.0
  0
LINE
  5
1AB
330
1F
100
AcDbEntity
  8
0
  6
Continuous
 62
     7
370
    15
100
AcDbLine
 10
125.4970080958
 20
169.7579974983
 30
0.0
 11
140.9520534145
 21
169.7579974983
 31
0.0
  0
LINE
  5
1AC
330
1F
100
AcDbEntity
  8
0
  6
Continuous
 62
     7
370
    15
100
AcDbLine
 10
125.4970080958
 20
173.3294260697
 30
0.0
 11
140.9520534145
 21
173.3294260697
 31
0.0
  0
LINE
  5
1AD
330
1F
100
AcDbEntity
  8
0
  6
Continuous
 62
     7
370
    15
100
AcDbLine
 10
122.3541509529
 20
173.3294260697
 30
0.0
 11
122.3541509529
 21
169.7579974983
 31
0.0
  0
LINE
  5
1AE
330
1F
100
AcDbEntity
  8
0
  6
Continuous
 62
     7
370
    15
100
AcDbLine
 10
122.3541509529
 20
169.7579974983
 30
0.0
 11
125.4970080958
 21
169.7579974983
 31
0.0
  0
LINE
  5
1AF
330
1F
100
AcDbEntity
  8
0
  6
Continuous
 62
     7
370
    15
100
AcDbLine
 10
122.3541509529
 20
173.3294260697
 30
0.0
 11
125.4970080958
 21
173.3294260697
 31
0.0
  0
LINE
  5
1B0
330
1F
100
AcDbEntity
  8
0
  6
Continuous
 62
     7
370
    15
100
AcDbLine
 10
125.4970080958
 20
169.7579974983
 30
0.0
 11
125.4970080958
 21
169.043711784
 31
0.0
  0
LINE
  5
1B1
330
1F
100
AcDbEntity
  8
0
  6
Continuous
 62
     7
370
    15
100
AcDbLine
 10
120.4970080958
 20
169.043711784
 30
0.0
 11
125.4970080958
 21
169.043711784
 31
0.0
  0
LINE
  5
1B2
330
1F
100
AcDbEntity
  8
0
  6
Continuous
 62
     7
370
    15
100
AcDbLine
 10
125.4970080958
 20
174.043711784
 30
0.0
 11
125.4970080958
 21
173.3294260697
 31
0.0
  0
LINE
  5
1B3
330
1F
100
AcDbEntity
  8
0
  6
Continuous
 62
     7
370
    15
100
AcDbLine
 10
120.4970080958
 20
174.043711784
 30
0.0
 11
125.4970080958
 21
174.043711784
 31
0.0
  0
ELLIPSE
  5
1B4
330
1F
100
AcDbEntity
  8
0
  6
Continuous
 62
     7
370
    15
100
AcDbEllipse
 10
132.9184366672
 20
171.543711784
 30
0.0
 11
5.684341886080801E-14
 21
13.85714285714283
 31
0.0
210
0.0
220
0.0
230
1.0
 40
0.5
 41
1.700021665703922
 42
1.752202012525997
  0
ELLIPSE
  5
1B5
330
1F
100
AcDbEntity
  8
0
  6
Continuous
 62
     7
370
    15
100
AcDbEllipse
 10
132.9184366672
 20
171.543711784
 30
0.0
 11
5.684341886080801E-14
 21
13.85714285714283
 31
0.0
210
0.0
220
0.0
230
1.0
 40
0.5
 41
1.389390641063794
 42
1.441570987885885
  0
LINE
  5
1B6
330
1F
100
AcDbEntity
  8
0
  6
Continuous
 62
     7
370
    15
100
AcDbLine
 10
125.4970080958
 20
169.043711784
 30
0.0
 11
126.1035557408
 21
169.043711784
 31
0.0
  0
LINE
  5
1B7
330
1F
100
AcDbEntity
  8
0
  6
Continuous
 62
     7
370
    15
100
AcDbLine
 10
125.4970080958
 20
174.043711784
 30
0.0
 11
126.1035557408
 21
174.043711784
 31
0.0
  0
LINE
  5
1B8
330
1F
100
AcDbEntity
  8
0
  6
Continuous
 62
     7
370
    15
100
AcDbLine
 10
121.6398652386
 20
174.043711784
 30
0.0
 11
121.6398652386
 21
186.3865689268
 31
0.0
  0
LINE
  5
1B9
330
1F
100
AcDbEntity
  8
0
  6
Continuous
 62
     7
370
    15
100
AcDbLine
 10
121.6398652386
 20
156.7008546411
 30
0.0
 11
121.6398652386
 21
169.043711784
 31
0.0
  0
LINE
  5
1BA
330
1F
100
AcDbEntity
  8
0
  6
Continuous
 62
     7
370
    15
100
AcDbLine
 10
126.4784366672
 20
157.6865689268
 30
0.0
 11
126.4784366672
 21
169.7579974983
 31
0.0
  0
LINE
  5
1BB
330
1F
100
AcDbEntity
  8
0
  6
Continuous
 62
     7
370
    15
100
AcDbLine
 10
126.4784366672
 20
173.3294260697
 30
0.0
 11
126.4784366672
 21
185.4008546411
 31
0.0
  0
LINE
  5
1BC
330
1F
100
AcDbEntity
  8
0
  6
Continuous
 62
     7
370
    15
100
AcDbLine
 10
129.4970080958
 20
161.1865689268
 30
0.0
 11
129.4970080958
 21
169.7579974983
 31
0.0
  0
LINE
  5
1BD
330
1F
100
AcDbEntity
  8
0
  6
Continuous
 62
     7
370
    15
100
AcDbLine
 10
129.4970080958
 20
173.3294260697
 30
0.0
 11
129.4970080958
 21
181.9008546411
 31
0.0
  0
LINE
  5
1BE
330
1F
100
AcDbEntity
  8
0
  6
Continuous
 62
     7
370
    15
100
AcDbLine
 10
130.0684366672
 20
160.7465689268
 30
0.0
 11
130.0684366672
 21
169.7579974983
 31
0.0
  0
LINE
  5
1BF
330
1F
100
AcDbEntity
  8
0
  6
Continuous
 62
     7
370
    15
100
AcDbLine
 10
130.0684366672
 20
173.3294260697
 30
0.0
 11
130.0684366672
 21
183.2201403554
 31
0.0
  0
LINE
  5
1C0
330
1F
100
AcDbEntity
  8
0
  6
Continuous
 62
     7
370
    15
100
AcDbLine
 10
149.3541509529
 20
183.2201403554
 30
0.0
 11
149.3541509529
 21
160.7465689268
 31
0.0
  0
LINE
  5
1C1
330
1F
100
AcDbEntity
  8
0
  6
Continuous
 62
     7
370
    15
100
AcDbLine
 10
130.0684366672
 20
160.7465689268
 30
0.0
 11
149.3541509529
 21
160.7465689268
 31
0.0
  0
LINE
  5
1C2
330
1F
100
AcDbEntity
  8
0
  6
Continuous
 62
     7
370
    15
100
AcDbLine
 10
152.4970080958
 20
181.465211784
 30
0.0
 11
152.4970080958
 21
161.6222118176
 31
0.0
  0
LINE
  5
1C3
330
1F
100
AcDbEntity
  8
0
  6
Continuous
 62
     7
370
    15
100
AcDbLine
 10
138.3541509529
 20
159.4008546411
 30
0.0
 11
138.3541509529
 21
158.6865689268
 31
0.0
  0
LINE
  5
1C4
330
1F
100
AcDbEntity
  8
0
  6
Continuous
 62
     7
370
    15
100
AcDbLine
 10
127.3408856468
 20
158.6865689268
 30
0.0
 11
138.3541509529
 21
158.6865689268
 31
0.0
  0
LINE
  5
1C5
330
1F
100
AcDbEntity
  8
0
  6
Continuous
 62
     7
370
    15
100
AcDbLine
 10
138.3541509529
 20
184.4008546411
 30
0.0
 11
138.3541509529
 21
183.6865689268
 31
0.0
  0
LINE
  5
1C6
330
1F
100
AcDbEntity
  8
0
  6
Continuous
 62
     7
370
    15
100
AcDbLine
 10
129.0684366672
 20
183.6865689268
 30
0.0
 11
138.3541509529
 21
183.6865689268
 31
0.0
  0
LINE
  5
1C7
330
1F
100
AcDbEntity
  8
0
  6
Continuous
 62
     7
370
    15
100
AcDbLine
 10
129.0684366672
 20
159.4008546411
 30
0.0
 11
129.0684366672
 21
160.6896451218
 31
0.0
  0
LINE
  5
1C8
330
1F
100
AcDbEntity
  8
0
  6
Continuous
 62
     7
370
    15
100
AcDbLine
 10
129.0684366672
 20
182.3977784461
 30
0.0
 11
129.0684366672
 21
183.6865689268
 31
0.0
  0
LINE
  5
1C9
330
1F
100
AcDbEntity
  8
0
  6
Continuous
 62
     7
370
    15
100
AcDbLine
 10
129.0684366672
 20
159.4008546411
 30
0.0
 11
138.3541509529
 21
159.4008546411
 31
0.0
  0
LINE
  5
1CA
330
1F
100
AcDbEntity
  8
0
  6
Continuous
 62
     7
370
    15
100
AcDbLine
 10
127.3408856468
 20
184.4008546411
 30
0.0
 11
138.3541509529
 21
184.4008546411
 31
0.0
  0
LINE
  5
1CB
330
1F
100
AcDbEntity
  8
0
  6
Continuous
 62
     7
370
    15
100
AcDbLine
 10
129.7827223815
 20
158.2865689268
 30
0.0
 11
126.995906055
 21
158.2865689268
 31
0.0
  0
LINE
  5
1CC
330
1F
100
AcDbEntity
  8
0
  6
Continuous
 62
     7
370
    15
100
AcDbLine
 10
129.7827223815
 20
158.2865689268
 30
0.0
 11
129.7827223815
 21
158.6865689268
 31
0.0
  0
LINE
  5
1CD
330
1F
100
AcDbEntity
  8
0
  6
Continuous
 62
     7
370
    15
100
AcDbLine
 10
138.3541509529
 20
159.4008546411
 30
0.0
 11
138.3541509529
 21
160.7465689268
 31
0.0
  0
LINE
  5
1CE
330
1F
100
AcDbEntity
  8
0
  6
Continuous
 62
     7
370
    15
100
AcDbLine
 10
138.3541509529
 20
183.2201403554
 30
0.0
 11
138.3541509529
 21
183.6865689268
 31
0.0
  0
LINE
  5
1CF
330
1F
100
AcDbEntity
  8
0
  6
Continuous
 62
     7
370
    15
100
AcDbLine
 10
143.0071606403
 20
160.1183959853
 30
0.0
 11
143.0071606403
 21
160.2579974983
 31
0.0
  0
LINE
  5
1D0
330
1F
100
AcDbEntity
  8
0
  6
Continuous
 62
     7
370
    15
100
AcDbLine
 10
149.4154269798
 20
160.1183959853
 30
0.0
 11
149.4154269798
 21
160.2579974983
 31
0.0
  0
LINE
  5
1D1
330
1F
100
AcDbEntity
  8
0
  6
Continuous
 62
     7
370
    15
100
AcDbLine
 10
149.9205032521
 20
160.1183959853
 30
0.0
 11
149.9205032521
 21
160.2579974983
 31
0.0
  0
LINE
  5
1D2
330
1F
100
AcDbEntity
  8
0
  6
Continuous
 62
     7
370
    15
100
AcDbLine
 10
142.5020843681
 20
160.2579974983
 30
0.0
 11
142.5020843681
 21
160.1183959853
 31
0.0
  0
LINE
  5
1D3
330
1F
100
AcDbEntity
  8
0
  6
Continuous
 62
     7
370
    15
100
AcDbLine
 10
151.0020843681
 20
160.2579974983
 30
0.0
 11
151.0020843681
 21
160.1183959853
 31
0.0
  0
LINE
  5
1D4
330
1F
100
AcDbEntity
  8
0
  6
Continuous
 62
     7
370
    15
100
AcDbLine
 10
141.4205032521
 20
160.2579974983
 30
0.0
 11
141.4205032522
 21
160.1183959853
 31
0.0
  0
INSERT
  5
1E0
330
1F
100
AcDbEntity
  8
注記
100
AcDbBlockReference
  2
SW_NOTE_6
 10
154.6521004633
 20
188.480839359
 30
0.0
  0
INSERT
  5
1EC
330
1F
100
AcDbEntity
  8
中心線
100
AcDbBlockReference
  2
SW_CENTERMARKSYMBOL_0
 10
113.3541509529
 20
171.543711784
 30
0.0
  0
INSERT
  5
1ED
330
1F
100
AcDbEntity
  8
注記
100
AcDbBlockReference
  2
_Dot
 10
124.2230129722
 20
179.6764792759
 30
13.219560649
 41
0.5
 42
0.5
 50
190.4768836567
  0
LINE
  5
1EE
330
1F
100
AcDbEntity
  8
注記
100
AcDbLine
 10
124.2230129722
 20
179.6764792759
 30
0.0
 11
154.6495830158
 21
185.3030141853
 31
0.0
  0
LINE
  5
1EF
330
1F
100
AcDbEntity
  8
中心線
100
AcDbLine
 10
182.9157682391
 20
112.0303584479
 30
0.0
 11
212.6490475711
 21
112.0303584479
 31
0.0
  0
LINE
  5
1F0
330
1F
100
AcDbEntity
  8
中心線
100
AcDbLine
 10
182.9157682391
 20
112.0303584479
 30
0.0
 11
172.7451447679
 21
112.0303584479
 31
0.0
  0
LINE
  5
1F1
330
1F
100
AcDbEntity
  8
中心線
100
AcDbLine
 10
192.8372682391
 20
134.1732155907
 30
0.0
 11
192.8372682391
 21
83.6403182763
 31
0.0
  0
LINE
  5
1F2
330
1F
100
AcDbEntity
  8
注記
100
AcDbLine
 10
192.8372682391
 20
134.1732155907
 30
0.0
 11
192.8372682391
 21
136.2899394197
 31
0.0
  0
LINE
  5
1F3
330
1F
100
AcDbEntity
  8
0
  6
Continuous
 62
     7
370
    15
100
AcDbLine
 10
189.8372682391
 20
133.7446441622
 30
0.0
 11
190.7658396677
 21
133.4958341978
 31
0.0
  0
LINE
  5
1F4
330
1F
100
AcDbEntity
  8
0
  6
Continuous
 62
     7
370
    15
100
AcDbLine
 10
194.9086968105
 20
133.4958341978
 30
0.0
 11
195.8372682391
 21
133.7446441622
 31
0.0
  0
LINE
  5
1F5
330
1F
100
AcDbEntity
  8
0
  6
Continuous
 62
     7
370
    15
100
AcDbLine
 10
189.8372682391
 20
134.1732155907
 30
0.0
 11
189.8372682391
 21
133.7446441622
 31
0.0
  0
LINE
  5
1F6
330
1F
100
AcDbEntity
  8
0
  6
Continuous
 62
     7
370
    15
100
AcDbLine
 10
195.8372682391
 20
133.7446441622
 30
0.0
 11
195.8372682391
 21
134.1732155907
 31
0.0
  0
LINE
  5
1F7
330
1F
100
AcDbEntity
  8
0
  6
Continuous
 62
     7
370
    15
100
AcDbLine
 10
190.7658396677
 20
133.4958341978
 30
0.0
 11
190.7658396677
 21
131.1732155907
 31
0.0
  0
LINE
  5
1F8
330
1F
100
AcDbEntity
  8
0
  6
Continuous
 62
     7
370
    15
100
AcDbLine
 10
194.9086968105
 20
131.1732155907
 30
0.0
 11
194.9086968105
 21
133.4958341978
 31
0.0
  0
LINE
  5
1F9
330
1F
100
AcDbEntity
  8
0
  6
Continuous
 62
     7
370
    15
100
AcDbLine
 10
175.7025578836
 20
106.0427545522
 30
0.0
 11
175.0529997671
 21
106.3398712549
 31
0.0
  0
LINE
  5
1FA
330
1F
100
AcDbEntity
  8
0
  6
Continuous
 62
     7
370
    15
100
AcDbLine
 10
175.4054411807
 20
105.3931964351
 30
0.0
 11
174.7558830642
 21
105.6903131377
 31
0.0
  0
LINE
  5
1FB
330
1F
100
AcDbEntity
  8
0
  6
Continuous
 62
     7
370
    15
100
AcDbLine
 10
174.7558830642
 20
105.6903131377
 30
0.0
 11
175.0529997671
 21
106.3398712549
 31
0.0
  0
LINE
  5
1FC
330
1F
100
AcDbEntity
  8
0
  6
Continuous
 62
     7
370
    15
100
AcDbLine
 10
175.4054411807
 20
105.3931964351
 30
0.0
 11
175.7025578836
 21
106.0427545522
 31
0.0
  0
LINE
  5
1FD
330
1F
100
AcDbEntity
  8
0
  6
Continuous
 62
     7
370
    15
100
AcDbLine
 10
181.1148357378
 20
117.8751052014
 30
0.0
 11
180.4652776213
 21
118.172221904
 31
0.0
  0
LINE
  5
1FE
330
1F
100
AcDbEntity
  8
0
  6
Continuous
 62
     7
370
    15
100
AcDbLine
 10
181.4119524404
 20
118.5246633178
 30
0.0
 11
180.7623943238
 21
118.8217800203
 31
0.0
  0
LINE
  5
1FF
330
1F
100
AcDbEntity
  8
0
  6
Continuous
 62
     7
370
    15
100
AcDbLine
 10
180.4652776213
 20
118.172221904
 30
0.0
 11
180.7623943238
 21
118.8217800203
 31
0.0
  0
LINE
  5
200
330
1F
100
AcDbEntity
  8
0
  6
Continuous
 62
     7
370
    15
100
AcDbLine
 10
181.1148357378
 20
117.8751052014
 30
0.0
 11
181.4119524404
 21
118.5246633178
 31
0.0
  0
LINE
  5
201
330
1F
100
AcDbEntity
  8
0
  6
Continuous
 62
     7
370
    15
100
AcDbLine
 10
175.0529997671
 20
106.3398712549
 30
0.0
 11
180.4652776213
 21
118.172221904
 31
0.0
  0
LINE
  5
202
330
1F
100
AcDbEntity
  8
0
  6
Continuous
 62
     7
370
    15
100
AcDbLine
 10
175.7025578836
 20
106.0427545522
 30
0.0
 11
181.1148357378
 21
117.8751052014
 31
0.0
  0
SPLINE
  5
203
330
1F
100
AcDbEntity
  8
0
  6
Continuous
 62
     7
370
    15
100
AcDbSpline
210
0.0
220
0.0
230
1.0
 70
    24
 71
     3
 72
     9
 73
     5
 74
     0
 42
0.00000001
 43
0.00000001
 40
0.0
 40
0.0
 40
0.0
 40
0.0
 40
0.5000000001624992
 40
1.0
 40
1.0
 40
1.0
 40
1.0
 10
174.2658396676839
 20
116.0079506980253
 30
0.0
 10
174.2658396676839
 20
115.9784403810559
 30
0.0
 10
174.2658396676839
 20
115.9194197471362
 30
0.0
 10
174.2658396676839
 20
115.8437533750538
 30
0.0
 10
174.2658396676839
 20
115.8059201890249
 30
0.0
  0
ARC
  5
204
330
1F
100
AcDbEntity
  8
0
  6
Continuous
 62
     7
370
    15
100
AcDbCircle
 10
174.6408396677
 20
115.9321892571
 30
0.0
 40
0.3825765230069974
100
AcDbArc
 50
81.9505330215
 51
168.5782463551
  0
LINE
  5
205
330
1F
100
AcDbEntity
  8
0
  6
Continuous
 62
     7
370
    15
100
AcDbLine
 10
174.6944110963
 20
115.8059201889
 30
0.0
 11
174.6944110963
 21
116.3109964615
 31
0.0
  0
LINE
  5
206
330
1F
100
AcDbEntity
  8
0
  6
Continuous
 62
     7
370
    15
100
AcDbLine
 10
174.2658396677
 20
115.805920189
 30
0.0
 11
174.6944110963
 21
115.805920189
 31
0.0
  0
LINE
  5
207
330
1F
100
AcDbEntity
  8
0
  6
Continuous
 62
     7
370
    15
100
AcDbLine
 10
174.6944110963
 20
107.6068632917
 30
0.0
 11
174.6944110963
 21
108.1119395637
 31
0.0
  0
ARC
  5
208
330
1F
100
AcDbEntity
  8
0
  6
Continuous
 62
     7
370
    15
100
AcDbCircle
 10
174.6408396677
 20
107.9856704958
 30
0.0
 40
0.3825765229522739
100
AcDbArc
 50
191.421753659
 51
278.0494669755
  0
SPLINE
  5
209
330
1F
100
AcDbEntity
  8
0
  6
Continuous
 62
     7
370
    15
100
AcDbSpline
210
0.0
220
0.0
230
1.0
 70
    24
 71
     3
 72
     9
 73
     5
 74
     0
 42
0.00000001
 43
0.00000001
 40
0.0
 40
0.0
 40
0.0
 40
0.0
 40
0.499999999837502
 40
1.0
 40
1.0
 40
1.0
 40
1.0
 10
174.2658396676839
 20
108.111939563882
 30
0.0
 10
174.2658396676839
 20
108.0741063778531
 30
0.0
 10
174.2658396676839
 20
107.9984400057705
 30
0.0
 10
174.2658396676839
 20
107.9394193718508
 30
0.0
 10
174.2658396676839
 20
107.9099090548813
 30
0.0
  0
LINE
  5
20A
330
1F
100
AcDbEntity
  8
0
  6
Continuous
 62
     7
370
    15
100
AcDbLine
 10
174.6944110963
 20
108.1119395639
 30
0.0
 11
174.2658396677
 21
108.1119395639
 31
0.0
  0
LINE
  5
20B
330
1F
100
AcDbEntity
  8
0
  6
Continuous
 62
     7
370
    15
100
AcDbLine
 10
179.3828990857
 20
115.805920189
 30
0.0
 11
174.6944110963
 21
115.8059201889
 31
0.0
  0
LINE
  5
20C
330
1F
100
AcDbEntity
  8
0
  6
Continuous
 62
     7
370
    15
100
AcDbLine
 10
175.863567874
 20
108.1119395639
 30
0.0
 11
174.6944110963
 21
108.1119395639
 31
0.0
  0
LINE
  5
20D
330
1F
100
AcDbEntity
  8
0
  6
Continuous
 62
     7
370
    15
100
AcDbLine
 10
174.6944110963
 20
108.1119395639
 30
0.0
 11
174.6944110963
 21
115.805920189
 31
0.0
  0
LINE
  5
20E
330
1F
100
AcDbEntity
  8
0
  6
Continuous
 62
     7
370
    15
100
AcDbLine
 10
175.6325391287
 20
107.6068632917
 30
0.0
 11
174.6944110963
 21
107.6068632917
 31
0.0
  0
LINE
  5
20F
330
1F
100
AcDbEntity
  8
0
  6
Continuous
 62
     7
370
    15
100
AcDbLine
 10
174.2658396677
 20
108.1119395639
 30
0.0
 11
174.2658396677
 21
115.805920189
 31
0.0
  0
LINE
  5
210
330
1F
100
AcDbEntity
  8
0
  6
Continuous
 62
     7
370
    15
100
AcDbLine
 10
179.6139278321
 20
116.3109964604
 30
0.0
 11
174.6944110963
 21
116.3109964613
 31
0.0
  0
LINE
  5
211
330
1F
100
AcDbEntity
  8
0
  6
Continuous
 62
     7
370
    15
100
AcDbLine
 10
181.5515539534
 20
108.1119395639
 30
0.0
 11
181.5515539534
 21
115.805920189
 31
0.0
  0
LINE
  5
212
330
1F
100
AcDbEntity
  8
0
  6
Continuous
 62
     7
370
    15
100
AcDbLine
 10
181.5515539534
 20
108.1119395639
 30
0.0
 11
176.6490312046
 21
108.1119395639
 31
0.0
  0
LINE
  5
213
330
1F
100
AcDbEntity
  8
0
  6
Continuous
 62
     7
370
    15
100
AcDbLine
 10
181.5515539534
 20
115.805920189
 30
0.0
 11
180.1683624164
 21
115.805920189
 31
0.0
  0
LINE
  5
214
330
1F
100
AcDbEntity
  8
0
  6
Continuous
 62
     7
370
    15
100
AcDbLine
 10
181.5515539534
 20
107.6068632916
 30
0.0
 11
181.5515539534
 21
108.1119395639
 31
0.0
  0
LINE
  5
215
330
1F
100
AcDbEntity
  8
0
  6
Continuous
 62
     7
370
    15
100
AcDbLine
 10
181.5515539534
 20
107.6068632916
 30
0.0
 11
176.4180024583
 21
107.6068632917
 31
0.0
  0
LINE
  5
216
330
1F
100
AcDbEntity
  8
0
  6
Continuous
 62
     7
370
    15
100
AcDbLine
 10
181.5515539534
 20
116.3109964613
 30
0.0
 11
180.3993911617
 21
116.3109964613
 31
0.0
  0
LINE
  5
217
330
1F
100
AcDbEntity
  8
0
  6
Continuous
 62
     7
370
    15
100
AcDbLine
 10
181.5515539534
 20
115.805920189
 30
0.0
 11
181.5515539534
 21
116.3109964613
 31
0.0
  0
LINE
  5
218
330
1F
100
AcDbEntity
  8
0
  6
Continuous
 62
     7
370
    15
100
AcDbLine
 10
180.1086577192
 20
117.3925775775
 30
0.0
 11
174.6944110963
 21
117.3925775775
 31
0.0
  0
LINE
  5
219
330
1F
100
AcDbEntity
  8
0
  6
Continuous
 62
     7
370
    15
100
AcDbLine
 10
174.6944110963
 20
116.3109964613
 30
0.0
 11
174.6944110963
 21
117.3925775773
 31
0.0
  0
ARC
  5
21A
330
1F
100
AcDbEntity
  8
0
  6
Continuous
 62
     7
370
    15
100
AcDbCircle
 10
174.6408396677
 20
117.0137703731
 30
0.0
 40
0.3825765229523552
100
AcDbArc
 50
81.9505330245
 51
168.578246341
  0
LINE
  5
21B
330
1F
100
AcDbEntity
  8
0
  6
Continuous
 62
     7
370
    15
100
AcDbLine
 10
174.2658396676
 20
116.0079506978
 30
0.0
 11
174.2658396676
 21
117.0895318138
 31
0.0
  0
LINE
  5
21C
330
1F
100
AcDbEntity
  8
0
  6
Continuous
 62
     7
370
    15
100
AcDbLine
 10
175.1378092395
 20
106.5252821749
 30
0.0
 11
174.6944110963
 21
106.5252821756
 31
0.0
  0
LINE
  5
21D
330
1F
100
AcDbEntity
  8
0
  6
Continuous
 62
     7
370
    15
100
AcDbLine
 10
174.6944110963
 20
106.5252821756
 30
0.0
 11
174.6944110963
 21
107.6068632916
 31
0.0
  0
ARC
  5
21E
330
1F
100
AcDbEntity
  8
0
  6
Continuous
 62
     7
370
    15
100
AcDbCircle
 10
174.6408396677
 20
106.9040893798
 30
0.0
 40
0.3825765229982024
100
AcDbArc
 50
191.421753645
 51
278.0494669785
  0
LINE
  5
21F
330
1F
100
AcDbEntity
  8
0
  6
Continuous
 62
     7
370
    15
100
AcDbLine
 10
174.2658396676
 20
106.8283279391
 30
0.0
 11
174.2658396676
 21
107.9099090551
 31
0.0
  0
LINE
  5
220
330
1F
100
AcDbEntity
  8
0
  6
Continuous
 62
     7
370
    15
100
AcDbLine
 10
181.5515539534
 20
106.5252821756
 30
0.0
 11
175.9232725708
 21
106.5252821756
 31
0.0
  0
LINE
  5
221
330
1F
100
AcDbEntity
  8
0
  6
Continuous
 62
     7
370
    15
100
AcDbLine
 10
181.5515539534
 20
106.5252821756
 30
0.0
 11
181.5515539534
 21
107.6068632916
 31
0.0
  0
LINE
  5
222
330
1F
100
AcDbEntity
  8
0
  6
Continuous
 62
     7
370
    15
100
AcDbLine
 10
180.8941210505
 20
117.3925775773
 30
0.0
 11
181.5515539534
 21
117.3925775773
 31
0.0
  0
LINE
  5
223
330
1F
100
AcDbEntity
  8
0
  6
Continuous
 62
     7
370
    15
100
AcDbLine
 10
181.5515539534
 20
117.3925775773
 30
0.0
 11
181.5515539534
 21
116.3109964613
 31
0.0
  0
ARC
  5
224
330
1F
100
AcDbEntity
  8
0
  6
Continuous
 62
     7
370
    15
100
AcDbCircle
 10
174.6944110963
 20
117.1732155907
 30
0.0
 40
0.4285714285714448
100
AcDbArc
 50
90.0
 51
180.0000000118
  0
LINE
  5
225
330
1F
100
AcDbEntity
  8
0
  6
Continuous
 62
     7
370
    15
100
AcDbLine
 10
174.6944110963
 20
117.3925775775
 30
0.0
 11
174.6944110963
 21
117.6017870193
 31
0.0
  0
SPLINE
  5
226
330
1F
100
AcDbEntity
  8
0
  6
Continuous
 62
     7
370
    15
100
AcDbSpline
210
0.0
220
0.0
230
1.0
 70
    24
 71
     3
 72
     9
 73
     5
 74
     0
 42
0.00000001
 43
0.00000001
 40
0.0
 40
0.0
 40
0.0
 40
0.0
 40
0.499999999837504
 40
1.0
 40
1.0
 40
1.0
 40
1.0
 10
174.2658396676839
 20
117.1732155907401
 30
0.0
 10
174.2658396676839
 20
117.1693148863065
 30
0.0
 10
174.2658396676839
 20
117.1615134774368
 30
0.0
 10
174.2658396676839
 20
117.1135257017393
 30
0.0
 10
174.2658396676839
 20
117.0895318138827
 30
0.0
  0
LINE
  5
227
330
1F
100
AcDbEntity
  8
0
  6
Continuous
 62
     7
370
    15
100
AcDbLine
 10
174.6944110963
 20
106.3160727336
 30
0.0
 11
174.6944110963
 21
106.5252821757
 31
0.0
  0
ARC
  5
228
330
1F
100
AcDbEntity
  8
0
  6
Continuous
 62
     7
370
    15
100
AcDbCircle
 10
174.6944110963
 20
106.7446441622
 30
0.0
 40
0.4285714285714448
100
AcDbArc
 50
179.9999999995
 51
270.0
  0
SPLINE
  5
229
330
1F
100
AcDbEntity
  8
0
  6
Continuous
 62
     7
370
    15
100
AcDbSpline
210
0.0
220
0.0
230
1.0
 70
    24
 71
     3
 72
     9
 73
     5
 74
     0
 42
0.00000001
 43
0.00000001
 40
0.0
 40
0.0
 40
0.0
 40
0.0
 40
0.5000000001625089
 40
1.0
 40
1.0
 40
1.0
 40
1.0
 10
174.2658396676839
 20
106.8283279390249
 30
0.0
 10
174.2658396676839
 20
106.8043340511684
 30
0.0
 10
174.2658396676839
 20
106.756346275471
 30
0.0
 10
174.2658396676839
 20
106.7485448666013
 30
0.0
 10
174.2658396676839
 20
106.7446441621677
 30
0.0
  0
LINE
  5
22A
330
1F
100
AcDbEntity
  8
0
  6
Continuous
 62
     7
370
    15
100
AcDbLine
 10
180.2043529608
 20
117.6017870209
 30
0.0
 11
174.6944110963
 21
117.6017870193
 31
0.0
  0
LINE
  5
22B
330
1F
100
AcDbEntity
  8
0
  6
Continuous
 62
     7
370
    15
100
AcDbLine
 10
175.0421140003
 20
106.3160727335
 30
0.0
 11
174.6944110963
 21
106.3160727336
 31
0.0
  0
LINE
  5
22C
330
1F
100
AcDbEntity
  8
0
  6
Continuous
 62
     7
370
    15
100
AcDbLine
 10
180.9898162894
 20
117.6017870185
 30
0.0
 11
181.5515539534
 21
117.6017870193
 31
0.0
  0
LINE
  5
22D
330
1F
100
AcDbEntity
  8
0
  6
Continuous
 62
     7
370
    15
100
AcDbLine
 10
181.5515539534
 20
117.3925775773
 30
0.0
 11
181.5515539534
 21
117.6017870193
 31
0.0
  0
LINE
  5
22E
330
1F
100
AcDbEntity
  8
0
  6
Continuous
 62
     7
370
    15
100
AcDbLine
 10
181.5515539534
 20
106.3160727336
 30
0.0
 11
175.8275773317
 21
106.3160727344
 31
0.0
  0
LINE
  5
22F
330
1F
100
AcDbEntity
  8
0
  6
Continuous
 62
     7
370
    15
100
AcDbLine
 10
181.5515539534
 20
106.3160727336
 30
0.0
 11
181.5515539534
 21
106.5252821756
 31
0.0
  0
ARC
  5
230
330
1F
100
AcDbEntity
  8
0
  6
Continuous
 62
     7
370
    15
100
AcDbCircle
 10
192.8372682391
 20
112.0303584479
 30
0.0
 40
15.28571428571428
100
AcDbArc
 50
0.0
 51
83.2912487993
  0
ARC
  5
231
330
1F
100
AcDbEntity
  8
0
  6
Continuous
 62
     7
370
    15
100
AcDbCircle
 10
192.8372682391
 20
112.0303584479
 30
0.0
 40
15.2857142857143
100
AcDbArc
 50
96.7087512007
 51
158.6240474557
  0
ARC
  5
232
330
1F
100
AcDbEntity
  8
0
  6
Continuous
 62
     7
370
    15
100
AcDbCircle
 10
192.8372682391
 20
112.0303584479
 30
0.0
 40
15.2857142857143
100
AcDbArc
 50
201.9521278352
 51
212.7412630784
  0
ARC
  5
233
330
1F
100
AcDbEntity
  8
0
  6
Continuous
 62
     7
370
    15
100
AcDbCircle
 10
192.8372682391
 20
112.0303584479
 30
0.0
 40
15.28571428571428
100
AcDbArc
 50
327.2587369216
 51
0.0
  0
LINE
  5
234
330
1F
100
AcDbEntity
  8
0
  6
Continuous
 62
     7
370
    15
100
AcDbLine
 10
187.2658396677
 20
131.1732155907
 30
0.0
 11
191.0515539534
 21
131.1732155907
 31
0.0
  0
LINE
  5
235
330
1F
100
AcDbEntity
  8
0
  6
Continuous
 62
     7
370
    15
100
AcDbLine
 10
194.6229825248
 20
131.1732155907
 30
0.0
 11
198.4086968105
 21
131.1732155907
 31
0.0
  0
LINE
  5
236
330
1F
100
AcDbEntity
  8
0
  6
Continuous
 62
     7
370
    15
100
AcDbLine
 10
187.2658396677
 20
128.5444217188
 30
0.0
 11
187.2658396677
 21
131.1732155907
 31
0.0
  0
LINE
  5
237
330
1F
100
AcDbEntity
  8
0
  6
Continuous
 62
     7
370
    15
100
AcDbLine
 10
198.4086968105
 20
131.1732155907
 30
0.0
 11
198.4086968105
 21
128.5444217188
 31
0.0
  0
ARC
  5
238
330
1F
100
AcDbEntity
  8
0
  6
Continuous
 62
     7
370
    15
100
AcDbCircle
 10
192.8372682391
 20
112.0303584479
 30
0.0
 40
17.42857142857143
100
AcDbArc
 50
317.5362750483
 51
71.3569020691
  0
ARC
  5
239
330
1F
100
AcDbEntity
  8
0
  6
Continuous
 62
     7
370
    15
100
AcDbCircle
 10
192.8372682391
 20
112.0303584479
 30
0.0
 40
17.42857142857144
100
AcDbArc
 50
199.139474451
 51
222.4637249517
  0
ARC
  5
23A
330
1F
100
AcDbEntity
  8
0
  6
Continuous
 62
     7
370
    15
100
AcDbCircle
 10
192.8372682391
 20
112.0303584479
 30
0.0
 40
17.42857142857142
100
AcDbArc
 50
108.6430979309
 51
161.3569020691
  0
LINE
  5
23B
330
1F
100
AcDbEntity
  8
0
  6
Continuous
 62
     7
370
    15
100
AcDbLine
 10
189.8372682391
 20
133.7446441622
 30
0.0
 11
195.8372682391
 21
133.7446441622
 31
0.0
  0
LINE
  5
23C
330
1F
100
AcDbEntity
  8
0
  6
Continuous
 62
     7
370
    15
100
AcDbLine
 10
190.7658396677
 20
133.4958341978
 30
0.0
 11
194.9086968105
 21
133.4958341978
 31
0.0
  0
LINE
  5
23D
330
1F
100
AcDbEntity
  8
0
  6
Continuous
 62
     7
370
    15
100
AcDbLine
 10
189.8372682391
 20
134.1732155907
 30
0.0
 11
195.8372682391
 21
134.1732155907
 31
0.0
  0
CIRCLE
  5
23E
330
1F
100
AcDbEntity
  8
0
  6
Continuous
 62
     7
370
    15
100
AcDbCircle
 10
192.8372682391
 20
112.0303584479
 30
0.0
 40
9.921500000000009
  0
SPLINE
  5
23F
330
1F
100
AcDbEntity
  8
0
  6
Continuous
 62
     7
370
    15
100
AcDbSpline
210
0.0
220
0.0
230
1.0
 70
    24
 71
     1
 72
     4
 73
     2
 74
     0
 42
0.00000001
 43
0.00000001
 40
0.0
 40
0.0
 40
1.0
 40
1.0
 10
203.4136961702134
 20
111.843898355132
 30
0.0
 10
203.4136961469237
 20
112.2168198616688
 30
0.0
  0
SPLINE
  5
240
330
1F
100
AcDbEntity
  8
0
  6
Continuous
 62
     7
370
    15
100
AcDbSpline
210
0.0
220
0.0
230
1.0
 70
    24
 71
     1
 72
     4
 73
     2
 74
     0
 42
0.00000001
 43
0.00000001
 40
0.0
 40
0.0
 40
1.0
 40
1.0
 10
203.4135820167373
 20
111.8375320358355
 30
0.0
 10
203.4136961702134
 20
111.843898355132
 30
0.0
  0
SPLINE
  5
241
330
1F
100
AcDbEntity
  8
0
  6
Continuous
 62
     7
370
    15
100
AcDbSpline
210
0.0
220
0.0
230
1.0
 70
    24
 71
     1
 72
     4
 73
     2
 74
     0
 42
0.00000001
 43
0.00000001
 40
0.0
 40
0.0
 40
1.0
 40
1.0
 10
203.3582481178808
 20
110.9328190512193
 30
0.0
 10
203.4135828996286
 20
111.8375320395342
 30
0.0
  0
SPLINE
  5
242
330
1F
100
AcDbEntity
  8
0
  6
Continuous
 62
     7
370
    15
100
AcDbSpline
210
0.0
220
0.0
230
1.0
 70
    24
 71
     1
 72
     4
 73
     2
 74
     0
 42
0.00000001
 43
0.00000001
 40
0.0
 40
0.0
 40
1.0
 40
1.0
 10
203.3575847081637
 20
110.9264850226338
 30
0.0
 10
203.3582474054919
 20
110.9328191417206
 30
0.0
  0
SPLINE
  5
243
330
1F
100
AcDbEntity
  8
0
  6
Continuous
 62
     7
370
    15
100
AcDbSpline
210
0.0
220
0.0
230
1.0
 70
    24
 71
     1
 72
     4
 73
     2
 74
     0
 42
0.00000001
 43
0.00000001
 40
0.0
 40
0.0
 40
1.0
 40
1.0
 10
203.3121374299224
 20
110.5563467167957
 30
0.0
 10
203.3575847081637
 20
110.9264850226338
 30
0.0
  0
SPLINE
  5
244
330
1F
100
AcDbEntity
  8
0
  6
Continuous
 62
     7
370
    15
100
AcDbSpline
210
0.0
220
0.0
230
1.0
 70
    24
 71
     1
 72
     4
 73
     2
 74
     0
 42
0.00000001
 43
0.00000001
 40
0.0
 40
0.0
 40
1.0
 40
1.0
 10
203.3112481402266
 20
110.5500408539116
 30
0.0
 10
203.3121374299224
 20
110.5563467167957
 30
0.0
  0
SPLINE
  5
245
330
1F
100
AcDbEntity
  8
0
  6
Continuous
 62
     7
370
    15
100
AcDbSpline
210
0.0
220
0.0
230
1.0
 70
    24
 71
     1
 72
     4
 73
     2
 74
     0
 42
0.00000001
 43
0.00000001
 40
0.0
 40
0.0
 40
1.0
 40
1.0
 10
203.1460751393095
 20
109.65881383388
 30
0.0
 10
203.311255703519
 20
110.5500398713148
 30
0.0
  0
SPLINE
  5
246
330
1F
100
AcDbEntity
  8
0
  6
Continuous
 62
     7
370
    15
100
AcDbSpline
210
0.0
220
0.0
230
1.0
 70
    24
 71
     1
 72
     4
 73
     2
 74
     0
 42
0.00000001
 43
0.00000001
 40
0.0
 40
0.0
 40
1.0
 40
1.0
 10
203.1446395350101
 20
109.6526090673825
 30
0.0
 10
203.1460692392734
 20
109.6588152610433
 30
0.0
  0
SPLINE
  5
247
330
1F
100
AcDbEntity
  8
0
  6
Continuous
 62
     7
370
    15
100
AcDbSpline
210
0.0
220
0.0
230
1.0
 70
    24
 71
     1
 72
     4
 73
     2
 74
     0
 42
0.00000001
 43
0.00000001
 40
0.0
 40
0.0
 40
1.0
 40
1.0
 10
203.0544235310878
 20
109.2907721857576
 30
0.0
 10
203.1446395350101
 20
109.6526090673825
 30
0.0
  0
SPLINE
  5
248
330
1F
100
AcDbEntity
  8
0
  6
Continuous
 62
     7
370
    15
100
AcDbSpline
210
0.0
220
0.0
230
1.0
 70
    24
 71
     1
 72
     4
 73
     2
 74
     0
 42
0.00000001
 43
0.00000001
 40
0.0
 40
0.0
 40
1.0
 40
1.0
 10
203.0527713556014
 20
109.2846178874933
 30
0.0
 10
203.0544235310878
 20
109.2907721857576
 30
0.0
  0
SPLINE
  5
249
330
1F
100
AcDbEntity
  8
0
  6
Continuous
 62
     7
370
    15
100
AcDbSpline
210
0.0
220
0.0
230
1.0
 70
    24
 71
     1
 72
     4
 73
     2
 74
     0
 42
0.00000001
 43
0.00000001
 40
0.0
 40
0.0
 40
1.0
 40
1.0
 10
202.7802175005489
 20
108.4201629929505
 30
0.0
 10
203.0527765708437
 20
109.2846165482668
 30
0.0
  0
SPLINE
  5
24A
330
1F
100
AcDbEntity
  8
0
  6
Continuous
 62
     7
370
    15
100
AcDbSpline
210
0.0
220
0.0
230
1.0
 70
    24
 71
     1
 72
     4
 73
     2
 74
     0
 42
0.00000001
 43
0.00000001
 40
0.0
 40
0.0
 40
1.0
 40
1.0
 10
202.7780354836101
 20
108.4141806675893
 30
0.0
 10
202.780210593753
 20
108.4201655887325
 30
0.0
  0
SPLINE
  5
24B
330
1F
100
AcDbEntity
  8
0
  6
Continuous
 62
     7
370
    15
100
AcDbSpline
210
0.0
220
0.0
230
1.0
 70
    24
 71
     1
 72
     4
 73
     2
 74
     0
 42
0.00000001
 43
0.00000001
 40
0.0
 40
0.0
 40
1.0
 40
1.0
 10
202.6443942907168
 20
108.0660333154157
 30
0.0
 10
202.7780354836101
 20
108.4141806675893
 30
0.0
  0
SPLINE
  5
24C
330
1F
100
AcDbEntity
  8
0
  6
Continuous
 62
     7
370
    15
100
AcDbSpline
210
0.0
220
0.0
230
1.0
 70
    24
 71
     1
 72
     4
 73
     2
 74
     0
 42
0.00000001
 43
0.00000001
 40
0.0
 40
0.0
 40
1.0
 40
1.0
 10
202.6420049658748
 20
108.0601276149407
 30
0.0
 10
202.6443942907168
 20
108.0660333154157
 30
0.0
  0
SPLINE
  5
24D
330
1F
100
AcDbEntity
  8
0
  6
Continuous
 62
     7
370
    15
100
AcDbSpline
210
0.0
220
0.0
230
1.0
 70
     8
 71
     3
 72
     9
 73
     5
 74
     0
 42
0.00000001
 43
0.00000001
 40
0.0
 40
0.0
 40
0.0
 40
0.0
 40
0.9072273498426258
 40
0.9999999999999999
 40
0.9999999999999999
 40
0.9999999999999999
 40
0.9999999999999999
 10
202.2661279061531
 20
107.2353342847482
 30
0.0
 10
202.3856819519957
 20
107.4822002690273
 30
0.0
 10
202.5174615393983
 20
107.7543106549432
 30
0.0
 10
202.631431863575
 20
108.0341647252425
 30
0.0
 10
202.6420051925882
 20
108.0601275290015
 30
0.0
  0
SPLINE
  5
24E
330
1F
100
AcDbEntity
  8
0
  6
Continuous
 62
     7
370
    15
100
AcDbSpline
210
0.0
220
0.0
230
1.0
 70
    24
 71
     1
 72
     4
 73
     2
 74
     0
 42
0.00000001
 43
0.00000001
 40
0.0
 40
0.0
 40
1.0
 40
1.0
 10
202.2632378304139
 20
107.2296613722668
 30
0.0
 10
202.2661255654048
 20
107.235335541953
 30
0.0
  0
SPLINE
  5
24F
330
1F
100
AcDbEntity
  8
0
  6
Continuous
 62
     7
370
    15
100
AcDbSpline
210
0.0
220
0.0
230
1.0
 70
    24
 71
     1
 72
     4
 73
     2
 74
     0
 42
0.00000001
 43
0.00000001
 40
0.0
 40
0.0
 40
1.0
 40
1.0
 10
202.0881617748799
 20
106.9003912025815
 30
0.0
 10
202.2632378304139
 20
107.2296613722668
 30
0.0
  0
SPLINE
  5
250
330
1F
100
AcDbEntity
  8
0
  6
Continuous
 62
     7
370
    15
100
AcDbSpline
210
0.0
220
0.0
230
1.0
 70
    24
 71
     1
 72
     4
 73
     2
 74
     0
 42
0.00000001
 43
0.00000001
 40
0.0
 40
0.0
 40
1.0
 40
1.0
 10
202.0850725070001
 20
106.8948242623471
 30
0.0
 10
202.0881617748799
 20
106.9003912025815
 30
0.0
  0
SPLINE
  5
251
330
1F
100
AcDbEntity
  8
0
  6
Continuous
 62
     7
370
    15
100
AcDbSpline
210
0.0
220
0.0
230
1.0
 70
    24
 71
     1
 72
     4
 73
     2
 74
     0
 42
0.00000001
 43
0.00000001
 40
0.0
 40
0.0
 40
1.0
 40
1.0
 10
201.6114782823947
 20
106.1219880021298
 30
0.0
 10
202.0850750961106
 20
106.8948228622755
 30
0.0
  0
SPLINE
  5
252
330
1F
100
AcDbEntity
  8
0
  6
Continuous
 62
     7
370
    15
100
AcDbSpline
210
0.0
220
0.0
230
1.0
 70
    24
 71
     1
 72
     4
 73
     2
 74
     0
 42
0.00000001
 43
0.00000001
 40
0.0
 40
0.0
 40
1.0
 40
1.0
 10
201.6079191594334
 20
106.1167066504025
 30
0.0
 10
201.61147797116
 20
106.1219882220074
 30
0.0
  0
SPLINE
  5
253
330
1F
100
AcDbEntity
  8
0
  6
Continuous
 62
     7
370
    15
100
AcDbSpline
210
0.0
220
0.0
230
1.0
 70
    24
 71
     1
 72
     4
 73
     2
 74
     0
 42
0.00000001
 43
0.00000001
 40
0.0
 40
0.0
 40
1.0
 40
1.0
 10
201.1466946960978
 20
105.4844416210416
 30
0.0
 10
201.6079191594334
 20
106.1167066504025
 30
0.0
  0
SPLINE
  5
254
330
1F
100
AcDbEntity
  8
0
  6
Continuous
 62
     7
370
    15
100
AcDbSpline
210
0.0
220
0.0
230
1.0
 70
    24
 71
     1
 72
     4
 73
     2
 74
     0
 42
0.00000001
 43
0.00000001
 40
0.0
 40
0.0
 40
1.0
 40
1.0
 10
201.1466946960978
 20
105.4844416210416
 30
0.0
 10
201.1427496891522
 20
105.4794369072889
 30
0.0
  0
SPLINE
  5
255
330
1F
100
AcDbEntity
  8
0
  6
Continuous
 62
     7
370
    15
100
AcDbSpline
210
0.0
220
0.0
230
1.0
 70
     8
 71
     3
 72
     9
 73
     5
 74
     0
 42
0.00000001
 43
0.00000001
 40
0.0
 40
0.0
 40
0.0
 40
0.0
 40
0.5000000159081426
 40
1.0
 40
1.0
 40
1.0
 40
1.0
 10
199.3881920644383
 20
103.7248740139515
 30
0.0
 10
199.7064298712513
 20
103.9914897526479
 30
0.0
 10
200.3429054646272
 20
104.5247212130751
 30
0.0
 10
200.876136237587
 20
105.1611973822244
 30
0.0
 10
201.1427516155843
 20
105.4794354566739
 30
0.0
  0
SPLINE
  5
256
330
1F
100
AcDbEntity
  8
0
  6
Continuous
 62
     7
370
    15
100
AcDbSpline
210
0.0
220
0.0
230
1.0
 70
    24
 71
     1
 72
     4
 73
     2
 74
     0
 42
0.00000001
 43
0.00000001
 40
0.0
 40
0.0
 40
1.0
 40
1.0
 10
199.388189770387
 20
103.7248769904924
 30
0.0
 10
199.3831881194449
 20
103.720934396347
 30
0.0
  0
SPLINE
  5
257
330
1F
100
AcDbEntity
  8
0
  6
Continuous
 62
     7
370
    15
100
AcDbSpline
210
0.0
220
0.0
230
1.0
 70
    24
 71
     1
 72
     4
 73
     2
 74
     0
 42
0.00000001
 43
0.00000001
 40
0.0
 40
0.0
 40
1.0
 40
1.0
 10
198.7509205644154
 20
103.2597078834484
 30
0.0
 10
199.3831881194449
 20
103.720934396347
 30
0.0
  0
SPLINE
  5
258
330
1F
100
AcDbEntity
  8
0
  6
Continuous
 62
     7
370
    15
100
AcDbSpline
210
0.0
220
0.0
230
1.0
 70
    24
 71
     1
 72
     4
 73
     2
 74
     0
 42
0.00000001
 43
0.00000001
 40
0.0
 40
0.0
 40
1.0
 40
1.0
 10
198.7509205644154
 20
103.2597078834484
 30
0.0
 10
198.7456384734793
 20
103.2561487215529
 30
0.0
  0
SPLINE
  5
259
330
1F
100
AcDbEntity
  8
0
  6
Continuous
 62
     7
370
    15
100
AcDbSpline
210
0.0
220
0.0
230
1.0
 70
    24
 71
     1
 72
     4
 73
     2
 74
     0
 42
0.00000001
 43
0.00000001
 40
0.0
 40
0.0
 40
1.0
 40
1.0
 10
197.9728031972335
 20
102.7825527208959
 30
0.0
 10
198.7456384291654
 20
103.2561487842787
 30
0.0
  0
SPLINE
  5
25A
330
1F
100
AcDbEntity
  8
0
  6
Continuous
 62
     7
370
    15
100
AcDbSpline
210
0.0
220
0.0
230
1.0
 70
    24
 71
     1
 72
     4
 73
     2
 74
     0
 42
0.00000001
 43
0.00000001
 40
0.0
 40
0.0
 40
1.0
 40
1.0
 10
197.9728024282016
 20
102.7825541819681
 30
0.0
 10
197.967235252748
 20
102.7794647836477
 30
0.0
  0
SPLINE
  5
25B
330
1F
100
AcDbEntity
  8
0
  6
Continuous
 62
     7
370
    15
100
AcDbSpline
210
0.0
220
0.0
230
1.0
 70
    24
 71
     1
 72
     4
 73
     2
 74
     0
 42
0.00000001
 43
0.00000001
 40
0.0
 40
0.0
 40
1.0
 40
1.0
 10
197.6379652668337
 20
102.6043888321879
 30
0.0
 10
197.967235252748
 20
102.7794647836477
 30
0.0
  0
SPLINE
  5
25C
330
1F
100
AcDbEntity
  8
0
  6
Continuous
 62
     7
370
    15
100
AcDbSpline
210
0.0
220
0.0
230
1.0
 70
    24
 71
     1
 72
     4
 73
     2
 74
     0
 42
0.00000001
 43
0.00000001
 40
0.0
 40
0.0
 40
1.0
 40
1.0
 10
197.6379652668337
 20
102.6043888321879
 30
0.0
 10
197.6322911581306
 20
102.6015011282461
 30
0.0
  0
SPLINE
  5
25D
330
1F
100
AcDbEntity
  8
0
  6
Continuous
 62
     7
370
    15
100
AcDbSpline
210
0.0
220
0.0
230
1.0
 70
     8
 71
     3
 72
     9
 73
     5
 74
     0
 42
0.00000001
 43
0.00000001
 40
0.0
 40
0.0
 40
0.0
 40
0.0
 40
0.0927726482490764
 40
1.0
 40
1.0
 40
1.0
 40
1.0
 10
196.8074994865465
 20
102.2256206830698
 30
0.0
 10
196.8334621747652
 20
102.2361942969915
 30
0.0
 10
197.1133150054083
 20
102.3501676945521
 30
0.0
 10
197.3854262505536
 20
102.481945314812
 30
0.0
 10
197.6322930148685
 20
102.6014975762605
 30
0.0
  0
SPLINE
  5
25E
330
1F
100
AcDbEntity
  8
0
  6
Continuous
 62
     7
370
    15
100
AcDbSpline
210
0.0
220
0.0
230
1.0
 70
    24
 71
     1
 72
     4
 73
     2
 74
     0
 42
0.00000001
 43
0.00000001
 40
0.0
 40
0.0
 40
1.0
 40
1.0
 10
196.8074990902629
 20
102.2256217284931
 30
0.0
 10
196.8015952692969
 20
102.2232331633907
 30
0.0
  0
SPLINE
  5
25F
330
1F
100
AcDbEntity
  8
0
  6
Continuous
 62
     7
370
    15
100
AcDbSpline
210
0.0
220
0.0
230
1.0
 70
    24
 71
     1
 72
     4
 73
     2
 74
     0
 42
0.00000001
 43
0.00000001
 40
0.0
 40
0.0
 40
1.0
 40
1.0
 10
196.4534463076412
 20
102.0895913082367
 30
0.0
 10
196.8015952692969
 20
102.2232331633907
 30
0.0
  0
SPLINE
  5
260
330
1F
100
AcDbEntity
  8
0
  6
Continuous
 62
     7
370
    15
100
AcDbSpline
210
0.0
220
0.0
230
1.0
 70
    24
 71
     1
 72
     4
 73
     2
 74
     0
 42
0.00000001
 43
0.00000001
 40
0.0
 40
0.0
 40
1.0
 40
1.0
 10
196.4534463076412
 20
102.0895913082367
 30
0.0
 10
196.4474610947084
 20
102.0874160919512
 30
0.0
  0
SPLINE
  5
261
330
1F
100
AcDbEntity
  8
0
  6
Continuous
 62
     7
370
    15
100
AcDbSpline
210
0.0
220
0.0
230
1.0
 70
    24
 71
     1
 72
     4
 73
     2
 74
     0
 42
0.00000001
 43
0.00000001
 40
0.0
 40
0.0
 40
1.0
 40
1.0
 10
195.5830104183437
 20
101.814849075818
 30
0.0
 10
196.4474638072629
 20
102.0874088744862
 30
0.0
  0
SPLINE
  5
262
330
1F
100
AcDbEntity
  8
0
  6
Continuous
 62
     7
370
    15
100
AcDbSpline
210
0.0
220
0.0
230
1.0
 70
    24
 71
     1
 72
     4
 73
     2
 74
     0
 42
0.00000001
 43
0.00000001
 40
0.0
 40
0.0
 40
1.0
 40
1.0
 10
195.5830088111579
 20
101.8148553345261
 30
0.0
 10
195.5768578575914
 20
101.8132040558665
 30
0.0
  0
SPLINE
  5
263
330
1F
100
AcDbEntity
  8
0
  6
Continuous
 62
     7
370
    15
100
AcDbSpline
210
0.0
220
0.0
230
1.0
 70
    24
 71
     1
 72
     4
 73
     2
 74
     0
 42
0.00000001
 43
0.00000001
 40
0.0
 40
0.0
 40
1.0
 40
1.0
 10
195.2150212168593
 20
101.7229879818138
 30
0.0
 10
195.5768578575914
 20
101.8132040558665
 30
0.0
  0
SPLINE
  5
264
330
1F
100
AcDbEntity
  8
0
  6
Continuous
 62
     7
370
    15
100
AcDbSpline
210
0.0
220
0.0
230
1.0
 70
    24
 71
     1
 72
     4
 73
     2
 74
     0
 42
0.00000001
 43
0.00000001
 40
0.0
 40
0.0
 40
1.0
 40
1.0
 10
195.2150212168593
 20
101.7229879818138
 30
0.0
 10
195.2088114387242
 20
101.7215574506595
 30
0.0
  0
SPLINE
  5
265
330
1F
100
AcDbEntity
  8
0
  6
Continuous
 62
     7
370
    15
100
AcDbSpline
210
0.0
220
0.0
230
1.0
 70
    24
 71
     1
 72
     4
 73
     2
 74
     0
 42
0.00000001
 43
0.00000001
 40
0.0
 40
0.0
 40
1.0
 40
1.0
 10
194.3175867482526
 20
101.5563714602464
 30
0.0
 10
195.2088125911172
 20
101.7215526865693
 30
0.0
  0
SPLINE
  5
266
330
1F
100
AcDbEntity
  8
0
  6
Continuous
 62
     7
370
    15
100
AcDbSpline
210
0.0
220
0.0
230
1.0
 70
    24
 71
     1
 72
     4
 73
     2
 74
     0
 42
0.00000001
 43
0.00000001
 40
0.0
 40
0.0
 40
1.0
 40
1.0
 10
194.3175858276838
 20
101.5563785460049
 30
0.0
 10
194.3112805315613
 20
101.5554893360664
 30
0.0
  0
SPLINE
  5
267
330
1F
100
AcDbEntity
  8
0
  6
Continuous
 62
     7
370
    15
100
AcDbSpline
210
0.0
220
0.0
230
1.0
 70
    24
 71
     1
 72
     4
 73
     2
 74
     0
 42
0.00000001
 43
0.00000001
 40
0.0
 40
0.0
 40
1.0
 40
1.0
 10
193.9411430526837
 20
101.5100421245045
 30
0.0
 10
194.3112805315613
 20
101.5554893360664
 30
0.0
  0
SPLINE
  5
268
330
1F
100
AcDbEntity
  8
0
  6
Continuous
 62
     7
370
    15
100
AcDbSpline
210
0.0
220
0.0
230
1.0
 70
    24
 71
     1
 72
     4
 73
     2
 74
     0
 42
0.00000001
 43
0.00000001
 40
0.0
 40
0.0
 40
1.0
 40
1.0
 10
193.9411430526837
 20
101.5100421245045
 30
0.0
 10
193.9348075605589
 20
101.5093792830971
 30
0.0
  0
SPLINE
  5
269
330
1F
100
AcDbEntity
  8
0
  6
Continuous
 62
     7
370
    15
100
AcDbSpline
210
0.0
220
0.0
230
1.0
 70
    24
 71
     1
 72
     4
 73
     2
 74
     0
 42
0.00000001
 43
0.00000001
 40
0.0
 40
0.0
 40
1.0
 40
1.0
 10
193.0300946703699
 20
101.4540425289745
 30
0.0
 10
193.9348075647289
 20
101.5093792502732
 30
0.0
  0
SPLINE
  5
26A
330
1F
100
AcDbEntity
  8
0
  6
Continuous
 62
     7
370
    15
100
AcDbSpline
210
0.0
220
0.0
230
1.0
 70
    24
 71
     1
 72
     4
 73
     2
 74
     0
 42
0.00000001
 43
0.00000001
 40
0.0
 40
0.0
 40
1.0
 40
1.0
 10
193.0300946793428
 20
101.454044670771
 30
0.0
 10
193.0237288952174
 20
101.453930526713
 30
0.0
  0
SPLINE
  5
26B
330
1F
100
AcDbEntity
  8
0
  6
Continuous
 62
     7
370
    15
100
AcDbSpline
210
0.0
220
0.0
230
1.0
 70
    24
 71
     1
 72
     4
 73
     2
 74
     0
 42
0.00000001
 43
0.00000001
 40
0.0
 40
0.0
 40
1.0
 40
1.0
 10
192.6508074266858
 20
101.4539305294689
 30
0.0
 10
193.0237288952174
 20
101.453930526713
 30
0.0
  0
SPLINE
  5
26C
330
1F
100
AcDbEntity
  8
0
  6
Continuous
 62
     7
370
    15
100
AcDbSpline
210
0.0
220
0.0
230
1.0
 70
    24
 71
     1
 72
     4
 73
     2
 74
     0
 42
0.00000001
 43
0.00000001
 40
0.0
 40
0.0
 40
1.0
 40
1.0
 10
192.6444418079731
 20
101.4540446706053
 30
0.0
 10
192.6508074266858
 20
101.4539305294689
 30
0.0
  0
SPLINE
  5
26D
330
1F
100
AcDbEntity
  8
0
  6
Continuous
 62
     7
370
    15
100
AcDbSpline
210
0.0
220
0.0
230
1.0
 70
    24
 71
     1
 72
     4
 73
     2
 74
     0
 42
0.00000001
 43
0.00000001
 40
0.0
 40
0.0
 40
1.0
 40
1.0
 10
191.7397288424497
 20
101.5093785691137
 30
0.0
 10
192.6444417835519
 20
101.4540411941364
 30
0.0
  0
SPLINE
  5
26E
330
1F
100
AcDbEntity
  8
0
  6
Continuous
 62
     7
370
    15
100
AcDbSpline
210
0.0
220
0.0
230
1.0
 70
    24
 71
     1
 72
     4
 73
     2
 74
     0
 42
0.00000001
 43
0.00000001
 40
0.0
 40
0.0
 40
1.0
 40
1.0
 10
191.7333948138642
 20
101.5100419788308
 30
0.0
 10
191.739728932951
 20
101.5093792815026
 30
0.0
  0
SPLINE
  5
26F
330
1F
100
AcDbEntity
  8
0
  6
Continuous
 62
     7
370
    15
100
AcDbSpline
210
0.0
220
0.0
230
1.0
 70
    24
 71
     1
 72
     4
 73
     2
 74
     0
 42
0.00000001
 43
0.00000001
 40
0.0
 40
0.0
 40
1.0
 40
1.0
 10
191.3632565080262
 20
101.5554892570721
 30
0.0
 10
191.7333948138642
 20
101.5100419788308
 30
0.0
  0
SPLINE
  5
270
330
1F
100
AcDbEntity
  8
0
  6
Continuous
 62
     7
370
    15
100
AcDbSpline
210
0.0
220
0.0
230
1.0
 70
    24
 71
     1
 72
     4
 73
     2
 74
     0
 42
0.00000001
 43
0.00000001
 40
0.0
 40
0.0
 40
1.0
 40
1.0
 10
191.356950645142
 20
101.556378546768
 30
0.0
 10
191.3632565080262
 20
101.5554892570721
 30
0.0
  0
SPLINE
  5
271
330
1F
100
AcDbEntity
  8
0
  6
Continuous
 62
     7
370
    15
100
AcDbSpline
210
0.0
220
0.0
230
1.0
 70
    24
 71
     1
 72
     4
 73
     2
 74
     0
 42
0.00000001
 43
0.00000001
 40
0.0
 40
0.0
 40
1.0
 40
1.0
 10
190.4657236251103
 20
101.721551547685
 30
0.0
 10
191.3569496625452
 20
101.5563709834755
 30
0.0
  0
SPLINE
  5
272
330
1F
100
AcDbEntity
  8
0
  6
Continuous
 62
     7
370
    15
100
AcDbSpline
210
0.0
220
0.0
230
1.0
 70
    24
 71
     1
 72
     4
 73
     2
 74
     0
 42
0.00000001
 43
0.00000001
 40
0.0
 40
0.0
 40
1.0
 40
1.0
 10
190.4595188586129
 20
101.7229871519844
 30
0.0
 10
190.4657250522736
 20
101.7215574477212
 30
0.0
  0
SPLINE
  5
273
330
1F
100
AcDbEntity
  8
0
  6
Continuous
 62
     7
370
    15
100
AcDbSpline
210
0.0
220
0.0
230
1.0
 70
    24
 71
     1
 72
     4
 73
     2
 74
     0
 42
0.00000001
 43
0.00000001
 40
0.0
 40
0.0
 40
1.0
 40
1.0
 10
190.0976819769881
 20
101.8132031559067
 30
0.0
 10
190.4595188586129
 20
101.7229871519844
 30
0.0
  0
SPLINE
  5
274
330
1F
100
AcDbEntity
  8
0
  6
Continuous
 62
     7
370
    15
100
AcDbSpline
210
0.0
220
0.0
230
1.0
 70
    24
 71
     1
 72
     4
 73
     2
 74
     0
 42
0.00000001
 43
0.00000001
 40
0.0
 40
0.0
 40
1.0
 40
1.0
 10
190.0915276787241
 20
101.814855331393
 30
0.0
 10
190.0976819769881
 20
101.8132031559067
 30
0.0
  0
SPLINE
  5
275
330
1F
100
AcDbEntity
  8
0
  6
Continuous
 62
     7
370
    15
100
AcDbSpline
210
0.0
220
0.0
230
1.0
 70
    24
 71
     1
 72
     4
 73
     2
 74
     0
 42
0.00000001
 43
0.00000001
 40
0.0
 40
0.0
 40
1.0
 40
1.0
 10
189.2270727841802
 20
102.0874091864441
 30
0.0
 10
190.0915263394976
 20
101.8148501161506
 30
0.0
  0
SPLINE
  5
276
330
1F
100
AcDbEntity
  8
0
  6
Continuous
 62
     7
370
    15
100
AcDbSpline
210
0.0
220
0.0
230
1.0
 70
    24
 71
     1
 72
     4
 73
     2
 74
     0
 42
0.00000001
 43
0.00000001
 40
0.0
 40
0.0
 40
1.0
 40
1.0
 10
189.2210904588195
 20
102.0895912033845
 30
0.0
 10
189.2270753799628
 20
102.0874160932415
 30
0.0
  0
SPLINE
  5
277
330
1F
100
AcDbEntity
  8
0
  6
Continuous
 62
     7
370
    15
100
AcDbSpline
210
0.0
220
0.0
230
1.0
 70
    24
 71
     1
 72
     4
 73
     2
 74
     0
 42
0.00000001
 43
0.00000001
 40
0.0
 40
0.0
 40
1.0
 40
1.0
 10
188.8729431066475
 20
102.2232323962772
 30
0.0
 10
189.2210904588195
 20
102.0895912033845
 30
0.0
  0
SPLINE
  5
278
330
1F
100
AcDbEntity
  8
0
  6
Continuous
 62
     7
370
    15
100
AcDbSpline
210
0.0
220
0.0
230
1.0
 70
    24
 71
     1
 72
     4
 73
     2
 74
     0
 42
0.00000001
 43
0.00000001
 40
0.0
 40
0.0
 40
1.0
 40
1.0
 10
188.8670374061715
 20
102.2256217211196
 30
0.0
 10
188.8729431066475
 20
102.2232323962772
 30
0.0
  0
SPLINE
  5
279
330
1F
100
AcDbEntity
  8
0
  6
Continuous
 62
     7
370
    15
100
AcDbSpline
210
0.0
220
0.0
230
1.0
 70
     8
 71
     3
 72
     9
 73
     5
 74
     0
 42
0.00000001
 43
0.00000001
 40
0.0
 40
0.0
 40
0.0
 40
0.0
 40
0.9072273498421962
 40
0.9999999999999999
 40
0.9999999999999999
 40
0.9999999999999999
 40
0.9999999999999999
 10
188.0422440759787
 20
102.6014987808419
 30
0.0
 10
188.2891100602583
 20
102.4819447350003
 30
0.0
 10
188.5612204461747
 20
102.3501651475988
 30
0.0
 10
188.841074516473
 20
102.2361948234189
 30
0.0
 10
188.867037320232
 20
102.2256214944053
 30
0.0
  0
SPLINE
  5
27A
330
1F
100
AcDbEntity
  8
0
  6
Continuous
 62
     7
370
    15
100
AcDbSpline
210
0.0
220
0.0
230
1.0
 70
    24
 71
     1
 72
     4
 73
     2
 74
     0
 42
0.00000001
 43
0.00000001
 40
0.0
 40
0.0
 40
1.0
 40
1.0
 10
188.036571163497
 20
102.6043888565808
 30
0.0
 10
188.0422453331834
 20
102.6015011215898
 30
0.0
  0
SPLINE
  5
27B
330
1F
100
AcDbEntity
  8
0
  6
Continuous
 62
     7
370
    15
100
AcDbSpline
210
0.0
220
0.0
230
1.0
 70
    24
 71
     1
 72
     4
 73
     2
 74
     0
 42
0.00000001
 43
0.00000001
 40
0.0
 40
0.0
 40
1.0
 40
1.0
 10
187.7073009938119
 20
102.7794649121147
 30
0.0
 10
188.036571163497
 20
102.6043888565808
 30
0.0
  0
SPLINE
  5
27C
330
1F
100
AcDbEntity
  8
0
  6
Continuous
 62
     7
370
    15
100
AcDbSpline
210
0.0
220
0.0
230
1.0
 70
    24
 71
     1
 72
     4
 73
     2
 74
     0
 42
0.00000001
 43
0.00000001
 40
0.0
 40
0.0
 40
1.0
 40
1.0
 10
187.7017340535779
 20
102.7825541799942
 30
0.0
 10
187.7073009938119
 20
102.7794649121147
 30
0.0
  0
SPLINE
  5
27D
330
1F
100
AcDbEntity
  8
0
  6
Continuous
 62
     7
370
    15
100
AcDbSpline
210
0.0
220
0.0
230
1.0
 70
    24
 71
     1
 72
     4
 73
     2
 74
     0
 42
0.00000001
 43
0.00000001
 40
0.0
 40
0.0
 40
1.0
 40
1.0
 10
186.9288977933603
 20
103.2561484046
 30
0.0
 10
187.7017326535063
 20
102.7825515908836
 30
0.0
  0
SPLINE
  5
27E
330
1F
100
AcDbEntity
  8
0
  6
Continuous
 62
     7
370
    15
100
AcDbSpline
210
0.0
220
0.0
230
1.0
 70
    24
 71
     1
 72
     4
 73
     2
 74
     0
 42
0.00000001
 43
0.00000001
 40
0.0
 40
0.0
 40
1.0
 40
1.0
 10
186.923616441633
 20
103.2597075275611
 30
0.0
 10
186.9288980132378
 20
103.2561487158346
 30
0.0
  0
SPLINE
  5
27F
330
1F
100
AcDbEntity
  8
0
  6
Continuous
 62
     7
370
    15
100
AcDbSpline
210
0.0
220
0.0
230
1.0
 70
    24
 71
     1
 72
     4
 73
     2
 74
     0
 42
0.00000001
 43
0.00000001
 40
0.0
 40
0.0
 40
1.0
 40
1.0
 10
186.2913514122717
 20
103.7209319908971
 30
0.0
 10
186.923616441633
 20
103.2597075275611
 30
0.0
  0
SPLINE
  5
280
330
1F
100
AcDbEntity
  8
0
  6
Continuous
 62
     7
370
    15
100
AcDbSpline
210
0.0
220
0.0
230
1.0
 70
    24
 71
     1
 72
     4
 73
     2
 74
     0
 42
0.00000001
 43
0.00000001
 40
0.0
 40
0.0
 40
1.0
 40
1.0
 10
186.286346698514
 20
103.7248769978467
 30
0.0
 10
186.2913514122717
 20
103.7209319908971
 30
0.0
  0
SPLINE
  5
281
330
1F
100
AcDbEntity
  8
0
  6
Continuous
 62
     7
370
    15
100
AcDbSpline
210
0.0
220
0.0
230
1.0
 70
     8
 71
     3
 72
     9
 73
     5
 74
     0
 42
0.00000001
 43
0.00000001
 40
0.0
 40
0.0
 40
0.0
 40
0.0
 40
0.5000000159095591
 40
1.0
 40
1.0
 40
1.0
 40
1.0
 10
184.5317838051815
 20
105.4794346225559
 30
0.0
 10
184.798399543878
 20
105.161196815743
 30
0.0
 10
185.3316310043041
 20
104.5247212223691
 30
0.0
 10
185.9681071734517
 20
103.9914904494108
 30
0.0
 10
186.2863452478994
 20
103.7248750714151
 30
0.0
  0
SPLINE
  5
282
330
1F
100
AcDbEntity
  8
0
  6
Continuous
 62
     7
370
    15
100
AcDbSpline
210
0.0
220
0.0
230
1.0
 70
    24
 71
     1
 72
     4
 73
     2
 74
     0
 42
0.00000001
 43
0.00000001
 40
0.0
 40
0.0
 40
1.0
 40
1.0
 10
184.5278441875775
 20
105.4844385675497
 30
0.0
 10
184.5317867817229
 20
105.4794369166075
 30
0.0
  0
SPLINE
  5
283
330
1F
100
AcDbEntity
  8
0
  6
Continuous
 62
     7
370
    15
100
AcDbSpline
210
0.0
220
0.0
230
1.0
 70
    24
 71
     1
 72
     4
 73
     2
 74
     0
 42
0.00000001
 43
0.00000001
 40
0.0
 40
0.0
 40
1.0
 40
1.0
 10
184.2244263023412
 20
105.8891412297606
 30
0.0
 10
184.5278441875775
 20
105.4844385675497
 30
0.0
  0
SPLINE
  5
284
330
1F
100
AcDbEntity
  8
0
  6
Continuous
 62
     7
370
    15
100
AcDbSpline
210
0.0
220
0.0
230
1.0
 70
    24
 71
     1
 72
     4
 73
     2
 74
     0
 42
0.00000001
 43
0.00000001
 40
0.0
 40
0.0
 40
1.0
 40
1.0
 10
184.2244263023412
 20
105.8891412297606
 30
0.0
 10
184.2207282846773
 20
105.8943308761072
 30
0.0
  0
SPLINE
  5
285
330
1F
100
AcDbEntity
  8
0
  6
Continuous
 62
     7
370
    15
100
AcDbSpline
210
0.0
220
0.0
230
1.0
 70
    24
 71
     1
 72
     4
 73
     2
 74
     0
 42
0.00000001
 43
0.00000001
 40
0.0
 40
0.0
 40
1.0
 40
1.0
 10
183.7270594055169
 20
106.6545011847134
 30
0.0
 10
184.2207243242339
 20
105.8943279882967
 30
0.0
  0
SPLINE
  5
286
330
1F
100
AcDbEntity
  8
0
  6
Continuous
 62
     7
370
    15
100
AcDbSpline
210
0.0
220
0.0
230
1.0
 70
    24
 71
     1
 72
     4
 73
     2
 74
     0
 42
0.00000001
 43
0.00000001
 40
0.0
 40
0.0
 40
1.0
 40
1.0
 10
183.7270655996187
 20
106.6545047468111
 30
0.0
 10
183.723831144394
 20
106.6599897949339
 30
0.0
  0
SPLINE
  5
287
330
1F
100
AcDbEntity
  8
0
  6
Continuous
 62
     7
370
    15
100
AcDbSpline
210
0.0
220
0.0
230
1.0
 70
    24
 71
     1
 72
     4
 73
     2
 74
     0
 42
0.00000001
 43
0.00000001
 40
0.0
 40
0.0
 40
1.0
 40
1.0
 10
183.540197914959
 20
106.9845603409715
 30
0.0
 10
183.723831144394
 20
106.6599897949339
 30
0.0
  0
SPLINE
  5
288
330
1F
100
AcDbEntity
  8
0
  6
Continuous
 62
     7
370
    15
100
AcDbSpline
210
0.0
220
0.0
230
1.0
 70
    24
 71
     1
 72
     4
 73
     2
 74
     0
 42
0.00000001
 43
0.00000001
 40
0.0
 40
0.0
 40
1.0
 40
1.0
 10
183.540197914959
 20
106.9845603409715
 30
0.0
 10
183.5371610414777
 20
106.9901599140483
 30
0.0
  0
SPLINE
  5
289
330
1F
100
AcDbEntity
  8
0
  6
Continuous
 62
     7
370
    15
100
AcDbSpline
210
0.0
220
0.0
230
1.0
 70
     8
 71
     3
 72
    15
 73
    11
 74
     0
 42
0.00000001
 43
0.00000001
 40
0.0
 40
0.0
 40
0.0
 40
0.0
 40
0.1046677138791634
 40
0.2364540286364931
 40
0.3682197207733882
 40
0.5000000016935934
 40
0.6317863164485287
 40
0.7635520085861015
 40
0.8953322895080291
 40
1.0
 40
1.0
 40
1.0
 40
1.0
 10
183.5371604106273
 20
117.0705573244366
 30
0.0
 10
183.3723729256868
 20
116.7430203514505
 30
0.0
 10
183.000102783931
 20
116.0030840910733
 30
0.0
 10
182.592099992813
 20
114.7750318685135
 30
0.0
 10
182.3192059379091
 20
113.4152383495266
 30
0.0
 10
182.2291886848121
 20
112.0303372714473
 30
0.0
 10
182.3192121683585
 20
110.645436428068
 30
0.0
 10
182.5921102297334
 20
109.2856436686189
 30
0.0
 10
183.0001123767398
 20
108.0576139181008
 30
0.0
 10
183.3723733737158
 20
107.3176967649009
 30
0.0
 10
183.5371610127478
 20
106.9901598976344
 30
0.0
  0
SPLINE
  5
28A
330
1F
100
AcDbEntity
  8
0
  6
Continuous
 62
     7
370
    15
100
AcDbSpline
210
0.0
220
0.0
230
1.0
 70
    24
 71
     1
 72
     4
 73
     2
 74
     0
 42
0.00000001
 43
0.00000001
 40
0.0
 40
0.0
 40
1.0
 40
1.0
 10
183.5401972490854
 20
117.0761553278958
 30
0.0
 10
183.5371610341554
 20
117.070556968205
 30
0.0
  0
SPLINE
  5
28B
330
1F
100
AcDbEntity
  8
0
  6
Continuous
 62
     7
370
    15
100
AcDbSpline
210
0.0
220
0.0
230
1.0
 70
    24
 71
     1
 72
     4
 73
     2
 74
     0
 42
0.00000001
 43
0.00000001
 40
0.0
 40
0.0
 40
1.0
 40
1.0
 10
183.7238308565887
 20
117.4007266124289
 30
0.0
 10
183.5401972490854
 20
117.0761553278958
 30
0.0
  0
SPLINE
  5
28C
330
1F
100
AcDbEntity
  8
0
  6
Continuous
 62
     7
370
    15
100
AcDbSpline
210
0.0
220
0.0
230
1.0
 70
    24
 71
     1
 72
     4
 73
     2
 74
     0
 42
0.00000001
 43
0.00000001
 40
0.0
 40
0.0
 40
1.0
 40
1.0
 10
183.7270656023897
 20
117.4062121536492
 30
0.0
 10
183.7238308565887
 20
117.4007266124289
 30
0.0
  0
SPLINE
  5
28D
330
1F
100
AcDbEntity
  8
0
  6
Continuous
 62
     7
370
    15
100
AcDbSpline
210
0.0
220
0.0
230
1.0
 70
    24
 71
     1
 72
     4
 73
     2
 74
     0
 42
0.00000001
 43
0.00000001
 40
0.0
 40
0.0
 40
1.0
 40
1.0
 10
184.220723372303
 20
118.1663895853547
 30
0.0
 10
183.727058990843
 20
117.4062159557964
 30
0.0
  0
SPLINE
  5
28E
330
1F
100
AcDbEntity
  8
0
  6
Continuous
 62
     7
370
    15
100
AcDbSpline
210
0.0
220
0.0
230
1.0
 70
    24
 71
     1
 72
     4
 73
     2
 74
     0
 42
0.00000001
 43
0.00000001
 40
0.0
 40
0.0
 40
1.0
 40
1.0
 10
184.2244241590721
 20
118.1715726601428
 30
0.0
 10
184.2207282770747
 20
118.166386008981
 30
0.0
  0
SPLINE
  5
28F
330
1F
100
AcDbEntity
  8
0
  6
Continuous
 62
     7
370
    15
100
AcDbSpline
210
0.0
220
0.0
230
1.0
 70
    24
 71
     1
 72
     4
 73
     2
 74
     0
 42
0.00000001
 43
0.00000001
 40
0.0
 40
0.0
 40
1.0
 40
1.0
 10
184.5278417821272
 20
118.5762752747226
 30
0.0
 10
184.2244241590721
 20
118.1715726601428
 30
0.0
  0
SPLINE
  5
290
330
1F
100
AcDbEntity
  8
0
  6
Continuous
 62
     7
370
    15
100
AcDbSpline
210
0.0
220
0.0
230
1.0
 70
    24
 71
     1
 72
     4
 73
     2
 74
     0
 42
0.00000001
 43
0.00000001
 40
0.0
 40
0.0
 40
1.0
 40
1.0
 10
184.5278417821272
 20
118.5762752747226
 30
0.0
 10
184.5317867890729
 20
118.5812799884753
 30
0.0
  0
SPLINE
  5
291
330
1F
100
AcDbEntity
  8
0
  6
Continuous
 62
     7
370
    15
100
AcDbSpline
210
0.0
220
0.0
230
1.0
 70
     8
 71
     3
 72
     9
 73
     5
 74
     0
 42
0.00000001
 43
0.00000001
 40
0.0
 40
0.0
 40
0.0
 40
0.0
 40
0.5000000159081595
 40
1.0
 40
1.0
 40
1.0
 40
1.0
 10
186.2863444137868
 20
120.3358428818128
 30
0.0
 10
185.9681066069737
 20
120.0692271431164
 30
0.0
 10
185.3316310135979
 20
119.5359956826892
 30
0.0
 10
184.798400240638
 20
118.8995195135399
 30
0.0
 10
184.5317848626407
 20
118.5812814390904
 30
0.0
  0
SPLINE
  5
292
330
1F
100
AcDbEntity
  8
0
  6
Continuous
 62
     7
370
    15
100
AcDbSpline
210
0.0
220
0.0
230
1.0
 70
    24
 71
     1
 72
     4
 73
     2
 74
     0
 42
0.00000001
 43
0.00000001
 40
0.0
 40
0.0
 40
1.0
 40
1.0
 10
186.286346707838
 20
120.3358399052719
 30
0.0
 10
186.2913483587801
 20
120.3397824994173
 30
0.0
  0
SPLINE
  5
293
330
1F
100
AcDbEntity
  8
0
  6
Continuous
 62
     7
370
    15
100
AcDbSpline
210
0.0
220
0.0
230
1.0
 70
    24
 71
     1
 72
     4
 73
     2
 74
     0
 42
0.00000001
 43
0.00000001
 40
0.0
 40
0.0
 40
1.0
 40
1.0
 10
186.9236159138096
 20
120.8010090123158
 30
0.0
 10
186.2913483587801
 20
120.3397824994173
 30
0.0
  0
SPLINE
  5
294
330
1F
100
AcDbEntity
  8
0
  6
Continuous
 62
     7
370
    15
100
AcDbSpline
210
0.0
220
0.0
230
1.0
 70
    24
 71
     1
 72
     4
 73
     2
 74
     0
 42
0.00000001
 43
0.00000001
 40
0.0
 40
0.0
 40
1.0
 40
1.0
 10
186.9236159138096
 20
120.8010090123158
 30
0.0
 10
186.9288980047457
 20
120.8045681742113
 30
0.0
  0
SPLINE
  5
295
330
1F
100
AcDbEntity
  8
0
  6
Continuous
 62
     7
370
    15
100
AcDbSpline
210
0.0
220
0.0
230
1.0
 70
    24
 71
     1
 72
     4
 73
     2
 74
     0
 42
0.00000001
 43
0.00000001
 40
0.0
 40
0.0
 40
1.0
 40
1.0
 10
187.7017332809906
 20
121.2781641748696
 30
0.0
 10
186.9288980490597
 20
120.8045681114856
 30
0.0
  0
SPLINE
  5
296
330
1F
100
AcDbEntity
  8
0
  6
Continuous
 62
     7
370
    15
100
AcDbSpline
210
0.0
220
0.0
230
1.0
 70
    24
 71
     1
 72
     4
 73
     2
 74
     0
 42
0.00000001
 43
0.00000001
 40
0.0
 40
0.0
 40
1.0
 40
1.0
 10
187.7017340500232
 20
121.2781627137961
 30
0.0
 10
187.7073012254766
 20
121.2812521121163
 30
0.0
  0
SPLINE
  5
297
330
1F
100
AcDbEntity
  8
0
  6
Continuous
 62
     7
370
    15
100
AcDbSpline
210
0.0
220
0.0
230
1.0
 70
    24
 71
     1
 72
     4
 73
     2
 74
     0
 42
0.00000001
 43
0.00000001
 40
0.0
 40
0.0
 40
1.0
 40
1.0
 10
188.0365711954688
 20
121.4563280554669
 30
0.0
 10
187.7073012254766
 20
121.2812521121163
 30
0.0
  0
SPLINE
  5
298
330
1F
100
AcDbEntity
  8
0
  6
Continuous
 62
     7
370
    15
100
AcDbSpline
210
0.0
220
0.0
230
1.0
 70
    24
 71
     1
 72
     4
 73
     2
 74
     0
 42
0.00000001
 43
0.00000001
 40
0.0
 40
0.0
 40
1.0
 40
1.0
 10
188.0365711954688
 20
121.4563280554669
 30
0.0
 10
188.0422453198557
 20
121.4592157673967
 30
0.0
  0
SPLINE
  5
299
330
1F
100
AcDbEntity
  8
0
  6
Continuous
 62
     7
370
    15
100
AcDbSpline
210
0.0
220
0.0
230
1.0
 70
     8
 71
     3
 72
     9
 73
     5
 74
     0
 42
0.00000001
 43
0.00000001
 40
0.0
 40
0.0
 40
0.0
 40
0.0
 40
0.0927726485182253
 40
1.0
 40
1.0
 40
1.0
 40
1.0
 10
188.8670369752526
 20
121.8350962532558
 30
0.0
 10
188.8410742927497
 20
121.8245226252223
 30
0.0
 10
188.5612215245291
 20
121.7105490758804
 30
0.0
 10
188.2891102579477
 20
121.5787715100772
 30
0.0
 10
188.0422434742588
 20
121.4592192980689
 30
0.0
  0
SPLINE
  5
29A
330
1F
100
AcDbEntity
  8
0
  6
Continuous
 62
     7
370
    15
100
AcDbSpline
210
0.0
220
0.0
230
1.0
 70
    24
 71
     1
 72
     4
 73
     2
 74
     0
 42
0.00000001
 43
0.00000001
 40
0.0
 40
0.0
 40
1.0
 40
1.0
 10
188.8670373870513
 20
121.8350951669024
 30
0.0
 10
188.8729412089127
 20
121.8374837323674
 30
0.0
  0
SPLINE
  5
29B
330
1F
100
AcDbEntity
  8
0
  6
Continuous
 62
     7
370
    15
100
AcDbSpline
210
0.0
220
0.0
230
1.0
 70
    24
 71
     1
 72
     4
 73
     2
 74
     0
 42
0.00000001
 43
0.00000001
 40
0.0
 40
0.0
 40
1.0
 40
1.0
 10
189.2210901165447
 20
121.9711255678696
 30
0.0
 10
188.8729412089127
 20
121.8374837323674
 30
0.0
  0
SPLINE
  5
29C
330
1F
100
AcDbEntity
  8
0
  6
Continuous
 62
     7
370
    15
100
AcDbSpline
210
0.0
220
0.0
230
1.0
 70
    24
 71
     1
 72
     4
 73
     2
 74
     0
 42
0.00000001
 43
0.00000001
 40
0.0
 40
0.0
 40
1.0
 40
1.0
 10
189.2210901165447
 20
121.9711255678696
 30
0.0
 10
189.2270753836937
 20
121.9733008038774
 30
0.0
  0
SPLINE
  5
29D
330
1F
100
AcDbEntity
  8
0
  6
Continuous
 62
     7
370
    15
100
AcDbSpline
210
0.0
220
0.0
230
1.0
 70
    24
 71
     1
 72
     4
 73
     2
 74
     0
 42
0.00000001
 43
0.00000001
 40
0.0
 40
0.0
 40
1.0
 40
1.0
 10
190.0915260459138
 20
122.245867871914
 30
0.0
 10
189.2270726653221
 20
121.9733080368185
 30
0.0
  0
SPLINE
  5
29E
330
1F
100
AcDbEntity
  8
0
  6
Continuous
 62
     7
370
    15
100
AcDbSpline
210
0.0
220
0.0
230
1.0
 70
    24
 71
     1
 72
     4
 73
     2
 74
     0
 42
0.00000001
 43
0.00000001
 40
0.0
 40
0.0
 40
1.0
 40
1.0
 10
190.0915276664851
 20
122.2458615610817
 30
0.0
 10
190.0976786206436
 20
122.2475128399005
 30
0.0
  0
SPLINE
  5
29F
330
1F
100
AcDbEntity
  8
0
  6
Continuous
 62
     7
370
    15
100
AcDbSpline
210
0.0
220
0.0
230
1.0
 70
    24
 71
     1
 72
     4
 73
     2
 74
     0
 42
0.00000001
 43
0.00000001
 40
0.0
 40
0.0
 40
1.0
 40
1.0
 10
190.459515229996
 20
122.337728906714
 30
0.0
 10
190.0976786206436
 20
122.2475128399005
 30
0.0
  0
SPLINE
  5
2A0
330
1F
100
AcDbEntity
  8
0
  6
Continuous
 62
     7
370
    15
100
AcDbSpline
210
0.0
220
0.0
230
1.0
 70
    24
 71
     1
 72
     4
 73
     2
 74
     0
 42
0.00000001
 43
0.00000001
 40
0.0
 40
0.0
 40
1.0
 40
1.0
 10
190.459515229996
 20
122.337728906714
 30
0.0
 10
190.4657250388612
 20
122.3391594449576
 30
0.0
  0
SPLINE
  5
2A1
330
1F
100
AcDbEntity
  8
0
  6
Continuous
 62
     7
370
    15
100
AcDbSpline
210
0.0
220
0.0
230
1.0
 70
    24
 71
     1
 72
     4
 73
     2
 74
     0
 42
0.00000001
 43
0.00000001
 40
0.0
 40
0.0
 40
1.0
 40
1.0
 10
191.356949733352
 20
122.5043454116188
 30
0.0
 10
190.4657239002175
 20
122.3391641522061
 30
0.0
  0
SPLINE
  5
2A2
330
1F
100
AcDbEntity
  8
0
  6
Continuous
 62
     7
370
    15
100
AcDbSpline
210
0.0
220
0.0
230
1.0
 70
    24
 71
     1
 72
     4
 73
     2
 74
     0
 42
0.00000001
 43
0.00000001
 40
0.0
 40
0.0
 40
1.0
 40
1.0
 10
191.3569506508115
 20
122.5043383497976
 30
0.0
 10
191.3632559183863
 20
122.5052275557187
 30
0.0
  0
SPLINE
  5
2A3
330
1F
100
AcDbEntity
  8
0
  6
Continuous
 62
     7
370
    15
100
AcDbSpline
210
0.0
220
0.0
230
1.0
 70
    24
 71
     1
 72
     4
 73
     2
 74
     0
 42
0.00000001
 43
0.00000001
 40
0.0
 40
0.0
 40
1.0
 40
1.0
 10
191.7333934986338
 20
122.5506747789292
 30
0.0
 10
191.3632559183863
 20
122.5052275557187
 30
0.0
  0
SPLINE
  5
2A4
330
1F
100
AcDbEntity
  8
0
  6
Continuous
 62
     7
370
    15
100
AcDbSpline
210
0.0
220
0.0
230
1.0
 70
    24
 71
     1
 72
     4
 73
     2
 74
     0
 42
0.00000001
 43
0.00000001
 40
0.0
 40
0.0
 40
1.0
 40
1.0
 10
191.7333934986338
 20
122.5506747789292
 30
0.0
 10
191.7397289169022
 20
122.5513376125875
 30
0.0
  0
SPLINE
  5
2A5
330
1F
100
AcDbEntity
  8
0
  6
Continuous
 62
     7
370
    15
100
AcDbSpline
210
0.0
220
0.0
230
1.0
 70
    24
 71
     1
 72
     4
 73
     2
 74
     0
 42
0.00000001
 43
0.00000001
 40
0.0
 40
0.0
 40
1.0
 40
1.0
 10
192.6444418090707
 20
122.6066743000242
 30
0.0
 10
191.7397289170493
 20
122.5513376114301
 30
0.0
  0
SPLINE
  5
2A6
330
1F
100
AcDbEntity
  8
0
  6
Continuous
 62
     7
370
    15
100
AcDbSpline
210
0.0
220
0.0
230
1.0
 70
    24
 71
     1
 72
     4
 73
     2
 74
     0
 42
0.00000001
 43
0.00000001
 40
0.0
 40
0.0
 40
1.0
 40
1.0
 10
192.6444418003778
 20
122.6066722250205
 30
0.0
 10
192.650807590791
 20
122.6067863691885
 30
0.0
  0
SPLINE
  5
2A7
330
1F
100
AcDbEntity
  8
0
  6
Continuous
 62
     7
370
    15
100
AcDbSpline
210
0.0
220
0.0
230
1.0
 70
    24
 71
     1
 72
     4
 73
     2
 74
     0
 42
0.00000001
 43
0.00000001
 40
0.0
 40
0.0
 40
1.0
 40
1.0
 10
193.0237290593878
 20
122.606786366157
 30
0.0
 10
192.650807590791
 20
122.6067863691885
 30
0.0
  0
SPLINE
  5
2A8
330
1F
100
AcDbEntity
  8
0
  6
Continuous
 62
     7
370
    15
100
AcDbSpline
210
0.0
220
0.0
230
1.0
 70
    24
 71
     1
 72
     4
 73
     2
 74
     0
 42
0.00000001
 43
0.00000001
 40
0.0
 40
0.0
 40
1.0
 40
1.0
 10
193.0300946709977
 20
122.6066722251454
 30
0.0
 10
193.0237290593878
 20
122.606786366157
 30
0.0
  0
SPLINE
  5
2A9
330
1F
100
AcDbEntity
  8
0
  6
Continuous
 62
     7
370
    15
100
AcDbSpline
210
0.0
220
0.0
230
1.0
 70
    24
 71
     1
 72
     4
 73
     2
 74
     0
 42
0.00000001
 43
0.00000001
 40
0.0
 40
0.0
 40
1.0
 40
1.0
 10
193.9348076393272
 20
122.5513383607053
 30
0.0
 10
193.0300946958877
 20
122.6066757683472
 30
0.0
  0
SPLINE
  5
2AA
330
1F
100
AcDbEntity
  8
0
  6
Continuous
 62
     7
370
    15
100
AcDbSpline
210
0.0
220
0.0
230
1.0
 70
    24
 71
     1
 72
     4
 73
     2
 74
     0
 42
0.00000001
 43
0.00000001
 40
0.0
 40
0.0
 40
1.0
 40
1.0
 10
193.9411416643414
 20
122.5506749169355
 30
0.0
 10
193.9348075445097
 20
122.5513376143414
 30
0.0
  0
SPLINE
  5
2AB
330
1F
100
AcDbEntity
  8
0
  6
Continuous
 62
     7
370
    15
100
AcDbSpline
210
0.0
220
0.0
230
1.0
 70
    24
 71
     1
 72
     4
 73
     2
 74
     0
 42
0.00000001
 43
0.00000001
 40
0.0
 40
0.0
 40
1.0
 40
1.0
 10
194.31127994234
 20
122.5052276426125
 30
0.0
 10
193.9411416643414
 20
122.5506749169355
 30
0.0
  0
SPLINE
  5
2AC
330
1F
100
AcDbEntity
  8
0
  6
Continuous
 62
     7
370
    15
100
AcDbSpline
210
0.0
220
0.0
230
1.0
 70
    24
 71
     1
 72
     4
 73
     2
 74
     0
 42
0.00000001
 43
0.00000001
 40
0.0
 40
0.0
 40
1.0
 40
1.0
 10
194.3175858333523
 20
122.5043383489583
 30
0.0
 10
194.31127994234
 20
122.5052276426125
 30
0.0
  0
SPLINE
  5
2AD
330
1F
100
AcDbEntity
  8
0
  6
Continuous
 62
     7
370
    15
100
AcDbSpline
210
0.0
220
0.0
230
1.0
 70
    24
 71
     1
 72
     4
 73
     2
 74
     0
 42
0.00000001
 43
0.00000001
 40
0.0
 40
0.0
 40
1.0
 40
1.0
 10
195.2088128662049
 20
122.3391654049802
 30
0.0
 10
194.3175868190424
 20
122.5043459360656
 30
0.0
  0
SPLINE
  5
2AE
330
1F
100
AcDbEntity
  8
0
  6
Continuous
 62
     7
370
    15
100
AcDbSpline
210
0.0
220
0.0
230
1.0
 70
    24
 71
     1
 72
     4
 73
     2
 74
     0
 42
0.00000001
 43
0.00000001
 40
0.0
 40
0.0
 40
1.0
 40
1.0
 10
195.2150176196203
 20
122.337729743778
 30
0.0
 10
195.2088114253135
 20
122.3391594481899
 30
0.0
  0
SPLINE
  5
2AF
330
1F
100
AcDbEntity
  8
0
  6
Continuous
 62
     7
370
    15
100
AcDbSpline
210
0.0
220
0.0
230
1.0
 70
    24
 71
     1
 72
     4
 73
     2
 74
     0
 42
0.00000001
 43
0.00000001
 40
0.0
 40
0.0
 40
1.0
 40
1.0
 10
195.5768544644805
 20
122.2475137497133
 30
0.0
 10
195.2150176196203
 20
122.337729743778
 30
0.0
  0
SPLINE
  5
2B0
330
1F
100
AcDbEntity
  8
0
  6
Continuous
 62
     7
370
    15
100
AcDbSpline
210
0.0
220
0.0
230
1.0
 70
    24
 71
     1
 72
     4
 73
     2
 74
     0
 42
0.00000001
 43
0.00000001
 40
0.0
 40
0.0
 40
1.0
 40
1.0
 10
195.5830087989173
 20
122.2458615645282
 30
0.0
 10
195.5768544644805
 20
122.2475137497133
 30
0.0
  0
SPLINE
  5
2B1
330
1F
100
AcDbEntity
  8
0
  6
Continuous
 62
     7
370
    15
100
AcDbSpline
210
0.0
220
0.0
230
1.0
 70
    24
 71
     1
 72
     4
 73
     2
 74
     0
 42
0.00000001
 43
0.00000001
 40
0.0
 40
0.0
 40
1.0
 40
1.0
 10
196.4474636883616
 20
121.9733076936614
 30
0.0
 10
195.5830101247338
 20
122.2458667275499
 30
0.0
  0
SPLINE
  5
2B2
330
1F
100
AcDbEntity
  8
0
  6
Continuous
 62
     7
370
    15
100
AcDbSpline
210
0.0
220
0.0
230
1.0
 70
    24
 71
     1
 72
     4
 73
     2
 74
     0
 42
0.00000001
 43
0.00000001
 40
0.0
 40
0.0
 40
1.0
 40
1.0
 10
196.453445992497
 20
121.9711257021683
 30
0.0
 10
196.4474610984404
 20
121.9733008024581
 30
0.0
  0
SPLINE
  5
2B3
330
1F
100
AcDbEntity
  8
0
  6
Continuous
 62
     7
370
    15
100
AcDbSpline
210
0.0
220
0.0
230
1.0
 70
    24
 71
     1
 72
     4
 73
     2
 74
     0
 42
0.00000001
 43
0.00000001
 40
0.0
 40
0.0
 40
1.0
 40
1.0
 10
196.8015934278986
 20
121.8374844767204
 30
0.0
 10
196.453445992497
 20
121.9711257021683
 30
0.0
  0
SPLINE
  5
2B4
330
1F
100
AcDbEntity
  8
0
  6
Continuous
 62
     7
370
    15
100
AcDbSpline
210
0.0
220
0.0
230
1.0
 70
    24
 71
     1
 72
     4
 73
     2
 74
     0
 42
0.00000001
 43
0.00000001
 40
0.0
 40
0.0
 40
1.0
 40
1.0
 10
196.8074990711433
 20
121.8350951750133
 30
0.0
 10
196.8015934278986
 20
121.8374844767204
 30
0.0
  0
SPLINE
  5
2B5
330
1F
100
AcDbEntity
  8
0
  6
Continuous
 62
     7
370
    15
100
AcDbSpline
210
0.0
220
0.0
230
1.0
 70
     8
 71
     3
 72
     9
 73
     5
 74
     0
 42
0.00000001
 43
0.00000001
 40
0.0
 40
0.0
 40
0.0
 40
0.0
 40
0.9072273497468923
 40
1.0
 40
1.0
 40
1.0
 40
1.0
 10
197.6322923716035
 20
121.4592180546702
 30
0.0
 10
197.3854264263349
 20
121.5787721897526
 30
0.0
 10
197.1133160833901
 20
121.7105518755344
 30
0.0
 10
196.8334619510999
 20
121.8245220460197
 30
0.0
 10
196.8074991415631
 20
121.8350953607854
 30
0.0
  0
SPLINE
  5
2B6
330
1F
100
AcDbEntity
  8
0
  6
Continuous
 62
     7
370
    15
100
AcDbSpline
210
0.0
220
0.0
230
1.0
 70
    24
 71
     1
 72
     4
 73
     2
 74
     0
 42
0.00000001
 43
0.00000001
 40
0.0
 40
0.0
 40
1.0
 40
1.0
 10
197.6379653171313
 20
121.4563280379595
 30
0.0
 10
197.6322911463914
 20
121.4592157734881
 30
0.0
  0
SPLINE
  5
2B7
330
1F
100
AcDbEntity
  8
0
  6
Continuous
 62
     7
370
    15
100
AcDbSpline
210
0.0
220
0.0
230
1.0
 70
    24
 71
     1
 72
     4
 73
     2
 74
     0
 42
0.00000001
 43
0.00000001
 40
0.0
 40
0.0
 40
1.0
 40
1.0
 10
197.9672354960808
 20
121.2812519771794
 30
0.0
 10
197.6379653171313
 20
121.4563280379595
 30
0.0
  0
SPLINE
  5
2B8
330
1F
100
AcDbEntity
  8
0
  6
Continuous
 62
     7
370
    15
100
AcDbSpline
210
0.0
220
0.0
230
1.0
 70
    24
 71
     1
 72
     4
 73
     2
 74
     0
 42
0.00000001
 43
0.00000001
 40
0.0
 40
0.0
 40
1.0
 40
1.0
 10
197.9728024252783
 20
121.2781627154196
 30
0.0
 10
197.9672354960808
 20
121.2812519771794
 30
0.0
  0
SPLINE
  5
2B9
330
1F
100
AcDbEntity
  8
0
  6
Continuous
 62
     7
370
    15
100
AcDbSpline
210
0.0
220
0.0
230
1.0
 70
    24
 71
     1
 72
     4
 73
     2
 74
     0
 42
0.00000001
 43
0.00000001
 40
0.0
 40
0.0
 40
1.0
 40
1.0
 10
198.7456386981519
 20
120.8045685108961
 30
0.0
 10
197.9728038560833
 20
121.2781653613642
 30
0.0
  0
SPLINE
  5
2BA
330
1F
100
AcDbEntity
  8
0
  6
Continuous
 62
     7
370
    15
100
AcDbSpline
210
0.0
220
0.0
230
1.0
 70
    24
 71
     1
 72
     4
 73
     2
 74
     0
 42
0.00000001
 43
0.00000001
 40
0.0
 40
0.0
 40
1.0
 40
1.0
 10
198.7509200365714
 20
120.8010093682171
 30
0.0
 10
198.7456384645449
 20
120.8045681802276
 30
0.0
  0
SPLINE
  5
2BB
330
1F
100
AcDbEntity
  8
0
  6
Continuous
 62
     7
370
    15
100
AcDbSpline
210
0.0
220
0.0
230
1.0
 70
    24
 71
     1
 72
     4
 73
     2
 74
     0
 42
0.00000001
 43
0.00000001
 40
0.0
 40
0.0
 40
1.0
 40
1.0
 10
199.3831850398077
 20
120.3397849254639
 30
0.0
 10
198.7509200365714
 20
120.8010093682171
 30
0.0
  0
SPLINE
  5
2BC
330
1F
100
AcDbEntity
  8
0
  6
Continuous
 62
     7
370
    15
100
AcDbSpline
210
0.0
220
0.0
230
1.0
 70
    24
 71
     1
 72
     4
 73
     2
 74
     0
 42
0.00000001
 43
0.00000001
 40
0.0
 40
0.0
 40
1.0
 40
1.0
 10
199.3881897800981
 20
120.3358398976123
 30
0.0
 10
199.3831850398077
 20
120.3397849254639
 30
0.0
  0
SPLINE
  5
2BD
330
1F
100
AcDbEntity
  8
0
  6
Continuous
 62
     7
370
    15
100
AcDbSpline
210
0.0
220
0.0
230
1.0
 70
     8
 71
     3
 72
     9
 73
     5
 74
     0
 42
0.00000001
 43
0.00000001
 40
0.0
 40
0.0
 40
0.0
 40
0.0
 40
0.5000000156504337
 40
1.0
 40
1.0
 40
1.0
 40
1.0
 10
201.1427526730438
 20
118.5812822732087
 30
0.0
 10
200.87613693313
 20
118.8995200786527
 30
0.0
 10
200.342905469993
 20
119.5359956696184
 30
0.0
 10
199.7064293126339
 20
120.0692264564879
 30
0.0
 10
199.3881912439155
 20
120.3358418415773
 30
0.0
  0
SPLINE
  5
2BE
330
1F
100
AcDbEntity
  8
0
  6
Continuous
 62
     7
370
    15
100
AcDbSpline
210
0.0
220
0.0
230
1.0
 70
    24
 71
     1
 72
     4
 73
     2
 74
     0
 42
0.00000001
 43
0.00000001
 40
0.0
 40
0.0
 40
1.0
 40
1.0
 10
201.1466922906476
 20
118.5762783282145
 30
0.0
 10
201.1427496965021
 20
118.5812799791568
 30
0.0
  0
SPLINE
  5
2BF
330
1F
100
AcDbEntity
  8
0
  6
Continuous
 62
     7
370
    15
100
AcDbSpline
210
0.0
220
0.0
230
1.0
 70
    24
 71
     1
 72
     4
 73
     2
 74
     0
 42
0.00000001
 43
0.00000001
 40
0.0
 40
0.0
 40
1.0
 40
1.0
 10
201.6079188035456
 20
117.9440107731859
 30
0.0
 10
201.1466922906476
 20
118.5762783282145
 30
0.0
  0
SPLINE
  5
2C0
330
1F
100
AcDbEntity
  8
0
  6
Continuous
 62
     7
370
    15
100
AcDbSpline
210
0.0
220
0.0
230
1.0
 70
    24
 71
     1
 72
     4
 73
     2
 74
     0
 42
0.00000001
 43
0.00000001
 40
0.0
 40
0.0
 40
1.0
 40
1.0
 10
201.6079188035456
 20
117.9440107731859
 30
0.0
 10
201.6114779654416
 20
117.938728682249
 30
0.0
  0
SPLINE
  5
2C1
330
1F
100
AcDbEntity
  8
0
  6
Continuous
 62
     7
370
    15
100
AcDbSpline
210
0.0
220
0.0
230
1.0
 70
    24
 71
     1
 72
     4
 73
     2
 74
     0
 42
0.00000001
 43
0.00000001
 40
0.0
 40
0.0
 40
1.0
 40
1.0
 10
202.0850738958779
 20
117.165893367011
 30
0.0
 10
201.611477902716
 20
117.9387286379351
 30
0.0
  0
SPLINE
  5
2C2
330
1F
100
AcDbEntity
  8
0
  6
Continuous
 62
     7
370
    15
100
AcDbSpline
210
0.0
220
0.0
230
1.0
 70
    24
 71
     1
 72
     4
 73
     2
 74
     0
 42
0.00000001
 43
0.00000001
 40
0.0
 40
0.0
 40
1.0
 40
1.0
 10
202.0850725058995
 20
117.1658926353991
 30
0.0
 10
202.0881619169618
 20
117.1603254369659
 30
0.0
  0
SPLINE
  5
2C3
330
1F
100
AcDbEntity
  8
0
  6
Continuous
 62
     7
370
    15
100
AcDbSpline
210
0.0
220
0.0
230
1.0
 70
    24
 71
     1
 72
     4
 73
     2
 74
     0
 42
0.00000001
 43
0.00000001
 40
0.0
 40
0.0
 40
1.0
 40
1.0
 10
202.2632378641391
 20
116.8310554572794
 30
0.0
 10
202.0881619169618
 20
117.1603254369659
 30
0.0
  0
SPLINE
  5
2C4
330
1F
100
AcDbEntity
  8
0
  6
Continuous
 62
     7
370
    15
100
AcDbSpline
210
0.0
220
0.0
230
1.0
 70
    24
 71
     1
 72
     4
 73
     2
 74
     0
 42
0.00000001
 43
0.00000001
 40
0.0
 40
0.0
 40
1.0
 40
1.0
 10
202.2632378641391
 20
116.8310554572794
 30
0.0
 10
202.2661255592122
 20
116.8253813659881
 30
0.0
  0
SPLINE
  5
2C5
330
1F
100
AcDbEntity
  8
0
  6
Continuous
 62
     7
370
    15
100
AcDbSpline
210
0.0
220
0.0
230
1.0
 70
     8
 71
     3
 72
     9
 73
     5
 74
     0
 42
0.00000001
 43
0.00000001
 40
0.0
 40
0.0
 40
0.0
 40
0.0
 40
0.0927726478839014
 40
1.0
 40
1.0
 40
1.0
 40
1.0
 10
202.6420060039247
 20
116.0005896953166
 30
0.0
 10
202.6314323898714
 20
116.0265523834746
 30
0.0
 10
202.5174589904432
 20
116.306405214564
 30
0.0
 10
202.3856814140609
 20
116.5785164812244
 30
0.0
 10
202.2661291923713
 20
116.8253832651578
 30
0.0
  0
SPLINE
  5
2C6
330
1F
100
AcDbEntity
  8
0
  6
Continuous
 62
     7
370
    15
100
AcDbSpline
210
0.0
220
0.0
230
1.0
 70
    24
 71
     1
 72
     4
 73
     2
 74
     0
 42
0.00000001
 43
0.00000001
 40
0.0
 40
0.0
 40
1.0
 40
1.0
 10
202.6420049585012
 20
116.000589299033
 30
0.0
 10
202.6443935236038
 20
115.9946854780666
 30
0.0
  0
SPLINE
  5
2C7
330
1F
100
AcDbEntity
  8
0
  6
Continuous
 62
     7
370
    15
100
AcDbSpline
210
0.0
220
0.0
230
1.0
 70
    24
 71
     1
 72
     4
 73
     2
 74
     0
 42
0.00000001
 43
0.00000001
 40
0.0
 40
0.0
 40
1.0
 40
1.0
 10
202.7780353787579
 20
115.6465365164107
 30
0.0
 10
202.6443935236038
 20
115.9946854780666
 30
0.0
  0
SPLINE
  5
2C8
330
1F
100
AcDbEntity
  8
0
  6
Continuous
 62
     7
370
    15
100
AcDbSpline
210
0.0
220
0.0
230
1.0
 70
    24
 71
     1
 72
     4
 73
     2
 74
     0
 42
0.00000001
 43
0.00000001
 40
0.0
 40
0.0
 40
1.0
 40
1.0
 10
202.7780353787579
 20
115.6465365164107
 30
0.0
 10
202.7802105950433
 20
115.6405513034782
 30
0.0
  0
SPLINE
  5
2C9
330
1F
100
AcDbEntity
  8
0
  6
Continuous
 62
     7
370
    15
100
AcDbSpline
210
0.0
220
0.0
230
1.0
 70
    24
 71
     1
 72
     4
 73
     2
 74
     0
 42
0.00000001
 43
0.00000001
 40
0.0
 40
0.0
 40
1.0
 40
1.0
 10
203.0527776111756
 20
114.7761006271137
 30
0.0
 10
202.7802178125091
 20
115.6405540160329
 30
0.0
  0
SPLINE
  5
2CA
330
1F
100
AcDbEntity
  8
0
  6
Continuous
 62
     7
370
    15
100
AcDbSpline
210
0.0
220
0.0
230
1.0
 70
    24
 71
     1
 72
     4
 73
     2
 74
     0
 42
0.00000001
 43
0.00000001
 40
0.0
 40
0.0
 40
1.0
 40
1.0
 10
203.0527713524683
 20
114.7760990199281
 30
0.0
 10
203.054422631128
 20
114.7699480663611
 30
0.0
  0
SPLINE
  5
2CB
330
1F
100
AcDbEntity
  8
0
  6
Continuous
 62
     7
370
    15
100
AcDbSpline
210
0.0
220
0.0
230
1.0
 70
    24
 71
     1
 72
     4
 73
     2
 74
     0
 42
0.00000001
 43
0.00000001
 40
0.0
 40
0.0
 40
1.0
 40
1.0
 10
203.1446387051808
 20
114.4081114256287
 30
0.0
 10
203.054422631128
 20
114.7699480663611
 30
0.0
  0
SPLINE
  5
2CC
330
1F
100
AcDbEntity
  8
0
  6
Continuous
 62
     7
370
    15
100
AcDbSpline
210
0.0
220
0.0
230
1.0
 70
    24
 71
     1
 72
     4
 73
     2
 74
     0
 42
0.00000001
 43
0.00000001
 40
0.0
 40
0.0
 40
1.0
 40
1.0
 10
203.1446387051808
 20
114.4081114256287
 30
0.0
 10
203.146069236335
 20
114.4019016474937
 30
0.0
  0
SPLINE
  5
2CD
330
1F
100
AcDbEntity
  8
0
  6
Continuous
 62
     7
370
    15
100
AcDbSpline
210
0.0
220
0.0
230
1.0
 70
    24
 71
     1
 72
     4
 73
     2
 74
     0
 42
0.00000001
 43
0.00000001
 40
0.0
 40
0.0
 40
1.0
 40
1.0
 10
203.3112551295339
 20
113.5106769432835
 30
0.0
 10
203.1460740004247
 20
114.4019027998866
 30
0.0
  0
SPLINE
  5
2CE
330
1F
100
AcDbEntity
  8
0
  6
Continuous
 62
     7
370
    15
100
AcDbSpline
210
0.0
220
0.0
230
1.0
 70
    24
 71
     1
 72
     4
 73
     2
 74
     0
 42
0.00000001
 43
0.00000001
 40
0.0
 40
0.0
 40
1.0
 40
1.0
 10
203.3112481411436
 20
113.5106760353643
 30
0.0
 10
203.3121373496428
 20
113.5043707494652
 30
0.0
  0
SPLINE
  5
2CF
330
1F
100
AcDbEntity
  8
0
  6
Continuous
 62
     7
370
    15
100
AcDbSpline
210
0.0
220
0.0
230
1.0
 70
    24
 71
     1
 72
     4
 73
     2
 74
     0
 42
0.00000001
 43
0.00000001
 40
0.0
 40
0.0
 40
1.0
 40
1.0
 10
203.3575845715665
 20
113.1342331749513
 30
0.0
 10
203.3121373496428
 20
113.5043707494652
 30
0.0
  0
SPLINE
  5
2D0
330
1F
100
AcDbEntity
  8
0
  6
Continuous
 62
     7
370
    15
100
AcDbSpline
210
0.0
220
0.0
230
1.0
 70
    24
 71
     1
 72
     4
 73
     2
 74
     0
 42
0.00000001
 43
0.00000001
 40
0.0
 40
0.0
 40
1.0
 40
1.0
 10
203.3575845715665
 20
113.1342331749513
 30
0.0
 10
203.3582474038124
 20
113.1278977701431
 30
0.0
  0
SPLINE
  5
2D1
330
1F
100
AcDbEntity
  8
0
  6
Continuous
 62
     7
370
    15
100
AcDbSpline
210
0.0
220
0.0
230
1.0
 70
    24
 71
     1
 72
     4
 73
     2
 74
     0
 42
0.00000001
 43
0.00000001
 40
0.0
 40
0.0
 40
1.0
 40
1.0
 10
203.4135867711236
 20
112.2231849266891
 30
0.0
 10
203.3582474003965
 20
113.1278977697092
 30
0.0
  0
SPLINE
  5
2D2
330
1F
100
AcDbEntity
  8
0
  6
Continuous
 62
     7
370
    15
100
AcDbSpline
210
0.0
220
0.0
230
1.0
 70
    24
 71
     1
 72
     4
 73
     2
 74
     0
 42
0.00000001
 43
0.00000001
 40
0.0
 40
0.0
 40
1.0
 40
1.0
 10
203.4135820161293
 20
112.2231848932795
 30
0.0
 10
203.4136961469237
 20
112.2168198616688
 30
0.0
  0
ARC
  5
2D3
330
1F
100
AcDbEntity
  8
0
  6
Continuous
 62
     7
370
    15
100
AcDbCircle
 10
192.8372682391
 20
112.0303584479
 30
0.0
 40
11.67642857142855
100
AcDbArc
 50
202.377491797
 51
157.622508203
  0
LINE
  5
2D4
330
1F
100
AcDbEntity
  8
0
  6
Continuous
 62
     7
370
    15
100
AcDbLine
 10
182.040125382
 20
107.5850586485
 30
0.0
 11
182.040125382
 21
116.4756582472
 31
0.0
  0
LINE
  5
2D5
330
1F
100
AcDbEntity
  8
0
  6
Continuous
 62
     7
370
    15
100
AcDbLine
 10
194.6229825248
 20
131.7446441622
 30
0.0
 11
191.0515539534
 21
131.7446441622
 31
0.0
  0
LINE
  5
2D6
330
1F
100
AcDbEntity
  8
0
  6
Continuous
 62
     7
370
    15
100
AcDbLine
 10
194.6229825248
 20
131.7446441622
 30
0.0
 11
194.6229825248
 21
129.4589503627
 31
0.0
  0
LINE
  5
2D7
330
1F
100
AcDbEntity
  8
0
  6
Continuous
 62
     7
370
    15
100
AcDbLine
 10
194.6229825248
 20
129.4589503627
 30
0.0
 11
191.0515539534
 21
129.4589503627
 31
0.0
  0
LINE
  5
2D8
330
1F
100
AcDbEntity
  8
0
  6
Continuous
 62
     7
370
    15
100
AcDbLine
 10
191.0515539534
 20
131.7446441622
 30
0.0
 11
191.0515539534
 21
129.4589503627
 31
0.0
  0
LINE
  5
2D9
330
1F
100
AcDbEntity
  8
0
  6
Continuous
 62
     7
370
    15
100
AcDbLine
 10
194.6229825248
 20
128.7920727336
 30
0.0
 11
191.0515539534
 21
128.7920727336
 31
0.0
  0
LINE
  5
2DA
330
1F
100
AcDbEntity
  8
0
  6
Continuous
 62
     7
370
    15
100
AcDbLine
 10
191.0515539534
 20
129.4589503627
 30
0.0
 11
191.0515539534
 21
128.7920727336
 31
0.0
  0
LINE
  5
2DB
330
1F
100
AcDbEntity
  8
0
  6
Continuous
 62
     7
370
    15
100
AcDbLine
 10
194.6229825248
 20
129.4589503627
 30
0.0
 11
194.6229825248
 21
128.7920727336
 31
0.0
  0
LINE
  5
2DC
330
1F
100
AcDbEntity
  8
0
  6
Continuous
 62
     7
370
    15
100
AcDbLine
 10
180.6944110963
 20
88.0303584479
 30
0.0
 11
179.980125382
 21
88.0303584479
 31
0.0
  0
LINE
  5
2DD
330
1F
100
AcDbEntity
  8
0
  6
Continuous
 62
     7
370
    15
100
AcDbLine
 10
180.6944110963
 20
88.0303584479
 30
0.0
 11
204.980125382
 21
88.0303584479
 31
0.0
  0
LINE
  5
2DE
330
1F
100
AcDbEntity
  8
0
  6
Continuous
 62
     7
370
    15
100
AcDbLine
 10
205.6944110963
 20
88.0303584479
 30
0.0
 11
204.980125382
 21
88.0303584479
 31
0.0
  0
LINE
  5
2DF
330
1F
100
AcDbEntity
  8
0
  6
Continuous
 62
     7
370
    15
100
AcDbLine
 10
205.6944110963
 20
88.0303584479
 30
0.0
 11
205.6944110963
 21
86.1732155907
 31
0.0
  0
LINE
  5
2E0
330
1F
100
AcDbEntity
  8
0
  6
Continuous
 62
     7
370
    15
100
AcDbLine
 10
205.6944110963
 20
86.1732155907
 30
0.0
 11
199.980125382
 21
86.1732155907
 31
0.0
  0
LINE
  5
2E1
330
1F
100
AcDbEntity
  8
0
  6
Continuous
 62
     7
370
    15
100
AcDbLine
 10
199.980125382
 20
86.1732155907
 30
0.0
 11
199.980125382
 21
86.3160727336
 31
0.0
  0
LINE
  5
2E2
330
1F
100
AcDbEntity
  8
0
  6
Continuous
 62
     7
370
    15
100
AcDbLine
 10
185.6944110963
 20
86.1732155907
 30
0.0
 11
185.6944110963
 21
86.3160727336
 31
0.0
  0
LINE
  5
2E3
330
1F
100
AcDbEntity
  8
0
  6
Continuous
 62
     7
370
    15
100
AcDbLine
 10
185.6944110963
 20
86.1732155907
 30
0.0
 11
179.980125382
 21
86.1732155907
 31
0.0
  0
LINE
  5
2E4
330
1F
100
AcDbEntity
  8
0
  6
Continuous
 62
     7
370
    15
100
AcDbLine
 10
179.980125382
 20
88.0303584479
 30
0.0
 11
179.980125382
 21
86.1732155907
 31
0.0
  0
LINE
  5
2E5
330
1F
100
AcDbEntity
  8
0
  6
Continuous
 62
     7
370
    15
100
AcDbLine
 10
199.980125382
 20
86.3160727336
 30
0.0
 11
185.6944110963
 21
86.3160727336
 31
0.0
  0
LINE
  5
2E6
330
1F
100
AcDbEntity
  8
0
  6
Continuous
 62
     7
370
    15
100
AcDbLine
 10
179.980125382
 20
106.3160727336
 30
0.0
 11
179.980125382
 21
88.0303584479
 31
0.0
  0
ELLIPSE
  5
2E7
330
1F
100
AcDbEntity
  8
0
  6
Continuous
 62
     7
370
    15
100
AcDbEllipse
 10
192.8372682391
 20
233.5711564292
 30
0.0
 11
4.547473508864641E-13
 21
133.0442433664253
 31
0.0
210
0.0
220
0.0
230
1.0
 40
0.4067563303
 41
2.944471769274653
 42
3.08823368514365
  0
ELLIPSE
  5
2E8
330
1F
100
AcDbEntity
  8
0
  6
Continuous
 62
     7
370
    15
100
AcDbEllipse
 10
192.8372682391
 20
233.5711564292
 30
0.0
 11
4.547473508864641E-13
 21
133.0442433664253
 31
0.0
210
0.0
220
0.0
230
1.0
 40
0.4067563303
 41
3.194951622035969
 42
3.338713537904986
  0
LINE
  5
2E9
330
1F
100
AcDbEntity
  8
0
  6
Continuous
 62
     7
370
    15
100
AcDbLine
 10
204.980125382
 20
99.8160727336
 30
0.0
 11
204.980125382
 21
88.0303584479
 31
0.0
  0
LINE
  5
2EA
330
1F
100
AcDbEntity
  8
0
  6
Continuous
 62
     7
370
    15
100
AcDbLine
 10
180.6944110963
 20
99.8160727336
 30
0.0
 11
204.980125382
 21
99.8160727336
 31
0.0
  0
LINE
  5
2EB
330
1F
100
AcDbEntity
  8
0
  6
Continuous
 62
     7
370
    15
100
AcDbLine
 10
180.6944110963
 20
99.8160727336
 30
0.0
 11
180.6944110963
 21
88.0303584479
 31
0.0
  0
LINE
  5
2EC
330
1F
100
AcDbEntity
  8
0
  6
Continuous
 62
     7
370
    15
100
AcDbLine
 10
205.6944110963
 20
106.861772015
 30
0.0
 11
205.6944110963
 21
88.0303584479
 31
0.0
  0
LINE
  5
2ED
330
1F
100
AcDbEntity
  8
0
  6
Continuous
 62
     7
370
    15
100
AcDbLine
 10
179.580125382
 20
89.6017870193
 30
0.0
 11
179.980125382
 21
89.6017870193
 31
0.0
  0
LINE
  5
2EE
330
1F
100
AcDbEntity
  8
0
  6
Continuous
 62
     7
370
    15
100
AcDbLine
 10
179.580125382
 20
89.6017870193
 30
0.0
 11
179.580125382
 21
93.0303584479
 31
0.0
  0
LINE
  5
2EF
330
1F
100
AcDbEntity
  8
0
  6
Continuous
 62
     7
370
    15
100
AcDbLine
 10
179.580125382
 20
93.0303584479
 30
0.0
 11
179.980125382
 21
93.0303584479
 31
0.0
  0
ARC
  5
2F0
330
1F
100
AcDbEntity
  8
0
  6
Continuous
 62
     7
370
    15
100
AcDbCircle
 10
192.8372682391
 20
112.0303584479
 30
0.0
 40
13.85714285714291
100
AcDbArc
 50
204.353873018
 51
220.1068375216
  0
ARC
  5
2F1
330
1F
100
AcDbEntity
  8
0
  6
Continuous
 62
     7
370
    15
100
AcDbCircle
 10
192.8372682391
 20
112.0303584479
 30
0.0
 40
13.85714285714286
100
AcDbArc
 50
319.8931624784
 51
156.2928615356
  0
LINE
  5
2F2
330
1F
100
AcDbEntity
  8
0
  6
Continuous
 62
     7
370
    15
100
AcDbLine
 10
194.6229825248
 20
126.4589298765
 30
0.0
 11
191.0515539534
 21
126.4589298765
 31
0.0
  0
LINE
  5
2F3
330
1F
100
AcDbEntity
  8
0
  6
Continuous
 62
     7
370
    15
100
AcDbLine
 10
191.0515539534
 20
128.7920727336
 30
0.0
 11
191.0515539534
 21
126.4589298765
 31
0.0
  0
LINE
  5
2F4
330
1F
100
AcDbEntity
  8
0
  6
Continuous
 62
     7
370
    15
100
AcDbLine
 10
194.6229825248
 20
128.7920727336
 30
0.0
 11
194.6229825248
 21
126.4589298765
 31
0.0
  0
LINE
  5
2F5
330
1F
100
AcDbEntity
  8
0
  6
Continuous
 62
     7
370
    15
100
AcDbLine
 10
195.3372682391
 20
126.8732155907
 30
0.0
 11
194.6229825248
 21
126.8732155907
 31
0.0
  0
LINE
  5
2F6
330
1F
100
AcDbEntity
  8
0
  6
Continuous
 62
     7
370
    15
100
AcDbLine
 10
195.3372682391
 20
126.8732155907
 30
0.0
 11
195.3372682391
 21
125.6601203007
 31
0.0
  0
LINE
  5
2F7
330
1F
100
AcDbEntity
  8
0
  6
Continuous
 62
     7
370
    15
100
AcDbLine
 10
190.3372682391
 20
126.8732155907
 30
0.0
 11
190.3372682391
 21
125.6601203007
 31
0.0
  0
LINE
  5
2F8
330
1F
100
AcDbEntity
  8
0
  6
Continuous
 62
     7
370
    15
100
AcDbLine
 10
191.0515539534
 20
126.8732155907
 30
0.0
 11
190.3372682391
 21
126.8732155907
 31
0.0
  0
ARC
  5
2F9
330
1F
100
AcDbEntity
  8
0
  6
Continuous
 62
     7
370
    15
100
AcDbCircle
 10
192.8372682391
 20
112.0303584479
 30
0.0
 40
14.84285714285714
100
AcDbArc
 50
330.0220218657
 51
80.3033827142
  0
ARC
  5
2FA
330
1F
100
AcDbEntity
  8
0
  6
Continuous
 62
     7
370
    15
100
AcDbCircle
 10
192.8372682391
 20
112.0303584479
 30
0.0
 40
14.84285714285717
100
AcDbArc
 50
202.6428440019
 51
209.9779781343
  0
ARC
  5
2FB
330
1F
100
AcDbEntity
  8
0
  6
Continuous
 62
     7
370
    15
100
AcDbCircle
 10
192.8372682391
 20
112.0303584479
 30
0.0
 40
14.84285714285714
100
AcDbArc
 50
99.6966172858
 51
157.9533781062
  0
MTEXT
  5
2FC
330
1F
100
AcDbEntity
  8
注記
100
AcDbMText
 10
247.4774443276
 20
91.6098550903
 30
0.0
 40
2.38125
 41
0.0
 71
     1
 72
     1
  1
質量　23 kg
  7
SLDTEXTSTYLE0
 73
     1
 44
1.0
  0
LINE
  5
2FD
330
1F
100
AcDbEntity
  8
中心線
100
AcDbLine
 10
138.3541509529
 20
43.7702513592
 30
0.0
 11
97.4734911702
 21
43.7702513592
 31
0.0
  0
LINE
  5
2FE
330
1F
100
AcDbEntity
  8
注記
100
AcDbLine
 10
138.3541509529
 20
43.7702513592
 30
0.0
 11
152.9531811252
 21
43.7702513592
 31
0.0
  0
LINE
  5
2FF
330
1F
100
AcDbEntity
  8
0
  6
Continuous
 62
     7
370
    15
100
AcDbLine
 10
102.9970080958
 20
41.6273942163
 30
0.0
 11
103.4255795243
 21
41.6273942163
 31
0.0
  0
LINE
  5
300
330
1F
100
AcDbEntity
  8
0
  6
Continuous
 62
     7
370
    15
100
AcDbLine
 10
103.4255795243
 20
45.913108502
 30
0.0
 11
102.9970080958
 21
45.913108502
 31
0.0
  0
LINE
  5
301
330
1F
100
AcDbEntity
  8
0
  6
Continuous
 62
     7
370
    15
100
AcDbLine
 10
103.4255795243
 20
41.6273942163
 30
0.0
 11
103.6361110327
 21
42.413108502
 31
0.0
  0
LINE
  5
302
330
1F
100
AcDbEntity
  8
0
  6
Continuous
 62
     7
370
    15
100
AcDbLine
 10
103.6361110327
 20
45.1273942163
 30
0.0
 11
103.4255795243
 21
45.913108502
 31
0.0
  0
LINE
  5
303
330
1F
100
AcDbEntity
  8
0
  6
Continuous
 62
     7
370
    15
100
AcDbLine
 10
105.7541509529
 20
45.1273942163
 30
0.0
 11
103.6361110327
 21
45.1273942163
 31
0.0
  0
LINE
  5
304
330
1F
100
AcDbEntity
  8
0
  6
Continuous
 62
     7
370
    15
100
AcDbLine
 10
103.6361110327
 20
42.413108502
 30
0.0
 11
105.7541509529
 21
42.413108502
 31
0.0
  0
LINE
  5
305
330
1F
100
AcDbEntity
  8
0
  6
Continuous
 62
     7
370
    15
100
AcDbLine
 10
117.4970080958
 20
61.1988227878
 30
0.0
 11
107.4970080958
 21
61.1988227878
 31
0.0
  0
LINE
  5
306
330
1F
100
AcDbEntity
  8
0
  6
Continuous
 62
     7
370
    15
100
AcDbLine
 10
107.4970080958
 20
26.3416799306
 30
0.0
 11
117.4970080958
 21
26.3416799306
 31
0.0
  0
LINE
  5
307
330
1F
100
AcDbEntity
  8
0
  6
Continuous
 62
     7
370
    15
100
AcDbLine
 10
107.4970080958
 20
59.0559656449
 30
0.0
 11
104.9255795243
 21
59.0559656449
 31
0.0
  0
LINE
  5
308
330
1F
100
AcDbEntity
  8
0
  6
Continuous
 62
     7
370
    15
100
AcDbLine
 10
104.9255795243
 20
28.4845370735
 30
0.0
 11
107.4970080958
 21
28.4845370735
 31
0.0
  0
LINE
  5
309
330
1F
100
AcDbEntity
  8
0
  6
Continuous
 62
     7
370
    15
100
AcDbLine
 10
117.4970080958
 20
28.4845370735
 30
0.0
 11
120.4970080958
 21
28.4845370735
 31
0.0
  0
LINE
  5
30A
330
1F
100
AcDbEntity
  8
0
  6
Continuous
 62
     7
370
    15
100
AcDbLine
 10
120.4970080958
 20
59.0559656449
 30
0.0
 11
117.4970080958
 21
59.0559656449
 31
0.0
  0
LINE
  5
30B
330
1F
100
AcDbEntity
  8
0
  6
Continuous
 62
     7
370
    15
100
AcDbLine
 10
104.9255795243
 20
58.4845370735
 30
0.0
 11
99.6398652386
 21
58.4845370735
 31
0.0
  0
LINE
  5
30C
330
1F
100
AcDbEntity
  8
0
  6
Continuous
 62
     7
370
    15
100
AcDbLine
 10
99.6398652386
 20
29.0559656449
 30
0.0
 11
104.9255795243
 21
29.0559656449
 31
0.0
  0
LINE
  5
30D
330
1F
100
AcDbEntity
  8
0
  6
Continuous
 62
     7
370
    15
100
AcDbLine
 10
138.3541509529
 20
32.0938227878
 30
0.0
 11
149.3541509529
 21
32.0938227878
 31
0.0
  0
LINE
  5
30E
330
1F
100
AcDbEntity
  8
0
  6
Continuous
 62
     7
370
    15
100
AcDbLine
 10
126.4784366672
 20
29.913108502
 30
0.0
 11
127.3408856468
 21
30.913108502
 31
0.0
  0
LINE
  5
30F
330
1F
100
AcDbEntity
  8
0
  6
Continuous
 62
     7
370
    15
100
AcDbLine
 10
126.995906055
 20
57.0273942163
 30
0.0
 11
126.4784366672
 21
57.6273942163
 31
0.0
  0
LWPOLYLINE
  5
310
330
1F
100
AcDbEntity
  8
0
  6
Continuous
 62
     7
370
    15
100
AcDbPolyline
 90
        8
 70
   128
 43
0.0
 10
152.4970080958
 20
53.6917513592
 10
152.2056776498
 20
53.8734560916
 10
151.8503731025
 20
54.0423492187
 10
151.3671203529
 20
54.1856191352
 10
150.9965759224
 20
54.2528694486
 10
150.5462937287
 20
54.3041512883
 10
150.003182497
 20
54.3368429646
 10
149.3541509529
 20
54.3483227878
  0
LWPOLYLINE
  5
311
330
1F
100
AcDbEntity
  8
0
  6
Continuous
 62
     7
370
    15
100
AcDbPolyline
 90
        8
 70
   128
 43
0.0
 10
149.3541509529
 20
33.1921799306
 10
150.1612574384
 20
33.2105823146
 10
150.8025738981
 20
33.2621862026
 10
151.3050894062
 20
33.3415866986
 10
151.6957930364
 20
33.4433789066
 10
152.0145833385
 20
33.5681457648
 10
152.2713113018
 20
33.7053413742
 10
152.4970080958
 20
33.8487513592
  0
LINE
  5
312
330
1F
100
AcDbEntity
  8
0
  6
Continuous
 62
     7
370
    15
100
AcDbLine
 10
126.4784366672
 20
57.6273942163
 30
0.0
 11
121.6398652386
 21
57.6273942163
 31
0.0
  0
LINE
  5
313
330
1F
100
AcDbEntity
  8
0
  6
Continuous
 62
     7
370
    15
100
AcDbLine
 10
121.6398652386
 20
29.913108502
 30
0.0
 11
126.4784366672
 21
29.913108502
 31
0.0
  0
LINE
  5
314
330
1F
100
AcDbEntity
  8
0
  6
Continuous
 62
     7
370
    15
100
AcDbLine
 10
120.4970080958
 20
28.9273942163
 30
0.0
 11
121.6398652386
 21
28.9273942163
 31
0.0
  0
LINE
  5
315
330
1F
100
AcDbEntity
  8
0
  6
Continuous
 62
     7
370
    15
100
AcDbLine
 10
121.6398652386
 20
58.613108502
 30
0.0
 11
120.4970080958
 21
58.613108502
 31
0.0
  0
LINE
  5
316
330
1F
100
AcDbEntity
  8
0
  6
Continuous
 62
     7
370
    15
100
AcDbLine
 10
139.9255795243
 20
55.4926838604
 30
0.0
 11
139.9255795243
 21
60.9049617143
 31
0.0
  0
LWPOLYLINE
  5
317
330
1F
100
AcDbEntity
  8
0
  6
Continuous
 62
     7
370
    15
100
AcDbPolyline
 90
        9
 70
   128
 43
0.0
 10
139.9255795243
 20
60.9049617143
 10
139.9393043238
 20
60.9629263076
 10
139.9799512863
 20
61.0186633541
 10
140.0459583721
 20
61.0700309103
 10
140.1347889657
 20
61.11505495
 10
140.2430293573
 20
61.1520052244
 10
140.3665199294
 20
61.1794617553
 10
140.5005150084
 20
61.1963694035
 10
140.6398652386
 20
61.2020784176
  0
LINE
  5
318
330
1F
100
AcDbEntity
  8
0
  6
Continuous
 62
     7
370
    15
100
AcDbLine
 10
140.6398652386
 20
61.2020784176
 30
0.0
 11
151.7827223813
 21
61.2020784176
 31
0.0
  0
LWPOLYLINE
  5
319
330
1F
100
AcDbEntity
  8
0
  6
Continuous
 62
     7
370
    15
100
AcDbPolyline
 90
        9
 70
   128
 43
0.0
 10
151.7827223813
 20
61.2020784176
 10
151.9220726115
 20
61.1963694035
 10
152.0560676904
 20
61.1794617553
 10
152.1795582624
 20
61.1520052245
 10
152.287798654
 20
61.1150549501
 10
152.3766292477
 20
61.0700309105
 10
152.4426363335
 20
61.0186633544
 10
152.4832832962
 20
60.9629263079
 10
152.4970080958
 20
60.9049617147
  0
LINE
  5
31A
330
1F
100
AcDbEntity
  8
0
  6
Continuous
 62
     7
370
    15
100
AcDbLine
 10
152.4970080958
 20
60.9049617147
 30
0.0
 11
152.4970080958
 21
55.4926838605
 31
0.0
  0
LWPOLYLINE
  5
31B
330
1F
100
AcDbEntity
  8
0
  6
Continuous
 62
     7
370
    15
100
AcDbPolyline
 90
        9
 70
   128
 43
0.0
 10
152.4970080958
 20
55.4926838605
 10
152.4832832961
 20
55.4347192673
 10
152.4426363333
 20
55.3789822209
 10
152.3766292475
 20
55.3276146648
 10
152.2877986538
 20
55.2825906253
 10
152.1795582622
 20
55.245640351
 10
152.0560676903
 20
55.2181838202
 10
151.9220726115
 20
55.201276172
 10
151.7827223815
 20
55.1955671579
  0
LINE
  5
31C
330
1F
100
AcDbEntity
  8
0
  6
Continuous
 62
     7
370
    15
100
AcDbLine
 10
151.7827223815
 20
55.1955671579
 30
0.0
 11
151.2112938101
 21
55.1955671579
 31
0.0
  0
LINE
  5
31D
330
1F
100
AcDbEntity
  8
0
  6
Continuous
 62
     7
370
    15
100
AcDbLine
 10
141.2112938101
 20
55.1955671579
 30
0.0
 11
140.6398652386
 21
55.1955671579
 31
0.0
  0
LWPOLYLINE
  5
31E
330
1F
100
AcDbEntity
  8
0
  6
Continuous
 62
     7
370
    15
100
AcDbPolyline
 90
        9
 70
   128
 43
0.0
 10
140.6398652386
 20
55.1955671579
 10
140.5005150086
 20
55.201276172
 10
140.3665199298
 20
55.2181838202
 10
140.243029358
 20
55.245640351
 10
140.1347889665
 20
55.2825906253
 10
140.0459583728
 20
55.3276146647
 10
139.979951287
 20
55.3789822208
 10
139.9393043242
 20
55.4347192672
 10
139.9255795243
 20
55.4926838604
  0
LINE
  5
31F
330
1F
100
AcDbEntity
  8
0
  6
Continuous
 62
     7
370
    15
100
AcDbLine
 10
151.0020843681
 20
60.18951714
 30
0.0
 11
149.9205032521
 21
60.6842470275
 31
0.0
  0
ELLIPSE
  5
320
330
1F
100
AcDbEntity
  8
0
  6
Continuous
 62
     7
370
    15
100
AcDbEllipse
 10
149.4154269798
 20
60.4532182825
 30
0.0
 11
0.7142857142857224
 21
0.0
 31
0.0
210
0.0
220
0.0
230
1.0
 40
0.4574135787
 41
0.7853981627909918
 42
1.570796327000016
  0
LINE
  5
321
330
1F
100
AcDbEntity
  8
0
  6
Continuous
 62
     7
370
    15
100
AcDbLine
 10
149.4154269796
 20
60.7799422666
 30
0.0
 11
143.0071606403
 21
60.7799422666
 31
0.0
  0
ELLIPSE
  5
322
330
1F
100
AcDbEntity
  8
0
  6
Continuous
 62
     7
370
    15
100
AcDbEllipse
 10
143.0071606403
 20
60.4532182825
 30
0.0
 11
0.7142857142857224
 21
0.0
 31
0.0
210
0.0
220
0.0
230
1.0
 40
0.4574135787
 41
1.570796326794897
 42
2.356194491169668
  0
LINE
  5
323
330
1F
100
AcDbEntity
  8
0
  6
Continuous
 62
     7
370
    15
100
AcDbLine
 10
142.5020843679
 20
60.6842470274
 30
0.0
 11
141.4205032521
 21
60.1895171401
 31
0.0
  0
ELLIPSE
  5
324
330
1F
100
AcDbEntity
  8
0
  6
Continuous
 62
     7
370
    15
100
AcDbEllipse
 10
141.9255795243
 20
59.9584883937
 30
0.0
 11
0.7142857142857224
 21
0.0
 31
0.0
210
0.0
220
0.0
230
1.0
 40
0.4574135787
 41
2.356194487577305
 42
3.141592653397459
  0
ELLIPSE
  5
325
330
1F
100
AcDbEntity
  8
0
  6
Continuous
 62
     7
370
    15
100
AcDbEllipse
 10
150.4970080958
 20
59.9584883937
 30
0.0
 11
0.7142857142857224
 21
0.0
 31
0.0
210
0.0
220
0.0
230
1.0
 40
0.4574135787
 41
0.0
 42
0.7853981658225101
  0
LWPOLYLINE
  5
326
330
1F
100
AcDbEntity
  8
0
  6
Continuous
 62
     7
370
    15
100
AcDbPolyline
 90
        9
 70
   128
 43
0.0
 10
151.7827223813
 20
61.8516365341
 10
151.9220726115
 20
61.84592752
 10
152.0560676904
 20
61.8290198718
 10
152.1795582624
 20
61.801563341
 10
152.287798654
 20
61.7646130667
 10
152.3766292477
 20
61.7195890271
 10
152.4426363335
 20
61.6682214709
 10
152.4832832962
 20
61.6124844245
 10
152.4970080958
 20
61.5545198312
  0
LINE
  5
327
330
1F
100
AcDbEntity
  8
0
  6
Continuous
 62
     7
370
    15
100
AcDbLine
 10
152.4970080958
 20
60.9049617147
 30
0.0
 11
152.4970080958
 21
61.5545198312
 31
0.0
  0
LINE
  5
328
330
1F
100
AcDbEntity
  8
0
  6
Continuous
 62
     7
370
    15
100
AcDbLine
 10
151.7827223813
 20
61.2020784176
 30
0.0
 11
151.7827223813
 21
61.8516365341
 31
0.0
  0
LINE
  5
329
330
1F
100
AcDbEntity
  8
0
  6
Continuous
 62
     7
370
    15
100
AcDbLine
 10
140.6398652386
 20
61.851636534
 30
0.0
 11
151.7827223813
 21
61.8516365341
 31
0.0
  0
LINE
  5
32A
330
1F
100
AcDbEntity
  8
0
  6
Continuous
 62
     7
370
    15
100
AcDbLine
 10
140.6398652386
 20
61.2020784176
 30
0.0
 11
140.6398652386
 21
61.851636534
 31
0.0
  0
LWPOLYLINE
  5
32B
330
1F
100
AcDbEntity
  8
0
  6
Continuous
 62
     7
370
    15
100
AcDbPolyline
 90
        9
 70
   128
 43
0.0
 10
139.9255795243
 20
61.5545198307
 10
139.9393043241
 20
61.6124844239
 10
139.9799512869
 20
61.6682214703
 10
140.0459583728
 20
61.7195890265
 10
140.1347889665
 20
61.7646130661
 10
140.243029358
 20
61.8015633405
 10
140.3665199299
 20
61.8290198714
 10
140.5005150087
 20
61.8459275198
 10
140.6398652386
 20
61.851636534
  0
LINE
  5
32C
330
1F
100
AcDbEntity
  8
0
  6
Continuous
 62
     7
370
    15
100
AcDbLine
 10
139.9255795243
 20
60.9049617143
 30
0.0
 11
139.9255795243
 21
61.5545198307
 31
0.0
  0
LINE
  5
32D
330
1F
100
AcDbEntity
  8
0
  6
Continuous
 62
     7
370
    15
100
AcDbLine
 10
142.5020843681
 20
61.913108502
 30
0.0
 11
143.0071606401
 21
61.913108502
 31
0.0
  0
ARC
  5
32E
330
1F
100
AcDbEntity
  8
0
  6
Continuous
 62
     7
370
    15
100
AcDbCircle
 10
142.8808915722
 20
61.9666799306
 30
0.0
 40
0.3825765229523148
100
AcDbArc
 50
101.421753659
 51
188.0494669755
  0
SPLINE
  5
32F
330
1F
100
AcDbEntity
  8
0
  6
Continuous
 62
     7
370
    15
100
AcDbSpline
210
0.0
220
0.0
230
1.0
 70
    24
 71
     3
 72
     9
 73
     5
 74
     0
 42
0.00000001
 43
0.00000001
 40
0.0
 40
0.0
 40
0.0
 40
0.0
 40
0.499999999837502
 40
1.0
 40
1.0
 40
1.0
 40
1.0
 10
143.007160640345
 20
62.34167993061797
 30
0.0
 10
142.9693274543161
 20
62.34167993061797
 30
0.0
 10
142.8936610822336
 20
62.34167993061797
 30
0.0
 10
142.8346404483138
 20
62.34167993061797
 30
0.0
 10
142.8051301313444
 20
62.34167993061797
 30
0.0
  0
LINE
  5
330
330
1F
100
AcDbEntity
  8
0
  6
Continuous
 62
     7
370
    15
100
AcDbLine
 10
143.0071606403
 20
61.913108502
 30
0.0
 11
143.0071606403
 21
62.3416799306
 31
0.0
  0
LINE
  5
331
330
1F
100
AcDbEntity
  8
0
  6
Continuous
 62
     7
370
    15
100
AcDbLine
 10
149.4154269795
 20
61.913108502
 30
0.0
 11
149.9205032521
 21
61.913108502
 31
0.0
  0
LINE
  5
332
330
1F
100
AcDbEntity
  8
0
  6
Continuous
 62
     7
370
    15
100
AcDbLine
 10
149.4154269798
 20
62.3416799306
 30
0.0
 11
149.4154269798
 21
61.913108502
 31
0.0
  0
SPLINE
  5
333
330
1F
100
AcDbEntity
  8
0
  6
Continuous
 62
     7
370
    15
100
AcDbSpline
210
0.0
220
0.0
230
1.0
 70
    24
 71
     3
 72
     9
 73
     5
 74
     0
 42
0.00000001
 43
0.00000001
 40
0.0
 40
0.0
 40
0.0
 40
0.0
 40
0.5000000001625089
 40
1.0
 40
1.0
 40
1.0
 40
1.0
 10
149.6174574887736
 20
62.34167993061797
 30
0.0
 10
149.5879471718042
 20
62.34167993061797
 30
0.0
 10
149.5289265378847
 20
62.34167993061797
 30
0.0
 10
149.4532601658024
 20
62.34167993061797
 30
0.0
 10
149.4154269797736
 20
62.34167993061797
 30
0.0
  0
ARC
  5
334
330
1F
100
AcDbEntity
  8
0
  6
Continuous
 62
     7
370
    15
100
AcDbCircle
 10
149.5416960478
 20
61.9666799306
 30
0.0
 40
0.3825765229982463
100
AcDbArc
 50
351.9505330215
 51
78.5782463551
  0
LINE
  5
335
330
1F
100
AcDbEntity
  8
0
  6
Continuous
 62
     7
370
    15
100
AcDbLine
 10
143.0071606403
 20
61.913108502
 30
0.0
 11
149.4154269798
 21
61.913108502
 31
0.0
  0
LINE
  5
336
330
1F
100
AcDbEntity
  8
0
  6
Continuous
 62
     7
370
    15
100
AcDbLine
 10
143.0071606403
 20
62.3416799306
 30
0.0
 11
149.4154269798
 21
62.3416799306
 31
0.0
  0
LINE
  5
337
330
1F
100
AcDbEntity
  8
0
  6
Continuous
 62
     7
370
    15
100
AcDbLine
 10
143.0071606403
 20
55.0559656449
 30
0.0
 11
143.0071606403
 21
60.7799422666
 31
0.0
  0
LINE
  5
338
330
1F
100
AcDbEntity
  8
0
  6
Continuous
 62
     7
370
    15
100
AcDbLine
 10
142.5020843681
 20
55.0559656449
 30
0.0
 11
142.5020843679
 21
60.6842470274
 31
0.0
  0
LINE
  5
339
330
1F
100
AcDbEntity
  8
0
  6
Continuous
 62
     7
370
    15
100
AcDbLine
 10
142.5020843681
 20
55.0559656449
 30
0.0
 11
143.0071606403
 21
55.0559656449
 31
0.0
  0
LINE
  5
33A
330
1F
100
AcDbEntity
  8
0
  6
Continuous
 62
     7
370
    15
100
AcDbLine
 10
149.4154269796
 20
55.0559656449
 30
0.0
 11
149.4154269796
 21
60.7799422666
 31
0.0
  0
LINE
  5
33B
330
1F
100
AcDbEntity
  8
0
  6
Continuous
 62
     7
370
    15
100
AcDbLine
 10
143.0071606403
 20
55.0559656449
 30
0.0
 11
149.4154269796
 21
55.0559656449
 31
0.0
  0
LINE
  5
33C
330
1F
100
AcDbEntity
  8
0
  6
Continuous
 62
     7
370
    15
100
AcDbLine
 10
149.9205032521
 20
55.0559656449
 30
0.0
 11
149.9205032521
 21
60.6842470275
 31
0.0
  0
LINE
  5
33D
330
1F
100
AcDbEntity
  8
0
  6
Continuous
 62
     7
370
    15
100
AcDbLine
 10
149.4154269796
 20
55.0559656449
 30
0.0
 11
149.9205032521
 21
55.0559656449
 31
0.0
  0
LINE
  5
33E
330
1F
100
AcDbEntity
  8
0
  6
Continuous
 62
     7
370
    15
100
AcDbLine
 10
149.9205032521
 20
61.913108502
 30
0.0
 11
151.0020843681
 21
61.913108502
 31
0.0
  0
LINE
  5
33F
330
1F
100
AcDbEntity
  8
0
  6
Continuous
 62
     7
370
    15
100
AcDbLine
 10
149.6174574886
 20
62.3416799307
 30
0.0
 11
150.6990386046
 21
62.3416799307
 31
0.0
  0
ARC
  5
340
330
1F
100
AcDbEntity
  8
0
  6
Continuous
 62
     7
370
    15
100
AcDbCircle
 10
150.6232771638
 20
61.9666799306
 30
0.0
 40
0.3825765229523615
100
AcDbArc
 50
351.9505330245
 51
78.578246341
  0
LINE
  5
341
330
1F
100
AcDbEntity
  8
0
  6
Continuous
 62
     7
370
    15
100
AcDbLine
 10
141.4205032521
 20
61.913108502
 30
0.0
 11
142.5020843681
 21
61.913108502
 31
0.0
  0
ARC
  5
342
330
1F
100
AcDbEntity
  8
0
  6
Continuous
 62
     7
370
    15
100
AcDbCircle
 10
141.7993104563
 20
61.9666799306
 30
0.0
 40
0.3825765229987973
100
AcDbArc
 50
101.421753645
 51
188.0494669785
  0
LINE
  5
343
330
1F
100
AcDbEntity
  8
0
  6
Continuous
 62
     7
370
    15
100
AcDbLine
 10
141.7235490155
 20
62.3416799307
 30
0.0
 11
142.8051301315
 21
62.3416799307
 31
0.0
  0
LINE
  5
344
330
1F
100
AcDbEntity
  8
0
  6
Continuous
 62
     7
370
    15
100
AcDbLine
 10
151.0020843681
 20
55.0559656449
 30
0.0
 11
151.0020843681
 21
60.18951714
 31
0.0
  0
LINE
  5
345
330
1F
100
AcDbEntity
  8
0
  6
Continuous
 62
     7
370
    15
100
AcDbLine
 10
149.9205032521
 20
55.0559656449
 30
0.0
 11
151.0020843681
 21
55.0559656449
 31
0.0
  0
LINE
  5
346
330
1F
100
AcDbEntity
  8
0
  6
Continuous
 62
     7
370
    15
100
AcDbLine
 10
141.4205032521
 20
55.0559656449
 30
0.0
 11
141.4205032521
 21
60.1895171401
 31
0.0
  0
LINE
  5
347
330
1F
100
AcDbEntity
  8
0
  6
Continuous
 62
     7
370
    15
100
AcDbLine
 10
141.4205032521
 20
55.0559656449
 30
0.0
 11
142.5020843681
 21
55.0559656449
 31
0.0
  0
LINE
  5
348
330
1F
100
AcDbEntity
  8
0
  6
Continuous
 62
     7
370
    15
100
AcDbLine
 10
151.0020843681
 20
61.913108502
 30
0.0
 11
151.2112938101
 21
61.913108502
 31
0.0
  0
ARC
  5
349
330
1F
100
AcDbEntity
  8
0
  6
Continuous
 62
     7
370
    15
100
AcDbCircle
 10
150.7827223815
 20
61.913108502
 30
0.0
 40
0.4285714285714448
100
AcDbArc
 50
0.0
 51
90.0000000235
  0
SPLINE
  5
34A
330
1F
100
AcDbEntity
  8
0
  6
Continuous
 62
     7
370
    15
100
AcDbSpline
210
0.0
220
0.0
230
1.0
 70
    24
 71
     3
 72
     9
 73
     5
 74
     0
 42
0.00000001
 43
0.00000001
 40
0.0
 40
0.0
 40
0.0
 40
0.0
 40
0.499999999837502
 40
1.0
 40
1.0
 40
1.0
 40
1.0
 10
150.7827223814888
 20
62.34167993061797
 30
0.0
 10
150.7788216770552
 20
62.34167993061797
 30
0.0
 10
150.7710202681855
 20
62.34167993061797
 30
0.0
 10
150.723032492488
 20
62.34167993061797
 30
0.0
 10
150.6990386046314
 20
62.34167993061797
 30
0.0
  0
LINE
  5
34B
330
1F
100
AcDbEntity
  8
0
  6
Continuous
 62
     7
370
    15
100
AcDbLine
 10
141.2112938101
 20
61.913108502
 30
0.0
 11
141.4205032521
 21
61.913108502
 31
0.0
  0
ARC
  5
34C
330
1F
100
AcDbEntity
  8
0
  6
Continuous
 62
     7
370
    15
100
AcDbCircle
 10
141.6398652386
 20
61.913108502
 30
0.0
 40
0.4285714285714448
100
AcDbArc
 50
89.9999999995
 51
180.0
  0
SPLINE
  5
34D
330
1F
100
AcDbEntity
  8
0
  6
Continuous
 62
     7
370
    15
100
AcDbSpline
210
0.0
220
0.0
230
1.0
 70
    24
 71
     3
 72
     9
 73
     5
 74
     0
 42
0.00000001
 43
0.00000001
 40
0.0
 40
0.0
 40
0.0
 40
0.0
 40
0.5000000001625008
 40
1.0
 40
1.0
 40
1.0
 40
1.0
 10
141.7235490154879
 20
62.34167993061797
 30
0.0
 10
141.6995551276314
 20
62.34167993061797
 30
0.0
 10
141.651567351934
 20
62.34167993061797
 30
0.0
 10
141.6437659430643
 20
62.34167993061797
 30
0.0
 10
141.6398652386308
 20
62.34167993061797
 30
0.0
  0
LINE
  5
34E
330
1F
100
AcDbEntity
  8
0
  6
Continuous
 62
     7
370
    15
100
AcDbLine
 10
151.2112938101
 20
61.851636534
 30
0.0
 11
151.2112938101
 21
61.913108502
 31
0.0
  0
LINE
  5
34F
330
1F
100
AcDbEntity
  8
0
  6
Continuous
 62
     7
370
    15
100
AcDbLine
 10
141.2112938101
 20
61.851636534
 30
0.0
 11
141.2112938101
 21
61.913108502
 31
0.0
  0
LINE
  5
350
330
1F
100
AcDbEntity
  8
0
  6
Continuous
 62
     7
370
    15
100
AcDbLine
 10
141.2112938101
 20
55.0559656449
 30
0.0
 11
141.2112938092
 21
59.9584883937
 31
0.0
  0
LINE
  5
351
330
1F
100
AcDbEntity
  8
0
  6
Continuous
 62
     7
370
    15
100
AcDbLine
 10
141.2112938101
 20
55.0559656449
 30
0.0
 11
141.4205032521
 21
55.0559656449
 31
0.0
  0
LINE
  5
352
330
1F
100
AcDbEntity
  8
0
  6
Continuous
 62
     7
370
    15
100
AcDbLine
 10
151.2112938101
 20
55.0559656449
 30
0.0
 11
151.2112938109
 21
59.9584883937
 31
0.0
  0
LINE
  5
353
330
1F
100
AcDbEntity
  8
0
  6
Continuous
 62
     7
370
    15
100
AcDbLine
 10
151.0020843681
 20
55.0559656449
 30
0.0
 11
151.2112938101
 21
55.0559656449
 31
0.0
  0
LINE
  5
354
330
1F
100
AcDbEntity
  8
0
  6
Continuous
 62
     7
370
    15
100
AcDbLine
 10
103.4255795243
 20
41.6273942163
 30
0.0
 11
103.4255795243
 21
45.913108502
 31
0.0
  0
LINE
  5
355
330
1F
100
AcDbEntity
  8
0
  6
Continuous
 62
     7
370
    15
100
AcDbLine
 10
102.9970080958
 20
41.6273942163
 30
0.0
 11
102.9970080958
 21
45.913108502
 31
0.0
  0
LINE
  5
356
330
1F
100
AcDbEntity
  8
0
  6
Continuous
 62
     7
370
    15
100
AcDbLine
 10
103.6361110327
 20
42.413108502
 30
0.0
 11
103.6361110327
 21
45.1273942163
 31
0.0
  0
LINE
  5
357
330
1F
100
AcDbEntity
  8
0
  6
Continuous
 62
     7
370
    15
100
AcDbLine
 10
105.7541509529
 20
43.7702513592
 30
0.0
 11
105.7541509529
 21
42.413108502
 31
0.0
  0
LINE
  5
358
330
1F
100
AcDbEntity
  8
0
  6
Continuous
 62
     7
370
    15
100
AcDbLine
 10
105.7541509529
 20
45.1273942163
 30
0.0
 11
105.7541509529
 21
43.7702513592
 31
0.0
  0
LINE
  5
359
330
1F
100
AcDbEntity
  8
0
  6
Continuous
 62
     7
370
    15
100
AcDbLine
 10
108.4684366672
 20
45.1273942163
 30
0.0
 11
105.7541509529
 21
45.1273942163
 31
0.0
  0
LINE
  5
35A
330
1F
100
AcDbEntity
  8
0
  6
Continuous
 62
     7
370
    15
100
AcDbLine
 10
105.7541509529
 20
42.413108502
 30
0.0
 11
108.4684366672
 21
42.413108502
 31
0.0
  0
LINE
  5
35B
330
1F
100
AcDbEntity
  8
0
  6
Continuous
 62
     7
370
    15
100
AcDbLine
 10
108.4684366672
 20
42.413108502
 30
0.0
 11
108.4684366672
 21
45.1273942163
 31
0.0
  0
LINE
  5
35C
330
1F
100
AcDbEntity
  8
0
  6
Continuous
 62
     7
370
    15
100
AcDbLine
 10
106.0684366672
 20
49.1250607242
 30
0.0
 11
114.0684366672
 21
49.1250607242
 31
0.0
  0
LINE
  5
35D
330
1F
100
AcDbEntity
  8
0
  6
Continuous
 62
     7
370
    15
100
AcDbLine
 10
107.4970080958
 20
48.6090637765
 30
0.0
 11
114.0684366672
 21
48.6090637765
 31
0.0
  0
LINE
  5
35E
330
1F
100
AcDbEntity
  8
0
  6
Continuous
 62
     7
370
    15
100
AcDbLine
 10
106.0684366672
 20
47.8014874112
 30
0.0
 11
107.4970080958
 21
47.8014874112
 31
0.0
  0
LINE
  5
35F
330
1F
100
AcDbEntity
  8
0
  6
Continuous
 62
     7
370
    15
100
AcDbLine
 10
106.0684366672
 20
47.8014874112
 30
0.0
 11
106.0684366672
 21
49.1250607242
 31
0.0
  0
LINE
  5
360
330
1F
100
AcDbEntity
  8
0
  6
Continuous
 62
     7
370
    15
100
AcDbLine
 10
106.0684366672
 20
52.4364316334
 30
0.0
 11
114.0684366672
 21
52.4364316334
 31
0.0
  0
LINE
  5
361
330
1F
100
AcDbEntity
  8
0
  6
Continuous
 62
     7
370
    15
100
AcDbLine
 10
106.0684366672
 20
49.1250607242
 30
0.0
 11
106.0684366672
 21
52.4364316334
 31
0.0
  0
LINE
  5
362
330
1F
100
AcDbEntity
  8
0
  6
Continuous
 62
     7
370
    15
100
AcDbLine
 10
107.4970080958
 20
52.4364316334
 30
0.0
 11
107.4970080958
 21
61.1988227878
 31
0.0
  0
LINE
  5
363
330
1F
100
AcDbEntity
  8
0
  6
Continuous
 62
     7
370
    15
100
AcDbLine
 10
107.4970080958
 20
26.3416799306
 30
0.0
 11
107.4970080958
 21
42.413108502
 31
0.0
  0
LINE
  5
364
330
1F
100
AcDbEntity
  8
0
  6
Continuous
 62
     7
370
    15
100
AcDbLine
 10
107.4970080958
 20
45.1273942163
 30
0.0
 11
107.4970080958
 21
48.6090637765
 31
0.0
  0
LINE
  5
365
330
1F
100
AcDbEntity
  8
0
  6
Continuous
 62
     7
370
    15
100
AcDbLine
 10
117.4970080958
 20
26.3416799306
 30
0.0
 11
117.4970080958
 21
30.913108502
 31
0.0
  0
LINE
  5
366
330
1F
100
AcDbEntity
  8
0
  6
Continuous
 62
     7
370
    15
100
AcDbLine
 10
117.4970080958
 20
33.5166917567
 30
0.0
 11
117.4970080958
 21
34.5952395331
 31
0.0
  0
LINE
  5
367
330
1F
100
AcDbEntity
  8
0
  6
Continuous
 62
     7
370
    15
100
AcDbLine
 10
117.4970080958
 20
52.9452631852
 30
0.0
 11
117.4970080958
 21
54.0238109617
 31
0.0
  0
LINE
  5
368
330
1F
100
AcDbEntity
  8
0
  6
Continuous
 62
     7
370
    15
100
AcDbLine
 10
117.4970080958
 20
56.6273942163
 30
0.0
 11
117.4970080958
 21
61.1988227878
 31
0.0
  0
LINE
  5
369
330
1F
100
AcDbEntity
  8
0
  6
Continuous
 62
     7
370
    15
100
AcDbLine
 10
112.3423075574
 20
54.8645370735
 30
0.0
 11
112.9196578266
 21
54.8645370735
 31
0.0
  0
LINE
  5
36A
330
1F
100
AcDbEntity
  8
0
  6
Continuous
 62
     7
370
    15
100
AcDbLine
 10
112.9196578266
 20
54.8645370735
 30
0.0
 11
112.9196578266
 21
52.4364316334
 31
0.0
  0
LINE
  5
36B
330
1F
100
AcDbEntity
  8
0
  6
Continuous
 62
     7
370
    15
100
AcDbLine
 10
112.3423075574
 20
54.8645370735
 30
0.0
 11
112.3423075574
 21
52.4364316334
 31
0.0
  0
LINE
  5
36C
330
1F
100
AcDbEntity
  8
0
  6
Continuous
 62
     7
370
    15
100
AcDbLine
 10
112.9196578266
 20
54.8645370735
 30
0.0
 11
114.0684366672
 21
54.8645370735
 31
0.0
  0
LINE
  5
36D
330
1F
100
AcDbEntity
  8
0
  6
Continuous
 62
     7
370
    15
100
AcDbLine
 10
104.9255795243
 20
28.4845370735
 30
0.0
 11
104.9255795243
 21
42.413108502
 31
0.0
  0
LINE
  5
36E
330
1F
100
AcDbEntity
  8
0
  6
Continuous
 62
     7
370
    15
100
AcDbLine
 10
104.9255795243
 20
45.1273942163
 30
0.0
 11
104.9255795243
 21
59.0559656449
 31
0.0
  0
LINE
  5
36F
330
1F
100
AcDbEntity
  8
0
  6
Continuous
 62
     7
370
    15
100
AcDbLine
 10
120.4970080958
 20
59.0559656449
 30
0.0
 11
120.4970080958
 21
56.6204161322
 31
0.0
  0
LINE
  5
370
330
1F
100
AcDbEntity
  8
0
  6
Continuous
 62
     7
370
    15
100
AcDbLine
 10
120.4970080958
 20
30.9200865862
 30
0.0
 11
120.4970080958
 21
28.4845370735
 31
0.0
  0
LINE
  5
371
330
1F
100
AcDbEntity
  8
0
  6
Continuous
 62
     7
370
    15
100
AcDbLine
 10
99.6398652386
 20
29.0559656449
 30
0.0
 11
99.6398652386
 21
58.4845370735
 31
0.0
  0
LINE
  5
372
330
1F
100
AcDbEntity
  8
0
  6
Continuous
 62
     7
370
    15
100
AcDbLine
 10
119.7827223815
 20
36.6273942163
 30
0.0
 11
114.0684366672
 21
36.6273942163
 31
0.0
  0
CIRCLE
  5
373
330
1F
100
AcDbEntity
  8
0
  6
Continuous
 62
     7
370
    15
100
AcDbCircle
 10
116.9255795243
 20
34.0559656449
 30
0.0
 40
0.7857142857142918
  0
LINE
  5
374
330
1F
100
AcDbEntity
  8
0
  6
Continuous
 62
     7
370
    15
100
AcDbLine
 10
119.7827223815
 20
30.913108502
 30
0.0
 11
119.7827223815
 21
36.6273942163
 31
0.0
  0
LINE
  5
375
330
1F
100
AcDbEntity
  8
0
  6
Continuous
 62
     7
370
    15
100
AcDbLine
 10
114.0684366672
 20
36.6273942163
 30
0.0
 11
114.0684366672
 21
30.913108502
 31
0.0
  0
LINE
  5
376
330
1F
100
AcDbEntity
  8
0
  6
Continuous
 62
     7
370
    15
100
AcDbLine
 10
114.0684366672
 20
30.913108502
 30
0.0
 11
119.7827223815
 21
30.913108502
 31
0.0
  0
LINE
  5
377
330
1F
100
AcDbEntity
  8
0
  6
Continuous
 62
     7
370
    15
100
AcDbLine
 10
119.7827223815
 20
56.6273942163
 30
0.0
 11
114.0684366672
 21
56.6273942163
 31
0.0
  0
CIRCLE
  5
378
330
1F
100
AcDbEntity
  8
0
  6
Continuous
 62
     7
370
    15
100
AcDbCircle
 10
116.9255795243
 20
53.4845370735
 30
0.0
 40
0.7857142857142918
  0
LINE
  5
379
330
1F
100
AcDbEntity
  8
0
  6
Continuous
 62
     7
370
    15
100
AcDbLine
 10
119.7827223815
 20
50.913108502
 30
0.0
 11
119.7827223815
 21
56.6273942163
 31
0.0
  0
LINE
  5
37A
330
1F
100
AcDbEntity
  8
0
  6
Continuous
 62
     7
370
    15
100
AcDbLine
 10
114.0684366672
 20
50.913108502
 30
0.0
 11
119.7827223815
 21
50.913108502
 31
0.0
  0
LINE
  5
37B
330
1F
100
AcDbEntity
  8
0
  6
Continuous
 62
     7
370
    15
100
AcDbLine
 10
114.0684366672
 20
56.6273942163
 30
0.0
 11
114.0684366672
 21
50.913108502
 31
0.0
  0
CIRCLE
  5
37C
330
1F
100
AcDbEntity
  8
0
  6
Continuous
 62
     7
370
    15
100
AcDbCircle
 10
135.4970080958
 20
34.0559656449
 30
0.0
 40
0.785714285714306
  0
LINE
  5
37D
330
1F
100
AcDbEntity
  8
0
  6
Continuous
 62
     7
370
    15
100
AcDbLine
 10
138.3541509529
 20
36.6273942163
 30
0.0
 11
132.6398652386
 21
36.6273942163
 31
0.0
  0
LINE
  5
37E
330
1F
100
AcDbEntity
  8
0
  6
Continuous
 62
     7
370
    15
100
AcDbLine
 10
132.6398652386
 20
36.6273942163
 30
0.0
 11
132.6398652386
 21
30.913108502
 31
0.0
  0
LINE
  5
37F
330
1F
100
AcDbEntity
  8
0
  6
Continuous
 62
     7
370
    15
100
AcDbLine
 10
132.6398652386
 20
30.913108502
 30
0.0
 11
138.3541509529
 21
30.913108502
 31
0.0
  0
LINE
  5
380
330
1F
100
AcDbEntity
  8
0
  6
Continuous
 62
     7
370
    15
100
AcDbLine
 10
138.3541509529
 20
30.913108502
 30
0.0
 11
138.3541509529
 21
36.6273942163
 31
0.0
  0
LINE
  5
381
330
1F
100
AcDbEntity
  8
0
  6
Continuous
 62
     7
370
    15
100
AcDbLine
 10
132.6398652386
 20
50.913108502
 30
0.0
 11
138.3541509529
 21
50.913108502
 31
0.0
  0
LINE
  5
382
330
1F
100
AcDbEntity
  8
0
  6
Continuous
 62
     7
370
    15
100
AcDbLine
 10
132.6398652386
 20
56.6273942163
 30
0.0
 11
132.6398652386
 21
50.913108502
 31
0.0
  0
CIRCLE
  5
383
330
1F
100
AcDbEntity
  8
0
  6
Continuous
 62
     7
370
    15
100
AcDbCircle
 10
135.4970080958
 20
53.4845370735
 30
0.0
 40
0.785714285714306
  0
LINE
  5
384
330
1F
100
AcDbEntity
  8
0
  6
Continuous
 62
     7
370
    15
100
AcDbLine
 10
138.3541509529
 20
56.6273942163
 30
0.0
 11
132.6398652386
 21
56.6273942163
 31
0.0
  0
LINE
  5
385
330
1F
100
AcDbEntity
  8
0
  6
Continuous
 62
     7
370
    15
100
AcDbLine
 10
138.3541509529
 20
50.913108502
 30
0.0
 11
138.3541509529
 21
56.6273942163
 31
0.0
  0
LINE
  5
386
330
1F
100
AcDbEntity
  8
0
  6
Continuous
 62
     7
370
    15
100
AcDbLine
 10
132.6398652386
 20
56.6273942163
 30
0.0
 11
119.7827223815
 21
56.6273942163
 31
0.0
  0
LINE
  5
387
330
1F
100
AcDbEntity
  8
0
  6
Continuous
 62
     7
370
    15
100
AcDbLine
 10
114.0684366672
 20
36.6273942163
 30
0.0
 11
114.0684366672
 21
50.913108502
 31
0.0
  0
LINE
  5
388
330
1F
100
AcDbEntity
  8
0
  6
Continuous
 62
     7
370
    15
100
AcDbLine
 10
132.6398652386
 20
30.913108502
 30
0.0
 11
119.7827223815
 21
30.913108502
 31
0.0
  0
LINE
  5
389
330
1F
100
AcDbEntity
  8
0
  6
Continuous
 62
     7
370
    15
100
AcDbLine
 10
138.3541509529
 20
36.6273942163
 30
0.0
 11
138.3541509529
 21
50.913108502
 31
0.0
  0
LINE
  5
38A
330
1F
100
AcDbEntity
  8
0
  6
Continuous
 62
     7
370
    15
100
AcDbLine
 10
122.9255795243
 20
57.0273942163
 30
0.0
 11
122.9255795243
 21
56.6273942163
 31
0.0
  0
LINE
  5
38B
330
1F
100
AcDbEntity
  8
0
  6
Continuous
 62
     7
370
    15
100
AcDbLine
 10
122.9255795243
 20
57.0273942163
 30
0.0
 11
129.7827223815
 21
57.0273942163
 31
0.0
  0
LINE
  5
38C
330
1F
100
AcDbEntity
  8
0
  6
Continuous
 62
     7
370
    15
100
AcDbLine
 10
129.7827223815
 20
57.0273942163
 30
0.0
 11
129.7827223815
 21
56.6273942163
 31
0.0
  0
LINE
  5
38D
330
1F
100
AcDbEntity
  8
0
  6
Continuous
 62
     7
370
    15
100
AcDbLine
 10
138.3541509529
 20
54.5673942163
 30
0.0
 11
149.3541509529
 21
54.5673942163
 31
0.0
  0
LINE
  5
38E
330
1F
100
AcDbEntity
  8
0
  6
Continuous
 62
     7
370
    15
100
AcDbLine
 10
149.3541509529
 20
54.5673942163
 30
0.0
 11
149.3541509529
 21
32.0938227878
 31
0.0
  0
LINE
  5
38F
330
1F
100
AcDbEntity
  8
0
  6
Continuous
 62
     7
370
    15
100
AcDbLine
 10
126.4784366672
 20
57.0273942163
 30
0.0
 11
126.4784366672
 21
57.6273942163
 31
0.0
  0
LINE
  5
390
330
1F
100
AcDbEntity
  8
0
  6
Continuous
 62
     7
370
    15
100
AcDbLine
 10
126.4784366672
 20
29.913108502
 30
0.0
 11
126.4784366672
 21
30.913108502
 31
0.0
  0
LINE
  5
391
330
1F
100
AcDbEntity
  8
0
  6
Continuous
 62
     7
370
    15
100
AcDbLine
 10
152.4970080958
 20
33.8487513592
 30
0.0
 11
152.4970080958
 21
53.6917513592
 31
0.0
  0
LINE
  5
392
330
1F
100
AcDbEntity
  8
0
  6
Continuous
 62
     7
370
    15
100
AcDbLine
 10
121.6398652386
 20
28.9273942163
 30
0.0
 11
121.6398652386
 21
30.913108502
 31
0.0
  0
LINE
  5
393
330
1F
100
AcDbEntity
  8
0
  6
Continuous
 62
     7
370
    15
100
AcDbLine
 10
121.6398652386
 20
56.6273942163
 30
0.0
 11
121.6398652386
 21
58.613108502
 31
0.0
  0
LINE
  5
394
330
1F
100
AcDbEntity
  8
0
  6
Continuous
 62
     7
370
    15
100
AcDbLine
 10
143.0071606403
 20
61.851636534
 30
0.0
 11
143.0071606403
 21
61.913108502
 31
0.0
  0
LINE
  5
395
330
1F
100
AcDbEntity
  8
0
  6
Continuous
 62
     7
370
    15
100
AcDbLine
 10
142.5020843681
 20
61.851636534
 30
0.0
 11
142.5020843681
 21
61.913108502
 31
0.0
  0
LINE
  5
396
330
1F
100
AcDbEntity
  8
0
  6
Continuous
 62
     7
370
    15
100
AcDbLine
 10
149.4154269795
 20
61.851636534
 30
0.0
 11
149.4154269795
 21
61.913108502
 31
0.0
  0
LINE
  5
397
330
1F
100
AcDbEntity
  8
0
  6
Continuous
 62
     7
370
    15
100
AcDbLine
 10
149.9205032521
 20
61.851636534
 30
0.0
 11
149.9205032521
 21
61.913108502
 31
0.0
  0
LINE
  5
398
330
1F
100
AcDbEntity
  8
0
  6
Continuous
 62
     7
370
    15
100
AcDbLine
 10
151.0020843681
 20
61.851636534
 30
0.0
 11
151.0020843681
 21
61.913108502
 31
0.0
  0
LINE
  5
399
330
1F
100
AcDbEntity
  8
0
  6
Continuous
 62
     7
370
    15
100
AcDbLine
 10
141.4205032521
 20
61.851636534
 30
0.0
 11
141.4205032521
 21
61.913108502
 31
0.0
  0
INSERT
  5
3A5
330
1F
100
AcDbEntity
  8
寸法線
100
AcDbBlockReference
  2
SW_CENTERMARKSYMBOL_1
 10
116.9255795243
 20
34.0559656449
 30
0.0
  0
INSERT
  5
3B1
330
1F
100
AcDbEntity
  8
寸法線
100
AcDbBlockReference
  2
SW_CENTERMARKSYMBOL_2
 10
135.4970080958
 20
34.0559656449
 30
0.0
  0
INSERT
  5
3BD
330
1F
100
AcDbEntity
  8
寸法線
100
AcDbBlockReference
  2
SW_CENTERMARKSYMBOL_3
 10
135.4970080958
 20
53.4845370735
 30
0.0
  0
INSERT
  5
3C9
330
1F
100
AcDbEntity
  8
寸法線
100
AcDbBlockReference
  2
SW_CENTERMARKSYMBOL_4
 10
116.9255795243
 20
53.4845370735
 30
0.0
  0
LINE
  5
3CA
330
1F
100
AcDbEntity
  8
0
  6
Continuous
 62
     7
370
    15
100
AcDbLine
 10
54.2319630234
 20
133.7446434639
 30
0.0
 11
55.1605344711
 21
133.495834518
 31
0.0
  0
LINE
  5
3CB
330
1F
100
AcDbEntity
  8
0
  6
Continuous
 62
     7
370
    15
100
AcDbLine
 10
59.3033914948
 20
133.495834518
 30
0.0
 11
60.2319629425
 21
133.7446434639
 31
0.0
  0
LINE
  5
3CC
330
1F
100
AcDbEntity
  8
0
  6
Continuous
 62
     7
370
    15
100
AcDbLine
 10
54.2319630234
 20
134.173215761
 30
0.0
 11
54.2319630234
 21
133.7446434639
 31
0.0
  0
LINE
  5
3CD
330
1F
100
AcDbEntity
  8
0
  6
Continuous
 62
     7
370
    15
100
AcDbLine
 10
60.2319629425
 20
133.7446434639
 30
0.0
 11
60.2319629425
 21
134.173215761
 31
0.0
  0
LINE
  5
3CE
330
1F
100
AcDbEntity
  8
0
  6
Continuous
 62
     7
370
    15
100
AcDbLine
 10
55.1605344711
 20
133.495834518
 30
0.0
 11
55.1605344711
 21
131.1732160676
 31
0.0
  0
LINE
  5
3CF
330
1F
100
AcDbEntity
  8
0
  6
Continuous
 62
     7
370
    15
100
AcDbLine
 10
59.3033914948
 20
131.1732160676
 30
0.0
 11
59.3033914948
 21
133.495834518
 31
0.0
  0
LINE
  5
3D0
330
1F
100
AcDbEntity
  8
0
  6
Continuous
 62
     7
370
    15
100
AcDbLine
 10
75.0162317113
 20
106.3398710801
 30
0.0
 11
74.2114263814
 21
108.0993395249
 31
0.0
  0
LINE
  5
3D1
330
1F
100
AcDbEntity
  8
0
  6
Continuous
 62
     7
370
    15
100
AcDbLine
 10
74.3666730649
 20
106.0427546983
 30
0.0
 11
75.0162317113
 21
106.3398710801
 31
0.0
  0
LINE
  5
3D2
330
1F
100
AcDbEntity
  8
0
  6
Continuous
 62
     7
370
    15
100
AcDbLine
 10
73.9227770523
 20
107.013203997
 30
0.0
 11
74.3666730649
 21
106.0427546983
 31
0.0
  0
LINE
  5
3D3
330
1F
100
AcDbEntity
  8
0
  6
Continuous
 62
     7
370
    15
100
AcDbLine
 10
74.6637905111
 20
105.3931965842
 30
0.0
 11
75.3133491574
 21
105.690312966
 31
0.0
  0
LWPOLYLINE
  5
3D4
330
1F
100
AcDbEntity
  8
0
  6
Continuous
 62
     7
370
    15
100
AcDbPolyline
 90
        9
 70
   128
 43
0.0
 10
75.0162317113
 20
106.3398710801
 10
75.0741961639
 20
106.2131489444
 10
75.129932893
 20
106.0912962953
 10
75.1813014531
 20
105.9789963549
 10
75.2263242473
 20
105.8805640737
 10
75.2632748696
 20
105.7997832823
 10
75.2907313235
 20
105.7397576797
 10
75.3076398839
 20
105.702794285
 10
75.3133491574
 20
105.690312966
  0
LWPOLYLINE
  5
3D5
330
1F
100
AcDbEntity
  8
0
  6
Continuous
 62
     7
370
    15
100
AcDbPolyline
 90
        9
 70
   128
 43
0.0
 10
74.3666730649
 20
106.0427546983
 10
74.4246375176
 20
105.9160320304
 10
74.4803753111
 20
105.7941793813
 10
74.5317428068
 20
105.6818794409
 10
74.5767666653
 20
105.5834476919
 10
74.6137172876
 20
105.5026669005
 10
74.6411737415
 20
105.4426412979
 10
74.6580812376
 20
105.405677371
 10
74.6637905111
 20
105.3931965842
  0
LINE
  5
3D6
330
1F
100
AcDbEntity
  8
0
  6
Continuous
 62
     7
370
    15
100
AcDbLine
 10
75.3748207048
 20
116.3109963976
 30
0.0
 11
75.3748207048
 21
115.8059202085
 31
0.0
  0
ARC
  5
3D7
330
1F
100
AcDbEntity
  8
0
  6
Continuous
 62
     7
370
    15
100
AcDbCircle
 10
75.4283918481
 20
115.9321903369
 30
0.0
 40
0.3825753507394744
100
AcDbArc
 50
11.4216220285
 51
98.0494486561
  0
SPLINE
  5
3D8
330
1F
100
AcDbEntity
  8
0
  6
Continuous
 62
     7
370
    15
100
AcDbSpline
210
0.0
220
0.0
230
1.0
 70
    24
 71
     3
 72
     9
 73
     5
 74
     0
 42
0.00000001
 43
0.00000001
 40
0.0
 40
0.0
 40
0.0
 40
0.0
 40
0.499998963965355
 40
1.0
 40
1.0
 40
1.0
 40
1.0
 10
75.80339087317851
 20
115.8059202084608
 30
0.0
 10
75.80339087317851
 20
115.8437533988946
 30
0.0
 10
75.80339087317851
 20
115.9194199365485
 30
0.0
 10
75.80339087317851
 20
115.9784403941589
 30
0.0
 10
75.80339087317851
 20
116.0079506841113
 30
0.0
  0
LINE
  5
3D9
330
1F
100
AcDbEntity
  8
0
  6
Continuous
 62
     7
370
    15
100
AcDbLine
 10
75.3748207048
 20
115.8059202085
 30
0.0
 11
75.8033908732
 21
115.8059202085
 31
0.0
  0
LINE
  5
3DA
330
1F
100
AcDbEntity
  8
0
  6
Continuous
 62
     7
370
    15
100
AcDbLine
 10
75.3748207048
 20
108.111939521
 30
0.0
 11
75.3748207048
 21
107.6068633319
 31
0.0
  0
LINE
  5
3DB
330
1F
100
AcDbEntity
  8
0
  6
Continuous
 62
     7
370
    15
100
AcDbLine
 10
75.8033908732
 20
108.111939521
 30
0.0
 11
75.3748207048
 21
108.111939521
 31
0.0
  0
SPLINE
  5
3DC
330
1F
100
AcDbEntity
  8
0
  6
Continuous
 62
     7
370
    15
100
AcDbSpline
210
0.0
220
0.0
230
1.0
 70
    24
 71
     3
 72
     9
 73
     5
 74
     0
 42
0.00000001
 43
0.00000001
 40
0.0
 40
0.0
 40
0.0
 40
0.0
 40
0.500001036034645
 40
1.0
 40
1.0
 40
1.0
 40
1.0
 10
75.80339087317851
 20
107.9099090453794
 30
0.0
 10
75.80339087317853
 20
107.9394193353318
 30
0.0
 10
75.80339087317853
 20
107.9984397929423
 30
0.0
 10
75.80339087317851
 20
108.0741063305961
 30
0.0
 10
75.80339087317851
 20
108.1119395210299
 30
0.0
  0
ARC
  5
3DD
330
1F
100
AcDbEntity
  8
0
  6
Continuous
 62
     7
370
    15
100
AcDbCircle
 10
75.4283915803
 20
107.9856697714
 30
0.0
 40
0.3825756882847718
100
AcDbArc
 50
261.9505990047
 51
348.5783303106
  0
LINE
  5
3DE
330
1F
100
AcDbEntity
  8
0
  6
Continuous
 62
     7
370
    15
100
AcDbLine
 10
75.8033908732
 20
115.8059202085
 30
0.0
 11
75.8033908732
 21
108.111939521
 31
0.0
  0
LINE
  5
3DF
330
1F
100
AcDbEntity
  8
0
  6
Continuous
 62
     7
370
    15
100
AcDbLine
 10
75.3748207048
 20
115.8059202085
 30
0.0
 11
75.3748207048
 21
108.111939521
 31
0.0
  0
LINE
  5
3E0
330
1F
100
AcDbEntity
  8
0
  6
Continuous
 62
     7
370
    15
100
AcDbLine
 10
74.436692557
 20
107.6068633319
 30
0.0
 11
75.3748207048
 21
107.6068633319
 31
0.0
  0
LINE
  5
3E1
330
1F
100
AcDbEntity
  8
0
  6
Continuous
 62
     7
370
    15
100
AcDbLine
 10
75.8033908732
 20
107.9099090454
 30
0.0
 11
75.8033908732
 21
106.8283279509
 31
0.0
  0
ARC
  5
3E2
330
1F
100
AcDbEntity
  8
0
  6
Continuous
 62
     7
370
    15
100
AcDbCircle
 10
75.4283912634
 20
106.9040887924
 30
0.0
 40
0.3825760217451207
100
AcDbArc
 50
261.9506539939
 51
348.5783227533
  0
LINE
  5
3E3
330
1F
100
AcDbEntity
  8
0
  6
Continuous
 62
     7
370
    15
100
AcDbLine
 10
75.3748207048
 20
107.6068633319
 30
0.0
 11
75.3748207048
 21
106.5252819714
 31
0.0
  0
LINE
  5
3E4
330
1F
100
AcDbEntity
  8
0
  6
Continuous
 62
     7
370
    15
100
AcDbLine
 10
74.9314217523
 20
106.5252819714
 30
0.0
 11
75.3748207048
 21
106.5252819714
 31
0.0
  0
LINE
  5
3E5
330
1F
100
AcDbEntity
  8
0
  6
Continuous
 62
     7
370
    15
100
AcDbLine
 10
75.3748207048
 20
117.392577492
 30
0.0
 11
75.3748207048
 21
116.3109963976
 31
0.0
  0
ARC
  5
3E6
330
1F
100
AcDbEntity
  8
0
  6
Continuous
 62
     7
370
    15
100
AcDbCircle
 10
75.4283916936
 20
117.0137711463
 30
0.0
 40
0.3825756113054505
100
AcDbArc
 50
11.4216983467
 51
98.0494197699
  0
LINE
  5
3E7
330
1F
100
AcDbEntity
  8
0
  6
Continuous
 62
     7
370
    15
100
AcDbLine
 10
75.8033908732
 20
117.0895320446
 30
0.0
 11
75.8033908732
 21
116.0079506841
 31
0.0
  0
LINE
  5
3E8
330
1F
100
AcDbEntity
  8
0
  6
Continuous
 62
     7
370
    15
100
AcDbLine
 10
75.3748207048
 20
106.5252819714
 30
0.0
 11
75.3748207048
 21
106.3160728613
 31
0.0
  0
ARC
  5
3E9
330
1F
100
AcDbEntity
  8
0
  6
Continuous
 62
     7
370
    15
100
AcDbCircle
 10
75.3748201258
 20
106.7446441622
 30
0.0
 40
0.4285714285714306
100
AcDbArc
 50
270.0
 51
0.0000000118
  0
SPLINE
  5
3EA
330
1F
100
AcDbEntity
  8
0
  6
Continuous
 62
     7
370
    15
100
AcDbSpline
210
0.0
220
0.0
230
1.0
 70
    24
 71
     3
 72
     9
 73
     5
 74
     0
 42
0.00000001
 43
0.00000001
 40
0.0
 40
0.0
 40
0.0
 40
0.0
 40
0.4999999489410422
 40
1.0
 40
1.0
 40
1.0
 40
1.0
 10
75.80339087317853
 20
106.7446440940481
 30
0.0
 10
75.80339087317853
 20
106.7485448291763
 30
0.0
 10
75.80339087317853
 20
106.7563463002292
 30
0.0
 10
75.80339087317851
 20
106.804334065739
 30
0.0
 10
75.80339087317851
 20
106.8283279509441
 30
0.0
  0
LINE
  5
3EB
330
1F
100
AcDbEntity
  8
0
  6
Continuous
 62
     7
370
    15
100
AcDbLine
 10
75.3748207048
 20
117.6017871343
 30
0.0
 11
75.3748207048
 21
117.392577492
 31
0.0
  0
ARC
  5
3EC
330
1F
100
AcDbEntity
  8
0
  6
Continuous
 62
     7
370
    15
100
AcDbCircle
 10
75.3748201258
 20
117.1732155907
 30
0.0
 40
0.4285714285714306
100
AcDbArc
 50
359.9999999995
 51
90.0
  0
SPLINE
  5
3ED
330
1F
100
AcDbEntity
  8
0
  6
Continuous
 62
     7
370
    15
100
AcDbSpline
210
0.0
220
0.0
230
1.0
 70
    24
 71
     3
 72
     9
 73
     5
 74
     0
 42
0.00000001
 43
0.00000001
 40
0.0
 40
0.0
 40
0.0
 40
0.0
 40
0.5000002838868165
 40
1.0
 40
1.0
 40
1.0
 40
1.0
 10
75.80339087317851
 20
117.0895320446388
 30
0.0
 10
75.80339087317851
 20
117.1135259740642
 30
0.0
 10
75.80339087317851
 20
117.1615138056687
 30
0.0
 10
75.80339087317851
 20
117.1693148495996
 30
0.0
 10
75.80339087317851
 20
117.1732153693505
 30
0.0
  0
LINE
  5
3EE
330
1F
100
AcDbEntity
  8
0
  6
Continuous
 62
     7
370
    15
100
AcDbLine
 10
73.7460258644
 20
117.6017871343
 30
0.0
 11
75.3748207048
 21
117.6017871343
 31
0.0
  0
LINE
  5
3EF
330
1F
100
AcDbEntity
  8
0
  6
Continuous
 62
     7
370
    15
100
AcDbLine
 10
75.0271170095
 20
106.3160728613
 30
0.0
 11
75.3748207048
 21
106.3160728613
 31
0.0
  0
LINE
  5
3F0
330
1F
100
AcDbEntity
  8
0
  6
Continuous
 62
     7
370
    15
100
AcDbLine
 10
73.697139412
 20
106.3160728613
 30
0.0
 11
74.2416533869
 21
106.3160728613
 31
0.0
  0
CIRCLE
  5
3F1
330
1F
100
AcDbEntity
  8
0
  6
Continuous
 62
     7
370
    15
100
AcDbCircle
 10
57.2319629829
 20
112.0303584479
 30
0.0
 40
14.71428571428571
  0
CIRCLE
  5
3F2
330
1F
100
AcDbEntity
  8
0
  6
Continuous
 62
     7
370
    15
100
AcDbCircle
 10
57.2319629829
 20
91.6017870193
 30
0.0
 40
2.142857142857139
  0
CIRCLE
  5
3F3
330
1F
100
AcDbEntity
  8
0
  6
Continuous
 62
     7
370
    15
100
AcDbCircle
 10
57.2319629829
 20
91.6017870193
 30
0.0
 40
1.228571428571428
  0
CIRCLE
  5
3F4
330
1F
100
AcDbEntity
  8
0
  6
Continuous
 62
     7
370
    15
100
AcDbCircle
 10
57.2319629829
 20
112.0303584479
 30
0.0
 40
15.28571428571429
  0
LINE
  5
3F5
330
1F
100
AcDbEntity
  8
0
  6
Continuous
 62
     7
370
    15
100
AcDbLine
 10
55.8748201694
 20
93.2601001064
 30
0.0
 11
55.8748201694
 21
96.8050107842
 31
0.0
  0
LINE
  5
3F6
330
1F
100
AcDbEntity
  8
0
  6
Continuous
 62
     7
370
    15
100
AcDbLine
 10
58.5891057964
 20
93.2601001064
 30
0.0
 11
58.5891057964
 21
96.8050107842
 31
0.0
  0
LINE
  5
3F7
330
1F
100
AcDbEntity
  8
0
  6
Continuous
 62
     7
370
    15
100
AcDbLine
 10
61.2631991334
 20
97.285793557
 30
0.0
 11
62.5867724247
 21
94.0098350019
 31
0.0
  0
LINE
  5
3F8
330
1F
100
AcDbEntity
  8
0
  6
Continuous
 62
     7
370
    15
100
AcDbLine
 10
65.8981430572
 20
95.3477155367
 30
0.0
 11
64.5745697659
 21
98.6236740918
 31
0.0
  0
LINE
  5
3F9
330
1F
100
AcDbEntity
  8
0
  6
Continuous
 62
     7
370
    15
100
AcDbLine
 10
62.5867724247
 20
94.0098350019
 30
0.0
 11
65.8981430572
 21
95.3477155367
 31
0.0
  0
ARC
  5
3FA
330
1F
100
AcDbEntity
  8
0
  6
Continuous
 62
     7
370
    15
100
AcDbCircle
 10
57.2319629829
 20
112.0303584479
 30
0.0
 40
17.42857142857144
100
AcDbArc
 50
274.4660777668
 51
286.1192107431
  0
ARC
  5
3FB
330
1F
100
AcDbEntity
  8
0
  6
Continuous
 62
     7
370
    15
100
AcDbCircle
 10
57.2319629829
 20
112.0303584479
 30
0.0
 40
17.42857142857144
100
AcDbArc
 50
297.8807892569
 51
265.5339222332
  0
LINE
  5
3FC
330
1F
100
AcDbEntity
  8
0
  6
Continuous
 62
     7
370
    15
100
AcDbLine
 10
62.8033916693
 20
131.1732160676
 30
0.0
 11
51.6605342966
 21
131.1732160676
 31
0.0
  0
LINE
  5
3FD
330
1F
100
AcDbEntity
  8
0
  6
Continuous
 62
     7
370
    15
100
AcDbLine
 10
51.6605342966
 20
131.1732160676
 30
0.0
 11
51.6605342966
 21
128.5444213294
 31
0.0
  0
LINE
  5
3FE
330
1F
100
AcDbEntity
  8
0
  6
Continuous
 62
     7
370
    15
100
AcDbLine
 10
62.8033916693
 20
128.5444213294
 30
0.0
 11
62.8033916693
 21
131.1732160676
 31
0.0
  0
LINE
  5
3FF
330
1F
100
AcDbEntity
  8
0
  6
Continuous
 62
     7
370
    15
100
AcDbLine
 10
57.2319629829
 20
133.7446434639
 30
0.0
 11
60.2319629425
 21
133.7446434639
 31
0.0
  0
LINE
  5
400
330
1F
100
AcDbEntity
  8
0
  6
Continuous
 62
     7
370
    15
100
AcDbLine
 10
54.2319630234
 20
133.7446434639
 30
0.0
 11
57.2319629829
 21
133.7446434639
 31
0.0
  0
LINE
  5
401
330
1F
100
AcDbEntity
  8
0
  6
Continuous
 62
     7
370
    15
100
AcDbLine
 10
57.2319629829
 20
133.495834518
 30
0.0
 11
59.3033914948
 21
133.495834518
 31
0.0
  0
LINE
  5
402
330
1F
100
AcDbEntity
  8
0
  6
Continuous
 62
     7
370
    15
100
AcDbLine
 10
55.1605344711
 20
133.495834518
 30
0.0
 11
57.2319629829
 21
133.495834518
 31
0.0
  0
LINE
  5
403
330
1F
100
AcDbEntity
  8
0
  6
Continuous
 62
     7
370
    15
100
AcDbLine
 10
57.2319629829
 20
134.173215761
 30
0.0
 11
60.2319629425
 21
134.173215761
 31
0.0
  0
LINE
  5
404
330
1F
100
AcDbEntity
  8
0
  6
Continuous
 62
     7
370
    15
100
AcDbLine
 10
54.2319630234
 20
134.173215761
 30
0.0
 11
57.2319629829
 21
134.173215761
 31
0.0
  0
LINE
  5
405
330
1F
100
AcDbEntity
  8
0
  6
Continuous
 62
     7
370
    15
100
AcDbLine
 10
68.3262489564
 20
97.6732152331
 30
0.0
 11
68.3262489564
 21
96.6732153353
 31
0.0
  0
LINE
  5
406
330
1F
100
AcDbEntity
  8
0
  6
Continuous
 62
     7
370
    15
100
AcDbLine
 10
68.3262489564
 20
96.6732153353
 30
0.0
 11
65.4729134098
 21
96.6732153353
 31
0.0
  0
LINE
  5
407
330
1F
100
AcDbEntity
  8
0
  6
Continuous
 62
     7
370
    15
100
AcDbLine
 10
68.3262489564
 20
97.6732152331
 30
0.0
 11
67.1126281405
 21
97.6732152331
 31
0.0
  0
LINE
  5
408
330
1F
100
AcDbEntity
  8
0
  6
Continuous
 62
     7
370
    15
100
AcDbLine
 10
68.3262489564
 20
96.6732153353
 30
0.0
 11
68.3262489564
 21
95.6732154375
 31
0.0
  0
LINE
  5
409
330
1F
100
AcDbEntity
  8
0
  6
Continuous
 62
     7
370
    15
100
AcDbLine
 10
68.3262489564
 20
95.6732154375
 30
0.0
 11
65.7666323269
 21
95.6732154375
 31
0.0
  0
LINE
  5
40A
330
1F
100
AcDbEntity
  8
0
  6
Continuous
 62
     7
370
    15
100
AcDbLine
 10
44.3748196149
 20
88.0303587715
 30
0.0
 11
44.3748196149
 21
100.2639236677
 31
0.0
  0
LINE
  5
40B
330
1F
100
AcDbEntity
  8
0
  6
Continuous
 62
     7
370
    15
100
AcDbLine
 10
45.0891057124
 20
88.0303587715
 30
0.0
 11
45.0891057124
 21
99.5281139073
 31
0.0
  0
LINE
  5
40C
330
1F
100
AcDbEntity
  8
0
  6
Continuous
 62
     7
370
    15
100
AcDbLine
 10
44.3748196149
 20
88.0303587715
 30
0.0
 11
45.0891057124
 21
88.0303587715
 31
0.0
  0
LINE
  5
40D
330
1F
100
AcDbEntity
  8
0
  6
Continuous
 62
     7
370
    15
100
AcDbLine
 10
69.3748202535
 20
88.0303587715
 30
0.0
 11
70.089106351
 21
88.0303587715
 31
0.0
  0
LINE
  5
40E
330
1F
100
AcDbEntity
  8
0
  6
Continuous
 62
     7
370
    15
100
AcDbLine
 10
69.3748202535
 20
88.0303587715
 30
0.0
 11
69.3748202535
 21
99.5281139073
 31
0.0
  0
LINE
  5
40F
330
1F
100
AcDbEntity
  8
0
  6
Continuous
 62
     7
370
    15
100
AcDbLine
 10
70.089106351
 20
88.0303587715
 30
0.0
 11
70.089106351
 21
100.2639236677
 31
0.0
  0
LINE
  5
410
330
1F
100
AcDbEntity
  8
0
  6
Continuous
 62
     7
370
    15
100
AcDbLine
 10
50.0891057337
 20
86.1732164082
 30
0.0
 11
50.0891057337
 21
86.3160717118
 31
0.0
  0
LINE
  5
411
330
1F
100
AcDbEntity
  8
0
  6
Continuous
 62
     7
370
    15
100
AcDbLine
 10
50.0891057337
 20
86.1732164082
 30
0.0
 11
44.3748196149
 21
86.1732164082
 31
0.0
  0
LINE
  5
412
330
1F
100
AcDbEntity
  8
0
  6
Continuous
 62
     7
370
    15
100
AcDbLine
 10
69.3748202535
 20
88.0303587715
 30
0.0
 11
45.0891057124
 21
88.0303587715
 31
0.0
  0
LINE
  5
413
330
1F
100
AcDbEntity
  8
0
  6
Continuous
 62
     7
370
    15
100
AcDbLine
 10
44.3748196149
 20
86.1732164082
 30
0.0
 11
44.3748196149
 21
88.0303587715
 31
0.0
  0
LINE
  5
414
330
1F
100
AcDbEntity
  8
0
  6
Continuous
 62
     7
370
    15
100
AcDbLine
 10
50.0891057337
 20
86.3160717118
 30
0.0
 11
64.3748202322
 21
86.3160717118
 31
0.0
  0
LINE
  5
415
330
1F
100
AcDbEntity
  8
0
  6
Continuous
 62
     7
370
    15
100
AcDbLine
 10
64.3748202322
 20
86.1732164082
 30
0.0
 11
64.3748202322
 21
86.3160717118
 31
0.0
  0
LINE
  5
416
330
1F
100
AcDbEntity
  8
0
  6
Continuous
 62
     7
370
    15
100
AcDbLine
 10
70.089106351
 20
86.1732164082
 30
0.0
 11
64.3748202322
 21
86.1732164082
 31
0.0
  0
LINE
  5
417
330
1F
100
AcDbEntity
  8
0
  6
Continuous
 62
     7
370
    15
100
AcDbLine
 10
70.089106351
 20
86.1732164082
 30
0.0
 11
70.089106351
 21
88.0303587715
 31
0.0
  0
LINE
  5
418
330
1F
100
AcDbEntity
  8
0
  6
Continuous
 62
     7
370
    15
100
AcDbLine
 10
70.4891056715
 20
93.0303582606
 30
0.0
 11
70.089106351
 21
93.0303582606
 31
0.0
  0
LINE
  5
419
330
1F
100
AcDbEntity
  8
0
  6
Continuous
 62
     7
370
    15
100
AcDbLine
 10
70.4891056715
 20
93.0303582606
 30
0.0
 11
70.4891056715
 21
89.60178627
 31
0.0
  0
LINE
  5
41A
330
1F
100
AcDbEntity
  8
0
  6
Continuous
 62
     7
370
    15
100
AcDbLine
 10
70.4891056715
 20
89.60178627
 30
0.0
 11
70.089106351
 21
89.60178627
 31
0.0
  0
LINE
  5
41B
330
1F
100
AcDbEntity
  8
0
  6
Continuous
 62
     7
370
    15
100
AcDbLine
 10
74.214338494
 20
108.111939521
 30
0.0
 11
75.3748207048
 21
108.111939521
 31
0.0
  0
LINE
  5
41C
330
1F
100
AcDbEntity
  8
0
  6
Continuous
 62
     7
370
    15
100
AcDbLine
 10
74.2466697564
 20
115.8059202085
 30
0.0
 11
75.3748207048
 21
115.8059202085
 31
0.0
  0
LINE
  5
41D
330
1F
100
AcDbEntity
  8
0
  6
Continuous
 62
     7
370
    15
100
AcDbLine
 10
75.3748207048
 20
116.3109963976
 30
0.0
 11
74.1266738984
 21
116.3109963976
 31
0.0
  0
LINE
  5
41E
330
1F
100
AcDbEntity
  8
0
  6
Continuous
 62
     7
370
    15
100
AcDbLine
 10
73.8151385144
 20
117.392577492
 30
0.0
 11
75.3748207048
 21
117.392577492
 31
0.0
  0
LINE
  5
41F
330
1F
100
AcDbEntity
  8
0
  6
Continuous
 62
     7
370
    15
100
AcDbLine
 10
73.7682637188
 20
106.5252819714
 30
0.0
 11
74.1459581297
 21
106.5252819714
 31
0.0
  0
INSERT
  5
42C
330
1F
100
AcDbEntity
  8
注記
100
AcDbBlockReference
  2
SW_NOTE_7
 10
45.9983378736
 20
162.6497818827
 30
0.0
  0
LEADER
  5
42D
330
1F
100
AcDbEntity
  8
注記
100
AcDbLeader
  3
SLDDIMSTYLE0
 76
     2
 10
57.1292272349
 20
134.1732155907
 30
0.0
 10
45.9983378736
 20
162.6497818827
 30
0.0
  0
INSERT
  5
439
330
1F
100
AcDbEntity
  8
注記
100
AcDbBlockReference
  2
SW_NOTE_8
 10
69.573984059
 20
154.9459177868
 30
0.0
  0
LEADER
  5
43A
330
1F
100
AcDbEntity
  8
注記
100
AcDbLeader
  3
SLDDIMSTYLE1
 76
     2
 10
63.3297782488
 20
119.6689643302
 30
0.0
 10
69.573984059
 20
154.9459177868
 30
0.0
  0
INSERT
  5
44A
330
1F
100
AcDbEntity
  8
注記
100
AcDbBlockReference
  2
SW_NOTE_9
 10
62.5903999396
 20
57.3180879363
 30
0.0
  0
LEADER
  5
44B
330
1F
100
AcDbEntity
  8
注記
100
AcDbLeader
  3
SLDDIMSTYLE0
 76
     2
 10
68.3262486972
 20
95.6732155907
 30
0.0
 10
62.5903999396
 20
57.3180879363
 30
0.0
  0
INSERT
  5
458
330
1F
100
AcDbEntity
  8
注記
100
AcDbBlockReference
  2
SW_NOTE_10
 10
44.5378492257
 20
58.9522409263
 30
0.0
  0
LEADER
  5
459
330
1F
100
AcDbEntity
  8
注記
100
AcDbLeader
  3
SLDDIMSTYLE0
 76
     2
 10
56.1640404658
 20
90.994391553
 30
0.0
 10
44.5378492257
 20
58.9522409263
 30
0.0
  0
INSERT
  5
465
330
1F
100
AcDbEntity
  8
中心線
100
AcDbBlockReference
  2
SW_CENTERMARKSYMBOL_5
 10
57.2319629829
 20
112.0303584479
 30
0.0
  0
INSERT
  5
471
330
1F
100
AcDbEntity
  8
寸法線
100
AcDbBlockReference
  2
SW_CENTERMARKSYMBOL_6
 10
57.2319629829
 20
91.6017870193
 30
0.0
  0
LINE
  5
472
330
1F
100
AcDbEntity
  8
寸法線
  6
CENTERX2
 62
     7
370
     0
100
AcDbLine
 10
57.2319629829
 20
136.1732155907
 30
0.0
 11
57.2319629829
 21
129.1732155907
 31
0.0
  0
ENDSEC
  0
SECTION
  2
OBJECTS
  0
DICTIONARY
  5
C
330
0
100
AcDbDictionary
281
     1
  3
ACAD_GROUP
350
D
  3
ACAD_LAYOUT
350
1A
  3
ACAD_MLINESTYLE
350
17
  3
ACAD_PLOTSETTINGS
350
19
  3
ACAD_PLOTSTYLENAME
350
E
  0
DICTIONARY
  5
D
102
{ACAD_REACTORS
330
C
102
}
330
C
100
AcDbDictionary
281
     1
  0
DICTIONARY
  5
1A
102
{ACAD_REACTORS
330
C
102
}
330
C
100
AcDbDictionary
281
     1
  3
Layout1
350
1E
  3
Layout2
350
26
  3
Model
350
22
  0
DICTIONARY
  5
17
102
{ACAD_REACTORS
330
C
102
}
330
C
100
AcDbDictionary
281
     1
  3
Standard
350
18
  0
DICTIONARY
  5
19
102
{ACAD_REACTORS
330
C
102
}
330
C
100
AcDbDictionary
281
     1
  0
ACDBDICTIONARYWDFLT
  5
E
102
{ACAD_REACTORS
330
C
102
}
330
C
100
AcDbDictionary
281
     1
  3
Normal
350
F
100
AcDbDictionaryWithDefault
340
F
  0
LAYOUT
  5
1E
102
{ACAD_REACTORS
330
1A
102
}
330
1A
100
AcDbPlotSettings
  1

  2
none_device
  4

  6

 40
0.0
 41
0.0
 42
0.0
 43
0.0
 44
0.0
 45
0.0
 46
0.0
 47
0.0
 48
0.0
 49
0.0
140
0.0
141
0.0
142
1.0
143
1.0
 70
   688
 72
     0
 73
     0
 74
     5
  7

 75
    16
147
1.0
148
0.0
149
0.0
100
AcDbLayout
  1
Layout1
 70
     1
 71
     1
 10
0.0
 20
0.0
 11
420.0
 21
297.0
 12
0.0
 22
0.0
 32
0.0
 14
1.0000000000E+20
 24
1.0000000000E+20
 34
1.0000000000E+20
 15
-1.0000000000E+20
 25
-1.0000000000E+20
 35
-1.0000000000E+20
146
0.0
 13
0.0
 23
0.0
 33
0.0
 16
1.0
 26
0.0
 36
0.0
 17
0.0
 27
1.0
 37
0.0
 76
     0
330
1B
  0
LAYOUT
  5
26
102
{ACAD_REACTORS
330
1A
102
}
330
1A
100
AcDbPlotSettings
  1

  2
none_device
  4

  6

 40
0.0
 41
0.0
 42
0.0
 43
0.0
 44
0.0
 45
0.0
 46
0.0
 47
0.0
 48
0.0
 49
0.0
140
0.0
141
0.0
142
1.0
143
1.0
 70
   688
 72
     0
 73
     0
 74
     5
  7

 75
    16
147
1.0
148
0.0
149
0.0
100
AcDbLayout
  1
Layout2
 70
     1
 71
     2
 10
0.0
 20
0.0
 11
0.0
 21
0.0
 12
0.0
 22
0.0
 32
0.0
 14
0.0
 24
0.0
 34
0.0
 15
0.0
 25
0.0
 35
0.0
146
0.0
 13
0.0
 23
0.0
 33
0.0
 16
1.0
 26
0.0
 36
0.0
 17
0.0
 27
1.0
 37
0.0
 76
     0
330
23
  0
LAYOUT
  5
22
102
{ACAD_REACTORS
330
1A
102
}
330
1A
100
AcDbPlotSettings
  1

  2
none_device
  4

  6

 40
0.0
 41
0.0
 42
0.0
 43
0.0
 44
0.0
 45
0.0
 46
0.0
 47
0.0
 48
0.0
 49
0.0
140
0.0
141
0.0
142
1.0
143
1.0
 70
  1712
 72
     0
 73
     0
 74
     0
  7

 75
     0
147
1.0
148
0.0
149
0.0
100
AcDbLayout
  1
Model
 70
     1
 71
     0
 10
0.0
 20
0.0
 11
0.0
 21
0.0
 12
0.0
 22
0.0
 32
0.0
 14
0.0
 24
0.0
 34
0.0
 15
297.0
 25
210.0
 35
0.0
146
0.0
 13
0.0
 23
0.0
 33
0.0
 16
1.0
 26
0.0
 36
0.0
 17
0.0
 27
1.0
 37
0.0
 76
     0
330
1F
  0
MLINESTYLE
  5
18
102
{ACAD_REACTORS
330
17
102
}
330
17
100
AcDbMlineStyle
  2
Standard
 70
     0
  3

 62
   256
 51
90.0
 52
90.0
 71
     2
 49
0.5
 62
   256
  6
BYLAYER
 49
-0.5
 62
   256
  6
BYLAYER
  0
ACDBPLACEHOLDER
  5
F
102
{ACAD_REACTORS
330
E
102
}
330
E
  0
ENDSEC
  0
EOF
