  0
SECTION
  2
HEADER
  9
$ACADVER
  1
AC1015
  9
$ACADMAINTVER
 70
     6
  9
$DWGCODEPAGE
  3
DOS932
  9
$INSBASE
 10
0.0
 20
0.0
 30
0.0
  9
$EXTMIN
 10
0.0
 20
0.0
 30
0.0
  9
$EXTMAX
 10
297.0
 20
210.0
 30
0.0
  9
$LIMMIN
 10
0.0
 20
0.0
  9
$LIMMAX
 10
0.0
 20
0.0
  9
$ORTHOMODE
 70
     0
  9
$REGENMODE
 70
     1
  9
$FILLMODE
 70
     1
  9
$QTEXTMODE
 70
     0
  9
$MIRRTEXT
 70
     1
  9
$LTSCALE
 40
1.0
  9
$ATTMODE
 70
     1
  9
$TEXTSIZE
 40
3.175
  9
$TRACEWID
 40
1.0
  9
$TEXTSTYLE
  7
Standard
  9
$CLAYER
  8
0
  9
$CELTYPE
  6
ByLayer
  9
$CECOLOR
 62
   256
  9
$CELTSCALE
 40
1.0
  9
$DISPSILH
 70
     0
  9
$DIMSCALE
 40
1.0
  9
$DIMASZ
 40
2.0
  9
$DIMEXO
 40
1.0
  9
$DIMDLI
 40
3.75
  9
$DIMRND
 40
0.0
  9
$DIMDLE
 40
0.0
  9
$DIMEXE
 40
1.0
  9
$DIMTP
 40
0.0
  9
$DIMTM
 40
0.0
  9
$DIMTXT
 40
3.175
  9
$DIMCEN
 40
2.5
  9
$DIMTSZ
 40
0.0
  9
$DIMTOL
 70
     0
  9
$DIMLIM
 70
     0
  9
$DIMTIH
 70
     1
  9
$DIMTOH
 70
     1
  9
$DIMSE1
 70
     0
  9
$DIMSE2
 70
     0
  9
$DIMTAD
 70
     1
  9
$DIMZIN
 70
     0
  9
$DIMBLK
  1

  9
$DIMASO
 70
     1
  9
$DIMSHO
 70
     1
  9
$DIMPOST
  1

  9
$DIMAPOST
  1

  9
$DIMALT
 70
     0
  9
$DIMALTD
 70
     3
  9
$DIMALTF
 40
0.0393700787
  9
$DIMLFAC
 40
7.0
  9
$DIMTOFL
 70
     1
  9
$DIMTVP
 40
0.0
  9
$DIMTIX
 70
     0
  9
$DIMSOXD
 70
     0
  9
$DIMSAH
 70
     0
  9
$DIMBLK1
  1

  9
$DIMBLK2
  1

  9
$DIMSTYLE
  2
ISO-25
  9
$DIMCLRD
 70
     0
  9
$DIMCLRE
 70
     0
  9
$DIMCLRT
 70
     0
  9
$DIMTFAC
 40
1.0
  9
$DIMGAP
 40
1.524
  9
$DIMJUST
 70
     0
  9
$DIMSD1
 70
     0
  9
$DIMSD2
 70
     0
  9
$DIMTOLJ
 70
     0
  9
$DIMTZIN
 70
     0
  9
$DIMALTZ
 70
     0
  9
$DIMALTTZ
 70
     0
  9
$DIMUPT
 70
     0
  9
$DIMDEC
 70
     2
  9
$DIMTDEC
 70
     2
  9
$DIMALTU
 70
     2
  9
$DIMALTTD
 70
     3
  9
$DIMTXSTY
  7
Standard
  9
$DIMAUNIT
 70
     0
  9
$DIMADEC
 70
     0
  9
$DIMALTRND
 40
0.0
  9
$DIMAZIN
 70
     0
  9
$DIMDSEP
 70
    44
  9
$DIMATFIT
 70
     3
  9
$DIMFRAC
 70
     0
  9
$DIMLDRBLK
  1

  9
$DIMLUNIT
 70
     2
  9
$DIMLWD
 70
    -2
  9
$DIMLWE
 70
    -2
  9
$DIMTMOVE
 70
     0
  9
$LUNITS
 70
     2
  9
$LUPREC
 70
     2
  9
$SKETCHINC
 40
1.0
  9
$FILLETRAD
 40
10.0
  9
$AUNITS
 70
     0
  9
$AUPREC
 70
     0
  9
$MENU
  1
.
  9
$ELEVATION
 40
0.0
  9
$PELEVATION
 40
0.0
  9
$THICKNESS
 40
0.0
  9
$LIMCHECK
 70
     0
  9
$CHAMFERA
 40
10.0
  9
$CHAMFERB
 40
10.0
  9
$CHAMFERC
 40
20.0
  9
$CHAMFERD
 40
0.0
  9
$SKPOLY
 70
     0
  9
$TDCREATE
 40
2455622.683730208
  9
$TDUCREATE
 40
2455622.308730208
  9
$TDUPDATE
 40
2455622.68373022
  9
$TDUUPDATE
 40
2455622.30873022
  9
$TDINDWG
 40
0.0000000116
  9
$TDUSRTIMER
 40
0.0000000116
  9
$USRTIMER
 70
     1
  9
$ANGBASE
 50
0.0
  9
$ANGDIR
 70
     0
  9
$PDMODE
 70
     0
  9
$PDSIZE
 40
-1.0
  9
$PLINEWID
 40
0.0
  9
$SPLFRAME
 70
     0
  9
$SPLINETYPE
 70
     6
  9
$SPLINESEGS
 70
     8
  9
$HANDSEED
  5
3E8
  9
$SURFTAB1
 70
     6
  9
$SURFTAB2
 70
     6
  9
$SURFTYPE
 70
     6
  9
$SURFU
 70
     6
  9
$SURFV
 70
     6
  9
$UCSBASE
  2

  9
$UCSNAME
  2

  9
$UCSORG
 10
0.0
 20
0.0
 30
0.0
  9
$UCSXDIR
 10
1.0
 20
0.0
 30
0.0
  9
$UCSYDIR
 10
0.0
 20
1.0
 30
0.0
  9
$UCSORTHOREF
  2

  9
$UCSORTHOVIEW
 70
     0
  9
$UCSORGTOP
 10
0.0
 20
0.0
 30
0.0
  9
$UCSORGBOTTOM
 10
0.0
 20
0.0
 30
0.0
  9
$UCSORGLEFT
 10
0.0
 20
0.0
 30
0.0
  9
$UCSORGRIGHT
 10
0.0
 20
0.0
 30
0.0
  9
$UCSORGFRONT
 10
0.0
 20
0.0
 30
0.0
  9
$UCSORGBACK
 10
0.0
 20
0.0
 30
0.0
  9
$PUCSBASE
  2

  9
$PUCSNAME
  2

  9
$PUCSORG
 10
0.0
 20
0.0
 30
0.0
  9
$PUCSXDIR
 10
1.0
 20
0.0
 30
0.0
  9
$PUCSYDIR
 10
0.0
 20
1.0
 30
0.0
  9
$PUCSORTHOREF
  2

  9
$PUCSORTHOVIEW
 70
     0
  9
$PUCSORGTOP
 10
0.0
 20
0.0
 30
0.0
  9
$PUCSORGBOTTOM
 10
0.0
 20
0.0
 30
0.0
  9
$PUCSORGLEFT
 10
0.0
 20
0.0
 30
0.0
  9
$PUCSORGRIGHT
 10
0.0
 20
0.0
 30
0.0
  9
$PUCSORGFRONT
 10
0.0
 20
0.0
 30
0.0
  9
$PUCSORGBACK
 10
0.0
 20
0.0
 30
0.0
  9
$USERI1
 70
     0
  9
$USERI2
 70
     0
  9
$USERI3
 70
     0
  9
$USERI4
 70
     0
  9
$USERI5
 70
     0
  9
$USERR1
 40
0.0
  9
$USERR2
 40
0.0
  9
$USERR3
 40
0.0
  9
$USERR4
 40
0.0
  9
$USERR5
 40
0.0
  9
$WORLDVIEW
 70
     1
  9
$SHADEDGE
 70
     3
  9
$SHADEDIF
 70
    70
  9
$TILEMODE
 70
     1
  9
$MAXACTVP
 70
    64
  9
$PINSBASE
 10
0.0
 20
0.0
 30
0.0
  9
$PLIMCHECK
 70
     0
  9
$PEXTMIN
 10
1.0000000000E+20
 20
1.0000000000E+20
 30
1.0000000000E+20
  9
$PEXTMAX
 10
-1.0000000000E+20
 20
-1.0000000000E+20
 30
-1.0000000000E+20
  9
$PLIMMIN
 10
0.0
 20
0.0
  9
$PLIMMAX
 10
420.0
 20
297.0
  9
$UNITMODE
 70
     0
  9
$VISRETAIN
 70
     1
  9
$PLINEGEN
 70
     0
  9
$PSLTSCALE
 70
     1
  9
$TREEDEPTH
 70
  3020
  9
$CMLSTYLE
  2
Standard
  9
$CMLJUST
 70
     0
  9
$CMLSCALE
 40
20.0
  9
$PROXYGRAPHICS
 70
     1
  9
$MEASUREMENT
 70
     1
  9
$CELWEIGHT
370
    -1
  9
$ENDCAPS
280
     0
  9
$JOINSTYLE
280
     0
  9
$LWDISPLAY
290
     1
  9
$INSUNITS
 70
     4
  9
$HYPERLINKBASE
  1

  9
$STYLESHEET
  1

  9
$XEDIT
290
     1
  9
$CEPSNTYPE
380
     0
  9
$PSTYLEMODE
290
     1
  9
$FINGERPRINTGUID
  2
{809278FF-B4EF-49E8-A82C-0A426C76EAE2}
  9
$VERSIONGUID
  2
{FAEB1C32-E019-11D5-929B-00C0DF256EC4}
  9
$EXTNAMES
290
     1
  9
$PSVPSCALE
 40
0.0
  9
$OLESTARTUP
290
     0
  0
ENDSEC
  0
SECTION
  2
CLASSES
  0
CLASS
  1
ACDBDICTIONARYWDFLT
  2
AcDbDictionaryWithDefault
  3
ObjectDBX Classes
 90
        0
280
     0
281
     0
  0
CLASS
  1
ACDBPLACEHOLDER
  2
AcDbPlaceHolder
  3
ObjectDBX Classes
 90
        0
280
     0
281
     0
  0
CLASS
  1
LAYOUT
  2
AcDbLayout
  3
ObjectDBX Classes
 90
        0
280
     0
281
     0
  0
ENDSEC
  0
SECTION
  2
TABLES
  0
TABLE
  2
VPORT
  5
8
330
0
100
AcDbSymbolTable
 70
     1
  0
VPORT
  5
29
330
8
100
AcDbSymbolTableRecord
100
AcDbViewportTableRecord
  2
*Active
 70
     0
 10
0.0
 20
0.0
 11
1.0
 21
1.0
 12
148.5
 22
105.0
 13
0.0
 23
0.0
 14
10.0
 24
10.0
 15
10.0
 25
10.0
 16
0.0
 26
0.0
 36
1.0
 17
0.0
 27
0.0
 37
0.0
 40
210.0
 41
1.4142857143
 42
50.0
 43
0.0
 44
0.0
 50
0.0
 51
0.0
 71
     0
 72
  2000
 73
     1
 74
     3
 75
     0
 76
     0
 77
     0
 78
     0
281
     0
 65
     1
110
0.0
120
0.0
130
0.0
111
1.0
121
0.0
131
0.0
112
0.0
122
1.0
132
0.0
 79
     0
146
0.0
  0
ENDTAB
  0
TABLE
  2
LTYPE
  5
5
330
0
100
AcDbSymbolTable
 70
     6
  0
LTYPE
  5
14
330
5
100
AcDbSymbolTableRecord
100
AcDbLinetypeTableRecord
  2
ByBlock
 70
     0
  3

 72
    65
 73
     0
 40
0.0
  0
LTYPE
  5
15
330
5
100
AcDbSymbolTableRecord
100
AcDbLinetypeTableRecord
  2
ByLayer
 70
     0
  3

 72
    65
 73
     0
 40
0.0
  0
LTYPE
  5
16
330
5
100
AcDbSymbolTableRecord
100
AcDbLinetypeTableRecord
  2
Continuous
 70
     0
  3
Solid line
 72
    65
 73
     0
 40
0.0
  0
LTYPE
  5
2A
330
5
100
AcDbSymbolTableRecord
100
AcDbLinetypeTableRecord
  2
HIDDEN
 70
     0
  3
Hidden __ __ __ __ __ __ __ __ __ __ __ __ __ __
 72
    65
 73
     2
 40
1.905
 49
1.27
 74
     0
 49
-0.635
 74
     0
  0
LTYPE
  5
2B
330
5
100
AcDbSymbolTableRecord
100
AcDbLinetypeTableRecord
  2
PHANTOM
 70
     0
  3
Phantom ______  __  __  ______  __  __  ______
 72
    65
 73
     6
 40
12.7
 49
6.35
 74
     0
 49
-1.27
 74
     0
 49
1.27
 74
     0
 49
-1.27
 74
     0
 49
1.27
 74
     0
 49
-1.27
 74
     0
  0
LTYPE
  5
2C
330
5
100
AcDbSymbolTableRecord
100
AcDbLinetypeTableRecord
  2
CENTER
 70
     0
  3
Center ____ _ ____ _ ____ _ ____ _ ____ _ ____
 72
    65
 73
     4
 40
10.16
 49
6.35
 74
     0
 49
-1.27
 74
     0
 49
1.27
 74
     0
 49
-1.27
 74
     0
  0
LTYPE
  5
2D
330
5
100
AcDbSymbolTableRecord
100
AcDbLinetypeTableRecord
  2
CENTERX2
 70
     0
  3
Center (2x) ________  __  ________  __  _____
 72
    65
 73
     4
 40
20.32
 49
12.7
 74
     0
 49
-2.54
 74
     0
 49
2.54
 74
     0
 49
-2.54
 74
     0
  0
LTYPE
  5
2E
330
5
100
AcDbSymbolTableRecord
100
AcDbLinetypeTableRecord
  2
DOT2
 70
     0
  3
Dot (.5x) ........................................
 72
    65
 73
     2
 40
0.635
 49
0.0
 74
     0
 49
-0.635
 74
     0
  0
ENDTAB
  0
TABLE
  2
LAYER
  5
2
330
0
100
AcDbSymbolTable
 70
     5
  0
LAYER
  5
10
330
2
100
AcDbSymbolTableRecord
100
AcDbLayerTableRecord
  2
0
 70
     0
 62
     7
  6
Continuous
370
    -3
390
F
  0
LAYER
  5
2F
330
2
100
AcDbSymbolTableRecord
100
AcDbLayerTableRecord
  2
ﾚｲﾔｰ0
 70
     0
 62
  -211
  6
Continuous
370
    -3
390
F
  0
LAYER
  5
30
330
2
100
AcDbSymbolTableRecord
100
AcDbLayerTableRecord
  2
寸法線
 70
     0
 62
  -179
  6
Continuous
370
    -3
390
F
  0
LAYER
  5
31
330
2
100
AcDbSymbolTableRecord
100
AcDbLayerTableRecord
  2
中心線
 70
     0
 62
   179
  6
CENTERX2
370
    -3
390
F
  0
LAYER
  5
32
330
2
100
AcDbSymbolTableRecord
100
AcDbLayerTableRecord
  2
注記
 70
     0
 62
   179
  6
Continuous
370
    -3
390
F
  0
ENDTAB
  0
TABLE
  2
STYLE
  5
3
330
0
100
AcDbSymbolTable
 70
     5
  0
STYLE
  5
11
330
3
100
AcDbSymbolTableRecord
100
AcDbTextStyleTableRecord
  2
Standard
 70
     0
 40
0.0
 41
1.0
 50
0.0
 71
     0
 42
2.5
  3
txt
  4
bigfont
  0
STYLE
  5
39
330
3
100
AcDbSymbolTableRecord
100
AcDbTextStyleTableRecord
  2
SLDTEXTSTYLE0
 70
     0
 40
0.0
 41
0.63
 50
0.0
 71
     0
 42
0.2
  3
TXT
  4
bigfont
  0
STYLE
  5
EA
330
3
100
AcDbSymbolTableRecord
100
AcDbTextStyleTableRecord
  2
SLDTEXTSTYLE1
 70
     0
 40
0.0
 41
0.7
 50
0.0
 71
     0
 42
0.2
  3
TXT
  4
bigfont
  0
STYLE
  5
F9
330
3
100
AcDbSymbolTableRecord
100
AcDbTextStyleTableRecord
  2
SLDTEXTSTYLE2
 70
     0
 40
0.0
 41
0.65625
 50
0.0
 71
     0
 42
0.2
  3
TXT
  4
bigfont
  0
STYLE
  5
26E
330
3
100
AcDbSymbolTableRecord
100
AcDbTextStyleTableRecord
  2
SLDTEXTSTYLE3
 70
     0
 40
0.0
 41
0.6666666667
 50
0.0
 71
     0
 42
0.2
  3
TXT
  4
bigfont
  0
ENDTAB
  0
TABLE
  2
VIEW
  5
6
330
0
100
AcDbSymbolTable
 70
     0
  0
ENDTAB
  0
TABLE
  2
UCS
  5
7
330
0
100
AcDbSymbolTable
 70
     0
  0
ENDTAB
  0
TABLE
  2
APPID
  5
9
330
0
100
AcDbSymbolTable
 70
     1
  0
APPID
  5
12
330
9
100
AcDbSymbolTableRecord
100
AcDbRegAppTableRecord
  2
ACAD
 70
     0
  0
ENDTAB
  0
TABLE
  2
DIMSTYLE
  5
A
330
0
100
AcDbSymbolTable
 70
     3
100
AcDbDimStyleTable
  0
DIMSTYLE
105
27
330
A
100
AcDbSymbolTableRecord
100
AcDbDimStyleTableRecord
  2
ISO-25
 70
     0
 41
2.5
 42
0.625
 43
3.75
 44
1.25
 73
     0
 74
     0
 77
     1
 78
     8
140
2.5
141
2.5
143
0.0393700787
147
0.625
171
     3
172
     1
271
     2
272
     2
274
     3
278
    44
283
     0
284
     8
340
11
  0
DIMSTYLE
105
ED
330
A
100
AcDbSymbolTableRecord
100
AcDbDimStyleTableRecord
  2
SLDDIMSTYLE0
 70
     0
 41
2.0
 44
0.0
140
2.0
147
0.5
173
     1
271
     0
272
     0
340
11
  0
DIMSTYLE
105
FC
330
A
100
AcDbSymbolTableRecord
100
AcDbDimStyleTableRecord
  2
SLDDIMSTYLE1
 70
     0
 41
0.1666666667
 44
0.0
140
0.5
147
0.125
173
     1
271
     0
272
     0
340
11
341
FD
343
FD
344
FD
  0
ENDTAB
  0
TABLE
  2
BLOCK_RECORD
  5
1
330
0
100
AcDbSymbolTable
 70
    18
  0
BLOCK_RECORD
  5
1F
330
1
100
AcDbSymbolTableRecord
100
AcDbBlockTableRecord
  2
*Model_Space
340
22
  0
BLOCK_RECORD
  5
1B
330
1
100
AcDbSymbolTableRecord
100
AcDbBlockTableRecord
  2
*Paper_Space
340
1E
  0
BLOCK_RECORD
  5
23
330
1
100
AcDbSymbolTableRecord
100
AcDbBlockTableRecord
  2
*Paper_Space0
340
26
  0
BLOCK_RECORD
  5
E1
330
1
100
AcDbSymbolTableRecord
100
AcDbBlockTableRecord
  2
SW_NOTE_0
340
0
102
{BLKREFS
331
EC
102
}
1001
ACAD
1000
DesignCenter Data
1002
{
1070
     1
1070
     0
1002
}
  0
BLOCK_RECORD
  5
EF
330
1
100
AcDbSymbolTableRecord
100
AcDbBlockTableRecord
  2
SW_NOTE_1
340
0
102
{BLKREFS
331
FB
102
}
1001
ACAD
1000
DesignCenter Data
1002
{
1070
     1
1070
     0
1002
}
  0
BLOCK_RECORD
  5
FD
330
1
100
AcDbSymbolTableRecord
100
AcDbBlockTableRecord
  2
_Dot
340
0
1001
ACAD
1000
DesignCenter Data
1002
{
1070
     1
1070
     0
1002
}
  0
BLOCK_RECORD
  5
103
330
1
100
AcDbSymbolTableRecord
100
AcDbBlockTableRecord
  2
SW_NOTE_2
340
0
102
{BLKREFS
331
10E
102
}
1001
ACAD
1000
DesignCenter Data
1002
{
1070
     1
1070
     0
1002
}
  0
BLOCK_RECORD
  5
17B
330
1
100
AcDbSymbolTableRecord
100
AcDbBlockTableRecord
  2
SW_NOTE_3
340
0
102
{BLKREFS
331
187
102
}
1001
ACAD
1000
DesignCenter Data
1002
{
1070
     1
1070
     0
1002
}
  0
BLOCK_RECORD
  5
189
330
1
100
AcDbSymbolTableRecord
100
AcDbBlockTableRecord
  2
SW_NOTE_4
340
0
102
{BLKREFS
331
195
102
}
1001
ACAD
1000
DesignCenter Data
1002
{
1070
     1
1070
     0
1002
}
  0
BLOCK_RECORD
  5
197
330
1
100
AcDbSymbolTableRecord
100
AcDbBlockTableRecord
  2
SW_NOTE_5
340
0
102
{BLKREFS
331
1A3
102
}
1001
ACAD
1000
DesignCenter Data
1002
{
1070
     1
1070
     0
1002
}
  0
BLOCK_RECORD
  5
1A5
330
1
100
AcDbSymbolTableRecord
100
AcDbBlockTableRecord
  2
SW_NOTE_6
340
0
102
{BLKREFS
331
1B0
102
}
1001
ACAD
1000
DesignCenter Data
1002
{
1070
     1
1070
     0
1002
}
  0
BLOCK_RECORD
  5
1B2
330
1
100
AcDbSymbolTableRecord
100
AcDbBlockTableRecord
  2
SW_CENTERMARKSYMBOL_0
340
0
102
{BLKREFS
331
1BD
102
}
1001
ACAD
1000
DesignCenter Data
1002
{
1070
     1
1070
     0
1002
}
  0
BLOCK_RECORD
  5
1BE
330
1
100
AcDbSymbolTableRecord
100
AcDbBlockTableRecord
  2
SW_CENTERMARKSYMBOL_1
340
0
102
{BLKREFS
331
1C9
102
}
1001
ACAD
1000
DesignCenter Data
1002
{
1070
     1
1070
     0
1002
}
  0
BLOCK_RECORD
  5
264
330
1
100
AcDbSymbolTableRecord
100
AcDbBlockTableRecord
  2
SW_NOTE_7
340
0
102
{BLKREFS
331
270
102
}
1001
ACAD
1000
DesignCenter Data
1002
{
1070
     1
1070
     0
1002
}
  0
BLOCK_RECORD
  5
272
330
1
100
AcDbSymbolTableRecord
100
AcDbBlockTableRecord
  2
SW_NOTE_8
340
0
102
{BLKREFS
331
27D
102
}
1001
ACAD
1000
DesignCenter Data
1002
{
1070
     1
1070
     0
1002
}
  0
BLOCK_RECORD
  5
310
330
1
100
AcDbSymbolTableRecord
100
AcDbBlockTableRecord
  2
SW_NOTE_9
340
0
102
{BLKREFS
331
31B
102
}
1001
ACAD
1000
DesignCenter Data
1002
{
1070
     1
1070
     0
1002
}
  0
BLOCK_RECORD
  5
3B8
330
1
100
AcDbSymbolTableRecord
100
AcDbBlockTableRecord
  2
SW_CENTERMARKSYMBOL_2
340
0
102
{BLKREFS
331
3C3
102
}
1001
ACAD
1000
DesignCenter Data
1002
{
1070
     1
1070
     0
1002
}
  0
BLOCK_RECORD
  5
3C4
330
1
100
AcDbSymbolTableRecord
100
AcDbBlockTableRecord
  2
SW_CENTERMARKSYMBOL_3
340
0
102
{BLKREFS
331
3CF
102
}
1001
ACAD
1000
DesignCenter Data
1002
{
1070
     1
1070
     0
1002
}
  0
BLOCK_RECORD
  5
3D0
330
1
100
AcDbSymbolTableRecord
100
AcDbBlockTableRecord
  2
SW_CENTERMARKSYMBOL_4
340
0
102
{BLKREFS
331
3DB
102
}
1001
ACAD
1000
DesignCenter Data
1002
{
1070
     1
1070
     0
1002
}
  0
BLOCK_RECORD
  5
3DC
330
1
100
AcDbSymbolTableRecord
100
AcDbBlockTableRecord
  2
SW_CENTERMARKSYMBOL_5
340
0
102
{BLKREFS
331
3E7
102
}
1001
ACAD
1000
DesignCenter Data
1002
{
1070
     1
1070
     0
1002
}
  0
ENDTAB
  0
ENDSEC
  0
SECTION
  2
BLOCKS
  0
BLOCK
  5
20
330
1F
100
AcDbEntity
  8
0
100
AcDbBlockBegin
  2
*Model_Space
 70
     0
 71
     0
 10
0.0
 20
0.0
 30
0.0
  3
*Model_Space
  1

  0
ENDBLK
  5
21
330
1F
100
AcDbEntity
  8
0
100
AcDbBlockEnd
  0
BLOCK
  5
1C
330
1B
100
AcDbEntity
 67
     1
  8
0
100
AcDbBlockBegin
  2
*Paper_Space
 70
     0
 71
     0
 10
0.0
 20
0.0
 30
0.0
  3
*Paper_Space
  1

  0
ENDBLK
  5
1D
330
1B
100
AcDbEntity
 67
     1
  8
0
100
AcDbBlockEnd
  0
BLOCK
  5
24
330
23
100
AcDbEntity
  8
0
100
AcDbBlockBegin
  2
*Paper_Space0
 70
     0
 71
     0
 10
0.0
 20
0.0
 30
0.0
  3
*Paper_Space0
  1

  0
ENDBLK
  5
25
330
23
100
AcDbEntity
  8
0
100
AcDbBlockEnd
  0
BLOCK
  5
E2
330
E1
100
AcDbEntity
  8
0
100
AcDbBlockBegin
  2
SW_NOTE_0
 70
     0
 71
     0
 10
0.0
 20
0.0
 30
0.0
  3
SW_NOTE_0
  1

  0
LINE
  5
E4
330
E1
100
AcDbEntity
  8
寸法線
 62
     0
100
AcDbLine
 10
0.0
 20
0.0
 30
0.0
 11
6.350200338
 21
0.0
 31
0.0
  0
LINE
  5
E5
330
E1
100
AcDbEntity
  8
寸法線
 62
     0
100
AcDbLine
 10
6.350200338
 20
0.0
 30
0.0
 11
0.0
 21
0.0
 31
0.0
  0
LINE
  5
E6
330
E1
100
AcDbEntity
  8
寸法線
 62
     0
100
AcDbLine
 10
0.0
 20
0.0
 30
0.0
 11
6.350200338
 21
0.0
 31
0.0
  0
LINE
  5
E7
330
E1
100
AcDbEntity
  8
寸法線
 62
     0
100
AcDbLine
 10
6.350200338
 20
0.0
 30
0.0
 11
0.0
 21
0.0
 31
0.0
  0
LINE
  5
E8
330
E1
100
AcDbEntity
  8
寸法線
 62
     0
100
AcDbLine
 10
0.0
 20
0.0
 30
0.0
 11
6.350200338
 21
0.0
 31
0.0
  0
LINE
  5
E9
330
E1
100
AcDbEntity
  8
寸法線
 62
     0
100
AcDbLine
 10
6.350200338
 20
0.0
 30
0.0
 11
0.0
 21
0.0
 31
0.0
  0
MTEXT
  5
EB
330
E1
100
AcDbEntity
  8
寸法線
 62
     0
100
AcDbMText
 10
0.002250766
 20
2.7709117272
 30
0.0
 40
2.38125
 41
0.0
 71
     1
 72
     1
  1
取手
  7
SLDTEXTSTYLE1
 73
     1
 44
1.0
  0
ENDBLK
  5
E3
330
E1
100
AcDbEntity
  8
0
100
AcDbBlockEnd
  0
BLOCK
  5
F0
330
EF
100
AcDbEntity
  8
0
100
AcDbBlockBegin
  2
SW_NOTE_1
 70
     0
 71
     0
 10
0.0
 20
0.0
 30
0.0
  3
SW_NOTE_1
  1

  0
LINE
  5
F2
330
EF
100
AcDbEntity
  8
寸法線
 62
     0
100
AcDbLine
 10
0.0
 20
0.0
 30
0.0
 11
28.5759015209
 21
0.0
 31
0.0
  0
LINE
  5
F3
330
EF
100
AcDbEntity
  8
寸法線
 62
     0
100
AcDbLine
 10
28.5759015209
 20
0.0
 30
0.0
 11
0.0
 21
0.0
 31
0.0
  0
LINE
  5
F4
330
EF
100
AcDbEntity
  8
寸法線
 62
     0
100
AcDbLine
 10
0.0
 20
0.0
 30
0.0
 11
28.5759015209
 21
0.0
 31
0.0
  0
LINE
  5
F5
330
EF
100
AcDbEntity
  8
寸法線
 62
     0
100
AcDbLine
 10
28.5759015209
 20
0.0
 30
0.0
 11
0.0
 21
0.0
 31
0.0
  0
LINE
  5
F6
330
EF
100
AcDbEntity
  8
寸法線
 62
     0
100
AcDbLine
 10
0.0
 20
0.0
 30
0.0
 11
28.5759015209
 21
0.0
 31
0.0
  0
LINE
  5
F7
330
EF
100
AcDbEntity
  8
寸法線
 62
     0
100
AcDbLine
 10
28.5759015209
 20
0.0
 30
0.0
 11
0.0
 21
0.0
 31
0.0
  0
MTEXT
  5
F8
330
EF
100
AcDbEntity
  8
寸法線
 62
     0
100
AcDbMText
 10
0.001852486
 20
5.9460047165
 30
0.0
 40
2.38125
 41
0.0
 71
     1
 72
     1
  1
電動機端子箱
  7
SLDTEXTSTYLE1
 73
     1
 44
1.0
  0
MTEXT
  5
FA
330
EF
100
AcDbEntity
  8
寸法線
 62
     0
100
AcDbMText
 10
0.001852486
 20
2.7710047548
 30
0.0
 40
2.38125
 41
0.0
 71
     1
 72
     1
  1
Motor terminal box
  7
SLDTEXTSTYLE2
 73
     1
 44
1.0
  0
ENDBLK
  5
F1
330
EF
100
AcDbEntity
  8
0
100
AcDbBlockEnd
  0
BLOCK
  5
FE
330
FD
100
AcDbEntity
  8
0
100
AcDbBlockBegin
  2
_Dot
 70
     0
 71
     0
 10
0.0
 20
0.0
 30
0.0
  3
_Dot
  1

  0
LWPOLYLINE
  5
100
330
FD
100
AcDbEntity
  8
0
  6
ByBlock
 62
     0
100
AcDbPolyline
 90
        2
 70
     1
 43
0.5
 10
-0.25
 20
0.0
 42
1.0
 10
0.25
 20
0.0
 42
1.0
  0
LINE
  5
101
330
FD
100
AcDbEntity
  8
0
  6
ByBlock
 62
     0
370
    -2
100
AcDbLine
 10
-0.5
 20
0.0
 30
0.0
 11
-1.0
 21
0.0
 31
0.0
  0
ENDBLK
  5
FF
330
FD
100
AcDbEntity
  8
0
100
AcDbBlockEnd
  0
BLOCK
  5
104
330
103
100
AcDbEntity
  8
0
100
AcDbBlockBegin
  2
SW_NOTE_2
 70
     0
 71
     0
 10
0.0
 20
0.0
 30
0.0
  3
SW_NOTE_2
  1

  0
LINE
  5
106
330
103
100
AcDbEntity
  8
寸法線
 62
     0
100
AcDbLine
 10
0.0
 20
0.0
 30
0.0
 11
15.8755008449
 21
0.0
 31
0.0
  0
LINE
  5
107
330
103
100
AcDbEntity
  8
寸法線
 62
     0
100
AcDbLine
 10
15.8755008449
 20
0.0
 30
0.0
 11
0.0
 21
0.0
 31
0.0
  0
LINE
  5
108
330
103
100
AcDbEntity
  8
寸法線
 62
     0
100
AcDbLine
 10
0.0
 20
0.0
 30
0.0
 11
15.8755008449
 21
0.0
 31
0.0
  0
LINE
  5
109
330
103
100
AcDbEntity
  8
寸法線
 62
     0
100
AcDbLine
 10
15.8755008449
 20
0.0
 30
0.0
 11
0.0
 21
0.0
 31
0.0
  0
LINE
  5
10A
330
103
100
AcDbEntity
  8
寸法線
 62
     0
100
AcDbLine
 10
0.0
 20
0.0
 30
0.0
 11
15.8755008449
 21
0.0
 31
0.0
  0
LINE
  5
10B
330
103
100
AcDbEntity
  8
寸法線
 62
     0
100
AcDbLine
 10
15.8755008449
 20
0.0
 30
0.0
 11
0.0
 21
0.0
 31
0.0
  0
MTEXT
  5
10C
330
103
100
AcDbEntity
  8
寸法線
 62
     0
100
AcDbMText
 10
0.002565259
 20
5.9467733474
 30
0.0
 40
2.38125
 41
0.0
 71
     1
 72
     1
  1
時間計
  7
SLDTEXTSTYLE1
 73
     1
 44
1.0
  0
MTEXT
  5
10D
330
103
100
AcDbEntity
  8
寸法線
 62
     0
100
AcDbMText
 10
0.002565259
 20
2.7717733858
 30
0.0
 40
2.38125
 41
0.0
 71
     1
 72
     1
  1
Hour meter
  7
SLDTEXTSTYLE1
 73
     1
 44
1.0
  0
ENDBLK
  5
105
330
103
100
AcDbEntity
  8
0
100
AcDbBlockEnd
  0
BLOCK
  5
17C
330
17B
100
AcDbEntity
  8
0
100
AcDbBlockBegin
  2
SW_NOTE_3
 70
     0
 71
     0
 10
0.0
 20
0.0
 30
0.0
  3
SW_NOTE_3
  1

  0
LINE
  5
17E
330
17B
100
AcDbEntity
  8
寸法線
 62
     0
100
AcDbLine
 10
0.0
 20
0.0
 30
0.0
 11
25.4008013519
 21
0.0
 31
0.0
  0
LINE
  5
17F
330
17B
100
AcDbEntity
  8
寸法線
 62
     0
100
AcDbLine
 10
25.4008013519
 20
0.0
 30
0.0
 11
0.0
 21
0.0
 31
0.0
  0
LINE
  5
180
330
17B
100
AcDbEntity
  8
寸法線
 62
     0
100
AcDbLine
 10
0.0
 20
0.0
 30
0.0
 11
25.4008013519
 21
0.0
 31
0.0
  0
LINE
  5
181
330
17B
100
AcDbEntity
  8
寸法線
 62
     0
100
AcDbLine
 10
25.4008013519
 20
0.0
 30
0.0
 11
0.0
 21
0.0
 31
0.0
  0
LINE
  5
182
330
17B
100
AcDbEntity
  8
寸法線
 62
     0
100
AcDbLine
 10
0.0
 20
0.0
 30
0.0
 11
25.4008013519
 21
0.0
 31
0.0
  0
LINE
  5
183
330
17B
100
AcDbEntity
  8
寸法線
 62
     0
100
AcDbLine
 10
25.4008013519
 20
0.0
 30
0.0
 11
0.0
 21
0.0
 31
0.0
  0
MTEXT
  5
184
330
17B
100
AcDbEntity
  8
寸法線
 62
     0
100
AcDbMText
 10
0.0014175581
 20
9.12194751
 30
0.0
 40
2.38125
 41
0.0
 71
     1
 72
     1
  1
エアーフラッシュ
  7
SLDTEXTSTYLE1
 73
     1
 44
1.0
  0
MTEXT
  5
185
330
17B
100
AcDbEntity
  8
寸法線
 62
     0
100
AcDbMText
 10
0.0014175581
 20
5.9469475484
 30
0.0
 40
2.38125
 41
0.0
 71
     1
 72
     1
  1
Air flush
  7
SLDTEXTSTYLE1
 73
     1
 44
1.0
  0
MTEXT
  5
186
330
17B
100
AcDbEntity
  8
寸法線
 62
     0
100
AcDbMText
 10
0.0014175581
 20
2.7719475868
 30
0.0
 40
2.38125
 41
0.0
 71
     1
 72
     1
  1
Rc1/8
  7
SLDTEXTSTYLE1
 73
     1
 44
1.0
  0
ENDBLK
  5
17D
330
17B
100
AcDbEntity
  8
0
100
AcDbBlockEnd
  0
BLOCK
  5
18A
330
189
100
AcDbEntity
  8
0
100
AcDbBlockBegin
  2
SW_NOTE_4
 70
     0
 71
     0
 10
0.0
 20
0.0
 30
0.0
  3
SW_NOTE_4
  1

  0
LINE
  5
18C
330
189
100
AcDbEntity
  8
寸法線
 62
     0
100
AcDbLine
 10
-9.525300507
 20
0.0
 30
0.0
 11
0.0
 21
0.0
 31
0.0
  0
LINE
  5
18D
330
189
100
AcDbEntity
  8
寸法線
 62
     0
100
AcDbLine
 10
0.0
 20
0.0
 30
0.0
 11
-9.525300507
 21
0.0
 31
0.0
  0
LINE
  5
18E
330
189
100
AcDbEntity
  8
寸法線
 62
     0
100
AcDbLine
 10
-9.525300507
 20
0.0
 30
0.0
 11
0.0
 21
0.0
 31
0.0
  0
LINE
  5
18F
330
189
100
AcDbEntity
  8
寸法線
 62
     0
100
AcDbLine
 10
0.0
 20
0.0
 30
0.0
 11
-9.525300507
 21
0.0
 31
0.0
  0
LINE
  5
190
330
189
100
AcDbEntity
  8
寸法線
 62
     0
100
AcDbLine
 10
-9.525300507
 20
0.0
 30
0.0
 11
0.0
 21
0.0
 31
0.0
  0
LINE
  5
191
330
189
100
AcDbEntity
  8
寸法線
 62
     0
100
AcDbLine
 10
0.0
 20
0.0
 30
0.0
 11
-9.525300507
 21
0.0
 31
0.0
  0
MTEXT
  5
192
330
189
100
AcDbEntity
  8
寸法線
 62
     0
100
AcDbMText
 10
-9.5245658197
 20
9.1212350203
 30
0.0
 40
2.38125
 41
0.0
 71
     1
 72
     1
  1
排気口
  7
SLDTEXTSTYLE1
 73
     1
 44
1.0
  0
MTEXT
  5
193
330
189
100
AcDbEntity
  8
寸法線
 62
     0
100
AcDbMText
 10
-9.5245658197
 20
5.9462350587
 30
0.0
 40
2.38125
 41
0.0
 71
     1
 72
     1
  1
Outlet
  7
SLDTEXTSTYLE1
 73
     1
 44
1.0
  0
MTEXT
  5
194
330
189
100
AcDbEntity
  8
寸法線
 62
     0
100
AcDbMText
 10
-9.5245658197
 20
2.771235097
 30
0.0
 40
2.38125
 41
0.0
 71
     1
 72
     1
  1
NW16
  7
SLDTEXTSTYLE1
 73
     1
 44
1.0
  0
ENDBLK
  5
18B
330
189
100
AcDbEntity
  8
0
100
AcDbBlockEnd
  0
BLOCK
  5
198
330
197
100
AcDbEntity
  8
0
100
AcDbBlockBegin
  2
SW_NOTE_5
 70
     0
 71
     0
 10
0.0
 20
0.0
 30
0.0
  3
SW_NOTE_5
  1

  0
LINE
  5
19A
330
197
100
AcDbEntity
  8
寸法線
 62
     0
100
AcDbLine
 10
-9.525300507
 20
0.0
 30
0.0
 11
0.0
 21
0.0
 31
0.0
  0
LINE
  5
19B
330
197
100
AcDbEntity
  8
寸法線
 62
     0
100
AcDbLine
 10
0.0
 20
0.0
 30
0.0
 11
-9.525300507
 21
0.0
 31
0.0
  0
LINE
  5
19C
330
197
100
AcDbEntity
  8
寸法線
 62
     0
100
AcDbLine
 10
-9.525300507
 20
0.0
 30
0.0
 11
0.0
 21
0.0
 31
0.0
  0
LINE
  5
19D
330
197
100
AcDbEntity
  8
寸法線
 62
     0
100
AcDbLine
 10
0.0
 20
0.0
 30
0.0
 11
-9.525300507
 21
0.0
 31
0.0
  0
LINE
  5
19E
330
197
100
AcDbEntity
  8
寸法線
 62
     0
100
AcDbLine
 10
-9.525300507
 20
0.0
 30
0.0
 11
0.0
 21
0.0
 31
0.0
  0
LINE
  5
19F
330
197
100
AcDbEntity
  8
寸法線
 62
     0
100
AcDbLine
 10
0.0
 20
0.0
 30
0.0
 11
-9.525300507
 21
0.0
 31
0.0
  0
MTEXT
  5
1A0
330
197
100
AcDbEntity
  8
寸法線
 62
     0
100
AcDbMText
 10
-9.5207394478
 20
9.1240761435
 30
0.0
 40
2.38125
 41
0.0
 71
     1
 72
     1
  1
吸気口
  7
SLDTEXTSTYLE1
 73
     1
 44
1.0
  0
MTEXT
  5
1A1
330
197
100
AcDbEntity
  8
寸法線
 62
     0
100
AcDbMText
 10
-9.5207394478
 20
5.9490761818
 30
0.0
 40
2.38125
 41
0.0
 71
     1
 72
     1
  1
Inlet
  7
SLDTEXTSTYLE1
 73
     1
 44
1.0
  0
MTEXT
  5
1A2
330
197
100
AcDbEntity
  8
寸法線
 62
     0
100
AcDbMText
 10
-9.5207394478
 20
2.7740762202
 30
0.0
 40
2.38125
 41
0.0
 71
     1
 72
     1
  1
NW25
  7
SLDTEXTSTYLE1
 73
     1
 44
1.0
  0
ENDBLK
  5
199
330
197
100
AcDbEntity
  8
0
100
AcDbBlockEnd
  0
BLOCK
  5
1A6
330
1A5
100
AcDbEntity
  8
0
100
AcDbBlockBegin
  2
SW_NOTE_6
 70
     0
 71
     0
 10
0.0
 20
0.0
 30
0.0
  3
SW_NOTE_6
  1

  0
LINE
  5
1A8
330
1A5
100
AcDbEntity
  8
寸法線
 62
     0
100
AcDbLine
 10
0.0
 20
0.0
 30
0.0
 11
19.0506010139
 21
0.0
 31
0.0
  0
LINE
  5
1A9
330
1A5
100
AcDbEntity
  8
寸法線
 62
     0
100
AcDbLine
 10
19.0506010139
 20
0.0
 30
0.0
 11
0.0
 21
0.0
 31
0.0
  0
LINE
  5
1AA
330
1A5
100
AcDbEntity
  8
寸法線
 62
     0
100
AcDbLine
 10
0.0
 20
0.0
 30
0.0
 11
19.0506010139
 21
0.0
 31
0.0
  0
LINE
  5
1AB
330
1A5
100
AcDbEntity
  8
寸法線
 62
     0
100
AcDbLine
 10
19.0506010139
 20
0.0
 30
0.0
 11
0.0
 21
0.0
 31
0.0
  0
LINE
  5
1AC
330
1A5
100
AcDbEntity
  8
寸法線
 62
     0
100
AcDbLine
 10
0.0
 20
0.0
 30
0.0
 11
19.0506010139
 21
0.0
 31
0.0
  0
LINE
  5
1AD
330
1A5
100
AcDbEntity
  8
寸法線
 62
     0
100
AcDbLine
 10
19.0506010139
 20
0.0
 30
0.0
 11
0.0
 21
0.0
 31
0.0
  0
MTEXT
  5
1AE
330
1A5
100
AcDbEntity
  8
寸法線
 62
     0
100
AcDbMText
 10
0.0018089309
 20
5.9509742844
 30
0.0
 40
2.38125
 41
0.0
 71
     1
 72
     1
  1
ファンカバー
  7
SLDTEXTSTYLE1
 73
     1
 44
1.0
  0
MTEXT
  5
1AF
330
1A5
100
AcDbEntity
  8
寸法線
 62
     0
100
AcDbMText
 10
0.0018089309
 20
2.7759743228
 30
0.0
 40
2.38125
 41
0.0
 71
     1
 72
     1
  1
Fancover
  7
SLDTEXTSTYLE1
 73
     1
 44
1.0
  0
ENDBLK
  5
1A7
330
1A5
100
AcDbEntity
  8
0
100
AcDbBlockEnd
  0
BLOCK
  5
1B3
330
1B2
100
AcDbEntity
  8
0
100
AcDbBlockBegin
  2
SW_CENTERMARKSYMBOL_0
 70
     0
 71
     0
 10
0.0
 20
0.0
 30
0.0
  3
SW_CENTERMARKSYMBOL_0
  1

  0
LINE
  5
1B5
330
1B2
100
AcDbEntity
  8
0
  6
Continuous
 62
     0
370
     0
100
AcDbLine
 10
0.0
 20
0.0
 30
0.0
 11
0.0
 21
0.3571428571
 31
0.0
  0
LINE
  5
1B6
330
1B2
100
AcDbEntity
  8
0
  6
Continuous
 62
     0
370
     0
100
AcDbLine
 10
0.0
 20
0.0
 30
0.0
 11
-0.3571428571
 21
0.0
 31
0.0
  0
LINE
  5
1B7
330
1B2
100
AcDbEntity
  8
0
  6
Continuous
 62
     0
370
     0
100
AcDbLine
 10
0.0
 20
0.0
 30
0.0
 11
0.0
 21
-0.3571428571
 31
0.0
  0
LINE
  5
1B8
330
1B2
100
AcDbEntity
  8
0
  6
Continuous
 62
     0
370
     0
100
AcDbLine
 10
0.0
 20
0.0
 30
0.0
 11
0.3571428571
 21
0.0
 31
0.0
  0
LINE
  5
1B9
330
1B2
100
AcDbEntity
  8
0
  6
Continuous
 62
     0
370
     0
100
AcDbLine
 10
0.0
 20
0.7142857143
 30
0.0
 11
0.0
 21
13.3571428571
 31
0.0
  0
LINE
  5
1BA
330
1B2
100
AcDbEntity
  8
0
  6
Continuous
 62
     0
370
     0
100
AcDbLine
 10
-0.7142857143
 20
0.0
 30
0.0
 11
-13.3571428571
 21
0.0
 31
0.0
  0
LINE
  5
1BB
330
1B2
100
AcDbEntity
  8
0
  6
Continuous
 62
     0
370
     0
100
AcDbLine
 10
0.0
 20
-0.7142857143
 30
0.0
 11
0.0
 21
-13.3571428571
 31
0.0
  0
LINE
  5
1BC
330
1B2
100
AcDbEntity
  8
0
  6
Continuous
 62
     0
370
     0
100
AcDbLine
 10
0.7142857143
 20
0.0
 30
0.0
 11
13.3571428571
 21
0.0
 31
0.0
  0
ENDBLK
  5
1B4
330
1B2
100
AcDbEntity
  8
0
100
AcDbBlockEnd
  0
BLOCK
  5
1BF
330
1BE
100
AcDbEntity
  8
0
100
AcDbBlockBegin
  2
SW_CENTERMARKSYMBOL_1
 70
     0
 71
     0
 10
0.0
 20
0.0
 30
0.0
  3
SW_CENTERMARKSYMBOL_1
  1

  0
LINE
  5
1C1
330
1BE
100
AcDbEntity
  8
0
  6
Continuous
 62
     0
370
     0
100
AcDbLine
 10
0.0
 20
0.0
 30
0.0
 11
0.0
 21
0.3571428571
 31
0.0
  0
LINE
  5
1C2
330
1BE
100
AcDbEntity
  8
0
  6
Continuous
 62
     0
370
     0
100
AcDbLine
 10
0.0
 20
0.0
 30
0.0
 11
-0.3571428571
 21
0.0
 31
0.0
  0
LINE
  5
1C3
330
1BE
100
AcDbEntity
  8
0
  6
Continuous
 62
     0
370
     0
100
AcDbLine
 10
0.0
 20
0.0
 30
0.0
 11
0.0
 21
-0.3571428571
 31
0.0
  0
LINE
  5
1C4
330
1BE
100
AcDbEntity
  8
0
  6
Continuous
 62
     0
370
     0
100
AcDbLine
 10
0.0
 20
0.0
 30
0.0
 11
0.3571428571
 21
0.0
 31
0.0
  0
LINE
  5
1C5
330
1BE
100
AcDbEntity
  8
0
  6
Continuous
 62
     0
370
     0
100
AcDbLine
 10
0.0
 20
0.7142857143
 30
0.0
 11
0.0
 21
2.6428571429
 31
0.0
  0
LINE
  5
1C6
330
1BE
100
AcDbEntity
  8
0
  6
Continuous
 62
     0
370
     0
100
AcDbLine
 10
-0.7142857143
 20
0.0
 30
0.0
 11
-2.6428571429
 21
0.0
 31
0.0
  0
LINE
  5
1C7
330
1BE
100
AcDbEntity
  8
0
  6
Continuous
 62
     0
370
     0
100
AcDbLine
 10
0.0
 20
-0.7142857143
 30
0.0
 11
0.0
 21
-2.6428571429
 31
0.0
  0
LINE
  5
1C8
330
1BE
100
AcDbEntity
  8
0
  6
Continuous
 62
     0
370
     0
100
AcDbLine
 10
0.7142857143
 20
0.0
 30
0.0
 11
2.6428571429
 21
0.0
 31
0.0
  0
ENDBLK
  5
1C0
330
1BE
100
AcDbEntity
  8
0
100
AcDbBlockEnd
  0
BLOCK
  5
265
330
264
100
AcDbEntity
  8
0
100
AcDbBlockBegin
  2
SW_NOTE_7
 70
     0
 71
     0
 10
0.0
 20
0.0
 30
0.0
  3
SW_NOTE_7
  1

  0
LINE
  5
267
330
264
100
AcDbEntity
  8
寸法線
 62
     0
100
AcDbLine
 10
0.0
 20
0.0
 30
0.0
 11
36.5108618729
 21
0.0
 31
0.0
  0
LINE
  5
268
330
264
100
AcDbEntity
  8
寸法線
 62
     0
100
AcDbLine
 10
36.5108618729
 20
0.0
 30
0.0
 11
0.0
 21
0.0
 31
0.0
  0
LINE
  5
269
330
264
100
AcDbEntity
  8
寸法線
 62
     0
100
AcDbLine
 10
0.0
 20
0.0
 30
0.0
 11
36.5108618729
 21
0.0
 31
0.0
  0
LINE
  5
26A
330
264
100
AcDbEntity
  8
寸法線
 62
     0
100
AcDbLine
 10
36.5108618729
 20
0.0
 30
0.0
 11
0.0
 21
0.0
 31
0.0
  0
LINE
  5
26B
330
264
100
AcDbEntity
  8
寸法線
 62
     0
100
AcDbLine
 10
0.0
 20
0.0
 30
0.0
 11
36.5108618729
 21
0.0
 31
0.0
  0
LINE
  5
26C
330
264
100
AcDbEntity
  8
寸法線
 62
     0
100
AcDbLine
 10
36.5108618729
 20
0.0
 30
0.0
 11
0.0
 21
0.0
 31
0.0
  0
MTEXT
  5
26D
330
264
100
AcDbEntity
  8
寸法線
 62
     0
100
AcDbMText
 10
0.0034248086
 20
5.9492892919
 30
0.0
 40
2.38125
 41
0.0
 71
     1
 72
     1
  1
回転方向銘板
  7
SLDTEXTSTYLE1
 73
     1
 44
1.0
  0
MTEXT
  5
26F
330
264
100
AcDbEntity
  8
寸法線
 62
     0
100
AcDbMText
 10
0.0034248086
 20
2.7742893302
 30
0.0
 40
2.38125
 41
0.0
 71
     1
 72
     1
  1
Turning direction plate
  7
SLDTEXTSTYLE3
 73
     1
 44
1.0
  0
ENDBLK
  5
266
330
264
100
AcDbEntity
  8
0
100
AcDbBlockEnd
  0
BLOCK
  5
273
330
272
100
AcDbEntity
  8
0
100
AcDbBlockBegin
  2
SW_NOTE_8
 70
     0
 71
     0
 10
0.0
 20
0.0
 30
0.0
  3
SW_NOTE_8
  1

  0
LINE
  5
275
330
272
100
AcDbEntity
  8
寸法線
 62
     0
100
AcDbLine
 10
0.0
 20
0.0
 30
0.0
 11
9.525300507
 21
0.0
 31
0.0
  0
LINE
  5
276
330
272
100
AcDbEntity
  8
寸法線
 62
     0
100
AcDbLine
 10
9.525300507
 20
0.0
 30
0.0
 11
0.0
 21
0.0
 31
0.0
  0
LINE
  5
277
330
272
100
AcDbEntity
  8
寸法線
 62
     0
100
AcDbLine
 10
0.0
 20
0.0
 30
0.0
 11
9.525300507
 21
0.0
 31
0.0
  0
LINE
  5
278
330
272
100
AcDbEntity
  8
寸法線
 62
     0
100
AcDbLine
 10
9.525300507
 20
0.0
 30
0.0
 11
0.0
 21
0.0
 31
0.0
  0
LINE
  5
279
330
272
100
AcDbEntity
  8
寸法線
 62
     0
100
AcDbLine
 10
0.0
 20
0.0
 30
0.0
 11
9.525300507
 21
0.0
 31
0.0
  0
LINE
  5
27A
330
272
100
AcDbEntity
  8
寸法線
 62
     0
100
AcDbLine
 10
9.525300507
 20
0.0
 30
0.0
 11
0.0
 21
0.0
 31
0.0
  0
MTEXT
  5
27B
330
272
100
AcDbEntity
  8
寸法線
 62
     0
100
AcDbMText
 10
0.0014907932
 20
5.9505527558
 30
0.0
 40
2.38125
 41
0.0
 71
     1
 72
     1
  1
電動機
  7
SLDTEXTSTYLE1
 73
     1
 44
1.0
  0
MTEXT
  5
27C
330
272
100
AcDbEntity
  8
寸法線
 62
     0
100
AcDbMText
 10
0.0014907932
 20
2.7755527942
 30
0.0
 40
2.38125
 41
0.0
 71
     1
 72
     1
  1
Motor
  7
SLDTEXTSTYLE1
 73
     1
 44
1.0
  0
ENDBLK
  5
274
330
272
100
AcDbEntity
  8
0
100
AcDbBlockEnd
  0
BLOCK
  5
311
330
310
100
AcDbEntity
  8
0
100
AcDbBlockBegin
  2
SW_NOTE_9
 70
     0
 71
     0
 10
0.0
 20
0.0
 30
0.0
  3
SW_NOTE_9
  1

  0
LINE
  5
313
330
310
100
AcDbEntity
  8
寸法線
 62
     0
100
AcDbLine
 10
-28.57032138
 20
0.0
 30
0.0
 11
0.0
 21
0.0
 31
0.0
  0
LINE
  5
314
330
310
100
AcDbEntity
  8
寸法線
 62
     0
100
AcDbLine
 10
0.0
 20
0.0
 30
0.0
 11
-28.57032138
 21
0.0
 31
0.0
  0
LINE
  5
315
330
310
100
AcDbEntity
  8
寸法線
 62
     0
100
AcDbLine
 10
-28.57032138
 20
0.0
 30
0.0
 11
0.0
 21
0.0
 31
0.0
  0
LINE
  5
316
330
310
100
AcDbEntity
  8
寸法線
 62
     0
100
AcDbLine
 10
0.0
 20
0.0
 30
0.0
 11
-28.57032138
 21
0.0
 31
0.0
  0
LINE
  5
317
330
310
100
AcDbEntity
  8
寸法線
 62
     0
100
AcDbLine
 10
-28.57032138
 20
0.0
 30
0.0
 11
0.0
 21
0.0
 31
0.0
  0
LINE
  5
318
330
310
100
AcDbEntity
  8
寸法線
 62
     0
100
AcDbLine
 10
0.0
 20
0.0
 30
0.0
 11
-28.57032138
 21
0.0
 31
0.0
  0
MTEXT
  5
319
330
310
100
AcDbEntity
  8
寸法線
 62
     0
100
AcDbMText
 10
-28.5699032408
 20
5.9484820167
 30
0.0
 40
2.38125
 41
0.0
 71
     1
 72
     1
  1
電源コード取入れ口
  7
SLDTEXTSTYLE1
 73
     1
 44
1.0
  0
MTEXT
  5
31A
330
310
100
AcDbEntity
  8
寸法線
 62
     0
100
AcDbMText
 10
-28.5699032408
 20
2.7734820551
 30
0.0
 40
2.38125
 41
0.0
 71
     1
 72
     1
  1
Power cable access
  7
SLDTEXTSTYLE2
 73
     1
 44
1.0
  0
ENDBLK
  5
312
330
310
100
AcDbEntity
  8
0
100
AcDbBlockEnd
  0
BLOCK
  5
3B9
330
3B8
100
AcDbEntity
  8
0
100
AcDbBlockBegin
  2
SW_CENTERMARKSYMBOL_2
 70
     0
 71
     0
 10
0.0
 20
0.0
 30
0.0
  3
SW_CENTERMARKSYMBOL_2
  1

  0
LINE
  5
3BB
330
3B8
100
AcDbEntity
  8
0
  6
Continuous
 62
     0
370
     0
100
AcDbLine
 10
0.0
 20
0.0
 30
0.0
 11
0.0
 21
0.3571428571
 31
0.0
  0
LINE
  5
3BC
330
3B8
100
AcDbEntity
  8
0
  6
Continuous
 62
     0
370
     0
100
AcDbLine
 10
0.0
 20
0.0
 30
0.0
 11
-0.3571428571
 21
0.0
 31
0.0
  0
LINE
  5
3BD
330
3B8
100
AcDbEntity
  8
0
  6
Continuous
 62
     0
370
     0
100
AcDbLine
 10
0.0
 20
0.0
 30
0.0
 11
0.0
 21
-0.3571428571
 31
0.0
  0
LINE
  5
3BE
330
3B8
100
AcDbEntity
  8
0
  6
Continuous
 62
     0
370
     0
100
AcDbLine
 10
0.0
 20
0.0
 30
0.0
 11
0.3571428571
 21
0.0
 31
0.0
  0
LINE
  5
3BF
330
3B8
100
AcDbEntity
  8
0
  6
Continuous
 62
     0
370
     0
100
AcDbLine
 10
0.0
 20
0.7142857143
 30
0.0
 11
0.0
 21
0.8571428571
 31
0.0
  0
LINE
  5
3C0
330
3B8
100
AcDbEntity
  8
0
  6
Continuous
 62
     0
370
     0
100
AcDbLine
 10
-0.7142857143
 20
0.0
 30
0.0
 11
-0.8571428571
 21
0.0
 31
0.0
  0
LINE
  5
3C1
330
3B8
100
AcDbEntity
  8
0
  6
Continuous
 62
     0
370
     0
100
AcDbLine
 10
0.0
 20
-0.7142857143
 30
0.0
 11
0.0
 21
-0.8571428571
 31
0.0
  0
LINE
  5
3C2
330
3B8
100
AcDbEntity
  8
0
  6
Continuous
 62
     0
370
     0
100
AcDbLine
 10
0.7142857143
 20
0.0
 30
0.0
 11
0.8571428571
 21
0.0
 31
0.0
  0
ENDBLK
  5
3BA
330
3B8
100
AcDbEntity
  8
0
100
AcDbBlockEnd
  0
BLOCK
  5
3C5
330
3C4
100
AcDbEntity
  8
0
100
AcDbBlockBegin
  2
SW_CENTERMARKSYMBOL_3
 70
     0
 71
     0
 10
0.0
 20
0.0
 30
0.0
  3
SW_CENTERMARKSYMBOL_3
  1

  0
LINE
  5
3C7
330
3C4
100
AcDbEntity
  8
0
  6
Continuous
 62
     0
370
     0
100
AcDbLine
 10
0.0
 20
0.0
 30
0.0
 11
0.0
 21
0.3571428571
 31
0.0
  0
LINE
  5
3C8
330
3C4
100
AcDbEntity
  8
0
  6
Continuous
 62
     0
370
     0
100
AcDbLine
 10
0.0
 20
0.0
 30
0.0
 11
-0.3571428571
 21
0.0
 31
0.0
  0
LINE
  5
3C9
330
3C4
100
AcDbEntity
  8
0
  6
Continuous
 62
     0
370
     0
100
AcDbLine
 10
0.0
 20
0.0
 30
0.0
 11
0.0
 21
-0.3571428571
 31
0.0
  0
LINE
  5
3CA
330
3C4
100
AcDbEntity
  8
0
  6
Continuous
 62
     0
370
     0
100
AcDbLine
 10
0.0
 20
0.0
 30
0.0
 11
0.3571428571
 21
0.0
 31
0.0
  0
LINE
  5
3CB
330
3C4
100
AcDbEntity
  8
0
  6
Continuous
 62
     0
370
     0
100
AcDbLine
 10
0.0
 20
0.7142857143
 30
0.0
 11
0.0
 21
0.8571428571
 31
0.0
  0
LINE
  5
3CC
330
3C4
100
AcDbEntity
  8
0
  6
Continuous
 62
     0
370
     0
100
AcDbLine
 10
-0.7142857143
 20
0.0
 30
0.0
 11
-0.8571428571
 21
0.0
 31
0.0
  0
LINE
  5
3CD
330
3C4
100
AcDbEntity
  8
0
  6
Continuous
 62
     0
370
     0
100
AcDbLine
 10
0.0
 20
-0.7142857143
 30
0.0
 11
0.0
 21
-0.8571428571
 31
0.0
  0
LINE
  5
3CE
330
3C4
100
AcDbEntity
  8
0
  6
Continuous
 62
     0
370
     0
100
AcDbLine
 10
0.7142857143
 20
0.0
 30
0.0
 11
0.8571428571
 21
0.0
 31
0.0
  0
ENDBLK
  5
3C6
330
3C4
100
AcDbEntity
  8
0
100
AcDbBlockEnd
  0
BLOCK
  5
3D1
330
3D0
100
AcDbEntity
  8
0
100
AcDbBlockBegin
  2
SW_CENTERMARKSYMBOL_4
 70
     0
 71
     0
 10
0.0
 20
0.0
 30
0.0
  3
SW_CENTERMARKSYMBOL_4
  1

  0
LINE
  5
3D3
330
3D0
100
AcDbEntity
  8
0
  6
Continuous
 62
     0
370
     0
100
AcDbLine
 10
0.0
 20
0.0
 30
0.0
 11
0.0
 21
0.3571428571
 31
0.0
  0
LINE
  5
3D4
330
3D0
100
AcDbEntity
  8
0
  6
Continuous
 62
     0
370
     0
100
AcDbLine
 10
0.0
 20
0.0
 30
0.0
 11
-0.3571428571
 21
0.0
 31
0.0
  0
LINE
  5
3D5
330
3D0
100
AcDbEntity
  8
0
  6
Continuous
 62
     0
370
     0
100
AcDbLine
 10
0.0
 20
0.0
 30
0.0
 11
0.0
 21
-0.3571428571
 31
0.0
  0
LINE
  5
3D6
330
3D0
100
AcDbEntity
  8
0
  6
Continuous
 62
     0
370
     0
100
AcDbLine
 10
0.0
 20
0.0
 30
0.0
 11
0.3571428571
 21
0.0
 31
0.0
  0
LINE
  5
3D7
330
3D0
100
AcDbEntity
  8
0
  6
Continuous
 62
     0
370
     0
100
AcDbLine
 10
0.0
 20
0.7142857143
 30
0.0
 11
0.0
 21
0.8571428571
 31
0.0
  0
LINE
  5
3D8
330
3D0
100
AcDbEntity
  8
0
  6
Continuous
 62
     0
370
     0
100
AcDbLine
 10
-0.7142857143
 20
0.0
 30
0.0
 11
-0.8571428571
 21
0.0
 31
0.0
  0
LINE
  5
3D9
330
3D0
100
AcDbEntity
  8
0
  6
Continuous
 62
     0
370
     0
100
AcDbLine
 10
0.0
 20
-0.7142857143
 30
0.0
 11
0.0
 21
-0.8571428571
 31
0.0
  0
LINE
  5
3DA
330
3D0
100
AcDbEntity
  8
0
  6
Continuous
 62
     0
370
     0
100
AcDbLine
 10
0.7142857143
 20
0.0
 30
0.0
 11
0.8571428571
 21
0.0
 31
0.0
  0
ENDBLK
  5
3D2
330
3D0
100
AcDbEntity
  8
0
100
AcDbBlockEnd
  0
BLOCK
  5
3DD
330
3DC
100
AcDbEntity
  8
0
100
AcDbBlockBegin
  2
SW_CENTERMARKSYMBOL_5
 70
     0
 71
     0
 10
0.0
 20
0.0
 30
0.0
  3
SW_CENTERMARKSYMBOL_5
  1

  0
LINE
  5
3DF
330
3DC
100
AcDbEntity
  8
0
  6
Continuous
 62
     0
370
     0
100
AcDbLine
 10
0.0
 20
0.0
 30
0.0
 11
0.0
 21
0.3571428571
 31
0.0
  0
LINE
  5
3E0
330
3DC
100
AcDbEntity
  8
0
  6
Continuous
 62
     0
370
     0
100
AcDbLine
 10
0.0
 20
0.0
 30
0.0
 11
-0.3571428571
 21
0.0
 31
0.0
  0
LINE
  5
3E1
330
3DC
100
AcDbEntity
  8
0
  6
Continuous
 62
     0
370
     0
100
AcDbLine
 10
0.0
 20
0.0
 30
0.0
 11
0.0
 21
-0.3571428571
 31
0.0
  0
LINE
  5
3E2
330
3DC
100
AcDbEntity
  8
0
  6
Continuous
 62
     0
370
     0
100
AcDbLine
 10
0.0
 20
0.0
 30
0.0
 11
0.3571428571
 21
0.0
 31
0.0
  0
LINE
  5
3E3
330
3DC
100
AcDbEntity
  8
0
  6
Continuous
 62
     0
370
     0
100
AcDbLine
 10
0.0
 20
0.7142857143
 30
0.0
 11
0.0
 21
0.8571428571
 31
0.0
  0
LINE
  5
3E4
330
3DC
100
AcDbEntity
  8
0
  6
Continuous
 62
     0
370
     0
100
AcDbLine
 10
-0.7142857143
 20
0.0
 30
0.0
 11
-0.8571428571
 21
0.0
 31
0.0
  0
LINE
  5
3E5
330
3DC
100
AcDbEntity
  8
0
  6
Continuous
 62
     0
370
     0
100
AcDbLine
 10
0.0
 20
-0.7142857143
 30
0.0
 11
0.0
 21
-0.8571428571
 31
0.0
  0
LINE
  5
3E6
330
3DC
100
AcDbEntity
  8
0
  6
Continuous
 62
     0
370
     0
100
AcDbLine
 10
0.7142857143
 20
0.0
 30
0.0
 11
0.8571428571
 21
0.0
 31
0.0
  0
ENDBLK
  5
3DE
330
3DC
100
AcDbEntity
  8
0
100
AcDbBlockEnd
  0
ENDSEC
  0
SECTION
  2
ENTITIES
  0
LINE
  5
33
330
1F
100
AcDbEntity
  8
ﾚｲﾔｰ0
100
AcDbLine
 10
276.0
 20
194.0
 30
0.0
 11
276.0
 21
201.5
 31
0.0
  0
LINE
  5
34
330
1F
100
AcDbEntity
  8
ﾚｲﾔｰ0
100
AcDbLine
 10
21.0
 20
194.0
 30
0.0
 11
21.0
 21
201.5
 31
0.0
  0
LINE
  5
35
330
1F
100
AcDbEntity
  8
ﾚｲﾔｰ0
100
AcDbLine
 10
21.0
 20
16.0
 30
0.0
 11
21.0
 21
8.5
 31
0.0
  0
LINE
  5
36
330
1F
100
AcDbEntity
  8
ﾚｲﾔｰ0
100
AcDbLine
 10
276.0
 20
16.0
 30
0.0
 11
276.0
 21
8.5
 31
0.0
  0
LINE
  5
37
330
1F
100
AcDbEntity
  8
ﾚｲﾔｰ0
100
AcDbLine
 10
276.0
 20
201.5
 30
0.0
 11
21.0
 21
201.5
 31
0.0
  0
LINE
  5
38
330
1F
100
AcDbEntity
  8
ﾚｲﾔｰ0
100
AcDbLine
 10
21.0
 20
8.5
 30
0.0
 11
276.0
 21
8.5
 31
0.0
  0
MTEXT
  5
3A
330
1F
100
AcDbEntity
  8
ﾚｲﾔｰ0
100
AcDbMText
 10
264.6253068675
 20
14.4909243614
 30
0.0
 40
6.0
 41
0.0
 71
     1
 72
     1
  1
★
  7
SLDTEXTSTYLE0
 73
     1
 44
1.0
  0
MTEXT
  5
3B
330
1F
100
AcDbEntity
  8
ﾚｲﾔｰ0
100
AcDbMText
 10
256.3279517445
 20
14.4909243614
 30
0.0
 40
6.0
 41
0.0
 71
     1
 72
     1
  1
★
  7
SLDTEXTSTYLE0
 73
     1
 44
1.0
  0
MTEXT
  5
3C
330
1F
100
AcDbEntity
  8
ﾚｲﾔｰ0
100
AcDbMText
 10
248.0305966214
 20
14.4909243614
 30
0.0
 40
6.0
 41
0.0
 71
     1
 72
     1
  1
★
  7
SLDTEXTSTYLE0
 73
     1
 44
1.0
  0
MTEXT
  5
3D
330
1F
100
AcDbEntity
  8
ﾚｲﾔｰ0
100
AcDbMText
 10
239.2406102764
 20
14.4909243614
 30
0.0
 40
6.0
 41
0.0
 71
     1
 72
     1
  1
★
  7
SLDTEXTSTYLE0
 73
     1
 44
1.0
  0
LINE
  5
3E
330
1F
100
AcDbEntity
  8
中心線
100
AcDbLine
 10
117.5240660804
 20
115.4217862907
 30
0.0
 11
166.9648491128
 21
115.4217862907
 31
0.0
  0
LINE
  5
3F
330
1F
100
AcDbEntity
  8
0
  6
Continuous
 62
     7
370
    15
100
AcDbLine
 10
124.3669230325
 20
128.4217860267
 30
0.0
 11
123.6954948034
 21
128.4217860267
 31
0.0
  0
LINE
  5
40
330
1F
100
AcDbEntity
  8
0
  6
Continuous
 62
     7
370
    15
100
AcDbLine
 10
133.8669232218
 20
126.6846437789
 30
0.0
 11
132.2954946963
 21
126.6846437789
 31
0.0
  0
LINE
  5
41
330
1F
100
AcDbEntity
  8
0
  6
Continuous
 62
     7
370
    15
100
AcDbLine
 10
123.6954948034
 20
126.1360724307
 30
0.0
 11
121.2669227106
 21
126.1360724307
 31
0.0
  0
LINE
  5
42
330
1F
100
AcDbEntity
  8
0
  6
Continuous
 62
     7
370
    15
100
AcDbLine
 10
121.2669227106
 20
125.9932149984
 30
0.0
 11
117.5240660718
 21
125.9932149984
 31
0.0
  0
LINE
  5
43
330
1F
100
AcDbEntity
  8
0
  6
Continuous
 62
     7
370
    15
100
AcDbLine
 10
117.5240660718
 20
104.850357583
 30
0.0
 11
121.2669227106
 21
104.850357583
 31
0.0
  0
LINE
  5
44
330
1F
100
AcDbEntity
  8
0
  6
Continuous
 62
     7
370
    15
100
AcDbLine
 10
126.795494593
 20
129.7075007893
 30
0.0
 11
127.6526375907
 21
129.3955258211
 31
0.0
  0
LINE
  5
45
330
1F
100
AcDbEntity
  8
0
  6
Continuous
 62
     7
370
    15
100
AcDbLine
 10
131.652637448
 20
129.3955258211
 30
0.0
 11
132.5097803126
 21
129.7075007893
 31
0.0
  0
LINE
  5
46
330
1F
100
AcDbEntity
  8
0
  6
Continuous
 62
     7
370
    15
100
AcDbLine
 10
132.5097803126
 20
129.7075007893
 30
0.0
 11
132.5097803126
 21
130.136072022
 31
0.0
  0
LINE
  5
47
330
1F
100
AcDbEntity
  8
0
  6
Continuous
 62
     7
370
    15
100
AcDbLine
 10
126.795494593
 20
130.136072022
 30
0.0
 11
126.795494593
 21
129.7075007893
 31
0.0
  0
LINE
  5
48
330
1F
100
AcDbEntity
  8
0
  6
Continuous
 62
     7
370
    15
100
AcDbLine
 10
131.652637448
 20
128.4217860267
 30
0.0
 11
131.652637448
 21
129.3955258211
 31
0.0
  0
LINE
  5
49
330
1F
100
AcDbEntity
  8
0
  6
Continuous
 62
     7
370
    15
100
AcDbLine
 10
127.6526375907
 20
129.3955258211
 30
0.0
 11
127.6526375907
 21
128.4217860267
 31
0.0
  0
LINE
  5
4A
330
1F
100
AcDbEntity
  8
0
  6
Continuous
 62
     7
370
    15
100
AcDbLine
 10
119.3812084351
 20
100.9932143597
 30
0.0
 11
119.6411879301
 21
101.7075004572
 31
0.0
  0
LINE
  5
4B
330
1F
100
AcDbEntity
  8
0
  6
Continuous
 62
     7
370
    15
100
AcDbLine
 10
119.7191816722
 20
104.6360724988
 30
0.0
 11
119.6411879301
 21
104.850357583
 31
0.0
  0
LINE
  5
4C
330
1F
100
AcDbEntity
  8
0
  6
Continuous
 62
     7
370
    15
100
AcDbLine
 10
118.9526372024
 20
100.9932143597
 30
0.0
 11
119.3812084351
 21
100.9932143597
 31
0.0
  0
LINE
  5
4D
330
1F
100
AcDbEntity
  8
0
  6
Continuous
 62
     7
370
    15
100
AcDbLine
 10
121.2669227106
 20
104.6360724988
 30
0.0
 11
119.7191816722
 21
104.6360724988
 31
0.0
  0
LINE
  5
4E
330
1F
100
AcDbEntity
  8
0
  6
Continuous
 62
     7
370
    15
100
AcDbLine
 10
133.8669232218
 20
104.1360714856
 30
0.0
 11
134.2383517984
 21
104.1360714856
 31
0.0
  0
LINE
  5
4F
330
1F
100
AcDbEntity
  8
0
  6
Continuous
 62
     7
370
    15
100
AcDbLine
 10
159.5240671022
 20
125.1003576426
 30
0.0
 11
139.0954947199
 21
125.1003576426
 31
0.0
  0
LINE
  5
50
330
1F
100
AcDbEntity
  8
0
  6
Continuous
 62
     7
370
    15
100
AcDbLine
 10
159.5240671022
 20
106.4160715506
 30
0.0
 11
161.5240668978
 21
106.4160715506
 31
0.0
  0
LINE
  5
51
330
1F
100
AcDbEntity
  8
0
  6
Continuous
 62
     7
370
    15
100
AcDbLine
 10
161.5240668978
 20
124.4275010308
 30
0.0
 11
159.5240671022
 21
124.4275010308
 31
0.0
  0
SPLINE
  5
52
330
1F
100
AcDbEntity
  8
0
  6
Continuous
 62
     7
370
    15
100
AcDbSpline
210
0.0
220
0.0
230
1.0
 70
     8
 71
     3
 72
     9
 73
     5
 74
     0
 42
0.00000001
 43
0.00000001
 40
0.0
 40
0.0
 40
0.0
 40
0.0
 40
0.4999932822049243
 40
1.0
 40
1.0
 40
1.0
 40
1.0
 10
152.0342176880089
 20
110.2075006530429
 30
0.0
 10
151.9963852247587
 20
110.2114015704542
 30
0.0
 10
151.9207192816416
 20
110.2192035101004
 30
0.0
 10
151.8616985212353
 20
110.2671906284143
 30
0.0
 10
151.8321877445428
 20
110.2911845099389
 30
0.0
  0
LINE
  5
53
330
1F
100
AcDbEntity
  8
0
  6
Continuous
 62
     7
370
    15
100
AcDbLine
 10
150.7506071823
 20
111.3727653383
 30
0.0
 11
151.8321877445
 21
110.2911845099
 31
0.0
  0
SPLINE
  5
54
330
1F
100
AcDbEntity
  8
0
  6
Continuous
 62
     7
370
    15
100
AcDbSpline
210
0.0
220
0.0
230
1.0
 70
     8
 71
     3
 72
     9
 73
     5
 74
     0
 42
0.00000001
 43
0.00000001
 40
0.0
 40
0.0
 40
0.0
 40
0.0
 40
0.5000004507747433
 40
1.0
 40
1.0
 40
1.0
 40
1.0
 10
150.7506071822918
 20
111.372765338282
 30
0.0
 10
150.726613031215
 20
111.4022756290143
 30
0.0
 10
150.6786247723251
 20
111.4612961572689
 30
0.0
 10
150.6708238053612
 20
111.5369627951785
 30
0.0
 10
150.6669233253958
 20
111.5747960800247
 30
0.0
  0
LINE
  5
55
330
1F
100
AcDbEntity
  8
0
  6
Continuous
 62
     7
370
    15
100
AcDbLine
 10
150.6669233254
 20
119.2687765014
 30
0.0
 11
150.6669233254
 21
111.57479608
 31
0.0
  0
SPLINE
  5
56
330
1F
100
AcDbEntity
  8
0
  6
Continuous
 62
     7
370
    15
100
AcDbSpline
210
0.0
220
0.0
230
1.0
 70
     8
 71
     3
 72
     9
 73
     5
 74
     0
 42
0.00000001
 43
0.00000001
 40
0.0
 40
0.0
 40
0.0
 40
0.0
 40
0.4999995492252567
 40
1.0
 40
1.0
 40
1.0
 40
1.0
 10
150.6669233253958
 20
119.2687765013635
 30
0.0
 10
150.6708238053612
 20
119.3066097862097
 30
0.0
 10
150.6786247723251
 20
119.3822764241193
 30
0.0
 10
150.726613031215
 20
119.4412969523739
 30
0.0
 10
150.7506071822918
 20
119.4708072431062
 30
0.0
  0
LINE
  5
57
330
1F
100
AcDbEntity
  8
0
  6
Continuous
 62
     7
370
    15
100
AcDbLine
 10
151.8321877445
 20
120.5523880714
 30
0.0
 11
150.7506071823
 21
119.4708072431
 31
0.0
  0
SPLINE
  5
58
330
1F
100
AcDbEntity
  8
0
  6
Continuous
 62
     7
370
    15
100
AcDbSpline
210
0.0
220
0.0
230
1.0
 70
     8
 71
     3
 72
     9
 73
     5
 74
     0
 42
0.00000001
 43
0.00000001
 40
0.0
 40
0.0
 40
0.0
 40
0.0
 40
0.5000067177950756
 40
1.0
 40
1.0
 40
1.0
 40
1.0
 10
151.8321877445428
 20
120.5523880714493
 30
0.0
 10
151.8616985212353
 20
120.5763819529739
 30
0.0
 10
151.9207192816416
 20
120.6243690712878
 30
0.0
 10
151.9963852247587
 20
120.632171010934
 30
0.0
 10
152.0342176880089
 20
120.6360719283453
 30
0.0
  0
LINE
  5
59
330
1F
100
AcDbEntity
  8
0
  6
Continuous
 62
     7
370
    15
100
AcDbLine
 10
158.4424854755
 20
120.6360719283
 30
0.0
 11
152.034217688
 21
120.6360719283
 31
0.0
  0
SPLINE
  5
5A
330
1F
100
AcDbEntity
  8
0
  6
Continuous
 62
     7
370
    15
100
AcDbSpline
210
0.0
220
0.0
230
1.0
 70
     8
 71
     3
 72
     9
 73
     5
 74
     0
 42
0.00000001
 43
0.00000001
 40
0.0
 40
0.0
 40
0.0
 40
0.0
 40
0.5000019335785434
 40
1.0
 40
1.0
 40
1.0
 40
1.0
 10
158.4424854755336
 20
120.6360719283453
 30
0.0
 10
158.4803187598476
 20
120.6321712474829
 30
0.0
 10
158.5559850358624
 20
120.6243699159271
 30
0.0
 10
158.6150053673676
 20
120.5763819577496
 30
0.0
 10
158.6445154189998
 20
120.5523880714493
 30
0.0
  0
LINE
  5
5B
330
1F
100
AcDbEntity
  8
0
  6
Continuous
 62
     7
370
    15
100
AcDbLine
 10
159.7260970456
 20
119.4708072431
 30
0.0
 11
158.644515419
 21
120.5523880714
 31
0.0
  0
SPLINE
  5
5C
330
1F
100
AcDbEntity
  8
0
  6
Continuous
 62
     7
370
    15
100
AcDbSpline
210
0.0
220
0.0
230
1.0
 70
     8
 71
     3
 72
     9
 73
     5
 74
     0
 42
0.00000001
 43
0.00000001
 40
0.0
 40
0.0
 40
0.0
 40
0.0
 40
0.5000009164146697
 40
1.0
 40
1.0
 40
1.0
 40
1.0
 10
159.7260970456194
 20
119.4708072431062
 30
0.0
 10
159.7500912851372
 20
119.4412969706366
 30
0.0
 10
159.7980796762185
 20
119.3822765338719
 30
0.0
 10
159.805879788936
 20
119.3066097993049
 30
0.0
 10
159.8097798381467
 20
119.2687765013635
 30
0.0
  0
LINE
  5
5D
330
1F
100
AcDbEntity
  8
0
  6
Continuous
 62
     7
370
    15
100
AcDbLine
 10
159.8097798381
 20
111.57479608
 30
0.0
 11
159.8097798381
 21
119.2687765014
 31
0.0
  0
SPLINE
  5
5E
330
1F
100
AcDbEntity
  8
0
  6
Continuous
 62
     7
370
    15
100
AcDbSpline
210
0.0
220
0.0
230
1.0
 70
     8
 71
     3
 72
     9
 73
     5
 74
     0
 42
0.00000001
 43
0.00000001
 40
0.0
 40
0.0
 40
0.0
 40
0.0
 40
0.4999990835853302
 40
1.0
 40
1.0
 40
1.0
 40
1.0
 10
159.8097798381467
 20
111.5747960800247
 30
0.0
 10
159.8058797889361
 20
111.5369627820833
 30
0.0
 10
159.7980796762185
 20
111.4612960475163
 30
0.0
 10
159.7500912851372
 20
111.4022756107516
 30
0.0
 10
159.7260970456194
 20
111.372765338282
 30
0.0
  0
LINE
  5
5F
330
1F
100
AcDbEntity
  8
0
  6
Continuous
 62
     7
370
    15
100
AcDbLine
 10
158.644515419
 20
110.2911845099
 30
0.0
 11
159.7260970456
 21
111.3727653383
 31
0.0
  0
SPLINE
  5
60
330
1F
100
AcDbEntity
  8
0
  6
Continuous
 62
     7
370
    15
100
AcDbSpline
210
0.0
220
0.0
230
1.0
 70
     8
 71
     3
 72
     9
 73
     5
 74
     0
 42
0.00000001
 43
0.00000001
 40
0.0
 40
0.0
 40
0.0
 40
0.0
 40
0.4999980664214566
 40
1.0
 40
1.0
 40
1.0
 40
1.0
 10
158.6445154189998
 20
110.2911845099389
 30
0.0
 10
158.6150053673676
 20
110.2671906236386
 30
0.0
 10
158.5559850358624
 20
110.2192026654611
 30
0.0
 10
158.4803187598476
 20
110.2114013339053
 30
0.0
 10
158.4424854755336
 20
110.2075006530429
 30
0.0
  0
LINE
  5
61
330
1F
100
AcDbEntity
  8
0
  6
Continuous
 62
     7
370
    15
100
AcDbLine
 10
152.034217688
 20
110.207500653
 30
0.0
 11
158.4424854755
 21
110.207500653
 31
0.0
  0
LWPOLYLINE
  5
62
330
1F
100
AcDbEntity
  8
0
  6
Continuous
 62
     7
370
    15
100
AcDbPolyline
 90
        9
 70
   128
 43
0.0
 10
150.7506071823
 20
119.4708072431
 10
150.6914857609
 20
119.5299283984
 10
150.6346367666
 20
119.5867776588
 10
150.5822442838
 20
119.6391704077
 10
150.5363210337
 20
119.6850928595
 10
150.4986338683
 20
119.7227805571
 10
150.4706292646
 20
119.7507848947
 10
150.4533843636
 20
119.7680300618
 10
150.4475612027
 20
119.7738529566
  0
LINE
  5
63
330
1F
100
AcDbEntity
  8
0
  6
Continuous
 62
     7
370
    15
100
AcDbLine
 10
151.5291428293
 20
120.855434051
 30
0.0
 11
150.4475612027
 21
119.7738529566
 31
0.0
  0
LWPOLYLINE
  5
64
330
1F
100
AcDbEntity
  8
0
  6
Continuous
 62
     7
370
    15
100
AcDbPolyline
 90
        9
 70
   128
 43
0.0
 10
151.5291428293
 20
120.855434051
 10
151.5349649259
 20
120.8496108901
 10
151.5522098269
 20
120.8323659891
 10
151.5802144306
 20
120.8043613854
 10
151.6179026604
 20
120.7666736878
 10
151.6638248461
 20
120.7207515021
 10
151.7162183932
 20
120.6683590194
 10
151.7730663231
 20
120.6115094929
 10
151.8321877445
 20
120.5523880714
  0
LWPOLYLINE
  5
65
330
1F
100
AcDbEntity
  8
0
  6
Continuous
 62
     7
370
    15
100
AcDbPolyline
 90
        9
 70
   128
 43
0.0
 10
158.644515419
 20
120.5523880714
 10
158.7036368404
 20
120.6115094929
 10
158.7604868991
 20
120.6683590194
 10
158.8128793819
 20
120.7207515021
 10
158.8588005032
 20
120.7666736878
 10
158.8964897973
 20
120.8043613854
 10
158.9244933367
 20
120.8323659891
 10
158.9417382376
 20
120.8496108901
 10
158.9475603342
 20
120.855434051
  0
LINE
  5
66
330
1F
100
AcDbEntity
  8
0
  6
Continuous
 62
     7
370
    15
100
AcDbLine
 10
160.0291419608
 20
119.7738529566
 30
0.0
 11
158.9475603342
 21
120.855434051
 31
0.0
  0
LWPOLYLINE
  5
67
330
1F
100
AcDbEntity
  8
0
  6
Continuous
 62
     7
370
    15
100
AcDbPolyline
 90
        9
 70
   128
 43
0.0
 10
160.0291419608
 20
119.7738529566
 10
160.0233198643
 20
119.7680300618
 10
160.0060749633
 20
119.7507848947
 10
159.9780692952
 20
119.7227805571
 10
159.9403821298
 20
119.6850928595
 10
159.8944588797
 20
119.6391704077
 10
159.842066397
 20
119.5867776588
 10
159.785218467
 20
119.5299283984
 10
159.7260970456
 20
119.4708072431
  0
LWPOLYLINE
  5
68
330
1F
100
AcDbEntity
  8
0
  6
Continuous
 62
     7
370
    15
100
AcDbPolyline
 90
        9
 70
   128
 43
0.0
 10
150.4475612027
 20
111.0697196248
 10
150.4533843636
 20
111.0755425196
 10
150.4706292646
 20
111.0927876867
 10
150.4986338683
 20
111.1207920243
 10
150.5363210337
 20
111.1584797219
 10
150.5822442838
 20
111.2044021737
 10
150.6346367666
 20
111.2567949226
 10
150.6914857609
 20
111.313644183
 10
150.7506071823
 20
111.3727653383
  0
LWPOLYLINE
  5
69
330
1F
100
AcDbEntity
  8
0
  6
Continuous
 62
     7
370
    15
100
AcDbPolyline
 90
        9
 70
   128
 43
0.0
 10
151.8321877445
 20
110.2911845099
 10
151.7730663231
 20
110.2320630885
 10
151.7162183932
 20
110.175213562
 10
151.6638248461
 20
110.1228210793
 10
151.6179026604
 20
110.0768988936
 10
151.5802144306
 20
110.039211196
 10
151.5522098269
 20
110.0112065923
 10
151.5349649259
 20
109.9939616913
 10
151.5291428293
 20
109.9881385304
  0
LINE
  5
6A
330
1F
100
AcDbEntity
  8
0
  6
Continuous
 62
     7
370
    15
100
AcDbLine
 10
150.4475612027
 20
111.0697196248
 30
0.0
 11
151.5291428293
 21
109.9881385304
 31
0.0
  0
LWPOLYLINE
  5
6B
330
1F
100
AcDbEntity
  8
0
  6
Continuous
 62
     7
370
    15
100
AcDbPolyline
 90
        9
 70
   128
 43
0.0
 10
158.9475603342
 20
109.9881385304
 10
158.9417382376
 20
109.9939616913
 10
158.9244933367
 20
110.0112065923
 10
158.8964897973
 20
110.039211196
 10
158.8588005032
 20
110.0768988936
 10
158.8128793819
 20
110.1228210793
 10
158.7604868991
 20
110.175213562
 10
158.7036368404
 20
110.2320630885
 10
158.644515419
 20
110.2911845099
  0
LWPOLYLINE
  5
6C
330
1F
100
AcDbEntity
  8
0
  6
Continuous
 62
     7
370
    15
100
AcDbPolyline
 90
        9
 70
   128
 43
0.0
 10
159.7260970456
 20
111.3727653383
 10
159.785218467
 20
111.313644183
 10
159.842066397
 20
111.2567949226
 10
159.8944588797
 20
111.2044021737
 10
159.9403821298
 20
111.1584797219
 10
159.9780692952
 20
111.1207920243
 10
160.0060749633
 20
111.0927876867
 10
160.0233198643
 20
111.0755425196
 10
160.0291419608
 20
111.0697196248
  0
LINE
  5
6D
330
1F
100
AcDbEntity
  8
0
  6
Continuous
 62
     7
370
    15
100
AcDbLine
 10
158.9475603342
 20
109.9881385304
 30
0.0
 11
160.0291419608
 21
111.0697196248
 31
0.0
  0
LINE
  5
6E
330
1F
100
AcDbEntity
  8
0
  6
Continuous
 62
     7
370
    15
100
AcDbLine
 10
152.034217688
 20
109.7789288881
 30
0.0
 11
152.034217688
 21
110.207500653
 31
0.0
  0
LINE
  5
6F
330
1F
100
AcDbEntity
  8
0
  6
Continuous
 62
     7
370
    15
100
AcDbLine
 10
158.4424854755
 20
110.207500653
 30
0.0
 11
158.4424854755
 21
109.7789288881
 31
0.0
  0
LINE
  5
70
330
1F
100
AcDbEntity
  8
0
  6
Continuous
 62
     7
370
    15
100
AcDbLine
 10
152.034217688
 20
109.7789288881
 30
0.0
 11
158.4424854755
 21
109.7789288881
 31
0.0
  0
LINE
  5
71
330
1F
100
AcDbEntity
  8
0
  6
Continuous
 62
     7
370
    15
100
AcDbLine
 10
152.034217688
 20
120.6360719283
 30
0.0
 11
152.034217688
 21
121.0646436933
 31
0.0
  0
LINE
  5
72
330
1F
100
AcDbEntity
  8
0
  6
Continuous
 62
     7
370
    15
100
AcDbLine
 10
158.4424854755
 20
121.0646436933
 30
0.0
 11
152.034217688
 21
121.0646436933
 31
0.0
  0
LINE
  5
73
330
1F
100
AcDbEntity
  8
0
  6
Continuous
 62
     7
370
    15
100
AcDbLine
 10
158.4424854755
 20
121.0646436933
 30
0.0
 11
158.4424854755
 21
120.6360719283
 31
0.0
  0
LINE
  5
74
330
1F
100
AcDbEntity
  8
0
  6
Continuous
 62
     7
370
    15
100
AcDbLine
 10
159.8097798381
 20
119.2687765014
 30
0.0
 11
160.2383521352
 21
119.2687765014
 31
0.0
  0
LINE
  5
75
330
1F
100
AcDbEntity
  8
0
  6
Continuous
 62
     7
370
    15
100
AcDbLine
 10
160.2383521352
 20
111.57479608
 30
0.0
 11
160.2383521352
 21
119.2687765014
 31
0.0
  0
LINE
  5
76
330
1F
100
AcDbEntity
  8
0
  6
Continuous
 62
     7
370
    15
100
AcDbLine
 10
160.2383521352
 20
111.57479608
 30
0.0
 11
159.8097798381
 21
111.57479608
 31
0.0
  0
LINE
  5
77
330
1F
100
AcDbEntity
  8
0
  6
Continuous
 62
     7
370
    15
100
AcDbLine
 10
150.2383520927
 20
119.2687765014
 30
0.0
 11
150.6669233254
 21
119.2687765014
 31
0.0
  0
LINE
  5
78
330
1F
100
AcDbEntity
  8
0
  6
Continuous
 62
     7
370
    15
100
AcDbLine
 10
150.6669233254
 20
111.57479608
 30
0.0
 11
150.2383520927
 21
111.57479608
 31
0.0
  0
LINE
  5
79
330
1F
100
AcDbEntity
  8
0
  6
Continuous
 62
     7
370
    15
100
AcDbLine
 10
150.2383520927
 20
119.2687765014
 30
0.0
 11
150.2383520927
 21
111.57479608
 31
0.0
  0
ARC
  5
7A
330
1F
100
AcDbEntity
  8
0
  6
Continuous
 62
     7
370
    15
100
AcDbCircle
 10
150.9526375089
 20
119.2687766033
 30
0.0
 40
0.7142857142857258
100
AcDbArc
 50
135.0
 51
180.000000022
  0
ARC
  5
7B
330
1F
100
AcDbEntity
  8
0
  6
Continuous
 62
     7
370
    15
100
AcDbCircle
 10
159.5240660804
 20
119.2687766033
 30
0.0
 40
0.7142857142857258
100
AcDbArc
 50
359.9999999882
 51
45.0000000228
  0
ARC
  5
7C
330
1F
100
AcDbEntity
  8
0
  6
Continuous
 62
     7
370
    15
100
AcDbCircle
 10
150.9526375089
 20
111.5747959781
 30
0.0
 40
0.7142857142857224
100
AcDbArc
 50
180.000000022
 51
224.9999999993
  0
ARC
  5
7D
330
1F
100
AcDbEntity
  8
0
  6
Continuous
 62
     7
370
    15
100
AcDbCircle
 10
159.5240660804
 20
111.5747959781
 30
0.0
 40
0.7142857142857224
100
AcDbArc
 50
315.000000011
 51
359.9999999883
  0
ARC
  5
7E
330
1F
100
AcDbEntity
  8
0
  6
Continuous
 62
     7
370
    15
100
AcDbCircle
 10
152.0342186249
 20
110.4932148621
 30
0.0
 40
0.7142857142857258
100
AcDbArc
 50
224.9999999993
 51
269.9999999765
  0
ARC
  5
7F
330
1F
100
AcDbEntity
  8
0
  6
Continuous
 62
     7
370
    15
100
AcDbCircle
 10
158.4424849644
 20
120.3503577193
 30
0.0
 40
0.7142857142857258
100
AcDbArc
 50
45.0000000228
 51
90.0
  0
ARC
  5
80
330
1F
100
AcDbEntity
  8
0
  6
Continuous
 62
     7
370
    15
100
AcDbCircle
 10
158.4424849644
 20
110.4932148621
 30
0.0
 40
0.7142857142857082
100
AcDbArc
 50
269.9999999765
 51
315.000000011
  0
ARC
  5
81
330
1F
100
AcDbEntity
  8
0
  6
Continuous
 62
     7
370
    15
100
AcDbCircle
 10
152.0342186249
 20
120.3503577193
 30
0.0
 40
0.7142857142857224
100
AcDbArc
 50
90.0000000103
 51
134.9999999875
  0
LINE
  5
82
330
1F
100
AcDbEntity
  8
0
  6
Continuous
 62
     7
370
    15
100
AcDbLine
 10
160.809779736
 20
122.2846363522
 30
0.0
 11
149.6669234276
 21
122.2846363522
 31
0.0
  0
ARC
  5
83
330
1F
100
AcDbEntity
  8
0
  6
Continuous
 62
     7
370
    15
100
AcDbCircle
 10
160.8406778097
 20
121.601101131
 30
0.0
 40
0.6842332128087745
100
AcDbArc
 50
2.8463186862
 51
92.5881985978
  0
LINE
  5
84
330
1F
100
AcDbEntity
  8
0
  6
Continuous
 62
     7
370
    15
100
AcDbLine
 10
161.5240668978
 20
109.8027276391
 30
0.0
 11
161.5240668978
 21
121.635078238
 31
0.0
  0
ARC
  5
85
330
1F
100
AcDbEntity
  8
0
  6
Continuous
 62
     7
370
    15
100
AcDbCircle
 10
160.8406778097
 20
109.8367047461
 30
0.0
 40
0.6842332128087799
100
AcDbArc
 50
267.4118014022
 51
357.1536813138
  0
LINE
  5
86
330
1F
100
AcDbEntity
  8
0
  6
Continuous
 62
     7
370
    15
100
AcDbLine
 10
149.6669234276
 20
109.153169525
 30
0.0
 11
160.809779736
 21
109.153169525
 31
0.0
  0
ARC
  5
87
330
1F
100
AcDbEntity
  8
0
  6
Continuous
 62
     7
370
    15
100
AcDbCircle
 10
149.6360257726
 20
109.8367040868
 30
0.0
 40
0.6842325353105394
100
AcDbArc
 50
182.8462662341
 51
272.5881660563
  0
LINE
  5
88
330
1F
100
AcDbEntity
  8
0
  6
Continuous
 62
     7
370
    15
100
AcDbLine
 10
148.9526373301
 20
109.8027276391
 30
0.0
 11
148.9526373301
 21
121.635078238
 31
0.0
  0
ARC
  5
89
330
1F
100
AcDbEntity
  8
0
  6
Continuous
 62
     7
370
    15
100
AcDbCircle
 10
149.6360257726
 20
121.6011017903
 30
0.0
 40
0.6842325353105373
100
AcDbArc
 50
87.4118339437
 51
177.1537337659
  0
LINE
  5
8A
330
1F
100
AcDbEntity
  8
0
  6
Continuous
 62
     7
370
    15
100
AcDbLine
 10
161.5240668978
 20
109.5056107251
 30
0.0
 11
161.5240668978
 21
109.8027276391
 31
0.0
  0
ARC
  5
8B
330
1F
100
AcDbEntity
  8
0
  6
Continuous
 62
     7
370
    15
100
AcDbCircle
 10
160.8406772999
 20
109.5395883927
 30
0.0
 40
0.6842337497833496
100
AcDbArc
 50
267.4118461648
 51
357.1536365512
  0
LINE
  5
8C
330
1F
100
AcDbEntity
  8
0
  6
Continuous
 62
     7
370
    15
100
AcDbLine
 10
160.809779736
 20
108.856052611
 30
0.0
 11
160.809779736
 21
109.153169525
 31
0.0
  0
LINE
  5
8D
330
1F
100
AcDbEntity
  8
0
  6
Continuous
 62
     7
370
    15
100
AcDbLine
 10
149.6669234276
 20
108.856052611
 30
0.0
 11
160.809779736
 21
108.856052611
 31
0.0
  0
LINE
  5
8E
330
1F
100
AcDbEntity
  8
0
  6
Continuous
 62
     7
370
    15
100
AcDbLine
 10
149.6669234276
 20
108.856052611
 30
0.0
 11
149.6669234276
 21
109.153169525
 31
0.0
  0
ARC
  5
8F
330
1F
100
AcDbEntity
  8
0
  6
Continuous
 62
     7
370
    15
100
AcDbCircle
 10
149.6360262824
 20
109.5395877334
 30
0.0
 40
0.6842330722833834
100
AcDbArc
 50
182.8463109966
 51
272.5881212938
  0
LINE
  5
90
330
1F
100
AcDbEntity
  8
0
  6
Continuous
 62
     7
370
    15
100
AcDbLine
 10
148.9526373301
 20
109.5056107251
 30
0.0
 11
148.9526373301
 21
109.8027276391
 31
0.0
  0
LINE
  5
91
330
1F
100
AcDbEntity
  8
0
  6
Continuous
 62
     7
370
    15
100
AcDbLine
 10
124.3669230325
 20
128.1791365822
 30
0.0
 11
131.3669231155
 21
128.1791365822
 31
0.0
  0
LINE
  5
92
330
1F
100
AcDbEntity
  8
0
  6
Continuous
 62
     7
370
    15
100
AcDbLine
 10
131.3669231155
 20
103.1485364091
 30
0.0
 11
131.3669231155
 21
128.1791365822
 31
0.0
  0
LINE
  5
93
330
1F
100
AcDbEntity
  8
0
  6
Continuous
 62
     7
370
    15
100
AcDbLine
 10
131.3669231155
 20
103.1485364091
 30
0.0
 11
123.6954948034
 21
103.1485364091
 31
0.0
  0
LINE
  5
94
330
1F
100
AcDbEntity
  8
0
  6
Continuous
 62
     7
370
    15
100
AcDbLine
 10
123.6954948034
 20
103.1485364091
 30
0.0
 11
123.6954948034
 21
128.4217860267
 31
0.0
  0
LINE
  5
95
330
1F
100
AcDbEntity
  8
0
  6
Continuous
 62
     7
370
    15
100
AcDbLine
 10
133.8669232218
 20
105.0061917981
 30
0.0
 11
131.3669231155
 21
105.0061917981
 31
0.0
  0
LINE
  5
96
330
1F
100
AcDbEntity
  8
0
  6
Continuous
 62
     7
370
    15
100
AcDbLine
 10
131.3669231155
 20
126.4036781271
 30
0.0
 11
132.2954946963
 21
126.4036781271
 31
0.0
  0
LINE
  5
97
330
1F
100
AcDbEntity
  8
0
  6
Continuous
 62
     7
370
    15
100
AcDbLine
 10
123.6954948034
 20
105.601981733
 30
0.0
 11
121.2669227106
 21
105.601981733
 31
0.0
  0
LINE
  5
98
330
1F
100
AcDbEntity
  8
0
  6
Continuous
 62
     7
370
    15
100
AcDbLine
 10
121.2669227106
 20
105.601981733
 30
0.0
 11
121.2669227106
 21
126.1360724307
 31
0.0
  0
LINE
  5
99
330
1F
100
AcDbEntity
  8
0
  6
Continuous
 62
     7
370
    15
100
AcDbLine
 10
117.5240660718
 20
115.4217862907
 30
0.0
 11
117.5240660718
 21
125.9932149984
 31
0.0
  0
LINE
  5
9A
330
1F
100
AcDbEntity
  8
0
  6
Continuous
 62
     7
370
    15
100
AcDbLine
 10
117.5240660718
 20
104.850357583
 30
0.0
 11
117.5240660718
 21
115.4217862907
 31
0.0
  0
LINE
  5
9B
330
1F
100
AcDbEntity
  8
0
  6
Continuous
 62
     7
370
    15
100
AcDbLine
 10
121.2669227106
 20
101.1360717921
 30
0.0
 11
133.8669232218
 21
101.1360717921
 31
0.0
  0
LINE
  5
9C
330
1F
100
AcDbEntity
  8
0
  6
Continuous
 62
     7
370
    15
100
AcDbLine
 10
121.2669227106
 20
101.1360717921
 30
0.0
 11
121.2669227106
 21
105.601981733
 31
0.0
  0
LINE
  5
9D
330
1F
100
AcDbEntity
  8
0
  6
Continuous
 62
     7
370
    15
100
AcDbLine
 10
133.8669232218
 20
101.1360717921
 30
0.0
 11
133.8669232218
 21
104.9814792866
 31
0.0
  0
LINE
  5
9E
330
1F
100
AcDbEntity
  8
0
  6
Continuous
 62
     7
370
    15
100
AcDbLine
 10
118.1240655848
 20
101.7075004572
 30
0.0
 11
121.2669227106
 21
101.7075004572
 31
0.0
  0
LINE
  5
9F
330
1F
100
AcDbEntity
  8
0
  6
Continuous
 62
     7
370
    15
100
AcDbLine
 10
118.1240655848
 20
101.7075004572
 30
0.0
 11
118.1240655848
 21
102.707500355
 31
0.0
  0
LINE
  5
A0
330
1F
100
AcDbEntity
  8
0
  6
Continuous
 62
     7
370
    15
100
AcDbLine
 10
118.1240655848
 20
102.707500355
 30
0.0
 11
121.2669227106
 21
102.707500355
 31
0.0
  0
LINE
  5
A1
330
1F
100
AcDbEntity
  8
0
  6
Continuous
 62
     7
370
    15
100
AcDbLine
 10
118.1240655848
 20
102.707500355
 30
0.0
 11
118.1240655848
 21
103.7075002528
 31
0.0
  0
LINE
  5
A2
330
1F
100
AcDbEntity
  8
0
  6
Continuous
 62
     7
370
    15
100
AcDbLine
 10
118.1240655848
 20
103.7075002528
 30
0.0
 11
121.2669227106
 21
103.7075002528
 31
0.0
  0
LINE
  5
A3
330
1F
100
AcDbEntity
  8
0
  6
Continuous
 62
     7
370
    15
100
AcDbLine
 10
131.652637448
 20
129.3955258211
 30
0.0
 11
127.6526375907
 21
129.3955258211
 31
0.0
  0
LINE
  5
A4
330
1F
100
AcDbEntity
  8
0
  6
Continuous
 62
     7
370
    15
100
AcDbLine
 10
132.5097803126
 20
129.7075007893
 30
0.0
 11
126.795494593
 21
129.7075007893
 31
0.0
  0
LINE
  5
A5
330
1F
100
AcDbEntity
  8
0
  6
Continuous
 62
     7
370
    15
100
AcDbLine
 10
132.5097803126
 20
130.136072022
 30
0.0
 11
126.795494593
 21
130.136072022
 31
0.0
  0
LINE
  5
A6
330
1F
100
AcDbEntity
  8
0
  6
Continuous
 62
     7
370
    15
100
AcDbLine
 10
124.3669230325
 20
128.4217860267
 30
0.0
 11
124.3669230325
 21
128.1791365822
 31
0.0
  0
LINE
  5
A7
330
1F
100
AcDbEntity
  8
0
  6
Continuous
 62
     7
370
    15
100
AcDbLine
 10
124.3669230325
 20
128.4217860267
 30
0.0
 11
132.2954946963
 21
128.4217860267
 31
0.0
  0
LINE
  5
A8
330
1F
100
AcDbEntity
  8
0
  6
Continuous
 62
     7
370
    15
100
AcDbLine
 10
132.2954946963
 20
128.4217860267
 30
0.0
 11
132.2954946963
 21
126.4036781271
 31
0.0
  0
LINE
  5
A9
330
1F
100
AcDbEntity
  8
0
  6
Continuous
 62
     7
370
    15
100
AcDbLine
 10
124.4383517487
 20
100.9777522763
 30
0.0
 11
124.4383517487
 21
101.1360717921
 31
0.0
  0
LINE
  5
AA
330
1F
100
AcDbEntity
  8
0
  6
Continuous
 62
     7
370
    15
100
AcDbLine
 10
124.4383517487
 20
100.9777522763
 30
0.0
 11
121.7240658556
 21
100.9777522763
 31
0.0
  0
LINE
  5
AB
330
1F
100
AcDbEntity
  8
0
  6
Continuous
 62
     7
370
    15
100
AcDbLine
 10
121.7240658556
 20
100.9777522763
 30
0.0
 11
121.7240658556
 21
101.1360717921
 31
0.0
  0
LINE
  5
AC
330
1F
100
AcDbEntity
  8
0
  6
Continuous
 62
     7
370
    15
100
AcDbLine
 10
119.7191816722
 20
103.7075002528
 30
0.0
 11
119.7191816722
 21
104.6360724988
 31
0.0
  0
LINE
  5
AD
330
1F
100
AcDbEntity
  8
0
  6
Continuous
 62
     7
370
    15
100
AcDbLine
 10
119.3812084351
 20
104.850357583
 30
0.0
 11
119.3812084351
 21
103.7075002528
 31
0.0
  0
LINE
  5
AE
330
1F
100
AcDbEntity
  8
0
  6
Continuous
 62
     7
370
    15
100
AcDbLine
 10
119.3812084351
 20
101.7075004572
 30
0.0
 11
119.3812084351
 21
100.9932143597
 31
0.0
  0
LINE
  5
AF
330
1F
100
AcDbEntity
  8
0
  6
Continuous
 62
     7
370
    15
100
AcDbLine
 10
118.9526372024
 20
103.7075002528
 30
0.0
 11
118.9526372024
 21
104.850357583
 31
0.0
  0
LINE
  5
B0
330
1F
100
AcDbEntity
  8
0
  6
Continuous
 62
     7
370
    15
100
AcDbLine
 10
118.9526372024
 20
100.9932143597
 30
0.0
 11
118.9526372024
 21
101.7075004572
 31
0.0
  0
LINE
  5
B1
330
1F
100
AcDbEntity
  8
0
  6
Continuous
 62
     7
370
    15
100
AcDbLine
 10
150.3812084607
 20
97.9932146663
 30
0.0
 11
149.6669234276
 21
97.9932146663
 31
0.0
  0
LINE
  5
B2
330
1F
100
AcDbEntity
  8
0
  6
Continuous
 62
     7
370
    15
100
AcDbLine
 10
149.6669234276
 20
97.9932146663
 30
0.0
 11
149.6669234276
 21
99.1360719965
 31
0.0
  0
LINE
  5
B3
330
1F
100
AcDbEntity
  8
0
  6
Continuous
 62
     7
370
    15
100
AcDbLine
 10
149.6669234276
 20
99.1360719965
 30
0.0
 11
150.3812084607
 21
99.1360719965
 31
0.0
  0
LINE
  5
B4
330
1F
100
AcDbEntity
  8
0
  6
Continuous
 62
     7
370
    15
100
AcDbLine
 10
150.3812084607
 20
97.9932146663
 30
0.0
 11
150.3812084607
 21
99.1360719965
 31
0.0
  0
LINE
  5
B5
330
1F
100
AcDbEntity
  8
0
  6
Continuous
 62
     7
370
    15
100
AcDbLine
 10
130.3812089077
 20
97.9932146663
 30
0.0
 11
130.3812089077
 21
99.1360719965
 31
0.0
  0
LINE
  5
B6
330
1F
100
AcDbEntity
  8
0
  6
Continuous
 62
     7
370
    15
100
AcDbLine
 10
130.3812089077
 20
99.1360719965
 30
0.0
 11
131.0954947391
 21
99.1360719965
 31
0.0
  0
LINE
  5
B7
330
1F
100
AcDbEntity
  8
0
  6
Continuous
 62
     7
370
    15
100
AcDbLine
 10
131.0954947391
 20
99.1360719965
 30
0.0
 11
131.0954947391
 21
97.9932146663
 31
0.0
  0
LINE
  5
B8
330
1F
100
AcDbEntity
  8
0
  6
Continuous
 62
     7
370
    15
100
AcDbLine
 10
131.0954947391
 20
97.9932146663
 30
0.0
 11
130.3812089077
 21
97.9932146663
 31
0.0
  0
LINE
  5
B9
330
1F
100
AcDbEntity
  8
0
  6
Continuous
 62
     7
370
    15
100
AcDbLine
 10
131.0954947391
 20
99.1360719965
 30
0.0
 11
149.6669234276
 21
99.1360719965
 31
0.0
  0
LINE
  5
BA
330
1F
100
AcDbEntity
  8
0
  6
Continuous
 62
     7
370
    15
100
AcDbLine
 10
131.0954947391
 20
97.9932146663
 30
0.0
 11
149.6669234276
 21
97.9932146663
 31
0.0
  0
LINE
  5
BB
330
1F
100
AcDbEntity
  8
0
  6
Continuous
 62
     7
370
    15
100
AcDbLine
 10
133.8669232218
 20
126.4271187181
 30
0.0
 11
134.9240660501
 21
126.4271187181
 31
0.0
  0
LINE
  5
BC
330
1F
100
AcDbEntity
  8
0
  6
Continuous
 62
     7
370
    15
100
AcDbLine
 10
134.9240660501
 20
111.70964334
 30
0.0
 11
134.9240660501
 21
126.4271187181
 31
0.0
  0
LINE
  5
BD
330
1F
100
AcDbEntity
  8
0
  6
Continuous
 62
     7
370
    15
100
AcDbLine
 10
133.8669232218
 20
104.9814792866
 30
0.0
 11
133.8669232218
 21
126.4271187181
 31
0.0
  0
LINE
  5
BE
330
1F
100
AcDbEntity
  8
0
  6
Continuous
 62
     7
370
    15
100
AcDbLine
 10
138.3705952704
 20
108.3036090896
 30
0.0
 11
138.3705952704
 21
124.7719062476
 31
0.0
  0
SPLINE
  5
BF
330
1F
100
AcDbEntity
  8
0
  6
Continuous
 62
     7
370
    15
100
AcDbSpline
210
0.0
220
0.0
230
1.0
 70
     8
 71
     3
 72
     8
 73
     4
 74
     0
 42
0.00000001
 43
0.00000001
 40
0.0
 40
0.0
 40
0.0
 40
0.0
 40
1.0
 40
1.0
 40
1.0
 40
1.0
 10
134.9240660809062
 20
126.4271189495927
 30
0.0
 10
136.0738366260578
 20
125.8773127870836
 30
0.0
 10
137.2228419041618
 20
125.3259131643232
 30
0.0
 10
138.3705950597041
 20
124.7719063379831
 30
0.0
  0
LINE
  5
C0
330
1F
100
AcDbEntity
  8
0
  6
Continuous
 62
     7
370
    15
100
AcDbLine
 10
134.2383517984
 20
111.70964334
 30
0.0
 11
134.2383517984
 21
99.1360719965
 31
0.0
  0
LINE
  5
C1
330
1F
100
AcDbEntity
  8
0
  6
Continuous
 62
     7
370
    15
100
AcDbLine
 10
134.2383517984
 20
111.70964334
 30
0.0
 11
135.5054945918
 21
111.70964334
 31
0.0
  0
LINE
  5
C2
330
1F
100
AcDbEntity
  8
0
  6
Continuous
 62
     7
370
    15
100
AcDbLine
 10
135.5054945918
 20
111.70964334
 30
0.0
 11
146.0821776884
 21
99.1360719965
 31
0.0
  0
LINE
  5
C3
330
1F
100
AcDbEntity
  8
0
  6
Continuous
 62
     7
370
    15
100
AcDbLine
 10
159.5240671022
 20
108.856052611
 30
0.0
 11
159.5240671022
 21
107.7539292015
 31
0.0
  0
LINE
  5
C4
330
1F
100
AcDbEntity
  8
0
  6
Continuous
 62
     7
370
    15
100
AcDbLine
 10
150.256923197
 20
107.7539292015
 30
0.0
 11
159.5240671022
 21
107.7539292015
 31
0.0
  0
LINE
  5
C5
330
1F
100
AcDbEntity
  8
0
  6
Continuous
 62
     7
370
    15
100
AcDbLine
 10
150.256923197
 20
108.856052611
 30
0.0
 11
150.256923197
 21
107.7539292015
 31
0.0
  0
LINE
  5
C6
330
1F
100
AcDbEntity
  8
0
  6
Continuous
 62
     7
370
    15
100
AcDbLine
 10
159.5240671022
 20
123.0896433799
 30
0.0
 11
150.256923197
 21
123.0896433799
 31
0.0
  0
LINE
  5
C7
330
1F
100
AcDbEntity
  8
0
  6
Continuous
 62
     7
370
    15
100
AcDbLine
 10
159.5240671022
 20
123.0896433799
 30
0.0
 11
159.5240671022
 21
122.2846363522
 31
0.0
  0
LINE
  5
C8
330
1F
100
AcDbEntity
  8
0
  6
Continuous
 62
     7
370
    15
100
AcDbLine
 10
150.256923197
 20
123.0896433799
 30
0.0
 11
150.256923197
 21
122.2846363522
 31
0.0
  0
LINE
  5
C9
330
1F
100
AcDbEntity
  8
0
  6
Continuous
 62
     7
370
    15
100
AcDbLine
 10
159.5240671022
 20
106.7438029003
 30
0.0
 11
139.682678702
 21
106.7438029003
 31
0.0
  0
LINE
  5
CA
330
1F
100
AcDbEntity
  8
0
  6
Continuous
 62
     7
370
    15
100
AcDbLine
 10
138.3705952704
 20
124.7719062476
 30
0.0
 11
139.0954947199
 21
124.7719062476
 31
0.0
  0
LINE
  5
CB
330
1F
100
AcDbEntity
  8
0
  6
Continuous
 62
     7
370
    15
100
AcDbLine
 10
159.5240671022
 20
125.1003576426
 30
0.0
 11
159.5240671022
 21
123.0896433799
 31
0.0
  0
LINE
  5
CC
330
1F
100
AcDbEntity
  8
0
  6
Continuous
 62
     7
370
    15
100
AcDbLine
 10
159.5240671022
 20
107.7539292015
 30
0.0
 11
159.5240671022
 21
106.7438029003
 31
0.0
  0
LINE
  5
CD
330
1F
100
AcDbEntity
  8
0
  6
Continuous
 62
     7
370
    15
100
AcDbLine
 10
152.6097814253
 20
103.721786209
 30
0.0
 11
146.1812086769
 21
103.721786209
 31
0.0
  0
LINE
  5
CE
330
1F
100
AcDbEntity
  8
0
  6
Continuous
 62
     7
370
    15
100
AcDbLine
 10
146.1812086769
 20
100.5503582353
 30
0.0
 11
152.6097814253
 21
100.5503582353
 31
0.0
  0
LINE
  5
CF
330
1F
100
AcDbEntity
  8
0
  6
Continuous
 62
     7
370
    15
100
AcDbLine
 10
152.6097814253
 20
100.5503582353
 30
0.0
 11
152.6097814253
 21
103.721786209
 31
0.0
  0
LINE
  5
D0
330
1F
100
AcDbEntity
  8
0
  6
Continuous
 62
     7
370
    15
100
AcDbLine
 10
146.1812086769
 20
103.721786209
 30
0.0
 11
146.1812086769
 21
100.5503582353
 31
0.0
  0
LINE
  5
D1
330
1F
100
AcDbEntity
  8
0
  6
Continuous
 62
     7
370
    15
100
AcDbLine
 10
161.5240668978
 20
109.5056107251
 30
0.0
 11
161.5240668978
 21
106.4160715506
 31
0.0
  0
LINE
  5
D2
330
1F
100
AcDbEntity
  8
0
  6
Continuous
 62
     7
370
    15
100
AcDbLine
 10
161.5240668978
 20
124.4275010308
 30
0.0
 11
161.5240668978
 21
121.635078238
 31
0.0
  0
LINE
  5
D3
330
1F
100
AcDbEntity
  8
0
  6
Continuous
 62
     7
370
    15
100
AcDbLine
 10
161.1097805568
 20
105.8503574808
 30
0.0
 11
161.1097805568
 21
98.6217860914
 31
0.0
  0
LINE
  5
D4
330
1F
100
AcDbEntity
  8
0
  6
Continuous
 62
     7
370
    15
100
AcDbLine
 10
161.1097805568
 20
98.6217860914
 30
0.0
 11
150.3812084607
 21
98.6217860914
 31
0.0
  0
LINE
  5
D5
330
1F
100
AcDbEntity
  8
0
  6
Continuous
 62
     7
370
    15
100
AcDbLine
 10
161.1097805568
 20
105.8503574808
 30
0.0
 11
140.4342304749
 21
105.8503574808
 31
0.0
  0
LINE
  5
D6
330
1F
100
AcDbEntity
  8
0
  6
Continuous
 62
     7
370
    15
100
AcDbLine
 10
159.5240671022
 20
106.7438029003
 30
0.0
 11
159.5240671022
 21
105.8503574808
 31
0.0
  0
LINE
  5
D7
330
1F
100
AcDbEntity
  8
0
  6
Continuous
 62
     7
370
    15
100
AcDbLine
 10
139.0954947199
 20
124.7719062476
 30
0.0
 11
139.0954947199
 21
126.7075010958
 31
0.0
  0
LINE
  5
D8
330
1F
100
AcDbEntity
  8
0
  6
Continuous
 62
     7
370
    15
100
AcDbLine
 10
139.0954947199
 20
126.7075010958
 30
0.0
 11
133.8669232218
 21
126.7075010958
 31
0.0
  0
LINE
  5
D9
330
1F
100
AcDbEntity
  8
0
  6
Continuous
 62
     7
370
    15
100
AcDbLine
 10
133.8669232218
 20
126.4271187181
 30
0.0
 11
133.8669232218
 21
126.7075010958
 31
0.0
  0
LINE
  5
DA
330
1F
100
AcDbEntity
  8
0
  6
Continuous
 62
     7
370
    15
100
AcDbLine
 10
152.8362535306
 20
130.136072022
 30
0.0
 11
155.6669228145
 21
127.850378649
 31
0.0
  0
LINE
  5
DB
330
1F
100
AcDbEntity
  8
0
  6
Continuous
 62
     7
370
    15
100
AcDbLine
 10
152.5333980731
 20
129.2789295566
 30
0.0
 11
138.5240660548
 21
129.2789295566
 31
0.0
  0
LINE
  5
DC
330
1F
100
AcDbEntity
  8
0
  6
Continuous
 62
     7
370
    15
100
AcDbLine
 10
155.6669228145
 20
127.850378649
 30
0.0
 11
155.128435295
 21
127.1835005959
 31
0.0
  0
LINE
  5
DD
330
1F
100
AcDbEntity
  8
0
  6
Continuous
 62
     7
370
    15
100
AcDbLine
 10
155.128435295
 20
127.1835005959
 30
0.0
 11
152.5333980731
 21
129.2789295566
 31
0.0
  0
LINE
  5
DE
330
1F
100
AcDbEntity
  8
0
  6
Continuous
 62
     7
370
    15
100
AcDbLine
 10
138.5240660548
 20
129.2789295566
 30
0.0
 11
138.5240660548
 21
126.7075010958
 31
0.0
  0
LINE
  5
DF
330
1F
100
AcDbEntity
  8
0
  6
Continuous
 62
     7
370
    15
100
AcDbLine
 10
137.6669233233
 20
126.7075010958
 30
0.0
 11
137.6669233233
 21
130.136072022
 31
0.0
  0
LINE
  5
E0
330
1F
100
AcDbEntity
  8
0
  6
Continuous
 62
     7
370
    15
100
AcDbLine
 10
137.6669233233
 20
130.136072022
 30
0.0
 11
152.8362535306
 21
130.136072022
 31
0.0
  0
INSERT
  5
EC
330
1F
100
AcDbEntity
  8
寸法線
100
AcDbBlockReference
  2
SW_NOTE_0
 10
150.5660125176
 20
137.48256239
 30
0.0
  0
LEADER
  5
EE
330
1F
100
AcDbEntity
  8
寸法線
100
AcDbLeader
  3
SLDDIMSTYLE0
 76
     2
 10
144.5979475361
 20
130.136072005
 30
0.0
 10
150.5660125176
 20
137.48256239
 30
0.0
  0
INSERT
  5
FB
330
1F
100
AcDbEntity
  8
寸法線
100
AcDbBlockReference
  2
SW_NOTE_1
 10
179.800370664
 20
127.6866250496
 30
0.0
  0
LEADER
  5
102
330
1F
100
AcDbEntity
  8
寸法線
100
AcDbLeader
  3
SLDDIMSTYLE1
 76
     2
 10
156.1268331173
 20
117.9786299769
 30
0.0
 10
179.800370664
 20
127.6866250496
 30
0.0
  0
INSERT
  5
10E
330
1F
100
AcDbEntity
  8
寸法線
100
AcDbBlockReference
  2
SW_NOTE_2
 10
162.0945836057
 20
82.805551835
 30
0.0
  0
LEADER
  5
10F
330
1F
100
AcDbEntity
  8
寸法線
100
AcDbLeader
  3
SLDDIMSTYLE1
 76
     2
 10
150.9800091971
 20
101.920539346
 30
0.0
 10
162.0945836057
 20
82.805551835
 30
0.0
  0
LINE
  5
110
330
1F
100
AcDbEntity
  8
0
  6
CENTERX2
 62
     7
370
     0
100
AcDbLine
 10
129.6526375089
 20
126.4217862907
 30
0.0
 11
129.6526375089
 21
132.136072005
 31
0.0
  0
LINE
  5
111
330
1F
100
AcDbEntity
  8
0
  6
CENTERX2
 62
     7
370
     0
100
AcDbLine
 10
63.4528068457
 20
101.7075005764
 30
0.0
 11
63.4528068457
 21
103.7075005764
 31
0.0
  0
LINE
  5
112
330
1F
100
AcDbEntity
  8
0
  6
Continuous
 62
     7
370
    15
100
AcDbLine
 10
57.5956640524
 20
129.7075007893
 30
0.0
 11
58.452806784
 21
129.3955258211
 31
0.0
  0
LINE
  5
113
330
1F
100
AcDbEntity
  8
0
  6
Continuous
 62
     7
370
    15
100
AcDbLine
 10
62.4528069074
 20
129.3955258211
 30
0.0
 11
63.309949639
 21
129.7075007893
 31
0.0
  0
LINE
  5
114
330
1F
100
AcDbEntity
  8
0
  6
Continuous
 62
     7
370
    15
100
AcDbLine
 10
63.309949639
 20
129.7075007893
 30
0.0
 11
63.309949639
 21
130.136072022
 31
0.0
  0
LINE
  5
115
330
1F
100
AcDbEntity
  8
0
  6
Continuous
 62
     7
370
    15
100
AcDbLine
 10
57.5956640524
 20
130.136072022
 30
0.0
 11
57.5956640524
 21
129.7075007893
 31
0.0
  0
LINE
  5
116
330
1F
100
AcDbEntity
  8
0
  6
Continuous
 62
     7
370
    15
100
AcDbLine
 10
62.4528069074
 20
128.4217860267
 30
0.0
 11
62.4528069074
 21
129.3955258211
 31
0.0
  0
LINE
  5
117
330
1F
100
AcDbEntity
  8
0
  6
Continuous
 62
     7
370
    15
100
AcDbLine
 10
58.452806784
 20
129.3955258211
 30
0.0
 11
58.452806784
 21
128.4217860267
 31
0.0
  0
LINE
  5
118
330
1F
100
AcDbEntity
  8
0
  6
Continuous
 62
     7
370
    15
100
AcDbLine
 10
71.5012142726
 20
122.2725302231
 30
0.0
 11
71.5276808636
 21
122.2846363522
 31
0.0
  0
LWPOLYLINE
  5
119
330
1F
100
AcDbEntity
  8
0
  6
Continuous
 62
     7
370
    15
100
AcDbPolyline
 90
        6
 70
   128
 43
0.0
 10
71.5276808636
 20
122.2846363522
 10
71.5333901371
 20
122.2721555653
 10
71.5502976332
 20
122.2351916384
 10
71.5777540871
 20
122.1751660358
 10
71.6147047093
 20
122.0943852445
 10
71.6312120028
 20
122.0582951642
  0
LINE
  5
11A
330
1F
100
AcDbEntity
  8
0
  6
Continuous
 62
     7
370
    15
100
AcDbLine
 10
76.5875170299
 20
109.5056107251
 30
0.0
 11
77.2370756762
 21
109.8027276391
 31
0.0
  0
LINE
  5
11B
330
1F
100
AcDbEntity
  8
0
  6
Continuous
 62
     7
370
    15
100
AcDbLine
 10
73.4122945819
 20
116.4472995709
 30
0.0
 11
76.5875170299
 21
109.5056107251
 31
0.0
  0
LINE
  5
11C
330
1F
100
AcDbEntity
  8
0
  6
Continuous
 62
     7
370
    15
100
AcDbLine
 10
77.2370756762
 20
109.8027276391
 30
0.0
 11
72.7836890969
 21
119.538744564
 31
0.0
  0
LINE
  5
11D
330
1F
100
AcDbEntity
  8
0
  6
Continuous
 62
     7
370
    15
100
AcDbLine
 10
76.8846334116
 20
108.856052611
 30
0.0
 11
77.534192058
 21
109.153169525
 31
0.0
  0
LWPOLYLINE
  5
11E
330
1F
100
AcDbEntity
  8
0
  6
Continuous
 62
     7
370
    15
100
AcDbPolyline
 90
        9
 70
   128
 43
0.0
 10
76.5875170299
 20
109.5056107251
 10
76.6454814825
 20
109.3788885894
 10
76.701219276
 20
109.2570359403
 10
76.7525867717
 20
109.1447359999
 10
76.7976106303
 20
109.0463042509
 10
76.8345601882
 20
108.9655229273
 10
76.8620177064
 20
108.9054973248
 10
76.8789252025
 20
108.86853393
 10
76.8846334116
 20
108.856052611
  0
LWPOLYLINE
  5
11F
330
1F
100
AcDbEntity
  8
0
  6
Continuous
 62
     7
370
    15
100
AcDbPolyline
 90
        9
 70
   128
 43
0.0
 10
77.2370756762
 20
109.8027276391
 10
77.2950401289
 20
109.6760049712
 10
77.3507768579
 20
109.5541523221
 10
77.4021443537
 20
109.4418523817
 10
77.4471682122
 20
109.3434206327
 10
77.4841188345
 20
109.2626398413
 10
77.5115752884
 20
109.2026142387
 10
77.5284827845
 20
109.165650844
 10
77.534192058
 20
109.153169525
  0
LINE
  5
120
330
1F
100
AcDbEntity
  8
0
  6
Continuous
 62
     7
370
    15
100
AcDbLine
 10
77.5956636054
 20
119.7738529566
 30
0.0
 11
77.5956636054
 21
119.2687765014
 31
0.0
  0
ARC
  5
121
330
1F
100
AcDbEntity
  8
0
  6
Continuous
 62
     7
370
    15
100
AcDbCircle
 10
77.6492343417
 20
119.3950436862
 30
0.0
 40
0.3825784718092045
100
AcDbArc
 50
11.4220179965
 51
98.0493210034
  0
SPLINE
  5
122
330
1F
100
AcDbEntity
  8
0
  6
Continuous
 62
     7
370
    15
100
AcDbSpline
210
0.0
220
0.0
230
1.0
 70
    24
 71
     3
 72
     9
 73
     5
 74
     0
 42
0.00000001
 43
0.00000001
 40
0.0
 40
0.0
 40
0.0
 40
0.0
 40
0.4999995492252567
 40
1.0
 40
1.0
 40
1.0
 40
1.0
 10
78.02423590246768
 20
119.2687765013635
 30
0.0
 10
78.02423590246768
 20
119.3066097862097
 30
0.0
 10
78.02423590246768
 20
119.3822764241193
 30
0.0
 10
78.02423590246768
 20
119.4412969523739
 30
0.0
 10
78.02423590246767
 20
119.4708072431061
 30
0.0
  0
LINE
  5
123
330
1F
100
AcDbEntity
  8
0
  6
Continuous
 62
     7
370
    15
100
AcDbLine
 10
77.5956636054
 20
119.2687765014
 30
0.0
 11
78.0242359025
 21
119.2687765014
 31
0.0
  0
LINE
  5
124
330
1F
100
AcDbEntity
  8
0
  6
Continuous
 62
     7
370
    15
100
AcDbLine
 10
77.5956636054
 20
111.57479608
 30
0.0
 11
77.5956636054
 21
111.0697196248
 31
0.0
  0
LINE
  5
125
330
1F
100
AcDbEntity
  8
0
  6
Continuous
 62
     7
370
    15
100
AcDbLine
 10
78.0242359025
 20
111.57479608
 30
0.0
 11
77.5956636054
 21
111.57479608
 31
0.0
  0
SPLINE
  5
126
330
1F
100
AcDbEntity
  8
0
  6
Continuous
 62
     7
370
    15
100
AcDbSpline
210
0.0
220
0.0
230
1.0
 70
    24
 71
     3
 72
     9
 73
     5
 74
     0
 42
0.00000001
 43
0.00000001
 40
0.0
 40
0.0
 40
0.0
 40
0.0
 40
0.5000004507747433
 40
1.0
 40
1.0
 40
1.0
 40
1.0
 10
78.02423590246767
 20
111.372765338282
 30
0.0
 10
78.02423590246768
 20
111.4022756290143
 30
0.0
 10
78.02423590246767
 20
111.4612961572688
 30
0.0
 10
78.02423590246767
 20
111.5369627951785
 30
0.0
 10
78.02423590246768
 20
111.5747960800247
 30
0.0
  0
ARC
  5
127
330
1F
100
AcDbEntity
  8
0
  6
Continuous
 62
     7
370
    15
100
AcDbCircle
 10
77.6492343417
 20
111.4485288951
 30
0.0
 40
0.382578471809196
100
AcDbArc
 50
261.9506789966
 51
348.5779820035
  0
LINE
  5
128
330
1F
100
AcDbEntity
  8
0
  6
Continuous
 62
     7
370
    15
100
AcDbLine
 10
72.9071760841
 20
119.2687765014
 30
0.0
 11
77.5956636054
 21
119.2687765014
 31
0.0
  0
LINE
  5
129
330
1F
100
AcDbEntity
  8
0
  6
Continuous
 62
     7
370
    15
100
AcDbLine
 10
78.0242359025
 20
119.2687765014
 30
0.0
 11
78.0242359025
 21
111.57479608
 31
0.0
  0
LINE
  5
12A
330
1F
100
AcDbEntity
  8
0
  6
Continuous
 62
     7
370
    15
100
AcDbLine
 10
77.5956636054
 20
119.2687765014
 30
0.0
 11
77.5956636054
 21
111.57479608
 31
0.0
  0
LINE
  5
12B
330
1F
100
AcDbEntity
  8
0
  6
Continuous
 62
     7
370
    15
100
AcDbLine
 10
76.42650679
 20
111.57479608
 30
0.0
 11
77.5956636054
 21
111.57479608
 31
0.0
  0
LINE
  5
12C
330
1F
100
AcDbEntity
  8
0
  6
Continuous
 62
     7
370
    15
100
AcDbLine
 10
76.6575354576
 20
111.0697196248
 30
0.0
 11
77.5956636054
 21
111.0697196248
 31
0.0
  0
LINE
  5
12D
330
1F
100
AcDbEntity
  8
0
  6
Continuous
 62
     7
370
    15
100
AcDbLine
 10
77.1522657173
 20
109.9881385304
 30
0.0
 11
77.5956636054
 21
109.9881385304
 31
0.0
  0
LINE
  5
12E
330
1F
100
AcDbEntity
  8
0
  6
Continuous
 62
     7
370
    15
100
AcDbLine
 10
77.5956636054
 20
111.0697196248
 30
0.0
 11
77.5956636054
 21
109.9881385304
 31
0.0
  0
LINE
  5
12F
330
1F
100
AcDbEntity
  8
0
  6
Continuous
 62
     7
370
    15
100
AcDbLine
 10
78.0242359025
 20
111.3727653383
 30
0.0
 11
78.0242359025
 21
110.2911845099
 31
0.0
  0
ARC
  5
130
330
1F
100
AcDbEntity
  8
0
  6
Continuous
 62
     7
370
    15
100
AcDbCircle
 10
77.6492343302
 20
110.3669477506
 30
0.0
 40
0.3825784205419053
100
AcDbArc
 50
261.9506796633
 51
348.5780287686
  0
LINE
  5
131
330
1F
100
AcDbEntity
  8
0
  6
Continuous
 62
     7
370
    15
100
AcDbLine
 10
77.5956636054
 20
120.855434051
 30
0.0
 11
77.5956636054
 21
119.7738529566
 31
0.0
  0
ARC
  5
132
330
1F
100
AcDbEntity
  8
0
  6
Continuous
 62
     7
370
    15
100
AcDbCircle
 10
77.6492343302
 20
120.4766248308
 30
0.0
 40
0.3825784205419024
100
AcDbArc
 50
11.4219712314
 51
98.0493203367
  0
LINE
  5
133
330
1F
100
AcDbEntity
  8
0
  6
Continuous
 62
     7
370
    15
100
AcDbLine
 10
78.0242359025
 20
120.5523880714
 30
0.0
 11
78.0242359025
 21
119.4708072431
 31
0.0
  0
LINE
  5
134
330
1F
100
AcDbEntity
  8
0
  6
Continuous
 62
     7
370
    15
100
AcDbLine
 10
77.5956636054
 20
109.9881385304
 30
0.0
 11
77.5956636054
 21
109.7789288881
 31
0.0
  0
ARC
  5
135
330
1F
100
AcDbEntity
  8
0
  6
Continuous
 62
     7
370
    15
100
AcDbCircle
 10
77.5956639885
 20
110.2075005764
 30
0.0
 40
0.4285714285714306
100
AcDbArc
 50
270.0
 51
0.0000000118
  0
SPLINE
  5
136
330
1F
100
AcDbEntity
  8
0
  6
Continuous
 62
     7
370
    15
100
AcDbSpline
210
0.0
220
0.0
230
1.0
 70
    24
 71
     3
 72
     9
 73
     5
 74
     0
 42
0.00000001
 43
0.00000001
 40
0.0
 40
0.0
 40
0.0
 40
0.0
 40
0.4999932822049243
 40
1.0
 40
1.0
 40
1.0
 40
1.0
 10
78.02423590246767
 20
110.2075006530429
 30
0.0
 10
78.02423590246767
 20
110.2114015704542
 30
0.0
 10
78.02423590246768
 20
110.2192035101004
 30
0.0
 10
78.02423590246767
 20
110.2671906284143
 30
0.0
 10
78.02423590246767
 20
110.2911845099389
 30
0.0
  0
LINE
  5
137
330
1F
100
AcDbEntity
  8
0
  6
Continuous
 62
     7
370
    15
100
AcDbLine
 10
77.5956636054
 20
121.0646436933
 30
0.0
 11
77.5956636054
 21
120.855434051
 31
0.0
  0
ARC
  5
138
330
1F
100
AcDbEntity
  8
0
  6
Continuous
 62
     7
370
    15
100
AcDbCircle
 10
77.5956639885
 20
120.636072005
 30
0.0
 40
0.4285714285714306
100
AcDbArc
 50
359.9999999995
 51
90.0
  0
SPLINE
  5
139
330
1F
100
AcDbEntity
  8
0
  6
Continuous
 62
     7
370
    15
100
AcDbSpline
210
0.0
220
0.0
230
1.0
 70
    24
 71
     3
 72
     9
 73
     5
 74
     0
 42
0.00000001
 43
0.00000001
 40
0.0
 40
0.0
 40
0.0
 40
0.0
 40
0.5000067177950756
 40
1.0
 40
1.0
 40
1.0
 40
1.0
 10
78.02423590246767
 20
120.5523880714492
 30
0.0
 10
78.02423590246768
 20
120.5763819529738
 30
0.0
 10
78.02423590246767
 20
120.6243690712878
 30
0.0
 10
78.02423590246767
 20
120.632171010934
 30
0.0
 10
78.02423590246767
 20
120.6360719283452
 30
0.0
  0
LINE
  5
13A
330
1F
100
AcDbEntity
  8
0
  6
Continuous
 62
     7
370
    15
100
AcDbLine
 10
72.1642616629
 20
121.0646436933
 30
0.0
 11
77.5956636054
 21
121.0646436933
 31
0.0
  0
LINE
  5
13B
330
1F
100
AcDbEntity
  8
0
  6
Continuous
 62
     7
370
    15
100
AcDbLine
 10
77.2479609744
 20
109.7789288881
 30
0.0
 11
77.5956636054
 21
109.7789288881
 31
0.0
  0
LINE
  5
13C
330
1F
100
AcDbEntity
  8
0
  6
Continuous
 62
     7
370
    15
100
AcDbLine
 10
72.1642616629
 20
109.7789288881
 30
0.0
 11
76.4624973518
 21
109.7789288881
 31
0.0
  0
CIRCLE
  5
13D
330
1F
100
AcDbEntity
  8
0
  6
Continuous
 62
     7
370
    15
100
AcDbCircle
 10
60.4528068457
 20
115.4217862907
 30
0.0
 40
10.57142857142856
  0
LINE
  5
13E
330
1F
100
AcDbEntity
  8
0
  6
Continuous
 62
     7
370
    15
100
AcDbLine
 10
62.8754565251
 20
101.7075004572
 30
0.0
 11
64.0301570854
 21
101.7075004572
 31
0.0
  0
LINE
  5
13F
330
1F
100
AcDbEntity
  8
0
  6
Continuous
 62
     7
370
    15
100
AcDbLine
 10
64.6075073655
 20
102.707500355
 30
0.0
 11
64.0301570854
 21
103.7075002528
 31
0.0
  0
LINE
  5
140
330
1F
100
AcDbEntity
  8
0
  6
Continuous
 62
     7
370
    15
100
AcDbLine
 10
64.0301570854
 20
101.7075004572
 30
0.0
 11
64.6075073655
 21
102.707500355
 31
0.0
  0
LINE
  5
141
330
1F
100
AcDbEntity
  8
0
  6
Continuous
 62
     7
370
    15
100
AcDbLine
 10
62.298106245
 20
102.707500355
 30
0.0
 11
62.8754565251
 21
101.7075004572
 31
0.0
  0
LINE
  5
142
330
1F
100
AcDbEntity
  8
0
  6
Continuous
 62
     7
370
    15
100
AcDbLine
 10
62.8754565251
 20
103.7075002528
 30
0.0
 11
62.298106245
 21
102.707500355
 31
0.0
  0
LINE
  5
143
330
1F
100
AcDbEntity
  8
0
  6
Continuous
 62
     7
370
    15
100
AcDbLine
 10
64.0301570854
 20
103.7075002528
 30
0.0
 11
62.8754565251
 21
103.7075002528
 31
0.0
  0
CIRCLE
  5
144
330
1F
100
AcDbEntity
  8
0
  6
Continuous
 62
     7
370
    15
100
AcDbCircle
 10
49.5956639885
 20
103.2789291478
 30
0.0
 40
0.8571428571428541
  0
CIRCLE
  5
145
330
1F
100
AcDbEntity
  8
0
  6
Continuous
 62
     7
370
    15
100
AcDbCircle
 10
49.5956639885
 20
103.2789291478
 30
0.0
 40
2.285714285714285
  0
LINE
  5
146
330
1F
100
AcDbEntity
  8
0
  6
Continuous
 62
     7
370
    15
100
AcDbLine
 10
50.573864901
 20
106.7427960075
 30
0.0
 11
53.1149604516
 21
104.0337824646
 31
0.0
  0
LINE
  5
147
330
1F
100
AcDbEntity
  8
0
  6
Continuous
 62
     7
370
    15
100
AcDbLine
 10
52.3513967462
 20
108.4101481347
 30
0.0
 11
50.573864901
 21
106.7427960075
 31
0.0
  0
ARC
  5
148
330
1F
100
AcDbEntity
  8
0
  6
Continuous
 62
     7
370
    15
100
AcDbCircle
 10
60.4528068457
 20
115.4217862907
 30
0.0
 40
10.71428571428572
100
AcDbArc
 50
293.5781784782
 51
220.8756537242
  0
LINE
  5
149
330
1F
100
AcDbEntity
  8
0
  6
Continuous
 62
     7
370
    15
100
AcDbLine
 10
64.7385210356
 20
101.1360717921
 30
0.0
 11
64.7385210356
 21
105.601981733
 31
0.0
  0
LINE
  5
14A
330
1F
100
AcDbEntity
  8
0
  6
Continuous
 62
     7
370
    15
100
AcDbLine
 10
62.1670925749
 20
101.1360717921
 30
0.0
 11
64.7385210356
 21
101.1360717921
 31
0.0
  0
LINE
  5
14B
330
1F
100
AcDbEntity
  8
0
  6
Continuous
 62
     7
370
    15
100
AcDbLine
 10
62.1670925749
 20
104.8455327999
 30
0.0
 11
62.1670925749
 21
101.1360717921
 31
0.0
  0
ARC
  5
14C
330
1F
100
AcDbEntity
  8
0
  6
Continuous
 62
     7
370
    15
100
AcDbCircle
 10
60.4528068457
 20
115.4217862907
 30
0.0
 40
10.71428571428572
100
AcDbArc
 50
241.0265591986
 51
279.2068962213
  0
LINE
  5
14D
330
1F
100
AcDbEntity
  8
0
  6
Continuous
 62
     7
370
    15
100
AcDbLine
 10
53.1149604516
 20
104.0337824646
 30
0.0
 11
55.2627622042
 21
106.0484535178
 31
0.0
  0
LINE
  5
14E
330
1F
100
AcDbEntity
  8
0
  6
Continuous
 62
     7
370
    15
100
AcDbLine
 10
49.1261415209
 20
100.9777522763
 30
0.0
 11
49.1827222943
 21
101.030825955
 31
0.0
  0
LINE
  5
14F
330
1F
100
AcDbEntity
  8
0
  6
Continuous
 62
     7
370
    15
100
AcDbLine
 10
47.2691864865
 20
102.9574162444
 30
0.0
 11
47.3257672599
 21
103.0104888587
 31
0.0
  0
LINE
  5
150
330
1F
100
AcDbEntity
  8
0
  6
Continuous
 62
     7
370
    15
100
AcDbLine
 10
49.1261415209
 20
100.9777522763
 30
0.0
 11
49.0495389086
 21
101.0594159615
 31
0.0
  0
LINE
  5
151
330
1F
100
AcDbEntity
  8
0
  6
Continuous
 62
     7
370
    15
100
AcDbLine
 10
47.3457890987
 20
102.8757514948
 30
0.0
 11
47.2691864865
 21
102.9574162444
 31
0.0
  0
LINE
  5
152
330
1F
100
AcDbEntity
  8
0
  6
Continuous
 62
     7
370
    15
100
AcDbLine
 10
51.8655603511
 20
103.5473691815
 30
0.0
 11
52.7728899274
 21
104.3984575181
 31
0.0
  0
LINE
  5
153
330
1F
100
AcDbEntity
  8
0
  6
Continuous
 62
     7
370
    15
100
AcDbLine
 10
50.008606381
 20
105.5270320853
 30
0.0
 11
50.915934893
 21
106.3781214862
 31
0.0
  0
ARC
  5
154
330
1F
100
AcDbEntity
  8
0
  6
Continuous
 62
     7
370
    15
100
AcDbCircle
 10
60.4528068457
 20
115.4217862907
 30
0.0
 40
13.0
100
AcDbArc
 50
289.2487670725
 51
221.278882335
  0
ARC
  5
155
330
1F
100
AcDbEntity
  8
0
  6
Continuous
 62
     7
370
    15
100
AcDbCircle
 10
60.4528068457
 20
115.4217862907
 30
0.0
 40
13.0
100
AcDbArc
 50
237.8082367021
 51
277.5775578717
  0
LINE
  5
156
330
1F
100
AcDbEntity
  8
0
  6
Continuous
 62
     7
370
    15
100
AcDbLine
 10
57.952806835
 20
128.4217860267
 30
0.0
 11
60.4528068457
 21
128.4217860267
 31
0.0
  0
LINE
  5
157
330
1F
100
AcDbEntity
  8
0
  6
Continuous
 62
     7
370
    15
100
AcDbLine
 10
57.952806835
 20
128.4217860267
 30
0.0
 11
57.952806835
 21
128.1791365822
 31
0.0
  0
LINE
  5
158
330
1F
100
AcDbEntity
  8
0
  6
Continuous
 62
     7
370
    15
100
AcDbLine
 10
60.4528068457
 20
128.4217860267
 30
0.0
 11
62.9528068563
 21
128.4217860267
 31
0.0
  0
LINE
  5
159
330
1F
100
AcDbEntity
  8
0
  6
Continuous
 62
     7
370
    15
100
AcDbLine
 10
62.9528068563
 20
128.4217860267
 30
0.0
 11
62.9528068563
 21
128.1791365822
 31
0.0
  0
LINE
  5
15A
330
1F
100
AcDbEntity
  8
0
  6
Continuous
 62
     7
370
    15
100
AcDbLine
 10
62.4528069074
 20
129.3955258211
 30
0.0
 11
58.452806784
 21
129.3955258211
 31
0.0
  0
LINE
  5
15B
330
1F
100
AcDbEntity
  8
0
  6
Continuous
 62
     7
370
    15
100
AcDbLine
 10
63.309949639
 20
129.7075007893
 30
0.0
 11
57.5956640524
 21
129.7075007893
 31
0.0
  0
LINE
  5
15C
330
1F
100
AcDbEntity
  8
0
  6
Continuous
 62
     7
370
    15
100
AcDbLine
 10
63.309949639
 20
130.136072022
 30
0.0
 11
57.5956640524
 21
130.136072022
 31
0.0
  0
LINE
  5
15D
330
1F
100
AcDbEntity
  8
0
  6
Continuous
 62
     7
370
    15
100
AcDbLine
 10
48.1670921427
 20
99.1360719965
 30
0.0
 11
48.1670921427
 21
97.9932146663
 31
0.0
  0
LINE
  5
15E
330
1F
100
AcDbEntity
  8
0
  6
Continuous
 62
     7
370
    15
100
AcDbLine
 10
50.7385206035
 20
97.9932146663
 30
0.0
 11
50.7385206035
 21
99.1360719965
 31
0.0
  0
LINE
  5
15F
330
1F
100
AcDbEntity
  8
0
  6
Continuous
 62
     7
370
    15
100
AcDbLine
 10
48.1670921427
 20
99.1360719965
 30
0.0
 11
50.7385206035
 21
99.1360719965
 31
0.0
  0
LINE
  5
160
330
1F
100
AcDbEntity
  8
0
  6
Continuous
 62
     7
370
    15
100
AcDbLine
 10
48.1670921427
 20
97.9932146663
 30
0.0
 11
50.7385206035
 21
97.9932146663
 31
0.0
  0
LINE
  5
161
330
1F
100
AcDbEntity
  8
0
  6
Continuous
 62
     7
370
    15
100
AcDbLine
 10
51.4528067009
 20
99.1360719965
 30
0.0
 11
51.4528067009
 21
97.9932146663
 31
0.0
  0
LINE
  5
162
330
1F
100
AcDbEntity
  8
0
  6
Continuous
 62
     7
370
    15
100
AcDbLine
 10
50.7385206035
 20
99.1360719965
 30
0.0
 11
51.4528067009
 21
99.1360719965
 31
0.0
  0
LINE
  5
163
330
1F
100
AcDbEntity
  8
0
  6
Continuous
 62
     7
370
    15
100
AcDbLine
 10
51.4528067009
 20
97.9932146663
 30
0.0
 11
50.7385206035
 21
97.9932146663
 31
0.0
  0
LINE
  5
164
330
1F
100
AcDbEntity
  8
0
  6
Continuous
 62
     7
370
    15
100
AcDbLine
 10
47.4528071097
 20
97.9932146663
 30
0.0
 11
47.4528071097
 21
99.1360719965
 31
0.0
  0
LINE
  5
165
330
1F
100
AcDbEntity
  8
0
  6
Continuous
 62
     7
370
    15
100
AcDbLine
 10
47.4528071097
 20
99.1360719965
 30
0.0
 11
48.1670921427
 21
99.1360719965
 31
0.0
  0
LINE
  5
166
330
1F
100
AcDbEntity
  8
0
  6
Continuous
 62
     7
370
    15
100
AcDbLine
 10
48.1670921427
 20
97.9932146663
 30
0.0
 11
47.4528071097
 21
97.9932146663
 31
0.0
  0
LINE
  5
167
330
1F
100
AcDbEntity
  8
0
  6
Continuous
 62
     7
370
    15
100
AcDbLine
 10
72.7385215486
 20
97.9932146663
 30
0.0
 11
72.7385215486
 21
99.1360719965
 31
0.0
  0
LINE
  5
168
330
1F
100
AcDbEntity
  8
0
  6
Continuous
 62
     7
370
    15
100
AcDbLine
 10
73.4528065817
 20
99.1360719965
 30
0.0
 11
73.4528065817
 21
97.9932146663
 31
0.0
  0
LINE
  5
169
330
1F
100
AcDbEntity
  8
0
  6
Continuous
 62
     7
370
    15
100
AcDbLine
 10
73.4528065817
 20
97.9932146663
 30
0.0
 11
72.7385215486
 21
97.9932146663
 31
0.0
  0
LINE
  5
16A
330
1F
100
AcDbEntity
  8
0
  6
Continuous
 62
     7
370
    15
100
AcDbLine
 10
72.7385215486
 20
99.1360719965
 30
0.0
 11
73.4528065817
 21
99.1360719965
 31
0.0
  0
LINE
  5
16B
330
1F
100
AcDbEntity
  8
0
  6
Continuous
 62
     7
370
    15
100
AcDbLine
 10
70.1670930879
 20
99.1360719965
 30
0.0
 11
70.1670930879
 21
97.9932146663
 31
0.0
  0
LINE
  5
16C
330
1F
100
AcDbEntity
  8
0
  6
Continuous
 62
     7
370
    15
100
AcDbLine
 10
70.1670930879
 20
97.9932146663
 30
0.0
 11
72.7385215486
 21
97.9932146663
 31
0.0
  0
LINE
  5
16D
330
1F
100
AcDbEntity
  8
0
  6
Continuous
 62
     7
370
    15
100
AcDbLine
 10
70.1670930879
 20
99.1360719965
 30
0.0
 11
72.7385215486
 21
99.1360719965
 31
0.0
  0
LINE
  5
16E
330
1F
100
AcDbEntity
  8
0
  6
Continuous
 62
     7
370
    15
100
AcDbLine
 10
69.4528069904
 20
97.9932146663
 30
0.0
 11
69.4528069904
 21
99.1360719965
 31
0.0
  0
LINE
  5
16F
330
1F
100
AcDbEntity
  8
0
  6
Continuous
 62
     7
370
    15
100
AcDbLine
 10
70.1670930879
 20
97.9932146663
 30
0.0
 11
69.4528069904
 21
97.9932146663
 31
0.0
  0
LINE
  5
170
330
1F
100
AcDbEntity
  8
0
  6
Continuous
 62
     7
370
    15
100
AcDbLine
 10
69.4528069904
 20
99.1360719965
 30
0.0
 11
70.1670930879
 21
99.1360719965
 31
0.0
  0
LINE
  5
171
330
1F
100
AcDbEntity
  8
0
  6
Continuous
 62
     7
370
    15
100
AcDbLine
 10
69.4528069904
 20
98.421785899
 30
0.0
 11
51.4528067009
 21
98.421785899
 31
0.0
  0
LINE
  5
172
330
1F
100
AcDbEntity
  8
0
  6
Continuous
 62
     7
370
    15
100
AcDbLine
 10
51.4528067009
 20
99.1360719965
 30
0.0
 11
69.4528069904
 21
99.1360719965
 31
0.0
  0
LINE
  5
173
330
1F
100
AcDbEntity
  8
0
  6
Continuous
 62
     7
370
    15
100
AcDbLine
 10
49.4528069053
 20
108.4935829293
 30
0.0
 11
49.4528069053
 21
105.5601743965
 31
0.0
  0
LINE
  5
174
330
1F
100
AcDbEntity
  8
0
  6
Continuous
 62
     7
370
    15
100
AcDbLine
 10
49.4528069053
 20
100.9976836437
 30
0.0
 11
49.4528069053
 21
99.1360719965
 31
0.0
  0
LINE
  5
175
330
1F
100
AcDbEntity
  8
0
  6
Continuous
 62
     7
370
    15
100
AcDbLine
 10
71.4528067861
 20
108.4935829293
 30
0.0
 11
71.4528067861
 21
99.1360719965
 31
0.0
  0
LINE
  5
176
330
1F
100
AcDbEntity
  8
0
  6
Continuous
 62
     7
370
    15
100
AcDbLine
 10
77.5956636054
 20
119.7738529566
 30
0.0
 11
72.7026853203
 21
119.7738529566
 31
0.0
  0
LINE
  5
177
330
1F
100
AcDbEntity
  8
0
  6
Continuous
 62
     7
370
    15
100
AcDbLine
 10
72.8705628667
 20
111.57479608
 30
0.0
 11
75.6410442318
 21
111.57479608
 31
0.0
  0
LINE
  5
178
330
1F
100
AcDbEntity
  8
0
  6
Continuous
 62
     7
370
    15
100
AcDbLine
 10
72.7026853203
 20
111.0697196248
 30
0.0
 11
75.8720728993
 21
111.0697196248
 31
0.0
  0
LINE
  5
179
330
1F
100
AcDbEntity
  8
0
  6
Continuous
 62
     7
370
    15
100
AcDbLine
 10
72.2627806901
 20
120.855434051
 30
0.0
 11
77.5956636054
 21
120.855434051
 31
0.0
  0
LINE
  5
17A
330
1F
100
AcDbEntity
  8
0
  6
Continuous
 62
     7
370
    15
100
AcDbLine
 10
72.2627806901
 20
109.9881385304
 30
0.0
 11
76.3668020946
 21
109.9881385304
 31
0.0
  0
INSERT
  5
187
330
1F
100
AcDbEntity
  8
寸法線
100
AcDbBlockReference
  2
SW_NOTE_3
 10
78.4984928647
 20
80.3558699823
 30
0.0
  0
LEADER
  5
188
330
1F
100
AcDbEntity
  8
寸法線
100
AcDbLeader
  3
SLDDIMSTYLE0
 76
     2
 10
64.2946764032
 20
102.1656614234
 30
0.0
 10
78.4984928647
 20
80.3558699823
 30
0.0
  0
INSERT
  5
195
330
1F
100
AcDbEntity
  8
寸法線
100
AcDbBlockReference
  2
SW_NOTE_4
 10
37.6016402488
 20
78.0624320746
 30
0.0
  0
LEADER
  5
196
330
1F
100
AcDbEntity
  8
寸法線
100
AcDbLeader
  3
SLDDIMSTYLE0
 76
     2
 10
48.8702430665
 20
102.8223567402
 30
0.0
 10
37.6016402488
 20
78.0624320746
 30
0.0
  0
INSERT
  5
1A3
330
1F
100
AcDbEntity
  8
寸法線
100
AcDbBlockReference
  2
SW_NOTE_5
 10
43.8737186142
 20
140.5432696706
 30
0.0
  0
LEADER
  5
1A4
330
1F
100
AcDbEntity
  8
寸法線
100
AcDbLeader
  3
SLDDIMSTYLE0
 76
     2
 10
60.6017811592
 20
130.136072005
 30
0.0
 10
43.8737186142
 20
140.5432696706
 30
0.0
  0
INSERT
  5
1B0
330
1F
100
AcDbEntity
  8
寸法線
100
AcDbBlockReference
  2
SW_NOTE_6
 10
84.4469230583
 20
143.0878139185
 30
0.0
  0
LEADER
  5
1B1
330
1F
100
AcDbEntity
  8
寸法線
100
AcDbLeader
  3
SLDDIMSTYLE1
 76
     2
 10
63.4840025545
 20
119.4197406745
 30
0.0
 10
84.4469230583
 20
143.0878139185
 30
0.0
  0
INSERT
  5
1BD
330
1F
100
AcDbEntity
  8
0
  6
Continuous
 62
     7
370
     0
100
AcDbBlockReference
  2
SW_CENTERMARKSYMBOL_0
 10
60.4528068457
 20
115.4217862907
 30
0.0
  0
INSERT
  5
1C9
330
1F
100
AcDbEntity
  8
0
  6
Continuous
 62
     7
370
     0
100
AcDbBlockReference
  2
SW_CENTERMARKSYMBOL_1
 10
49.5956639885
 20
103.2789291478
 30
0.0
  0
LINE
  5
1CA
330
1F
100
AcDbEntity
  8
0
  6
CENTERX2
 62
     7
370
     0
100
AcDbLine
 10
60.4528068457
 20
126.4217862907
 30
0.0
 11
60.4528068457
 21
132.136072005
 31
0.0
  0
LINE
  5
1CB
330
1F
100
AcDbEntity
  8
中心線
100
AcDbLine
 10
117.5240660804
 20
174.0987421227
 30
0.0
 11
168.2185858784
 21
174.0987421227
 31
0.0
  0
LINE
  5
1CC
330
1F
100
AcDbEntity
  8
中心線
100
AcDbLine
 10
129.6526375089
 20
174.0987421227
 30
0.0
 11
129.6526375089
 21
178.7604993733
 31
0.0
  0
LINE
  5
1CD
330
1F
100
AcDbEntity
  8
中心線
100
AcDbLine
 10
129.6526375089
 20
174.0987421227
 30
0.0
 11
129.6526375089
 21
170.2108747114
 31
0.0
  0
LINE
  5
1CE
330
1F
100
AcDbEntity
  8
0
  6
Continuous
 62
     7
370
    15
100
AcDbLine
 10
131.3669231155
 20
187.0987418587
 30
0.0
 11
123.6954948034
 21
187.0987418587
 31
0.0
  0
LINE
  5
1CF
330
1F
100
AcDbEntity
  8
0
  6
Continuous
 62
     7
370
    15
100
AcDbLine
 10
123.6954948034
 20
161.0987423866
 30
0.0
 11
131.3669231155
 21
161.0987423866
 31
0.0
  0
LINE
  5
1D0
330
1F
100
AcDbEntity
  8
0
  6
Continuous
 62
     7
370
    15
100
AcDbLine
 10
133.8669232218
 20
185.3615996109
 30
0.0
 11
131.3669231155
 21
185.3615996109
 31
0.0
  0
LINE
  5
1D1
330
1F
100
AcDbEntity
  8
0
  6
Continuous
 62
     7
370
    15
100
AcDbLine
 10
131.3669231155
 20
162.8358846344
 30
0.0
 11
133.8669232218
 21
162.8358846344
 31
0.0
  0
LINE
  5
1D2
330
1F
100
AcDbEntity
  8
0
  6
Continuous
 62
     7
370
    15
100
AcDbLine
 10
123.6954948034
 20
184.8130282627
 30
0.0
 11
121.2669227106
 21
184.8130282627
 31
0.0
  0
LINE
  5
1D3
330
1F
100
AcDbEntity
  8
0
  6
Continuous
 62
     7
370
    15
100
AcDbLine
 10
121.2669227106
 20
163.3844559826
 30
0.0
 11
123.6954948034
 21
163.3844559826
 31
0.0
  0
LINE
  5
1D4
330
1F
100
AcDbEntity
  8
0
  6
Continuous
 62
     7
370
    15
100
AcDbLine
 10
121.2669227106
 20
184.6701708303
 30
0.0
 11
117.5240660718
 21
184.6701708303
 31
0.0
  0
LINE
  5
1D5
330
1F
100
AcDbEntity
  8
0
  6
Continuous
 62
     7
370
    15
100
AcDbLine
 10
117.5240660718
 20
163.527313415
 30
0.0
 11
121.2669227106
 21
163.527313415
 31
0.0
  0
LINE
  5
1D6
330
1F
100
AcDbEntity
  8
0
  6
Continuous
 62
     7
370
    15
100
AcDbLine
 10
119.7191816722
 20
186.3130281094
 30
0.0
 11
119.3812084351
 21
187.2415992911
 31
0.0
  0
LINE
  5
1D7
330
1F
100
AcDbEntity
  8
0
  6
Continuous
 62
     7
370
    15
100
AcDbLine
 10
119.3812084351
 20
187.2415992911
 30
0.0
 11
118.9526372024
 21
187.2415992911
 31
0.0
  0
LINE
  5
1D8
330
1F
100
AcDbEntity
  8
0
  6
Continuous
 62
     7
370
    15
100
AcDbLine
 10
121.7240658556
 20
186.3130281094
 30
0.0
 11
119.7191816722
 21
186.3130281094
 31
0.0
  0
LINE
  5
1D9
330
1F
100
AcDbEntity
  8
0
  6
Continuous
 62
     7
370
    15
100
AcDbLine
 10
133.8669232218
 20
162.8130273175
 30
0.0
 11
134.9240660501
 21
162.8130273175
 31
0.0
  0
LINE
  5
1DA
330
1F
100
AcDbEntity
  8
0
  6
Continuous
 62
     7
370
    15
100
AcDbLine
 10
134.9240660501
 20
185.3844569278
 30
0.0
 11
133.8669232218
 21
185.3844569278
 31
0.0
  0
LINE
  5
1DB
330
1F
100
AcDbEntity
  8
0
  6
Continuous
 62
     7
370
    15
100
AcDbLine
 10
138.3705952704
 20
183.7773134746
 30
0.0
 11
134.9240660501
 21
185.3844569278
 31
0.0
  0
LINE
  5
1DC
330
1F
100
AcDbEntity
  8
0
  6
Continuous
 62
     7
370
    15
100
AcDbLine
 10
134.9240660501
 20
162.8130273175
 30
0.0
 11
138.3705952704
 21
164.4201707707
 31
0.0
  0
LINE
  5
1DD
330
1F
100
AcDbEntity
  8
0
  6
Continuous
 62
     7
370
    15
100
AcDbLine
 10
138.3705952704
 20
164.4201707707
 30
0.0
 11
150.256923197
 21
164.4201707707
 31
0.0
  0
LINE
  5
1DE
330
1F
100
AcDbEntity
  8
0
  6
Continuous
 62
     7
370
    15
100
AcDbLine
 10
159.5240671022
 20
183.7773134746
 30
0.0
 11
138.3705952704
 21
183.7773134746
 31
0.0
  0
LINE
  5
1DF
330
1F
100
AcDbEntity
  8
0
  6
Continuous
 62
     7
370
    15
100
AcDbLine
 10
159.5240671022
 20
165.0930273826
 30
0.0
 11
161.5240668978
 21
165.0930273826
 31
0.0
  0
LINE
  5
1E0
330
1F
100
AcDbEntity
  8
0
  6
Continuous
 62
     7
370
    15
100
AcDbLine
 10
161.5240668978
 20
183.1044568627
 30
0.0
 11
159.5240671022
 21
183.1044568627
 31
0.0
  0
LWPOLYLINE
  5
1E1
330
1F
100
AcDbEntity
  8
0
  6
Continuous
 62
     7
370
    15
100
AcDbPolyline
 90
        9
 70
   128
 43
0.0
 10
161.5240668978
 20
163.3763093049
 10
161.5103407996
 20
163.4342737576
 10
161.4696946893
 20
163.4900115511
 10
161.4036868027
 20
163.5413790468
 10
161.3148567234
 20
163.5864029053
 10
161.2066168172
 20
163.6233535276
 10
161.0831266369
 20
163.6508099815
 10
160.949131138
 20
163.6677174776
 10
160.809779736
 20
163.6734267511
  0
LINE
  5
1E2
330
1F
100
AcDbEntity
  8
0
  6
Continuous
 62
     7
370
    15
100
AcDbLine
 10
161.5240668978
 20
163.3763093049
 30
0.0
 11
161.5240668978
 21
162.726751723
 31
0.0
  0
LWPOLYLINE
  5
1E3
330
1F
100
AcDbEntity
  8
0
  6
Continuous
 62
     7
370
    15
100
AcDbPolyline
 90
        9
 70
   128
 43
0.0
 10
161.5240668978
 20
162.726751723
 10
161.5103407996
 20
162.7847161756
 10
161.4696946893
 20
162.8404529047
 10
161.4036868027
 20
162.8918204005
 10
161.3148567234
 20
162.936844259
 10
161.2066168172
 20
162.9737948813
 10
161.0831266369
 20
163.0012513352
 10
160.949131138
 20
163.0181588313
 10
160.809779736
 20
163.0238681047
  0
LINE
  5
1E4
330
1F
100
AcDbEntity
  8
0
  6
Continuous
 62
     7
370
    15
100
AcDbLine
 10
160.809779736
 20
163.6734267511
 30
0.0
 11
160.809779736
 21
163.0238681047
 31
0.0
  0
LINE
  5
1E5
330
1F
100
AcDbEntity
  8
0
  6
Continuous
 62
     7
370
    15
100
AcDbLine
 10
160.809779736
 20
163.0238681047
 30
0.0
 11
149.6669234276
 21
163.0238681047
 31
0.0
  0
LINE
  5
1E6
330
1F
100
AcDbEntity
  8
0
  6
Continuous
 62
     7
370
    15
100
AcDbLine
 10
161.5240668978
 20
157.3144732922
 30
0.0
 11
161.5240668978
 21
162.726751723
 31
0.0
  0
LWPOLYLINE
  5
1E7
330
1F
100
AcDbEntity
  8
0
  6
Continuous
 62
     7
370
    15
100
AcDbPolyline
 90
        9
 70
   128
 43
0.0
 10
160.809779736
 20
157.0173569104
 10
160.949131138
 20
157.0230661839
 10
161.0831266369
 20
157.03997368
 10
161.2066168172
 20
157.0674301338
 10
161.3148567234
 20
157.1043807561
 10
161.4036868027
 20
157.1494046147
 10
161.4696946893
 20
157.2007721104
 10
161.5103407996
 20
157.2565088395
 10
161.5240668978
 20
157.3144732922
  0
LINE
  5
1E8
330
1F
100
AcDbEntity
  8
0
  6
Continuous
 62
     7
370
    15
100
AcDbLine
 10
149.6669234276
 20
157.0173569104
 30
0.0
 11
150.2383520927
 21
157.0173569104
 31
0.0
  0
LINE
  5
1E9
330
1F
100
AcDbEntity
  8
0
  6
Continuous
 62
     7
370
    15
100
AcDbLine
 10
160.2383521352
 20
157.0173569104
 30
0.0
 11
160.809779736
 21
157.0173569104
 31
0.0
  0
LWPOLYLINE
  5
1EA
330
1F
100
AcDbEntity
  8
0
  6
Continuous
 62
     7
370
    15
100
AcDbPolyline
 90
        9
 70
   128
 43
0.0
 10
148.9526373301
 20
157.3144732922
 10
148.9663623639
 20
157.2565088395
 10
149.0070095386
 20
157.2007721104
 10
149.0730163608
 20
157.1494046147
 10
149.1618464402
 20
157.1043807561
 10
149.2700874107
 20
157.0674301338
 10
149.393577591
 20
157.03997368
 10
149.5275730899
 20
157.0230661839
 10
149.6669234276
 20
157.0173569104
  0
LINE
  5
1EB
330
1F
100
AcDbEntity
  8
0
  6
Continuous
 62
     7
370
    15
100
AcDbLine
 10
148.9526373301
 20
157.3144732922
 30
0.0
 11
148.9526373301
 21
162.726751723
 31
0.0
  0
LWPOLYLINE
  5
1EC
330
1F
100
AcDbEntity
  8
0
  6
Continuous
 62
     7
370
    15
100
AcDbPolyline
 90
        9
 70
   128
 43
0.0
 10
149.6669234276
 20
163.0238681047
 10
149.5275730899
 20
163.0181588313
 10
149.393577591
 20
163.0012513352
 10
149.2700874107
 20
162.9737948813
 10
149.1618464402
 20
162.936844259
 10
149.0730163608
 20
162.8918204005
 10
149.0070095386
 20
162.8404529047
 10
148.9663623639
 20
162.7847161756
 10
148.9526373301
 20
162.726751723
  0
LINE
  5
1ED
330
1F
100
AcDbEntity
  8
0
  6
Continuous
 62
     7
370
    15
100
AcDbLine
 10
151.5291428293
 20
162.3701318114
 30
0.0
 11
150.4475612027
 21
161.8754015517
 31
0.0
  0
ELLIPSE
  5
1EE
330
1F
100
AcDbEntity
  8
0
  6
Continuous
 62
     7
370
    15
100
AcDbEllipse
 10
150.9526375089
 20
161.6443729693
 30
0.0
 11
0.714285714285694
 21
0.0
 31
0.0
210
0.0
220
0.0
230
1.0
 40
0.4574135786
 41
2.356194488449872
 42
3.141592653589793
  0
ELLIPSE
  5
1EF
330
1F
100
AcDbEntity
  8
0
  6
Continuous
 62
     7
370
    15
100
AcDbEllipse
 10
159.5240660804
 20
161.6443729693
 30
0.0
 11
0.7142857142857224
 21
0.0
 31
0.0
210
0.0
220
0.0
230
1.0
 40
0.4574135786
 41
0.0
 42
7.068583472172985
  0
LINE
  5
1F0
330
1F
100
AcDbEntity
  8
0
  6
Continuous
 62
     7
370
    15
100
AcDbLine
 10
160.0291419608
 20
161.8754015517
 30
0.0
 11
158.9475603342
 21
162.3701318114
 31
0.0
  0
ELLIPSE
  5
1F1
330
1F
100
AcDbEntity
  8
0
  6
Continuous
 62
     7
370
    15
100
AcDbEllipse
 10
158.4424849644
 20
162.1391028581
 30
0.0
 11
0.7142857142857224
 21
0.0
 31
0.0
210
0.0
220
0.0
230
1.0
 40
0.4574135786
 41
0.7853981623182129
 42
1.570796326794897
  0
LINE
  5
1F2
330
1F
100
AcDbEntity
  8
0
  6
Continuous
 62
     7
370
    15
100
AcDbLine
 10
158.4424854755
 20
162.4658270686
 30
0.0
 11
152.034217688
 21
162.4658270686
 31
0.0
  0
ELLIPSE
  5
1F3
330
1F
100
AcDbEntity
  8
0
  6
Continuous
 62
     7
370
    15
100
AcDbEllipse
 10
152.0342186249
 20
162.1391028581
 30
0.0
 11
0.7142857142857224
 21
0.0
 31
0.0
210
0.0
220
0.0
230
1.0
 40
0.4574135786
 41
1.570796326884704
 42
2.356194493781073
  0
LWPOLYLINE
  5
1F4
330
1F
100
AcDbEntity
  8
0
  6
Continuous
 62
     7
370
    15
100
AcDbPolyline
 90
        9
 70
   128
 43
0.0
 10
149.6669234276
 20
163.6734267511
 10
149.5275730899
 20
163.6677174776
 10
149.393577591
 20
163.6508099815
 10
149.2700874107
 20
163.6233535276
 10
149.1618464402
 20
163.5864029053
 10
149.0730163608
 20
163.5413790468
 10
149.0070095386
 20
163.4900115511
 10
148.9663623639
 20
163.4342737576
 10
148.9526373301
 20
163.3763093049
  0
LINE
  5
1F5
330
1F
100
AcDbEntity
  8
0
  6
Continuous
 62
     7
370
    15
100
AcDbLine
 10
149.6669234276
 20
163.6734267511
 30
0.0
 11
149.6669234276
 21
163.0238681047
 31
0.0
  0
LINE
  5
1F6
330
1F
100
AcDbEntity
  8
0
  6
Continuous
 62
     7
370
    15
100
AcDbLine
 10
148.9526373301
 20
162.726751723
 30
0.0
 11
148.9526373301
 21
163.3763093049
 31
0.0
  0
LINE
  5
1F7
330
1F
100
AcDbEntity
  8
0
  6
Continuous
 62
     7
370
    15
100
AcDbLine
 10
160.809779736
 20
163.6734267511
 30
0.0
 11
149.6669234276
 21
163.6734267511
 31
0.0
  0
SPLINE
  5
1F8
330
1F
100
AcDbEntity
  8
0
  6
Continuous
 62
     7
370
    15
100
AcDbSpline
210
0.0
220
0.0
230
1.0
 70
    24
 71
     3
 72
     9
 73
     5
 74
     0
 42
0.00000001
 43
0.00000001
 40
0.0
 40
0.0
 40
0.0
 40
0.0
 40
0.5000019335785434
 40
1.0
 40
1.0
 40
1.0
 40
1.0
 10
158.4424854755336
 20
156.5273130658863
 30
0.0
 10
158.4803187598476
 20
156.5273130658863
 30
0.0
 10
158.5559850358624
 20
156.5273130658863
 30
0.0
 10
158.6150053673676
 20
156.5273130658863
 30
0.0
 10
158.6445154189998
 20
156.5273130658863
 30
0.0
  0
LINE
  5
1F9
330
1F
100
AcDbEntity
  8
0
  6
Continuous
 62
     7
370
    15
100
AcDbLine
 10
158.4424854755
 20
156.955885363
 30
0.0
 11
158.4424854755
 21
156.5273130659
 31
0.0
  0
LINE
  5
1FA
330
1F
100
AcDbEntity
  8
0
  6
Continuous
 62
     7
370
    15
100
AcDbLine
 10
158.9475603342
 20
156.955885363
 30
0.0
 11
158.4424854755
 21
156.955885363
 31
0.0
  0
ARC
  5
1FB
330
1F
100
AcDbEntity
  8
0
  6
Continuous
 62
     7
370
    15
100
AcDbCircle
 10
158.5687534578
 20
156.9023127927
 30
0.0
 40
0.3825763582725903
100
AcDbArc
 50
281.4218381507
 51
8.049643145
  0
SPLINE
  5
1FC
330
1F
100
AcDbEntity
  8
0
  6
Continuous
 62
     7
370
    15
100
AcDbSpline
210
0.0
220
0.0
230
1.0
 70
    24
 71
     3
 72
     9
 73
     5
 74
     0
 42
0.00000001
 43
0.00000001
 40
0.0
 40
0.0
 40
0.0
 40
0.0
 40
0.5000067177950756
 40
1.0
 40
1.0
 40
1.0
 40
1.0
 10
151.8321877445428
 20
156.5273130658863
 30
0.0
 10
151.8616985212353
 20
156.5273130658863
 30
0.0
 10
151.9207192816416
 20
156.5273130658863
 30
0.0
 10
151.9963852247587
 20
156.5273130658863
 30
0.0
 10
152.0342176880089
 20
156.5273130658863
 30
0.0
  0
ARC
  5
1FD
330
1F
100
AcDbEntity
  8
0
  6
Continuous
 62
     7
370
    15
100
AcDbCircle
 10
151.9079508571
 20
156.9023136068
 30
0.0
 40
0.3825773842248323
100
AcDbArc
 50
171.950501717
 51
258.5780169874
  0
LINE
  5
1FE
330
1F
100
AcDbEntity
  8
0
  6
Continuous
 62
     7
370
    15
100
AcDbLine
 10
152.034217688
 20
156.955885363
 30
0.0
 11
151.5291428293
 21
156.955885363
 31
0.0
  0
LINE
  5
1FF
330
1F
100
AcDbEntity
  8
0
  6
Continuous
 62
     7
370
    15
100
AcDbLine
 10
152.034217688
 20
156.5273130659
 30
0.0
 11
152.034217688
 21
156.955885363
 31
0.0
  0
LINE
  5
200
330
1F
100
AcDbEntity
  8
0
  6
Continuous
 62
     7
370
    15
100
AcDbLine
 10
151.5291428293
 20
162.3701318114
 30
0.0
 11
151.5291428293
 21
156.955885363
 31
0.0
  0
LINE
  5
201
330
1F
100
AcDbEntity
  8
0
  6
Continuous
 62
     7
370
    15
100
AcDbLine
 10
152.034217688
 20
162.4658270686
 30
0.0
 11
152.034217688
 21
156.955885363
 31
0.0
  0
LINE
  5
202
330
1F
100
AcDbEntity
  8
0
  6
Continuous
 62
     7
370
    15
100
AcDbLine
 10
158.4424854755
 20
162.4658270686
 30
0.0
 11
158.4424854755
 21
156.955885363
 31
0.0
  0
LINE
  5
203
330
1F
100
AcDbEntity
  8
0
  6
Continuous
 62
     7
370
    15
100
AcDbLine
 10
158.4424854755
 20
156.955885363
 30
0.0
 11
152.034217688
 21
156.955885363
 31
0.0
  0
LINE
  5
204
330
1F
100
AcDbEntity
  8
0
  6
Continuous
 62
     7
370
    15
100
AcDbLine
 10
158.4424854755
 20
156.5273130659
 30
0.0
 11
152.034217688
 21
156.5273130659
 31
0.0
  0
LINE
  5
205
330
1F
100
AcDbEntity
  8
0
  6
Continuous
 62
     7
370
    15
100
AcDbLine
 10
158.9475603342
 20
162.3701318114
 30
0.0
 11
158.9475603342
 21
156.955885363
 31
0.0
  0
LINE
  5
206
330
1F
100
AcDbEntity
  8
0
  6
Continuous
 62
     7
370
    15
100
AcDbLine
 10
158.4424854755
 20
163.8130282797
 30
0.0
 11
152.034217688
 21
163.8130282797
 31
0.0
  0
LINE
  5
207
330
1F
100
AcDbEntity
  8
0
  6
Continuous
 62
     7
370
    15
100
AcDbLine
 10
152.034217688
 20
163.8130282797
 30
0.0
 11
151.5291428293
 21
163.8130282797
 31
0.0
  0
LINE
  5
208
330
1F
100
AcDbEntity
  8
0
  6
Continuous
 62
     7
370
    15
100
AcDbLine
 10
158.9475603342
 20
163.8130282797
 30
0.0
 11
158.4424854755
 21
163.8130282797
 31
0.0
  0
LINE
  5
209
330
1F
100
AcDbEntity
  8
0
  6
Continuous
 62
     7
370
    15
100
AcDbLine
 10
160.0291419608
 20
161.8754015517
 30
0.0
 11
160.0291419608
 21
156.955885363
 31
0.0
  0
LINE
  5
20A
330
1F
100
AcDbEntity
  8
0
  6
Continuous
 62
     7
370
    15
100
AcDbLine
 10
160.0291419608
 20
156.955885363
 30
0.0
 11
158.9475603342
 21
156.955885363
 31
0.0
  0
ARC
  5
20B
330
1F
100
AcDbEntity
  8
0
  6
Continuous
 62
     7
370
    15
100
AcDbCircle
 10
159.6503339331
 20
156.9023136068
 30
0.0
 40
0.3825773842248482
100
AcDbArc
 50
281.4219830126
 51
8.049498283
  0
LINE
  5
20C
330
1F
100
AcDbEntity
  8
0
  6
Continuous
 62
     7
370
    15
100
AcDbLine
 10
159.7260970456
 20
156.5273130659
 30
0.0
 11
158.644515419
 21
156.5273130659
 31
0.0
  0
LINE
  5
20D
330
1F
100
AcDbEntity
  8
0
  6
Continuous
 62
     7
370
    15
100
AcDbLine
 10
150.4475612027
 20
156.955885363
 30
0.0
 11
150.4475612027
 21
161.8754015517
 31
0.0
  0
LINE
  5
20E
330
1F
100
AcDbEntity
  8
0
  6
Continuous
 62
     7
370
    15
100
AcDbLine
 10
151.5291428293
 20
156.955885363
 30
0.0
 11
150.4475612027
 21
156.955885363
 31
0.0
  0
ARC
  5
20F
330
1F
100
AcDbEntity
  8
0
  6
Continuous
 62
     7
370
    15
100
AcDbCircle
 10
150.8263703008
 20
156.9023145519
 30
0.0
 40
0.3825783117529918
100
AcDbArc
 50
171.9506643027
 51
258.5780441292
  0
LINE
  5
210
330
1F
100
AcDbEntity
  8
0
  6
Continuous
 62
     7
370
    15
100
AcDbLine
 10
151.8321877445
 20
156.5273130659
 30
0.0
 11
150.7506071823
 21
156.5273130659
 31
0.0
  0
LINE
  5
211
330
1F
100
AcDbEntity
  8
0
  6
Continuous
 62
     7
370
    15
100
AcDbLine
 10
158.9475603342
 20
163.8130282797
 30
0.0
 11
160.0291419608
 21
163.8130282797
 31
0.0
  0
LINE
  5
212
330
1F
100
AcDbEntity
  8
0
  6
Continuous
 62
     7
370
    15
100
AcDbLine
 10
151.5291428293
 20
163.8130282797
 30
0.0
 11
150.4475612027
 21
163.8130282797
 31
0.0
  0
LINE
  5
213
330
1F
100
AcDbEntity
  8
0
  6
Continuous
 62
     7
370
    15
100
AcDbLine
 10
150.4475612027
 20
156.955885363
 30
0.0
 11
150.2383520927
 21
156.955885363
 31
0.0
  0
ARC
  5
214
330
1F
100
AcDbEntity
  8
0
  6
Continuous
 62
     7
370
    15
100
AcDbCircle
 10
150.6669232232
 20
156.9558849798
 30
0.0
 40
0.4285714285714164
100
AcDbArc
 50
180.0
 51
269.9999999897
  0
SPLINE
  5
215
330
1F
100
AcDbEntity
  8
0
  6
Continuous
 62
     7
370
    15
100
AcDbSpline
210
0.0
220
0.0
230
1.0
 70
    24
 71
     3
 72
     9
 73
     5
 74
     0
 42
0.00000001
 43
0.00000001
 40
0.0
 40
0.0
 40
0.0
 40
0.0
 40
0.4999995492252567
 40
1.0
 40
1.0
 40
1.0
 40
1.0
 10
150.6669233253958
 20
156.5273130658863
 30
0.0
 10
150.6708238053612
 20
156.5273130658863
 30
0.0
 10
150.6786247723251
 20
156.5273130658863
 30
0.0
 10
150.726613031215
 20
156.5273130658863
 30
0.0
 10
150.7506071822918
 20
156.5273130658863
 30
0.0
  0
LINE
  5
216
330
1F
100
AcDbEntity
  8
0
  6
Continuous
 62
     7
370
    15
100
AcDbLine
 10
160.2383521352
 20
156.955885363
 30
0.0
 11
160.0291419608
 21
156.955885363
 31
0.0
  0
ARC
  5
217
330
1F
100
AcDbEntity
  8
0
  6
Continuous
 62
     7
370
    15
100
AcDbCircle
 10
159.8097803661
 20
156.9558849798
 30
0.0
 40
0.4285714285714448
100
AcDbArc
 50
269.9999999995
 51
0.0
  0
SPLINE
  5
218
330
1F
100
AcDbEntity
  8
0
  6
Continuous
 62
     7
370
    15
100
AcDbSpline
210
0.0
220
0.0
230
1.0
 70
    24
 71
     3
 72
     9
 73
     5
 74
     0
 42
0.00000001
 43
0.00000001
 40
0.0
 40
0.0
 40
0.0
 40
0.0
 40
0.5000009164146697
 40
1.0
 40
1.0
 40
1.0
 40
1.0
 10
159.7260970456194
 20
156.5273130658863
 30
0.0
 10
159.7500912851372
 20
156.5273130658863
 30
0.0
 10
159.7980796762185
 20
156.5273130658863
 30
0.0
 10
159.805879788936
 20
156.5273130658863
 30
0.0
 10
159.8097798381467
 20
156.5273130658863
 30
0.0
  0
LINE
  5
219
330
1F
100
AcDbEntity
  8
0
  6
Continuous
 62
     7
370
    15
100
AcDbLine
 10
160.2383521352
 20
161.6443728842
 30
0.0
 11
160.2383521352
 21
156.955885363
 31
0.0
  0
LINE
  5
21A
330
1F
100
AcDbEntity
  8
0
  6
Continuous
 62
     7
370
    15
100
AcDbLine
 10
150.2383520927
 20
161.6443728842
 30
0.0
 11
150.2383520927
 21
156.955885363
 31
0.0
  0
LINE
  5
21B
330
1F
100
AcDbEntity
  8
0
  6
Continuous
 62
     7
370
    15
100
AcDbLine
 10
150.2383520927
 20
163.8130282797
 30
0.0
 11
150.2383520927
 21
163.6734267511
 31
0.0
  0
LINE
  5
21C
330
1F
100
AcDbEntity
  8
0
  6
Continuous
 62
     7
370
    15
100
AcDbLine
 10
150.4475612027
 20
163.8130282797
 30
0.0
 11
150.2383520927
 21
163.8130282797
 31
0.0
  0
LINE
  5
21D
330
1F
100
AcDbEntity
  8
0
  6
Continuous
 62
     7
370
    15
100
AcDbLine
 10
160.2383521352
 20
163.8130282797
 30
0.0
 11
160.2383521352
 21
163.6734267511
 31
0.0
  0
LINE
  5
21E
330
1F
100
AcDbEntity
  8
0
  6
Continuous
 62
     7
370
    15
100
AcDbLine
 10
160.2383521352
 20
163.8130282797
 30
0.0
 11
160.0291419608
 21
163.8130282797
 31
0.0
  0
CIRCLE
  5
21F
330
1F
100
AcDbEntity
  8
0
  6
Continuous
 62
     7
370
    15
100
AcDbCircle
 10
129.6526375089
 20
174.0987421227
 30
0.0
 40
2.857142857142861
  0
CIRCLE
  5
220
330
1F
100
AcDbEntity
  8
0
  6
Continuous
 62
     7
370
    15
100
AcDbCircle
 10
129.6526375089
 20
174.0987421227
 30
0.0
 40
1.871428571428567
  0
LINE
  5
221
330
1F
100
AcDbEntity
  8
0
  6
Continuous
 62
     7
370
    15
100
AcDbLine
 10
131.3669231155
 20
176.5987421333
 30
0.0
 11
131.3669231155
 21
187.0987418587
 31
0.0
  0
LINE
  5
222
330
1F
100
AcDbEntity
  8
0
  6
Continuous
 62
     7
370
    15
100
AcDbLine
 10
131.3669231155
 20
161.0987423866
 30
0.0
 11
131.3669231155
 21
171.598742112
 31
0.0
  0
LINE
  5
223
330
1F
100
AcDbEntity
  8
0
  6
Continuous
 62
     7
370
    15
100
AcDbLine
 10
123.6954948034
 20
161.0987423866
 30
0.0
 11
123.6954948034
 21
187.0987418587
 31
0.0
  0
LINE
  5
224
330
1F
100
AcDbEntity
  8
0
  6
Continuous
 62
     7
370
    15
100
AcDbLine
 10
132.2954946963
 20
171.598742112
 30
0.0
 11
132.2954946963
 21
173.0131218157
 31
0.0
  0
LINE
  5
225
330
1F
100
AcDbEntity
  8
0
  6
Continuous
 62
     7
370
    15
100
AcDbLine
 10
132.2954946963
 20
175.1843624296
 30
0.0
 11
132.2954946963
 21
176.5987421333
 31
0.0
  0
LINE
  5
226
330
1F
100
AcDbEntity
  8
0
  6
Continuous
 62
     7
370
    15
100
AcDbLine
 10
124.3669230325
 20
171.598742112
 30
0.0
 11
128.2694291157
 21
171.598742112
 31
0.0
  0
LINE
  5
227
330
1F
100
AcDbEntity
  8
0
  6
Continuous
 62
     7
370
    15
100
AcDbLine
 10
131.035845923
 20
171.598742112
 30
0.0
 11
132.2954946963
 21
171.598742112
 31
0.0
  0
LINE
  5
228
330
1F
100
AcDbEntity
  8
0
  6
Continuous
 62
     7
370
    15
100
AcDbLine
 10
124.3669230325
 20
174.0987421227
 30
0.0
 11
124.3669230325
 21
171.598742112
 31
0.0
  0
LINE
  5
229
330
1F
100
AcDbEntity
  8
0
  6
Continuous
 62
     7
370
    15
100
AcDbLine
 10
124.3669230325
 20
176.5987421333
 30
0.0
 11
124.3669230325
 21
174.0987421227
 31
0.0
  0
LINE
  5
22A
330
1F
100
AcDbEntity
  8
0
  6
Continuous
 62
     7
370
    15
100
AcDbLine
 10
132.2954946963
 20
176.5987421333
 30
0.0
 11
131.035845923
 21
176.5987421333
 31
0.0
  0
LINE
  5
22B
330
1F
100
AcDbEntity
  8
0
  6
Continuous
 62
     7
370
    15
100
AcDbLine
 10
128.2694291157
 20
176.5987421333
 30
0.0
 11
124.3669230325
 21
176.5987421333
 31
0.0
  0
LINE
  5
22C
330
1F
100
AcDbEntity
  8
0
  6
Continuous
 62
     7
370
    15
100
AcDbLine
 10
121.2669227106
 20
163.3844559826
 30
0.0
 11
121.2669227106
 21
184.8130282627
 31
0.0
  0
LINE
  5
22D
330
1F
100
AcDbEntity
  8
0
  6
Continuous
 62
     7
370
    15
100
AcDbLine
 10
117.5240660718
 20
163.527313415
 30
0.0
 11
117.5240660718
 21
184.6701708303
 31
0.0
  0
LINE
  5
22E
330
1F
100
AcDbEntity
  8
0
  6
Continuous
 62
     7
370
    15
100
AcDbLine
 10
121.7240658556
 20
185.8843621479
 30
0.0
 11
121.7240658556
 21
184.8130282627
 31
0.0
  0
LINE
  5
22F
330
1F
100
AcDbEntity
  8
0
  6
Continuous
 62
     7
370
    15
100
AcDbLine
 10
121.7240658556
 20
187.2823624819
 30
0.0
 11
121.7240658556
 21
185.8843621479
 31
0.0
  0
LINE
  5
230
330
1F
100
AcDbEntity
  8
0
  6
Continuous
 62
     7
370
    15
100
AcDbLine
 10
121.7240658556
 20
187.2823624819
 30
0.0
 11
124.4383517487
 21
187.2823624819
 31
0.0
  0
LINE
  5
231
330
1F
100
AcDbEntity
  8
0
  6
Continuous
 62
     7
370
    15
100
AcDbLine
 10
124.4383517487
 20
187.2823624819
 30
0.0
 11
124.4383517487
 21
187.0987418587
 31
0.0
  0
LINE
  5
232
330
1F
100
AcDbEntity
  8
0
  6
Continuous
 62
     7
370
    15
100
AcDbLine
 10
119.7191816722
 20
184.6701708303
 30
0.0
 11
119.7191816722
 21
186.3130281094
 31
0.0
  0
LINE
  5
233
330
1F
100
AcDbEntity
  8
0
  6
Continuous
 62
     7
370
    15
100
AcDbLine
 10
119.3812084351
 20
187.2415992911
 30
0.0
 11
119.3812084351
 21
184.6701708303
 31
0.0
  0
LINE
  5
234
330
1F
100
AcDbEntity
  8
0
  6
Continuous
 62
     7
370
    15
100
AcDbLine
 10
118.9526372024
 20
184.6701708303
 30
0.0
 11
118.9526372024
 21
187.2415992911
 31
0.0
  0
LINE
  5
235
330
1F
100
AcDbEntity
  8
0
  6
Continuous
 62
     7
370
    15
100
AcDbLine
 10
137.6669233233
 20
175.884456435
 30
0.0
 11
152.8362535306
 21
175.884456435
 31
0.0
  0
LINE
  5
236
330
1F
100
AcDbEntity
  8
0
  6
Continuous
 62
     7
370
    15
100
AcDbLine
 10
152.8362535306
 20
172.3130278103
 30
0.0
 11
152.8362535306
 21
175.884456435
 31
0.0
  0
LINE
  5
237
330
1F
100
AcDbEntity
  8
0
  6
Continuous
 62
     7
370
    15
100
AcDbLine
 10
137.6669233233
 20
172.3130278103
 30
0.0
 11
152.8362535306
 21
172.3130278103
 31
0.0
  0
LINE
  5
238
330
1F
100
AcDbEntity
  8
0
  6
Continuous
 62
     7
370
    15
100
AcDbLine
 10
137.6669233233
 20
175.884456435
 30
0.0
 11
137.6669233233
 21
172.3130278103
 31
0.0
  0
LINE
  5
239
330
1F
100
AcDbEntity
  8
0
  6
Continuous
 62
     7
370
    15
100
AcDbLine
 10
155.6669228145
 20
172.3130278103
 30
0.0
 11
155.6669228145
 21
175.884456435
 31
0.0
  0
LINE
  5
23A
330
1F
100
AcDbEntity
  8
0
  6
Continuous
 62
     7
370
    15
100
AcDbLine
 10
152.8362535306
 20
172.3130278103
 30
0.0
 11
155.6669228145
 21
172.3130278103
 31
0.0
  0
LINE
  5
23B
330
1F
100
AcDbEntity
  8
0
  6
Continuous
 62
     7
370
    15
100
AcDbLine
 10
152.8362535306
 20
175.884456435
 30
0.0
 11
155.6669228145
 21
175.884456435
 31
0.0
  0
LINE
  5
23C
330
1F
100
AcDbEntity
  8
0
  6
Continuous
 62
     7
370
    15
100
AcDbLine
 10
139.0954947199
 20
171.598742112
 30
0.0
 11
133.8669232218
 21
171.598742112
 31
0.0
  0
LINE
  5
23D
330
1F
100
AcDbEntity
  8
0
  6
Continuous
 62
     7
370
    15
100
AcDbLine
 10
133.8669232218
 20
171.598742112
 30
0.0
 11
133.8669232218
 21
176.5987421333
 31
0.0
  0
LINE
  5
23E
330
1F
100
AcDbEntity
  8
0
  6
Continuous
 62
     7
370
    15
100
AcDbLine
 10
139.0954947199
 20
171.598742112
 30
0.0
 11
139.0954947199
 21
172.3130278103
 31
0.0
  0
LINE
  5
23F
330
1F
100
AcDbEntity
  8
0
  6
Continuous
 62
     7
370
    15
100
AcDbLine
 10
139.0954947199
 20
175.884456435
 30
0.0
 11
139.0954947199
 21
176.5987421333
 31
0.0
  0
LINE
  5
240
330
1F
100
AcDbEntity
  8
0
  6
Continuous
 62
     7
370
    15
100
AcDbLine
 10
139.0954947199
 20
176.5987421333
 30
0.0
 11
133.8669232218
 21
176.5987421333
 31
0.0
  0
LINE
  5
241
330
1F
100
AcDbEntity
  8
0
  6
Continuous
 62
     7
370
    15
100
AcDbLine
 10
134.9240660501
 20
162.8130273175
 30
0.0
 11
134.9240660501
 21
171.598742112
 31
0.0
  0
LINE
  5
242
330
1F
100
AcDbEntity
  8
0
  6
Continuous
 62
     7
370
    15
100
AcDbLine
 10
134.9240660501
 20
176.5987421333
 30
0.0
 11
134.9240660501
 21
185.3844569278
 31
0.0
  0
LINE
  5
243
330
1F
100
AcDbEntity
  8
0
  6
Continuous
 62
     7
370
    15
100
AcDbLine
 10
133.8669232218
 20
176.5987421333
 30
0.0
 11
133.8669232218
 21
185.3844569278
 31
0.0
  0
LINE
  5
244
330
1F
100
AcDbEntity
  8
0
  6
Continuous
 62
     7
370
    15
100
AcDbLine
 10
133.8669232218
 20
162.8130273175
 30
0.0
 11
133.8669232218
 21
171.598742112
 31
0.0
  0
LINE
  5
245
330
1F
100
AcDbEntity
  8
0
  6
Continuous
 62
     7
370
    15
100
AcDbLine
 10
138.3705952704
 20
176.5987421333
 30
0.0
 11
138.3705952704
 21
183.7773134746
 31
0.0
  0
LINE
  5
246
330
1F
100
AcDbEntity
  8
0
  6
Continuous
 62
     7
370
    15
100
AcDbLine
 10
138.3705952704
 20
164.4201707707
 30
0.0
 11
138.3705952704
 21
171.598742112
 31
0.0
  0
LINE
  5
247
330
1F
100
AcDbEntity
  8
0
  6
Continuous
 62
     7
370
    15
100
AcDbLine
 10
159.5240671022
 20
168.1929217998
 30
0.0
 11
150.256923197
 21
168.1929217998
 31
0.0
  0
LINE
  5
248
330
1F
100
AcDbEntity
  8
0
  6
Continuous
 62
     7
370
    15
100
AcDbLine
 10
159.5240671022
 20
183.7773134746
 30
0.0
 11
159.5240671022
 21
168.1929217998
 31
0.0
  0
LINE
  5
249
330
1F
100
AcDbEntity
  8
0
  6
Continuous
 62
     7
370
    15
100
AcDbLine
 10
161.5240668978
 20
183.1044568627
 30
0.0
 11
161.5240668978
 21
165.0930273826
 31
0.0
  0
LINE
  5
24A
330
1F
100
AcDbEntity
  8
0
  6
Continuous
 62
     7
370
    15
100
AcDbLine
 10
159.5240671022
 20
167.4087423379
 30
0.0
 11
150.256923197
 21
167.4087423379
 31
0.0
  0
LINE
  5
24B
330
1F
100
AcDbEntity
  8
0
  6
Continuous
 62
     7
370
    15
100
AcDbLine
 10
150.256923197
 20
168.1929217998
 30
0.0
 11
150.256923197
 21
167.4087423379
 31
0.0
  0
LINE
  5
24C
330
1F
100
AcDbEntity
  8
0
  6
Continuous
 62
     7
370
    15
100
AcDbLine
 10
159.5240671022
 20
168.1929217998
 30
0.0
 11
159.5240671022
 21
167.4087423379
 31
0.0
  0
LINE
  5
24D
330
1F
100
AcDbEntity
  8
0
  6
Continuous
 62
     7
370
    15
100
AcDbLine
 10
159.5240671022
 20
163.9073132484
 30
0.0
 11
150.256923197
 21
163.9073132484
 31
0.0
  0
LINE
  5
24E
330
1F
100
AcDbEntity
  8
0
  6
Continuous
 62
     7
370
    15
100
AcDbLine
 10
150.256923197
 20
167.4087423379
 30
0.0
 11
150.256923197
 21
163.9073132484
 31
0.0
  0
LINE
  5
24F
330
1F
100
AcDbEntity
  8
0
  6
Continuous
 62
     7
370
    15
100
AcDbLine
 10
159.5240671022
 20
167.4087423379
 30
0.0
 11
159.5240671022
 21
163.9073132484
 31
0.0
  0
LINE
  5
250
330
1F
100
AcDbEntity
  8
0
  6
Continuous
 62
     7
370
    15
100
AcDbLine
 10
146.0821776884
 20
183.7773134746
 30
0.0
 11
146.0821776884
 21
185.0987420631
 31
0.0
  0
LINE
  5
251
330
1F
100
AcDbEntity
  8
0
  6
Continuous
 62
     7
370
    15
100
AcDbLine
 10
146.0821776884
 20
185.0987420631
 30
0.0
 11
135.5367823737
 21
185.0987420631
 31
0.0
  0
LINE
  5
252
330
1F
100
AcDbEntity
  8
0
  6
Continuous
 62
     7
370
    15
100
AcDbLine
 10
146.0821776884
 20
163.0987421823
 30
0.0
 11
146.0821776884
 21
164.4201707707
 31
0.0
  0
LINE
  5
253
330
1F
100
AcDbEntity
  8
0
  6
Continuous
 62
     7
370
    15
100
AcDbLine
 10
135.5367823737
 20
163.0987421823
 30
0.0
 11
146.0821776884
 21
163.0987421823
 31
0.0
  0
LINE
  5
254
330
1F
100
AcDbEntity
  8
0
  6
Continuous
 62
     7
370
    15
100
AcDbLine
 10
150.3812084607
 20
163.8130282797
 30
0.0
 11
150.3812084607
 21
163.9073132484
 31
0.0
  0
LINE
  5
255
330
1F
100
AcDbEntity
  8
0
  6
Continuous
 62
     7
370
    15
100
AcDbLine
 10
131.3669231155
 20
161.0987423866
 30
0.0
 11
148.9526373301
 21
161.0987423866
 31
0.0
  0
LINE
  5
256
330
1F
100
AcDbEntity
  8
0
  6
Continuous
 62
     7
370
    15
100
AcDbLine
 10
149.6669234276
 20
187.0987418587
 30
0.0
 11
131.3669231155
 21
187.0987418587
 31
0.0
  0
ARC
  5
257
330
1F
100
AcDbEntity
  8
0
  6
Continuous
 62
     7
370
    15
100
AcDbCircle
 10
149.6669232232
 20
186.3844564084
 30
0.0
 40
0.7142857142857224
100
AcDbArc
 50
0.0000000118
 51
90.0
  0
LINE
  5
258
330
1F
100
AcDbEntity
  8
0
  6
Continuous
 62
     7
370
    15
100
AcDbLine
 10
150.3812084607
 20
183.8130283649
 30
0.0
 11
150.3812084607
 21
186.3844568256
 31
0.0
  0
LINE
  5
259
330
1F
100
AcDbEntity
  8
0
  6
Continuous
 62
     7
370
    15
100
AcDbLine
 10
150.3803154554
 20
183.7773134746
 30
0.0
 11
150.3812084607
 21
183.8130283649
 31
0.0
  0
ARC
  5
25A
330
1F
100
AcDbEntity
  8
0
  6
Continuous
 62
     7
370
    15
100
AcDbCircle
 10
132.3812089375
 20
163.0987421227
 30
0.0
 40
0.4999999999999984
100
AcDbArc
 50
211.7163410721
 51
328.2836589279
  0
CIRCLE
  5
25B
330
1F
100
AcDbEntity
  8
0
  6
Continuous
 62
     7
370
    15
100
AcDbCircle
 10
148.3812089375
 20
163.0987421227
 30
0.0
 40
0.5
  0
CIRCLE
  5
25C
330
1F
100
AcDbEntity
  8
0
  6
Continuous
 62
     7
370
    15
100
AcDbCircle
 10
148.3812089375
 20
185.0987421227
 30
0.0
 40
0.5
  0
ARC
  5
25D
330
1F
100
AcDbEntity
  8
0
  6
Continuous
 62
     7
370
    15
100
AcDbCircle
 10
132.3812089375
 20
185.0987421227
 30
0.0
 40
0.5000000000000112
100
AcDbArc
 50
31.716341072
 51
148.283658928
  0
LINE
  5
25E
330
1F
100
AcDbEntity
  8
0
  6
Continuous
 62
     7
370
    15
100
AcDbLine
 10
152.034217688
 20
163.6734267511
 30
0.0
 11
152.034217688
 21
163.8130282797
 31
0.0
  0
LINE
  5
25F
330
1F
100
AcDbEntity
  8
0
  6
Continuous
 62
     7
370
    15
100
AcDbLine
 10
158.4424854755
 20
163.6734267511
 30
0.0
 11
158.4424854755
 21
163.8130282797
 31
0.0
  0
LINE
  5
260
330
1F
100
AcDbEntity
  8
0
  6
Continuous
 62
     7
370
    15
100
AcDbLine
 10
151.5291428293
 20
163.8130282797
 30
0.0
 11
151.5291428293
 21
163.6734267511
 31
0.0
  0
LINE
  5
261
330
1F
100
AcDbEntity
  8
0
  6
Continuous
 62
     7
370
    15
100
AcDbLine
 10
158.9475603342
 20
163.6734267511
 30
0.0
 11
158.9475603342
 21
163.8130282797
 31
0.0
  0
LINE
  5
262
330
1F
100
AcDbEntity
  8
0
  6
Continuous
 62
     7
370
    15
100
AcDbLine
 10
160.0291419608
 20
163.8130282797
 30
0.0
 11
160.0291419608
 21
163.6734267511
 31
0.0
  0
LINE
  5
263
330
1F
100
AcDbEntity
  8
0
  6
Continuous
 62
     7
370
    15
100
AcDbLine
 10
150.4475612027
 20
163.8130282797
 30
0.0
 11
150.4475612027
 21
163.6734267511
 31
0.0
  0
INSERT
  5
270
330
1F
100
AcDbEntity
  8
寸法線
100
AcDbBlockReference
  2
SW_NOTE_7
 10
178.3885950177
 20
175.0341205397
 30
0.0
  0
LEADER
  5
271
330
1F
100
AcDbEntity
  8
寸法線
100
AcDbLeader
  3
SLDDIMSTYLE1
 76
     2
 10
132.6573160414
 20
180.564008846
 30
0.0
 10
178.3885950177
 20
175.0341205397
 30
0.0
  0
INSERT
  5
27D
330
1F
100
AcDbEntity
  8
寸法線
100
AcDbBlockReference
  2
SW_NOTE_8
 10
173.2437051129
 20
138.9585096566
 30
0.0
  0
LEADER
  5
27E
330
1F
100
AcDbEntity
  8
寸法線
100
AcDbLeader
  3
SLDDIMSTYLE0
 76
     2
 10
158.6282159729
 20
125.7552223574
 30
0.0
 10
173.2437051129
 20
138.9585096566
 30
0.0
  0
LINE
  5
27F
330
1F
100
AcDbEntity
  8
中心線
100
AcDbLine
 10
230.4808829151
 20
115.4217862907
 30
0.0
 11
230.4808829151
 21
134.8465181551
 31
0.0
  0
LINE
  5
280
330
1F
100
AcDbEntity
  8
中心線
100
AcDbLine
 10
230.4808829151
 20
115.4217862907
 30
0.0
 11
230.4808829151
 21
94.0414913594
 31
0.0
  0
LINE
  5
281
330
1F
100
AcDbEntity
  8
中心線
100
AcDbLine
 10
230.4808829151
 20
115.4217862907
 30
0.0
 11
246.7075413562
 21
115.4217862907
 31
0.0
  0
LINE
  5
282
330
1F
100
AcDbEntity
  8
中心線
100
AcDbLine
 10
230.4808829151
 20
115.4217862907
 30
0.0
 11
209.5296280535
 21
115.4217862907
 31
0.0
  0
LINE
  5
283
330
1F
100
AcDbEntity
  8
0
  6
Continuous
 62
     7
370
    15
100
AcDbLine
 10
227.6237401218
 20
129.7075007893
 30
0.0
 11
228.4808828534
 21
129.3955258211
 31
0.0
  0
LINE
  5
284
330
1F
100
AcDbEntity
  8
0
  6
Continuous
 62
     7
370
    15
100
AcDbLine
 10
232.4808829768
 20
129.3955258211
 30
0.0
 11
233.3380257084
 21
129.7075007893
 31
0.0
  0
LINE
  5
285
330
1F
100
AcDbEntity
  8
0
  6
Continuous
 62
     7
370
    15
100
AcDbLine
 10
233.3380257084
 20
129.7075007893
 30
0.0
 11
233.3380257084
 21
130.136072022
 31
0.0
  0
LINE
  5
286
330
1F
100
AcDbEntity
  8
0
  6
Continuous
 62
     7
370
    15
100
AcDbLine
 10
227.6237401218
 20
130.136072022
 30
0.0
 11
227.6237401218
 21
129.7075007893
 31
0.0
  0
LINE
  5
287
330
1F
100
AcDbEntity
  8
0
  6
Continuous
 62
     7
370
    15
100
AcDbLine
 10
232.4808829768
 20
128.4217860267
 30
0.0
 11
232.4808829768
 21
129.3955258211
 31
0.0
  0
LINE
  5
288
330
1F
100
AcDbEntity
  8
0
  6
Continuous
 62
     7
370
    15
100
AcDbLine
 10
228.4808828534
 20
129.3955258211
 30
0.0
 11
228.4808828534
 21
128.4217860267
 31
0.0
  0
LINE
  5
289
330
1F
100
AcDbEntity
  8
0
  6
Continuous
 62
     7
370
    15
100
AcDbLine
 10
214.3461727309
 20
109.5056107251
 30
0.0
 11
213.6966140846
 21
109.8027276391
 31
0.0
  0
LINE
  5
28A
330
1F
100
AcDbEntity
  8
0
  6
Continuous
 62
     7
370
    15
100
AcDbLine
 10
214.0490563492
 20
108.856052611
 30
0.0
 11
213.3994977028
 21
109.153169525
 31
0.0
  0
LWPOLYLINE
  5
28B
330
1F
100
AcDbEntity
  8
0
  6
Continuous
 62
     7
370
    15
100
AcDbPolyline
 90
        9
 70
   128
 43
0.0
 10
213.3994977028
 20
109.153169525
 10
213.4052069763
 20
109.165650844
 10
213.4221144724
 20
109.2026142387
 10
213.4495709263
 20
109.2626398413
 10
213.4865215486
 20
109.3434206327
 10
213.5315454071
 20
109.4418523817
 10
213.5829129028
 20
109.5541523221
 10
213.6386496319
 20
109.6760049712
 10
213.6966140846
 20
109.8027276391
  0
LWPOLYLINE
  5
28C
330
1F
100
AcDbEntity
  8
0
  6
Continuous
 62
     7
370
    15
100
AcDbPolyline
 90
        9
 70
   128
 43
0.0
 10
214.0490563492
 20
108.856052611
 10
214.0547645583
 20
108.86853393
 10
214.0716720544
 20
108.9054973248
 10
214.0991295726
 20
108.9655229273
 10
214.1360791305
 20
109.0463042509
 10
214.1811029891
 20
109.1447359999
 10
214.2324704848
 20
109.2570359403
 10
214.2882082783
 20
109.3788885894
 10
214.3461727309
 20
109.5056107251
  0
LINE
  5
28D
330
1F
100
AcDbEntity
  8
0
  6
Continuous
 62
     7
370
    15
100
AcDbLine
 10
219.7584500974
 20
121.3379618562
 30
0.0
 11
219.1088925154
 21
121.635078238
 31
0.0
  0
LINE
  5
28E
330
1F
100
AcDbEntity
  8
0
  6
Continuous
 62
     7
370
    15
100
AcDbLine
 10
220.0555675435
 20
121.9875199704
 30
0.0
 11
219.4060088972
 21
122.2846363522
 31
0.0
  0
LWPOLYLINE
  5
28F
330
1F
100
AcDbEntity
  8
0
  6
Continuous
 62
     7
370
    15
100
AcDbPolyline
 90
        9
 70
   128
 43
0.0
 10
219.1088925154
 20
121.635078238
 10
219.1668569681
 20
121.7618009059
 10
219.2225936972
 20
121.883653555
 10
219.2739611929
 20
121.9959534954
 10
219.3189850514
 20
122.0943852445
 10
219.3559356737
 20
122.1751660358
 10
219.3833921276
 20
122.2351916384
 10
219.4002996237
 20
122.2721555653
 10
219.4060088972
 20
122.2846363522
  0
LWPOLYLINE
  5
290
330
1F
100
AcDbEntity
  8
0
  6
Continuous
 62
     7
370
    15
100
AcDbPolyline
 90
        9
 70
   128
 43
0.0
 10
219.7584500974
 20
121.3379618562
 10
219.81641455
 20
121.464683992
 10
219.8721523435
 20
121.5865366411
 10
219.9235198392
 20
121.6988365815
 10
219.9685436978
 20
121.7972683305
 10
220.0054943201
 20
121.8780496541
 10
220.0329507739
 20
121.9380752566
 10
220.04985827
 20
121.9750386513
 10
220.0555675435
 20
121.9875199704
  0
LINE
  5
291
330
1F
100
AcDbEntity
  8
0
  6
Continuous
 62
     7
370
    15
100
AcDbLine
 10
213.6966140846
 20
109.8027276391
 30
0.0
 11
219.1088925154
 21
121.635078238
 31
0.0
  0
LINE
  5
292
330
1F
100
AcDbEntity
  8
0
  6
Continuous
 62
     7
370
    15
100
AcDbLine
 10
214.3461727309
 20
109.5056107251
 30
0.0
 11
219.7584500974
 21
121.3379618562
 31
0.0
  0
SPLINE
  5
293
330
1F
100
AcDbEntity
  8
0
  6
Continuous
 62
     7
370
    15
100
AcDbSpline
210
0.0
220
0.0
230
1.0
 70
    24
 71
     3
 72
     9
 73
     5
 74
     0
 42
0.00000001
 43
0.00000001
 40
0.0
 40
0.0
 40
0.0
 40
0.0
 40
0.5000009164146697
 40
1.0
 40
1.0
 40
1.0
 40
1.0
 10
212.9094538583233
 20
119.4708072431061
 30
0.0
 10
212.9094538583233
 20
119.4412969706366
 30
0.0
 10
212.9094538583233
 20
119.3822765338718
 30
0.0
 10
212.9094538583233
 20
119.3066097993049
 30
0.0
 10
212.9094538583233
 20
119.2687765013635
 30
0.0
  0
ARC
  5
294
330
1F
100
AcDbEntity
  8
0
  6
Continuous
 62
     7
370
    15
100
AcDbCircle
 10
213.284455419
 20
119.3950436862
 30
0.0
 40
0.3825784718092101
100
AcDbArc
 50
81.9506789966
 51
168.5779820035
  0
LINE
  5
295
330
1F
100
AcDbEntity
  8
0
  6
Continuous
 62
     7
370
    15
100
AcDbLine
 10
213.3380261554
 20
119.2687765014
 30
0.0
 11
213.3380261554
 21
119.7738529566
 31
0.0
  0
LINE
  5
296
330
1F
100
AcDbEntity
  8
0
  6
Continuous
 62
     7
370
    15
100
AcDbLine
 10
212.9094538583
 20
119.2687765014
 30
0.0
 11
213.3380261554
 21
119.2687765014
 31
0.0
  0
LINE
  5
297
330
1F
100
AcDbEntity
  8
0
  6
Continuous
 62
     7
370
    15
100
AcDbLine
 10
213.3380261554
 20
111.0697196248
 30
0.0
 11
213.3380261554
 21
111.57479608
 31
0.0
  0
ARC
  5
298
330
1F
100
AcDbEntity
  8
0
  6
Continuous
 62
     7
370
    15
100
AcDbCircle
 10
213.284455419
 20
111.4485288951
 30
0.0
 40
0.3825784718092434
100
AcDbArc
 50
191.4220179965
 51
278.0493210034
  0
SPLINE
  5
299
330
1F
100
AcDbEntity
  8
0
  6
Continuous
 62
     7
370
    15
100
AcDbSpline
210
0.0
220
0.0
230
1.0
 70
    24
 71
     3
 72
     9
 73
     5
 74
     0
 42
0.00000001
 43
0.00000001
 40
0.0
 40
0.0
 40
0.0
 40
0.0
 40
0.4999990835853302
 40
1.0
 40
1.0
 40
1.0
 40
1.0
 10
212.9094538583233
 20
111.5747960800247
 30
0.0
 10
212.9094538583233
 20
111.5369627820833
 30
0.0
 10
212.9094538583233
 20
111.4612960475163
 30
0.0
 10
212.9094538583233
 20
111.4022756107516
 30
0.0
 10
212.9094538583233
 20
111.372765338282
 30
0.0
  0
LINE
  5
29A
330
1F
100
AcDbEntity
  8
0
  6
Continuous
 62
     7
370
    15
100
AcDbLine
 10
213.3380261554
 20
111.57479608
 30
0.0
 11
212.9094538583
 21
111.57479608
 31
0.0
  0
LINE
  5
29B
330
1F
100
AcDbEntity
  8
0
  6
Continuous
 62
     7
370
    15
100
AcDbLine
 10
218.0265136767
 20
119.2687765014
 30
0.0
 11
213.3380261554
 21
119.2687765014
 31
0.0
  0
LINE
  5
29C
330
1F
100
AcDbEntity
  8
0
  6
Continuous
 62
     7
370
    15
100
AcDbLine
 10
214.5071829707
 20
111.57479608
 30
0.0
 11
213.3380261554
 21
111.57479608
 31
0.0
  0
LINE
  5
29D
330
1F
100
AcDbEntity
  8
0
  6
Continuous
 62
     7
370
    15
100
AcDbLine
 10
213.3380261554
 20
111.57479608
 30
0.0
 11
213.3380261554
 21
119.2687765014
 31
0.0
  0
LINE
  5
29E
330
1F
100
AcDbEntity
  8
0
  6
Continuous
 62
     7
370
    15
100
AcDbLine
 10
214.2761543032
 20
111.0697196248
 30
0.0
 11
213.3380261554
 21
111.0697196248
 31
0.0
  0
LINE
  5
29F
330
1F
100
AcDbEntity
  8
0
  6
Continuous
 62
     7
370
    15
100
AcDbLine
 10
212.9094538583
 20
111.57479608
 30
0.0
 11
212.9094538583
 21
119.2687765014
 31
0.0
  0
LINE
  5
2A0
330
1F
100
AcDbEntity
  8
0
  6
Continuous
 62
     7
370
    15
100
AcDbLine
 10
218.2575423442
 20
119.7738529566
 30
0.0
 11
213.3380261554
 21
119.7738529566
 31
0.0
  0
LINE
  5
2A1
330
1F
100
AcDbEntity
  8
0
  6
Continuous
 62
     7
370
    15
100
AcDbLine
 10
220.1951690722
 20
111.57479608
 30
0.0
 11
220.1951690722
 21
119.2687765014
 31
0.0
  0
LINE
  5
2A2
330
1F
100
AcDbEntity
  8
0
  6
Continuous
 62
     7
370
    15
100
AcDbLine
 10
220.1951690722
 20
111.57479608
 30
0.0
 11
215.292645529
 21
111.57479608
 31
0.0
  0
LINE
  5
2A3
330
1F
100
AcDbEntity
  8
0
  6
Continuous
 62
     7
370
    15
100
AcDbLine
 10
220.1951690722
 20
119.2687765014
 30
0.0
 11
218.8119772993
 21
119.2687765014
 31
0.0
  0
LINE
  5
2A4
330
1F
100
AcDbEntity
  8
0
  6
Continuous
 62
     7
370
    15
100
AcDbLine
 10
220.1951690722
 20
119.7738529566
 30
0.0
 11
219.0430059668
 21
119.7738529566
 31
0.0
  0
LINE
  5
2A5
330
1F
100
AcDbEntity
  8
0
  6
Continuous
 62
     7
370
    15
100
AcDbLine
 10
220.1951690722
 20
119.2687765014
 30
0.0
 11
220.1951690722
 21
119.7738529566
 31
0.0
  0
LINE
  5
2A6
330
1F
100
AcDbEntity
  8
0
  6
Continuous
 62
     7
370
    15
100
AcDbLine
 10
220.1951690722
 20
111.0697196248
 30
0.0
 11
220.1951690722
 21
111.57479608
 31
0.0
  0
LINE
  5
2A7
330
1F
100
AcDbEntity
  8
0
  6
Continuous
 62
     7
370
    15
100
AcDbLine
 10
220.1951690722
 20
111.0697196248
 30
0.0
 11
215.0616168615
 21
111.0697196248
 31
0.0
  0
LINE
  5
2A8
330
1F
100
AcDbEntity
  8
0
  6
Continuous
 62
     7
370
    15
100
AcDbLine
 10
218.7522726039
 20
120.855434051
 30
0.0
 11
213.3380261554
 21
120.855434051
 31
0.0
  0
LINE
  5
2A9
330
1F
100
AcDbEntity
  8
0
  6
Continuous
 62
     7
370
    15
100
AcDbLine
 10
213.3380261554
 20
119.7738529566
 30
0.0
 11
213.3380261554
 21
120.855434051
 31
0.0
  0
ARC
  5
2AA
330
1F
100
AcDbEntity
  8
0
  6
Continuous
 62
     7
370
    15
100
AcDbCircle
 10
213.2844554306
 20
120.4766248308
 30
0.0
 40
0.3825784205419316
100
AcDbArc
 50
81.9506796633
 51
168.5780287686
  0
LINE
  5
2AB
330
1F
100
AcDbEntity
  8
0
  6
Continuous
 62
     7
370
    15
100
AcDbLine
 10
212.9094538583
 20
119.4708072431
 30
0.0
 11
212.9094538583
 21
120.5523880714
 31
0.0
  0
LINE
  5
2AC
330
1F
100
AcDbEntity
  8
0
  6
Continuous
 62
     7
370
    15
100
AcDbLine
 10
213.7814240435
 20
109.9881385304
 30
0.0
 11
213.3380261554
 21
109.9881385304
 31
0.0
  0
LINE
  5
2AD
330
1F
100
AcDbEntity
  8
0
  6
Continuous
 62
     7
370
    15
100
AcDbLine
 10
213.3380261554
 20
109.9881385304
 30
0.0
 11
213.3380261554
 21
111.0697196248
 31
0.0
  0
ARC
  5
2AE
330
1F
100
AcDbEntity
  8
0
  6
Continuous
 62
     7
370
    15
100
AcDbCircle
 10
213.2844554306
 20
110.3669477506
 30
0.0
 40
0.3825784205419081
100
AcDbArc
 50
191.4219712314
 51
278.0493203367
  0
LINE
  5
2AF
330
1F
100
AcDbEntity
  8
0
  6
Continuous
 62
     7
370
    15
100
AcDbLine
 10
212.9094538583
 20
110.2911845099
 30
0.0
 11
212.9094538583
 21
111.3727653383
 31
0.0
  0
LINE
  5
2B0
330
1F
100
AcDbEntity
  8
0
  6
Continuous
 62
     7
370
    15
100
AcDbLine
 10
220.1951690722
 20
109.9881385304
 30
0.0
 11
214.5668876662
 21
109.9881385304
 31
0.0
  0
LINE
  5
2B1
330
1F
100
AcDbEntity
  8
0
  6
Continuous
 62
     7
370
    15
100
AcDbLine
 10
220.1951690722
 20
109.9881385304
 30
0.0
 11
220.1951690722
 21
111.0697196248
 31
0.0
  0
LINE
  5
2B2
330
1F
100
AcDbEntity
  8
0
  6
Continuous
 62
     7
370
    15
100
AcDbLine
 10
219.5377362265
 20
120.855434051
 30
0.0
 11
220.1951690722
 21
120.855434051
 31
0.0
  0
LINE
  5
2B3
330
1F
100
AcDbEntity
  8
0
  6
Continuous
 62
     7
370
    15
100
AcDbLine
 10
220.1951690722
 20
120.855434051
 30
0.0
 11
220.1951690722
 21
119.7738529566
 31
0.0
  0
ARC
  5
2B4
330
1F
100
AcDbEntity
  8
0
  6
Continuous
 62
     7
370
    15
100
AcDbCircle
 10
213.3380257722
 20
120.636072005
 30
0.0
 40
0.4285714285714306
100
AcDbArc
 50
90.0
 51
180.0000000118
  0
LINE
  5
2B5
330
1F
100
AcDbEntity
  8
0
  6
Continuous
 62
     7
370
    15
100
AcDbLine
 10
213.3380261554
 20
120.855434051
 30
0.0
 11
213.3380261554
 21
121.0646436933
 31
0.0
  0
SPLINE
  5
2B6
330
1F
100
AcDbEntity
  8
0
  6
Continuous
 62
     7
370
    15
100
AcDbSpline
210
0.0
220
0.0
230
1.0
 70
    24
 71
     3
 72
     9
 73
     5
 74
     0
 42
0.00000001
 43
0.00000001
 40
0.0
 40
0.0
 40
0.0
 40
0.0
 40
0.5000019335785434
 40
1.0
 40
1.0
 40
1.0
 40
1.0
 10
212.9094538583233
 20
120.6360719283452
 30
0.0
 10
212.9094538583233
 20
120.6321712474828
 30
0.0
 10
212.9094538583233
 20
120.624369915927
 30
0.0
 10
212.9094538583233
 20
120.5763819577495
 30
0.0
 10
212.9094538583233
 20
120.5523880714492
 30
0.0
  0
LINE
  5
2B7
330
1F
100
AcDbEntity
  8
0
  6
Continuous
 62
     7
370
    15
100
AcDbLine
 10
213.3380261554
 20
109.7789288881
 30
0.0
 11
213.3380261554
 21
109.9881385304
 31
0.0
  0
ARC
  5
2B8
330
1F
100
AcDbEntity
  8
0
  6
Continuous
 62
     7
370
    15
100
AcDbCircle
 10
213.3380257722
 20
110.2075005764
 30
0.0
 40
0.4285714285714306
100
AcDbArc
 50
179.9999999995
 51
270.0
  0
SPLINE
  5
2B9
330
1F
100
AcDbEntity
  8
0
  6
Continuous
 62
     7
370
    15
100
AcDbSpline
210
0.0
220
0.0
230
1.0
 70
    24
 71
     3
 72
     9
 73
     5
 74
     0
 42
0.00000001
 43
0.00000001
 40
0.0
 40
0.0
 40
0.0
 40
0.0
 40
0.4999980664214566
 40
1.0
 40
1.0
 40
1.0
 40
1.0
 10
212.9094538583233
 20
110.2911845099389
 30
0.0
 10
212.9094538583233
 20
110.2671906236386
 30
0.0
 10
212.9094538583233
 20
110.2192026654611
 30
0.0
 10
212.9094538583233
 20
110.2114013339053
 30
0.0
 10
212.9094538583233
 20
110.2075006530429
 30
0.0
  0
LINE
  5
2BA
330
1F
100
AcDbEntity
  8
0
  6
Continuous
 62
     7
370
    15
100
AcDbLine
 10
218.8479678611
 20
121.0646436933
 30
0.0
 11
213.3380261554
 21
121.0646436933
 31
0.0
  0
LINE
  5
2BB
330
1F
100
AcDbEntity
  8
0
  6
Continuous
 62
     7
370
    15
100
AcDbLine
 10
213.6857287863
 20
109.7789288881
 30
0.0
 11
213.3380261554
 21
109.7789288881
 31
0.0
  0
LINE
  5
2BC
330
1F
100
AcDbEntity
  8
0
  6
Continuous
 62
     7
370
    15
100
AcDbLine
 10
219.6334314837
 20
121.0646436933
 30
0.0
 11
220.1951690722
 21
121.0646436933
 31
0.0
  0
LINE
  5
2BD
330
1F
100
AcDbEntity
  8
0
  6
Continuous
 62
     7
370
    15
100
AcDbLine
 10
220.1951690722
 20
120.855434051
 30
0.0
 11
220.1951690722
 21
121.0646436933
 31
0.0
  0
LINE
  5
2BE
330
1F
100
AcDbEntity
  8
0
  6
Continuous
 62
     7
370
    15
100
AcDbLine
 10
220.1951690722
 20
109.7789288881
 30
0.0
 11
214.471192409
 21
109.7789288881
 31
0.0
  0
LINE
  5
2BF
330
1F
100
AcDbEntity
  8
0
  6
Continuous
 62
     7
370
    15
100
AcDbLine
 10
220.1951690722
 20
109.7789288881
 30
0.0
 11
220.1951690722
 21
109.9881385304
 31
0.0
  0
LINE
  5
2C0
330
1F
100
AcDbEntity
  8
0
  6
Continuous
 62
     7
370
    15
100
AcDbLine
 10
228.6951686028
 20
129.3955258211
 30
0.0
 11
228.4808828534
 21
129.3955258211
 31
0.0
  0
LINE
  5
2C1
330
1F
100
AcDbEntity
  8
0
  6
Continuous
 62
     7
370
    15
100
AcDbLine
 10
232.4808829768
 20
129.3955258211
 30
0.0
 11
232.2665972274
 21
129.3955258211
 31
0.0
  0
LINE
  5
2C2
330
1F
100
AcDbEntity
  8
0
  6
Continuous
 62
     7
370
    15
100
AcDbLine
 10
228.6951686028
 20
129.7075007893
 30
0.0
 11
227.6237401218
 21
129.7075007893
 31
0.0
  0
LINE
  5
2C3
330
1F
100
AcDbEntity
  8
0
  6
Continuous
 62
     7
370
    15
100
AcDbLine
 10
233.3380257084
 20
129.7075007893
 30
0.0
 11
232.2665972274
 21
129.7075007893
 31
0.0
  0
LINE
  5
2C4
330
1F
100
AcDbEntity
  8
0
  6
Continuous
 62
     7
370
    15
100
AcDbLine
 10
228.6951686028
 20
130.136072022
 30
0.0
 11
227.6237401218
 21
130.136072022
 31
0.0
  0
LINE
  5
2C5
330
1F
100
AcDbEntity
  8
0
  6
Continuous
 62
     7
370
    15
100
AcDbLine
 10
233.3380257084
 20
130.136072022
 30
0.0
 11
232.2665972274
 21
130.136072022
 31
0.0
  0
LINE
  5
2C6
330
1F
100
AcDbEntity
  8
0
  6
Continuous
 62
     7
370
    15
100
AcDbLine
 10
232.9808829257
 20
128.4217860267
 30
0.0
 11
232.9808829257
 21
126.7075010958
 31
0.0
  0
LINE
  5
2C7
330
1F
100
AcDbEntity
  8
0
  6
Continuous
 62
     7
370
    15
100
AcDbLine
 10
227.9808829045
 20
128.4217860267
 30
0.0
 11
227.9808829045
 21
126.7075010958
 31
0.0
  0
LINE
  5
2C8
330
1F
100
AcDbEntity
  8
0
  6
Continuous
 62
     7
370
    15
100
AcDbLine
 10
227.9808829045
 20
128.4217860267
 30
0.0
 11
228.6951686028
 21
128.4217860267
 31
0.0
  0
LINE
  5
2C9
330
1F
100
AcDbEntity
  8
0
  6
Continuous
 62
     7
370
    15
100
AcDbLine
 10
232.2665972274
 20
128.4217860267
 30
0.0
 11
232.9808829257
 21
128.4217860267
 31
0.0
  0
ARC
  5
2CA
330
1F
100
AcDbEntity
  8
0
  6
Continuous
 62
     7
370
    15
100
AcDbCircle
 10
230.4808829151
 20
115.4217862907
 30
0.0
 40
13.00000000000001
100
AcDbArc
 50
327.795772496
 51
78.912510789
  0
ARC
  5
2CB
330
1F
100
AcDbEntity
  8
0
  6
Continuous
 62
     7
370
    15
100
AcDbCircle
 10
230.4808829151
 20
115.4217862907
 30
0.0
 40
12.99999999999998
100
AcDbArc
 50
205.7258726962
 51
212.204227504
  0
LWPOLYLINE
  5
2CC
330
1F
100
AcDbEntity
  8
0
  6
Continuous
 62
     7
370
    15
100
AcDbPolyline
 90
        3
 70
   128
 43
0.0
 10
218.7694280979
 20
121.0646436933
 10
219.1135331627
 20
121.7291918434
 10
219.3024777579
 20
122.0582951642
  0
ARC
  5
2CD
330
1F
100
AcDbEntity
  8
0
  6
Continuous
 62
     7
370
    15
100
AcDbCircle
 10
230.4808829151
 20
115.4217862907
 30
0.0
 40
12.99999999999998
100
AcDbArc
 50
101.087489211
 51
148.1983474387
  0
LINE
  5
2CE
330
1F
100
AcDbEntity
  8
0
  6
Continuous
 62
     7
370
    15
100
AcDbLine
 10
243.6645032743
 20
102.9574162444
 30
0.0
 11
241.4808828555
 21
105.0056840942
 31
0.0
  0
LINE
  5
2CF
330
1F
100
AcDbEntity
  8
0
  6
Continuous
 62
     7
370
    15
100
AcDbLine
 10
243.6645032743
 20
102.9574162444
 30
0.0
 11
241.8075482399
 21
100.9777522763
 31
0.0
  0
LINE
  5
2D0
330
1F
100
AcDbEntity
  8
0
  6
Continuous
 62
     7
370
    15
100
AcDbLine
 10
241.8075482399
 20
100.9777522763
 30
0.0
 11
241.4808828555
 21
101.2841691114
 31
0.0
  0
ARC
  5
2D1
330
1F
100
AcDbEntity
  8
0
  6
Continuous
 62
     7
370
    15
100
AcDbCircle
 10
241.3380257722
 20
103.2789291478
 30
0.0
 40
2.285714285714306
100
AcDbArc
 50
0.0
 51
86.4166783015
  0
LWPOLYLINE
  5
2D2
330
1F
100
AcDbEntity
  8
0
  6
Continuous
 62
     7
370
    15
100
AcDbPolyline
 90
        3
 70
   128
 43
0.0
 10
241.4808828555
 20
100.9976836437
 10
241.5088374339
 20
100.9996058935
 10
241.7509674665
 20
101.030825955
  0
ARC
  5
2D3
330
1F
100
AcDbEntity
  8
0
  6
Continuous
 62
     7
370
    15
100
AcDbCircle
 10
241.3380257722
 20
103.2789291478
 30
0.0
 40
2.285714285714294
100
AcDbArc
 50
283.8233690322
 51
349.8404379675
  0
LINE
  5
2D4
330
1F
100
AcDbEntity
  8
0
  6
Continuous
 62
     7
370
    15
100
AcDbLine
 10
243.6079225009
 20
103.0104888587
 30
0.0
 11
243.6237400835
 21
103.2789290201
 31
0.0
  0
CIRCLE
  5
2D5
330
1F
100
AcDbEntity
  8
0
  6
Continuous
 62
     7
370
    15
100
AcDbCircle
 10
230.4808829151
 20
115.4217862907
 30
0.0
 40
9.005714285714305
  0
LINE
  5
2D6
330
1F
100
AcDbEntity
  8
0
  6
Continuous
 62
     7
370
    15
100
AcDbLine
 10
221.9094545353
 20
98.6217860914
 30
0.0
 11
239.0523112949
 21
98.6217860914
 31
0.0
  0
LINE
  5
2D7
330
1F
100
AcDbEntity
  8
0
  6
Continuous
 62
     7
370
    15
100
AcDbLine
 10
221.9094545353
 20
105.8503574808
 30
0.0
 11
221.9094545353
 21
98.6217860914
 31
0.0
  0
LINE
  5
2D8
330
1F
100
AcDbEntity
  8
0
  6
Continuous
 62
     7
370
    15
100
AcDbLine
 10
239.0523112949
 20
105.8503574808
 30
0.0
 11
221.9094545353
 21
105.8503574808
 31
0.0
  0
LINE
  5
2D9
330
1F
100
AcDbEntity
  8
0
  6
Continuous
 62
     7
370
    15
100
AcDbLine
 10
239.0523112949
 20
98.6217860914
 30
0.0
 11
239.0523112949
 21
105.8503574808
 31
0.0
  0
LINE
  5
2DA
330
1F
100
AcDbEntity
  8
0
  6
Continuous
 62
     7
370
    15
100
AcDbLine
 10
223.7908831304
 20
123.0896433799
 30
0.0
 11
220.2894540409
 21
119.5882148226
 31
0.0
  0
LINE
  5
2DB
330
1F
100
AcDbEntity
  8
0
  6
Continuous
 62
     7
370
    15
100
AcDbLine
 10
224.5750625922
 20
123.0896433799
 30
0.0
 11
223.7908831304
 21
123.0896433799
 31
0.0
  0
ARC
  5
2DC
330
1F
100
AcDbEntity
  8
0
  6
Continuous
 62
     7
370
    15
100
AcDbCircle
 10
230.4808829151
 20
115.4217862907
 30
0.0
 40
9.678571428586181
100
AcDbArc
 50
296.2829520304
 51
127.6036359744
  0
LINE
  5
2DD
330
1F
100
AcDbEntity
  8
0
  6
Continuous
 62
     7
370
    15
100
AcDbLine
 10
234.766597105
 20
105.8503574808
 30
0.0
 11
234.766597105
 21
106.7438029003
 31
0.0
  0
LINE
  5
2DE
330
1F
100
AcDbEntity
  8
0
  6
Continuous
 62
     7
370
    15
100
AcDbLine
 10
226.1951687252
 20
106.7438029003
 30
0.0
 11
226.1951687252
 21
105.8503574808
 31
0.0
  0
ARC
  5
2DF
330
1F
100
AcDbEntity
  8
0
  6
Continuous
 62
     7
370
    15
100
AcDbCircle
 10
230.4808829151
 20
115.4217862907
 30
0.0
 40
9.678571428571423
100
AcDbArc
 50
232.3963640863
 51
243.7170479444
  0
LINE
  5
2E0
330
1F
100
AcDbEntity
  8
0
  6
Continuous
 62
     7
370
    15
100
AcDbLine
 10
223.7908831304
 20
107.7539292015
 30
0.0
 11
224.5750625922
 21
107.7539292015
 31
0.0
  0
LINE
  5
2E1
330
1F
100
AcDbEntity
  8
0
  6
Continuous
 62
     7
370
    15
100
AcDbLine
 10
220.2894540409
 20
111.2553577588
 30
0.0
 11
223.7908831304
 21
107.7539292015
 31
0.0
  0
LINE
  5
2E2
330
1F
100
AcDbEntity
  8
0
  6
Continuous
 62
     7
370
    15
100
AcDbLine
 10
220.2894540409
 20
119.5882148226
 30
0.0
 11
220.2894540409
 21
111.2553577588
 31
0.0
  0
LINE
  5
2E3
330
1F
100
AcDbEntity
  8
0
  6
Continuous
 62
     7
370
    15
100
AcDbLine
 10
232.2665972274
 20
127.850378649
 30
0.0
 11
232.2665972274
 21
127.1835005959
 31
0.0
  0
LINE
  5
2E4
330
1F
100
AcDbEntity
  8
0
  6
Continuous
 62
     7
370
    15
100
AcDbLine
 10
228.6951686028
 20
127.1835005959
 30
0.0
 11
232.2665972274
 21
127.1835005959
 31
0.0
  0
LINE
  5
2E5
330
1F
100
AcDbEntity
  8
0
  6
Continuous
 62
     7
370
    15
100
AcDbLine
 10
228.6951686028
 20
127.850378649
 30
0.0
 11
228.6951686028
 21
127.1835005959
 31
0.0
  0
LINE
  5
2E6
330
1F
100
AcDbEntity
  8
0
  6
Continuous
 62
     7
370
    15
100
AcDbLine
 10
228.6951686028
 20
127.850378649
 30
0.0
 11
232.2665972274
 21
127.850378649
 31
0.0
  0
LINE
  5
2E7
330
1F
100
AcDbEntity
  8
0
  6
Continuous
 62
     7
370
    15
100
AcDbLine
 10
228.6951686028
 20
130.136072022
 30
0.0
 11
228.6951686028
 21
127.850378649
 31
0.0
  0
LINE
  5
2E8
330
1F
100
AcDbEntity
  8
0
  6
Continuous
 62
     7
370
    15
100
AcDbLine
 10
228.6951686028
 20
130.136072022
 30
0.0
 11
232.2665972274
 21
130.136072022
 31
0.0
  0
LINE
  5
2E9
330
1F
100
AcDbEntity
  8
0
  6
Continuous
 62
     7
370
    15
100
AcDbLine
 10
232.2665972274
 20
130.136072022
 30
0.0
 11
232.2665972274
 21
127.850378649
 31
0.0
  0
LINE
  5
2EA
330
1F
100
AcDbEntity
  8
0
  6
Continuous
 62
     7
370
    15
100
AcDbLine
 10
221.9094545353
 20
100.5503582353
 30
0.0
 11
221.19516897
 21
100.5503582353
 31
0.0
  0
LINE
  5
2EB
330
1F
100
AcDbEntity
  8
0
  6
Continuous
 62
     7
370
    15
100
AcDbLine
 10
221.19516897
 20
100.5503582353
 30
0.0
 11
221.19516897
 21
103.721786209
 31
0.0
  0
LINE
  5
2EC
330
1F
100
AcDbEntity
  8
0
  6
Continuous
 62
     7
370
    15
100
AcDbLine
 10
221.9094545353
 20
103.721786209
 30
0.0
 11
221.19516897
 21
103.721786209
 31
0.0
  0
LINE
  5
2ED
330
1F
100
AcDbEntity
  8
0
  6
Continuous
 62
     7
370
    15
100
AcDbLine
 10
242.7665976181
 20
99.1360719965
 30
0.0
 11
243.4808826511
 21
99.1360719965
 31
0.0
  0
LINE
  5
2EE
330
1F
100
AcDbEntity
  8
0
  6
Continuous
 62
     7
370
    15
100
AcDbLine
 10
243.4808826511
 20
99.1360719965
 30
0.0
 11
243.4808826511
 21
97.9932146663
 31
0.0
  0
LINE
  5
2EF
330
1F
100
AcDbEntity
  8
0
  6
Continuous
 62
     7
370
    15
100
AcDbLine
 10
243.4808826511
 20
97.9932146663
 30
0.0
 11
242.7665976181
 21
97.9932146663
 31
0.0
  0
LINE
  5
2F0
330
1F
100
AcDbEntity
  8
0
  6
Continuous
 62
     7
370
    15
100
AcDbLine
 10
242.7665976181
 20
97.9932146663
 30
0.0
 11
242.7665976181
 21
99.1360719965
 31
0.0
  0
LINE
  5
2F1
330
1F
100
AcDbEntity
  8
0
  6
Continuous
 62
     7
370
    15
100
AcDbLine
 10
240.1951691573
 20
99.1360719965
 30
0.0
 11
240.1951691573
 21
97.9932146663
 31
0.0
  0
LINE
  5
2F2
330
1F
100
AcDbEntity
  8
0
  6
Continuous
 62
     7
370
    15
100
AcDbLine
 10
242.7665976181
 20
97.9932146663
 30
0.0
 11
240.1951691573
 21
97.9932146663
 31
0.0
  0
LINE
  5
2F3
330
1F
100
AcDbEntity
  8
0
  6
Continuous
 62
     7
370
    15
100
AcDbLine
 10
240.1951691573
 20
99.1360719965
 30
0.0
 11
242.7665976181
 21
99.1360719965
 31
0.0
  0
LINE
  5
2F4
330
1F
100
AcDbEntity
  8
0
  6
Continuous
 62
     7
370
    15
100
AcDbLine
 10
239.4808830599
 20
97.9932146663
 30
0.0
 11
239.4808830599
 21
99.1360719965
 31
0.0
  0
LINE
  5
2F5
330
1F
100
AcDbEntity
  8
0
  6
Continuous
 62
     7
370
    15
100
AcDbLine
 10
240.1951691573
 20
97.9932146663
 30
0.0
 11
239.4808830599
 21
97.9932146663
 31
0.0
  0
LINE
  5
2F6
330
1F
100
AcDbEntity
  8
0
  6
Continuous
 62
     7
370
    15
100
AcDbLine
 10
239.4808830599
 20
99.1360719965
 30
0.0
 11
240.1951691573
 21
99.1360719965
 31
0.0
  0
LINE
  5
2F7
330
1F
100
AcDbEntity
  8
0
  6
Continuous
 62
     7
370
    15
100
AcDbLine
 10
221.4808827703
 20
99.1360719965
 30
0.0
 11
221.4808827703
 21
97.9932146663
 31
0.0
  0
LINE
  5
2F8
330
1F
100
AcDbEntity
  8
0
  6
Continuous
 62
     7
370
    15
100
AcDbLine
 10
221.4808827703
 20
97.9932146663
 30
0.0
 11
220.7665966729
 21
97.9932146663
 31
0.0
  0
LINE
  5
2F9
330
1F
100
AcDbEntity
  8
0
  6
Continuous
 62
     7
370
    15
100
AcDbLine
 10
220.7665966729
 20
97.9932146663
 30
0.0
 11
220.7665966729
 21
99.1360719965
 31
0.0
  0
LINE
  5
2FA
330
1F
100
AcDbEntity
  8
0
  6
Continuous
 62
     7
370
    15
100
AcDbLine
 10
220.7665966729
 20
99.1360719965
 30
0.0
 11
221.4808827703
 21
99.1360719965
 31
0.0
  0
LINE
  5
2FB
330
1F
100
AcDbEntity
  8
0
  6
Continuous
 62
     7
370
    15
100
AcDbLine
 10
218.1951682122
 20
97.9932146663
 30
0.0
 11
218.1951682122
 21
99.1360719965
 31
0.0
  0
LINE
  5
2FC
330
1F
100
AcDbEntity
  8
0
  6
Continuous
 62
     7
370
    15
100
AcDbLine
 10
220.7665966729
 20
97.9932146663
 30
0.0
 11
218.1951682122
 21
97.9932146663
 31
0.0
  0
LINE
  5
2FD
330
1F
100
AcDbEntity
  8
0
  6
Continuous
 62
     7
370
    15
100
AcDbLine
 10
218.1951682122
 20
99.1360719965
 30
0.0
 11
220.7665966729
 21
99.1360719965
 31
0.0
  0
LINE
  5
2FE
330
1F
100
AcDbEntity
  8
0
  6
Continuous
 62
     7
370
    15
100
AcDbLine
 10
217.4808831791
 20
97.9932146663
 30
0.0
 11
217.4808831791
 21
99.1360719965
 31
0.0
  0
LINE
  5
2FF
330
1F
100
AcDbEntity
  8
0
  6
Continuous
 62
     7
370
    15
100
AcDbLine
 10
218.1951682122
 20
97.9932146663
 30
0.0
 11
217.4808831791
 21
97.9932146663
 31
0.0
  0
LINE
  5
300
330
1F
100
AcDbEntity
  8
0
  6
Continuous
 62
     7
370
    15
100
AcDbLine
 10
217.4808831791
 20
99.1360719965
 30
0.0
 11
218.1951682122
 21
99.1360719965
 31
0.0
  0
LINE
  5
301
330
1F
100
AcDbEntity
  8
0
  6
Continuous
 62
     7
370
    15
100
AcDbLine
 10
221.4808827703
 20
99.1360719965
 30
0.0
 11
221.9094545353
 21
99.1360719965
 31
0.0
  0
LINE
  5
302
330
1F
100
AcDbEntity
  8
0
  6
Continuous
 62
     7
370
    15
100
AcDbLine
 10
219.4808829747
 20
109.7789288881
 30
0.0
 11
219.4808829747
 21
99.1360719965
 31
0.0
  0
ELLIPSE
  5
303
330
1F
100
AcDbEntity
  8
0
  6
Continuous
 62
     7
370
    15
100
AcDbEllipse
 10
230.4808829151
 20
121.2028995241
 30
0.0
 11
2.842170943040400E-13
 21
14.73832322356097
 31
0.0
210
0.0
220
0.0
230
1.0
 40
0.9198584787
 41
2.280290100682835
 42
2.290900432032819
  0
LINE
  5
304
330
1F
100
AcDbEntity
  8
0
  6
Continuous
 62
     7
370
    15
100
AcDbLine
 10
241.4808828555
 20
111.70964334
 30
0.0
 11
240.8510895351
 21
111.70964334
 31
0.0
  0
LINE
  5
305
330
1F
100
AcDbEntity
  8
0
  6
Continuous
 62
     7
370
    15
100
AcDbLine
 10
241.4808828555
 20
99.1360719965
 30
0.0
 11
241.4808828555
 21
111.70964334
 31
0.0
  0
LINE
  5
306
330
1F
100
AcDbEntity
  8
0
  6
Continuous
 62
     7
370
    15
100
AcDbLine
 10
239.0523112949
 20
99.1360719965
 30
0.0
 11
239.4808830599
 21
99.1360719965
 31
0.0
  0
ELLIPSE
  5
307
330
1F
100
AcDbEntity
  8
0
  6
Continuous
 62
     7
370
    15
100
AcDbEllipse
 10
230.4808829151
 20
121.2028995241
 30
0.0
 11
2.842170943040400E-13
 21
14.73832322356097
 31
0.0
210
0.0
220
0.0
230
1.0
 40
0.9198584787
 41
3.646496447658145
 42
4.012516044895224
  0
LINE
  5
308
330
1F
100
AcDbEntity
  8
0
  6
Continuous
 62
     7
370
    15
100
AcDbLine
 10
227.9808829045
 20
124.7719062476
 30
0.0
 11
227.9808829045
 21
126.7075010958
 31
0.0
  0
LINE
  5
309
330
1F
100
AcDbEntity
  8
0
  6
Continuous
 62
     7
370
    15
100
AcDbLine
 10
227.9808829045
 20
126.7075010958
 30
0.0
 11
232.9808829257
 21
126.7075010958
 31
0.0
  0
LINE
  5
30A
330
1F
100
AcDbEntity
  8
0
  6
Continuous
 62
     7
370
    15
100
AcDbLine
 10
232.9808829257
 20
124.7719062476
 30
0.0
 11
232.9808829257
 21
126.7075010958
 31
0.0
  0
LINE
  5
30B
330
1F
100
AcDbEntity
  8
0
  6
Continuous
 62
     7
370
    15
100
AcDbLine
 10
228.6951686028
 20
127.1835005959
 30
0.0
 11
228.6951686028
 21
126.7075010958
 31
0.0
  0
LINE
  5
30C
330
1F
100
AcDbEntity
  8
0
  6
Continuous
 62
     7
370
    15
100
AcDbLine
 10
232.2665972274
 20
127.1835005959
 30
0.0
 11
232.2665972274
 21
126.7075010958
 31
0.0
  0
ARC
  5
30D
330
1F
100
AcDbEntity
  8
0
  6
Continuous
 62
     7
370
    15
100
AcDbCircle
 10
230.4808829151
 20
115.4217862907
 30
0.0
 40
11.28571428593552
100
AcDbArc
 50
340.7965172289
 51
77.2017338973
  0
ARC
  5
30E
330
1F
100
AcDbEntity
  8
0
  6
Continuous
 62
     7
370
    15
100
AcDbCircle
 10
230.4808829151
 20
115.4217862907
 30
0.0
 40
11.28571428583153
100
AcDbArc
 50
102.7982661029
 51
155.6984863785
  0
LINE
  5
30F
330
1F
100
AcDbEntity
  8
0
  6
Continuous
 62
     7
370
    15
100
AcDbLine
 10
239.4808830599
 20
98.421785899
 30
0.0
 11
221.4808827703
 21
98.421785899
 31
0.0
  0
INSERT
  5
31B
330
1F
100
AcDbEntity
  8
寸法線
100
AcDbBlockReference
  2
SW_NOTE_9
 10
206.9310156932
 20
96.4266757585
 30
0.0
  0
LEADER
  5
31C
330
1F
100
AcDbEntity
  8
寸法線
100
AcDbLeader
  3
SLDDIMSTYLE0
 76
     2
 10
217.0652283319
 20
109.7789291483
 30
0.0
 10
206.9310156932
 20
96.4266757585
 30
0.0
  0
MTEXT
  5
31D
330
1F
100
AcDbEntity
  8
寸法線
100
AcDbMText
 10
253.6267088123
 20
92.2658357909
 30
0.0
 40
2.38125
 41
0.0
 71
     1
 72
     1
  1
質量　14　kg
  7
SLDTEXTSTYLE1
 73
     1
 44
1.0
  0
LINE
  5
31E
330
1F
100
AcDbEntity
  8
中心線
100
AcDbLine
 10
117.5240660804
 20
51.2804676911
 30
0.0
 11
164.1439413902
 21
51.2804676911
 31
0.0
  0
LINE
  5
31F
330
1F
100
AcDbEntity
  8
0
  6
Continuous
 62
     7
370
    15
100
AcDbLine
 10
118.9526372024
 20
38.1376105227
 30
0.0
 11
119.3812084351
 21
38.1376105227
 31
0.0
  0
LINE
  5
320
330
1F
100
AcDbEntity
  8
0
  6
Continuous
 62
     7
370
    15
100
AcDbLine
 10
119.3812084351
 20
42.7090393112
 30
0.0
 11
118.9526372024
 21
42.7090393112
 31
0.0
  0
LINE
  5
321
330
1F
100
AcDbEntity
  8
0
  6
Continuous
 62
     7
370
    15
100
AcDbLine
 10
119.3812084351
 20
38.1376105227
 30
0.0
 11
119.7191816722
 21
39.0661817043
 31
0.0
  0
LINE
  5
322
330
1F
100
AcDbEntity
  8
0
  6
Continuous
 62
     7
370
    15
100
AcDbLine
 10
119.7191816722
 20
41.7804675974
 30
0.0
 11
119.3812084351
 21
42.7090393112
 31
0.0
  0
LINE
  5
323
330
1F
100
AcDbEntity
  8
0
  6
Continuous
 62
     7
370
    15
100
AcDbLine
 10
121.7240658556
 20
41.7804675974
 30
0.0
 11
119.7191816722
 21
41.7804675974
 31
0.0
  0
LINE
  5
324
330
1F
100
AcDbEntity
  8
0
  6
Continuous
 62
     7
370
    15
100
AcDbLine
 10
119.7191816722
 20
39.0661817043
 30
0.0
 11
121.7240658556
 21
39.0661817043
 31
0.0
  0
LINE
  5
325
330
1F
100
AcDbEntity
  8
0
  6
Continuous
 62
     7
370
    15
100
AcDbLine
 10
131.0954947391
 20
64.2804674271
 30
0.0
 11
123.6954948034
 21
64.2804674271
 31
0.0
  0
LINE
  5
326
330
1F
100
AcDbEntity
  8
0
  6
Continuous
 62
     7
370
    15
100
AcDbLine
 10
124.4383517487
 20
38.280467955
 30
0.0
 11
131.0954947391
 21
38.280467955
 31
0.0
  0
LINE
  5
327
330
1F
100
AcDbEntity
  8
0
  6
Continuous
 62
     7
370
    15
100
AcDbLine
 10
132.8065395322
 20
62.5433251793
 30
0.0
 11
131.9558783401
 21
62.5433251793
 31
0.0
  0
LINE
  5
328
330
1F
100
AcDbEntity
  8
0
  6
Continuous
 62
     7
370
    15
100
AcDbLine
 10
131.9558783401
 20
40.0176102029
 30
0.0
 11
132.8065395322
 21
40.0176102029
 31
0.0
  0
LINE
  5
329
330
1F
100
AcDbEntity
  8
0
  6
Continuous
 62
     7
370
    15
100
AcDbLine
 10
121.2669227106
 20
61.8518963987
 30
0.0
 11
117.5240660718
 21
61.8518963987
 31
0.0
  0
LINE
  5
32A
330
1F
100
AcDbEntity
  8
0
  6
Continuous
 62
     7
370
    15
100
AcDbLine
 10
117.5240660718
 20
40.7090389834
 30
0.0
 11
118.9526372024
 21
40.7090389834
 31
0.0
  0
LINE
  5
32B
330
1F
100
AcDbEntity
  8
0
  6
Continuous
 62
     7
370
    15
100
AcDbLine
 10
123.6954948034
 20
61.9947538311
 30
0.0
 11
121.2669227106
 21
61.9947538311
 31
0.0
  0
LINE
  5
32C
330
1F
100
AcDbEntity
  8
0
  6
Continuous
 62
     7
370
    15
100
AcDbLine
 10
159.5240671022
 20
42.274752951
 30
0.0
 11
161.5240668978
 21
42.274752951
 31
0.0
  0
LINE
  5
32D
330
1F
100
AcDbEntity
  8
0
  6
Continuous
 62
     7
370
    15
100
AcDbLine
 10
161.5240668978
 20
60.2861824311
 30
0.0
 11
159.5240671022
 21
60.2861824311
 31
0.0
  0
LINE
  5
32E
330
1F
100
AcDbEntity
  8
0
  6
Continuous
 62
     7
370
    15
100
AcDbLine
 10
150.3803154554
 20
41.6018963391
 30
0.0
 11
159.5240671022
 21
41.6018963391
 31
0.0
  0
LINE
  5
32F
330
1F
100
AcDbEntity
  8
0
  6
Continuous
 62
     7
370
    15
100
AcDbLine
 10
148.9526373301
 20
64.2804674271
 30
0.0
 11
148.9526373301
 21
67.4151778752
 31
0.0
  0
LWPOLYLINE
  5
330
330
1F
100
AcDbEntity
  8
0
  6
Continuous
 62
     7
370
    15
100
AcDbPolyline
 90
        9
 70
   128
 43
0.0
 10
148.9526373301
 20
67.4151778752
 10
148.9663623639
 20
67.4731423279
 10
149.0070095386
 20
67.5288801214
 10
149.0730163608
 20
67.5802476171
 10
149.1618464402
 20
67.6252714757
 10
149.2700874107
 20
67.6622210336
 10
149.393577591
 20
67.6896785518
 10
149.5275730899
 20
67.7065860479
 10
149.6669234276
 20
67.712294257
  0
LINE
  5
331
330
1F
100
AcDbEntity
  8
0
  6
Continuous
 62
     7
370
    15
100
AcDbLine
 10
149.6669234276
 20
67.712294257
 30
0.0
 11
160.809779736
 21
67.712294257
 31
0.0
  0
LWPOLYLINE
  5
332
330
1F
100
AcDbEntity
  8
0
  6
Continuous
 62
     7
370
    15
100
AcDbPolyline
 90
        9
 70
   128
 43
0.0
 10
160.809779736
 20
67.712294257
 10
160.949131138
 20
67.7065860479
 10
161.0831266369
 20
67.6896785518
 10
161.2066168172
 20
67.6622210336
 10
161.3148567234
 20
67.6252714757
 10
161.4036868027
 20
67.5802476171
 10
161.4696946893
 20
67.5288801214
 10
161.5103407996
 20
67.4731423279
 10
161.5240668978
 20
67.4151778752
  0
LINE
  5
333
330
1F
100
AcDbEntity
  8
0
  6
Continuous
 62
     7
370
    15
100
AcDbLine
 10
161.5240668978
 20
67.4151778752
 30
0.0
 11
161.5240668978
 21
62.0029005088
 31
0.0
  0
LWPOLYLINE
  5
334
330
1F
100
AcDbEntity
  8
0
  6
Continuous
 62
     7
370
    15
100
AcDbPolyline
 90
        9
 70
   128
 43
0.0
 10
161.5240668978
 20
62.0029005088
 10
161.5103407996
 20
61.9449360561
 10
161.4696946893
 20
61.8891982627
 10
161.4036868027
 20
61.8378307669
 10
161.3148567234
 20
61.7928069084
 10
161.2066168172
 20
61.7558562861
 10
161.0831266369
 20
61.7283998322
 10
160.949131138
 20
61.7114923361
 10
160.809779736
 20
61.7057830627
  0
LINE
  5
335
330
1F
100
AcDbEntity
  8
0
  6
Continuous
 62
     7
370
    15
100
AcDbLine
 10
160.809779736
 20
61.7057830627
 30
0.0
 11
160.2383521352
 21
61.7057830627
 31
0.0
  0
LINE
  5
336
330
1F
100
AcDbEntity
  8
0
  6
Continuous
 62
     7
370
    15
100
AcDbLine
 10
160.0291419608
 20
66.6997337447
 30
0.0
 11
158.9475603342
 21
67.19446294
 31
0.0
  0
ELLIPSE
  5
337
330
1F
100
AcDbEntity
  8
0
  6
Continuous
 62
     7
370
    15
100
AcDbEllipse
 10
158.4424849644
 20
66.9634346144
 30
0.0
 11
0.7142857142857224
 21
0.0
 31
0.0
210
0.0
220
0.0
230
1.0
 40
0.4574135787
 41
0.7853981627910073
 42
1.570796327000016
  0
LINE
  5
338
330
1F
100
AcDbEntity
  8
0
  6
Continuous
 62
     7
370
    15
100
AcDbLine
 10
158.4424854755
 20
67.2901581972
 30
0.0
 11
152.034217688
 21
67.2901581972
 31
0.0
  0
ELLIPSE
  5
339
330
1F
100
AcDbEntity
  8
0
  6
Continuous
 62
     7
370
    15
100
AcDbEllipse
 10
152.0342186249
 20
66.9634346144
 30
0.0
 11
0.7142857142857224
 21
0.0
 31
0.0
210
0.0
220
0.0
230
1.0
 40
0.4574135787
 41
1.570796326794897
 42
2.356194491169668
  0
LINE
  5
33A
330
1F
100
AcDbEntity
  8
0
  6
Continuous
 62
     7
370
    15
100
AcDbLine
 10
151.5291428293
 20
67.19446294
 30
0.0
 11
150.4475612027
 21
66.6997337447
 31
0.0
  0
ELLIPSE
  5
33B
330
1F
100
AcDbEntity
  8
0
  6
Continuous
 62
     7
370
    15
100
AcDbEllipse
 10
150.9526375089
 20
66.4687047256
 30
0.0
 11
0.714285714285694
 21
0.0
 31
0.0
210
0.0
220
0.0
230
1.0
 40
0.4574135787
 41
2.35619448757733
 42
3.141592653397459
  0
ELLIPSE
  5
33C
330
1F
100
AcDbEntity
  8
0
  6
Continuous
 62
     7
370
    15
100
AcDbEllipse
 10
159.5240660804
 20
66.4687047256
 30
0.0
 11
0.7142857142857224
 21
0.0
 31
0.0
210
0.0
220
0.0
230
1.0
 40
0.4574135787
 41
0.0
 42
0.7853981658225645
  0
LWPOLYLINE
  5
33D
330
1F
100
AcDbEntity
  8
0
  6
Continuous
 62
     7
370
    15
100
AcDbPolyline
 90
        9
 70
   128
 43
0.0
 10
160.809779736
 20
68.3618529034
 10
160.949131138
 20
68.3561436299
 10
161.0831266369
 20
68.3392361338
 10
161.2066168172
 20
68.3117796799
 10
161.3148567234
 20
68.2748290576
 10
161.4036868027
 20
68.2298051991
 10
161.4696946893
 20
68.1784377033
 10
161.5103407996
 20
68.1227009743
 10
161.5240668978
 20
68.0647365216
  0
LINE
  5
33E
330
1F
100
AcDbEntity
  8
0
  6
Continuous
 62
     7
370
    15
100
AcDbLine
 10
161.5240668978
 20
67.4151778752
 30
0.0
 11
161.5240668978
 21
68.0647365216
 31
0.0
  0
LINE
  5
33F
330
1F
100
AcDbEntity
  8
0
  6
Continuous
 62
     7
370
    15
100
AcDbLine
 10
160.809779736
 20
67.712294257
 30
0.0
 11
160.809779736
 21
68.3618529034
 31
0.0
  0
LINE
  5
340
330
1F
100
AcDbEntity
  8
0
  6
Continuous
 62
     7
370
    15
100
AcDbLine
 10
149.6669234276
 20
68.3618529034
 30
0.0
 11
160.809779736
 21
68.3618529034
 31
0.0
  0
LINE
  5
341
330
1F
100
AcDbEntity
  8
0
  6
Continuous
 62
     7
370
    15
100
AcDbLine
 10
149.6669234276
 20
67.712294257
 30
0.0
 11
149.6669234276
 21
68.3618529034
 31
0.0
  0
LWPOLYLINE
  5
342
330
1F
100
AcDbEntity
  8
0
  6
Continuous
 62
     7
370
    15
100
AcDbPolyline
 90
        9
 70
   128
 43
0.0
 10
148.9526373301
 20
68.0647365216
 10
148.9663623639
 20
68.1227009743
 10
149.0070095386
 20
68.1784377033
 10
149.0730163608
 20
68.2298051991
 10
149.1618464402
 20
68.2748290576
 10
149.2700874107
 20
68.3117796799
 10
149.393577591
 20
68.3392361338
 10
149.5275730899
 20
68.3561436299
 10
149.6669234276
 20
68.3618529034
  0
LINE
  5
343
330
1F
100
AcDbEntity
  8
0
  6
Continuous
 62
     7
370
    15
100
AcDbLine
 10
148.9526373301
 20
67.4151778752
 30
0.0
 11
148.9526373301
 21
68.0647365216
 31
0.0
  0
LINE
  5
344
330
1F
100
AcDbEntity
  8
0
  6
Continuous
 62
     7
370
    15
100
AcDbLine
 10
151.5291428293
 20
68.4233244508
 30
0.0
 11
152.034217688
 21
68.4233244508
 31
0.0
  0
ARC
  5
345
330
1F
100
AcDbEntity
  8
0
  6
Continuous
 62
     7
370
    15
100
AcDbCircle
 10
151.9079508571
 20
68.4768962069
 30
0.0
 40
0.3825773842247868
100
AcDbArc
 50
101.4219830126
 51
188.049498283
  0
SPLINE
  5
346
330
1F
100
AcDbEntity
  8
0
  6
Continuous
 62
     7
370
    15
100
AcDbSpline
210
0.0
220
0.0
230
1.0
 70
    24
 71
     3
 72
     9
 73
     5
 74
     0
 42
0.00000001
 43
0.00000001
 40
0.0
 40
0.0
 40
0.0
 40
0.0
 40
0.4999932822049243
 40
1.0
 40
1.0
 40
1.0
 40
1.0
 10
152.0342176880089
 20
68.85189674785784
 30
0.0
 10
151.9963852247587
 20
68.85189674785784
 30
0.0
 10
151.9207192816416
 20
68.85189674785784
 30
0.0
 10
151.8616985212353
 20
68.85189674785784
 30
0.0
 10
151.8321877445428
 20
68.85189674785784
 30
0.0
  0
LINE
  5
347
330
1F
100
AcDbEntity
  8
0
  6
Continuous
 62
     7
370
    15
100
AcDbLine
 10
152.034217688
 20
68.4233244508
 30
0.0
 11
152.034217688
 21
68.8518967479
 31
0.0
  0
LINE
  5
348
330
1F
100
AcDbEntity
  8
0
  6
Continuous
 62
     7
370
    15
100
AcDbLine
 10
158.4424854755
 20
68.4233244508
 30
0.0
 11
158.9475603342
 21
68.4233244508
 31
0.0
  0
LINE
  5
349
330
1F
100
AcDbEntity
  8
0
  6
Continuous
 62
     7
370
    15
100
AcDbLine
 10
158.4424854755
 20
68.8518967479
 30
0.0
 11
158.4424854755
 21
68.4233244508
 31
0.0
  0
SPLINE
  5
34A
330
1F
100
AcDbEntity
  8
0
  6
Continuous
 62
     7
370
    15
100
AcDbSpline
210
0.0
220
0.0
230
1.0
 70
    24
 71
     3
 72
     9
 73
     5
 74
     0
 42
0.00000001
 43
0.00000001
 40
0.0
 40
0.0
 40
0.0
 40
0.0
 40
0.4999980664214566
 40
1.0
 40
1.0
 40
1.0
 40
1.0
 10
158.6445154189998
 20
68.85189674785784
 30
0.0
 10
158.6150053673676
 20
68.85189674785784
 30
0.0
 10
158.5559850358624
 20
68.85189674785784
 30
0.0
 10
158.4803187598476
 20
68.85189674785784
 30
0.0
 10
158.4424854755336
 20
68.85189674785784
 30
0.0
  0
ARC
  5
34B
330
1F
100
AcDbEntity
  8
0
  6
Continuous
 62
     7
370
    15
100
AcDbCircle
 10
158.5687534578
 20
68.476897021
 30
0.0
 40
0.3825763582725777
100
AcDbArc
 50
351.950356855
 51
78.5781618493
  0
LINE
  5
34C
330
1F
100
AcDbEntity
  8
0
  6
Continuous
 62
     7
370
    15
100
AcDbLine
 10
152.034217688
 20
68.4233244508
 30
0.0
 11
158.4424854755
 21
68.4233244508
 31
0.0
  0
LINE
  5
34D
330
1F
100
AcDbEntity
  8
0
  6
Continuous
 62
     7
370
    15
100
AcDbLine
 10
152.034217688
 20
68.8518967479
 30
0.0
 11
158.4424854755
 21
68.8518967479
 31
0.0
  0
LINE
  5
34E
330
1F
100
AcDbEntity
  8
0
  6
Continuous
 62
     7
370
    15
100
AcDbLine
 10
152.034217688
 20
61.566181534
 30
0.0
 11
158.4424854755
 21
61.566181534
 31
0.0
  0
LINE
  5
34F
330
1F
100
AcDbEntity
  8
0
  6
Continuous
 62
     7
370
    15
100
AcDbLine
 10
152.034217688
 20
61.566181534
 30
0.0
 11
152.034217688
 21
67.2901581972
 31
0.0
  0
LINE
  5
350
330
1F
100
AcDbEntity
  8
0
  6
Continuous
 62
     7
370
    15
100
AcDbLine
 10
158.4424854755
 20
61.566181534
 30
0.0
 11
158.4424854755
 21
67.2901581972
 31
0.0
  0
LINE
  5
351
330
1F
100
AcDbEntity
  8
0
  6
Continuous
 62
     7
370
    15
100
AcDbLine
 10
158.9475603342
 20
61.566181534
 30
0.0
 11
158.9475603342
 21
67.19446294
 31
0.0
  0
LINE
  5
352
330
1F
100
AcDbEntity
  8
0
  6
Continuous
 62
     7
370
    15
100
AcDbLine
 10
158.4424854755
 20
61.566181534
 30
0.0
 11
158.9475603342
 21
61.566181534
 31
0.0
  0
LINE
  5
353
330
1F
100
AcDbEntity
  8
0
  6
Continuous
 62
     7
370
    15
100
AcDbLine
 10
151.5291428293
 20
61.566181534
 30
0.0
 11
152.034217688
 21
61.566181534
 31
0.0
  0
LINE
  5
354
330
1F
100
AcDbEntity
  8
0
  6
Continuous
 62
     7
370
    15
100
AcDbLine
 10
151.5291428293
 20
61.566181534
 30
0.0
 11
151.5291428293
 21
67.19446294
 31
0.0
  0
LINE
  5
355
330
1F
100
AcDbEntity
  8
0
  6
Continuous
 62
     7
370
    15
100
AcDbLine
 10
158.9475603342
 20
68.4233244508
 30
0.0
 11
160.0291419608
 21
68.4233244508
 31
0.0
  0
LINE
  5
356
330
1F
100
AcDbEntity
  8
0
  6
Continuous
 62
     7
370
    15
100
AcDbLine
 10
158.644515419
 20
68.8518967479
 30
0.0
 11
159.7260970456
 21
68.8518967479
 31
0.0
  0
ARC
  5
357
330
1F
100
AcDbEntity
  8
0
  6
Continuous
 62
     7
370
    15
100
AcDbCircle
 10
159.6503339331
 20
68.4768962069
 30
0.0
 40
0.3825773842247868
100
AcDbArc
 50
351.950501717
 51
78.5780169874
  0
LINE
  5
358
330
1F
100
AcDbEntity
  8
0
  6
Continuous
 62
     7
370
    15
100
AcDbLine
 10
150.4475612027
 20
68.4233244508
 30
0.0
 11
151.5291428293
 21
68.4233244508
 31
0.0
  0
ARC
  5
359
330
1F
100
AcDbEntity
  8
0
  6
Continuous
 62
     7
370
    15
100
AcDbCircle
 10
150.8263703008
 20
68.4768952619
 30
0.0
 40
0.3825783117529629
100
AcDbArc
 50
101.4219558708
 51
188.0493356973
  0
LINE
  5
35A
330
1F
100
AcDbEntity
  8
0
  6
Continuous
 62
     7
370
    15
100
AcDbLine
 10
150.7506071823
 20
68.8518967479
 30
0.0
 11
151.8321877445
 21
68.8518967479
 31
0.0
  0
LINE
  5
35B
330
1F
100
AcDbEntity
  8
0
  6
Continuous
 62
     7
370
    15
100
AcDbLine
 10
160.0291419608
 20
61.566181534
 30
0.0
 11
160.0291419608
 21
66.6997337447
 31
0.0
  0
LINE
  5
35C
330
1F
100
AcDbEntity
  8
0
  6
Continuous
 62
     7
370
    15
100
AcDbLine
 10
158.9475603342
 20
61.566181534
 30
0.0
 11
160.0291419608
 21
61.566181534
 31
0.0
  0
LINE
  5
35D
330
1F
100
AcDbEntity
  8
0
  6
Continuous
 62
     7
370
    15
100
AcDbLine
 10
150.4475612027
 20
61.566181534
 30
0.0
 11
150.4475612027
 21
66.6997337447
 31
0.0
  0
LINE
  5
35E
330
1F
100
AcDbEntity
  8
0
  6
Continuous
 62
     7
370
    15
100
AcDbLine
 10
150.4475612027
 20
61.566181534
 30
0.0
 11
151.5291428293
 21
61.566181534
 31
0.0
  0
LINE
  5
35F
330
1F
100
AcDbEntity
  8
0
  6
Continuous
 62
     7
370
    15
100
AcDbLine
 10
150.2383520927
 20
68.4233244508
 30
0.0
 11
150.4475612027
 21
68.4233244508
 31
0.0
  0
ARC
  5
360
330
1F
100
AcDbEntity
  8
0
  6
Continuous
 62
     7
370
    15
100
AcDbCircle
 10
150.6669232232
 20
68.4233248339
 30
0.0
 40
0.4285714285714306
100
AcDbArc
 50
89.9999999995
 51
180.0
  0
SPLINE
  5
361
330
1F
100
AcDbEntity
  8
0
  6
Continuous
 62
     7
370
    15
100
AcDbSpline
210
0.0
220
0.0
230
1.0
 70
    24
 71
     3
 72
     9
 73
     5
 74
     0
 42
0.00000001
 43
0.00000001
 40
0.0
 40
0.0
 40
0.0
 40
0.0
 40
0.5000004507747433
 40
1.0
 40
1.0
 40
1.0
 40
1.0
 10
150.7506071822918
 20
68.85189674785784
 30
0.0
 10
150.726613031215
 20
68.85189674785784
 30
0.0
 10
150.6786247723251
 20
68.85189674785784
 30
0.0
 10
150.6708238053612
 20
68.85189674785784
 30
0.0
 10
150.6669233253958
 20
68.85189674785784
 30
0.0
  0
LINE
  5
362
330
1F
100
AcDbEntity
  8
0
  6
Continuous
 62
     7
370
    15
100
AcDbLine
 10
160.0291419608
 20
68.4233244508
 30
0.0
 11
160.2383521352
 21
68.4233244508
 31
0.0
  0
ARC
  5
363
330
1F
100
AcDbEntity
  8
0
  6
Continuous
 62
     7
370
    15
100
AcDbCircle
 10
159.8097803661
 20
68.4233248339
 30
0.0
 40
0.4285714285714448
100
AcDbArc
 50
0.0
 51
90.0000000235
  0
SPLINE
  5
364
330
1F
100
AcDbEntity
  8
0
  6
Continuous
 62
     7
370
    15
100
AcDbSpline
210
0.0
220
0.0
230
1.0
 70
    24
 71
     3
 72
     9
 73
     5
 74
     0
 42
0.00000001
 43
0.00000001
 40
0.0
 40
0.0
 40
0.0
 40
0.0
 40
0.4999990835853302
 40
1.0
 40
1.0
 40
1.0
 40
1.0
 10
159.8097798381467
 20
68.85189674785784
 30
0.0
 10
159.8058797889361
 20
68.85189674785784
 30
0.0
 10
159.7980796762185
 20
68.85189674785784
 30
0.0
 10
159.7500912851372
 20
68.85189674785784
 30
0.0
 10
159.7260970456194
 20
68.85189674785784
 30
0.0
  0
LINE
  5
365
330
1F
100
AcDbEntity
  8
0
  6
Continuous
 62
     7
370
    15
100
AcDbLine
 10
160.2383521352
 20
68.3618529034
 30
0.0
 11
160.2383521352
 21
68.4233244508
 31
0.0
  0
LINE
  5
366
330
1F
100
AcDbEntity
  8
0
  6
Continuous
 62
     7
370
    15
100
AcDbLine
 10
150.2383520927
 20
68.3618529034
 30
0.0
 11
150.2383520927
 21
68.4233244508
 31
0.0
  0
LINE
  5
367
330
1F
100
AcDbEntity
  8
0
  6
Continuous
 62
     7
370
    15
100
AcDbLine
 10
150.2383520927
 20
63.9947536268
 30
0.0
 11
150.2383520927
 21
66.4687050772
 31
0.0
  0
LINE
  5
368
330
1F
100
AcDbEntity
  8
0
  6
Continuous
 62
     7
370
    15
100
AcDbLine
 10
150.3812084607
 20
61.566181534
 30
0.0
 11
150.4475612027
 21
61.566181534
 31
0.0
  0
LINE
  5
369
330
1F
100
AcDbEntity
  8
0
  6
Continuous
 62
     7
370
    15
100
AcDbLine
 10
160.2383521352
 20
61.566181534
 30
0.0
 11
160.2383521352
 21
66.4687050772
 31
0.0
  0
LINE
  5
36A
330
1F
100
AcDbEntity
  8
0
  6
Continuous
 62
     7
370
    15
100
AcDbLine
 10
160.0291419608
 20
61.566181534
 30
0.0
 11
160.2383521352
 21
61.566181534
 31
0.0
  0
LINE
  5
36B
330
1F
100
AcDbEntity
  8
0
  6
Continuous
 62
     7
370
    15
100
AcDbLine
 10
121.7240658556
 20
38.0968473319
 30
0.0
 11
124.4383517487
 21
38.0968473319
 31
0.0
  0
LINE
  5
36C
330
1F
100
AcDbEntity
  8
0
  6
Continuous
 62
     7
370
    15
100
AcDbLine
 10
121.7240658556
 20
39.9538023663
 30
0.0
 11
121.7240658556
 21
38.0968473319
 31
0.0
  0
LINE
  5
36D
330
1F
100
AcDbEntity
  8
0
  6
Continuous
 62
     7
370
    15
100
AcDbLine
 10
124.4383517487
 20
39.9538023663
 30
0.0
 11
121.7240658556
 21
39.9538023663
 31
0.0
  0
LINE
  5
36E
330
1F
100
AcDbEntity
  8
0
  6
Continuous
 62
     7
370
    15
100
AcDbLine
 10
124.4383517487
 20
38.0968473319
 30
0.0
 11
124.4383517487
 21
39.9538023663
 31
0.0
  0
LINE
  5
36F
330
1F
100
AcDbEntity
  8
0
  6
Continuous
 62
     7
370
    15
100
AcDbLine
 10
121.7240658556
 20
41.3518016359
 30
0.0
 11
121.7240658556
 21
43.6005507728
 31
0.0
  0
LINE
  5
370
330
1F
100
AcDbEntity
  8
0
  6
Continuous
 62
     7
370
    15
100
AcDbLine
 10
124.4383517487
 20
43.6005507728
 30
0.0
 11
121.7240658556
 21
43.6005507728
 31
0.0
  0
LINE
  5
371
330
1F
100
AcDbEntity
  8
0
  6
Continuous
 62
     7
370
    15
100
AcDbLine
 10
121.7240658556
 20
39.9538023663
 30
0.0
 11
121.7240658556
 21
41.3518016359
 31
0.0
  0
LINE
  5
372
330
1F
100
AcDbEntity
  8
0
  6
Continuous
 62
     7
370
    15
100
AcDbLine
 10
124.4383517487
 20
39.9538023663
 30
0.0
 11
124.4383517487
 21
43.6005507728
 31
0.0
  0
LINE
  5
373
330
1F
100
AcDbEntity
  8
0
  6
Continuous
 62
     7
370
    15
100
AcDbLine
 10
118.9526372024
 20
38.1376105227
 30
0.0
 11
118.9526372024
 21
42.7090393112
 31
0.0
  0
LINE
  5
374
330
1F
100
AcDbEntity
  8
0
  6
Continuous
 62
     7
370
    15
100
AcDbLine
 10
119.3812084351
 20
42.7090393112
 30
0.0
 11
119.3812084351
 21
38.1376105227
 31
0.0
  0
LINE
  5
375
330
1F
100
AcDbEntity
  8
0
  6
Continuous
 62
     7
370
    15
100
AcDbLine
 10
119.7191816722
 20
39.0661817043
 30
0.0
 11
119.7191816722
 21
41.7804675974
 31
0.0
  0
LINE
  5
376
330
1F
100
AcDbEntity
  8
0
  6
Continuous
 62
     7
370
    15
100
AcDbLine
 10
121.2669227106
 20
52.9947534203
 30
0.0
 11
132.3812089694
 21
52.9947534203
 31
0.0
  0
LINE
  5
377
330
1F
100
AcDbEntity
  8
0
  6
Continuous
 62
     7
370
    15
100
AcDbLine
 10
121.2669227106
 20
55.566181881
 30
0.0
 11
132.3812089694
 21
55.566181881
 31
0.0
  0
LINE
  5
378
330
1F
100
AcDbEntity
  8
0
  6
Continuous
 62
     7
370
    15
100
AcDbLine
 10
121.2669227106
 20
52.9947534203
 30
0.0
 11
121.2669227106
 21
55.566181881
 31
0.0
  0
LINE
  5
379
330
1F
100
AcDbEntity
  8
0
  6
Continuous
 62
     7
370
    15
100
AcDbLine
 10
118.1240655848
 20
53.1257670904
 30
0.0
 11
121.2669227106
 21
53.1257670904
 31
0.0
  0
LINE
  5
37A
330
1F
100
AcDbEntity
  8
0
  6
Continuous
 62
     7
370
    15
100
AcDbLine
 10
118.1240655848
 20
53.1257670904
 30
0.0
 11
118.1240655848
 21
53.7031173705
 31
0.0
  0
LINE
  5
37B
330
1F
100
AcDbEntity
  8
0
  6
Continuous
 62
     7
370
    15
100
AcDbLine
 10
118.1240655848
 20
53.7031173705
 30
0.0
 11
121.2669227106
 21
53.7031173705
 31
0.0
  0
LINE
  5
37C
330
1F
100
AcDbEntity
  8
0
  6
Continuous
 62
     7
370
    15
100
AcDbLine
 10
118.1240655848
 20
54.8578179307
 30
0.0
 11
121.2669227106
 21
54.8578179307
 31
0.0
  0
LINE
  5
37D
330
1F
100
AcDbEntity
  8
0
  6
Continuous
 62
     7
370
    15
100
AcDbLine
 10
118.1240655848
 20
53.7031173705
 30
0.0
 11
118.1240655848
 21
54.8578179307
 31
0.0
  0
LINE
  5
37E
330
1F
100
AcDbEntity
  8
0
  6
Continuous
 62
     7
370
    15
100
AcDbLine
 10
118.1240655848
 20
55.4351682109
 30
0.0
 11
121.2669227106
 21
55.4351682109
 31
0.0
  0
LINE
  5
37F
330
1F
100
AcDbEntity
  8
0
  6
Continuous
 62
     7
370
    15
100
AcDbLine
 10
118.1240655848
 20
54.8578179307
 30
0.0
 11
118.1240655848
 21
55.4351682109
 31
0.0
  0
LINE
  5
380
330
1F
100
AcDbEntity
  8
0
  6
Continuous
 62
     7
370
    15
100
AcDbLine
 10
131.3669231155
 20
55.566181881
 30
0.0
 11
131.3669231155
 21
60.2804678358
 31
0.0
  0
LINE
  5
381
330
1F
100
AcDbEntity
  8
0
  6
Continuous
 62
     7
370
    15
100
AcDbLine
 10
123.6954948034
 20
55.566181881
 30
0.0
 11
123.6954948034
 21
64.2804674271
 31
0.0
  0
LINE
  5
382
330
1F
100
AcDbEntity
  8
0
  6
Continuous
 62
     7
370
    15
100
AcDbLine
 10
123.6954948034
 20
44.3546575626
 30
0.0
 11
125.5526376988
 21
44.3546575626
 31
0.0
  0
LINE
  5
383
330
1F
100
AcDbEntity
  8
0
  6
Continuous
 62
     7
370
    15
100
AcDbLine
 10
123.6954948034
 20
44.3546575626
 30
0.0
 11
123.6954948034
 21
52.9947534203
 31
0.0
  0
LINE
  5
384
330
1F
100
AcDbEntity
  8
0
  6
Continuous
 62
     7
370
    15
100
AcDbLine
 10
131.3669231155
 20
42.2804675463
 30
0.0
 11
131.3669231155
 21
52.9947534203
 31
0.0
  0
LINE
  5
385
330
1F
100
AcDbEntity
  8
0
  6
Continuous
 62
     7
370
    15
100
AcDbLine
 10
125.5526376988
 20
43.942621297
 30
0.0
 11
121.2669227106
 21
43.942621297
 31
0.0
  0
LINE
  5
386
330
1F
100
AcDbEntity
  8
0
  6
Continuous
 62
     7
370
    15
100
AcDbLine
 10
125.5526376988
 20
41.4015257464
 30
0.0
 11
124.4383517487
 21
41.4015257464
 31
0.0
  0
LINE
  5
387
330
1F
100
AcDbEntity
  8
0
  6
Continuous
 62
     7
370
    15
100
AcDbLine
 10
125.5526376988
 20
41.4015257464
 30
0.0
 11
125.5526376988
 21
43.942621297
 31
0.0
  0
LINE
  5
388
330
1F
100
AcDbEntity
  8
0
  6
Continuous
 62
     7
370
    15
100
AcDbLine
 10
121.2669227106
 20
41.7804675974
 30
0.0
 11
121.2669227106
 21
43.942621297
 31
0.0
  0
LINE
  5
389
330
1F
100
AcDbEntity
  8
0
  6
Continuous
 62
     7
370
    15
100
AcDbLine
 10
121.2669227106
 20
46.0904230496
 30
0.0
 11
123.6954948034
 21
46.0904230496
 31
0.0
  0
LINE
  5
38A
330
1F
100
AcDbEntity
  8
0
  6
Continuous
 62
     7
370
    15
100
AcDbLine
 10
125.5526376988
 20
43.942621297
 30
0.0
 11
125.5526376988
 21
44.3546575626
 31
0.0
  0
LINE
  5
38B
330
1F
100
AcDbEntity
  8
0
  6
Continuous
 62
     7
370
    15
100
AcDbLine
 10
121.2669227106
 20
43.942621297
 30
0.0
 11
121.2669227106
 21
46.0904230496
 31
0.0
  0
LINE
  5
38C
330
1F
100
AcDbEntity
  8
0
  6
Continuous
 62
     7
370
    15
100
AcDbLine
 10
121.2669227106
 20
46.0904230496
 30
0.0
 11
121.2669227106
 21
52.9947534203
 31
0.0
  0
LINE
  5
38D
330
1F
100
AcDbEntity
  8
0
  6
Continuous
 62
     7
370
    15
100
AcDbLine
 10
117.5240660718
 20
40.7090389834
 30
0.0
 11
117.5240660718
 21
61.8518963987
 31
0.0
  0
LINE
  5
38E
330
1F
100
AcDbEntity
  8
0
  6
Continuous
 62
     7
370
    15
100
AcDbLine
 10
121.2669227106
 20
55.566181881
 30
0.0
 11
121.2669227106
 21
61.9947538311
 31
0.0
  0
ARC
  5
38F
330
1F
100
AcDbEntity
  8
0
  6
Continuous
 62
     7
370
    15
100
AcDbCircle
 10
131.0954946518
 20
41.5661819768
 30
0.0
 40
0.7142857142857153
100
AcDbArc
 50
90.0
 51
180.0
  0
LINE
  5
390
330
1F
100
AcDbEntity
  8
0
  6
Continuous
 62
     7
370
    15
100
AcDbLine
 10
131.0954947391
 20
42.2804675463
 30
0.0
 11
149.6669234276
 21
42.2804675463
 31
0.0
  0
ARC
  5
391
330
1F
100
AcDbEntity
  8
0
  6
Continuous
 62
     7
370
    15
100
AcDbCircle
 10
149.6669232232
 20
41.5661819768
 30
0.0
 40
0.7142857142857224
100
AcDbArc
 50
0.0
 51
90.0000000059
  0
LINE
  5
392
330
1F
100
AcDbEntity
  8
0
  6
Continuous
 62
     7
370
    15
100
AcDbLine
 10
150.3812084607
 20
38.9947529881
 30
0.0
 11
150.3812084607
 21
41.5661814489
 31
0.0
  0
ARC
  5
393
330
1F
100
AcDbEntity
  8
0
  6
Continuous
 62
     7
370
    15
100
AcDbCircle
 10
149.6669232232
 20
38.9947534054
 30
0.0
 40
0.7142857142857224
100
AcDbArc
 50
270.0
 51
359.9999999882
  0
LINE
  5
394
330
1F
100
AcDbEntity
  8
0
  6
Continuous
 62
     7
370
    15
100
AcDbLine
 10
149.6669234276
 20
38.280467955
 30
0.0
 11
131.0954947391
 21
38.280467955
 31
0.0
  0
ARC
  5
395
330
1F
100
AcDbEntity
  8
0
  6
Continuous
 62
     7
370
    15
100
AcDbCircle
 10
131.0954946518
 20
38.9947534054
 30
0.0
 40
0.7142857142857153
100
AcDbArc
 50
180.0
 51
269.999999989
  0
LINE
  5
396
330
1F
100
AcDbEntity
  8
0
  6
Continuous
 62
     7
370
    15
100
AcDbLine
 10
130.3812089077
 20
38.9947529881
 30
0.0
 11
130.3812089077
 21
41.5661814489
 31
0.0
  0
CIRCLE
  5
397
330
1F
100
AcDbEntity
  8
0
  6
Continuous
 62
     7
370
    15
100
AcDbCircle
 10
148.3812089375
 20
40.2804676911
 30
0.0
 40
0.5
  0
CIRCLE
  5
398
330
1F
100
AcDbEntity
  8
0
  6
Continuous
 62
     7
370
    15
100
AcDbCircle
 10
132.3812089375
 20
40.2804676911
 30
0.0
 40
0.5
  0
ARC
  5
399
330
1F
100
AcDbEntity
  8
0
  6
Continuous
 62
     7
370
    15
100
AcDbCircle
 10
131.0954946518
 20
63.5661819768
 30
0.0
 40
0.7142857142857082
100
AcDbArc
 50
90.0
 51
180.0
  0
LINE
  5
39A
330
1F
100
AcDbEntity
  8
0
  6
Continuous
 62
     7
370
    15
100
AcDbLine
 10
131.0954947391
 20
64.2804674271
 30
0.0
 11
149.6669234276
 21
64.2804674271
 31
0.0
  0
ARC
  5
39B
330
1F
100
AcDbEntity
  8
0
  6
Continuous
 62
     7
370
    15
100
AcDbCircle
 10
149.6669232232
 20
63.5661819768
 30
0.0
 40
0.7142857142857224
100
AcDbArc
 50
0.0
 51
90.0000000059
  0
LINE
  5
39C
330
1F
100
AcDbEntity
  8
0
  6
Continuous
 62
     7
370
    15
100
AcDbLine
 10
150.3812084607
 20
60.9947539333
 30
0.0
 11
150.3812084607
 21
63.566182394
 31
0.0
  0
LINE
  5
39D
330
1F
100
AcDbEntity
  8
0
  6
Continuous
 62
     7
370
    15
100
AcDbLine
 10
149.6669234276
 20
60.2804678358
 30
0.0
 11
131.0954947391
 21
60.2804678358
 31
0.0
  0
ARC
  5
39E
330
1F
100
AcDbEntity
  8
0
  6
Continuous
 62
     7
370
    15
100
AcDbCircle
 10
131.0954946518
 20
60.9947534054
 30
0.0
 40
0.7142857142857153
100
AcDbArc
 50
180.0
 51
270.0
  0
LINE
  5
39F
330
1F
100
AcDbEntity
  8
0
  6
Continuous
 62
     7
370
    15
100
AcDbLine
 10
130.3812089077
 20
60.9947539333
 30
0.0
 11
130.3812089077
 21
63.566182394
 31
0.0
  0
CIRCLE
  5
3A0
330
1F
100
AcDbEntity
  8
0
  6
Continuous
 62
     7
370
    15
100
AcDbCircle
 10
132.3812089375
 20
62.2804676911
 30
0.0
 40
0.5
  0
CIRCLE
  5
3A1
330
1F
100
AcDbEntity
  8
0
  6
Continuous
 62
     7
370
    15
100
AcDbCircle
 10
148.3812089375
 20
62.2804676911
 30
0.0
 40
0.5
  0
ARC
  5
3A2
330
1F
100
AcDbEntity
  8
0
  6
Continuous
 62
     7
370
    15
100
AcDbCircle
 10
149.6669232232
 20
60.9947534054
 30
0.0
 40
0.7142857142857224
100
AcDbArc
 50
270.0
 51
359.9999999882
  0
LINE
  5
3A3
330
1F
100
AcDbEntity
  8
0
  6
Continuous
 62
     7
370
    15
100
AcDbLine
 10
135.5054945918
 20
42.2804675463
 30
0.0
 11
135.5054945918
 21
60.2804678358
 31
0.0
  0
LINE
  5
3A4
330
1F
100
AcDbEntity
  8
0
  6
Continuous
 62
     7
370
    15
100
AcDbLine
 10
132.3812089694
 20
60.2804678358
 30
0.0
 11
132.3812089694
 21
42.2804675463
 31
0.0
  0
LINE
  5
3A5
330
1F
100
AcDbEntity
  8
0
  6
Continuous
 62
     7
370
    15
100
AcDbLine
 10
161.1097805568
 20
59.8518960709
 30
0.0
 11
135.5054945918
 21
59.8518960709
 31
0.0
  0
LINE
  5
3A6
330
1F
100
AcDbEntity
  8
0
  6
Continuous
 62
     7
370
    15
100
AcDbLine
 10
161.1097805568
 20
59.8518960709
 30
0.0
 11
161.1097805568
 21
42.7090393112
 31
0.0
  0
LINE
  5
3A7
330
1F
100
AcDbEntity
  8
0
  6
Continuous
 62
     7
370
    15
100
AcDbLine
 10
135.5054945918
 20
42.7090393112
 30
0.0
 11
161.1097805568
 21
42.7090393112
 31
0.0
  0
LINE
  5
3A8
330
1F
100
AcDbEntity
  8
0
  6
Continuous
 62
     7
370
    15
100
AcDbLine
 10
146.0821776884
 20
60.2804678358
 30
0.0
 11
146.0821776884
 21
59.8518960709
 31
0.0
  0
LINE
  5
3A9
330
1F
100
AcDbEntity
  8
0
  6
Continuous
 62
     7
370
    15
100
AcDbLine
 10
146.0821776884
 20
42.7090393112
 30
0.0
 11
146.0821776884
 21
42.2804675463
 31
0.0
  0
LINE
  5
3AA
330
1F
100
AcDbEntity
  8
0
  6
Continuous
 62
     7
370
    15
100
AcDbLine
 10
146.1812086769
 20
60.2804678358
 30
0.0
 11
146.1812086769
 21
59.8518960709
 31
0.0
  0
LINE
  5
3AB
330
1F
100
AcDbEntity
  8
0
  6
Continuous
 62
     7
370
    15
100
AcDbLine
 10
150.2383520927
 20
60.5661816362
 30
0.0
 11
152.6097814253
 21
60.5661816362
 31
0.0
  0
LINE
  5
3AC
330
1F
100
AcDbEntity
  8
0
  6
Continuous
 62
     7
370
    15
100
AcDbLine
 10
152.6097814253
 20
59.8518960709
 30
0.0
 11
152.6097814253
 21
60.5661816362
 31
0.0
  0
LINE
  5
3AD
330
1F
100
AcDbEntity
  8
0
  6
Continuous
 62
     7
370
    15
100
AcDbLine
 10
161.5240668978
 20
60.2861824311
 30
0.0
 11
161.5240668978
 21
42.274752951
 31
0.0
  0
LINE
  5
3AE
330
1F
100
AcDbEntity
  8
0
  6
Continuous
 62
     7
370
    15
100
AcDbLine
 10
159.5240671022
 20
42.7090393112
 30
0.0
 11
159.5240671022
 21
41.6018963391
 31
0.0
  0
LINE
  5
3AF
330
1F
100
AcDbEntity
  8
0
  6
Continuous
 62
     7
370
    15
100
AcDbLine
 10
159.5240671022
 20
61.4718965653
 30
0.0
 11
150.3812084607
 21
61.4718965653
 31
0.0
  0
LINE
  5
3B0
330
1F
100
AcDbEntity
  8
0
  6
Continuous
 62
     7
370
    15
100
AcDbLine
 10
150.256923197
 20
60.5921320084
 30
0.0
 11
150.256923197
 21
60.5661816362
 31
0.0
  0
LINE
  5
3B1
330
1F
100
AcDbEntity
  8
0
  6
Continuous
 62
     7
370
    15
100
AcDbLine
 10
159.5240671022
 20
61.4718965653
 30
0.0
 11
159.5240671022
 21
59.8518960709
 31
0.0
  0
LINE
  5
3B2
330
1F
100
AcDbEntity
  8
0
  6
Continuous
 62
     7
370
    15
100
AcDbLine
 10
152.034217688
 20
68.3618529034
 30
0.0
 11
152.034217688
 21
68.4233244508
 31
0.0
  0
LINE
  5
3B3
330
1F
100
AcDbEntity
  8
0
  6
Continuous
 62
     7
370
    15
100
AcDbLine
 10
151.5291428293
 20
68.3618529034
 30
0.0
 11
151.5291428293
 21
68.4233244508
 31
0.0
  0
LINE
  5
3B4
330
1F
100
AcDbEntity
  8
0
  6
Continuous
 62
     7
370
    15
100
AcDbLine
 10
158.4424854755
 20
68.3618529034
 30
0.0
 11
158.4424854755
 21
68.4233244508
 31
0.0
  0
LINE
  5
3B5
330
1F
100
AcDbEntity
  8
0
  6
Continuous
 62
     7
370
    15
100
AcDbLine
 10
158.9475603342
 20
68.3618529034
 30
0.0
 11
158.9475603342
 21
68.4233244508
 31
0.0
  0
LINE
  5
3B6
330
1F
100
AcDbEntity
  8
0
  6
Continuous
 62
     7
370
    15
100
AcDbLine
 10
160.0291419608
 20
68.3618529034
 30
0.0
 11
160.0291419608
 21
68.4233244508
 31
0.0
  0
LINE
  5
3B7
330
1F
100
AcDbEntity
  8
0
  6
Continuous
 62
     7
370
    15
100
AcDbLine
 10
150.4475612027
 20
68.3618529034
 30
0.0
 11
150.4475612027
 21
68.4233244508
 31
0.0
  0
INSERT
  5
3C3
330
1F
100
AcDbEntity
  8
0
  6
Continuous
 62
     7
370
     0
100
AcDbBlockReference
  2
SW_CENTERMARKSYMBOL_2
 10
132.3812089375
 20
62.2804676911
 30
0.0
  0
INSERT
  5
3CF
330
1F
100
AcDbEntity
  8
0
  6
Continuous
 62
     7
370
     0
100
AcDbBlockReference
  2
SW_CENTERMARKSYMBOL_3
 10
148.3812089375
 20
62.2804676911
 30
0.0
  0
INSERT
  5
3DB
330
1F
100
AcDbEntity
  8
0
  6
Continuous
 62
     7
370
     0
100
AcDbBlockReference
  2
SW_CENTERMARKSYMBOL_4
 10
148.3812089375
 20
40.2804676911
 30
0.0
  0
INSERT
  5
3E7
330
1F
100
AcDbEntity
  8
0
  6
Continuous
 62
     7
370
     0
100
AcDbBlockReference
  2
SW_CENTERMARKSYMBOL_5
 10
132.3812089375
 20
40.2804676911
 30
0.0
  0
ENDSEC
  0
SECTION
  2
OBJECTS
  0
DICTIONARY
  5
C
330
0
100
AcDbDictionary
281
     1
  3
ACAD_GROUP
350
D
  3
ACAD_LAYOUT
350
1A
  3
ACAD_MLINESTYLE
350
17
  3
ACAD_PLOTSETTINGS
350
19
  3
ACAD_PLOTSTYLENAME
350
E
  0
DICTIONARY
  5
D
102
{ACAD_REACTORS
330
C
102
}
330
C
100
AcDbDictionary
281
     1
  0
DICTIONARY
  5
1A
102
{ACAD_REACTORS
330
C
102
}
330
C
100
AcDbDictionary
281
     1
  3
Layout1
350
1E
  3
Layout2
350
26
  3
Model
350
22
  0
DICTIONARY
  5
17
102
{ACAD_REACTORS
330
C
102
}
330
C
100
AcDbDictionary
281
     1
  3
Standard
350
18
  0
DICTIONARY
  5
19
102
{ACAD_REACTORS
330
C
102
}
330
C
100
AcDbDictionary
281
     1
  0
ACDBDICTIONARYWDFLT
  5
E
102
{ACAD_REACTORS
330
C
102
}
330
C
100
AcDbDictionary
281
     1
  3
Normal
350
F
100
AcDbDictionaryWithDefault
340
F
  0
LAYOUT
  5
1E
102
{ACAD_REACTORS
330
1A
102
}
330
1A
100
AcDbPlotSettings
  1

  2
none_device
  4

  6

 40
0.0
 41
0.0
 42
0.0
 43
0.0
 44
0.0
 45
0.0
 46
0.0
 47
0.0
 48
0.0
 49
0.0
140
0.0
141
0.0
142
1.0
143
1.0
 70
   688
 72
     0
 73
     0
 74
     5
  7

 75
    16
147
1.0
148
0.0
149
0.0
100
AcDbLayout
  1
Layout1
 70
     1
 71
     1
 10
0.0
 20
0.0
 11
420.0
 21
297.0
 12
0.0
 22
0.0
 32
0.0
 14
1.0000000000E+20
 24
1.0000000000E+20
 34
1.0000000000E+20
 15
-1.0000000000E+20
 25
-1.0000000000E+20
 35
-1.0000000000E+20
146
0.0
 13
0.0
 23
0.0
 33
0.0
 16
1.0
 26
0.0
 36
0.0
 17
0.0
 27
1.0
 37
0.0
 76
     0
330
1B
  0
LAYOUT
  5
26
102
{ACAD_REACTORS
330
1A
102
}
330
1A
100
AcDbPlotSettings
  1

  2
none_device
  4

  6

 40
0.0
 41
0.0
 42
0.0
 43
0.0
 44
0.0
 45
0.0
 46
0.0
 47
0.0
 48
0.0
 49
0.0
140
0.0
141
0.0
142
1.0
143
1.0
 70
   688
 72
     0
 73
     0
 74
     5
  7

 75
    16
147
1.0
148
0.0
149
0.0
100
AcDbLayout
  1
Layout2
 70
     1
 71
     2
 10
0.0
 20
0.0
 11
0.0
 21
0.0
 12
0.0
 22
0.0
 32
0.0
 14
0.0
 24
0.0
 34
0.0
 15
0.0
 25
0.0
 35
0.0
146
0.0
 13
0.0
 23
0.0
 33
0.0
 16
1.0
 26
0.0
 36
0.0
 17
0.0
 27
1.0
 37
0.0
 76
     0
330
23
  0
LAYOUT
  5
22
102
{ACAD_REACTORS
330
1A
102
}
330
1A
100
AcDbPlotSettings
  1

  2
none_device
  4

  6

 40
0.0
 41
0.0
 42
0.0
 43
0.0
 44
0.0
 45
0.0
 46
0.0
 47
0.0
 48
0.0
 49
0.0
140
0.0
141
0.0
142
1.0
143
1.0
 70
  1712
 72
     0
 73
     0
 74
     0
  7

 75
     0
147
1.0
148
0.0
149
0.0
100
AcDbLayout
  1
Model
 70
     1
 71
     0
 10
0.0
 20
0.0
 11
0.0
 21
0.0
 12
0.0
 22
0.0
 32
0.0
 14
0.0
 24
0.0
 34
0.0
 15
297.0
 25
210.0
 35
0.0
146
0.0
 13
0.0
 23
0.0
 33
0.0
 16
1.0
 26
0.0
 36
0.0
 17
0.0
 27
1.0
 37
0.0
 76
     0
330
1F
  0
MLINESTYLE
  5
18
102
{ACAD_REACTORS
330
17
102
}
330
17
100
AcDbMlineStyle
  2
Standard
 70
     0
  3

 62
   256
 51
90.0
 52
90.0
 71
     2
 49
0.5
 62
   256
  6
BYLAYER
 49
-0.5
 62
   256
  6
BYLAYER
  0
ACDBPLACEHOLDER
  5
F
102
{ACAD_REACTORS
330
E
102
}
330
E
  0
ENDSEC
  0
EOF
