  0
SECTION
  2
HEADER
  9
$ACADVER
  1
AC1014
  9
$ACADMAINTVER
 70
           0
  9
$DWGCODEPAGE
  3
DOS932
  9
$INSBASE
 10
0.0
 20
0.0
 30
0.0
  9
$EXTMIN
 10
1.000000000000E+20
 20
1.000000000000E+20
 30
1.000000000000E+20
  9
$EXTMAX
 10
-1.000000000000E+20
 20
-1.000000000000E+20
 30
-1.000000000000E+20
  9
$LIMMIN
 10
0.0
 20
0.0
  9
$LIMMAX
 10
0.0
 20
0.0
  9
$ORTHOMODE
 70
           0
  9
$REGENMODE
 70
           1
  9
$FILLMODE
 70
           1
  9
$QTEXTMODE
 70
           0
  9
$MIRRTEXT
 70
           1
  9
$DRAGMODE
 70
           2
  9
$LTSCALE
 40
1.0
  9
$OSMODE
 70
           0
  9
$ATTMODE
 70
           1
  9
$TEXTSIZE
 40
0.2
  9
$TRACEWID
 40
0.05
  9
$TEXTSTYLE
  7
STANDARD
  9
$CLAYER
  8
0
  9
$CELTYPE
  6
CONTINUOUS
  9
$CECOLOR
 62
         256
  9
$CELTSCALE
 40
1.0
  9
$DELOBJ
 70
           1
  9
$DISPSILH
 70
           0
  9
$DIMSCALE
 40
1.0
  9
$DIMASZ
 40
0.18
  9
$DIMEXO
 40
0.0625
  9
$DIMDLI
 40
0.38
  9
$DIMRND
 40
0.0
  9
$DIMDLE
 40
0.0
  9
$DIMEXE
 40
0.18
  9
$DIMTP
 40
0.0
  9
$DIMTM
 40
0.0
  9
$DIMTXT
 40
0.18
  9
$DIMCEN
 40
0.09
  9
$DIMTSZ
 40
0.0
  9
$DIMTOL
 70
           0
  9
$DIMLIM
 70
           0
  9
$DIMTIH
 70
           1
  9
$DIMTOH
 70
           1
  9
$DIMSE1
 70
           0
  9
$DIMSE2
 70
           0
  9
$DIMTAD
 70
           0
  9
$DIMZIN
 70
           0
  9
$DIMBLK
  1

  9
$DIMASO
 70
           1
  9
$DIMSHO
 70
           1
  9
$DIMPOST
  1

  9
$DIMAPOST
  1

  9
$DIMALT
 70
           0
  9
$DIMALTD
 70
           2
  9
$DIMALTF
 40
25.4
  9
$DIMLFAC
 40
1.0
  9
$DIMTOFL
 70
           0
  9
$DIMTVP
 40
0.0
  9
$DIMTIX
 70
           0
  9
$DIMSOXD
 70
           0
  9
$DIMSAH
 70
           0
  9
$DIMBLK1
  1

  9
$DIMBLK2
  1

  9
$DIMSTYLE
  2
STANDARD
  9
$DIMCLRD
 70
           0
  9
$DIMCLRE
 70
           0
  9
$DIMCLRT
 70
           0
  9
$DIMTFAC
 40
1.0
  9
$DIMGAP
 40
0.09
  9
$DIMJUST
 70
           0
  9
$DIMSD1
 70
           0
  9
$DIMSD2
 70
           0
  9
$DIMTOLJ
 70
           1
  9
$DIMTZIN
 70
           0
  9
$DIMALTZ
 70
           0
  9
$DIMALTTZ
 70
           0
  9
$DIMFIT
 70
           3
  9
$DIMUPT
 70
           0
  9
$DIMUNIT
 70
           2
  9
$DIMDEC
 70
           4
  9
$DIMTDEC
 70
           4
  9
$DIMALTU
 70
           2
  9
$DIMALTTD
 70
           2
  9
$DIMTXSTY
  7
STANDARD
  9
$DIMAUNIT
 70
           0
  9
$LUNITS
 70
           2
  9
$LUPREC
 70
           4
  9
$SKETCHINC
 40
0.1
  9
$FILLETRAD
 40
0.0
  9
$AUNITS
 70
           0
  9
$AUPREC
 70
           0
  9
$MENU
  1
acad
  9
$ELEVATION
 40
0.0
  9
$PELEVATION
 40
0.0
  9
$THICKNESS
 40
0.0
  9
$LIMCHECK
 70
           0
  9
$BLIPMODE
 70
           1
  9
$CHAMFERA
 40
0.0
  9
$CHAMFERB
 40
0.0
  9
$CHAMFERC
 40
0.0
  9
$CHAMFERD
 40
0.0
  9
$SKPOLY
 70
           0
  9
$TDCREATE
 40
0.000000000
  9
$TDUPDATE
 40
0.000000000
  9
$TDINDWG
 40
0.0000000000
  9
$TDUSRTIMER
 40
0.0000000000
  9
$USRTIMER
 70
           1
  9
$ANGBASE
 50
0.0
  9
$ANGDIR
 70
           0
  9
$PDMODE
 70
           0
  9
$PDSIZE
 40
0.0
  9
$PLINEWID
 40
0.0
  9
$COORDS
 70
           0
  9
$SPLFRAME
 70
           0
  9
$SPLINETYPE
 70
           6
  9
$SPLINESEGS
 70
           8
  9
$ATTDIA
 70
           0
  9
$ATTREQ
 70
           1
  9
$HANDLING
 70
           1
  9
$HANDSEED
  5
4BD
  9
$SURFTAB1
 70
           6
  9
$SURFTAB2
 70
           6
  9
$SURFTYPE
 70
           6
  9
$SURFU
 70
           6
  9
$SURFV
 70
           6
  9
$UCSNAME
  2

  9
$UCSORG
 10
0.0
 20
0.0
 30
0.0
  9
$UCSXDIR
 10
1.0
 20
0.0
 30
0.0
  9
$UCSYDIR
 10
0.0
 20
1.0
 30
0.0
  9
$PUCSNAME
  2

  9
$PUCSORG
 10
0.0
 20
0.0
 30
0.0
  9
$PUCSXDIR
 10
1.0
 20
0.0
 30
0.0
  9
$PUCSYDIR
 10
0.0
 20
1.0
 30
0.0
  9
$USERI1
 70
           0
  9
$USERI2
 70
           0
  9
$USERI3
 70
           0
  9
$USERI4
 70
           0
  9
$USERI5
 70
           0
  9
$USERR1
 40
0.0
  9
$USERR2
 40
0.0
  9
$USERR3
 40
0.0
  9
$USERR4
 40
0.0
  9
$USERR5
 40
0.0
  9
$WORLDVIEW
 70
           1
  9
$SHADEDGE
 70
           3
  9
$SHADEDIF
 70
          70
  9
$TILEMODE
 70
           1
  9
$MAXACTVP
 70
          16
  9
$PINSBASE
 10
0.0
 20
0.0
 30
0.0
  9
$PLIMCHECK
 70
           0
  9
$PEXTMIN
 10
1.000000000000E+20
 20
1.000000000000E+20
 30
1.000000000000E+20
  9
$PEXTMAX
 10
-1.000000000000E+20
 20
-1.000000000000E+20
 30
-1.000000000000E+20
  9
$PLIMMIN
 10
0.0
 20
0.0
  9
$PLIMMAX
 10
12.0
 20
9.0
  9
$UNITMODE
 70
           0
  9
$VISRETAIN
 70
           0
  9
$PLINEGEN
 70
           1
  9
$PSLTSCALE
 70
           0
  9
$TREEDEPTH
 70
        3020
  9
$PICKSTYLE
 70
           1
  9
$CMLSTYLE
  2
STANDARD
  9
$CMLJUST
 70
           0
  9
$CMLSCALE
 40
1.0
  9
$PROXYGRAPHICS
 70
           0
  9
$MEASUREMENT
 70
           0
  0
ENDSEC
  0
SECTION
  2
CLASSES
  0
CLASS
  1
LWPOLYLINE
  2
AcDbPolyline
  3
"AutoCAD"
 90
        0
280
           0
281
           1
  0
CLASS
  1
IMAGE
  2
AcDbRasterImage
  3
ISM
 90
      127
280
           0
281
           1
  0
CLASS
  1
OLE2FRAME
  2
AcDbOle2Frame
  3
""
 90
        0
280
           0
281
           1
  0
CLASS
  1
HATCH
  2
AcDbHatch
  3
"ACAD_SEDONA"
 90
        0
280
           0
281
           1
  0
CLASS
  1
DICTIONARYVAR
  2
AcDbDictionaryVar
  3
"AutoCAD"
 90
        0
280
           0
281
           0
  0
CLASS
  1
RASTERVARIABLES
  2
AcDbRasterVariables
  3
ISM
 90
        0
280
           0
281
           0
  0
CLASS
  1
IMAGEDEF
  2
AcDbRasterImageDef
  3
ISM
 90
        0
280
           0
281
           0
  0
CLASS
  1
IMAGEDEF_REACTOR
  2
AcDbRasterImageDefReactor
  3
ISM
 90
        1
280
           0
281
           0
  0
CLASS
  1
IDBUFFER
  2
AcDbIdBuffer
  3
"Acad"
 90
        0
280
           0
281
           0
  0
CLASS
  1
SPATIAL_FILTER
  2
AcDbSpatialFilter
  3
"Acad"
 90
        0
280
           0
281
           0
  0
CLASS
  1
XRECORD
  2
AcDbXrecord
  3
"<Built In>"
 90
        0
280
           0
281
           0
  0
CLASS
  1
SORTENTSTABLE
  2
AcDbSortentsTable
  3
"AutoCAD"
 90
        0
280
           0
281
           0
  0
CLASS
  1
LAYER_INDEX
  2
AcDbLayerIndex
  3
"Acad"
 90
        0
280
           0
281
           0
  0
CLASS
  1
SPATIAL_INDEX
  2
AcDbSpatialIndex
  3
"Acad"
 90
        0
280
           0
281
           0
  0
CLASS
  1
OBJECT_PTR
  2
CAseDLPNTableRecord
  3
"ASE-LPNTableRecord"
 90
        1
280
           0
281
           0
  0
CLASS
  1
LAYOUT
  2
AcDbLayout
  3
"AutoCAD 2000"
 90
        1
280
           0
281
           0
  0
CLASS
  1
PLOTSETTINGS
  2
AcDbPlotSettings
  3
"AutoCAD 2000"
 90
        1
280
           0
281
           0
  0
CLASS
  1
ACDBDICTIONARYWDFLT
  2
AcDbDictionaryWithDefault
  3
"AutoCAD 2000"
 90
        1
280
           0
281
           0
  0
CLASS
  1
ACDBPLACEHOLDER
  2
AcDbPlaceHolder
  3
"AutoCAD 2000"
 90
        1
280
           0
281
           0
  0
CLASS
  1
VBA_PROJECT
  2
AcDbVbaProject
  3
"acadvba"
 90
        1
280
           0
281
           0
  0
CLASS
  1
WIPEOUT
  2
AcDbWipeout
  3
WipeOut|AutoCAD Express Tool|expresstools@autodesk.com
 90
      127
280
           0
281
           1
  0
CLASS
  1
WIPEOUTVARIABLES
  2
AcDbWipeoutVariables
  3
WipeOut|AutoCAD Express Tool|expresstools@autodesk.com
 90
        0
280
           0
281
           0
  0
CLASS
  1
RTEXT
  2
RText
  3
RText|AutoCAD Express Tool|expresstools@autodesk.com
 90
        0
280
           0
281
           1
  0
CLASS
  1
ARCALIGNEDTEXT
  2
AcDbArcAlignedText
  3
ATEXT|AutoCAD Express Tool|expresstools@autodesk.com
 90
        0
280
           0
281
           1
  0
ENDSEC
  0
SECTION
  2
TABLES
  0
TABLE
  2
VPORT
  5
7
100
AcDbSymbolTable
 70
           1
  0
VPORT
  5
15
100
AcDbSymbolTableRecord
100
AcDbViewportTableRecord
  2
*ACTIVE
 70
           0
 10
0.0
 20
0.0
 11
1.0
 21
1.0
 12
6.591288
 22
4.579184
 13
0.0
 23
0.0
 14
1.0
 24
1.0
 15
0.0
 25
0.0
 16
0.0
 26
0.0
 36
1.0
 17
0.0
 27
0.0
 37
0.0
 40
9.158369
 41
0.688564
 42
50.0
 43
0.0
 44
0.0
 50
0.0
 51
0.0
 71
           0
 72
         100
 73
           1
 74
           1
 75
           0
 76
           0
 77
           0
 78
           0
  0
ENDTAB
  0
TABLE
  2
LTYPE
  5
4
100
AcDbSymbolTable
 70
          10
  0
LTYPE
  5
11
100
AcDbSymbolTableRecord
100
AcDbLinetypeTableRecord
  2
BYBLOCK
 70
          64
  3

 72
          65
 73
           0
 40
0.0
  0
LTYPE
  5
12
100
AcDbSymbolTableRecord
100
AcDbLinetypeTableRecord
  2
BYLAYER
 70
          64
  3

 72
          65
 73
           0
 40
0.0
  0
LTYPE
  5
13
100
AcDbSymbolTableRecord
100
AcDbLinetypeTableRecord
  2
CONTINUOUS
 70
          64
  3
Solid line
 72
          65
 73
           0
 40
0.0
  0
LTYPE
  5
1D
100
AcDbSymbolTableRecord
100
AcDbLinetypeTableRecord
  2
DASHED
 70
          64
  3
Dashed
 72
          65
 73
           2
 40
15.0
 49
12.0
 74
           0
 49
-3.0
 74
           0
  0
LTYPE
  5
1E
100
AcDbSymbolTableRecord
100
AcDbLinetypeTableRecord
  2
DOTTED
 70
          64
  3
Dotted
 72
          65
 73
           2
 40
3.5
 49
0.5
 74
           0
 49
-3.0
 74
           0
  0
LTYPE
  5
1F
100
AcDbSymbolTableRecord
100
AcDbLinetypeTableRecord
  2
DOT_CENTER
 70
          64
  3
Dot_Center
 72
          65
 73
           4
 40
2.0
 49
1.25
 74
           0
 49
-0.25
 74
           0
 49
0.25
 74
           0
 49
-0.25
 74
           0
  0
LTYPE
  5
20
100
AcDbSymbolTableRecord
100
AcDbLinetypeTableRecord
  2
LONG_DASHED
 70
          64
  3
Long_Dashed
 72
          65
 73
           2
 40
2.0
 49
1.5
 74
           0
 49
-0.5
 74
           0
  0
LTYPE
  5
21
100
AcDbSymbolTableRecord
100
AcDbLinetypeTableRecord
  2
DASH_CENTER
 70
          64
  3
Dash_Center
 72
          65
 73
           4
 40
36.0
 49
24.0
 74
           0
 49
-3.0
 74
           0
 49
6.0
 74
           0
 49
-3.0
 74
           0
  0
LTYPE
  5
22
100
AcDbSymbolTableRecord
100
AcDbLinetypeTableRecord
  2
PHANTOM
 70
          64
  3
Phantom
 72
          65
 73
           6
 40
2.5
 49
1.25
 74
           0
 49
-0.25
 74
           0
 49
0.25
 74
           0
 49
-0.25
 74
           0
 49
0.25
 74
           0
 49
-0.25
 74
           0
  0
LTYPE
  5
23
100
AcDbSymbolTableRecord
100
AcDbLinetypeTableRecord
  2
CENTER_DASH_DASH
 70
          64
  3
Center_Dash_Dash
 72
          65
 73
           6
 40
22.0
 49
12.0
 74
           0
 49
-3.0
 74
           0
 49
0.5
 74
           0
 49
-3.0
 74
           0
 49
0.5
 74
           0
 49
-3.0
 74
           0
  0
ENDTAB
  0
TABLE
  2
LAYER
  5
2
100
AcDbSymbolTable
 70
           2
  0
LAYER
  5
14
100
AcDbSymbolTableRecord
100
AcDbLayerTableRecord
  2
0
 70
           0
 62
           7
  6
CONTINUOUS
  0
LAYER
  5
24
100
AcDbSymbolTableRecord
100
AcDbLayerTableRecord
  2
1
 70
           0
 62
           7
  6
CONTINUOUS
  0
ENDTAB
  0
TABLE
  2
STYLE
  5
3
100
AcDbSymbolTable
 70
           1
  0
STYLE
  5
17
100
AcDbSymbolTableRecord
100
AcDbTextStyleTableRecord
  2
STANDARD
 70
           0
 40
0.0
 41
1.0
 50
0.0
 71
           0
 42
0.0
  3
txt
  4

  0
ENDTAB
  0
TABLE
  2
VIEW
  5
5
100
AcDbSymbolTable
 70
           0
  0
ENDTAB
  0
TABLE
  2
UCS
  5
6
100
AcDbSymbolTable
 70
           0
  0
ENDTAB
  0
TABLE
  2
APPID
  5
8
100
AcDbSymbolTable
 70
           1
  0
APPID
  5
16
100
AcDbSymbolTableRecord
100
AcDbRegAppTableRecord
  2
ACAD
 70
           0
  0
ENDTAB
  0
TABLE
  2
DIMSTYLE
  5
9
100
AcDbSymbolTable
 70
           1
  0
DIMSTYLE
105
18
100
AcDbSymbolTableRecord
100
AcDbDimStyleTableRecord
  2
STANDARD
 70
           0
  3

  4

  5

  6

  7

 40
1.0
 41
0.18
 42
0.0625
 43
0.38
 44
0.18
 45
0.0
 46
0.0
 47
0.0
 48
0.0
 71
           0
 72
           0
 73
           1
 74
           1
 75
           0
 76
           0
 77
           0
 78
           0
140
0.18
141
0.09
142
0.0
143
25.4
144
1.0
145
0.0
146
1.0
147
0.09
170
           0
171
           2
172
           0
173
           0
174
           0
175
           0
176
           0
177
           0
178
           0
270
           2
271
           4
272
           4
273
           2
274
           2
275
           0
280
           0
281
           0
282
           0
283
           1
284
           0
285
           0
286
           0
287
           0
288
           0
340
17
  0
ENDTAB
  0
TABLE
  2
BLOCK_RECORD
  5
1
100
AcDbSymbolTable
 70
           0
  0
BLOCK_RECORD
  5
A
100
AcDbSymbolTableRecord
100
AcDbBlockTableRecord
  2
*MODEL_SPACE
  0
BLOCK_RECORD
  5
B
100
AcDbSymbolTableRecord
100
AcDbBlockTableRecord
  2
*PAPER_SPACE
  0
ENDTAB
  0
ENDSEC
  0
SECTION
  2
BLOCKS
  0
BLOCK
  5
D
100
AcDbEntity
  8
0
100
AcDbBlockBegin
  2
*MODEL_SPACE
 70
           0
 10
0.0
 20
0.0
 30
0.0
  3
*MODEL_SPACE
  1

  0
ENDBLK
  5
E
100
AcDbEntity
  8
0
100
AcDbBlockEnd
  0
BLOCK
  5
F
100
AcDbEntity
 67
           1
  8
0
100
AcDbBlockBegin
  2
*PAPER_SPACE
 70
           0
 10
0.0
 20
0.0
 30
0.0
  3
*PAPER_SPACE
  1

  0
ENDBLK
  5
10
100
AcDbEntity
 67
           1
  8
0
100
AcDbBlockEnd
  0
ENDSEC
  0
SECTION
  2
ENTITIES
  0
HATCH
  5
4BB
100
AcDbEntity
  8
0
  6
CONTINUOUS
 62
           3
100
AcDbHatch
 10
0.0
 20
0.0
 30
0.0
210
0.0
220
0.0
230
1.0
  2
USER
 70
           0
 71
           1
 91
        1
 92
        1
 93
        4
 72
           1
 10
1174.741880364279
 20
-1549.0685667142529
 11
1424.741880364279
 21
-1549.0685667142529
 72
           1
 10
1174.741880364279
 20
-1549.0685667142529
 11
1174.7418803642811
 21
-1799.0685667142529
 72
           1
 10
1424.741880364279
 20
-1799.0685667142529
 11
1174.7418803642811
 21
-1799.0685667142529
 72
           1
 10
1424.741880364279
 20
-1549.0685667142529
 11
1424.741880364279
 21
-1799.0685667142529
 97
        4
330
2A4
330
2A1
330
2A2
330
2A3
 75
           1
 76
           0
 52
45.0
 41
20.0
 77
           0
 78
           2
 53
135.0
 43
0.0
 44
0.0
 45
-14.142135623730946
 46
-14.142135623730956
 79
           0
 53
45.0
 43
0.0
 44
0.0
 45
-14.142135623730949
 46
14.142135623730951
 79
           0
 98
        1
 10
0.0
 20
0.0
  0
ARC
  5
4BA
100
AcDbEntity
  8
1
  6
CONTINUOUS
 62
           2
100
AcDbCircle
 10
1172.741880364279
 20
-1354.068566714251
 40
3.0
100
AcDbArc
 50
180.0
 51
-90.0
  0
ARC
  5
4B9
100
AcDbEntity
  8
1
  6
CONTINUOUS
 62
           2
100
AcDbCircle
 10
1193.741880364279
 20
-1360.068566714251
 40
3.0
100
AcDbArc
 50
0.0
 51
90.0
  0
ARC
  5
4B8
100
AcDbEntity
  8
1
  6
CONTINUOUS
 62
           2
100
AcDbCircle
 10
1199.741880364279
 20
-1381.068566714251
 40
3.0
100
AcDbArc
 50
180.0
 51
-90.0
  0
ARC
  5
4B7
100
AcDbEntity
  8
1
  6
CONTINUOUS
 62
           2
100
AcDbCircle
 10
1399.741880364279
 20
-1381.068566714251
 40
3.0
100
AcDbArc
 50
-90.0
 51
0.0
  0
ARC
  5
4B6
100
AcDbEntity
  8
1
  6
CONTINUOUS
 62
           2
100
AcDbCircle
 10
1405.741880364279
 20
-1360.068566714251
 40
3.0
100
AcDbArc
 50
90.0
 51
180.0
  0
ARC
  5
4B5
100
AcDbEntity
  8
1
  6
CONTINUOUS
 62
           2
100
AcDbCircle
 10
1426.741880364279
 20
-1354.068566714251
 40
3.0
100
AcDbArc
 50
-90.0
 51
0.0
  0
ARC
  5
4B4
100
AcDbEntity
  8
1
  6
CONTINUOUS
 62
           2
100
AcDbCircle
 10
1172.741880364279
 20
-1354.068566714251
 40
3.0
100
AcDbArc
 50
90.0
 51
180.0
  0
ARC
  5
4B3
100
AcDbEntity
  8
1
  6
CONTINUOUS
 62
           2
100
AcDbCircle
 10
1193.741880364279
 20
-1348.068566714251
 40
3.0
100
AcDbArc
 50
-90.0
 51
0.0
  0
ARC
  5
4B2
100
AcDbEntity
  8
1
  6
CONTINUOUS
 62
           2
100
AcDbCircle
 10
1199.741880364279
 20
-1327.068566714251
 40
3.0
100
AcDbArc
 50
90.0
 51
180.0
  0
ARC
  5
4B1
100
AcDbEntity
  8
1
  6
CONTINUOUS
 62
           2
100
AcDbCircle
 10
1399.741880364279
 20
-1327.068566714251
 40
3.0
100
AcDbArc
 50
0.0
 51
90.0
  0
ARC
  5
4B0
100
AcDbEntity
  8
1
  6
CONTINUOUS
 62
           2
100
AcDbCircle
 10
1405.741880364279
 20
-1348.068566714251
 40
3.0
100
AcDbArc
 50
180.0
 51
-90.0
  0
ARC
  5
4AF
100
AcDbEntity
  8
1
  6
CONTINUOUS
 62
           2
100
AcDbCircle
 10
1426.741880364279
 20
-1354.068566714251
 40
3.0
100
AcDbArc
 50
0.0
 51
90.0
  0
ARC
  5
4AE
100
AcDbEntity
  8
1
  6
CONTINUOUS
 62
           2
100
AcDbCircle
 10
-2135.549860468994
 20
-1969.068566714254
 40
5.0
100
AcDbArc
 50
0.0
 51
90.0
  0
ARC
  5
4AD
100
AcDbEntity
  8
1
  6
CONTINUOUS
 62
           2
100
AcDbCircle
 10
-2135.549860468994
 20
-2034.068566714254
 40
5.0
100
AcDbArc
 50
-90.0
 51
0.0
  0
ARC
  5
4AC
100
AcDbEntity
  8
1
  6
CONTINUOUS
 62
           3
100
AcDbCircle
 10
-2135.549860468994
 20
-1969.068566714254
 40
3.400000000001
100
AcDbArc
 50
0.0
 51
90.0
  0
ARC
  5
4AB
100
AcDbEntity
  8
1
  6
CONTINUOUS
 62
           3
100
AcDbCircle
 10
-2135.549860468994
 20
-2034.068566714254
 40
3.4
100
AcDbArc
 50
-90.0
 51
0.0
  0
ARC
  5
4AA
100
AcDbEntity
  8
1
  6
CONTINUOUS
 62
           3
100
AcDbCircle
 10
-1821.849860468994
 20
-1792.568566714254
 40
4.0
100
AcDbArc
 50
90.0
 51
180.0
  0
ARC
  5
4A9
100
AcDbEntity
  8
1
  6
CONTINUOUS
 62
           3
100
AcDbCircle
 10
-1742.249860468994
 20
-1792.568566714254
 40
4.0
100
AcDbArc
 50
0.0
 51
90.0
  0
ARC
  5
4A8
100
AcDbEntity
  8
1
  6
CONTINUOUS
 62
           3
100
AcDbCircle
 10
-1737.549860468994
 20
-1787.868566714254
 40
5.0
100
AcDbArc
 50
0.0
 51
90.0
  0
ARC
  5
4A7
100
AcDbEntity
  8
1
  6
CONTINUOUS
 62
           3
100
AcDbCircle
 10
-1826.549860468994
 20
-1787.868566714254
 40
5.0
100
AcDbArc
 50
90.0
 51
180.0
  0
ARC
  5
4A6
100
AcDbEntity
  8
1
  6
CONTINUOUS
 62
           2
100
AcDbCircle
 10
-1737.549860468994
 20
1242.793290395413
 40
5.0
100
AcDbArc
 50
0.0
 51
90.0
  0
ARC
  5
4A5
100
AcDbEntity
  8
1
  6
CONTINUOUS
 62
           3
100
AcDbCircle
 10
-1743.249860468994
 20
1236.714547131963
 40
5.0
100
AcDbArc
 50
0.0
 51
90.0
  0
ARC
  5
4A4
100
AcDbEntity
  8
1
  6
CONTINUOUS
 62
           3
100
AcDbCircle
 10
-1820.849860468994
 20
1236.714547131963
 40
5.0
100
AcDbArc
 50
90.0
 51
180.0
  0
ARC
  5
4A3
100
AcDbEntity
  8
1
  6
CONTINUOUS
 62
           2
100
AcDbCircle
 10
-1826.549860468994
 20
1242.793290395413
 40
5.0
100
AcDbArc
 50
90.0
 51
180.0
  0
ARC
  5
4A2
100
AcDbEntity
  8
1
  6
CONTINUOUS
 62
           2
100
AcDbCircle
 10
-1826.549860468994
 20
1171.909978434883
 40
5.0
100
AcDbArc
 50
180.0
 51
-90.0
  0
ARC
  5
4A1
100
AcDbEntity
  8
1
  6
CONTINUOUS
 62
           3
100
AcDbCircle
 10
-1820.849860468994
 20
1174.889140221823
 40
5.0
100
AcDbArc
 50
180.0
 51
-90.0
  0
ARC
  5
4A0
100
AcDbEntity
  8
1
  6
CONTINUOUS
 62
           3
100
AcDbCircle
 10
-1743.249860468994
 20
1174.889140221823
 40
5.0
100
AcDbArc
 50
-90.0
 51
0.0
  0
ARC
  5
49F
100
AcDbEntity
  8
1
  6
CONTINUOUS
 62
           2
100
AcDbCircle
 10
-1737.549860468994
 20
1171.909978434883
 40
5.0
100
AcDbArc
 50
-90.0
 51
0.0
  0
ARC
  5
49E
100
AcDbEntity
  8
1
  6
PHANTOM
 62
           3
100
AcDbCircle
 10
-389.257594897576
 20
-2926.36804197611
 40
4.0
100
AcDbArc
 50
179.999999999987
 51
-129.997138764908
  0
ARC
  5
49D
100
AcDbEntity
  8
1
  6
PHANTOM
 62
           3
100
AcDbCircle
 10
-424.258644373864
 20
-2926.36804197611
 40
4.0
100
AcDbArc
 50
-90.000000000013
 51
0.000000000013
  0
ARC
  5
49C
100
AcDbEntity
  8
1
  6
PHANTOM
 62
           3
100
AcDbCircle
 10
-319.50811963572
 20
-2897.368566714253
 40
3.000000000002
100
AcDbArc
 50
90.0
 51
179.999999999956
  0
ARC
  5
49B
100
AcDbEntity
  8
1
  6
PHANTOM
 62
           3
100
AcDbCircle
 10
-290.00811963572
 20
-2897.368566714253
 40
3.0
100
AcDbArc
 50
0.0
 51
90.0
  0
ARC
  5
49A
100
AcDbEntity
  8
1
  6
PHANTOM
 62
           3
100
AcDbCircle
 10
-328.75811963572
 20
-2727.618566714251
 40
3.000000000001
100
AcDbArc
 50
180.0
 51
-90.000000000017
  0
ARC
  5
499
100
AcDbEntity
  8
1
  6
PHANTOM
 62
           3
100
AcDbCircle
 10
-328.75811963572
 20
-2753.618566714251
 40
3.0
100
AcDbArc
 50
90.0
 51
180.0
  0
ARC
  5
498
100
AcDbEntity
  8
1
  6
PHANTOM
 62
           3
100
AcDbCircle
 10
-381.758119635721
 20
-2769.730911922282
 40
5.0
100
AcDbArc
 50
180.0
 51
-91.30195267258
  0
ARC
  5
497
100
AcDbEntity
  8
1
  6
PHANTOM
 62
           3
100
AcDbCircle
 10
-381.75811963572
 20
-2715.506221506222
 40
5.000000000001
100
AcDbArc
 50
91.30195267259
 51
180.0
  0
ARC
  5
496
100
AcDbEntity
  8
1
  6
PHANTOM
 62
           3
100
AcDbCircle
 10
-389.257594897576
 20
-2926.36804197611
 40
4.0
100
AcDbArc
 50
-129.997138764908
 51
-90.0
  0
ARC
  5
495
100
AcDbEntity
  8
1
  6
PHANTOM
 62
           3
100
AcDbCircle
 10
-242.75811963572
 20
-2952.868566714251
 40
3.0
100
AcDbArc
 50
0.0
 51
90.0
  0
ARC
  5
494
100
AcDbEntity
  8
1
  6
PHANTOM
 62
           3
100
AcDbCircle
 10
-261.75811963572
 20
-2946.868566714251
 40
3.0
100
AcDbArc
 50
180.0
 51
-90.0
  0
ARC
  5
493
100
AcDbEntity
  8
1
  6
PHANTOM
 62
           3
100
AcDbCircle
 10
-236.75811963572
 20
-2971.868566714251
 40
3.0
100
AcDbArc
 50
180.0
 51
-90.0
  0
ARC
  5
492
100
AcDbEntity
  8
1
  6
PHANTOM
 62
           3
100
AcDbCircle
 10
-129.25811963572
 20
-2910.408723379831
 40
5.0
100
AcDbArc
 50
0.0
 51
90.0
  0
ARC
  5
491
100
AcDbEntity
  8
1
  6
PHANTOM
 62
           3
100
AcDbCircle
 10
-129.25811963572
 20
-2910.408723379831
 40
10.0
100
AcDbArc
 50
0.0
 51
90.0
  0
ARC
  5
490
100
AcDbEntity
  8
1
  6
CONTINUOUS
 62
           3
100
AcDbCircle
 10
-2923.302563047386
 20
-2414.068566714253
 40
5.0
100
AcDbArc
 50
-90.0
 51
0.0
  0
ARC
  5
48F
100
AcDbEntity
  8
1
  6
CONTINUOUS
 62
           3
100
AcDbCircle
 10
-2923.302563047386
 20
-2404.068566714253
 40
5.0
100
AcDbArc
 50
0.0
 51
90.0
  0
CIRCLE
  5
48E
100
AcDbEntity
  8
1
  6
PHANTOM
 62
           3
100
AcDbCircle
 10
-1930.549860468994
 20
-2989.868566714251
 40
46.0
  0
CIRCLE
  5
48D
100
AcDbEntity
  8
1
  6
PHANTOM
 62
           3
100
AcDbCircle
 10
-2112.549860468994
 20
-2658.868566714251
 40
37.0
  0
CIRCLE
  5
48C
100
AcDbEntity
  8
1
  6
PHANTOM
 62
           3
100
AcDbCircle
 10
-2112.549860468994
 20
-2658.868566714251
 40
42.0
  0
CIRCLE
  5
48B
100
AcDbEntity
  8
1
  6
PHANTOM
 62
           3
100
AcDbCircle
 10
299.741880364279
 20
-1849.068566714254
 40
82.0
  0
CIRCLE
  5
48A
100
AcDbEntity
  8
1
  6
PHANTOM
 62
           3
100
AcDbCircle
 10
789.741880364279
 20
-1674.068566714254
 40
50.0
  0
CIRCLE
  5
489
100
AcDbEntity
  8
1
  6
CONTINUOUS
 62
           2
100
AcDbCircle
 10
-2380.549860468994
 20
1801.910003339182
 40
25.0
  0
CIRCLE
  5
488
100
AcDbEntity
  8
1
  6
CONTINUOUS
 62
           3
100
AcDbCircle
 10
-3182.549860468994
 20
-2409.068566714253
 40
4.464352242048
  0
ARC
  5
487
100
AcDbEntity
  8
1
  6
PHANTOM
 62
           3
100
AcDbCircle
 10
-2112.549860468994
 20
-2834.36856671425
 40
12.0
100
AcDbArc
 50
90.0
 51
-90.0
  0
ARC
  5
486
100
AcDbEntity
  8
1
  6
CONTINUOUS
 62
           3
100
AcDbCircle
 10
-4332.549860468993
 20
448.910003339182
 40
5.499999999999
100
AcDbArc
 50
-40.165348630532
 51
-90.0
  0
ARC
  5
485
100
AcDbEntity
  8
1
  6
CONTINUOUS
 62
           3
100
AcDbCircle
 10
-4332.549860468993
 20
448.910003339182
 40
9.999999999999
100
AcDbArc
 50
-33.367012969234
 51
-90.0
  0
ARC
  5
484
100
AcDbEntity
  8
1
  6
CONTINUOUS
 62
           3
100
AcDbCircle
 10
-2280.549860468994
 20
448.910003339182
 40
5.5
100
AcDbArc
 50
-90.0
 51
-139.834651369461
  0
ARC
  5
483
100
AcDbEntity
  8
1
  6
CONTINUOUS
 62
           3
100
AcDbCircle
 10
-2280.549860468994
 20
448.910003339182
 40
10.0
100
AcDbArc
 50
-90.0
 51
-146.632987030765
  0
ARC
  5
482
100
AcDbEntity
  8
1
  6
PHANTOM
 62
           3
100
AcDbCircle
 10
-2280.549860468994
 20
448.910003339182
 40
1027.0
100
AcDbArc
 50
-90.0
 51
-52.454548502313
  0
ARC
  5
481
100
AcDbEntity
  8
1
  6
PHANTOM
 62
           3
100
AcDbCircle
 10
-2280.549860468994
 20
448.910003339182
 40
1027.0
100
AcDbArc
 50
180.0
 51
-90.0
  0
ARC
  5
480
100
AcDbEntity
  8
1
  6
PHANTOM
 62
           3
100
AcDbCircle
 10
-4334.549860468995
 20
448.910003339182
 40
1027.0
100
AcDbArc
 50
-90.0
 51
0.0
  0
ARC
  5
47F
100
AcDbEntity
  8
1
  6
PHANTOM
 62
           3
100
AcDbCircle
 10
-4334.549860468995
 20
448.910003339182
 40
1026.999999999999
100
AcDbArc
 50
-127.545451497686
 51
-90.0
  0
ARC
  5
47E
100
AcDbEntity
  8
1
  6
PHANTOM
 62
           3
100
AcDbCircle
 10
-189.25811963572
 20
-2817.368566714251
 40
60.0
100
AcDbArc
 50
-98.626926558678
 51
0.0
  0
ARC
  5
47D
100
AcDbEntity
  8
1
  6
PHANTOM
 62
           3
100
AcDbCircle
 10
-189.25811963572
 20
-2817.368566714251
 40
60.0
100
AcDbArc
 50
-122.230952635502
 51
-98.626926558678
  0
ARC
  5
47C
100
AcDbEntity
  8
1
  6
PHANTOM
 62
           3
100
AcDbCircle
 10
-189.25811963572
 20
-2817.368566714251
 40
59.999999999999
100
AcDbArc
 50
180.0
 51
-122.230952635502
  0
ARC
  5
47B
100
AcDbEntity
  8
1
  6
PHANTOM
 62
           3
100
AcDbCircle
 10
-189.25811963572
 20
-2817.368566714251
 40
60.0
100
AcDbArc
 50
-98.626926558678
 51
0.0
  0
ARC
  5
47A
100
AcDbEntity
  8
1
  6
PHANTOM
 62
           3
100
AcDbCircle
 10
-189.25811963572
 20
-2817.368566714251
 40
60.0
100
AcDbArc
 50
122.230952635502
 51
180.0
  0
ARC
  5
479
100
AcDbEntity
  8
1
  6
PHANTOM
 62
           3
100
AcDbCircle
 10
-405.184233631139
 20
-2836.868566714251
 40
11.607201090505
100
AcDbArc
 50
97.793064982077
 51
-97.793064982075
  0
ARC
  5
478
100
AcDbEntity
  8
1
  6
PHANTOM
 62
           3
100
AcDbCircle
 10
-312.75811963572
 20
-2950.872642403863
 40
4.997555649874
100
AcDbArc
 50
-143.167483801598
 51
-36.832516198402
  0
ARC
  5
477
100
AcDbEntity
  8
1
  6
PHANTOM
 62
           3
100
AcDbCircle
 10
-296.75811963572
 20
-2950.872642403863
 40
4.997555649873
100
AcDbArc
 50
-143.167483801625
 51
-36.832516198381
  0
ARC
  5
476
100
AcDbEntity
  8
1
  6
PHANTOM
 62
           3
100
AcDbCircle
 10
-257.755924938357
 20
-2944.868566714253
 40
7.5
100
AcDbArc
 50
90.0
 51
-90.0
  0
ARC
  5
475
100
AcDbEntity
  8
1
  6
PHANTOM
 62
           3
100
AcDbCircle
 10
-257.755924938357
 20
-2944.868566714253
 40
7.5
100
AcDbArc
 50
-90.0
 51
-41.810314895781
  0
ARC
  5
474
100
AcDbEntity
  8
1
  6
PHANTOM
 62
           3
100
AcDbCircle
 10
-276.25811963572
 20
-2989.868566714253
 40
9.5
100
AcDbArc
 50
180.0
 51
0.000000000014
  0
ARC
  5
473
100
AcDbEntity
  8
1
  6
PHANTOM
 62
           3
100
AcDbCircle
 10
-376.75811963572
 20
-2888.868566714251
 40
2.999999999998
100
AcDbArc
 50
90.0
 51
180.0
  0
ARC
  5
472
100
AcDbEntity
  8
1
  6
DOT_CENTER
 62
           3
100
AcDbCircle
 10
-376.75811963572
 20
-2888.868566714251
 40
7.999999999998
100
AcDbArc
 50
90.0
 51
180.0
  0
ARC
  5
471
100
AcDbEntity
  8
1
  6
PHANTOM
 62
           3
100
AcDbCircle
 10
-376.75811963572
 20
-2888.868566714251
 40
13.0
100
AcDbArc
 50
90.000000000004
 51
180.0
  0
ARC
  5
470
100
AcDbEntity
  8
1
  6
PHANTOM
 62
           3
100
AcDbCircle
 10
-284.25811963572
 20
-2888.868566714253
 40
3.0
100
AcDbArc
 50
0.0
 51
90.000000000017
  0
ARC
  5
46F
100
AcDbEntity
  8
1
  6
DOT_CENTER
 62
           3
100
AcDbCircle
 10
-284.25811963572
 20
-2888.868566714253
 40
7.999999999999
100
AcDbArc
 50
0.000000000016
 51
90.0
  0
ARC
  5
46E
100
AcDbEntity
  8
1
  6
PHANTOM
 62
           3
100
AcDbCircle
 10
-284.25811963572
 20
-2888.868566714253
 40
12.999999999999
100
AcDbArc
 50
0.00000000001
 51
90.000000000004
  0
ARC
  5
46D
100
AcDbEntity
  8
1
  6
PHANTOM
 62
           3
100
AcDbCircle
 10
-257.755924938357
 20
-2944.868566714253
 40
7.5
100
AcDbArc
 50
0.0
 51
90.0
  0
ARC
  5
46C
100
AcDbEntity
  8
1
  6
PHANTOM
 62
           3
100
AcDbCircle
 10
-257.755924938357
 20
-2944.868566714253
 40
7.5
100
AcDbArc
 50
-41.810314895781
 51
0.0
  0
ARC
  5
46B
100
AcDbEntity
  8
1
  6
PHANTOM
 62
           3
100
AcDbCircle
 10
-257.755924938357
 20
-2944.868566714253
 40
5.696404625772
100
AcDbArc
 50
0.000000000023
 51
179.999999999977
  0
ARC
  5
46A
100
AcDbEntity
  8
1
  6
PHANTOM
 62
           3
100
AcDbCircle
 10
-257.755924938357
 20
-2944.868566714253
 40
5.696404625774
100
AcDbArc
 50
179.999999999977
 51
-115.720207600238
  0
ARC
  5
469
100
AcDbEntity
  8
1
  6
PHANTOM
 62
           3
100
AcDbCircle
 10
-257.755924938357
 20
-2944.868566714253
 40
5.029124131179
100
AcDbArc
 50
0.0
 51
180.0
  0
ARC
  5
468
100
AcDbEntity
  8
1
  6
PHANTOM
 62
           3
100
AcDbCircle
 10
-257.755924938357
 20
-2944.868566714253
 40
5.029124131179
100
AcDbArc
 50
180.0
 51
0.0
  0
ARC
  5
467
100
AcDbEntity
  8
1
  6
PHANTOM
 62
           3
100
AcDbCircle
 10
-257.755924938357
 20
-2944.868566714253
 40
5.696404625772
100
AcDbArc
 50
-115.720207600238
 51
-61.371724811969
  0
ARC
  5
466
100
AcDbEntity
  8
1
  6
PHANTOM
 62
           3
100
AcDbCircle
 10
-257.755924938357
 20
-2944.868566714253
 40
5.69640462577
100
AcDbArc
 50
-61.371724811969
 51
0.000000000023
  0
ARC
  5
465
100
AcDbEntity
  8
1
  6
PHANTOM
 62
           3
100
AcDbCircle
 10
-204.75811963572
 20
-2959.868566714251
 40
4.0
100
AcDbArc
 50
-90.0
 51
90.0
  0
ARC
  5
464
100
AcDbEntity
  8
1
  6
PHANTOM
 62
           3
100
AcDbCircle
 10
-189.25811963572
 20
-2814.368566714251
 40
110.0
100
AcDbArc
 50
90.0
 51
118.136558786945
  0
ARC
  5
463
100
AcDbEntity
  8
1
  6
PHANTOM
 62
           3
100
AcDbCircle
 10
-159.25811963572
 20
-2814.368566714251
 40
110.0
100
AcDbArc
 50
0.0
 51
77.620350448954
  0
ARC
  5
462
100
AcDbEntity
  8
1
  6
PHANTOM
 62
           3
100
AcDbCircle
 10
-189.25811963572
 20
-2831.060730242347
 40
93.307836471904
100
AcDbArc
 50
-90.0
 51
-52.825916331166
  0
ARC
  5
461
100
AcDbEntity
  8
1
  6
PHANTOM
 62
           3
100
AcDbCircle
 10
-189.25811963572
 20
-2826.060730242347
 40
93.307836471904
100
AcDbArc
 50
-90.0
 51
-52.825916331166
  0
ARC
  5
460
100
AcDbEntity
  8
1
  6
PHANTOM
 62
           3
100
AcDbCircle
 10
-189.25811963572
 20
-2814.368566714251
 40
105.0
100
AcDbArc
 50
90.0
 51
118.774146998027
  0
ARC
  5
45F
100
AcDbEntity
  8
1
  6
PHANTOM
 62
           3
100
AcDbCircle
 10
-159.25811963572
 20
-2814.368566714251
 40
105.0
100
AcDbArc
 50
0.0
 51
71.145230571494
  0
ARC
  5
45E
100
AcDbEntity
  8
1
  6
PHANTOM
 62
           3
100
AcDbCircle
 10
-159.25811963572
 20
-2814.368566714251
 40
104.999999999998
100
AcDbArc
 50
74.802129601451
 51
78.050291104622
  0
ARC
  5
45D
100
AcDbEntity
  8
1
  6
PHANTOM
 62
           3
100
AcDbCircle
 10
-159.25811963572
 20
-2814.368566714251
 40
109.999999999999
100
AcDbArc
 50
82.291479370944
 51
90.0
  0
ARC
  5
45C
100
AcDbEntity
  8
1
  6
PHANTOM
 62
           3
100
AcDbCircle
 10
-189.25811963572
 20
-2814.368566714251
 40
110.0
100
AcDbArc
 50
118.136558786945
 51
154.147739917023
  0
ARC
  5
45B
100
AcDbEntity
  8
1
  6
PHANTOM
 62
           3
100
AcDbCircle
 10
-189.25811963572
 20
-2814.368566714251
 40
104.999999999998
100
AcDbArc
 50
118.774146998027
 51
155.376933525153
  0
ARC
  5
45A
100
AcDbEntity
  8
1
  6
PHANTOM
 62
           3
100
AcDbCircle
 10
-189.25811963572
 20
-2814.368566714251
 40
105.0
100
AcDbArc
 50
155.376933525153
 51
-108.55951093958
  0
ARC
  5
459
100
AcDbEntity
  8
1
  6
PHANTOM
 62
           3
100
AcDbCircle
 10
-189.25811963572
 20
-2814.368566714251
 40
109.999999999999
100
AcDbArc
 50
154.147739917023
 51
-107.184795901087
  0
ARC
  5
458
100
AcDbEntity
  8
1
  6
PHANTOM
 62
           3
100
AcDbCircle
 10
-189.25811963572
 20
-2817.368566714251
 40
60.0
100
AcDbArc
 50
0.0
 51
98.626926558679
  0
ARC
  5
457
100
AcDbEntity
  8
1
  6
PHANTOM
 62
           3
100
AcDbCircle
 10
-189.25811963572
 20
-2817.368566714251
 40
59.999999999997
100
AcDbArc
 50
98.626926558679
 51
122.230952635502
  0
ARC
  5
456
100
AcDbEntity
  8
1
  6
PHANTOM
 62
           3
100
AcDbCircle
 10
-189.25811963572
 20
-2817.368566714251
 40
46.999999999998
100
AcDbArc
 50
132.910184021677
 51
-168.338593579459
  0
ARC
  5
455
100
AcDbEntity
  8
1
  6
PHANTOM
 62
           3
100
AcDbCircle
 10
-189.25811963572
 20
-2817.368566714251
 40
47.0
100
AcDbArc
 50
0.0
 51
101.039714414033
  0
ARC
  5
454
100
AcDbEntity
  8
1
  6
PHANTOM
 62
           3
100
AcDbCircle
 10
-189.25811963572
 20
-2817.368566714251
 40
46.999999999999
100
AcDbArc
 50
101.039714414033
 51
132.910184021677
  0
ARC
  5
453
100
AcDbEntity
  8
1
  6
PHANTOM
 62
           3
100
AcDbCircle
 10
-189.25811963572
 20
-2817.368566714251
 40
39.999999999999
100
AcDbArc
 50
103.002878162914
 51
143.130102354156
  0
ARC
  5
452
100
AcDbEntity
  8
1
  6
PHANTOM
 62
           3
100
AcDbCircle
 10
-189.25811963572
 20
-2817.368566714251
 40
40.0
100
AcDbArc
 50
0.0
 51
103.002878162914
  0
ARC
  5
451
100
AcDbEntity
  8
1
  6
PHANTOM
 62
           3
100
AcDbCircle
 10
-189.25811963572
 20
-2817.368566714251
 40
40.0
100
AcDbArc
 50
143.130102354156
 51
-168.463040967181
  0
ARC
  5
450
100
AcDbEntity
  8
1
  6
PHANTOM
 62
           3
100
AcDbCircle
 10
-189.25811963572
 20
-2817.368566714251
 40
19.999999999999
100
AcDbArc
 50
116.743683950404
 51
-116.743683950401
  0
ARC
  5
44F
100
AcDbEntity
  8
1
  6
PHANTOM
 62
           3
100
AcDbCircle
 10
-189.25811963572
 20
-2817.368566714251
 40
20.0
100
AcDbArc
 50
0.0
 51
116.743683950404
  0
ARC
  5
44E
100
AcDbEntity
  8
1
  6
PHANTOM
 62
           3
100
AcDbCircle
 10
-189.25811963572
 20
-2817.368566714251
 40
15.0
100
AcDbArc
 50
140.055494810186
 51
-126.869897645839
  0
ARC
  5
44D
100
AcDbEntity
  8
1
  6
PHANTOM
 62
           3
100
AcDbCircle
 10
-189.25811963572
 20
-2817.368566714251
 40
15.0
100
AcDbArc
 50
0.0
 51
140.055494810186
  0
ARC
  5
44C
100
AcDbEntity
  8
1
  6
PHANTOM
 62
           3
100
AcDbCircle
 10
-189.25811963572
 20
-2817.368566714251
 40
15.000000000002
100
AcDbArc
 50
-126.869897645839
 51
0.0
  0
ARC
  5
44B
100
AcDbEntity
  8
1
  6
PHANTOM
 62
           3
100
AcDbCircle
 10
-189.25811963572
 20
-2817.368566714251
 40
20.000000000001
100
AcDbArc
 50
-116.743683950401
 51
0.0
  0
ARC
  5
44A
100
AcDbEntity
  8
1
  6
PHANTOM
 62
           3
100
AcDbCircle
 10
-189.25811963572
 20
-2817.368566714251
 40
40.000000000001
100
AcDbArc
 50
-103.002878162913
 51
0.0
  0
ARC
  5
449
100
AcDbEntity
  8
1
  6
PHANTOM
 62
           3
100
AcDbCircle
 10
-189.25811963572
 20
-2817.368566714251
 40
40.000000000001
100
AcDbArc
 50
-168.463040967181
 51
-103.002878162913
  0
ARC
  5
448
100
AcDbEntity
  8
1
  6
PHANTOM
 62
           3
100
AcDbCircle
 10
-189.25811963572
 20
-2817.368566714251
 40
47.0
100
AcDbArc
 50
-168.338593579459
 51
-104.162973809369
  0
ARC
  5
447
100
AcDbEntity
  8
1
  6
PHANTOM
 62
           3
100
AcDbCircle
 10
-189.25811963572
 20
-2817.368566714251
 40
47.0
100
AcDbArc
 50
-104.162973809369
 51
0.0
  0
ARC
  5
446
100
AcDbEntity
  8
1
  6
PHANTOM
 62
           3
100
AcDbCircle
 10
-189.25811963572
 20
-2814.368566714251
 40
105.000000000001
100
AcDbArc
 50
-94.643310710572
 51
-90.0
  0
ARC
  5
445
100
AcDbEntity
  8
1
  6
PHANTOM
 62
           3
100
AcDbCircle
 10
-189.25811963572
 20
-2814.368566714251
 40
105.000000000001
100
AcDbArc
 50
-108.55951093958
 51
-94.643310710572
  0
ARC
  5
444
100
AcDbEntity
  8
1
  6
PHANTOM
 62
           3
100
AcDbCircle
 10
-189.25811963572
 20
-2814.368566714251
 40
110.000000000001
100
AcDbArc
 50
-107.184795901087
 51
-94.431819082368
  0
ARC
  5
443
100
AcDbEntity
  8
1
  6
PHANTOM
 62
           3
100
AcDbCircle
 10
-189.25811963572
 20
-2814.368566714251
 40
110.000000000002
100
AcDbArc
 50
-94.431819082368
 51
-90.0
  0
ARC
  5
442
100
AcDbEntity
  8
1
  6
PHANTOM
 62
           3
100
AcDbCircle
 10
-159.25811963572
 20
-2814.368566714251
 40
104.999999999998
100
AcDbArc
 50
78.050291104622
 51
90.0
  0
ARC
  5
441
100
AcDbEntity
  8
1
  6
PHANTOM
 62
           3
100
AcDbCircle
 10
-159.25811963572
 20
-2814.368566714251
 40
109.999999999999
100
AcDbArc
 50
77.620350448954
 51
82.291479370944
  0
ARC
  5
440
100
AcDbEntity
  8
1
  6
PHANTOM
 62
           3
100
AcDbCircle
 10
-159.25811963572
 20
-2814.368566714251
 40
104.999999999999
100
AcDbArc
 50
71.145230571494
 51
74.802129601451
  0
LINE
  5
43F
100
AcDbEntity
  8
1
  6
CONTINUOUS
 62
           7
100
AcDbLine
 10
-5138.29142243659
 20
-3687.13028477453
 11
-5138.29142243659
 21
2804.94238733884
  0
LINE
  5
43E
100
AcDbEntity
  8
1
  6
CONTINUOUS
 62
           7
100
AcDbLine
 10
1853.17145522395
 20
-3687.13028477453
 11
-5138.29142243659
 21
-3687.13028477453
  0
LINE
  5
43D
100
AcDbEntity
  8
1
  6
CONTINUOUS
 62
           7
100
AcDbLine
 10
1853.17145522395
 20
2804.94238733884
 11
1853.17145522395
 21
-3687.13028477453
  0
LINE
  5
43C
100
AcDbEntity
  8
1
  6
CONTINUOUS
 62
           7
100
AcDbLine
 10
-5138.29142243659
 20
2804.94238733884
 11
1853.17145522395
 21
2804.94238733884
  0
LINE
  5
43B
100
AcDbEntity
  8
1
  6
CONTINUOUS
 62
           2
100
AcDbLine
 10
-2170.549860468994
 20
-2039.068566714254
 11
-2135.549860468994
 21
-2039.068566714254
  0
LINE
  5
43A
100
AcDbEntity
  8
1
  6
CONTINUOUS
 62
           2
100
AcDbLine
 10
-2292.549860468994
 20
-1549.068566714253
 11
-2292.549860468994
 21
-3491.068566714253
  0
LINE
  5
439
100
AcDbEntity
  8
1
  6
CONTINUOUS
 62
           2
100
AcDbLine
 10
1144.741880364279
 20
-1519.068566714253
 11
1454.741880364279
 21
-1519.068566714253
  0
LINE
  5
438
100
AcDbEntity
  8
1
  6
CONTINUOUS
 62
           3
100
AcDbLine
 10
-3276.795544432513
 20
-3405.097256497321
 11
-3276.795544432513
 21
-3437.097256497321
  0
LINE
  5
437
100
AcDbEntity
  8
1
  6
CONTINUOUS
 62
           2
100
AcDbLine
 10
-1632.549860468994
 20
-2441.068566714253
 11
-1632.549860468994
 21
-1841.068566714254
  0
LINE
  5
436
100
AcDbEntity
  8
1
  6
CONTINUOUS
 62
           2
100
AcDbLine
 10
-1625.549860468993
 20
-2039.068566714253
 11
-1632.549860468994
 21
-2039.068566714253
  0
LINE
  5
435
100
AcDbEntity
  8
1
  6
CONTINUOUS
 62
           2
100
AcDbLine
 10
-1952.549860468994
 20
2466.910003339182
 11
-1952.549860468994
 21
2156.910003339182
  0
LINE
  5
434
100
AcDbEntity
  8
1
  6
CONTINUOUS
 62
           2
100
AcDbLine
 10
-2130.549860468994
 20
1001.910003339182
 11
-1632.549860468994
 21
1001.910003339182
  0
LINE
  5
433
100
AcDbEntity
  8
1
  6
CONTINUOUS
 62
           3
100
AcDbLine
 10
-1671.349860468994
 20
1384.910003339193
 11
-1671.349860468994
 21
1238.910003339193
  0
LINE
  5
432
100
AcDbEntity
  8
1
  6
CONTINUOUS
 62
           2
100
AcDbLine
 10
-2232.549860468994
 20
2626.910003339182
 11
-2232.549860468994
 21
549.910003339182
  0
LINE
  5
431
100
AcDbEntity
  8
1
  6
CONTINUOUS
 62
           2
100
AcDbLine
 10
-1870.549860468994
 20
2091.910003339182
 11
-1870.549860468994
 21
1426.910003339182
  0
LINE
  5
430
100
AcDbEntity
  8
1
  6
CONTINUOUS
 62
           2
100
AcDbLine
 10
-1670.549860468995
 20
1591.910003339182
 11
-1670.549860468995
 21
1436.910003339182
  0
LINE
  5
42F
100
AcDbEntity
  8
1
  6
CONTINUOUS
 62
           2
100
AcDbLine
 10
-1870.549860468994
 20
1551.910003339182
 11
-1670.549860468995
 21
1551.910003339182
  0
LINE
  5
42E
100
AcDbEntity
  8
1
  6
CONTINUOUS
 62
           2
100
AcDbLine
 10
-1870.549860468994
 20
1426.910003339182
 11
-2230.549860468994
 21
1426.910003339182
  0
LINE
  5
42D
100
AcDbEntity
  8
1
  6
CONTINUOUS
 62
           2
100
AcDbLine
 10
-1930.549860468994
 20
1426.910003339182
 11
-1930.549860468994
 21
1261.910003339182
  0
LINE
  5
42C
100
AcDbEntity
  8
1
  6
CONTINUOUS
 62
           2
100
AcDbLine
 10
-1890.549860468994
 20
1261.910003339182
 11
-1890.549860468994
 21
1426.910003339182
  0
LINE
  5
42B
100
AcDbEntity
  8
1
  6
CONTINUOUS
 62
           2
100
AcDbLine
 10
-1605.549860468994
 20
1302.410003339193
 11
-1645.549860468994
 21
1302.410003339193
  0
LINE
  5
42A
100
AcDbEntity
  8
1
  6
CONTINUOUS
 62
           2
100
AcDbLine
 10
-1656.249860468994
 20
1254.910003339193
 11
-1656.249860468994
 21
1368.910003339193
  0
LINE
  5
429
100
AcDbEntity
  8
1
  6
CONTINUOUS
 62
           3
100
AcDbLine
 10
-2280.549860468994
 20
443.410003339182
 11
-3300.549860468994
 21
443.410003339182
  0
LINE
  5
428
100
AcDbEntity
  8
1
  6
CONTINUOUS
 62
           2
100
AcDbLine
 10
1199.741880364279
 20
-1411.068566714253
 11
1079.741880364279
 21
-1411.068566714253
  0
LINE
  5
427
100
AcDbEntity
  8
1
  6
CONTINUOUS
 62
           2
100
AcDbLine
 10
-2182.549860468994
 20
2411.910003339182
 11
-1982.549860468994
 21
2411.910003339182
  0
LINE
  5
426
100
AcDbEntity
  8
1
  6
DOT_CENTER
 62
           3
100
AcDbLine
 10
-3307.549860468994
 20
2713.112370203093
 11
-3307.549860468994
 21
313.981091116211
  0
LINE
  5
425
100
AcDbEntity
  8
1
  6
CONTINUOUS
 62
           3
100
AcDbLine
 10
1039.741880364279
 20
-2065.068566714253
 11
1039.741880364279
 21
-3391.068566714251
  0
LINE
  5
424
100
AcDbEntity
  8
1
  6
CONTINUOUS
 62
           3
100
AcDbLine
 10
539.741880364279
 20
-2065.068566714253
 11
539.741880364279
 21
-3391.068566714251
  0
LINE
  5
423
100
AcDbEntity
  8
1
  6
CONTINUOUS
 62
           3
100
AcDbLine
 10
39.741880364279
 20
-2039.068566714253
 11
39.741880364279
 21
-1489.068566714251
  0
LINE
  5
422
100
AcDbEntity
  8
1
  6
CONTINUOUS
 62
           3
100
AcDbLine
 10
-2307.549860468994
 20
550.910003339184
 11
-2232.549860468994
 21
550.910003339184
  0
LINE
  5
421
100
AcDbEntity
  8
1
  6
CONTINUOUS
 62
           3
100
AcDbLine
 10
-4307.549860468995
 20
550.910003339184
 11
-4382.549860468995
 21
550.910003339184
  0
LINE
  5
420
100
AcDbEntity
  8
1
  6
CONTINUOUS
 62
           3
100
AcDbLine
 10
-2307.549860468994
 20
2050.910003339182
 11
-4307.549860468993
 21
2050.910003339182
  0
LINE
  5
41F
100
AcDbEntity
  8
1
  6
CONTINUOUS
 62
           3
100
AcDbLine
 10
-4307.549860468993
 20
1050.910003339182
 11
-2307.549860468994
 21
1050.910003339182
  0
LINE
  5
41E
100
AcDbEntity
  8
1
  6
CONTINUOUS
 62
           3
100
AcDbLine
 10
-4307.549860468993
 20
1550.910003339182
 11
-2307.549860468994
 21
1550.910003339182
  0
LINE
  5
41D
100
AcDbEntity
  8
1
  6
CONTINUOUS
 62
           2
100
AcDbLine
 10
414.741880364279
 20
-1411.068566714253
 11
-537.258119635721
 21
-1411.068566714253
  0
LINE
  5
41C
100
AcDbEntity
  8
1
  6
CONTINUOUS
 62
           3
100
AcDbLine
 10
1539.741880364279
 20
-1489.068566714251
 11
1399.741880364279
 21
-1489.068566714251
  0
LINE
  5
41B
100
AcDbEntity
  8
1
  6
CONTINUOUS
 62
           3
100
AcDbLine
 10
39.741880364279
 20
-2065.068566714253
 11
1539.741880364279
 21
-2065.068566714253
  0
LINE
  5
41A
100
AcDbEntity
  8
1
  6
CONTINUOUS
 62
           3
100
AcDbLine
 10
-460.258119635721
 20
-3421.068566714251
 11
39.741880364279
 21
-3421.068566714251
  0
LINE
  5
419
100
AcDbEntity
  8
1
  6
CONTINUOUS
 62
           2
100
AcDbLine
 10
-460.258119635721
 20
-3426.068566714251
 11
39.741880364279
 21
-3426.068566714251
  0
LINE
  5
418
100
AcDbEntity
  8
1
  6
CONTINUOUS
 62
           3
100
AcDbLine
 10
39.741880364279
 20
-3441.068566714251
 11
1539.741880364279
 21
-3441.068566714251
  0
LINE
  5
417
100
AcDbEntity
  8
1
  6
CONTINUOUS
 62
           2
100
AcDbLine
 10
39.741880364279
 20
-3391.068566714251
 11
1539.741880364279
 21
-3391.068566714251
  0
LINE
  5
416
100
AcDbEntity
  8
1
  6
CONTINUOUS
 62
           2
100
AcDbLine
 10
-460.258119635721
 20
-3491.068566714251
 11
-460.258119635721
 21
-1411.068566714253
  0
LINE
  5
415
100
AcDbEntity
  8
1
  6
CONTINUOUS
 62
           2
100
AcDbLine
 10
1539.741880364279
 20
-2039.068566714253
 11
1539.741880364279
 21
-1411.068566714253
  0
LINE
  5
414
100
AcDbEntity
  8
1
  6
CONTINUOUS
 62
           2
100
AcDbLine
 10
1539.741880364279
 20
-2039.068566714253
 11
1539.741880364279
 21
-3491.068566714251
  0
LINE
  5
413
100
AcDbEntity
  8
1
  6
CONTINUOUS
 62
           2
100
AcDbLine
 10
39.741880364279
 20
-2039.068566714253
 11
1539.741880364279
 21
-2039.068566714253
  0
LINE
  5
412
100
AcDbEntity
  8
1
  6
CONTINUOUS
 62
           2
100
AcDbLine
 10
39.741880364279
 20
-3491.068566714251
 11
39.741880364279
 21
-2039.068566714253
  0
LINE
  5
411
100
AcDbEntity
  8
1
  6
CONTINUOUS
 62
           2
100
AcDbLine
 10
-537.258119635721
 20
-1411.068566714253
 11
-537.258119635721
 21
-3491.068566714251
  0
LINE
  5
410
100
AcDbEntity
  8
1
  6
CONTINUOUS
 62
           2
100
AcDbLine
 10
1614.741880364279
 20
-1411.068566714253
 11
1399.741880364279
 21
-1411.068566714253
  0
LINE
  5
40F
100
AcDbEntity
  8
1
  6
CONTINUOUS
 62
           2
100
AcDbLine
 10
1614.741880364279
 20
-3491.068566714251
 11
1614.741880364279
 21
-1411.068566714253
  0
LINE
  5
40E
100
AcDbEntity
  8
1
  6
CONTINUOUS
 62
           2
100
AcDbLine
 10
-537.258119635721
 20
-3491.068566714251
 11
1614.741880364279
 21
-3491.068566714251
  0
LINE
  5
40D
100
AcDbEntity
  8
1
  6
CONTINUOUS
 62
           3
100
AcDbLine
 10
-1932.549860468994
 20
-2446.068566714253
 11
-1732.549860468993
 21
-2446.068566714253
  0
LINE
  5
40C
100
AcDbEntity
  8
1
  6
CONTINUOUS
 62
           3
100
AcDbLine
 10
-1732.549860468993
 20
-2446.068566714253
 11
-1732.549860468993
 21
-2441.068566714253
  0
LINE
  5
40B
100
AcDbEntity
  8
1
  6
CONTINUOUS
 62
           3
100
AcDbLine
 10
-1932.549860468994
 20
-2441.068566714253
 11
-1732.549860468993
 21
-2441.068566714253
  0
LINE
  5
40A
100
AcDbEntity
  8
1
  6
CONTINUOUS
 62
           3
100
AcDbLine
 10
-1932.549860468994
 20
-2441.068566714253
 11
-1932.549860468994
 21
-2446.068566714253
  0
LINE
  5
409
100
AcDbEntity
  8
1
  6
CONTINUOUS
 62
           2
100
AcDbLine
 10
-2050.549860468994
 20
-2261.068566714253
 11
-2032.549860468994
 21
-2261.068566714253
  0
LINE
  5
408
100
AcDbEntity
  8
1
  6
CONTINUOUS
 62
           2
100
AcDbLine
 10
-2050.549860468994
 20
-2221.068566714253
 11
-2050.549860468994
 21
-2261.068566714253
  0
LINE
  5
407
100
AcDbEntity
  8
1
  6
CONTINUOUS
 62
           2
100
AcDbLine
 10
-2032.549860468994
 20
-2221.068566714253
 11
-2050.549860468994
 21
-2221.068566714253
  0
LINE
  5
406
100
AcDbEntity
  8
1
  6
CONTINUOUS
 62
           2
100
AcDbLine
 10
-1632.549860468993
 20
-2328.568566714253
 11
-1625.549860468993
 21
-2328.568566714253
  0
LINE
  5
405
100
AcDbEntity
  8
1
  6
CONTINUOUS
 62
           2
100
AcDbLine
 10
-1632.549860468993
 20
-2316.068566714253
 11
-1625.549860468993
 21
-2316.068566714253
  0
LINE
  5
404
100
AcDbEntity
  8
1
  6
CONTINUOUS
 62
           2
100
AcDbLine
 10
-1632.549860468993
 20
-2303.568566714253
 11
-1625.549860468993
 21
-2303.568566714253
  0
LINE
  5
403
100
AcDbEntity
  8
1
  6
CONTINUOUS
 62
           2
100
AcDbLine
 10
-1625.549860468993
 20
-2341.068566714253
 11
-1632.549860468993
 21
-2341.068566714253
  0
LINE
  5
402
100
AcDbEntity
  8
1
  6
CONTINUOUS
 62
           2
100
AcDbLine
 10
-1625.549860468993
 20
-2291.068566714253
 11
-1625.549860468993
 21
-2341.068566714253
  0
LINE
  5
401
100
AcDbEntity
  8
1
  6
CONTINUOUS
 62
           2
100
AcDbLine
 10
-1632.549860468993
 20
-2291.068566714253
 11
-1625.549860468993
 21
-2291.068566714253
  0
LINE
  5
400
100
AcDbEntity
  8
1
  6
CONTINUOUS
 62
           2
100
AcDbLine
 10
-1632.549860468993
 20
-2026.568566714253
 11
-1625.549860468993
 21
-2026.568566714253
  0
LINE
  5
3FF
100
AcDbEntity
  8
1
  6
CONTINUOUS
 62
           2
100
AcDbLine
 10
-1632.549860468993
 20
-2014.068566714253
 11
-1625.549860468993
 21
-2014.068566714253
  0
LINE
  5
3FE
100
AcDbEntity
  8
1
  6
CONTINUOUS
 62
           2
100
AcDbLine
 10
-1632.549860468993
 20
-2001.568566714253
 11
-1625.549860468993
 21
-2001.568566714253
  0
LINE
  5
3FD
100
AcDbEntity
  8
1
  6
CONTINUOUS
 62
           2
100
AcDbLine
 10
-1625.549860468993
 20
-1989.068566714253
 11
-1625.549860468993
 21
-2039.068566714253
  0
LINE
  5
3FC
100
AcDbEntity
  8
1
  6
CONTINUOUS
 62
           2
100
AcDbLine
 10
-1632.549860468993
 20
-1989.068566714253
 11
-1625.549860468993
 21
-1989.068566714253
  0
LINE
  5
3FB
100
AcDbEntity
  8
1
  6
CONTINUOUS
 62
           3
100
AcDbLine
 10
-1837.549860468993
 20
-2241.068566714253
 11
-1867.549860468994
 21
-2241.068566714253
  0
LINE
  5
3FA
100
AcDbEntity
  8
1
  6
CONTINUOUS
 62
           3
100
AcDbLine
 10
-1837.549860468993
 20
-2261.068566714253
 11
-1837.549860468993
 21
-2241.068566714253
  0
LINE
  5
3F9
100
AcDbEntity
  8
1
  6
CONTINUOUS
 62
           3
100
AcDbLine
 10
-1867.549860468994
 20
-2261.068566714253
 11
-1837.549860468993
 21
-2261.068566714253
  0
LINE
  5
3F8
100
AcDbEntity
  8
1
  6
CONTINUOUS
 62
           3
100
AcDbLine
 10
-1867.549860468994
 20
-2241.068566714253
 11
-1867.549860468994
 21
-2261.068566714253
  0
LINE
  5
3F7
100
AcDbEntity
  8
1
  6
CONTINUOUS
 62
           3
100
AcDbLine
 10
-1837.549860468993
 20
-2181.068566714253
 11
-1867.549860468994
 21
-2181.068566714253
  0
LINE
  5
3F6
100
AcDbEntity
  8
1
  6
CONTINUOUS
 62
           3
100
AcDbLine
 10
-1837.549860468993
 20
-2201.068566714253
 11
-1837.549860468993
 21
-2181.068566714253
  0
LINE
  5
3F5
100
AcDbEntity
  8
1
  6
CONTINUOUS
 62
           3
100
AcDbLine
 10
-1867.549860468994
 20
-2201.068566714253
 11
-1837.549860468993
 21
-2201.068566714253
  0
LINE
  5
3F4
100
AcDbEntity
  8
1
  6
CONTINUOUS
 62
           3
100
AcDbLine
 10
-1867.549860468994
 20
-2181.068566714253
 11
-1867.549860468994
 21
-2201.068566714253
  0
LINE
  5
3F3
100
AcDbEntity
  8
1
  6
CONTINUOUS
 62
           3
100
AcDbLine
 10
-1667.549860468993
 20
-2166.068566714253
 11
-1812.549860468993
 21
-2166.068566714253
  0
LINE
  5
3F2
100
AcDbEntity
  8
1
  6
CONTINUOUS
 62
           3
100
AcDbLine
 10
-1667.549860468993
 20
-2316.068566714253
 11
-1667.549860468993
 21
-2166.068566714253
  0
LINE
  5
3F1
100
AcDbEntity
  8
1
  6
CONTINUOUS
 62
           3
100
AcDbLine
 10
-1812.549860468993
 20
-2316.068566714253
 11
-1667.549860468993
 21
-2316.068566714253
  0
LINE
  5
3F0
100
AcDbEntity
  8
1
  6
CONTINUOUS
 62
           3
100
AcDbLine
 10
-1812.549860468993
 20
-2166.068566714253
 11
-1812.549860468993
 21
-2316.068566714253
  0
LINE
  5
3EF
100
AcDbEntity
  8
1
  6
CONTINUOUS
 62
           3
100
AcDbLine
 10
-1935.049860468994
 20
-2301.068566714253
 11
-1945.049860468994
 21
-2301.068566714253
  0
LINE
  5
3EE
100
AcDbEntity
  8
1
  6
CONTINUOUS
 62
           3
100
AcDbLine
 10
-1935.049860468994
 20
-2321.068566714253
 11
-1935.049860468994
 21
-2301.068566714253
  0
LINE
  5
3ED
100
AcDbEntity
  8
1
  6
CONTINUOUS
 62
           3
100
AcDbLine
 10
-1945.049860468994
 20
-2321.068566714253
 11
-1935.049860468994
 21
-2321.068566714253
  0
LINE
  5
3EC
100
AcDbEntity
  8
1
  6
CONTINUOUS
 62
           3
100
AcDbLine
 10
-1945.049860468994
 20
-2301.068566714253
 11
-1945.049860468994
 21
-2321.068566714253
  0
LINE
  5
3EB
100
AcDbEntity
  8
1
  6
CONTINUOUS
 62
           3
100
AcDbLine
 10
-1910.049860468994
 20
-2286.068566714253
 11
-1970.049860468994
 21
-2286.068566714253
  0
LINE
  5
3EA
100
AcDbEntity
  8
1
  6
CONTINUOUS
 62
           3
100
AcDbLine
 10
-1910.049860468994
 20
-2336.068566714253
 11
-1910.049860468994
 21
-2286.068566714253
  0
LINE
  5
3E9
100
AcDbEntity
  8
1
  6
CONTINUOUS
 62
           3
100
AcDbLine
 10
-1970.049860468994
 20
-2336.068566714253
 11
-1910.049860468994
 21
-2336.068566714253
  0
LINE
  5
3E8
100
AcDbEntity
  8
1
  6
CONTINUOUS
 62
           3
100
AcDbLine
 10
-1970.049860468994
 20
-2286.068566714253
 11
-1970.049860468994
 21
-2336.068566714253
  0
LINE
  5
3E7
100
AcDbEntity
  8
1
  6
CONTINUOUS
 62
           3
100
AcDbLine
 10
-1915.049860468994
 20
-2136.068566714253
 11
-1965.049860468994
 21
-2136.068566714253
  0
LINE
  5
3E6
100
AcDbEntity
  8
1
  6
CONTINUOUS
 62
           3
100
AcDbLine
 10
-1915.049860468994
 20
-2186.068566714253
 11
-1915.049860468994
 21
-2136.068566714253
  0
LINE
  5
3E5
100
AcDbEntity
  8
1
  6
CONTINUOUS
 62
           3
100
AcDbLine
 10
-1965.049860468994
 20
-2186.068566714253
 11
-1915.049860468994
 21
-2186.068566714253
  0
LINE
  5
3E4
100
AcDbEntity
  8
1
  6
CONTINUOUS
 62
           3
100
AcDbLine
 10
-1965.049860468994
 20
-2136.068566714253
 11
-1965.049860468994
 21
-2186.068566714253
  0
LINE
  5
3E3
100
AcDbEntity
  8
1
  6
CONTINUOUS
 62
           3
100
AcDbLine
 10
-1917.549860468994
 20
-2111.068566714253
 11
-1962.549860468994
 21
-2111.068566714253
  0
LINE
  5
3E2
100
AcDbEntity
  8
1
  6
CONTINUOUS
 62
           3
100
AcDbLine
 10
-1917.549860468994
 20
-2126.068566714253
 11
-1917.549860468994
 21
-2111.068566714253
  0
LINE
  5
3E1
100
AcDbEntity
  8
1
  6
CONTINUOUS
 62
           3
100
AcDbLine
 10
-1962.549860468994
 20
-2126.068566714253
 11
-1917.549860468994
 21
-2126.068566714253
  0
LINE
  5
3E0
100
AcDbEntity
  8
1
  6
CONTINUOUS
 62
           3
100
AcDbLine
 10
-1962.549860468994
 20
-2111.068566714253
 11
-1962.549860468994
 21
-2126.068566714253
  0
LINE
  5
3DF
100
AcDbEntity
  8
1
  6
CONTINUOUS
 62
           3
100
AcDbLine
 10
-2032.549860468994
 20
-2381.068566714253
 11
-2137.549860468994
 21
-2381.068566714253
  0
LINE
  5
3DE
100
AcDbEntity
  8
1
  6
CONTINUOUS
 62
           3
100
AcDbLine
 10
-2137.549860468994
 20
-2381.068566714253
 11
-2137.549860468994
 21
-2421.068566714253
  0
LINE
  5
3DD
100
AcDbEntity
  8
1
  6
CONTINUOUS
 62
           3
100
AcDbLine
 10
-2137.549860468994
 20
-2421.068566714253
 11
-2032.549860468994
 21
-2421.068566714253
  0
LINE
  5
3DC
100
AcDbEntity
  8
1
  6
DOT_CENTER
 62
           3
100
AcDbLine
 10
-2055.904880490013
 20
-2982.522099653652
 11
-2055.904880490013
 21
-3070.020550293054
  0
LINE
  5
3DB
100
AcDbEntity
  8
1
  6
DOT_CENTER
 62
           3
100
AcDbLine
 10
-2097.808247040634
 20
-3025.868566714251
 11
-2015.143406262323
 21
-3025.868566714251
  0
LINE
  5
3DA
100
AcDbEntity
  8
1
  6
DOT_CENTER
 62
           3
100
AcDbLine
 10
-2092.904880490014
 20
-3062.868566714251
 11
-2092.904880490014
 21
-2988.86856671425
  0
LINE
  5
3D9
100
AcDbEntity
  8
1
  6
PHANTOM
 62
           3
100
AcDbLine
 10
-2018.904880490014
 20
-3062.868566714251
 11
-2092.904880490014
 21
-3062.868566714251
  0
LINE
  5
3D8
100
AcDbEntity
  8
1
  6
DOT_CENTER
 62
           3
100
AcDbLine
 10
-2018.904880490013
 20
-2988.86856671425
 11
-2018.904880490014
 21
-3062.868566714251
  0
LINE
  5
3D7
100
AcDbEntity
  8
1
  6
DOT_CENTER
 62
           3
100
AcDbLine
 10
-2092.904880490014
 20
-2988.86856671425
 11
-2018.904880490013
 21
-2988.86856671425
  0
LINE
  5
3D6
100
AcDbEntity
  8
1
  6
PHANTOM
 62
           3
100
AcDbLine
 10
-2103.549860468994
 20
-2965.868566714251
 11
-2103.549860468994
 21
-2989.868566714251
  0
LINE
  5
3D5
100
AcDbEntity
  8
1
  6
PHANTOM
 62
           3
100
AcDbLine
 10
-2121.549860468994
 20
-2965.868566714251
 11
-2121.549860468994
 21
-2989.868566714251
  0
LINE
  5
3D4
100
AcDbEntity
  8
1
  6
PHANTOM
 62
           3
100
AcDbLine
 10
-2030.549860468994
 20
-2965.868566714251
 11
-2030.549860468994
 21
-3089.86856671425
  0
LINE
  5
3D3
100
AcDbEntity
  8
1
  6
PHANTOM
 62
           3
100
AcDbLine
 10
-2136.549860468994
 20
-2935.868566714251
 11
-2136.549860468994
 21
-2965.868566714251
  0
LINE
  5
3D2
100
AcDbEntity
  8
1
  6
PHANTOM
 62
           3
100
AcDbLine
 10
-2136.549860468994
 20
-2965.868566714251
 11
-2010.549860468994
 21
-2965.868566714251
  0
LINE
  5
3D1
100
AcDbEntity
  8
1
  6
PHANTOM
 62
           3
100
AcDbLine
 10
-2136.549860468994
 20
-2935.868566714251
 11
-2010.549860468994
 21
-2935.868566714251
  0
LINE
  5
3D0
100
AcDbEntity
  8
1
  6
PHANTOM
 62
           3
100
AcDbLine
 10
-1850.549860468994
 20
-3069.868566714251
 11
-1850.549860468994
 21
-2924.368566714251
  0
LINE
  5
3CF
100
AcDbEntity
  8
1
  6
PHANTOM
 62
           3
100
AcDbLine
 10
-2010.549860468994
 20
-2909.868566714251
 11
-1955.549860468994
 21
-2909.868566714251
  0
LINE
  5
3CE
100
AcDbEntity
  8
1
  6
PHANTOM
 62
           3
100
AcDbLine
 10
-2010.549860468994
 20
-3069.868566714251
 11
-2010.549860468994
 21
-2909.868566714251
  0
LINE
  5
3CD
100
AcDbEntity
  8
1
  6
PHANTOM
 62
           3
100
AcDbLine
 10
-2010.549860468994
 20
-3069.868566714251
 11
-1850.549860468994
 21
-3069.868566714251
  0
LINE
  5
3CC
100
AcDbEntity
  8
1
  6
PHANTOM
 62
           3
100
AcDbLine
 10
-2103.549860468994
 20
-2812.36856671425
 11
-2103.549860468994
 21
-2775.868566714251
  0
LINE
  5
3CB
100
AcDbEntity
  8
1
  6
PHANTOM
 62
           3
100
AcDbLine
 10
-2121.549860468994
 20
-2812.36856671425
 11
-2121.549860468994
 21
-2775.868566714251
  0
LINE
  5
3CA
100
AcDbEntity
  8
1
  6
PHANTOM
 62
           3
100
AcDbLine
 10
-2100.549860468994
 20
-2846.368566714248
 11
-2100.549860468994
 21
-2856.368566714251
  0
LINE
  5
3C9
100
AcDbEntity
  8
1
  6
PHANTOM
 62
           3
100
AcDbLine
 10
-2124.549860468994
 20
-2812.36856671425
 11
-2100.549860468994
 21
-2812.36856671425
  0
LINE
  5
3C8
100
AcDbEntity
  8
1
  6
PHANTOM
 62
           3
100
AcDbLine
 10
-2124.549860468994
 20
-2856.368566714251
 11
-2100.549860468994
 21
-2856.368566714251
  0
LINE
  5
3C7
100
AcDbEntity
  8
1
  6
PHANTOM
 62
           3
100
AcDbLine
 10
-2124.549860468994
 20
-2812.36856671425
 11
-2124.549860468994
 21
-2856.368566714251
  0
LINE
  5
3C6
100
AcDbEntity
  8
1
  6
PHANTOM
 62
           3
100
AcDbLine
 10
-2100.549860468994
 20
-2822.36856671425
 11
-2100.549860468994
 21
-2812.36856671425
  0
LINE
  5
3C5
100
AcDbEntity
  8
1
  6
PHANTOM
 62
           3
100
AcDbLine
 10
-2090.549860468994
 20
-2846.36856671425
 11
-2112.549860468994
 21
-2846.36856671425
  0
LINE
  5
3C4
100
AcDbEntity
  8
1
  6
PHANTOM
 62
           3
100
AcDbLine
 10
-2112.549860468994
 20
-2822.36856671425
 11
-2090.549860468994
 21
-2822.36856671425
  0
LINE
  5
3C3
100
AcDbEntity
  8
1
  6
PHANTOM
 62
           3
100
AcDbLine
 10
-2090.549860468994
 20
-2822.36856671425
 11
-2090.549860468994
 21
-2846.36856671425
  0
LINE
  5
3C2
100
AcDbEntity
  8
1
  6
PHANTOM
 62
           3
100
AcDbLine
 10
-2103.549860468994
 20
-2871.86856671425
 11
-2103.549860468994
 21
-2856.368566714251
  0
LINE
  5
3C1
100
AcDbEntity
  8
1
  6
PHANTOM
 62
           3
100
AcDbLine
 10
-2121.549860468994
 20
-2871.86856671425
 11
-2121.549860468994
 21
-2856.368566714251
  0
LINE
  5
3C0
100
AcDbEntity
  8
1
  6
PHANTOM
 62
           3
100
AcDbLine
 10
-2103.549860468994
 20
-2909.868566714251
 11
-2103.549860468994
 21
-2935.868566714251
  0
LINE
  5
3BF
100
AcDbEntity
  8
1
  6
PHANTOM
 62
           3
100
AcDbLine
 10
-2121.549860468994
 20
-2909.868566714251
 11
-2121.549860468994
 21
-2935.868566714251
  0
LINE
  5
3BE
100
AcDbEntity
  8
1
  6
PHANTOM
 62
           3
100
AcDbLine
 10
-2097.549860468994
 20
-2909.868566714251
 11
-2097.549860468994
 21
-2904.868566714251
  0
LINE
  5
3BD
100
AcDbEntity
  8
1
  6
PHANTOM
 62
           3
100
AcDbLine
 10
-2097.549860468994
 20
-2904.868566714251
 11
-2100.549860468994
 21
-2871.86856671425
  0
LINE
  5
3BC
100
AcDbEntity
  8
1
  6
PHANTOM
 62
           3
100
AcDbLine
 10
-2127.549860468994
 20
-2904.868566714251
 11
-2127.549860468994
 21
-2909.868566714251
  0
LINE
  5
3BB
100
AcDbEntity
  8
1
  6
PHANTOM
 62
           3
100
AcDbLine
 10
-2124.549860468994
 20
-2871.86856671425
 11
-2127.549860468994
 21
-2904.868566714251
  0
LINE
  5
3BA
100
AcDbEntity
  8
1
  6
PHANTOM
 62
           3
100
AcDbLine
 10
-2124.549860468994
 20
-2871.86856671425
 11
-2100.549860468994
 21
-2871.86856671425
  0
LINE
  5
3B9
100
AcDbEntity
  8
1
  6
PHANTOM
 62
           3
100
AcDbLine
 10
-2127.549860468994
 20
-2909.868566714251
 11
-2097.549860468994
 21
-2909.868566714251
  0
LINE
  5
3B8
100
AcDbEntity
  8
1
  6
PHANTOM
 62
           3
100
AcDbLine
 10
-1950.549860468994
 20
-2748.368566714251
 11
-1792.549860468993
 21
-2748.368566714251
  0
LINE
  5
3B7
100
AcDbEntity
  8
1
  6
PHANTOM
 62
           3
100
AcDbLine
 10
-1941.357444405793
 20
-2631.324742005253
 11
-1941.357444405793
 21
-2659.349721087451
  0
LINE
  5
3B6
100
AcDbEntity
  8
1
  6
PHANTOM
 62
           3
100
AcDbLine
 10
-1892.618350349853
 20
-2631.324742005253
 11
-1941.357444405793
 21
-2631.324742005253
  0
LINE
  5
3B5
100
AcDbEntity
  8
1
  6
PHANTOM
 62
           3
100
AcDbLine
 10
-1892.618350349853
 20
-2659.349721087451
 11
-1892.618350349853
 21
-2631.324742005253
  0
LINE
  5
3B4
100
AcDbEntity
  8
1
  6
PHANTOM
 62
           3
100
AcDbLine
 10
-1941.357444405793
 20
-2659.349721087451
 11
-1892.618350349853
 21
-2659.349721087451
  0
LINE
  5
3B3
100
AcDbEntity
  8
1
  6
PHANTOM
 62
           3
100
AcDbLine
 10
-1950.549860468994
 20
-2704.36856671425
 11
-1955.549860468994
 21
-2704.368566714251
  0
LINE
  5
3B2
100
AcDbEntity
  8
1
  6
PHANTOM
 62
           3
100
AcDbLine
 10
-1950.549860468994
 20
-2624.36856671425
 11
-1950.549860468994
 21
-2786.368566714251
  0
LINE
  5
3B1
100
AcDbEntity
  8
1
  6
PHANTOM
 62
           3
100
AcDbLine
 10
-1792.549860468993
 20
-2624.36856671425
 11
-1950.549860468994
 21
-2624.36856671425
  0
LINE
  5
3B0
100
AcDbEntity
  8
1
  6
PHANTOM
 62
           3
100
AcDbLine
 10
-1792.549860468993
 20
-2786.368566714251
 11
-1792.549860468993
 21
-2624.36856671425
  0
LINE
  5
3AF
100
AcDbEntity
  8
1
  6
PHANTOM
 62
           3
100
AcDbLine
 10
-1950.549860468994
 20
-2786.368566714251
 11
-1792.549860468993
 21
-2786.368566714251
  0
LINE
  5
3AE
100
AcDbEntity
  8
1
  6
PHANTOM
 62
           3
100
AcDbLine
 10
-2154.453227019613
 20
-2738.868566714251
 11
-2071.788386241304
 21
-2738.868566714251
  0
LINE
  5
3AD
100
AcDbEntity
  8
1
  6
DOT_CENTER
 62
           3
100
AcDbLine
 10
-2149.549860468994
 20
-2775.868566714251
 11
-2149.549860468994
 21
-2701.86856671425
  0
LINE
  5
3AC
100
AcDbEntity
  8
1
  6
PHANTOM
 62
           3
100
AcDbLine
 10
-2075.549860468994
 20
-2775.868566714251
 11
-2149.549860468994
 21
-2775.868566714251
  0
LINE
  5
3AB
100
AcDbEntity
  8
1
  6
DOT_CENTER
 62
           3
100
AcDbLine
 10
-2075.549860468994
 20
-2701.86856671425
 11
-2075.549860468994
 21
-2775.868566714251
  0
LINE
  5
3AA
100
AcDbEntity
  8
1
  6
DOT_CENTER
 62
           3
100
AcDbLine
 10
-2149.549860468994
 20
-2701.86856671425
 11
-2075.549860468994
 21
-2701.86856671425
  0
LINE
  5
3A9
100
AcDbEntity
  8
1
  6
PHANTOM
 62
           3
100
AcDbLine
 10
-2098.549860468994
 20
-3029.868566714251
 11
-2098.549860468994
 21
-3017.368566714251
  0
LINE
  5
3A8
100
AcDbEntity
  8
1
  6
PHANTOM
 62
           3
100
AcDbLine
 10
-2126.549860468994
 20
-3029.868566714251
 11
-2126.549860468994
 21
-3017.368566714251
  0
LINE
  5
3A7
100
AcDbEntity
  8
1
  6
PHANTOM
 62
           3
100
AcDbLine
 10
-2126.549860468994
 20
-3029.868566714251
 11
-2098.549860468994
 21
-3029.868566714251
  0
LINE
  5
3A6
100
AcDbEntity
  8
1
  6
PHANTOM
 62
           3
100
AcDbLine
 10
-2126.549860468994
 20
-2989.868566714251
 11
-2098.549860468994
 21
-2989.868566714251
  0
LINE
  5
3A5
100
AcDbEntity
  8
1
  6
PHANTOM
 62
           3
100
AcDbLine
 10
-2098.549860468994
 20
-3001.760401577652
 11
-2098.549860468994
 21
-2989.868566714251
  0
LINE
  5
3A4
100
AcDbEntity
  8
1
  6
PHANTOM
 62
           3
100
AcDbLine
 10
-2126.549860468994
 20
-3002.368566714251
 11
-2126.549860468994
 21
-2989.868566714251
  0
LINE
  5
3A3
100
AcDbEntity
  8
1
  6
PHANTOM
 62
           3
100
AcDbLine
 10
-2131.549860468994
 20
-3002.368566714251
 11
-2131.549860468994
 21
-3017.368566714251
  0
LINE
  5
3A2
100
AcDbEntity
  8
1
  6
PHANTOM
 62
           3
100
AcDbLine
 10
-2093.549860468994
 20
-3002.368566714251
 11
-2131.549860468994
 21
-3002.368566714251
  0
LINE
  5
3A1
100
AcDbEntity
  8
1
  6
PHANTOM
 62
           3
100
AcDbLine
 10
-2093.549860468994
 20
-3017.368566714251
 11
-2093.549860468994
 21
-3002.368566714251
  0
LINE
  5
3A0
100
AcDbEntity
  8
1
  6
PHANTOM
 62
           3
100
AcDbLine
 10
-2131.549860468994
 20
-3017.368566714251
 11
-2093.549860468994
 21
-3017.368566714251
  0
LINE
  5
39F
100
AcDbEntity
  8
1
  6
DOT_CENTER
 62
           3
100
AcDbLine
 10
-2171.349860468992
 20
-2658.868566714251
 11
-2053.749860468993
 21
-2658.868566714251
  0
LINE
  5
39E
100
AcDbEntity
  8
1
  6
DOT_CENTER
 62
           3
100
AcDbLine
 10
-2112.549860468994
 20
-3113.426628220752
 11
-2112.549860468994
 21
-2598.356459788854
  0
LINE
  5
39D
100
AcDbEntity
  8
1
  6
DOT_CENTER
 62
           3
100
AcDbLine
 10
-2141.187730035134
 20
-2834.36856671425
 11
-1642.197746027425
 21
-2834.36856671425
  0
LINE
  5
39C
100
AcDbEntity
  8
1
  6
PHANTOM
 62
           3
100
AcDbLine
 10
-1955.549860468994
 20
-2889.86856671425
 11
-2030.549860468994
 21
-2889.86856671425
  0
LINE
  5
39B
100
AcDbEntity
  8
1
  6
PHANTOM
 62
           3
100
AcDbLine
 10
-1841.549860468994
 20
-2924.368566714255
 11
-1827.549860468994
 21
-2924.368566714251
  0
LINE
  5
39A
100
AcDbEntity
  8
1
  6
PHANTOM
 62
           3
100
AcDbLine
 10
-1905.549860468994
 20
-2924.368566714251
 11
-1891.549860468994
 21
-2924.368566714251
  0
LINE
  5
399
100
AcDbEntity
  8
1
  6
PHANTOM
 62
           3
100
AcDbLine
 10
-1827.549860468994
 20
-2786.368566714251
 11
-1827.549860468994
 21
-2924.368566714251
  0
LINE
  5
398
100
AcDbEntity
  8
1
  6
PHANTOM
 62
           3
100
AcDbLine
 10
-1777.549860468994
 20
-2704.368566714251
 11
-1792.549860468993
 21
-2704.36856671425
  0
LINE
  5
397
100
AcDbEntity
  8
1
  6
PHANTOM
 62
           3
100
AcDbLine
 10
-1777.549860468994
 20
-2924.368566714251
 11
-1777.549860468994
 21
-2704.368566714251
  0
LINE
  5
396
100
AcDbEntity
  8
1
  6
PHANTOM
 62
           3
100
AcDbLine
 10
-1827.549860468994
 20
-2924.368566714251
 11
-1777.549860468994
 21
-2924.368566714251
  0
LINE
  5
395
100
AcDbEntity
  8
1
  6
PHANTOM
 62
           3
100
AcDbLine
 10
-1891.549860468994
 20
-2786.368566714251
 11
-1891.549860468994
 21
-2924.368566714251
  0
LINE
  5
394
100
AcDbEntity
  8
1
  6
PHANTOM
 62
           3
100
AcDbLine
 10
-1841.549860468994
 20
-2924.368566714255
 11
-1841.549860468994
 21
-2786.368566714251
  0
LINE
  5
393
100
AcDbEntity
  8
1
  6
PHANTOM
 62
           3
100
AcDbLine
 10
-1891.549860468994
 20
-2924.368566714251
 11
-1841.549860468994
 21
-2924.368566714255
  0
LINE
  5
392
100
AcDbEntity
  8
1
  6
PHANTOM
 62
           3
100
AcDbLine
 10
-1955.549860468994
 20
-2704.368566714251
 11
-1955.549860468994
 21
-2924.368566714251
  0
LINE
  5
391
100
AcDbEntity
  8
1
  6
PHANTOM
 62
           3
100
AcDbLine
 10
-1905.549860468994
 20
-2924.368566714251
 11
-1905.549860468994
 21
-2786.368566714251
  0
LINE
  5
390
100
AcDbEntity
  8
1
  6
PHANTOM
 62
           3
100
AcDbLine
 10
-1955.549860468994
 20
-2924.368566714251
 11
-1905.549860468994
 21
-2924.368566714251
  0
LINE
  5
38F
100
AcDbEntity
  8
1
  6
DOT_CENTER
 62
           3
100
AcDbLine
 10
-1994.593043377953
 20
-2814.368566714251
 11
-1753.496272582224
 21
-2814.368566714251
  0
LINE
  5
38E
100
AcDbEntity
  8
1
  6
PHANTOM
 62
           3
100
AcDbLine
 10
-2030.549860468994
 20
-2889.86856671425
 11
-2030.549860468994
 21
-2935.868566714251
  0
LINE
  5
38D
100
AcDbEntity
  8
1
  6
PHANTOM
 62
           3
100
AcDbLine
 10
-1830.549860468994
 20
-3089.86856671425
 11
-1830.549860468994
 21
-2924.368566714251
  0
LINE
  5
38C
100
AcDbEntity
  8
1
  6
PHANTOM
 62
           3
100
AcDbLine
 10
-2030.549860468994
 20
-3089.86856671425
 11
-1830.549860468994
 21
-3089.86856671425
  0
LINE
  5
38B
100
AcDbEntity
  8
1
  6
DOT_CENTER
 62
           3
100
AcDbLine
 10
-2112.549860468994
 20
590.586340487986
 11
-2112.549860468994
 21
789.410003339187
  0
LINE
  5
38A
100
AcDbEntity
  8
1
  6
DOT_CENTER
 62
           3
100
AcDbLine
 10
-2149.549860468994
 20
612.410003339188
 11
-2149.549860468994
 21
666.410003339189
  0
LINE
  5
389
100
AcDbEntity
  8
1
  6
DOT_CENTER
 62
           3
100
AcDbLine
 10
-2075.549860468994
 20
612.410003339188
 11
-2149.549860468994
 21
612.410003339188
  0
LINE
  5
388
100
AcDbEntity
  8
1
  6
DOT_CENTER
 62
           3
100
AcDbLine
 10
-2075.549860468993
 20
666.410003339189
 11
-2075.549860468994
 21
612.410003339188
  0
LINE
  5
387
100
AcDbEntity
  8
1
  6
DOT_CENTER
 62
           3
100
AcDbLine
 10
-2149.549860468994
 20
666.410003339189
 11
-2075.549860468993
 21
666.410003339189
  0
LINE
  5
386
100
AcDbEntity
  8
1
  6
DOT_CENTER
 62
           3
100
AcDbLine
 10
-1918.549860468994
 20
739.391539154281
 11
-1918.549860468994
 21
582.650063225781
  0
LINE
  5
385
100
AcDbEntity
  8
1
  6
PHANTOM
 62
           3
100
AcDbLine
 10
-1792.549860468993
 20
621.410003339188
 11
-1792.549860468993
 21
583.410003339189
  0
LINE
  5
384
100
AcDbEntity
  8
1
  6
PHANTOM
 62
           3
100
AcDbLine
 10
-1744.549860468993
 20
621.410003339188
 11
-1792.549860468993
 21
621.410003339188
  0
LINE
  5
383
100
AcDbEntity
  8
1
  6
PHANTOM
 62
           3
100
AcDbLine
 10
-1744.549860468993
 20
583.410003339189
 11
-1744.549860468993
 21
621.410003339188
  0
LINE
  5
382
100
AcDbEntity
  8
1
  6
PHANTOM
 62
           3
100
AcDbLine
 10
-1792.549860468993
 20
583.410003339189
 11
-1744.549860468993
 21
583.410003339189
  0
LINE
  5
381
100
AcDbEntity
  8
1
  6
DOT_CENTER
 62
           3
100
AcDbLine
 10
-1768.549860468993
 20
572.729716647984
 11
-1768.549860468993
 21
808.833965198584
  0
LINE
  5
380
100
AcDbEntity
  8
1
  6
DOT_CENTER
 62
           3
100
AcDbLine
 10
-2136.874427990074
 20
602.410003339187
 11
-1710.283594462074
 21
602.410003339187
  0
LINE
  5
37F
100
AcDbEntity
  8
1
  6
DOT_CENTER
 62
           3
100
AcDbLine
 10
-1966.045333297044
 20
827.410003339188
 11
-1688.275629119844
 21
827.410003339188
  0
LINE
  5
37E
100
AcDbEntity
  8
1
  6
PHANTOM
 62
           3
100
AcDbLine
 10
-1825.549860468993
 20
967.410003339188
 11
-1825.549860468994
 21
717.410003339188
  0
LINE
  5
37D
100
AcDbEntity
  8
1
  6
PHANTOM
 62
           3
100
AcDbLine
 10
-1775.549860468994
 20
717.410003339188
 11
-1775.549860468994
 21
967.410003339188
  0
LINE
  5
37C
100
AcDbEntity
  8
1
  6
PHANTOM
 62
           3
100
AcDbLine
 10
-1889.549860468994
 20
967.410003339188
 11
-1889.549860468994
 21
717.410003339188
  0
LINE
  5
37B
100
AcDbEntity
  8
1
  6
PHANTOM
 62
           3
100
AcDbLine
 10
-1839.549860468994
 20
717.410003339188
 11
-1839.549860468994
 21
967.410003339188
  0
LINE
  5
37A
100
AcDbEntity
  8
1
  6
PHANTOM
 62
           3
100
AcDbLine
 10
-1953.549860468994
 20
967.410003339188
 11
-1953.549860468994
 21
717.410003339188
  0
LINE
  5
379
100
AcDbEntity
  8
1
  6
PHANTOM
 62
           3
100
AcDbLine
 10
-1775.549860468994
 20
967.410003339188
 11
-1953.549860468994
 21
967.410003339188
  0
LINE
  5
378
100
AcDbEntity
  8
1
  6
PHANTOM
 62
           3
100
AcDbLine
 10
-1903.549860468994
 20
717.410003339188
 11
-1903.549860468994
 21
967.410003339188
  0
LINE
  5
377
100
AcDbEntity
  8
1
  6
PHANTOM
 62
           3
100
AcDbLine
 10
-1953.549860468994
 20
717.410003339188
 11
-1775.549860468994
 21
717.410003339188
  0
LINE
  5
376
100
AcDbEntity
  8
1
  6
PHANTOM
 62
           3
100
AcDbLine
 10
-2008.549860468994
 20
887.410003339188
 11
-1953.549860468994
 21
887.410003339188
  0
LINE
  5
375
100
AcDbEntity
  8
1
  6
PHANTOM
 62
           3
100
AcDbLine
 10
-1848.549860468994
 20
1047.410003339188
 11
-1848.549860468994
 21
967.410003339188
  0
LINE
  5
374
100
AcDbEntity
  8
1
  6
PHANTOM
 62
           3
100
AcDbLine
 10
-2008.549860468994
 20
1047.410003339188
 11
-2008.549860468994
 21
887.410003339188
  0
LINE
  5
373
100
AcDbEntity
  8
1
  6
PHANTOM
 62
           3
100
AcDbLine
 10
-2028.549860468994
 20
1047.410003339187
 11
-1828.549860468994
 21
1047.410003339187
  0
LINE
  5
372
100
AcDbEntity
  8
1
  6
PHANTOM
 62
           3
100
AcDbLine
 10
-1828.549860468994
 20
1047.410003339187
 11
-1828.549860468994
 21
1051.910003339184
  0
LINE
  5
371
100
AcDbEntity
  8
1
  6
PHANTOM
 62
           3
100
AcDbLine
 10
-2028.549860468994
 20
1047.410003339187
 11
-2028.549860468994
 21
1051.910003339184
  0
LINE
  5
370
100
AcDbEntity
  8
1
  6
DOT_CENTER
 62
           3
100
AcDbLine
 10
-2112.549860468994
 20
771.910003339187
 11
-2110.549860468994
 21
806.910003339187
  0
LINE
  5
36F
100
AcDbEntity
  8
1
  6
DOT_CENTER
 62
           3
100
AcDbLine
 10
-2130.049860468994
 20
789.410003339187
 11
-2095.049860468994
 21
789.410003339187
  0
LINE
  5
36E
100
AcDbEntity
  8
1
  6
DOT_CENTER
 62
           3
100
AcDbLine
 10
-1928.549860468994
 20
1105.274145251083
 11
-1928.549860468994
 21
500.492609117682
  0
LINE
  5
36D
100
AcDbEntity
  8
1
  6
DOT_CENTER
 62
           3
100
AcDbLine
 10
-1727.549860468994
 20
635.724686207776
 11
-1727.549860468994
 21
689.724686207777
  0
LINE
  5
36C
100
AcDbEntity
  8
1
  6
DOT_CENTER
 62
           3
100
AcDbLine
 10
-1653.549860468994
 20
635.724686207776
 11
-1727.549860468994
 21
635.724686207776
  0
LINE
  5
36B
100
AcDbEntity
  8
1
  6
DOT_CENTER
 62
           3
100
AcDbLine
 10
-1653.549860468994
 20
689.724686207777
 11
-1653.549860468994
 21
635.724686207776
  0
LINE
  5
36A
100
AcDbEntity
  8
1
  6
DOT_CENTER
 62
           3
100
AcDbLine
 10
-1727.549860468994
 20
689.724686207777
 11
-1653.549860468994
 21
689.724686207777
  0
LINE
  5
369
100
AcDbEntity
  8
1
  6
DOT_CENTER
 62
           3
100
AcDbLine
 10
-2155.549860468994
 20
554.410003339184
 11
-2155.549860468994
 21
1051.910003339182
  0
LINE
  5
368
100
AcDbEntity
  8
1
  6
DOT_CENTER
 62
           3
100
AcDbLine
 10
-1744.843831370601
 20
554.410003339187
 11
-2155.549860468994
 21
554.410003339184
  0
LINE
  5
367
100
AcDbEntity
  8
1
  6
DOT_CENTER
 62
           3
100
AcDbLine
 10
-1744.843831370601
 20
1051.910003339182
 11
-1744.843831370601
 21
554.410003339187
  0
LINE
  5
366
100
AcDbEntity
  8
1
  6
CONTINUOUS
 62
           2
100
AcDbLine
 10
-2032.549860468994
 20
751.910003339182
 11
-2032.549860468994
 21
1001.910003339182
  0
LINE
  5
365
100
AcDbEntity
  8
1
  6
DOT_CENTER
 62
           3
100
AcDbLine
 10
-1729.549860468994
 20
-2871.368566714251
 11
-1729.549860468994
 21
-2797.36856671425
  0
LINE
  5
364
100
AcDbEntity
  8
1
  6
DOT_CENTER
 62
           3
100
AcDbLine
 10
-1655.549860468994
 20
-2871.368566714251
 11
-1729.549860468994
 21
-2871.368566714251
  0
LINE
  5
363
100
AcDbEntity
  8
1
  6
DOT_CENTER
 62
           3
100
AcDbLine
 10
-1655.549860468994
 20
-2797.36856671425
 11
-1655.549860468994
 21
-2871.368566714251
  0
LINE
  5
362
100
AcDbEntity
  8
1
  6
DOT_CENTER
 62
           3
100
AcDbLine
 10
-1729.549860468994
 20
-2797.36856671425
 11
-1655.549860468994
 21
-2797.36856671425
  0
LINE
  5
361
100
AcDbEntity
  8
1
  6
DOT_CENTER
 62
           3
100
AcDbLine
 10
-2153.549860468994
 20
-3089.868566714251
 11
-2153.549860468994
 21
-2616.86856671425
  0
LINE
  5
360
100
AcDbEntity
  8
1
  6
DOT_CENTER
 62
           3
100
AcDbLine
 10
-1733.549860468994
 20
-3089.868566714251
 11
-2153.549860468994
 21
-3089.868566714251
  0
LINE
  5
35F
100
AcDbEntity
  8
1
  6
DOT_CENTER
 62
           3
100
AcDbLine
 10
-1733.549860468993
 20
-2616.86856671425
 11
-1733.549860468994
 21
-3089.868566714251
  0
LINE
  5
35E
100
AcDbEntity
  8
1
  6
DOT_CENTER
 62
           3
100
AcDbLine
 10
-2153.549860468994
 20
-2616.86856671425
 11
-1733.549860468993
 21
-2616.86856671425
  0
LINE
  5
35D
100
AcDbEntity
  8
1
  6
DOT_CENTER
 62
           3
100
AcDbLine
 10
-3351.549860468994
 20
454.760842440903
 11
-3351.549860468994
 21
428.584043169261
  0
LINE
  5
35C
100
AcDbEntity
  8
1
  6
DOT_CENTER
 62
           3
100
AcDbLine
 10
-3345.549860468994
 20
454.760842440903
 11
-3345.549860468994
 21
428.584043169261
  0
LINE
  5
35B
100
AcDbEntity
  8
1
  6
DOT_CENTER
 62
           3
100
AcDbLine
 10
-3091.549860468994
 20
456.482100948542
 11
-3091.549860468994
 21
422.811584268353
  0
LINE
  5
35A
100
AcDbEntity
  8
1
  6
DOT_CENTER
 62
           3
100
AcDbLine
 10
-3107.549860468994
 20
458.267308507602
 11
-3107.549860468994
 21
421.373018953773
  0
LINE
  5
359
100
AcDbEntity
  8
1
  6
DOT_CENTER
 62
           3
100
AcDbLine
 10
-3221.549860468994
 20
453.697177156411
 11
-3221.549860468994
 21
431.632011726491
  0
LINE
  5
358
100
AcDbEntity
  8
1
  6
DOT_CENTER
 62
           3
100
AcDbLine
 10
-3279.549860468994
 20
451.983377899733
 11
-3279.549860468994
 21
429.489762655612
  0
LINE
  5
357
100
AcDbEntity
  8
1
  6
DOT_CENTER
 62
           3
100
AcDbLine
 10
-3250.549860468994
 20
456.482100948542
 11
-3250.549860468994
 21
402.925874176863
  0
LINE
  5
356
100
AcDbEntity
  8
1
  6
DOT_CENTER
 62
           3
100
AcDbLine
 10
-4367.549860468993
 20
476.530849790332
 11
-4367.549860468993
 21
448.787616522102
  0
LINE
  5
355
100
AcDbEntity
  8
1
  6
DOT_CENTER
 62
           3
100
AcDbLine
 10
-4288.549860468993
 20
452.410003339182
 11
-4288.549860468993
 21
425.719150726893
  0
LINE
  5
354
100
AcDbEntity
  8
1
  6
DOT_CENTER
 62
           3
100
AcDbLine
 10
-4243.549860468993
 20
452.410003339182
 11
-4243.549860468993
 21
427.061857634582
  0
LINE
  5
353
100
AcDbEntity
  8
1
  6
DOT_CENTER
 62
           3
100
AcDbLine
 10
-4198.549860468993
 20
452.410003339182
 11
-4198.549860468993
 21
428.628349026893
  0
LINE
  5
352
100
AcDbEntity
  8
1
  6
CONTINUOUS
 62
           3
100
AcDbLine
 10
-4185.549860468993
 20
443.410003339182
 11
-4185.549860468993
 21
438.910003339182
  0
LINE
  5
351
100
AcDbEntity
  8
1
  6
CONTINUOUS
 62
           3
100
AcDbLine
 10
-4332.549860468993
 20
438.910003339182
 11
-4185.549860468993
 21
438.910003339182
  0
LINE
  5
350
100
AcDbEntity
  8
1
  6
CONTINUOUS
 62
           3
100
AcDbLine
 10
-4320.549860468993
 20
468.410003339182
 11
-4305.549860468993
 21
468.410003339182
  0
LINE
  5
34F
100
AcDbEntity
  8
1
  6
CONTINUOUS
 62
           3
100
AcDbLine
 10
-4320.549860468993
 20
468.410003339182
 11
-4320.549860468993
 21
443.410003339182
  0
LINE
  5
34E
100
AcDbEntity
  8
1
  6
CONTINUOUS
 62
           3
100
AcDbLine
 10
-3325.549860468994
 20
468.410003339182
 11
-3310.549860468994
 21
468.410003339182
  0
LINE
  5
34D
100
AcDbEntity
  8
1
  6
CONTINUOUS
 62
           3
100
AcDbLine
 10
-3311.549860468994
 20
444.410003339182
 11
-3311.549860468994
 21
445.410003339182
  0
LINE
  5
34C
100
AcDbEntity
  8
1
  6
CONTINUOUS
 62
           3
100
AcDbLine
 10
-3310.549860468994
 20
443.410003339182
 11
-3310.549860468994
 21
468.410003339182
  0
LINE
  5
34B
100
AcDbEntity
  8
1
  6
CONTINUOUS
 62
           3
100
AcDbLine
 10
-3310.549860468994
 20
443.410003339182
 11
-4332.549860468993
 21
443.410003339182
  0
LINE
  5
34A
100
AcDbEntity
  8
1
  6
CONTINUOUS
 62
           3
100
AcDbLine
 10
-4328.346836098706
 20
445.362527314912
 11
-4324.198213924748
 21
443.410003339182
  0
LINE
  5
349
100
AcDbEntity
  8
1
  6
DOT_CENTER
 62
           3
100
AcDbLine
 10
-4345.448026220844
 20
448.910003339182
 11
-4321.369008122409
 21
448.910003339182
  0
LINE
  5
348
100
AcDbEntity
  8
1
  6
DOT_CENTER
 62
           3
100
AcDbLine
 10
-4332.549860468993
 20
461.804938643361
 11
-4332.549860468993
 21
435.543759529763
  0
LINE
  5
347
100
AcDbEntity
  8
1
  6
CONTINUOUS
 62
           3
100
AcDbLine
 10
-4392.549860468993
 20
458.910003339182
 11
-4392.549860468993
 21
454.410003339182
  0
LINE
  5
346
100
AcDbEntity
  8
1
  6
CONTINUOUS
 62
           3
100
AcDbLine
 10
-4392.549860468993
 20
454.410003339182
 11
-4342.560209889645
 21
454.410003339182
  0
LINE
  5
345
100
AcDbEntity
  8
1
  6
CONTINUOUS
 62
           3
100
AcDbLine
 10
-4392.549860468993
 20
458.910003339182
 11
-4338.44543926159
 21
458.910003339182
  0
LINE
  5
344
100
AcDbEntity
  8
1
  6
DOT_CENTER
 62
           3
100
AcDbLine
 10
-2245.549860468994
 20
448.787616522102
 11
-2245.549860468994
 21
476.530849790332
  0
LINE
  5
343
100
AcDbEntity
  8
1
  6
DOT_CENTER
 62
           3
100
AcDbLine
 10
-2324.549860468994
 20
425.719150726893
 11
-2324.549860468994
 21
452.410003339182
  0
LINE
  5
342
100
AcDbEntity
  8
1
  6
DOT_CENTER
 62
           3
100
AcDbLine
 10
-2369.549860468994
 20
427.061857634582
 11
-2369.549860468994
 21
452.410003339182
  0
LINE
  5
341
100
AcDbEntity
  8
1
  6
DOT_CENTER
 62
           3
100
AcDbLine
 10
-2414.549860468994
 20
428.628349026893
 11
-2414.549860468994
 21
452.410003339182
  0
LINE
  5
340
100
AcDbEntity
  8
1
  6
CONTINUOUS
 62
           3
100
AcDbLine
 10
-2427.549860468994
 20
438.910003339182
 11
-2427.549860468994
 21
443.410003339182
  0
LINE
  5
33F
100
AcDbEntity
  8
1
  6
CONTINUOUS
 62
           3
100
AcDbLine
 10
-2427.549860468994
 20
438.910003339182
 11
-2280.549860468994
 21
438.910003339182
  0
LINE
  5
33E
100
AcDbEntity
  8
1
  6
CONTINUOUS
 62
           3
100
AcDbLine
 10
-2307.549860468994
 20
468.410003339182
 11
-2292.549860468994
 21
468.410003339182
  0
LINE
  5
33D
100
AcDbEntity
  8
1
  6
CONTINUOUS
 62
           3
100
AcDbLine
 10
-2292.549860468994
 20
443.410003339182
 11
-2292.549860468994
 21
468.410003339182
  0
LINE
  5
33C
100
AcDbEntity
  8
1
  6
CONTINUOUS
 62
           3
100
AcDbLine
 10
-3300.549860468994
 20
468.410003339182
 11
-3285.549860468994
 21
468.410003339182
  0
LINE
  5
33B
100
AcDbEntity
  8
1
  6
CONTINUOUS
 62
           3
100
AcDbLine
 10
-3299.549860468994
 20
445.410003339182
 11
-3299.549860468994
 21
444.410003339182
  0
LINE
  5
33A
100
AcDbEntity
  8
1
  6
CONTINUOUS
 62
           3
100
AcDbLine
 10
-3300.549860468994
 20
468.410003339182
 11
-3300.549860468994
 21
443.410003339182
  0
LINE
  5
339
100
AcDbEntity
  8
1
  6
CONTINUOUS
 62
           1
100
AcDbLine
 10
-2308.549860468994
 20
445.410003339182
 11
-2308.549860468994
 21
444.410003339182
  0
LINE
  5
338
100
AcDbEntity
  8
1
  6
CONTINUOUS
 62
           3
100
AcDbLine
 10
-2288.901507013238
 20
443.410003339182
 11
-2284.75288483928
 21
445.362527314912
  0
LINE
  5
337
100
AcDbEntity
  8
1
  6
DOT_CENTER
 62
           3
100
AcDbLine
 10
-2291.730712815577
 20
448.910003339182
 11
-2267.651694717145
 21
448.910003339182
  0
LINE
  5
336
100
AcDbEntity
  8
1
  6
DOT_CENTER
 62
           3
100
AcDbLine
 10
-2280.549860468994
 20
435.543759529763
 11
-2280.549860468994
 21
461.804938643361
  0
LINE
  5
335
100
AcDbEntity
  8
1
  6
CONTINUOUS
 62
           3
100
AcDbLine
 10
-2220.549860468994
 20
454.410003339182
 11
-2220.549860468994
 21
458.910003339182
  0
LINE
  5
334
100
AcDbEntity
  8
1
  6
CONTINUOUS
 62
           3
100
AcDbLine
 10
-2270.539511048339
 20
454.410003339182
 11
-2220.549860468994
 21
454.410003339182
  0
LINE
  5
333
100
AcDbEntity
  8
1
  6
CONTINUOUS
 62
           3
100
AcDbLine
 10
-2274.654281676397
 20
458.910003339182
 11
-2220.549860468994
 21
458.910003339182
  0
LINE
  5
332
100
AcDbEntity
  8
1
  6
CONTINUOUS
 62
           3
100
AcDbLine
 10
-4320.549860468993
 20
468.410003339182
 11
-3310.549860468994
 21
468.410003339182
  0
LINE
  5
331
100
AcDbEntity
  8
1
  6
CONTINUOUS
 62
           3
100
AcDbLine
 10
-3300.549860468994
 20
468.410003339182
 11
-2292.549860468994
 21
468.410003339182
  0
LINE
  5
330
100
AcDbEntity
  8
1
  6
CONTINUOUS
 62
           1
100
AcDbLine
 10
-4342.549860468993
 20
474.910003339182
 11
-4342.549860468993
 21
458.910003339182
  0
LINE
  5
32F
100
AcDbEntity
  8
1
  6
CONTINUOUS
 62
           1
100
AcDbLine
 10
-4392.549860468993
 20
474.910003339182
 11
-4392.549860468993
 21
458.910003339182
  0
LINE
  5
32E
100
AcDbEntity
  8
1
  6
CONTINUOUS
 62
           1
100
AcDbLine
 10
-2220.549860468994
 20
474.910003339182
 11
-2220.549860468994
 21
458.591154215372
  0
LINE
  5
32D
100
AcDbEntity
  8
1
  6
CONTINUOUS
 62
           1
100
AcDbLine
 10
-2270.549860468994
 20
474.910003339182
 11
-2270.549860468994
 21
458.910003339182
  0
LINE
  5
32C
100
AcDbEntity
  8
1
  6
CONTINUOUS
 62
           2
100
AcDbLine
 10
-2207.549860468993
 20
549.910003339182
 11
-2207.549860468994
 21
474.910003339182
  0
LINE
  5
32B
100
AcDbEntity
  8
1
  6
CONTINUOUS
 62
           2
100
AcDbLine
 10
-2207.549860468993
 20
549.910003339182
 11
-2232.549860468994
 21
549.910003339182
  0
LINE
  5
32A
100
AcDbEntity
  8
1
  6
CONTINUOUS
 62
           2
100
AcDbLine
 10
-4382.549860468995
 20
549.910003339182
 11
-4407.549860468993
 21
549.910003339182
  0
LINE
  5
329
100
AcDbEntity
  8
1
  6
CONTINUOUS
 62
           2
100
AcDbLine
 10
-4407.549860468993
 20
549.910003339182
 11
-4407.549860468993
 21
474.910003339182
  0
LINE
  5
328
100
AcDbEntity
  8
1
  6
DOT_CENTER
 62
           3
100
AcDbLine
 10
-1930.549860468994
 20
-2671.232622872853
 11
-1930.549860468994
 21
-3153.859322760432
  0
LINE
  5
327
100
AcDbEntity
  8
1
  6
DOT_CENTER
 62
           3
100
AcDbLine
 10
-2015.725657444484
 20
-2989.868566714251
 11
-1793.908359719157
 21
-2989.868566714251
  0
LINE
  5
326
100
AcDbEntity
  8
1
  6
CONTINUOUS
 62
           2
100
AcDbLine
 10
-2207.549860468994
 20
-3441.068566714253
 11
-1632.549860468994
 21
-3441.068566714253
  0
LINE
  5
325
100
AcDbEntity
  8
1
  6
CONTINUOUS
 62
           2
100
AcDbLine
 10
-2130.549860468994
 20
1001.910003339182
 11
-2130.549860468994
 21
1051.910003339182
  0
LINE
  5
324
100
AcDbEntity
  8
1
  6
CONTINUOUS
 62
           2
100
AcDbLine
 10
-2232.549860468994
 20
1051.910003339182
 11
-1632.549860468994
 21
1051.910003339182
  0
LINE
  5
323
100
AcDbEntity
  8
1
  6
CONTINUOUS
 62
           2
100
AcDbLine
 10
-2232.549860468994
 20
2551.910003339182
 11
-1632.549860468994
 21
2551.910003339182
  0
LINE
  5
322
100
AcDbEntity
  8
1
  6
CONTINUOUS
 62
           3
100
AcDbLine
 10
-2307.549860468994
 20
-1549.068566714253
 11
-2307.549860468994
 21
-1412.068566714253
  0
LINE
  5
321
100
AcDbEntity
  8
1
  6
CONTINUOUS
 62
           2
100
AcDbLine
 10
-4531.725546510326
 20
-3491.068566714253
 11
-1520.484971429093
 21
-3491.068566714253
  0
LINE
  5
320
100
AcDbEntity
  8
1
  6
CONTINUOUS
 62
           2
100
AcDbLine
 10
-1632.549860468994
 20
1181.910003339184
 11
-1632.549860468994
 21
751.910003339182
  0
LINE
  5
31F
100
AcDbEntity
  8
1
  6
CONTINUOUS
 62
           2
100
AcDbLine
 10
-4407.549860468993
 20
474.910003339182
 11
-2207.549860468994
 21
474.910003339182
  0
LINE
  5
31E
100
AcDbEntity
  8
1
  6
DOT_CENTER
 62
           3
100
AcDbLine
 10
-2336.600857517144
 20
2311.910003339182
 11
-1876.113465557233
 21
2311.910003339182
  0
LINE
  5
31D
100
AcDbEntity
  8
1
  6
DOT_CENTER
 62
           3
100
AcDbLine
 10
-2322.432014687604
 20
1801.910003339182
 11
-1480.969138369073
 21
1801.910003339182
  0
LINE
  5
31C
100
AcDbEntity
  8
1
  6
CONTINUOUS
 62
           3
100
AcDbLine
 10
-4307.549860468995
 20
550.910003339184
 11
-2307.549860468994
 21
550.910003339184
  0
LINE
  5
31B
100
AcDbEntity
  8
1
  6
CONTINUOUS
 62
           3
100
AcDbLine
 10
-2307.549860468994
 20
2550.910003339182
 11
-2307.549860468994
 21
550.910003339184
  0
LINE
  5
31A
100
AcDbEntity
  8
1
  6
CONTINUOUS
 62
           3
100
AcDbLine
 10
-4307.549860468993
 20
2550.910003339182
 11
-4307.549860468995
 21
550.910003339184
  0
LINE
  5
319
100
AcDbEntity
  8
1
  6
CONTINUOUS
 62
           2
100
AcDbLine
 10
-4407.549860468993
 20
-1412.068566714253
 11
-2207.549860468994
 21
-1412.068566714253
  0
LINE
  5
318
100
AcDbEntity
  8
1
  6
CONTINUOUS
 62
           2
100
AcDbLine
 10
-2207.549860468994
 20
-1412.068566714253
 11
-2207.549860468994
 21
-3491.068566714253
  0
LINE
  5
317
100
AcDbEntity
  8
1
  6
CONTINUOUS
 62
           2
100
AcDbLine
 10
-4407.549860468993
 20
-1412.068566714253
 11
-4407.549860468993
 21
-3491.068566714253
  0
LINE
  5
316
100
AcDbEntity
  8
1
  6
CONTINUOUS
 62
           2
100
AcDbLine
 10
-1922.549860468994
 20
2466.910003339182
 11
-1922.549860468994
 21
2156.910003339182
  0
LINE
  5
315
100
AcDbEntity
  8
1
  6
CONTINUOUS
 62
           2
100
AcDbLine
 10
-2232.549860468994
 20
2466.910003339182
 11
-1922.549860468994
 21
2466.910003339182
  0
LINE
  5
314
100
AcDbEntity
  8
1
  6
CONTINUOUS
 62
           2
100
AcDbLine
 10
-2232.549860468994
 20
2156.910003339182
 11
-1922.549860468994
 21
2156.910003339182
  0
LINE
  5
313
100
AcDbEntity
  8
1
  6
CONTINUOUS
 62
           2
100
AcDbLine
 10
-2212.549860468994
 20
2441.910003339182
 11
-1952.549860468994
 21
2441.910003339182
  0
LINE
  5
312
100
AcDbEntity
  8
1
  6
CONTINUOUS
 62
           2
100
AcDbLine
 10
-2212.549860468994
 20
2181.910003339182
 11
-1952.549860468994
 21
2181.910003339182
  0
LINE
  5
311
100
AcDbEntity
  8
1
  6
CONTINUOUS
 62
           2
100
AcDbLine
 10
-2182.549860468994
 20
2211.910003339182
 11
-1982.549860468994
 21
2211.910003339182
  0
LINE
  5
310
100
AcDbEntity
  8
1
  6
CONTINUOUS
 62
           2
100
AcDbLine
 10
-1982.549860468994
 20
2411.910003339182
 11
-1982.549860468994
 21
2211.910003339182
  0
LINE
  5
30F
100
AcDbEntity
  8
1
  6
CONTINUOUS
 62
           2
100
AcDbLine
 10
-2182.549860468994
 20
2411.910003339182
 11
-2182.549860468994
 21
2211.910003339182
  0
LINE
  5
30E
100
AcDbEntity
  8
1
  6
CONTINUOUS
 62
           2
100
AcDbLine
 10
-2212.549860468994
 20
2441.910003339182
 11
-2212.549860468994
 21
2181.910003339182
  0
LINE
  5
30D
100
AcDbEntity
  8
1
  6
CONTINUOUS
 62
           3
100
AcDbLine
 10
-2182.549860468994
 20
2411.910003339182
 11
-1982.549860468994
 21
2211.910003339182
  0
LINE
  5
30C
100
AcDbEntity
  8
1
  6
CONTINUOUS
 62
           3
100
AcDbLine
 10
-1982.549860468994
 20
2411.910003339182
 11
-2182.549860468994
 21
2211.910003339182
  0
LINE
  5
30B
100
AcDbEntity
  8
1
  6
DOT_CENTER
 62
           3
100
AcDbLine
 10
-2082.549860468994
 20
2506.005779422781
 11
-2082.549860468994
 21
2139.977339659785
  0
LINE
  5
30A
100
AcDbEntity
  8
1
  6
CONTINUOUS
 62
           3
100
AcDbLine
 10
-1922.549860468994
 20
2466.910003339182
 11
-1952.549860468994
 21
2156.910003339182
  0
LINE
  5
309
100
AcDbEntity
  8
1
  6
CONTINUOUS
 62
           3
100
AcDbLine
 10
-1952.549860468994
 20
2466.910003339182
 11
-1922.549860468994
 21
2156.910003339182
  0
LINE
  5
308
100
AcDbEntity
  8
1
  6
CONTINUOUS
 62
           2
100
AcDbLine
 10
-1632.549860468994
 20
2551.910003339182
 11
-1632.549860468994
 21
2051.910003339182
  0
LINE
  5
307
100
AcDbEntity
  8
1
  6
CONTINUOUS
 62
           2
100
AcDbLine
 10
-1632.549860468994
 20
751.910003339182
 11
-2032.549860468994
 21
751.910003339182
  0
LINE
  5
306
100
AcDbEntity
  8
1
  6
CONTINUOUS
 62
           2
100
AcDbLine
 10
-2032.549860468994
 20
-2441.068566714253
 11
-1632.549860468994
 21
-2441.068566714253
  0
LINE
  5
305
100
AcDbEntity
  8
1
  6
CONTINUOUS
 62
           2
100
AcDbLine
 10
-2032.549860468994
 20
-1841.068566714253
 11
-2032.549860468994
 21
-2441.068566714253
  0
LINE
  5
304
100
AcDbEntity
  8
1
  6
CONTINUOUS
 62
           2
100
AcDbLine
 10
-2207.549860468994
 20
-3391.068566714253
 11
-1632.549860468994
 21
-3391.068566714253
  0
LINE
  5
303
100
AcDbEntity
  8
1
  6
DOT_CENTER
 62
           3
100
AcDbLine
 10
-2030.549860468994
 20
2127.429171184974
 11
-2030.549860468994
 21
1330.072812909551
  0
LINE
  5
302
100
AcDbEntity
  8
1
  6
DOT_CENTER
 62
           3
100
AcDbLine
 10
-3307.549860468994
 20
-1367.380932622941
 11
-3307.549860468994
 21
-3512.068566714253
  0
LINE
  5
301
100
AcDbEntity
  8
1
  6
CONTINUOUS
 62
           3
100
AcDbLine
 10
-4307.549860468993
 20
2550.910003339182
 11
-2307.549860468994
 21
2550.910003339182
  0
LINE
  5
300
100
AcDbEntity
  8
1
  6
CONTINUOUS
 62
           2
100
AcDbLine
 10
-4382.549860468993
 20
2626.910003339182
 11
-4382.549860468995
 21
549.910003339182
  0
LINE
  5
2FF
100
AcDbEntity
  8
1
  6
CONTINUOUS
 62
           2
100
AcDbLine
 10
-4382.549860468993
 20
2626.910003339182
 11
-2232.549860468994
 21
2626.910003339182
  0
LINE
  5
2FE
100
AcDbEntity
  8
1
  6
DOT_CENTER
 62
           3
100
AcDbLine
 10
-2381.549860468994
 20
-1381.251360058091
 11
-2381.549860468994
 21
-1487.485963374102
  0
LINE
  5
2FD
100
AcDbEntity
  8
1
  6
CONTINUOUS
 62
           2
100
AcDbLine
 10
-260.258119635721
 20
-2439.068566714254
 11
-10.258119635721
 21
-2439.068566714254
  0
LINE
  5
2FC
100
AcDbEntity
  8
1
  6
CONTINUOUS
 62
           2
100
AcDbLine
 10
-10.258119635721
 20
-2439.068566714254
 11
-10.258119635721
 21
-1939.068566714254
  0
LINE
  5
2FB
100
AcDbEntity
  8
1
  6
CONTINUOUS
 62
           2
100
AcDbLine
 10
-10.258119635721
 20
-1939.068566714254
 11
-260.258119635721
 21
-1939.068566714254
  0
LINE
  5
2FA
100
AcDbEntity
  8
1
  6
CONTINUOUS
 62
           2
100
AcDbLine
 10
-260.258119635721
 20
-1939.068566714254
 11
-260.258119635721
 21
-2439.068566714254
  0
LINE
  5
2F9
100
AcDbEntity
  8
1
  6
CONTINUOUS
 62
           3
100
AcDbLine
 10
-243.258253000201
 20
-2444.068566714254
 11
39.741880364279
 21
-2444.068566714254
  0
LINE
  5
2F8
100
AcDbEntity
  8
1
  6
CONTINUOUS
 62
           3
100
AcDbLine
 10
-243.258253000201
 20
-2444.068566714254
 11
-243.258253000201
 21
-2439.068566714254
  0
LINE
  5
2F7
100
AcDbEntity
  8
1
  6
CONTINUOUS
 62
           3
100
AcDbLine
 10
-10.258119635721
 20
-2439.068566714254
 11
-10.258119635721
 21
-2444.068566714254
  0
LINE
  5
2F6
100
AcDbEntity
  8
1
  6
CONTINUOUS
 62
           3
100
AcDbLine
 10
-230.258119635721
 20
-1939.068566714254
 11
-230.258119635721
 21
-2439.068566714254
  0
LINE
  5
2F5
100
AcDbEntity
  8
1
  6
CONTINUOUS
 62
           3
100
AcDbLine
 10
-223.258119635719
 20
-2076.568566714253
 11
-216.258119635718
 21
-2076.568566714253
  0
LINE
  5
2F4
100
AcDbEntity
  8
1
  6
CONTINUOUS
 62
           3
100
AcDbLine
 10
-223.258119635719
 20
-2064.068566714253
 11
-216.258119635718
 21
-2064.068566714253
  0
LINE
  5
2F3
100
AcDbEntity
  8
1
  6
CONTINUOUS
 62
           3
100
AcDbLine
 10
-223.258119635719
 20
-2051.568566714253
 11
-216.258119635718
 21
-2051.568566714253
  0
LINE
  5
2F2
100
AcDbEntity
  8
1
  6
CONTINUOUS
 62
           3
100
AcDbLine
 10
-216.258119635719
 20
-2039.068566714253
 11
-216.258119635718
 21
-2089.068566714253
  0
LINE
  5
2F1
100
AcDbEntity
  8
1
  6
CONTINUOUS
 62
           3
100
AcDbLine
 10
-223.258119635719
 20
-2326.568566714253
 11
-216.258119635718
 21
-2326.568566714253
  0
LINE
  5
2F0
100
AcDbEntity
  8
1
  6
CONTINUOUS
 62
           3
100
AcDbLine
 10
-223.258119635719
 20
-2314.068566714253
 11
-216.258119635718
 21
-2314.068566714253
  0
LINE
  5
2EF
100
AcDbEntity
  8
1
  6
CONTINUOUS
 62
           3
100
AcDbLine
 10
-223.258119635719
 20
-2301.568566714253
 11
-216.258119635718
 21
-2301.568566714253
  0
LINE
  5
2EE
100
AcDbEntity
  8
1
  6
CONTINUOUS
 62
           3
100
AcDbLine
 10
-216.258119635718
 20
-2289.068566714253
 11
-216.258119635718
 21
-2339.068566714253
  0
LINE
  5
2ED
100
AcDbEntity
  8
1
  6
CONTINUOUS
 62
           3
100
AcDbLine
 10
-223.258119635719
 20
-2039.068566714253
 11
-223.258119635719
 21
-2089.068566714253
  0
LINE
  5
2EC
100
AcDbEntity
  8
1
  6
CONTINUOUS
 62
           3
100
AcDbLine
 10
-223.25811963572
 20
-2289.068566714253
 11
-223.25811963572
 21
-2339.068566714253
  0
LINE
  5
2EB
100
AcDbEntity
  8
1
  6
CONTINUOUS
 62
           3
100
AcDbLine
 10
-237.258119635721
 20
-2339.068566714253
 11
-237.258119635721
 21
-2289.068566714253
  0
LINE
  5
2EA
100
AcDbEntity
  8
1
  6
CONTINUOUS
 62
           3
100
AcDbLine
 10
-244.258119635724
 20
-2326.568566714253
 11
-237.258119635723
 21
-2326.568566714253
  0
LINE
  5
2E9
100
AcDbEntity
  8
1
  6
CONTINUOUS
 62
           3
100
AcDbLine
 10
-244.258119635724
 20
-2314.068566714253
 11
-237.258119635723
 21
-2314.068566714253
  0
LINE
  5
2E8
100
AcDbEntity
  8
1
  6
CONTINUOUS
 62
           3
100
AcDbLine
 10
-244.258119635724
 20
-2301.568566714253
 11
-237.258119635723
 21
-2301.568566714253
  0
LINE
  5
2E7
100
AcDbEntity
  8
1
  6
CONTINUOUS
 62
           3
100
AcDbLine
 10
-244.258119635724
 20
-2339.068566714253
 11
-244.258119635724
 21
-2289.068566714253
  0
LINE
  5
2E6
100
AcDbEntity
  8
1
  6
CONTINUOUS
 62
           3
100
AcDbLine
 10
-244.258119635724
 20
-2289.068566714253
 11
-216.258119635718
 21
-2289.068566714253
  0
LINE
  5
2E5
100
AcDbEntity
  8
1
  6
CONTINUOUS
 62
           3
100
AcDbLine
 10
-216.258119635718
 20
-2339.068566714253
 11
-244.258119635724
 21
-2339.068566714253
  0
LINE
  5
2E4
100
AcDbEntity
  8
1
  6
CONTINUOUS
 62
           3
100
AcDbLine
 10
-237.258119635723
 20
-2089.068566714253
 11
-237.258119635723
 21
-2039.068566714253
  0
LINE
  5
2E3
100
AcDbEntity
  8
1
  6
CONTINUOUS
 62
           3
100
AcDbLine
 10
-244.258119635724
 20
-2076.568566714253
 11
-237.258119635723
 21
-2076.568566714253
  0
LINE
  5
2E2
100
AcDbEntity
  8
1
  6
CONTINUOUS
 62
           3
100
AcDbLine
 10
-244.258119635724
 20
-2064.068566714253
 11
-237.258119635723
 21
-2064.068566714253
  0
LINE
  5
2E1
100
AcDbEntity
  8
1
  6
CONTINUOUS
 62
           3
100
AcDbLine
 10
-244.258119635724
 20
-2051.568566714253
 11
-237.258119635723
 21
-2051.568566714253
  0
LINE
  5
2E0
100
AcDbEntity
  8
1
  6
CONTINUOUS
 62
           3
100
AcDbLine
 10
-244.258119635724
 20
-2089.068566714253
 11
-244.258119635723
 21
-2039.068566714253
  0
LINE
  5
2DF
100
AcDbEntity
  8
1
  6
CONTINUOUS
 62
           3
100
AcDbLine
 10
-244.258119635724
 20
-2089.068566714253
 11
-244.258119635723
 21
-2039.068566714253
  0
LINE
  5
2DE
100
AcDbEntity
  8
1
  6
CONTINUOUS
 62
           3
100
AcDbLine
 10
-244.258119635723
 20
-2039.068566714253
 11
-216.258119635719
 21
-2039.068566714253
  0
LINE
  5
2DD
100
AcDbEntity
  8
1
  6
CONTINUOUS
 62
           3
100
AcDbLine
 10
-216.258119635718
 20
-2089.068566714253
 11
-244.258119635724
 21
-2089.068566714253
  0
LINE
  5
2DC
100
AcDbEntity
  8
1
  6
CONTINUOUS
 62
           2
100
AcDbLine
 10
-573.258119635721
 20
-3404.068566714254
 11
-537.258119635721
 21
-3404.068566714254
  0
LINE
  5
2DB
100
AcDbEntity
  8
1
  6
CONTINUOUS
 62
           2
100
AcDbLine
 10
-573.258119635721
 20
-3404.068566714254
 11
-573.258119635721
 21
-1549.068566714253
  0
LINE
  5
2DA
100
AcDbEntity
  8
1
  6
CONTINUOUS
 62
           2
100
AcDbLine
 10
-573.258119635721
 20
-1549.068566714253
 11
-537.258119635721
 21
-1549.068566714253
  0
LINE
  5
2D9
100
AcDbEntity
  8
1
  6
CONTINUOUS
 62
           3
100
AcDbLine
 10
-4307.549860468995
 20
-1412.068566714253
 11
-4307.549860468995
 21
-1549.068566714253
  0
LINE
  5
2D8
100
AcDbEntity
  8
1
  6
CONTINUOUS
 62
           2
100
AcDbLine
 10
-2396.549860468994
 20
-1407.068566714253
 11
-2366.549860468994
 21
-1407.068566714253
  0
LINE
  5
2D7
100
AcDbEntity
  8
1
  6
CONTINUOUS
 62
           2
100
AcDbLine
 10
-2396.549860468994
 20
-1407.068566714253
 11
-2396.549860468994
 21
-1412.068566714253
  0
LINE
  5
2D6
100
AcDbEntity
  8
1
  6
CONTINUOUS
 62
           2
100
AcDbLine
 10
-2366.549860468994
 20
-1407.068566714253
 11
-2366.549860468994
 21
-1412.068566714253
  0
LINE
  5
2D5
100
AcDbEntity
  8
1
  6
CONTINUOUS
 62
           2
100
AcDbLine
 10
-2383.949860468994
 20
-1402.068566714253
 11
-2383.949860468994
 21
-1407.068566714253
  0
LINE
  5
2D4
100
AcDbEntity
  8
1
  6
CONTINUOUS
 62
           2
100
AcDbLine
 10
-2379.149860468994
 20
-1402.068566714253
 11
-2379.149860468994
 21
-1407.068566714253
  0
LINE
  5
2D3
100
AcDbEntity
  8
1
  6
CONTINUOUS
 62
           2
100
AcDbLine
 10
-2391.549860468994
 20
-1402.068566714253
 11
-2371.549860468994
 21
-1402.068566714253
  0
LINE
  5
2D2
100
AcDbEntity
  8
1
  6
CONTINUOUS
 62
           2
100
AcDbLine
 10
-2371.549860468994
 20
-1402.068566714253
 11
-2371.549860468994
 21
-1387.068566714253
  0
LINE
  5
2D1
100
AcDbEntity
  8
1
  6
CONTINUOUS
 62
           2
100
AcDbLine
 10
-2371.549860468994
 20
-1387.068566714253
 11
-2391.549860468994
 21
-1387.068566714253
  0
LINE
  5
2D0
100
AcDbEntity
  8
1
  6
CONTINUOUS
 62
           2
100
AcDbLine
 10
-2391.549860468994
 20
-1387.068566714253
 11
-2391.549860468994
 21
-1402.068566714253
  0
LINE
  5
2CF
100
AcDbEntity
  8
1
  6
CONTINUOUS
 62
           3
100
AcDbLine
 10
414.741880364279
 20
-1489.068566714251
 11
-460.258119635721
 21
-1489.068566714251
  0
LINE
  5
2CE
100
AcDbEntity
  8
1
  6
CONTINUOUS
 62
           3
100
AcDbLine
 10
1199.741880364279
 20
-1489.068566714251
 11
1079.741880364279
 21
-1489.068566714251
  0
LINE
  5
2CD
100
AcDbEntity
  8
1
  6
PHANTOM
 62
           3
100
AcDbLine
 10
-2275.549860468994
 20
440.249749301338
 11
-1767.049860468994
 21
-440.498086347436
  0
LINE
  5
2CC
100
AcDbEntity
  8
1
  6
PHANTOM
 62
           3
100
AcDbLine
 10
-4848.049860468995
 20
-440.498086347436
 11
-4339.549860468995
 21
440.249749301338
  0
LINE
  5
2CB
100
AcDbEntity
  8
1
  6
CONTINUOUS
 62
           3
100
AcDbLine
 10
-2022.549860468994
 20
-2411.568566714254
 11
-1997.549860468994
 21
-2411.568566714254
  0
LINE
  5
2CA
100
AcDbEntity
  8
1
  6
CONTINUOUS
 62
           3
100
AcDbLine
 10
-1997.549860468994
 20
-2411.568566714254
 11
-1997.549860468994
 21
-2431.068566714254
  0
LINE
  5
2C9
100
AcDbEntity
  8
1
  6
CONTINUOUS
 62
           3
100
AcDbLine
 10
-1997.549860468994
 20
-2431.068566714254
 11
-2022.549860468994
 21
-2431.068566714254
  0
LINE
  5
2C8
100
AcDbEntity
  8
1
  6
CONTINUOUS
 62
           3
100
AcDbLine
 10
-2022.549860468994
 20
-2431.068566714254
 11
-2022.549860468994
 21
-2411.568566714254
  0
LINE
  5
2C7
100
AcDbEntity
  8
1
  6
CONTINUOUS
 62
           3
100
AcDbLine
 10
-1892.549860468994
 20
-2377.068566714254
 11
-1772.549860468994
 21
-2377.068566714254
  0
LINE
  5
2C6
100
AcDbEntity
  8
1
  6
CONTINUOUS
 62
           3
100
AcDbLine
 10
-1772.549860468994
 20
-2377.068566714254
 11
-1772.549860468994
 21
-2431.068566714254
  0
LINE
  5
2C5
100
AcDbEntity
  8
1
  6
CONTINUOUS
 62
           3
100
AcDbLine
 10
-1772.549860468994
 20
-2431.068566714254
 11
-1892.549860468994
 21
-2431.068566714254
  0
LINE
  5
2C4
100
AcDbEntity
  8
1
  6
CONTINUOUS
 62
           3
100
AcDbLine
 10
-1892.549860468994
 20
-2431.068566714254
 11
-1892.549860468994
 21
-2377.068566714254
  0
LINE
  5
2C3
100
AcDbEntity
  8
1
  6
CONTINUOUS
 62
           3
100
AcDbLine
 10
-1702.549860468994
 20
-2381.068566714253
 11
-1642.549860468994
 21
-2381.068566714253
  0
LINE
  5
2C2
100
AcDbEntity
  8
1
  6
CONTINUOUS
 62
           3
100
AcDbLine
 10
-1642.549860468994
 20
-2381.068566714253
 11
-1642.549860468994
 21
-2431.068566714254
  0
LINE
  5
2C1
100
AcDbEntity
  8
1
  6
CONTINUOUS
 62
           3
100
AcDbLine
 10
-1642.549860468994
 20
-2431.068566714254
 11
-1702.549860468994
 21
-2431.068566714254
  0
LINE
  5
2C0
100
AcDbEntity
  8
1
  6
CONTINUOUS
 62
           3
100
AcDbLine
 10
-1702.549860468994
 20
-2431.068566714254
 11
-1702.549860468994
 21
-2381.068566714253
  0
LINE
  5
2BF
100
AcDbEntity
  8
1
  6
CONTINUOUS
 62
           2
100
AcDbLine
 10
-2230.549860468994
 20
-1341.068566714254
 11
-1870.549860468994
 21
-1341.068566714254
  0
LINE
  5
2BE
100
AcDbEntity
  8
1
  6
DOT_CENTER
 62
           3
100
AcDbLine
 10
-2030.549860468994
 20
-1296.283471388094
 11
-2030.549860468994
 21
-1822.01383804444
  0
LINE
  5
2BD
100
AcDbEntity
  8
1
  6
CONTINUOUS
 62
           2
100
AcDbLine
 10
414.741880364279
 20
-1339.068566714254
 11
414.741880364279
 21
-1680.298074910975
  0
LINE
  5
2BC
100
AcDbEntity
  8
1
  6
CONTINUOUS
 62
           2
100
AcDbLine
 10
1079.741880364279
 20
-1339.068566714254
 11
414.741880364279
 21
-1339.068566714254
  0
LINE
  5
2BB
100
AcDbEntity
  8
1
  6
CONTINUOUS
 62
           2
100
AcDbLine
 10
1079.741880364279
 20
-2039.068566714254
 11
1079.741880364279
 21
-1339.068566714254
  0
LINE
  5
2BA
100
AcDbEntity
  8
1
  6
CONTINUOUS
 62
           3
100
AcDbLine
 10
1039.741880364279
 20
-1965.668566714255
 11
139.741880364279
 21
-1965.668566714255
  0
LINE
  5
2B9
100
AcDbEntity
  8
1
  6
CONTINUOUS
 62
           3
100
AcDbLine
 10
139.741880364279
 20
-2037.468566714254
 11
1039.741880364279
 21
-2037.468566714254
  0
LINE
  5
2B8
100
AcDbEntity
  8
1
  6
CONTINUOUS
 62
           2
100
AcDbLine
 10
169.741880364279
 20
-1964.068566714254
 11
169.741880364279
 21
-1774.068566714254
  0
LINE
  5
2B7
100
AcDbEntity
  8
1
  6
CONTINUOUS
 62
           2
100
AcDbLine
 10
169.741880364279
 20
-1774.068566714254
 11
209.741880364279
 21
-1734.068566714254
  0
LINE
  5
2B6
100
AcDbEntity
  8
1
  6
CONTINUOUS
 62
           2
100
AcDbLine
 10
209.741880364279
 20
-1734.068566714254
 11
819.741880364279
 21
-1574.068566714254
  0
LINE
  5
2B5
100
AcDbEntity
  8
1
  6
CONTINUOUS
 62
           2
100
AcDbLine
 10
819.741880364279
 20
-1574.068566714254
 11
899.741880364279
 21
-1654.068566714254
  0
LINE
  5
2B4
100
AcDbEntity
  8
1
  6
CONTINUOUS
 62
           2
100
AcDbLine
 10
899.741880364279
 20
-1654.068566714254
 11
899.741880364279
 21
-1964.068566714254
  0
LINE
  5
2B3
100
AcDbEntity
  8
1
  6
PHANTOM
 62
           3
100
AcDbLine
 10
332.018577762118
 20
-1924.449033713924
 11
809.422793411744
 21
-1720.032266104295
  0
LINE
  5
2B2
100
AcDbEntity
  8
1
  6
PHANTOM
 62
           3
100
AcDbLine
 10
276.963825500373
 20
-1770.295727381044
 11
775.852822520437
 21
-1626.036347608634
  0
LINE
  5
2B1
100
AcDbEntity
  8
1
  6
CONTINUOUS
 62
           2
100
AcDbLine
 10
899.741880364279
 20
-1717.068566714254
 11
999.741880364279
 21
-1964.068566714254
  0
LINE
  5
2B0
100
AcDbEntity
  8
1
  6
DOT_CENTER
 62
           3
100
AcDbLine
 10
789.741880364279
 20
-2080.922239241721
 11
789.741880364279
 21
-1434.56552581341
  0
LINE
  5
2AF
100
AcDbEntity
  8
1
  6
DOT_CENTER
 62
           3
100
AcDbLine
 10
510.35149384265
 20
-1674.068566714254
 11
991.716197414605
 21
-1674.068566714254
  0
LINE
  5
2AE
100
AcDbEntity
  8
1
  6
CONTINUOUS
 62
           2
100
AcDbLine
 10
1039.741880364279
 20
-2039.068566714254
 11
1039.741880364279
 21
-1964.068566714254
  0
LINE
  5
2AD
100
AcDbEntity
  8
1
  6
CONTINUOUS
 62
           2
100
AcDbLine
 10
1039.741880364279
 20
-1964.068566714254
 11
139.741880364279
 21
-1964.068566714254
  0
LINE
  5
2AC
100
AcDbEntity
  8
1
  6
CONTINUOUS
 62
           2
100
AcDbLine
 10
139.741880364279
 20
-1964.068566714254
 11
139.741880364279
 21
-2039.068566714254
  0
LINE
  5
2AB
100
AcDbEntity
  8
1
  6
CONTINUOUS
 62
           2
100
AcDbLine
 10
139.741880364279
 20
-2039.068566714254
 11
1039.741880364279
 21
-2039.068566714254
  0
LINE
  5
2AA
100
AcDbEntity
  8
1
  6
DOT_CENTER
 62
           3
100
AcDbLine
 10
299.741880364279
 20
-1849.068566714254
 11
399.292302514013
 21
-1849.068566714254
  0
LINE
  5
2A9
100
AcDbEntity
  8
1
  6
DOT_CENTER
 62
           3
100
AcDbLine
 10
299.741880364279
 20
-1962.188566714255
 11
299.741880364279
 21
-1735.948566714254
  0
LINE
  5
2A8
100
AcDbEntity
  8
1
  6
DOT_CENTER
 62
           3
100
AcDbLine
 10
199.699344112503
 20
-1849.068566714254
 11
299.741880364279
 21
-1849.068566714254
  0
LINE
  5
2A7
100
AcDbEntity
  8
1
  6
CONTINUOUS
 62
           2
100
AcDbLine
 10
1144.741880364279
 20
-1519.068566714253
 11
1144.741880364279
 21
-1829.068566714253
  0
LINE
  5
2A6
100
AcDbEntity
  8
1
  6
CONTINUOUS
 62
           2
100
AcDbLine
 10
1454.741880364279
 20
-1829.068566714253
 11
1144.741880364279
 21
-1829.068566714253
  0
LINE
  5
2A5
100
AcDbEntity
  8
1
  6
CONTINUOUS
 62
           2
100
AcDbLine
 10
1454.741880364279
 20
-1519.068566714253
 11
1454.741880364279
 21
-1829.068566714253
  0
LINE
  5
2A4
100
AcDbEntity
  8
1
  6
CONTINUOUS
 62
           2
100
AcDbLine
 10
1174.741880364279
 20
-1549.068566714253
 11
1424.741880364279
 21
-1549.068566714253
  0
LINE
  5
2A3
100
AcDbEntity
  8
1
  6
CONTINUOUS
 62
           2
100
AcDbLine
 10
1424.741880364279
 20
-1549.068566714253
 11
1424.741880364279
 21
-1799.068566714253
  0
LINE
  5
2A2
100
AcDbEntity
  8
1
  6
CONTINUOUS
 62
           2
100
AcDbLine
 10
1424.741880364279
 20
-1799.068566714253
 11
1174.741880364281
 21
-1799.068566714253
  0
LINE
  5
2A1
100
AcDbEntity
  8
1
  6
CONTINUOUS
 62
           2
100
AcDbLine
 10
1174.741880364279
 20
-1549.068566714253
 11
1174.741880364281
 21
-1799.068566714253
  0
LINE
  5
2A0
100
AcDbEntity
  8
1
  6
DOT_CENTER
 62
           3
100
AcDbLine
 10
1106.696039509719
 20
-1674.068566714253
 11
1485.070997567869
 21
-1674.068566714253
  0
LINE
  5
29F
100
AcDbEntity
  8
1
  6
DOT_CENTER
 62
           3
100
AcDbLine
 10
1299.741880364279
 20
-1863.632505921391
 11
1299.741880364279
 21
-1300.479631883153
  0
LINE
  5
29E
100
AcDbEntity
  8
1
  6
CONTINUOUS
 62
           2
100
AcDbLine
 10
1199.741880364279
 20
-1519.068566714253
 11
1199.741880364279
 21
-1384.068566714251
  0
LINE
  5
29D
100
AcDbEntity
  8
1
  6
CONTINUOUS
 62
           2
100
AcDbLine
 10
1199.741880364279
 20
-1354.068566714251
 11
1399.741880364279
 21
-1354.068566714251
  0
LINE
  5
29C
100
AcDbEntity
  8
1
  6
CONTINUOUS
 62
           2
100
AcDbLine
 10
1399.741880364279
 20
-1354.068566714251
 11
1429.741880364279
 21
-1354.068566714251
  0
LINE
  5
29B
100
AcDbEntity
  8
1
  6
CONTINUOUS
 62
           2
100
AcDbLine
 10
1426.741880364279
 20
-1357.068566714251
 11
1405.741880364279
 21
-1357.068566714251
  0
LINE
  5
29A
100
AcDbEntity
  8
1
  6
CONTINUOUS
 62
           2
100
AcDbLine
 10
1402.741880364279
 20
-1360.068566714251
 11
1402.741880364279
 21
-1381.068566714251
  0
LINE
  5
299
100
AcDbEntity
  8
1
  6
CONTINUOUS
 62
           2
100
AcDbLine
 10
1399.741880364279
 20
-1384.068566714251
 11
1199.741880364279
 21
-1384.068566714251
  0
LINE
  5
298
100
AcDbEntity
  8
1
  6
CONTINUOUS
 62
           2
100
AcDbLine
 10
1196.741880364279
 20
-1381.068566714251
 11
1196.741880364279
 21
-1360.068566714251
  0
LINE
  5
297
100
AcDbEntity
  8
1
  6
CONTINUOUS
 62
           2
100
AcDbLine
 10
1193.741880364279
 20
-1357.068566714251
 11
1172.741880364279
 21
-1357.068566714251
  0
LINE
  5
296
100
AcDbEntity
  8
1
  6
CONTINUOUS
 62
           2
100
AcDbLine
 10
1169.741880364279
 20
-1354.068566714251
 11
1199.741880364279
 21
-1354.068566714251
  0
LINE
  5
295
100
AcDbEntity
  8
1
  6
CONTINUOUS
 62
           3
100
AcDbLine
 10
1193.741880364279
 20
-1357.068566714251
 11
1405.741880364279
 21
-1357.068566714251
  0
LINE
  5
294
100
AcDbEntity
  8
1
  6
CONTINUOUS
 62
           2
100
AcDbLine
 10
1399.741880364279
 20
-1384.068566714251
 11
1399.741880364279
 21
-1519.068566714253
  0
LINE
  5
293
100
AcDbEntity
  8
1
  6
CONTINUOUS
 62
           2
100
AcDbLine
 10
1405.741880364279
 20
-1351.068566714251
 11
1426.741880364279
 21
-1351.068566714251
  0
LINE
  5
292
100
AcDbEntity
  8
1
  6
CONTINUOUS
 62
           2
100
AcDbLine
 10
1402.741880364279
 20
-1327.068566714251
 11
1402.741880364279
 21
-1348.068566714251
  0
LINE
  5
291
100
AcDbEntity
  8
1
  6
CONTINUOUS
 62
           2
100
AcDbLine
 10
1199.741880364279
 20
-1324.068566714251
 11
1399.741880364279
 21
-1324.068566714251
  0
LINE
  5
290
100
AcDbEntity
  8
1
  6
CONTINUOUS
 62
           2
100
AcDbLine
 10
1196.741880364279
 20
-1348.068566714251
 11
1196.741880364279
 21
-1327.068566714251
  0
LINE
  5
28F
100
AcDbEntity
  8
1
  6
CONTINUOUS
 62
           2
100
AcDbLine
 10
1172.741880364279
 20
-1351.068566714251
 11
1193.741880364279
 21
-1351.068566714251
  0
LINE
  5
28E
100
AcDbEntity
  8
1
  6
CONTINUOUS
 62
           3
100
AcDbLine
 10
1405.741880364279
 20
-1351.068566714251
 11
1193.741880364279
 21
-1351.068566714251
  0
LINE
  5
28D
100
AcDbEntity
  8
1
  6
DOT_CENTER
 62
           3
100
AcDbLine
 10
626.741880364281
 20
-1915.183318978955
 11
626.741880364281
 21
-2132.07519334968
  0
LINE
  5
28C
100
AcDbEntity
  8
1
  6
CONTINUOUS
 62
           2
100
AcDbLine
 10
-1870.549860468994
 20
-1341.068566714254
 11
-1870.549860468994
 21
-1841.068566714254
  0
LINE
  5
28B
100
AcDbEntity
  8
1
  6
CONTINUOUS
 62
           2
100
AcDbLine
 10
-1870.549860468994
 20
-1659.068566714254
 11
-1847.581110468994
 21
-1659.068566714254
  0
LINE
  5
28A
100
AcDbEntity
  8
1
  6
PHANTOM
 62
           3
100
AcDbLine
 10
-1640.549860468994
 20
-1717.068566714254
 11
-1640.549860468994
 21
-1574.068566714254
  0
LINE
  5
289
100
AcDbEntity
  8
1
  6
PHANTOM
 62
           3
100
AcDbLine
 10
-1640.549860468994
 20
-1574.068566714254
 11
-1560.549860468994
 21
-1574.068566714254
  0
LINE
  5
288
100
AcDbEntity
  8
1
  6
PHANTOM
 62
           3
100
AcDbLine
 10
-1560.549860468994
 20
-1574.068566714254
 11
-1560.549860468994
 21
-1964.068566714254
  0
LINE
  5
287
100
AcDbEntity
  8
1
  6
PHANTOM
 62
           3
100
AcDbLine
 10
-1560.549860468994
 20
-1964.068566714254
 11
-1632.549860468994
 21
-1964.068566714254
  0
LINE
  5
286
100
AcDbEntity
  8
1
  6
CONTINUOUS
 62
           2
100
AcDbLine
 10
-1651.174860468994
 20
-1689.068566714254
 11
-1600.549860468994
 21
-1689.068566714254
  0
LINE
  5
285
100
AcDbEntity
  8
1
  6
CONTINUOUS
 62
           2
100
AcDbLine
 10
-1600.549860468994
 20
-1689.068566714254
 11
-1600.549860468994
 21
-1659.068566714254
  0
LINE
  5
284
100
AcDbEntity
  8
1
  6
CONTINUOUS
 62
           2
100
AcDbLine
 10
-1600.549860468994
 20
-1659.068566714254
 11
-1653.518610468994
 21
-1659.068566714254
  0
LINE
  5
283
100
AcDbEntity
  8
1
  6
DOT_CENTER
 62
           3
100
AcDbLine
 10
-1610.549860468994
 20
-1624.068566714254
 11
-1610.549860468994
 21
-1931.068566714254
  0
LINE
  5
282
100
AcDbEntity
  8
1
  6
DOT_CENTER
 62
           3
100
AcDbLine
 10
-1620.549860468994
 20
-1931.068566714254
 11
-1620.549860468994
 21
-1624.068566714254
  0
LINE
  5
281
100
AcDbEntity
  8
1
  6
PHANTOM
 62
           3
100
AcDbLine
 10
-1600.549860468994
 20
-1767.068566714254
 11
-1600.549860468994
 21
-1931.068566714254
  0
LINE
  5
280
100
AcDbEntity
  8
1
  6
PHANTOM
 62
           3
100
AcDbLine
 10
-1600.549860468994
 20
-1931.068566714254
 11
-1630.549860468994
 21
-1931.068566714254
  0
LINE
  5
27F
100
AcDbEntity
  8
1
  6
PHANTOM
 62
           3
100
AcDbLine
 10
-1630.549860468994
 20
-1931.068566714254
 11
-1630.549860468994
 21
-1767.068566714254
  0
LINE
  5
27E
100
AcDbEntity
  8
1
  6
PHANTOM
 62
           3
100
AcDbLine
 10
-1630.549860468994
 20
-1767.068566714254
 11
-1600.549860468994
 21
-1767.068566714254
  0
LINE
  5
27D
100
AcDbEntity
  8
1
  6
PHANTOM
 62
           3
100
AcDbLine
 10
-1630.549860468994
 20
-1624.068566714254
 11
-1630.549860468994
 21
-1724.068566714254
  0
LINE
  5
27C
100
AcDbEntity
  8
1
  6
PHANTOM
 62
           3
100
AcDbLine
 10
-1630.549860468994
 20
-1724.068566714254
 11
-1600.549860468994
 21
-1724.068566714254
  0
LINE
  5
27B
100
AcDbEntity
  8
1
  6
PHANTOM
 62
           3
100
AcDbLine
 10
-1600.549860468994
 20
-1724.068566714254
 11
-1600.549860468994
 21
-1624.068566714254
  0
LINE
  5
27A
100
AcDbEntity
  8
1
  6
PHANTOM
 62
           3
100
AcDbLine
 10
-1600.549860468994
 20
-1624.068566714254
 11
-1630.549860468994
 21
-1624.068566714254
  0
LINE
  5
279
100
AcDbEntity
  8
1
  6
CONTINUOUS
 62
           2
100
AcDbLine
 10
-1640.549860468994
 20
-1841.068566714254
 11
-1640.549860468994
 21
-1717.068566714254
  0
LINE
  5
278
100
AcDbEntity
  8
1
  6
CONTINUOUS
 62
           2
100
AcDbLine
 10
-1860.549860468994
 20
-1787.515935135307
 11
-1860.549860468994
 21
-1717.068566714254
  0
LINE
  5
277
100
AcDbEntity
  8
1
  6
CONTINUOUS
 62
           2
100
AcDbLine
 10
-1689.924860468994
 20
-1689.068566714254
 11
-1811.174860468994
 21
-1689.068566714254
  0
LINE
  5
276
100
AcDbEntity
  8
1
  6
CONTINUOUS
 62
           2
100
AcDbLine
 10
-1850.549860468994
 20
-1689.068566714254
 11
-1870.549860468994
 21
-1689.068566714254
  0
LINE
  5
275
100
AcDbEntity
  8
1
  6
CONTINUOUS
 62
           2
100
AcDbLine
 10
-1813.518610468994
 20
-1659.068566714254
 11
-1687.581110468994
 21
-1659.068566714254
  0
LINE
  5
274
100
AcDbEntity
  8
1
  6
CONTINUOUS
 62
           2
100
AcDbLine
 10
-1690.549860468994
 20
-1697.068566714254
 11
-1685.549860468994
 21
-1633.068566714254
  0
LINE
  5
273
100
AcDbEntity
  8
1
  6
CONTINUOUS
 62
           2
100
AcDbLine
 10
-1685.549860468994
 20
-1633.068566714254
 11
-1655.549860468994
 21
-1633.068566714254
  0
LINE
  5
272
100
AcDbEntity
  8
1
  6
CONTINUOUS
 62
           2
100
AcDbLine
 10
-1655.549860468994
 20
-1633.068566714254
 11
-1650.549860468994
 21
-1697.068566714254
  0
LINE
  5
271
100
AcDbEntity
  8
1
  6
CONTINUOUS
 62
           2
100
AcDbLine
 10
-1694.549860468994
 20
-1717.068566714254
 11
-1694.549860468994
 21
-1697.068566714254
  0
LINE
  5
270
100
AcDbEntity
  8
1
  6
CONTINUOUS
 62
           2
100
AcDbLine
 10
-1694.549860468994
 20
-1697.068566714254
 11
-1646.549860468994
 21
-1697.068566714254
  0
LINE
  5
26F
100
AcDbEntity
  8
1
  6
CONTINUOUS
 62
           2
100
AcDbLine
 10
-1646.549860468994
 20
-1697.068566714254
 11
-1646.549860468994
 21
-1717.068566714254
  0
LINE
  5
26E
100
AcDbEntity
  8
1
  6
CONTINUOUS
 62
           2
100
AcDbLine
 10
-1850.549860468994
 20
-1697.068566714254
 11
-1845.549860468994
 21
-1633.068566714254
  0
LINE
  5
26D
100
AcDbEntity
  8
1
  6
CONTINUOUS
 62
           2
100
AcDbLine
 10
-1845.549860468994
 20
-1633.068566714254
 11
-1815.549860468994
 21
-1633.068566714254
  0
LINE
  5
26C
100
AcDbEntity
  8
1
  6
CONTINUOUS
 62
           2
100
AcDbLine
 10
-1815.549860468994
 20
-1633.068566714254
 11
-1810.549860468994
 21
-1697.068566714254
  0
LINE
  5
26B
100
AcDbEntity
  8
1
  6
CONTINUOUS
 62
           2
100
AcDbLine
 10
-1854.549860468994
 20
-1717.068566714254
 11
-1854.549860468994
 21
-1697.068566714254
  0
LINE
  5
26A
100
AcDbEntity
  8
1
  6
CONTINUOUS
 62
           2
100
AcDbLine
 10
-1854.549860468994
 20
-1697.068566714254
 11
-1806.549860468994
 21
-1697.068566714254
  0
LINE
  5
269
100
AcDbEntity
  8
1
  6
CONTINUOUS
 62
           2
100
AcDbLine
 10
-1806.549860468994
 20
-1697.068566714254
 11
-1806.549860468994
 21
-1717.068566714254
  0
LINE
  5
268
100
AcDbEntity
  8
1
  6
CONTINUOUS
 62
           2
100
AcDbLine
 10
-1640.549860468994
 20
-1717.068566714254
 11
-1860.549860468994
 21
-1717.068566714254
  0
LINE
  5
267
100
AcDbEntity
  8
1
  6
DOT_CENTER
 62
           3
100
AcDbLine
 10
-2218.531791393644
 20
-1674.068566714254
 11
-1576.845292766033
 21
-1674.068566714254
  0
LINE
  5
266
100
AcDbEntity
  8
1
  6
CONTINUOUS
 62
           2
100
AcDbLine
 10
-1632.549860468994
 20
-1841.068566714254
 11
-2032.549860468994
 21
-1841.068566714253
  0
LINE
  5
265
100
AcDbEntity
  8
1
  6
CONTINUOUS
 62
           3
100
AcDbLine
 10
-2170.549860468994
 20
-1964.068566714254
 11
-2170.549860468994
 21
-1965.668566714255
  0
LINE
  5
264
100
AcDbEntity
  8
1
  6
CONTINUOUS
 62
           3
100
AcDbLine
 10
-2170.549860468994
 20
-1965.668566714255
 11
-2135.549860468994
 21
-1965.668566714255
  0
LINE
  5
263
100
AcDbEntity
  8
1
  6
CONTINUOUS
 62
           3
100
AcDbLine
 10
-2132.149860468993
 20
-1969.068566714254
 11
-2132.149860468993
 21
-2034.068566714254
  0
LINE
  5
262
100
AcDbEntity
  8
1
  6
CONTINUOUS
 62
           3
100
AcDbLine
 10
-2135.549860468994
 20
-2037.468566714254
 11
-2170.549860468994
 21
-2037.468566714254
  0
LINE
  5
261
100
AcDbEntity
  8
1
  6
CONTINUOUS
 62
           3
100
AcDbLine
 10
-2170.549860468994
 20
-2037.468566714254
 11
-2170.549860468994
 21
-2039.068566714254
  0
LINE
  5
260
100
AcDbEntity
  8
1
  6
CONTINUOUS
 62
           2
100
AcDbLine
 10
-2130.549860468994
 20
-2034.068566714254
 11
-2130.549860468994
 21
-1969.068566714254
  0
LINE
  5
25F
100
AcDbEntity
  8
1
  6
CONTINUOUS
 62
           2
100
AcDbLine
 10
-2032.549860468994
 20
-1964.068566714254
 11
-2170.549860468994
 21
-1964.068566714254
  0
LINE
  5
25E
100
AcDbEntity
  8
1
  6
CONTINUOUS
 62
           2
100
AcDbLine
 10
-1806.549860468994
 20
-1782.868566714254
 11
-1806.549860468994
 21
-1768.268566714255
  0
LINE
  5
25D
100
AcDbEntity
  8
1
  6
CONTINUOUS
 62
           3
100
AcDbLine
 10
-1862.949860468994
 20
-1790.568566714254
 11
-1862.949860468994
 21
-1841.068566714254
  0
LINE
  5
25C
100
AcDbEntity
  8
1
  6
CONTINUOUS
 62
           3
100
AcDbLine
 10
-1825.849860468994
 20
-1792.568566714254
 11
-1825.849860468994
 21
-1841.068566714254
  0
LINE
  5
25B
100
AcDbEntity
  8
1
  6
CONTINUOUS
 62
           3
100
AcDbLine
 10
-1742.249860468994
 20
-1788.568566714254
 11
-1821.849860468994
 21
-1788.568566714254
  0
LINE
  5
25A
100
AcDbEntity
  8
1
  6
CONTINUOUS
 62
           3
100
AcDbLine
 10
-1738.249860468994
 20
-1792.568566714254
 11
-1738.249860468994
 21
-1841.068566714254
  0
LINE
  5
259
100
AcDbEntity
  8
1
  6
CONTINUOUS
 62
           3
100
AcDbLine
 10
-1826.549860468994
 20
-1782.868566714254
 11
-1737.549860468994
 21
-1782.868566714254
  0
LINE
  5
258
100
AcDbEntity
  8
1
  6
CONTINUOUS
 62
           2
100
AcDbLine
 10
-1851.549860468994
 20
-1768.268566714255
 11
-1851.549860468994
 21
-1841.18921377336
  0
LINE
  5
257
100
AcDbEntity
  8
1
  6
CONTINUOUS
 62
           2
100
AcDbLine
 10
-1851.549860468994
 20
-1768.268566714255
 11
-1806.549860468994
 21
-1768.268566714255
  0
LINE
  5
256
100
AcDbEntity
  8
1
  6
CONTINUOUS
 62
           2
100
AcDbLine
 10
-1851.549860468994
 20
-1776.068566714254
 11
-1862.949860468994
 21
-1790.568566714254
  0
LINE
  5
255
100
AcDbEntity
  8
1
  6
CONTINUOUS
 62
           2
100
AcDbLine
 10
-1671.349860468994
 20
-1776.068566714254
 11
-1671.349860468994
 21
-1841.068566714254
  0
LINE
  5
254
100
AcDbEntity
  8
1
  6
CONTINUOUS
 62
           2
100
AcDbLine
 10
-1867.549860468994
 20
-1790.568566714254
 11
-1867.549860468994
 21
-1841.068566714254
  0
LINE
  5
253
100
AcDbEntity
  8
1
  6
CONTINUOUS
 62
           2
100
AcDbLine
 10
-1862.949860468994
 20
-1790.568566714254
 11
-1867.549860468994
 21
-1790.568566714254
  0
LINE
  5
252
100
AcDbEntity
  8
1
  6
CONTINUOUS
 62
           2
100
AcDbLine
 10
-1659.649860468993
 20
-1841.068566714254
 11
-1659.649860468993
 21
-1776.068566714254
  0
LINE
  5
251
100
AcDbEntity
  8
1
  6
CONTINUOUS
 62
           2
100
AcDbLine
 10
-1656.249860468994
 20
-1792.068566714254
 11
-1659.649860468993
 21
-1792.068566714254
  0
LINE
  5
250
100
AcDbEntity
  8
1
  6
CONTINUOUS
 62
           2
100
AcDbLine
 10
-1650.549860468994
 20
-1821.068566714254
 11
-1656.249860468994
 21
-1821.068566714254
  0
LINE
  5
24F
100
AcDbEntity
  8
1
  6
CONTINUOUS
 62
           2
100
AcDbLine
 10
-1650.549860468994
 20
-1840.068566714254
 11
-1650.549860468994
 21
-1821.068566714254
  0
LINE
  5
24E
100
AcDbEntity
  8
1
  6
CONTINUOUS
 62
           2
100
AcDbLine
 10
-1826.549860468994
 20
-1768.268566714255
 11
-1826.549860468994
 21
-1763.668566714255
  0
LINE
  5
24D
100
AcDbEntity
  8
1
  6
CONTINUOUS
 62
           2
100
AcDbLine
 10
-1826.549860468994
 20
-1763.668566714255
 11
-1806.549860468994
 21
-1763.668566714255
  0
LINE
  5
24C
100
AcDbEntity
  8
1
  6
CONTINUOUS
 62
           2
100
AcDbLine
 10
-1806.549860468994
 20
-1768.268566714255
 11
-1806.549860468994
 21
-1763.668566714255
  0
LINE
  5
24B
100
AcDbEntity
  8
1
  6
CONTINUOUS
 62
           2
100
AcDbLine
 10
-1659.649860468993
 20
-1776.068566714254
 11
-1806.549860468994
 21
-1776.068566714254
  0
LINE
  5
24A
100
AcDbEntity
  8
1
  6
CONTINUOUS
 62
           2
100
AcDbLine
 10
-2230.549860468994
 20
-1412.068566714253
 11
-2230.549860468994
 21
-1341.068566714254
  0
LINE
  5
249
100
AcDbEntity
  8
1
  6
CONTINUOUS
 62
           2
100
AcDbLine
 10
-2232.549860468994
 20
2091.910003339182
 11
-1870.549860468994
 21
2091.910003339182
  0
LINE
  5
248
100
AcDbEntity
  8
1
  6
DOT_CENTER
 62
           3
100
AcDbLine
 10
-2415.549860468994
 20
1801.910003339182
 11
-2345.549860468994
 21
1801.910003339182
  0
LINE
  5
247
100
AcDbEntity
  8
1
  6
DOT_CENTER
 62
           3
100
AcDbLine
 10
-2380.549860468994
 20
1766.910003339182
 11
-2380.549860468994
 21
1836.910003339182
  0
LINE
  5
246
100
AcDbEntity
  8
1
  6
CONTINUOUS
 62
           2
100
AcDbLine
 10
-1605.549860468994
 20
1302.410003339193
 11
-1605.549860468994
 21
1321.410003339193
  0
LINE
  5
245
100
AcDbEntity
  8
1
  6
CONTINUOUS
 62
           2
100
AcDbLine
 10
-1645.549860468994
 20
1321.410003339193
 11
-1605.549860468994
 21
1321.410003339193
  0
LINE
  5
244
100
AcDbEntity
  8
1
  6
CONTINUOUS
 62
           2
100
AcDbLine
 10
-1650.549860468994
 20
1322.910003339193
 11
-1645.549860468994
 21
1322.910003339193
  0
LINE
  5
243
100
AcDbEntity
  8
1
  6
CONTINUOUS
 62
           2
100
AcDbLine
 10
-1645.549860468994
 20
1300.910003339193
 11
-1650.549860468994
 21
1300.910003339193
  0
LINE
  5
242
100
AcDbEntity
  8
1
  6
CONTINUOUS
 62
           2
100
AcDbLine
 10
-1650.549860468994
 20
1283.910003339193
 11
-1650.549860468994
 21
1339.910003339193
  0
LINE
  5
241
100
AcDbEntity
  8
1
  6
CONTINUOUS
 62
           2
100
AcDbLine
 10
-1650.549860468994
 20
1339.910003339193
 11
-1656.249860468994
 21
1339.910003339193
  0
LINE
  5
240
100
AcDbEntity
  8
1
  6
CONTINUOUS
 62
           2
100
AcDbLine
 10
-1656.249860468994
 20
1283.910003339193
 11
-1650.549860468994
 21
1283.910003339193
  0
LINE
  5
23F
100
AcDbEntity
  8
1
  6
CONTINUOUS
 62
           2
100
AcDbLine
 10
-1656.249860468994
 20
1368.910003339193
 11
-1659.649860468994
 21
1368.910003339193
  0
LINE
  5
23E
100
AcDbEntity
  8
1
  6
CONTINUOUS
 62
           2
100
AcDbLine
 10
-1659.649860468994
 20
1254.910003339193
 11
-1656.249860468994
 21
1254.910003339193
  0
LINE
  5
23D
100
AcDbEntity
  8
1
  6
CONTINUOUS
 62
           2
100
AcDbLine
 10
-1659.649860468994
 20
1238.910003339193
 11
-1659.649860468994
 21
1384.910003339193
  0
LINE
  5
23C
100
AcDbEntity
  8
1
  6
CONTINUOUS
 62
           2
100
AcDbLine
 10
-1659.649860468994
 20
1384.910003339193
 11
-1806.549860468994
 21
1384.910003339193
  0
LINE
  5
23B
100
AcDbEntity
  8
1
  6
CONTINUOUS
 62
           2
100
AcDbLine
 10
-1732.549860468994
 20
1238.910003339193
 11
-1659.649860468994
 21
1238.910003339193
  0
LINE
  5
23A
100
AcDbEntity
  8
1
  6
CONTINUOUS
 62
           2
100
AcDbLine
 10
-1862.949860468994
 20
1370.410003339193
 11
-1867.549860468994
 21
1370.410003339193
  0
LINE
  5
239
100
AcDbEntity
  8
1
  6
CONTINUOUS
 62
           2
100
AcDbLine
 10
-1867.549860468994
 20
1370.410003339193
 11
-1867.549860468994
 21
1253.410003339193
  0
LINE
  5
238
100
AcDbEntity
  8
1
  6
CONTINUOUS
 62
           2
100
AcDbLine
 10
-1867.549860468994
 20
1253.410003339193
 11
-1862.949860468994
 21
1253.410003339193
  0
LINE
  5
237
100
AcDbEntity
  8
1
  6
CONTINUOUS
 62
           2
100
AcDbLine
 10
-1851.549860468994
 20
1384.910003339193
 11
-1862.949860468994
 21
1370.410003339193
  0
LINE
  5
236
100
AcDbEntity
  8
1
  6
CONTINUOUS
 62
           2
100
AcDbLine
 10
-1862.949860468994
 20
1253.410003339193
 11
-1851.549860468994
 21
1238.910003339193
  0
LINE
  5
235
100
AcDbEntity
  8
1
  6
CONTINUOUS
 62
           2
100
AcDbLine
 10
-1851.549860468994
 20
1392.710003339193
 11
-1806.549860468994
 21
1392.710003339193
  0
LINE
  5
234
100
AcDbEntity
  8
1
  6
CONTINUOUS
 62
           2
100
AcDbLine
 10
-1851.549860468994
 20
1392.710003339193
 11
-1851.549860468994
 21
1231.110003339192
  0
LINE
  5
233
100
AcDbEntity
  8
1
  6
CONTINUOUS
 62
           3
100
AcDbLine
 10
-1806.549860468994
 20
1318.760003339193
 11
-1826.549860468994
 21
1318.760003339193
  0
LINE
  5
232
100
AcDbEntity
  8
1
  6
CONTINUOUS
 62
           3
100
AcDbLine
 10
-1826.549860468994
 20
1318.760003339193
 11
-1826.549860468994
 21
1305.060003339193
  0
LINE
  5
231
100
AcDbEntity
  8
1
  6
CONTINUOUS
 62
           3
100
AcDbLine
 10
-1826.549860468994
 20
1305.060003339193
 11
-1806.549860468994
 21
1305.060003339193
  0
LINE
  5
230
100
AcDbEntity
  8
1
  6
DOT_CENTER
 62
           3
100
AcDbLine
 10
-1745.549860468994
 20
1408.943021090674
 11
-1745.549860468994
 21
1213.171660143924
  0
LINE
  5
22F
100
AcDbEntity
  8
1
  6
DOT_CENTER
 62
           3
100
AcDbLine
 10
-1596.201576445326
 20
1311.910003339193
 11
-1878.262404847693
 21
1311.910003339193
  0
LINE
  5
22E
100
AcDbEntity
  8
1
  6
CONTINUOUS
 62
           3
100
AcDbLine
 10
-1862.949860468994
 20
1370.410003339193
 11
-1862.949860468994
 21
1253.410003339193
  0
LINE
  5
22D
100
AcDbEntity
  8
1
  6
CONTINUOUS
 62
           2
100
AcDbLine
 10
-1732.549860468994
 20
1171.909978434883
 11
-1732.549860468994
 21
1242.793290395413
  0
LINE
  5
22C
100
AcDbEntity
  8
1
  6
CONTINUOUS
 62
           2
100
AcDbLine
 10
-1737.549860468994
 20
1247.793290395413
 11
-1826.549860468994
 21
1247.793290395413
  0
LINE
  5
22B
100
AcDbEntity
  8
1
  6
CONTINUOUS
 62
           2
100
AcDbLine
 10
-1831.549860468994
 20
1242.793290395413
 11
-1831.549860468994
 21
1171.909978434883
  0
LINE
  5
22A
100
AcDbEntity
  8
1
  6
CONTINUOUS
 62
           2
100
AcDbLine
 10
-1826.549860468994
 20
1166.909978434883
 11
-1737.549860468994
 21
1166.909978434883
  0
LINE
  5
229
100
AcDbEntity
  8
1
  6
CONTINUOUS
 62
           3
100
AcDbLine
 10
-1825.849860468994
 20
1236.714547131963
 11
-1825.849860468994
 21
1174.889140221823
  0
LINE
  5
228
100
AcDbEntity
  8
1
  6
CONTINUOUS
 62
           3
100
AcDbLine
 10
-1820.849860468994
 20
1169.889140221823
 11
-1743.249860468994
 21
1169.889140221823
  0
LINE
  5
227
100
AcDbEntity
  8
1
  6
CONTINUOUS
 62
           3
100
AcDbLine
 10
-1738.249860468994
 20
1174.889140221823
 11
-1738.249860468994
 21
1236.714547131963
  0
LINE
  5
226
100
AcDbEntity
  8
1
  6
CONTINUOUS
 62
           3
100
AcDbLine
 10
-1743.249860468994
 20
1241.714547131963
 11
-1820.849860468994
 21
1241.714547131963
  0
LINE
  5
225
100
AcDbEntity
  8
1
  6
CONTINUOUS
 62
           2
100
AcDbLine
 10
-1806.549860468994
 20
1247.793290395413
 11
-1806.549860468994
 21
1392.710003339193
  0
LINE
  5
224
100
AcDbEntity
  8
1
  6
CONTINUOUS
 62
           2
100
AcDbLine
 10
-1831.549860468994
 20
1231.110003339192
 11
-1851.549860468994
 21
1231.110003339192
  0
LINE
  5
223
100
AcDbEntity
  8
1
  6
CONTINUOUS
 62
           2
100
AcDbLine
 10
-1870.549860468994
 20
1816.910003339182
 11
-1850.549860468994
 21
1816.910003339182
  0
LINE
  5
222
100
AcDbEntity
  8
1
  6
CONTINUOUS
 62
           2
100
AcDbLine
 10
-2130.549860468994
 20
1151.910003339182
 11
-2130.549860468994
 21
1426.910003339182
  0
LINE
  5
221
100
AcDbEntity
  8
1
  6
CONTINUOUS
 62
           2
100
AcDbLine
 10
-2170.549860468994
 20
1151.910003339182
 11
-2130.549860468994
 21
1151.910003339182
  0
LINE
  5
220
100
AcDbEntity
  8
1
  6
CONTINUOUS
 62
           2
100
AcDbLine
 10
-2170.549860468994
 20
1426.910003339182
 11
-2170.549860468994
 21
1151.910003339182
  0
LINE
  5
21F
100
AcDbEntity
  8
1
  6
CONTINUOUS
 62
           2
100
AcDbLine
 10
-1630.549860468995
 20
1151.910003339182
 11
-1630.549860468995
 21
2051.910003339182
  0
LINE
  5
21E
100
AcDbEntity
  8
1
  6
CONTINUOUS
 62
           2
100
AcDbLine
 10
-1670.549860468995
 20
1151.910003339182
 11
-1630.549860468995
 21
1151.910003339182
  0
LINE
  5
21D
100
AcDbEntity
  8
1
  6
CONTINUOUS
 62
           2
100
AcDbLine
 10
-1670.549860468995
 20
1186.910003339182
 11
-1670.549860468995
 21
1151.910003339182
  0
LINE
  5
21C
100
AcDbEntity
  8
1
  6
CONTINUOUS
 62
           2
100
AcDbLine
 10
-1670.549860468995
 20
2011.910003339182
 11
-1670.549860468995
 21
2051.910003339182
  0
LINE
  5
21B
100
AcDbEntity
  8
1
  6
CONTINUOUS
 62
           2
100
AcDbLine
 10
-1630.549860468995
 20
2051.910003339182
 11
-1870.549860468994
 21
2051.910003339182
  0
LINE
  5
21A
100
AcDbEntity
  8
1
  6
CONTINUOUS
 62
           2
100
AcDbLine
 10
-1867.549860468994
 20
1261.910003339182
 11
-2130.549860468994
 21
1261.910003339182
  0
LINE
  5
219
100
AcDbEntity
  8
1
  6
CONTINUOUS
 62
           2
100
AcDbLine
 10
-1867.549860468994
 20
1361.910003339182
 11
-1890.549860468994
 21
1361.910003339182
  0
LINE
  5
218
100
AcDbEntity
  8
1
  6
CONTINUOUS
 62
           2
100
AcDbLine
 10
-1670.549860468995
 20
1591.910003339182
 11
-1870.549860468994
 21
1591.910003339182
  0
LINE
  5
217
100
AcDbEntity
  8
1
  6
CONTINUOUS
 62
           2
100
AcDbLine
 10
-1640.549860468995
 20
1816.910003339182
 11
-1640.549860468995
 21
2011.910003339182
  0
LINE
  5
216
100
AcDbEntity
  8
1
  6
CONTINUOUS
 62
           2
100
AcDbLine
 10
-1860.549860468994
 20
1591.910003339182
 11
-1640.549860468995
 21
1591.910003339182
  0
LINE
  5
215
100
AcDbEntity
  8
1
  6
CONTINUOUS
 62
           2
100
AcDbLine
 10
-1860.549860468994
 20
1786.910003339182
 11
-1860.549860468994
 21
1591.910003339182
  0
LINE
  5
214
100
AcDbEntity
  8
1
  6
CONTINUOUS
 62
           2
100
AcDbLine
 10
-1640.549860468995
 20
2011.910003339182
 11
-1860.549860468994
 21
2011.910003339182
  0
LINE
  5
213
100
AcDbEntity
  8
1
  6
CONTINUOUS
 62
           2
100
AcDbLine
 10
-1640.549860468995
 20
1691.910003339182
 11
-1860.549860468994
 21
1691.910003339182
  0
LINE
  5
212
100
AcDbEntity
  8
1
  6
CONTINUOUS
 62
           2
100
AcDbLine
 10
-1640.549860468995
 20
1911.910003339182
 11
-1860.549860468994
 21
1911.910003339182
  0
LINE
  5
211
100
AcDbEntity
  8
1
  6
CONTINUOUS
 62
           2
100
AcDbLine
 10
-1810.549860468995
 20
1751.910003339182
 11
-1810.549860468995
 21
1851.910003339182
  0
LINE
  5
210
100
AcDbEntity
  8
1
  6
CONTINUOUS
 62
           2
100
AcDbLine
 10
-1850.549860468994
 20
1751.910003339182
 11
-1810.549860468995
 21
1751.910003339182
  0
LINE
  5
20F
100
AcDbEntity
  8
1
  6
CONTINUOUS
 62
           2
100
AcDbLine
 10
-1850.549860468994
 20
1851.910003339182
 11
-1850.549860468994
 21
1751.910003339182
  0
LINE
  5
20E
100
AcDbEntity
  8
1
  6
CONTINUOUS
 62
           2
100
AcDbLine
 10
-1810.549860468995
 20
1851.910003339182
 11
-1850.549860468994
 21
1851.910003339182
  0
LINE
  5
20D
100
AcDbEntity
  8
1
  6
CONTINUOUS
 62
           2
100
AcDbLine
 10
-1806.549860468995
 20
1771.910003339182
 11
-1810.549860468995
 21
1771.910003339182
  0
LINE
  5
20C
100
AcDbEntity
  8
1
  6
CONTINUOUS
 62
           2
100
AcDbLine
 10
-1806.549860468995
 20
1719.410003339182
 11
-1806.549860468995
 21
1771.910003339182
  0
LINE
  5
20B
100
AcDbEntity
  8
1
  6
CONTINUOUS
 62
           2
100
AcDbLine
 10
-1854.549860468994
 20
1719.410003339182
 11
-1806.549860468995
 21
1719.410003339182
  0
LINE
  5
20A
100
AcDbEntity
  8
1
  6
CONTINUOUS
 62
           2
100
AcDbLine
 10
-1854.549860468994
 20
1771.910003339182
 11
-1854.549860468994
 21
1719.410003339182
  0
LINE
  5
209
100
AcDbEntity
  8
1
  6
CONTINUOUS
 62
           2
100
AcDbLine
 10
-1850.549860468994
 20
1771.910003339182
 11
-1854.549860468994
 21
1771.910003339182
  0
LINE
  5
208
100
AcDbEntity
  8
1
  6
CONTINUOUS
 62
           2
100
AcDbLine
 10
-1854.549860468994
 20
1831.910003339182
 11
-1850.549860468994
 21
1831.910003339182
  0
LINE
  5
207
100
AcDbEntity
  8
1
  6
CONTINUOUS
 62
           2
100
AcDbLine
 10
-1854.549860468994
 20
1884.410003339182
 11
-1854.549860468994
 21
1831.910003339182
  0
LINE
  5
206
100
AcDbEntity
  8
1
  6
CONTINUOUS
 62
           2
100
AcDbLine
 10
-1806.549860468995
 20
1884.410003339182
 11
-1854.549860468994
 21
1884.410003339182
  0
LINE
  5
205
100
AcDbEntity
  8
1
  6
CONTINUOUS
 62
           2
100
AcDbLine
 10
-1806.549860468995
 20
1831.910003339182
 11
-1806.549860468995
 21
1884.410003339182
  0
LINE
  5
204
100
AcDbEntity
  8
1
  6
CONTINUOUS
 62
           2
100
AcDbLine
 10
-1810.549860468995
 20
1831.910003339182
 11
-1806.549860468995
 21
1831.910003339182
  0
LINE
  5
203
100
AcDbEntity
  8
1
  6
CONTINUOUS
 62
           2
100
AcDbLine
 10
-1650.549860468995
 20
1751.910003339182
 11
-1650.549860468995
 21
1851.910003339182
  0
LINE
  5
202
100
AcDbEntity
  8
1
  6
CONTINUOUS
 62
           2
100
AcDbLine
 10
-1690.549860468995
 20
1751.910003339182
 11
-1650.549860468995
 21
1751.910003339182
  0
LINE
  5
201
100
AcDbEntity
  8
1
  6
CONTINUOUS
 62
           2
100
AcDbLine
 10
-1690.549860468995
 20
1851.910003339182
 11
-1690.549860468995
 21
1751.910003339182
  0
LINE
  5
200
100
AcDbEntity
  8
1
  6
CONTINUOUS
 62
           2
100
AcDbLine
 10
-1650.549860468995
 20
1851.910003339182
 11
-1690.549860468995
 21
1851.910003339182
  0
LINE
  5
1FF
100
AcDbEntity
  8
1
  6
CONTINUOUS
 62
           2
100
AcDbLine
 10
-1646.549860468995
 20
1771.910003339182
 11
-1650.549860468995
 21
1771.910003339182
  0
LINE
  5
1FE
100
AcDbEntity
  8
1
  6
CONTINUOUS
 62
           2
100
AcDbLine
 10
-1646.549860468995
 20
1719.410003339182
 11
-1646.549860468995
 21
1771.910003339182
  0
LINE
  5
1FD
100
AcDbEntity
  8
1
  6
CONTINUOUS
 62
           2
100
AcDbLine
 10
-1694.549860468995
 20
1719.410003339182
 11
-1646.549860468995
 21
1719.410003339182
  0
LINE
  5
1FC
100
AcDbEntity
  8
1
  6
CONTINUOUS
 62
           2
100
AcDbLine
 10
-1694.549860468995
 20
1771.910003339182
 11
-1694.549860468995
 21
1719.410003339182
  0
LINE
  5
1FB
100
AcDbEntity
  8
1
  6
CONTINUOUS
 62
           2
100
AcDbLine
 10
-1690.549860468995
 20
1771.910003339182
 11
-1694.549860468995
 21
1771.910003339182
  0
LINE
  5
1FA
100
AcDbEntity
  8
1
  6
CONTINUOUS
 62
           2
100
AcDbLine
 10
-1694.549860468995
 20
1831.910003339182
 11
-1690.549860468995
 21
1831.910003339182
  0
LINE
  5
1F9
100
AcDbEntity
  8
1
  6
CONTINUOUS
 62
           2
100
AcDbLine
 10
-1694.549860468995
 20
1884.410003339182
 11
-1694.549860468995
 21
1831.910003339182
  0
LINE
  5
1F8
100
AcDbEntity
  8
1
  6
CONTINUOUS
 62
           2
100
AcDbLine
 10
-1646.549860468995
 20
1884.410003339182
 11
-1694.549860468995
 21
1884.410003339182
  0
LINE
  5
1F7
100
AcDbEntity
  8
1
  6
CONTINUOUS
 62
           2
100
AcDbLine
 10
-1646.549860468995
 20
1831.910003339182
 11
-1646.549860468995
 21
1884.410003339182
  0
LINE
  5
1F6
100
AcDbEntity
  8
1
  6
CONTINUOUS
 62
           2
100
AcDbLine
 10
-1650.549860468995
 20
1831.910003339182
 11
-1646.549860468995
 21
1831.910003339182
  0
LINE
  5
1F5
100
AcDbEntity
  8
1
  6
PHANTOM
 62
           3
100
AcDbLine
 10
-1560.549860468995
 20
1181.910003339182
 11
-1560.549860468995
 21
1911.910003339182
  0
LINE
  5
1F4
100
AcDbEntity
  8
1
  6
PHANTOM
 62
           3
100
AcDbLine
 10
-1640.549860468995
 20
1181.910003339182
 11
-1560.549860468995
 21
1181.910003339182
  0
LINE
  5
1F3
100
AcDbEntity
  8
1
  6
PHANTOM
 62
           3
100
AcDbLine
 10
-1640.549860468995
 20
1911.910003339182
 11
-1640.549860468995
 21
1181.910003339182
  0
LINE
  5
1F2
100
AcDbEntity
  8
1
  6
PHANTOM
 62
           3
100
AcDbLine
 10
-1560.549860468995
 20
1911.910003339182
 11
-1640.549860468995
 21
1911.910003339182
  0
LINE
  5
1F1
100
AcDbEntity
  8
1
  6
PHANTOM
 62
           3
100
AcDbLine
 10
-1600.549860468995
 20
1851.910003339182
 11
-1630.549860468995
 21
1851.910003339182
  0
LINE
  5
1F0
100
AcDbEntity
  8
1
  6
PHANTOM
 62
           3
100
AcDbLine
 10
-1600.549860468995
 20
1751.910003339182
 11
-1600.549860468995
 21
1851.910003339182
  0
LINE
  5
1EF
100
AcDbEntity
  8
1
  6
PHANTOM
 62
           3
100
AcDbLine
 10
-1630.549860468995
 20
1751.910003339182
 11
-1600.549860468995
 21
1751.910003339182
  0
LINE
  5
1EE
100
AcDbEntity
  8
1
  6
PHANTOM
 62
           3
100
AcDbLine
 10
-1630.549860468995
 20
1851.910003339182
 11
-1630.549860468995
 21
1751.910003339182
  0
LINE
  5
1ED
100
AcDbEntity
  8
1
  6
PHANTOM
 62
           3
100
AcDbLine
 10
-1630.549860468995
 20
1393.910003339182
 11
-1600.549860468995
 21
1393.910003339182
  0
LINE
  5
1EC
100
AcDbEntity
  8
1
  6
PHANTOM
 62
           3
100
AcDbLine
 10
-1630.549860468995
 20
1229.910003339182
 11
-1630.549860468995
 21
1393.910003339182
  0
LINE
  5
1EB
100
AcDbEntity
  8
1
  6
PHANTOM
 62
           3
100
AcDbLine
 10
-1600.549860468995
 20
1229.910003339182
 11
-1630.549860468995
 21
1229.910003339182
  0
LINE
  5
1EA
100
AcDbEntity
  8
1
  6
PHANTOM
 62
           3
100
AcDbLine
 10
-1600.549860468995
 20
1393.910003339182
 11
-1600.549860468995
 21
1229.910003339182
  0
LINE
  5
1E9
100
AcDbEntity
  8
1
  6
DOT_CENTER
 62
           3
100
AcDbLine
 10
-1620.549860468995
 20
1229.910003339182
 11
-1620.549860468995
 21
1851.910003339182
  0
LINE
  5
1E8
100
AcDbEntity
  8
1
  6
DOT_CENTER
 62
           3
100
AcDbLine
 10
-1610.549860468995
 20
1851.910003339182
 11
-1610.549860468995
 21
1229.910003339182
  0
LINE
  5
1E7
100
AcDbEntity
  8
1
  6
CONTINUOUS
 62
           2
100
AcDbLine
 10
-1600.549860468995
 20
1786.910003339182
 11
-1600.549860468995
 21
1816.910003339182
  0
LINE
  5
1E6
100
AcDbEntity
  8
1
  6
CONTINUOUS
 62
           2
100
AcDbLine
 10
-1850.549860468994
 20
1786.910003339182
 11
-1870.549860468994
 21
1786.910003339182
  0
LINE
  5
1E5
100
AcDbEntity
  8
1
  6
CONTINUOUS
 62
           2
100
AcDbLine
 10
-1690.549860468995
 20
1786.910003339182
 11
-1810.549860468995
 21
1786.910003339182
  0
LINE
  5
1E4
100
AcDbEntity
  8
1
  6
CONTINUOUS
 62
           2
100
AcDbLine
 10
-1600.549860468995
 20
1786.910003339182
 11
-1650.549860468995
 21
1786.910003339182
  0
LINE
  5
1E3
100
AcDbEntity
  8
1
  6
CONTINUOUS
 62
           2
100
AcDbLine
 10
-1640.549860468995
 20
1816.910003339182
 11
-1600.549860468995
 21
1816.910003339182
  0
LINE
  5
1E2
100
AcDbEntity
  8
1
  6
CONTINUOUS
 62
           2
100
AcDbLine
 10
-1650.549860468995
 20
1816.910003339182
 11
-1640.549860468995
 21
1816.910003339182
  0
LINE
  5
1E1
100
AcDbEntity
  8
1
  6
CONTINUOUS
 62
           2
100
AcDbLine
 10
-1810.549860468995
 20
1816.910003339182
 11
-1690.549860468995
 21
1816.910003339182
  0
LINE
  5
1E0
100
AcDbEntity
  8
1
  6
CONTINUOUS
 62
           2
100
AcDbLine
 10
-1860.549860468994
 20
2011.910003339182
 11
-1860.549860468994
 21
1816.910003339182
  0
LINE
  5
1DF
100
AcDbEntity
  8
1
  6
CONTINUOUS
 62
           2
100
AcDbLine
 10
-1640.549860468995
 20
1591.910003339182
 11
-1640.549860468995
 21
1786.910003339182
  0
LINE
  5
1DE
100
AcDbEntity
  8
1
  6
CONTINUOUS
 62
           2
100
AcDbLine
 10
-1645.549860468995
 20
1186.910003339182
 11
-1645.549860468995
 21
1436.910003339182
  0
LINE
  5
1DD
100
AcDbEntity
  8
1
  6
CONTINUOUS
 62
           2
100
AcDbLine
 10
-1845.549860468994
 20
1186.910003339182
 11
-1831.549860468994
 21
1186.910003339182
  0
LINE
  5
1DC
100
AcDbEntity
  8
1
  6
CONTINUOUS
 62
           2
100
AcDbLine
 10
-1845.549860468994
 20
1231.110003339184
 11
-1845.549860468994
 21
1186.910003339182
  0
LINE
  5
1DB
100
AcDbEntity
  8
1
  6
CONTINUOUS
 62
           2
100
AcDbLine
 10
-1845.549860468994
 20
1436.910003339182
 11
-1645.549860468995
 21
1436.910003339182
  0
LINE
  5
1DA
100
AcDbEntity
  8
1
  6
CONTINUOUS
 62
           2
100
AcDbLine
 10
-2130.549860468994
 20
1221.910003339182
 11
-1845.549860468994
 21
1221.910003339182
  0
LINE
  5
1D9
100
AcDbEntity
  8
1
  6
CONTINUOUS
 62
           2
100
AcDbLine
 10
-1890.549860468994
 20
1401.910003339182
 11
-1845.549860468994
 21
1401.910003339182
  0
LINE
  5
1D8
100
AcDbEntity
  8
1
  6
CONTINUOUS
 62
           2
100
AcDbLine
 10
-1845.549860468994
 20
1436.910003339182
 11
-1845.549860468994
 21
1392.710003339184
  0
LINE
  5
1D7
100
AcDbEntity
  8
1
  6
CONTINUOUS
 62
           2
100
AcDbLine
 10
-1732.549860468994
 20
1186.910003339182
 11
-1645.549860468995
 21
1186.910003339182
  0
LINE
  5
1D6
100
AcDbEntity
  8
1
  6
DOT_CENTER
 62
           3
100
AcDbLine
 10
-222.75811963572
 20
-2904.371498572532
 11
-222.75811963572
 21
-3047.94594919305
  0
LINE
  5
1D5
100
AcDbEntity
  8
1
  6
PHANTOM
 62
           3
100
AcDbLine
 10
-208.758098815667
 20
-2690.136190225559
 11
-191.020756820533
 21
-2675.252793099377
  0
LINE
  5
1D4
100
AcDbEntity
  8
1
  6
PHANTOM
 62
           3
100
AcDbLine
 10
-208.758098815668
 20
-2654.114252053601
 11
-191.020756820533
 21
-2675.252793099377
  0
LINE
  5
1D3
100
AcDbEntity
  8
1
  6
PHANTOM
 62
           3
100
AcDbLine
 10
-313.603569108349
 20
-2731.117323262795
 11
-301.75811963572
 21
-2721.177810979183
  0
LINE
  5
1D2
100
AcDbEntity
  8
1
  6
PHANTOM
 62
           3
100
AcDbLine
 10
-314.75811963572
 20
-2713.810404133837
 11
-309.76248233136
 21
-2709.618566714251
  0
LINE
  5
1D1
100
AcDbEntity
  8
1
  6
PHANTOM
 62
           3
100
AcDbLine
 10
-208.758040828363
 20
-2702.868566714251
 11
-236.758140455773
 21
-2702.868566714251
  0
LINE
  5
1D0
100
AcDbEntity
  8
1
  6
PHANTOM
 62
           3
100
AcDbLine
 10
-208.758098815667
 20
-2702.868566714251
 11
-208.758098815668
 21
-2618.368566714251
  0
LINE
  5
1CF
100
AcDbEntity
  8
1
  6
PHANTOM
 62
           3
100
AcDbLine
 10
-236.758198443078
 20
-2618.368566714251
 11
-208.758098815668
 21
-2618.368566714251
  0
LINE
  5
1CE
100
AcDbEntity
  8
1
  6
PHANTOM
 62
           3
100
AcDbLine
 10
-236.758140455772
 20
-2616.868566714251
 11
-256.758132466295
 21
-2616.868566714251
  0
LINE
  5
1CD
100
AcDbEntity
  8
1
  6
PHANTOM
 62
           3
100
AcDbLine
 10
-256.758132466295
 20
-2616.868566714251
 11
-256.758132466295
 21
-2704.368566714251
  0
LINE
  5
1CC
100
AcDbEntity
  8
1
  6
PHANTOM
 62
           3
100
AcDbLine
 10
-236.758140455772
 20
-2704.368566714251
 11
-236.758140455772
 21
-2616.868566714251
  0
LINE
  5
1CB
100
AcDbEntity
  8
1
  6
PHANTOM
 62
           3
100
AcDbLine
 10
-256.758132466295
 20
-2704.368566714251
 11
-236.758140455772
 21
-2704.368566714251
  0
LINE
  5
1CA
100
AcDbEntity
  8
1
  6
PHANTOM
 62
           3
100
AcDbLine
 10
-213.75811963572
 20
-2702.868566714251
 11
-213.75811963572
 21
-2707.13167940396
  0
LINE
  5
1C9
100
AcDbEntity
  8
1
  6
PHANTOM
 62
           3
100
AcDbLine
 10
-231.75811963572
 20
-2702.746455363401
 11
-231.75811963572
 21
-2712.910447275736
  0
LINE
  5
1C8
100
AcDbEntity
  8
1
  6
PHANTOM
 62
           3
100
AcDbLine
 10
-210.75811963572
 20
-2955.868566714253
 11
-210.75811963572
 21
-2923.074220389102
  0
LINE
  5
1C7
100
AcDbEntity
  8
1
  6
PHANTOM
 62
           3
100
AcDbLine
 10
-234.75811963572
 20
-2989.368566714253
 11
-234.75811963572
 21
-2914.517206245701
  0
LINE
  5
1C6
100
AcDbEntity
  8
1
  6
PHANTOM
 62
           3
100
AcDbLine
 10
-210.75811963572
 20
-2989.368566714253
 11
-210.75811963572
 21
-2963.868566714253
  0
LINE
  5
1C5
100
AcDbEntity
  8
1
  6
PHANTOM
 62
           3
100
AcDbLine
 10
-387.258119635719
 20
-2773.368566714253
 11
-387.258119635719
 21
-2809.368566714251
  0
LINE
  5
1C4
100
AcDbEntity
  8
1
  6
PHANTOM
 62
           3
100
AcDbLine
 10
-399.25811963572
 20
-2773.368566714253
 11
-399.25811963572
 21
-2768.368566714253
  0
LINE
  5
1C3
100
AcDbEntity
  8
1
  6
PHANTOM
 62
           3
100
AcDbLine
 10
-414.25811963572
 20
-2773.368566714251
 11
-414.25811963572
 21
-2768.368566714253
  0
LINE
  5
1C2
100
AcDbEntity
  8
1
  6
PHANTOM
 62
           3
100
AcDbLine
 10
-414.25811963572
 20
-2768.368566714253
 11
-399.25811963572
 21
-2768.368566714253
  0
LINE
  5
1C1
100
AcDbEntity
  8
1
  6
PHANTOM
 62
           3
100
AcDbLine
 10
-387.258119635719
 20
-2809.368566714251
 11
-426.258119635721
 21
-2809.368566714253
  0
LINE
  5
1C0
100
AcDbEntity
  8
1
  6
PHANTOM
 62
           3
100
AcDbLine
 10
-426.258119635721
 20
-2809.368566714253
 11
-426.258119635721
 21
-2773.368566714251
  0
LINE
  5
1BF
100
AcDbEntity
  8
1
  6
PHANTOM
 62
           3
100
AcDbLine
 10
-387.258119635719
 20
-2773.368566714253
 11
-426.258119635721
 21
-2773.368566714251
  0
LINE
  5
1BE
100
AcDbEntity
  8
1
  6
DOT_CENTER
 62
           3
100
AcDbLine
 10
-406.75811963572
 20
-2964.755238695231
 11
-406.75811963572
 21
-2756.088607063716
  0
LINE
  5
1BD
100
AcDbEntity
  8
1
  6
PHANTOM
 62
           3
100
AcDbLine
 10
-384.75811963572
 20
-2826.868566714253
 11
-298.545584607692
 21
-2826.868566714251
  0
LINE
  5
1BC
100
AcDbEntity
  8
1
  6
DOT_CENTER
 62
           3
100
AcDbLine
 10
-423.72979273681
 20
-2836.868566714251
 11
-287.322848343871
 21
-2836.868566714251
  0
LINE
  5
1BB
100
AcDbEntity
  8
1
  6
PHANTOM
 62
           3
100
AcDbLine
 10
-384.75811963572
 20
-2846.868566714253
 11
-294.347367420638
 21
-2846.868566714253
  0
LINE
  5
1BA
100
AcDbEntity
  8
1
  6
PHANTOM
 62
           3
100
AcDbLine
 10
-406.75811963572
 20
-2848.368566714253
 11
-420.25811963572
 21
-2848.368566714251
  0
LINE
  5
1B9
100
AcDbEntity
  8
1
  6
PHANTOM
 62
           3
100
AcDbLine
 10
-418.75811963572
 20
-2819.368566714251
 11
-418.75811963572
 21
-2809.368566714251
  0
LINE
  5
1B8
100
AcDbEntity
  8
1
  6
PHANTOM
 62
           3
100
AcDbLine
 10
-394.75811963572
 20
-2819.368566714251
 11
-394.75811963572
 21
-2809.368566714251
  0
LINE
  5
1B7
100
AcDbEntity
  8
1
  6
PHANTOM
 62
           3
100
AcDbLine
 10
-420.25811963572
 20
-2848.368566714251
 11
-420.25811963572
 21
-2825.368566714251
  0
LINE
  5
1B6
100
AcDbEntity
  8
1
  6
PHANTOM
 62
           3
100
AcDbLine
 10
-390.75811963572
 20
-2825.368566714251
 11
-390.75811963572
 21
-2819.368566714251
  0
LINE
  5
1B5
100
AcDbEntity
  8
1
  6
PHANTOM
 62
           3
100
AcDbLine
 10
-390.75811963572
 20
-2819.368566714251
 11
-422.75811963572
 21
-2819.368566714251
  0
LINE
  5
1B4
100
AcDbEntity
  8
1
  6
PHANTOM
 62
           3
100
AcDbLine
 10
-422.75811963572
 20
-2819.368566714251
 11
-422.75811963572
 21
-2825.368566714251
  0
LINE
  5
1B3
100
AcDbEntity
  8
1
  6
PHANTOM
 62
           3
100
AcDbLine
 10
-422.75811963572
 20
-2825.368566714251
 11
-406.758119635733
 21
-2825.368566714251
  0
LINE
  5
1B2
100
AcDbEntity
  8
1
  6
PHANTOM
 62
           3
100
AcDbLine
 10
-384.75811963572
 20
-2848.368566714253
 11
-384.758119635721
 21
-2825.368566714251
  0
LINE
  5
1B1
100
AcDbEntity
  8
1
  6
PHANTOM
 62
           3
100
AcDbLine
 10
-384.75811963572
 20
-2848.368566714253
 11
-406.75811963572
 21
-2848.368566714253
  0
LINE
  5
1B0
100
AcDbEntity
  8
1
  6
PHANTOM
 62
           3
100
AcDbLine
 10
-384.758119635721
 20
-2825.368566714251
 11
-406.75811963572
 21
-2825.368566714251
  0
LINE
  5
1AF
100
AcDbEntity
  8
1
  6
PHANTOM
 62
           3
100
AcDbLine
 10
-395.257594897576
 20
-2916.866296712004
 11
-395.257594897576
 21
-2860.368566714253
  0
LINE
  5
1AE
100
AcDbEntity
  8
1
  6
PHANTOM
 62
           3
100
AcDbLine
 10
-394.75811963572
 20
-2848.368566714253
 11
-394.75811963572
 21
-2860.368566714251
  0
LINE
  5
1AD
100
AcDbEntity
  8
1
  6
PHANTOM
 62
           3
100
AcDbLine
 10
-394.75811963572
 20
-2860.368566714251
 11
-418.75811963572
 21
-2860.368566714253
  0
LINE
  5
1AC
100
AcDbEntity
  8
1
  6
PHANTOM
 62
           3
100
AcDbLine
 10
-418.75811963572
 20
-2860.368566714253
 11
-418.75811963572
 21
-2848.368566714253
  0
LINE
  5
1AB
100
AcDbEntity
  8
1
  6
PHANTOM
 62
           3
100
AcDbLine
 10
-418.258644373864
 20
-2916.866296712004
 11
-418.258644373865
 21
-2860.368566714251
  0
LINE
  5
1AA
100
AcDbEntity
  8
1
  6
PHANTOM
 62
           3
100
AcDbLine
 10
-393.257594897576
 20
-2916.866296712004
 11
-420.258644373864
 21
-2916.866296712004
  0
LINE
  5
1A9
100
AcDbEntity
  8
1
  6
PHANTOM
 62
           3
100
AcDbLine
 10
-420.258644373864
 20
-2916.866296712004
 11
-420.258644373865
 21
-2926.368041976109
  0
LINE
  5
1A8
100
AcDbEntity
  8
1
  6
PHANTOM
 62
           3
100
AcDbLine
 10
-437.760389637969
 20
-2933.868566714253
 11
-433.760389637969
 21
-2933.868566714253
  0
LINE
  5
1A7
100
AcDbEntity
  8
1
  6
PHANTOM
 62
           3
100
AcDbLine
 10
-437.760389637969
 20
-2928.868566714251
 11
-445.76038963797
 21
-2928.868566714251
  0
LINE
  5
1A6
100
AcDbEntity
  8
1
  6
PHANTOM
 62
           3
100
AcDbLine
 10
-433.760389637969
 20
-2930.36804197611
 11
-424.258644373865
 21
-2930.36804197611
  0
LINE
  5
1A5
100
AcDbEntity
  8
1
  6
PHANTOM
 62
           3
100
AcDbLine
 10
-437.760389637969
 20
-2952.368566714253
 11
-445.76038963797
 21
-2952.368566714253
  0
LINE
  5
1A4
100
AcDbEntity
  8
1
  6
PHANTOM
 62
           3
100
AcDbLine
 10
-445.76038963797
 20
-2935.368566714253
 11
-437.760389637969
 21
-2935.368566714253
  0
LINE
  5
1A3
100
AcDbEntity
  8
1
  6
PHANTOM
 62
           3
100
AcDbLine
 10
-457.758119635721
 20
-2950.868566714253
 11
-457.758119635721
 21
-2936.868566714253
  0
LINE
  5
1A2
100
AcDbEntity
  8
1
  6
PHANTOM
 62
           3
100
AcDbLine
 10
-457.758119635721
 20
-2950.868566714253
 11
-445.76038963797
 21
-2950.868566714253
  0
LINE
  5
1A1
100
AcDbEntity
  8
1
  6
PHANTOM
 62
           3
100
AcDbLine
 10
-457.758119635721
 20
-2936.868566714253
 11
-445.76038963797
 21
-2936.868566714253
  0
LINE
  5
1A0
100
AcDbEntity
  8
1
  6
PHANTOM
 62
           3
100
AcDbLine
 10
-437.76038963797
 20
-2953.868566714251
 11
-433.760389637969
 21
-2953.868566714253
  0
LINE
  5
19F
100
AcDbEntity
  8
1
  6
PHANTOM
 62
           3
100
AcDbLine
 10
-437.760389637969
 20
-2958.868566714253
 11
-437.760389637969
 21
-2928.868566714251
  0
LINE
  5
19E
100
AcDbEntity
  8
1
  6
PHANTOM
 62
           3
100
AcDbLine
 10
-445.76038963797
 20
-2928.868566714251
 11
-445.76038963797
 21
-2958.868566714253
  0
LINE
  5
19D
100
AcDbEntity
  8
1
  6
PHANTOM
 62
           3
100
AcDbLine
 10
-445.76038963797
 20
-2958.868566714253
 11
-437.760389637969
 21
-2958.868566714253
  0
LINE
  5
19C
100
AcDbEntity
  8
1
  6
PHANTOM
 62
           3
100
AcDbLine
 10
-433.760389637969
 20
-2943.868566714253
 11
-433.76038963797
 21
-2957.369091452396
  0
LINE
  5
19B
100
AcDbEntity
  8
1
  6
PHANTOM
 62
           3
100
AcDbLine
 10
-433.760389637969
 20
-2930.36804197611
 11
-433.760389637969
 21
-2943.868566714253
  0
LINE
  5
19A
100
AcDbEntity
  8
1
  6
DOT_CENTER
 62
           3
100
AcDbLine
 10
-396.75811963572
 20
-2943.868566714253
 11
-462.780389623083
 21
-2943.868566714253
  0
LINE
  5
199
100
AcDbEntity
  8
1
  6
PHANTOM
 62
           3
100
AcDbLine
 10
-433.76038963797
 20
-2957.369091452396
 11
-396.75811963572
 21
-2957.369091452397
  0
LINE
  5
198
100
AcDbEntity
  8
1
  6
PHANTOM
 62
           3
100
AcDbLine
 10
-308.75811963572
 20
-2955.868566714253
 11
-300.75811963572
 21
-2955.868566714253
  0
LINE
  5
197
100
AcDbEntity
  8
1
  6
PHANTOM
 62
           3
100
AcDbLine
 10
-308.75811963572
 20
-2955.868566714253
 11
-308.75811963572
 21
-2939.868566714253
  0
LINE
  5
196
100
AcDbEntity
  8
1
  6
PHANTOM
 62
           3
100
AcDbLine
 10
-300.75811963572
 20
-2955.868566714253
 11
-300.75811963572
 21
-2939.868566714253
  0
LINE
  5
195
100
AcDbEntity
  8
1
  6
PHANTOM
 62
           3
100
AcDbLine
 10
-292.75811963572
 20
-2955.868566714253
 11
-292.758119635719
 21
-2939.868566714253
  0
LINE
  5
194
100
AcDbEntity
  8
1
  6
PHANTOM
 62
           3
100
AcDbLine
 10
-316.75811963572
 20
-2939.868566714251
 11
-316.75811963572
 21
-2955.868566714253
  0
LINE
  5
193
100
AcDbEntity
  8
1
  6
PHANTOM
 62
           3
100
AcDbLine
 10
-284.75811963572
 20
-2934.868566714253
 11
-284.75811963572
 21
-2928.868566714253
  0
LINE
  5
192
100
AcDbEntity
  8
1
  6
PHANTOM
 62
           3
100
AcDbLine
 10
-322.50811963572
 20
-2928.868566714253
 11
-322.50811963572
 21
-2897.368566714251
  0
LINE
  5
191
100
AcDbEntity
  8
1
  6
PHANTOM
 62
           3
100
AcDbLine
 10
-319.50811963572
 20
-2894.368566714251
 11
-290.00811963572
 21
-2894.368566714253
  0
LINE
  5
190
100
AcDbEntity
  8
1
  6
PHANTOM
 62
           3
100
AcDbLine
 10
-287.00811963572
 20
-2897.368566714253
 11
-287.008119635721
 21
-2928.868566714251
  0
LINE
  5
18F
100
AcDbEntity
  8
1
  6
DOT_CENTER
 62
           3
100
AcDbLine
 10
-390.987778840097
 20
-2944.868566714253
 11
-234.75811963572
 21
-2944.868566714251
  0
LINE
  5
18E
100
AcDbEntity
  8
1
  6
PHANTOM
 62
           3
100
AcDbLine
 10
-257.755924938357
 20
-2944.868566714253
 11
-257.755924938357
 21
-2954.625794244937
  0
LINE
  5
18D
100
AcDbEntity
  8
1
  6
PHANTOM
 62
           3
100
AcDbLine
 10
-257.755924938357
 20
-2952.368566714253
 11
-268.25811963572
 21
-2952.368566714253
  0
LINE
  5
18C
100
AcDbEntity
  8
1
  6
PHANTOM
 62
           3
100
AcDbLine
 10
-271.25811963572
 20
-2937.368566714253
 11
-257.755924938357
 21
-2937.368566714253
  0
LINE
  5
18B
100
AcDbEntity
  8
1
  6
DOT_CENTER
 62
           3
100
AcDbLine
 10
-257.755924938358
 20
-2935.107839778089
 11
-257.755924938357
 21
-2944.868566714253
  0
LINE
  5
18A
100
AcDbEntity
  8
1
  6
PHANTOM
 62
           3
100
AcDbLine
 10
-281.25811963572
 20
-2939.868566714253
 11
-284.75811963572
 21
-2939.868566714253
  0
LINE
  5
189
100
AcDbEntity
  8
1
  6
PHANTOM
 62
           3
100
AcDbLine
 10
-283.484849715886
 20
-2949.868566714253
 11
-284.75811963572
 21
-2949.868566714253
  0
LINE
  5
188
100
AcDbEntity
  8
1
  6
PHANTOM
 62
           3
100
AcDbLine
 10
-284.75811963572
 20
-2928.868566714253
 11
-324.75811963572
 21
-2928.868566714251
  0
LINE
  5
187
100
AcDbEntity
  8
1
  6
PHANTOM
 62
           3
100
AcDbLine
 10
-324.75811963572
 20
-2930.368566714253
 11
-284.75811963572
 21
-2930.368566714253
  0
LINE
  5
186
100
AcDbEntity
  8
1
  6
PHANTOM
 62
           3
100
AcDbLine
 10
-324.75811963572
 20
-2934.868566714253
 11
-284.75811963572
 21
-2934.868566714253
  0
LINE
  5
185
100
AcDbEntity
  8
1
  6
PHANTOM
 62
           3
100
AcDbLine
 10
-324.75811963572
 20
-2939.868566714251
 11
-284.75811963572
 21
-2939.868566714253
  0
LINE
  5
184
100
AcDbEntity
  8
1
  6
PHANTOM
 62
           3
100
AcDbLine
 10
-324.75811963572
 20
-2955.868566714253
 11
-324.75811963572
 21
-2934.868566714253
  0
LINE
  5
183
100
AcDbEntity
  8
1
  6
PHANTOM
 62
           3
100
AcDbLine
 10
-324.75811963572
 20
-2928.868566714251
 11
-324.75811963572
 21
-2934.868566714253
  0
LINE
  5
182
100
AcDbEntity
  8
1
  6
PHANTOM
 62
           3
100
AcDbLine
 10
-324.75811963572
 20
-2955.868566714253
 11
-316.75811963572
 21
-2955.868566714253
  0
LINE
  5
181
100
AcDbEntity
  8
1
  6
PHANTOM
 62
           3
100
AcDbLine
 10
-334.75811963572
 20
-2949.868566714253
 11
-324.75811963572
 21
-2949.868566714251
  0
LINE
  5
180
100
AcDbEntity
  8
1
  6
PHANTOM
 62
           3
100
AcDbLine
 10
-334.75811963572
 20
-2939.868566714253
 11
-324.75811963572
 21
-2939.868566714251
  0
LINE
  5
17F
100
AcDbEntity
  8
1
  6
PHANTOM
 62
           3
100
AcDbLine
 10
-334.75811963572
 20
-2934.868566714253
 11
-339.75811963572
 21
-2934.868566714253
  0
LINE
  5
17E
100
AcDbEntity
  8
1
  6
PHANTOM
 62
           3
100
AcDbLine
 10
-339.758119635721
 20
-2954.868566714253
 11
-334.75811963572
 21
-2954.868566714253
  0
LINE
  5
17D
100
AcDbEntity
  8
1
  6
PHANTOM
 62
           3
100
AcDbLine
 10
-339.75811963572
 20
-2938.368566714253
 11
-334.75811963572
 21
-2938.368566714253
  0
LINE
  5
17C
100
AcDbEntity
  8
1
  6
PHANTOM
 62
           3
100
AcDbLine
 10
-339.75811963572
 20
-2951.368566714253
 11
-334.75811963572
 21
-2951.368566714253
  0
LINE
  5
17B
100
AcDbEntity
  8
1
  6
PHANTOM
 62
           3
100
AcDbLine
 10
-334.75811963572
 20
-2954.868566714253
 11
-334.75811963572
 21
-2934.868566714253
  0
LINE
  5
17A
100
AcDbEntity
  8
1
  6
PHANTOM
 62
           3
100
AcDbLine
 10
-339.75811963572
 20
-2934.868566714253
 11
-339.758119635721
 21
-2954.868566714253
  0
LINE
  5
179
100
AcDbEntity
  8
1
  6
PHANTOM
 62
           3
100
AcDbLine
 10
-369.75811963572
 20
-2934.868566714253
 11
-339.75811963572
 21
-2934.868566714253
  0
LINE
  5
178
100
AcDbEntity
  8
1
  6
PHANTOM
 62
           3
100
AcDbLine
 10
-369.75811963572
 20
-2954.868566714251
 11
-339.758119635721
 21
-2954.868566714253
  0
LINE
  5
177
100
AcDbEntity
  8
1
  6
PHANTOM
 62
           3
100
AcDbLine
 10
-349.75811963572
 20
-2934.868566714251
 11
-349.75811963572
 21
-2920.868566714251
  0
LINE
  5
176
100
AcDbEntity
  8
1
  6
PHANTOM
 62
           3
100
AcDbLine
 10
-349.75811963572
 20
-2920.868566714251
 11
-334.75811963572
 21
-2920.868566714253
  0
LINE
  5
175
100
AcDbEntity
  8
1
  6
PHANTOM
 62
           3
100
AcDbLine
 10
-334.75811963572
 20
-2925.868566714253
 11
-334.75811963572
 21
-2920.868566714253
  0
LINE
  5
174
100
AcDbEntity
  8
1
  6
PHANTOM
 62
           3
100
AcDbLine
 10
-349.75811963572
 20
-2928.868566714251
 11
-334.75811963572
 21
-2925.868566714253
  0
LINE
  5
173
100
AcDbEntity
  8
1
  6
PHANTOM
 62
           3
100
AcDbLine
 10
-354.758119635721
 20
-2958.294591235281
 11
-354.75811963572
 21
-2918.305458295642
  0
LINE
  5
172
100
AcDbEntity
  8
1
  6
PHANTOM
 62
           3
100
AcDbLine
 10
-359.758119635721
 20
-2934.868566714251
 11
-359.75811963572
 21
-2920.868566714253
  0
LINE
  5
171
100
AcDbEntity
  8
1
  6
PHANTOM
 62
           3
100
AcDbLine
 10
-374.75811963572
 20
-2920.868566714253
 11
-359.75811963572
 21
-2920.868566714253
  0
LINE
  5
170
100
AcDbEntity
  8
1
  6
PHANTOM
 62
           3
100
AcDbLine
 10
-359.75811963572
 20
-2928.868566714253
 11
-374.75811963572
 21
-2925.868566714253
  0
LINE
  5
16F
100
AcDbEntity
  8
1
  6
PHANTOM
 62
           3
100
AcDbLine
 10
-374.75811963572
 20
-2925.868566714253
 11
-374.75811963572
 21
-2920.868566714253
  0
LINE
  5
16E
100
AcDbEntity
  8
1
  6
PHANTOM
 62
           3
100
AcDbLine
 10
-359.75811963572
 20
-2920.868566714253
 11
-349.75811963572
 21
-2920.868566714251
  0
LINE
  5
16D
100
AcDbEntity
  8
1
  6
PHANTOM
 62
           3
100
AcDbLine
 10
-389.257594897576
 20
-2930.368041976109
 11
-379.75584963347
 21
-2930.368041976109
  0
LINE
  5
16C
100
AcDbEntity
  8
1
  6
PHANTOM
 62
           3
100
AcDbLine
 10
-396.75811963572
 20
-2957.369091452397
 11
-379.75584963347
 21
-2957.369091452397
  0
LINE
  5
16B
100
AcDbEntity
  8
1
  6
PHANTOM
 62
           3
100
AcDbLine
 10
-369.75811963572
 20
-2934.868566714253
 11
-374.75811963572
 21
-2934.868566714253
  0
LINE
  5
16A
100
AcDbEntity
  8
1
  6
PHANTOM
 62
           3
100
AcDbLine
 10
-374.75811963572
 20
-2938.368566714253
 11
-369.75811963572
 21
-2938.368566714251
  0
LINE
  5
169
100
AcDbEntity
  8
1
  6
PHANTOM
 62
           3
100
AcDbLine
 10
-374.75811963572
 20
-2934.868566714253
 11
-374.75811963572
 21
-2954.868566714253
  0
LINE
  5
168
100
AcDbEntity
  8
1
  6
PHANTOM
 62
           3
100
AcDbLine
 10
-374.758119635721
 20
-2951.368566714253
 11
-369.75811963572
 21
-2951.368566714253
  0
LINE
  5
167
100
AcDbEntity
  8
1
  6
PHANTOM
 62
           3
100
AcDbLine
 10
-369.75811963572
 20
-2954.868566714251
 11
-374.75811963572
 21
-2954.868566714253
  0
LINE
  5
166
100
AcDbEntity
  8
1
  6
PHANTOM
 62
           3
100
AcDbLine
 10
-377.25811963572
 20
-2932.868566714253
 11
-378.75811963572
 21
-2920.868566714253
  0
LINE
  5
165
100
AcDbEntity
  8
1
  6
PHANTOM
 62
           3
100
AcDbLine
 10
-390.75811963572
 20
-2920.868566714253
 11
-378.75811963572
 21
-2920.868566714253
  0
LINE
  5
164
100
AcDbEntity
  8
1
  6
PHANTOM
 62
           3
100
AcDbLine
 10
-377.25811963572
 20
-2935.868566714253
 11
-377.25811963572
 21
-2932.868566714253
  0
LINE
  5
163
100
AcDbEntity
  8
1
  6
PHANTOM
 62
           3
100
AcDbLine
 10
-392.25811963572
 20
-2935.868566714253
 11
-377.25811963572
 21
-2935.868566714253
  0
LINE
  5
162
100
AcDbEntity
  8
1
  6
PHANTOM
 62
           3
100
AcDbLine
 10
-377.25811963572
 20
-2932.868566714253
 11
-392.25811963572
 21
-2932.868566714253
  0
LINE
  5
161
100
AcDbEntity
  8
1
  6
PHANTOM
 62
           3
100
AcDbLine
 10
-392.25811963572
 20
-2932.868566714253
 11
-392.25811963572
 21
-2935.868566714253
  0
LINE
  5
160
100
AcDbEntity
  8
1
  6
PHANTOM
 62
           3
100
AcDbLine
 10
-392.25811963572
 20
-2932.868566714253
 11
-390.75811963572
 21
-2920.868566714253
  0
LINE
  5
15F
100
AcDbEntity
  8
1
  6
DOT_CENTER
 62
           3
100
AcDbLine
 10
-276.258119635721
 20
-2888.868566714251
 11
-276.25811963572
 21
-3004.345953289402
  0
LINE
  5
15E
100
AcDbEntity
  8
1
  6
PHANTOM
 62
           3
100
AcDbLine
 10
-295.25811963572
 20
-2989.868566714253
 11
-295.25811963572
 21
-2980.368566714253
  0
LINE
  5
15D
100
AcDbEntity
  8
1
  6
PHANTOM
 62
           3
100
AcDbLine
 10
-295.25811963572
 20
-2999.368566714253
 11
-295.25811963572
 21
-2989.868566714253
  0
LINE
  5
15C
100
AcDbEntity
  8
1
  6
PHANTOM
 62
           3
100
AcDbLine
 10
-295.25811963572
 20
-2999.368566714253
 11
-276.25811963572
 21
-2999.368566714253
  0
LINE
  5
15B
100
AcDbEntity
  8
1
  6
PHANTOM
 62
           3
100
AcDbLine
 10
-276.25811963572
 20
-2999.368566714253
 11
-257.25811963572
 21
-2999.368566714253
  0
LINE
  5
15A
100
AcDbEntity
  8
1
  6
PHANTOM
 62
           3
100
AcDbLine
 10
-257.25811963572
 20
-2989.868566714253
 11
-257.25811963572
 21
-2999.368566714253
  0
LINE
  5
159
100
AcDbEntity
  8
1
  6
PHANTOM
 62
           3
100
AcDbLine
 10
-257.25811963572
 20
-2980.368566714253
 11
-257.25811963572
 21
-2989.868566714253
  0
LINE
  5
158
100
AcDbEntity
  8
1
  6
PHANTOM
 62
           3
100
AcDbLine
 10
-266.75811963572
 20
-2980.368566714253
 11
-257.25811963572
 21
-2980.368566714253
  0
LINE
  5
157
100
AcDbEntity
  8
1
  6
PHANTOM
 62
           3
100
AcDbLine
 10
-299.25811963572
 20
-2992.868566714253
 11
-295.25811963572
 21
-2992.868566714253
  0
LINE
  5
156
100
AcDbEntity
  8
1
  6
PHANTOM
 62
           3
100
AcDbLine
 10
-299.25811963572
 20
-2986.868566714253
 11
-295.25811963572
 21
-2986.868566714253
  0
LINE
  5
155
100
AcDbEntity
  8
1
  6
PHANTOM
 62
           3
100
AcDbLine
 10
-299.25811963572
 20
-2995.586539714524
 11
-303.258119635721
 21
-2995.586539714524
  0
LINE
  5
154
100
AcDbEntity
  8
1
  6
PHANTOM
 62
           3
100
AcDbLine
 10
-303.258119635721
 20
-2984.150593713982
 11
-299.25811963572
 21
-2984.150593713982
  0
LINE
  5
153
100
AcDbEntity
  8
1
  6
PHANTOM
 62
           3
100
AcDbLine
 10
-295.25811963572
 20
-2981.868566714253
 11
-299.258119635721
 21
-2981.868566714253
  0
LINE
  5
152
100
AcDbEntity
  8
1
  6
PHANTOM
 62
           3
100
AcDbLine
 10
-299.258119635721
 20
-2981.868566714253
 11
-299.25811963572
 21
-2997.868566714253
  0
LINE
  5
151
100
AcDbEntity
  8
1
  6
PHANTOM
 62
           3
100
AcDbLine
 10
-299.25811963572
 20
-2997.868566714253
 11
-295.25811963572
 21
-2997.868566714253
  0
LINE
  5
150
100
AcDbEntity
  8
1
  6
PHANTOM
 62
           3
100
AcDbLine
 10
-257.25811963572
 20
-2997.868566714251
 11
-252.258119635721
 21
-2997.868566714251
  0
LINE
  5
14F
100
AcDbEntity
  8
1
  6
PHANTOM
 62
           3
100
AcDbLine
 10
-257.258119635721
 20
-2981.868566714251
 11
-252.25811963572
 21
-2981.868566714251
  0
LINE
  5
14E
100
AcDbEntity
  8
1
  6
PHANTOM
 62
           3
100
AcDbLine
 10
-252.25811963572
 20
-2995.868566714253
 11
-246.25811963572
 21
-2995.868566714253
  0
LINE
  5
14D
100
AcDbEntity
  8
1
  6
PHANTOM
 62
           3
100
AcDbLine
 10
-252.25811963572
 20
-2983.868566714253
 11
-246.25811963572
 21
-2983.868566714253
  0
LINE
  5
14C
100
AcDbEntity
  8
1
  6
PHANTOM
 62
           3
100
AcDbLine
 10
-246.258119635721
 20
-3004.868566714251
 11
-246.25811963572
 21
-2974.868566714251
  0
LINE
  5
14B
100
AcDbEntity
  8
1
  6
PHANTOM
 62
           3
100
AcDbLine
 10
-246.25811963572
 20
-2974.868566714251
 11
-252.25811963572
 21
-2974.868566714253
  0
LINE
  5
14A
100
AcDbEntity
  8
1
  6
PHANTOM
 62
           3
100
AcDbLine
 10
-252.25811963572
 20
-2974.868566714253
 11
-252.25811963572
 21
-3004.868566714253
  0
LINE
  5
149
100
AcDbEntity
  8
1
  6
PHANTOM
 62
           3
100
AcDbLine
 10
-252.25811963572
 20
-3004.868566714253
 11
-246.258119635721
 21
-3004.868566714251
  0
LINE
  5
148
100
AcDbEntity
  8
1
  6
PHANTOM
 62
           3
100
AcDbLine
 10
-246.25811963572
 20
-2978.868566714253
 11
-242.25811963572
 21
-2978.868566714253
  0
LINE
  5
147
100
AcDbEntity
  8
1
  6
PHANTOM
 62
           3
100
AcDbLine
 10
-246.25811963572
 20
-3000.868566714253
 11
-242.25811963572
 21
-3000.868566714253
  0
LINE
  5
146
100
AcDbEntity
  8
1
  6
PHANTOM
 62
           3
100
AcDbLine
 10
-242.25811963572
 20
-3003.150894899201
 11
-242.25811963572
 21
-2974.868566714253
  0
LINE
  5
145
100
AcDbEntity
  8
1
  6
PHANTOM
 62
           3
100
AcDbLine
 10
-242.25811963572
 20
-2974.868566714253
 11
-234.75811963572
 21
-2974.868566714251
  0
LINE
  5
144
100
AcDbEntity
  8
1
  6
PHANTOM
 62
           3
100
AcDbLine
 10
-242.758119635721
 20
-3015.868566714253
 11
-202.75811963572
 21
-3015.868566714253
  0
LINE
  5
143
100
AcDbEntity
  8
1
  6
PHANTOM
 62
           3
100
AcDbLine
 10
-242.75811963572
 20
-3003.368566714253
 11
-242.758119635721
 21
-3015.868566714253
  0
LINE
  5
142
100
AcDbEntity
  8
1
  6
PHANTOM
 62
           3
100
AcDbLine
 10
-202.75811963572
 20
-3003.368566714253
 11
-242.75811963572
 21
-3003.368566714253
  0
LINE
  5
141
100
AcDbEntity
  8
1
  6
PHANTOM
 62
           3
100
AcDbLine
 10
-202.75811963572
 20
-3015.868566714253
 11
-202.75811963572
 21
-3003.368566714253
  0
LINE
  5
140
100
AcDbEntity
  8
1
  6
PHANTOM
 62
           3
100
AcDbLine
 10
-207.75811963572
 20
-2989.368566714253
 11
-207.75811963572
 21
-3003.368566714253
  0
LINE
  5
13F
100
AcDbEntity
  8
1
  6
PHANTOM
 62
           3
100
AcDbLine
 10
-237.75811963572
 20
-2989.368566714253
 11
-237.75811963572
 21
-3003.368566714253
  0
LINE
  5
13E
100
AcDbEntity
  8
1
  6
PHANTOM
 62
           3
100
AcDbLine
 10
-237.75811963572
 20
-2989.368566714253
 11
-207.75811963572
 21
-2989.368566714253
  0
LINE
  5
13D
100
AcDbEntity
  8
1
  6
PHANTOM
 62
           3
100
AcDbLine
 10
-207.75811963572
 20
-3015.868566714253
 11
-207.75811963572
 21
-3029.868566714253
  0
LINE
  5
13C
100
AcDbEntity
  8
1
  6
PHANTOM
 62
           3
100
AcDbLine
 10
-207.75811963572
 20
-3029.868566714253
 11
-237.75811963572
 21
-3029.868566714253
  0
LINE
  5
13B
100
AcDbEntity
  8
1
  6
PHANTOM
 62
           3
100
AcDbLine
 10
-237.75811963572
 20
-3015.868566714253
 11
-237.75811963572
 21
-3029.868566714253
  0
LINE
  5
13A
100
AcDbEntity
  8
1
  6
PHANTOM
 62
           3
100
AcDbLine
 10
-215.75811963572
 20
-3003.368566714253
 11
-215.758119635721
 21
-2989.368566714251
  0
LINE
  5
139
100
AcDbEntity
  8
1
  6
PHANTOM
 62
           3
100
AcDbLine
 10
-229.75811963572
 20
-3003.368566714253
 11
-229.75811963572
 21
-2989.368566714253
  0
LINE
  5
138
100
AcDbEntity
  8
1
  6
PHANTOM
 62
           3
100
AcDbLine
 10
-215.758119635721
 20
-3029.868566714251
 11
-215.75811963572
 21
-3015.868566714253
  0
LINE
  5
137
100
AcDbEntity
  8
1
  6
PHANTOM
 62
           3
100
AcDbLine
 10
-229.75811963572
 20
-3029.868566714253
 11
-229.75811963572
 21
-3015.868566714253
  0
LINE
  5
136
100
AcDbEntity
  8
1
  6
PHANTOM
 62
           3
100
AcDbLine
 10
-212.75811963572
 20
-3015.868566714253
 11
-212.75811963572
 21
-3003.368566714253
  0
LINE
  5
135
100
AcDbEntity
  8
1
  6
PHANTOM
 62
           3
100
AcDbLine
 10
-232.75811963572
 20
-3015.868566714253
 11
-232.75811963572
 21
-3003.368566714253
  0
LINE
  5
134
100
AcDbEntity
  8
1
  6
PHANTOM
 62
           3
100
AcDbLine
 10
-364.37712157486
 20
-2943.868566714253
 11
-396.75811963572
 21
-2943.868566714253
  0
LINE
  5
133
100
AcDbEntity
  8
1
  6
PHANTOM
 62
           3
100
AcDbLine
 10
-285.75811963572
 20
-2970.368566714253
 11
-266.75811963572
 21
-2970.368566714253
  0
LINE
  5
132
100
AcDbEntity
  8
1
  6
PHANTOM
 62
           3
100
AcDbLine
 10
-266.75811963572
 20
-2989.868566714251
 11
-266.75811963572
 21
-2970.368566714253
  0
LINE
  5
131
100
AcDbEntity
  8
1
  6
PHANTOM
 62
           3
100
AcDbLine
 10
-285.75811963572
 20
-2989.868566714253
 11
-285.75811963572
 21
-2970.368566714253
  0
LINE
  5
130
100
AcDbEntity
  8
1
  6
PHANTOM
 62
           3
100
AcDbLine
 10
-295.25811963572
 20
-2980.368566714253
 11
-285.75811963572
 21
-2980.368566714253
  0
LINE
  5
12F
100
AcDbEntity
  8
1
  6
PHANTOM
 62
           3
100
AcDbLine
 10
-282.25811963572
 20
-2946.368566714253
 11
-270.258119635721
 21
-2946.368566714251
  0
LINE
  5
12E
100
AcDbEntity
  8
1
  6
PHANTOM
 62
           3
100
AcDbLine
 10
-282.25811963572
 20
-2946.368566714253
 11
-286.25811963572
 21
-2958.368566714253
  0
LINE
  5
12D
100
AcDbEntity
  8
1
  6
PHANTOM
 62
           3
100
AcDbLine
 10
-270.258119635721
 20
-2946.368566714251
 11
-266.25811963572
 21
-2958.368566714253
  0
LINE
  5
12C
100
AcDbEntity
  8
1
  6
PHANTOM
 62
           3
100
AcDbLine
 10
-281.25811963572
 20
-2958.368566714253
 11
-281.25811963572
 21
-2961.368566714253
  0
LINE
  5
12B
100
AcDbEntity
  8
1
  6
PHANTOM
 62
           3
100
AcDbLine
 10
-281.25811963572
 20
-2964.368566714253
 11
-281.258119635721
 21
-2968.368566714253
  0
LINE
  5
12A
100
AcDbEntity
  8
1
  6
PHANTOM
 62
           3
100
AcDbLine
 10
-271.25811963572
 20
-2958.368566714253
 11
-271.25811963572
 21
-2961.368566714253
  0
LINE
  5
129
100
AcDbEntity
  8
1
  6
PHANTOM
 62
           3
100
AcDbLine
 10
-271.25811963572
 20
-2964.368566714253
 11
-271.25811963572
 21
-2968.368566714253
  0
LINE
  5
128
100
AcDbEntity
  8
1
  6
PHANTOM
 62
           3
100
AcDbLine
 10
-281.97609263599
 20
-2964.368566714253
 11
-281.97609263599
 21
-2961.368566714253
  0
LINE
  5
127
100
AcDbEntity
  8
1
  6
PHANTOM
 62
           3
100
AcDbLine
 10
-270.54014663545
 20
-2961.368566714253
 11
-270.54014663545
 21
-2964.368566714253
  0
LINE
  5
126
100
AcDbEntity
  8
1
  6
PHANTOM
 62
           3
100
AcDbLine
 10
-286.25811963572
 20
-2961.368566714253
 11
-266.25811963572
 21
-2961.368566714253
  0
LINE
  5
125
100
AcDbEntity
  8
1
  6
PHANTOM
 62
           3
100
AcDbLine
 10
-266.25811963572
 20
-2961.368566714253
 11
-266.25811963572
 21
-2958.368566714253
  0
LINE
  5
124
100
AcDbEntity
  8
1
  6
PHANTOM
 62
           3
100
AcDbLine
 10
-266.25811963572
 20
-2958.368566714253
 11
-286.25811963572
 21
-2958.368566714253
  0
LINE
  5
123
100
AcDbEntity
  8
1
  6
PHANTOM
 62
           3
100
AcDbLine
 10
-286.25811963572
 20
-2958.368566714253
 11
-286.25811963572
 21
-2961.368566714253
  0
LINE
  5
122
100
AcDbEntity
  8
1
  6
PHANTOM
 62
           3
100
AcDbLine
 10
-286.25811963572
 20
-2968.368566714253
 11
-266.25811963572
 21
-2968.368566714253
  0
LINE
  5
121
100
AcDbEntity
  8
1
  6
PHANTOM
 62
           3
100
AcDbLine
 10
-266.25811963572
 20
-2968.368566714253
 11
-266.25811963572
 21
-2964.368566714253
  0
LINE
  5
120
100
AcDbEntity
  8
1
  6
PHANTOM
 62
           3
100
AcDbLine
 10
-266.25811963572
 20
-2964.368566714253
 11
-286.25811963572
 21
-2964.368566714253
  0
LINE
  5
11F
100
AcDbEntity
  8
1
  6
PHANTOM
 62
           3
100
AcDbLine
 10
-286.25811963572
 20
-2964.368566714253
 11
-286.25811963572
 21
-2968.368566714253
  0
LINE
  5
11E
100
AcDbEntity
  8
1
  6
PHANTOM
 62
           3
100
AcDbLine
 10
-268.25811963572
 20
-2968.368566714253
 11
-268.25811963572
 21
-2970.368566714253
  0
LINE
  5
11D
100
AcDbEntity
  8
1
  6
PHANTOM
 62
           3
100
AcDbLine
 10
-284.25811963572
 20
-2970.368566714253
 11
-284.25811963572
 21
-2968.368566714253
  0
LINE
  5
11C
100
AcDbEntity
  8
1
  6
PHANTOM
 62
           3
100
AcDbLine
 10
-271.258119635721
 20
-2888.868566714251
 11
-271.25811963572
 21
-2946.368566714253
  0
LINE
  5
11B
100
AcDbEntity
  8
1
  6
PHANTOM
 62
           3
100
AcDbLine
 10
-281.25811963572
 20
-2888.868566714253
 11
-281.258119635721
 21
-2946.368566714251
  0
LINE
  5
11A
100
AcDbEntity
  8
1
  6
PHANTOM
 62
           3
100
AcDbLine
 10
-284.75811963572
 20
-2934.868566714253
 11
-284.75811963572
 21
-2953.868566714251
  0
LINE
  5
119
100
AcDbEntity
  8
1
  6
PHANTOM
 62
           3
100
AcDbLine
 10
-292.75811963572
 20
-2955.868566714253
 11
-285.424786302387
 21
-2955.868566714253
  0
LINE
  5
118
100
AcDbEntity
  8
1
  6
DOT_CENTER
 62
           3
100
AcDbLine
 10
-384.75811963572
 20
-2951.703044559993
 11
-384.758119635721
 21
-2888.868566714251
  0
LINE
  5
117
100
AcDbEntity
  8
1
  6
PHANTOM
 62
           3
100
AcDbLine
 10
-389.75811963572
 20
-2920.868566714253
 11
-389.75811963572
 21
-2888.868566714251
  0
LINE
  5
116
100
AcDbEntity
  8
1
  6
PHANTOM
 62
           3
100
AcDbLine
 10
-379.75811963572
 20
-2920.868566714253
 11
-379.758119635721
 21
-2888.868566714251
  0
LINE
  5
115
100
AcDbEntity
  8
1
  6
PHANTOM
 62
           3
100
AcDbLine
 10
-379.75811963572
 20
-2949.868566714253
 11
-379.75811963572
 21
-2935.868566714253
  0
LINE
  5
114
100
AcDbEntity
  8
1
  6
PHANTOM
 62
           3
100
AcDbLine
 10
-389.75811963572
 20
-2949.868566714253
 11
-389.75811963572
 21
-2935.868566714253
  0
LINE
  5
113
100
AcDbEntity
  8
1
  6
PHANTOM
 62
           3
100
AcDbLine
 10
-374.758119635721
 20
-2949.868566714253
 11
-389.75811963572
 21
-2949.868566714253
  0
LINE
  5
112
100
AcDbEntity
  8
1
  6
PHANTOM
 62
           3
100
AcDbLine
 10
-379.75811963572
 20
-2939.868566714253
 11
-389.75811963572
 21
-2939.868566714253
  0
LINE
  5
111
100
AcDbEntity
  8
1
  6
PHANTOM
 62
           3
100
AcDbLine
 10
-374.75811963572
 20
-2939.868566714251
 11
-379.75811963572
 21
-2939.868566714253
  0
LINE
  5
110
100
AcDbEntity
  8
1
  6
PHANTOM
 62
           3
100
AcDbLine
 10
-393.257594897576
 20
-2926.368041976109
 11
-393.257594897576
 21
-2916.866296712004
  0
LINE
  5
10F
100
AcDbEntity
  8
1
  6
PHANTOM
 62
           3
100
AcDbLine
 10
-376.75811963572
 20
-2885.868566714253
 11
-284.258119635721
 21
-2885.868566714251
  0
LINE
  5
10E
100
AcDbEntity
  8
1
  6
DOT_CENTER
 62
           3
100
AcDbLine
 10
-376.75811963572
 20
-2880.868566714253
 11
-284.25811963572
 21
-2880.868566714253
  0
LINE
  5
10D
100
AcDbEntity
  8
1
  6
PHANTOM
 62
           3
100
AcDbLine
 10
-376.758119635721
 20
-2875.868566714251
 11
-284.258119635721
 21
-2875.868566714251
  0
LINE
  5
10C
100
AcDbEntity
  8
1
  6
PHANTOM
 62
           3
100
AcDbLine
 10
-303.258119635721
 20
-2984.150593713982
 11
-303.258119635721
 21
-2995.586539714524
  0
LINE
  5
10B
100
AcDbEntity
  8
1
  6
DOT_CENTER
 62
           3
100
AcDbLine
 10
-263.223759743091
 20
-2660.618566714251
 11
-187.774698601741
 21
-2660.618566714251
  0
LINE
  5
10A
100
AcDbEntity
  8
1
  6
DOT_CENTER
 62
           3
100
AcDbLine
 10
-222.75811963572
 20
-2604.686653528584
 11
-222.75811963572
 21
-2721.244057344221
  0
LINE
  5
109
100
AcDbEntity
  8
1
  6
PHANTOM
 62
           3
100
AcDbLine
 10
-314.1659971719
 20
-2732.118566714253
 11
-262.298776122364
 21
-2732.118566714251
  0
LINE
  5
108
100
AcDbEntity
  8
1
  6
PHANTOM
 62
           3
100
AcDbLine
 10
-314.1659971719
 20
-2749.118566714253
 11
-279.050557895811
 21
-2749.118566714253
  0
LINE
  5
107
100
AcDbEntity
  8
1
  6
DOT_CENTER
 62
           3
100
AcDbLine
 10
-402.939933271067
 20
-2740.618566714251
 11
-256.618371923941
 21
-2740.618566714251
  0
LINE
  5
106
100
AcDbEntity
  8
1
  6
PHANTOM
 62
           3
100
AcDbLine
 10
-323.75811963572
 20
-2730.618566714251
 11
-323.75811963572
 21
-2727.618566714251
  0
LINE
  5
105
100
AcDbEntity
  8
1
  6
PHANTOM
 62
           3
100
AcDbLine
 10
-314.75811963572
 20
-2750.618566714251
 11
-328.75811963572
 21
-2750.618566714251
  0
LINE
  5
104
100
AcDbEntity
  8
1
  6
PHANTOM
 62
           3
100
AcDbLine
 10
-314.75811963572
 20
-2750.618566714251
 11
-314.75811963572
 21
-2738.618566714251
  0
LINE
  5
103
100
AcDbEntity
  8
1
  6
PHANTOM
 62
           3
100
AcDbLine
 10
-314.75811963572
 20
-2733.118566714251
 11
-317.75811963572
 21
-2733.118566714251
  0
LINE
  5
102
100
AcDbEntity
  8
1
  6
PHANTOM
 62
           3
100
AcDbLine
 10
-314.75811963572
 20
-2736.118566714251
 11
-317.75811963572
 21
-2736.118566714251
  0
LINE
  5
101
100
AcDbEntity
  8
1
  6
PHANTOM
 62
           3
100
AcDbLine
 10
-317.75811963572
 20
-2738.618566714251
 11
-317.75811963572
 21
-2730.618566714251
  0
LINE
  5
100
100
AcDbEntity
  8
1
  6
PHANTOM
 62
           3
100
AcDbLine
 10
-318.75811963572
 20
-2730.618566714251
 11
-331.75811963572
 21
-2730.618566714251
  0
LINE
  5
FF
100
AcDbEntity
  8
1
  6
PHANTOM
 62
           3
100
AcDbLine
 10
-318.75811963572
 20
-2738.618566714251
 11
-331.75811963572
 21
-2738.618566714251
  0
LINE
  5
FE
100
AcDbEntity
  8
1
  6
PHANTOM
 62
           3
100
AcDbLine
 10
-314.75811963572
 20
-2738.618566714251
 11
-314.75811963572
 21
-2730.618566714251
  0
LINE
  5
FD
100
AcDbEntity
  8
1
  6
PHANTOM
 62
           3
100
AcDbLine
 10
-318.75811963572
 20
-2738.618566714251
 11
-314.75811963572
 21
-2738.618566714251
  0
LINE
  5
FC
100
AcDbEntity
  8
1
  6
PHANTOM
 62
           3
100
AcDbLine
 10
-318.75811963572
 20
-2730.618566714251
 11
-318.75811963572
 21
-2738.618566714251
  0
LINE
  5
FB
100
AcDbEntity
  8
1
  6
PHANTOM
 62
           3
100
AcDbLine
 10
-314.75811963572
 20
-2730.618566714251
 11
-318.75811963572
 21
-2730.618566714251
  0
LINE
  5
FA
100
AcDbEntity
  8
1
  6
PHANTOM
 62
           3
100
AcDbLine
 10
-321.758119635721
 20
-2765.618566714251
 11
-321.75811963572
 21
-2753.618566714253
  0
LINE
  5
F9
100
AcDbEntity
  8
1
  6
PHANTOM
 62
           3
100
AcDbLine
 10
-321.75811963572
 20
-2753.618566714253
 11
-331.758119635721
 21
-2753.618566714251
  0
LINE
  5
F8
100
AcDbEntity
  8
1
  6
PHANTOM
 62
           3
100
AcDbLine
 10
-321.758119635721
 20
-2765.618566714251
 11
-331.758119635721
 21
-2765.618566714251
  0
LINE
  5
F7
100
AcDbEntity
  8
1
  6
PHANTOM
 62
           3
100
AcDbLine
 10
-314.758119635721
 20
-2727.618566714251
 11
-314.75811963572
 21
-2709.618566714251
  0
LINE
  5
F6
100
AcDbEntity
  8
1
  6
PHANTOM
 62
           3
100
AcDbLine
 10
-314.758119635721
 20
-2727.618566714251
 11
-331.758119635721
 21
-2727.618566714251
  0
LINE
  5
F5
100
AcDbEntity
  8
1
  6
PHANTOM
 62
           3
100
AcDbLine
 10
-342.758119635721
 20
-2775.618566714251
 11
-381.871726662488
 21
-2774.729621100008
  0
LINE
  5
F4
100
AcDbEntity
  8
1
  6
PHANTOM
 62
           3
100
AcDbLine
 10
-331.758119635721
 20
-2775.618566714251
 11
-331.758119635721
 21
-2753.618566714251
  0
LINE
  5
F3
100
AcDbEntity
  8
1
  6
PHANTOM
 62
           3
100
AcDbLine
 10
-342.758119635721
 20
-2775.618566714251
 11
-331.758119635721
 21
-2775.618566714251
  0
LINE
  5
F2
100
AcDbEntity
  8
1
  6
PHANTOM
 62
           3
100
AcDbLine
 10
-331.758119635721
 20
-2753.618566714251
 11
-331.75811963572
 21
-2709.618566714251
  0
LINE
  5
F1
100
AcDbEntity
  8
1
  6
PHANTOM
 62
           3
100
AcDbLine
 10
-353.758119635721
 20
-2775.368566714251
 11
-353.758119635721
 21
-2709.618566714251
  0
LINE
  5
F0
100
AcDbEntity
  8
1
  6
PHANTOM
 62
           3
100
AcDbLine
 10
-341.758119635721
 20
-2775.618566714251
 11
-341.758119635721
 21
-2709.618566714251
  0
LINE
  5
EF
100
AcDbEntity
  8
1
  6
PHANTOM
 62
           3
100
AcDbLine
 10
-342.758119635721
 20
-2709.618566714251
 11
-342.758119635721
 21
-2775.618566714251
  0
LINE
  5
EE
100
AcDbEntity
  8
1
  6
PHANTOM
 62
           3
100
AcDbLine
 10
-342.758119635721
 20
-2709.618566714251
 11
-381.871726662488
 21
-2710.507512328497
  0
LINE
  5
ED
100
AcDbEntity
  8
1
  6
PHANTOM
 62
           3
100
AcDbLine
 10
-386.758119635721
 20
-2769.730911922282
 11
-386.758119635721
 21
-2715.506221506222
  0
LINE
  5
EC
100
AcDbEntity
  8
1
  6
PHANTOM
 62
           3
100
AcDbLine
 10
-331.75811963572
 20
-2709.618566714251
 11
-342.758119635721
 21
-2709.618566714251
  0
LINE
  5
EB
100
AcDbEntity
  8
1
  6
PHANTOM
 62
           3
100
AcDbLine
 10
-314.75811963572
 20
-2709.618566714251
 11
-331.75811963572
 21
-2709.618566714251
  0
LINE
  5
EA
100
AcDbEntity
  8
1
  6
PHANTOM
 62
           3
100
AcDbLine
 10
-312.000054032397
 20
-2734.618566714253
 11
-334.663726978589
 21
-2734.618566714251
  0
LINE
  5
E9
100
AcDbEntity
  8
1
  6
PHANTOM
 62
           3
100
AcDbLine
 10
-369.75811963572
 20
-2954.868566714251
 11
-369.75811963572
 21
-2934.868566714253
  0
LINE
  5
E8
100
AcDbEntity
  8
1
  6
PHANTOM
 62
           3
100
AcDbLine
 10
-379.75584963347
 20
-2935.868566714253
 11
-379.75584963347
 21
-2930.368041976109
  0
LINE
  5
E7
100
AcDbEntity
  8
1
  6
PHANTOM
 62
           3
100
AcDbLine
 10
-379.75811963572
 20
-2957.369091452397
 11
-379.75811963572
 21
-2949.868566714253
  0
LINE
  5
E6
100
AcDbEntity
  8
1
  6
PHANTOM
 62
           3
100
AcDbLine
 10
-359.75811963572
 20
-2933.868566714251
 11
-369.75584963347
 21
-2933.868566714251
  0
LINE
  5
E5
100
AcDbEntity
  8
1
  6
DOT_CENTER
 62
           3
100
AcDbLine
 10
-324.50811963572
 20
-2939.868566714251
 11
-324.50811963572
 21
-2891.699452283176
  0
LINE
  5
E4
100
AcDbEntity
  8
1
  6
PHANTOM
 62
           3
100
AcDbLine
 10
-336.234147032981
 20
-2928.868566714251
 11
-336.084296921039
 21
-2926.133802171316
  0
LINE
  5
E3
100
AcDbEntity
  8
1
  6
PHANTOM
 62
           3
100
AcDbLine
 10
-349.75811963572
 20
-2932.868566714251
 11
-324.75811963572
 21
-2932.868566714251
  0
LINE
  5
E2
100
AcDbEntity
  8
1
  6
PHANTOM
 62
           3
100
AcDbLine
 10
-349.75811963572
 20
-2930.868566714251
 11
-324.75811963572
 21
-2930.868566714251
  0
LINE
  5
E1
100
AcDbEntity
  8
1
  6
PHANTOM
 62
           3
100
AcDbLine
 10
-349.75811963572
 20
-2928.868566714251
 11
-324.75811963572
 21
-2928.868566714251
  0
LINE
  5
E0
100
AcDbEntity
  8
1
  6
PHANTOM
 62
           3
100
AcDbLine
 10
-335.795790868597
 20
-2920.868566714251
 11
-334.50811963572
 21
-2897.368566714251
  0
LINE
  5
DF
100
AcDbEntity
  8
1
  6
PHANTOM
 62
           3
100
AcDbLine
 10
-334.50811963572
 20
-2897.368566714251
 11
-322.50811963572
 21
-2897.368566714251
  0
LINE
  5
DE
100
AcDbEntity
  8
1
  6
PHANTOM
 62
           3
100
AcDbLine
 10
-190.258119635719
 20
-3000.868566714251
 11
-160.258119635719
 21
-3000.868566714251
  0
LINE
  5
DD
100
AcDbEntity
  8
1
  6
PHANTOM
 62
           3
100
AcDbLine
 10
-190.258119635719
 20
-2978.868566714251
 11
-160.258119635719
 21
-2978.868566714251
  0
LINE
  5
DC
100
AcDbEntity
  8
1
  6
PHANTOM
 62
           3
100
AcDbLine
 10
-160.258119635719
 20
-3004.868566714251
 11
-160.258119635719
 21
-2974.868566714251
  0
LINE
  5
DB
100
AcDbEntity
  8
1
  6
PHANTOM
 62
           3
100
AcDbLine
 10
-160.258119635719
 20
-3004.868566714251
 11
-127.258119635721
 21
-3004.868566714251
  0
LINE
  5
DA
100
AcDbEntity
  8
1
  6
DOT_CENTER
 62
           3
100
AcDbLine
 10
-189.25811963572
 20
-2938.444121244569
 11
-189.25811963572
 21
-2690.423166534337
  0
LINE
  5
D9
100
AcDbEntity
  8
1
  6
DOT_CENTER
 62
           3
100
AcDbLine
 10
-329.356699517377
 20
-2817.368566714251
 11
-21.049363619192
 21
-2817.368566714251
  0
LINE
  5
D8
100
AcDbEntity
  8
1
  6
PHANTOM
 62
           3
100
AcDbLine
 10
35.24188036428
 20
-2914.368566714251
 11
-127.25811963572
 21
-2914.368566714251
  0
LINE
  5
D7
100
AcDbEntity
  8
1
  6
PHANTOM
 62
           3
100
AcDbLine
 10
-124.25811963572
 20
-2914.368566714251
 11
-124.25811963572
 21
-2911.368566714251
  0
LINE
  5
D6
100
AcDbEntity
  8
1
  6
PHANTOM
 62
           3
100
AcDbLine
 10
35.24188036428
 20
-3089.868566714251
 11
39.74188036428
 21
-3089.868566714251
  0
LINE
  5
D5
100
AcDbEntity
  8
1
  6
PHANTOM
 62
           3
100
AcDbLine
 10
35.24188036428
 20
-2890.368566714251
 11
35.24188036428
 21
-3089.868566714251
  0
LINE
  5
D4
100
AcDbEntity
  8
1
  6
PHANTOM
 62
           3
100
AcDbLine
 10
39.74188036428
 20
-2890.368566714251
 11
35.24188036428
 21
-2890.368566714251
  0
LINE
  5
D3
100
AcDbEntity
  8
1
  6
PHANTOM
 62
           3
100
AcDbLine
 10
39.74188036428
 20
-3089.868566714251
 11
39.74188036428
 21
-2890.368566714251
  0
LINE
  5
D2
100
AcDbEntity
  8
1
  6
PHANTOM
 62
           3
100
AcDbLine
 10
-127.25811963572
 20
-3065.868566714251
 11
35.24188036428
 21
-3065.868566714251
  0
LINE
  5
D1
100
AcDbEntity
  8
1
  6
PHANTOM
 62
           3
100
AcDbLine
 10
-127.25811963572
 20
-2944.868566714251
 11
-127.25811963572
 21
-2914.368566714251
  0
LINE
  5
D0
100
AcDbEntity
  8
1
  6
PHANTOM
 62
           3
100
AcDbLine
 10
-124.25811963572
 20
-2944.868566714251
 11
-124.25811963572
 21
-2914.368566714251
  0
LINE
  5
CF
100
AcDbEntity
  8
1
  6
DOT_CENTER
 62
           3
100
AcDbLine
 10
-86.75811963572
 20
-2923.447029081908
 11
-86.75811963572
 21
-2887.905985586559
  0
LINE
  5
CE
100
AcDbEntity
  8
1
  6
PHANTOM
 62
           3
100
AcDbLine
 10
-261.75811963572
 20
-2949.868566714251
 11
-242.75811963572
 21
-2949.868566714251
  0
LINE
  5
CD
100
AcDbEntity
  8
1
  6
PHANTOM
 62
           3
100
AcDbLine
 10
-236.75811963572
 20
-2974.868566714251
 11
-234.75811963572
 21
-2974.868566714251
  0
LINE
  5
CC
100
AcDbEntity
  8
1
  6
PHANTOM
 62
           3
100
AcDbLine
 10
-264.75811963572
 20
-2946.868566714251
 11
-264.75811963572
 21
-2944.868566714251
  0
LINE
  5
CB
100
AcDbEntity
  8
1
  6
PHANTOM
 62
           3
100
AcDbLine
 10
-239.75811963572
 20
-2971.868566714251
 11
-239.75811963572
 21
-2952.868566714251
  0
LINE
  5
CA
100
AcDbEntity
  8
1
  6
PHANTOM
 62
           3
100
AcDbLine
 10
-210.75811963572
 20
-2944.868566714251
 11
-15.758119635721
 21
-2944.868566714251
  0
LINE
  5
C9
100
AcDbEntity
  8
1
  6
PHANTOM
 62
           3
100
AcDbLine
 10
-15.758119635721
 20
-2974.868566714251
 11
-15.758119635721
 21
-2944.868566714251
  0
LINE
  5
C8
100
AcDbEntity
  8
1
  6
PHANTOM
 62
           3
100
AcDbLine
 10
-210.75811963572
 20
-2949.868566714251
 11
-15.758119635721
 21
-2949.868566714251
  0
LINE
  5
C7
100
AcDbEntity
  8
1
  6
PHANTOM
 62
           3
100
AcDbLine
 10
-250.75811963572
 20
-2955.868566714251
 11
-244.75811963572
 21
-2955.868566714251
  0
LINE
  5
C6
100
AcDbEntity
  8
1
  6
PHANTOM
 62
           3
100
AcDbLine
 10
-244.75811963572
 20
-2952.868566714251
 11
-239.75811963572
 21
-2952.868566714251
  0
LINE
  5
C5
100
AcDbEntity
  8
1
  6
PHANTOM
 62
           3
100
AcDbLine
 10
-244.75811963572
 20
-2966.868566714251
 11
-239.75811963572
 21
-2966.868566714251
  0
LINE
  5
C4
100
AcDbEntity
  8
1
  6
PHANTOM
 62
           3
100
AcDbLine
 10
-250.75811963572
 20
-2963.868566714251
 11
-244.75811963572
 21
-2963.868566714251
  0
LINE
  5
C3
100
AcDbEntity
  8
1
  6
PHANTOM
 62
           3
100
AcDbLine
 10
-244.75811963572
 20
-2966.868566714251
 11
-244.75811963572
 21
-2952.868566714251
  0
LINE
  5
C2
100
AcDbEntity
  8
1
  6
PHANTOM
 62
           3
100
AcDbLine
 10
-250.75811963572
 20
-2963.868566714251
 11
-250.75811963572
 21
-2955.868566714251
  0
LINE
  5
C1
100
AcDbEntity
  8
1
  6
PHANTOM
 62
           3
100
AcDbLine
 10
-234.75811963572
 20
-2955.868566714251
 11
-204.75811963572
 21
-2955.868566714251
  0
LINE
  5
C0
100
AcDbEntity
  8
1
  6
PHANTOM
 62
           3
100
AcDbLine
 10
-234.75811963572
 20
-2963.868566714251
 11
-204.75811963572
 21
-2963.868566714251
  0
LINE
  5
BF
100
AcDbEntity
  8
1
  6
DOT_CENTER
 62
           3
100
AcDbLine
 10
-252.585820248617
 20
-2959.868566714251
 11
-199.250389784491
 21
-2959.868566714251
  0
LINE
  5
BE
100
AcDbEntity
  8
1
  6
PHANTOM
 62
           3
100
AcDbLine
 10
-244.75811963572
 20
-2955.868566714251
 11
-239.75811963572
 21
-2955.868566714251
  0
LINE
  5
BD
100
AcDbEntity
  8
1
  6
PHANTOM
 62
           3
100
AcDbLine
 10
-244.75811963572
 20
-2963.868566714251
 11
-239.75811963572
 21
-2963.868566714251
  0
LINE
  5
BC
100
AcDbEntity
  8
1
  6
PHANTOM
 62
           3
100
AcDbLine
 10
-124.25811963572
 20
-3065.868566714251
 11
-124.25811963572
 21
-2974.868566714251
  0
LINE
  5
BB
100
AcDbEntity
  8
1
  6
PHANTOM
 62
           3
100
AcDbLine
 10
-127.25811963572
 20
-3065.868566714251
 11
-127.258119635721
 21
-2974.868566714251
  0
LINE
  5
BA
100
AcDbEntity
  8
1
  6
PHANTOM
 62
           3
100
AcDbLine
 10
-49.25811963572
 20
-2911.368566714251
 11
-49.25811963572
 21
-2814.368566714251
  0
LINE
  5
B9
100
AcDbEntity
  8
1
  6
PHANTOM
 62
           3
100
AcDbLine
 10
-132.877908005253
 20
-2905.408723379831
 11
-129.25811963572
 21
-2905.408723379831
  0
LINE
  5
B8
100
AcDbEntity
  8
1
  6
PHANTOM
 62
           3
100
AcDbLine
 10
-189.25811963572
 20
-2709.368566714251
 11
-159.25811963572
 21
-2709.368566714251
  0
LINE
  5
B7
100
AcDbEntity
  8
1
  6
PHANTOM
 62
           3
100
AcDbLine
 10
-54.25811963572
 20
-2911.368566714251
 11
-54.25811963572
 21
-2814.368566714251
  0
LINE
  5
B6
100
AcDbEntity
  8
1
  6
PHANTOM
 62
           3
100
AcDbLine
 10
-119.25811963572
 20
-2911.368566714251
 11
-119.25811963572
 21
-2910.408723379831
  0
LINE
  5
B5
100
AcDbEntity
  8
1
  6
PHANTOM
 62
           3
100
AcDbLine
 10
-132.877908005253
 20
-2900.408723379831
 11
-129.25811963572
 21
-2900.408723379831
  0
LINE
  5
B4
100
AcDbEntity
  8
1
  6
PHANTOM
 62
           3
100
AcDbLine
 10
-189.25811963572
 20
-2704.368566714251
 11
-159.25811963572
 21
-2704.368566714251
  0
LINE
  5
B3
100
AcDbEntity
  8
1
  6
PHANTOM
 62
           3
100
AcDbLine
 10
-342.010850318107
 20
-2775.340095562379
 11
-328.908756581948
 21
-2790.954562842953
  0
LINE
  5
B2
100
AcDbEntity
  8
1
  6
PHANTOM
 62
           3
100
AcDbLine
 10
-289.1565540296
 20
-2768.321820839527
 11
-294.436756641594
 21
-2762.029120407058
  0
LINE
  5
B1
100
AcDbEntity
  8
1
  6
DOT_CENTER
 62
           3
100
AcDbLine
 10
-189.25811963572
 20
-2817.368566714251
 11
-289.425532040286
 21
-2674.314676348157
  0
LINE
  5
B0
100
AcDbEntity
  8
1
  6
DOT_CENTER
 62
           3
100
AcDbLine
 10
-310.794912613904
 20
-2989.868566714251
 11
104.093420727542
 21
-2989.868566714251
  0
LINE
  5
AF
100
AcDbEntity
  8
1
  6
PHANTOM
 62
           3
100
AcDbLine
 10
-309.76248233136
 20
-2709.618566714251
 11
-256.758132466295
 21
-2665.142636291682
  0
LINE
  5
AE
100
AcDbEntity
  8
1
  6
PHANTOM
 62
           3
100
AcDbLine
 10
-301.75811963572
 20
-2721.177810979183
 11
-256.758132466295
 21
-2683.418338342336
  0
LINE
  5
AD
100
AcDbEntity
  8
1
  6
PHANTOM
 62
           3
100
AcDbLine
 10
-328.908756581948
 20
-2790.954562842953
 11
-279.050557895811
 21
-2749.118566714253
  0
LINE
  5
AC
100
AcDbEntity
  8
1
  6
PHANTOM
 62
           3
100
AcDbLine
 10
-279.050557895811
 20
-2749.118566714253
 11
-276.631529034416
 21
-2747.541271916034
  0
LINE
  5
AB
100
AcDbEntity
  8
1
  6
PHANTOM
 62
           3
100
AcDbLine
 10
-124.25811963572
 20
-2911.368566714251
 11
-46.258119635721
 21
-2911.368566714251
  0
LINE
  5
AA
100
AcDbEntity
  8
1
  6
PHANTOM
 62
           3
100
AcDbLine
 10
-46.258119635721
 20
-2914.368566714251
 11
-46.258119635721
 21
-2911.368566714251
  0
LINE
  5
A9
100
AcDbEntity
  8
1
  6
PHANTOM
 62
           3
100
AcDbLine
 10
-66.758119635721
 20
-2895.368566714251
 11
-54.25811963572
 21
-2911.368566714251
  0
LINE
  5
A8
100
AcDbEntity
  8
1
  6
PHANTOM
 62
           3
100
AcDbLine
 10
-106.758119635721
 20
-2895.368566714251
 11
-119.25811963572
 21
-2911.368566714251
  0
LINE
  5
A7
100
AcDbEntity
  8
1
  6
PHANTOM
 62
           3
100
AcDbLine
 10
-106.758119635721
 20
-2895.368566714251
 11
-66.758119635721
 21
-2895.368566714251
  0
LINE
  5
A6
100
AcDbEntity
  8
1
  6
PHANTOM
 62
           3
100
AcDbLine
 10
-210.75811963572
 20
-2974.868566714251
 11
-15.758119635719
 21
-2974.868566714253
  0
LINE
  5
A5
100
AcDbEntity
  8
1
  6
PHANTOM
 62
           3
100
AcDbLine
 10
-190.258119635719
 20
-3004.868566714251
 11
-190.258119635719
 21
-2974.868566714251
  0
LINE
  5
A4
100
AcDbEntity
  8
1
  6
PHANTOM
 62
           3
100
AcDbLine
 10
-202.75811963572
 20
-3004.868566714251
 11
-190.258119635719
 21
-3004.868566714251
  0
LINE
  5
A3
100
AcDbEntity
  8
1
  6
CONTINUOUS
 62
           3
100
AcDbLine
 10
-4146.549860468995
 20
-1762.068566714253
 11
-4146.549860468995
 21
-1662.068566714253
  0
LINE
  5
A2
100
AcDbEntity
  8
1
  6
CONTINUOUS
 62
           3
100
AcDbLine
 10
-4338.549860468995
 20
-1862.068566714253
 11
-4338.549860468995
 21
-1662.068566714253
  0
LINE
  5
A1
100
AcDbEntity
  8
1
  6
CONTINUOUS
 62
           3
100
AcDbLine
 10
-4394.549860468995
 20
-1862.068566714253
 11
-4394.549860468995
 21
-1762.068566714253
  0
LINE
  5
A0
100
AcDbEntity
  8
1
  6
CONTINUOUS
 62
           3
100
AcDbLine
 10
-4394.549860468995
 20
-1762.068566714253
 11
-4146.549860468995
 21
-1762.068566714253
  0
LINE
  5
9F
100
AcDbEntity
  8
1
  6
CONTINUOUS
 62
           3
100
AcDbLine
 10
-4394.549860468995
 20
-1862.068566714253
 11
-4322.549860468995
 21
-1862.068566714253
  0
LINE
  5
9E
100
AcDbEntity
  8
1
  6
CONTINUOUS
 62
           3
100
AcDbLine
 10
-4338.549860468995
 20
-1662.068566714253
 11
-4146.549860468995
 21
-1662.068566714253
  0
LINE
  5
9D
100
AcDbEntity
  8
1
  6
CONTINUOUS
 62
           3
100
AcDbLine
 10
-2434.549860468994
 20
-1662.068566714253
 11
-2434.549860468994
 21
-1762.068566714253
  0
LINE
  5
9C
100
AcDbEntity
  8
1
  6
CONTINUOUS
 62
           3
100
AcDbLine
 10
-2276.549860468994
 20
-1662.068566714253
 11
-2276.549860468994
 21
-1862.068566714253
  0
LINE
  5
9B
100
AcDbEntity
  8
1
  6
CONTINUOUS
 62
           3
100
AcDbLine
 10
-2220.549860468994
 20
-1762.068566714253
 11
-2220.549860468994
 21
-1862.068566714253
  0
LINE
  5
9A
100
AcDbEntity
  8
1
  6
CONTINUOUS
 62
           3
100
AcDbLine
 10
-2434.549860468994
 20
-1762.068566714253
 11
-2220.549860468994
 21
-1762.068566714253
  0
LINE
  5
99
100
AcDbEntity
  8
1
  6
CONTINUOUS
 62
           3
100
AcDbLine
 10
-2292.549860468994
 20
-1862.068566714253
 11
-2220.549860468994
 21
-1862.068566714253
  0
LINE
  5
98
100
AcDbEntity
  8
1
  6
CONTINUOUS
 62
           3
100
AcDbLine
 10
-2434.549860468994
 20
-1662.068566714253
 11
-2276.549860468994
 21
-1662.068566714253
  0
LINE
  5
97
100
AcDbEntity
  8
1
  6
CONTINUOUS
 62
           3
100
AcDbLine
 10
-2918.302563047386
 20
-2404.068566714253
 11
-2918.302563047386
 21
-2414.068566714253
  0
LINE
  5
96
100
AcDbEntity
  8
1
  6
CONTINUOUS
 62
           3
100
AcDbLine
 10
-3089.407363481687
 20
-2419.068566714253
 11
-2923.302563047386
 21
-2419.068566714253
  0
LINE
  5
95
100
AcDbEntity
  8
1
  6
CONTINUOUS
 62
           3
100
AcDbLine
 10
-3089.407363481687
 20
-2399.068566714253
 11
-2923.302563047386
 21
-2399.068566714253
  0
LINE
  5
94
100
AcDbEntity
  8
1
  6
CONTINUOUS
 62
           3
100
AcDbLine
 10
-3162.549860468994
 20
-2419.068566714253
 11
-3114.776214019267
 21
-2419.068566714253
  0
LINE
  5
93
100
AcDbEntity
  8
1
  6
CONTINUOUS
 62
           3
100
AcDbLine
 10
-3162.549860468994
 20
-2399.068566714253
 11
-3116.395502351447
 21
-2399.068566714253
  0
LINE
  5
92
100
AcDbEntity
  8
1
  6
CONTINUOUS
 62
           3
100
AcDbLine
 10
-3172.549860468994
 20
-2424.068566714253
 11
-3162.549860468994
 21
-2419.068566714253
  0
LINE
  5
91
100
AcDbEntity
  8
1
  6
CONTINUOUS
 62
           3
100
AcDbLine
 10
-3172.549860468994
 20
-2394.068566714253
 11
-3162.549860468994
 21
-2399.068566714253
  0
LINE
  5
90
100
AcDbEntity
  8
1
  6
CONTINUOUS
 62
           3
100
AcDbLine
 10
-3237.549860468994
 20
-2424.068566714253
 11
-3172.549860468994
 21
-2424.068566714253
  0
LINE
  5
8F
100
AcDbEntity
  8
1
  6
CONTINUOUS
 62
           3
100
AcDbLine
 10
-3237.549860468994
 20
-2394.068566714253
 11
-3172.549860468994
 21
-2394.068566714253
  0
LINE
  5
8E
100
AcDbEntity
  8
1
  6
CONTINUOUS
 62
           3
100
AcDbLine
 10
-3112.549860468994
 20
-2429.068566714253
 11
-3112.549860468994
 21
-2369.068566714253
  0
LINE
  5
8D
100
AcDbEntity
  8
1
  6
CONTINUOUS
 62
           3
100
AcDbLine
 10
-3092.549860468994
 20
-2429.068566714253
 11
-3112.549860468994
 21
-2429.068566714253
  0
LINE
  5
8C
100
AcDbEntity
  8
1
  6
CONTINUOUS
 62
           3
100
AcDbLine
 10
-3092.549860468994
 20
-2369.068566714253
 11
-3092.549860468994
 21
-2429.068566714253
  0
LINE
  5
8B
100
AcDbEntity
  8
1
  6
CONTINUOUS
 62
           3
100
AcDbLine
 10
-3112.549860468994
 20
-2369.068566714253
 11
-3092.549860468994
 21
-2369.068566714253
  0
LINE
  5
8A
100
AcDbEntity
  8
1
  6
CONTINUOUS
 62
           3
100
AcDbLine
 10
-3237.549860468994
 20
-1669.068566714253
 11
-3237.549860468995
 21
-3332.068566714253
  0
LINE
  5
89
100
AcDbEntity
  8
1
  6
CONTINUOUS
 62
           3
100
AcDbLine
 10
-3267.549860468994
 20
-1619.068566714253
 11
-3267.549860468994
 21
-1536.568566714253
  0
LINE
  5
88
100
AcDbEntity
  8
1
  6
CONTINUOUS
 62
           3
100
AcDbLine
 10
-3267.549860468995
 20
-3332.068566714253
 11
-3267.549860468994
 21
-1669.068566714253
  0
LINE
  5
87
100
AcDbEntity
  8
1
  6
CONTINUOUS
 62
           3
100
AcDbLine
 10
-3267.549860468994
 20
-3382.068566714253
 11
-3267.549860468994
 21
-3411.568566714253
  0
LINE
  5
86
100
AcDbEntity
  8
1
  6
CONTINUOUS
 62
           3
100
AcDbLine
 10
-3237.549860468994
 20
-3382.068566714253
 11
-3237.549860468994
 21
-3411.568566714253
  0
LINE
  5
85
100
AcDbEntity
  8
1
  6
CONTINUOUS
 62
           3
100
AcDbLine
 10
-3237.549860468994
 20
-1536.568566714253
 11
-3237.549860468994
 21
-1619.068566714253
  0
LINE
  5
84
100
AcDbEntity
  8
1
  6
CONTINUOUS
 62
           3
100
AcDbLine
 10
-3232.790521716396
 20
-1513.677972492934
 11
-3232.790521716396
 21
-1536.568566714253
  0
LINE
  5
83
100
AcDbEntity
  8
1
  6
CONTINUOUS
 62
           3
100
AcDbLine
 10
-3277.549860468994
 20
-1536.568566714253
 11
-3232.790521716396
 21
-1536.568566714253
  0
LINE
  5
82
100
AcDbEntity
  8
1
  6
CONTINUOUS
 62
           3
100
AcDbLine
 10
-3277.549860468994
 20
-1513.677972492934
 11
-3232.790521716396
 21
-1513.677972492934
  0
LINE
  5
81
100
AcDbEntity
  8
1
  6
CONTINUOUS
 62
           3
100
AcDbLine
 10
-3231.461770127826
 20
-3411.568566714253
 11
-3231.461770127826
 21
-3432.687909101765
  0
LINE
  5
80
100
AcDbEntity
  8
1
  6
CONTINUOUS
 62
           3
100
AcDbLine
 10
-3276.795544432513
 20
-3432.687909101765
 11
-3231.461770127826
 21
-3432.687909101765
  0
LINE
  5
7F
100
AcDbEntity
  8
1
  6
CONTINUOUS
 62
           3
100
AcDbLine
 10
-3276.795544432513
 20
-3411.568566714253
 11
-3231.461770127826
 21
-3411.568566714253
  0
LINE
  5
7E
100
AcDbEntity
  8
1
  6
CONTINUOUS
 62
           2
100
AcDbLine
 10
-3234.90099340029
 20
-3404.068566714253
 11
-2292.549860468994
 21
-3404.068566714253
  0
LINE
  5
7D
100
AcDbEntity
  8
1
  6
CONTINUOUS
 62
           2
100
AcDbLine
 10
-3232.979224600736
 20
-1549.068566714253
 11
-2292.549860468994
 21
-1549.068566714253
  0
LINE
  5
7C
100
AcDbEntity
  8
1
  6
CONTINUOUS
 62
           3
100
AcDbLine
 10
-3277.549860468994
 20
-1619.068566714253
 11
-3277.549860468994
 21
-1629.068566714253
  0
LINE
  5
7B
100
AcDbEntity
  8
1
  6
CONTINUOUS
 62
           3
100
AcDbLine
 10
-3227.549860468994
 20
-1619.068566714253
 11
-3227.549860468994
 21
-1629.068566714253
  0
LINE
  5
7A
100
AcDbEntity
  8
1
  6
CONTINUOUS
 62
           3
100
AcDbLine
 10
-3277.549860468994
 20
-1619.068566714253
 11
-3227.549860468994
 21
-1619.068566714253
  0
LINE
  5
79
100
AcDbEntity
  8
1
  6
CONTINUOUS
 62
           3
100
AcDbLine
 10
-3277.549860468994
 20
-3372.068566714253
 11
-3277.549860468994
 21
-3382.068566714253
  0
LINE
  5
78
100
AcDbEntity
  8
1
  6
CONTINUOUS
 62
           3
100
AcDbLine
 10
-3227.549860468994
 20
-3372.068566714253
 11
-3227.549860468994
 21
-3382.068566714253
  0
LINE
  5
77
100
AcDbEntity
  8
1
  6
CONTINUOUS
 62
           3
100
AcDbLine
 10
-3277.549860468994
 20
-3382.068566714253
 11
-3227.549860468994
 21
-3382.068566714253
  0
LINE
  5
76
100
AcDbEntity
  8
1
  6
CONTINUOUS
 62
           3
100
AcDbLine
 10
-3292.549860468994
 20
-1629.068566714253
 11
-3292.549860468994
 21
-1669.068566714253
  0
LINE
  5
75
100
AcDbEntity
  8
1
  6
CONTINUOUS
 62
           3
100
AcDbLine
 10
-3212.549860468994
 20
-1629.068566714253
 11
-3212.549860468994
 21
-1669.068566714253
  0
LINE
  5
74
100
AcDbEntity
  8
1
  6
CONTINUOUS
 62
           3
100
AcDbLine
 10
-3292.549860468994
 20
-1669.068566714253
 11
-3212.549860468994
 21
-1669.068566714253
  0
LINE
  5
73
100
AcDbEntity
  8
1
  6
CONTINUOUS
 62
           3
100
AcDbLine
 10
-3292.549860468994
 20
-1629.068566714253
 11
-3212.549860468994
 21
-1629.068566714253
  0
LINE
  5
72
100
AcDbEntity
  8
1
  6
CONTINUOUS
 62
           3
100
AcDbLine
 10
-3292.549860468994
 20
-2489.068566714253
 11
-3292.549860468994
 21
-2529.068566714253
  0
LINE
  5
71
100
AcDbEntity
  8
1
  6
CONTINUOUS
 62
           3
100
AcDbLine
 10
-3212.549860468994
 20
-2489.068566714253
 11
-3212.549860468994
 21
-2529.068566714253
  0
LINE
  5
70
100
AcDbEntity
  8
1
  6
CONTINUOUS
 62
           3
100
AcDbLine
 10
-3292.549860468994
 20
-2529.068566714253
 11
-3212.549860468994
 21
-2529.068566714253
  0
LINE
  5
6F
100
AcDbEntity
  8
1
  6
CONTINUOUS
 62
           3
100
AcDbLine
 10
-3292.549860468994
 20
-2489.068566714253
 11
-3212.549860468994
 21
-2489.068566714253
  0
LINE
  5
6E
100
AcDbEntity
  8
1
  6
CONTINUOUS
 62
           3
100
AcDbLine
 10
-3292.549860468994
 20
-3332.068566714253
 11
-3292.549860468994
 21
-3372.068566714253
  0
LINE
  5
6D
100
AcDbEntity
  8
1
  6
CONTINUOUS
 62
           3
100
AcDbLine
 10
-3212.549860468994
 20
-3332.068566714253
 11
-3212.549860468994
 21
-3372.068566714253
  0
LINE
  5
6C
100
AcDbEntity
  8
1
  6
CONTINUOUS
 62
           3
100
AcDbLine
 10
-3292.549860468994
 20
-3372.068566714253
 11
-3212.549860468994
 21
-3372.068566714253
  0
LINE
  5
6B
100
AcDbEntity
  8
1
  6
CONTINUOUS
 62
           3
100
AcDbLine
 10
-3292.549860468994
 20
-3332.068566714253
 11
-3212.549860468994
 21
-3332.068566714253
  0
LINE
  5
6A
100
AcDbEntity
  8
1
  6
CONTINUOUS
 62
           2
100
AcDbLine
 10
-3307.549860468994
 20
-3404.068566714253
 11
-3307.549860468994
 21
-1549.068566714253
  0
LINE
  5
69
100
AcDbEntity
  8
1
  6
CONTINUOUS
 62
           3
100
AcDbLine
 10
-3308.998727909496
 20
-3405.097256497321
 11
-3308.998727909496
 21
-3437.097256497321
  0
LINE
  5
68
100
AcDbEntity
  8
1
  6
CONTINUOUS
 62
           3
100
AcDbLine
 10
-3386.795544432514
 20
-3405.097256497321
 11
-3386.795544432514
 21
-3437.097256497321
  0
LINE
  5
67
100
AcDbEntity
  8
1
  6
CONTINUOUS
 62
           3
100
AcDbLine
 10
-3386.795544432514
 20
-3437.097256497321
 11
-3276.795544432513
 21
-3437.097256497321
  0
LINE
  5
66
100
AcDbEntity
  8
1
  6
CONTINUOUS
 62
           3
100
AcDbLine
 10
-3386.795544432514
 20
-3405.097256497321
 11
-3276.795544432513
 21
-3405.097256497321
  0
LINE
  5
65
100
AcDbEntity
  8
1
  6
CONTINUOUS
 62
           3
100
AcDbLine
 10
-3309.753043945976
 20
-1508.645707447483
 11
-3309.753043945976
 21
-1540.645707447483
  0
LINE
  5
64
100
AcDbEntity
  8
1
  6
CONTINUOUS
 62
           3
100
AcDbLine
 10
-3387.549860468994
 20
-1508.645707447483
 11
-3387.549860468994
 21
-1540.645707447483
  0
LINE
  5
63
100
AcDbEntity
  8
1
  6
CONTINUOUS
 62
           3
100
AcDbLine
 10
-3277.549860468994
 20
-1508.645707447483
 11
-3277.549860468994
 21
-1540.645707447483
  0
LINE
  5
62
100
AcDbEntity
  8
1
  6
CONTINUOUS
 62
           3
100
AcDbLine
 10
-3387.549860468994
 20
-1540.645707447483
 11
-3277.549860468994
 21
-1540.645707447483
  0
LINE
  5
61
100
AcDbEntity
  8
1
  6
CONTINUOUS
 62
           3
100
AcDbLine
 10
-3387.549860468994
 20
-1508.645707447483
 11
-3277.549860468994
 21
-1508.645707447483
  0
LINE
  5
60
100
AcDbEntity
  8
1
  6
CONTINUOUS
 62
           3
100
AcDbLine
 10
-3182.549860468994
 20
-2399.700560207304
 11
-3182.549860468994
 21
-2419.012746976204
  0
LINE
  5
5F
100
AcDbEntity
  8
1
  6
CONTINUOUS
 62
           3
100
AcDbLine
 10
-3397.549860468994
 20
-2519.068566714253
 11
-3397.549860468994
 21
-2539.068566714253
  0
LINE
  5
5E
100
AcDbEntity
  8
1
  6
CONTINUOUS
 62
           3
100
AcDbLine
 10
-3367.549860468994
 20
-2519.068566714253
 11
-3367.549860468994
 21
-2539.068566714253
  0
LINE
  5
5D
100
AcDbEntity
  8
1
  6
CONTINUOUS
 62
           3
100
AcDbLine
 10
-3397.549860468994
 20
-2539.068566714253
 11
-3367.549860468994
 21
-2539.068566714253
  0
LINE
  5
5C
100
AcDbEntity
  8
1
  6
CONTINUOUS
 62
           3
100
AcDbLine
 10
-3390.549860468994
 20
-2509.068566714253
 11
-3397.549860468994
 21
-2519.068566714253
  0
LINE
  5
5B
100
AcDbEntity
  8
1
  6
CONTINUOUS
 62
           3
100
AcDbLine
 10
-3374.549860468994
 20
-2509.068566714253
 11
-3367.549860468994
 21
-2519.068566714253
  0
LINE
  5
5A
100
AcDbEntity
  8
1
  6
CONTINUOUS
 62
           3
100
AcDbLine
 10
-3397.549860468994
 20
-2299.068566714253
 11
-3390.549860468994
 21
-2309.068566714253
  0
LINE
  5
59
100
AcDbEntity
  8
1
  6
CONTINUOUS
 62
           3
100
AcDbLine
 10
-3367.549860468994
 20
-2299.068566714253
 11
-3374.549860468994
 21
-2309.068566714253
  0
LINE
  5
58
100
AcDbEntity
  8
1
  6
CONTINUOUS
 62
           3
100
AcDbLine
 10
-3397.549860468994
 20
-2279.068566714253
 11
-3397.549860468994
 21
-2299.068566714253
  0
LINE
  5
57
100
AcDbEntity
  8
1
  6
CONTINUOUS
 62
           3
100
AcDbLine
 10
-3367.549860468994
 20
-2279.068566714253
 11
-3367.549860468994
 21
-2299.068566714253
  0
LINE
  5
56
100
AcDbEntity
  8
1
  6
CONTINUOUS
 62
           3
100
AcDbLine
 10
-3397.549860468994
 20
-2279.068566714253
 11
-3367.549860468994
 21
-2279.068566714253
  0
LINE
  5
55
100
AcDbEntity
  8
1
  6
DOT_CENTER
 62
           3
100
AcDbLine
 10
-3382.549860468994
 20
-2273.001432784964
 11
-3382.549860468994
 21
-2547.650427230155
  0
LINE
  5
54
100
AcDbEntity
  8
1
  6
DOT_CENTER
 62
           3
100
AcDbLine
 10
-3248.634201329566
 20
-2409.068566714253
 11
-2915.207244358777
 21
-2409.068566714253
  0
LINE
  5
53
100
AcDbEntity
  8
1
  6
DOT_CENTER
 62
           3
100
AcDbLine
 10
-3408.359148453707
 20
-2409.068566714253
 11
-3358.688585628517
 21
-2409.068566714253
  0
LINE
  5
52
100
AcDbEntity
  8
1
  6
CONTINUOUS
 62
           3
100
AcDbLine
 10
-3390.549860468994
 20
-2529.068566714253
 11
-3374.549860468994
 21
-2529.068566714253
  0
LINE
  5
51
100
AcDbEntity
  8
1
  6
CONTINUOUS
 62
           3
100
AcDbLine
 10
-3390.549860468994
 20
-2289.068566714253
 11
-3374.549860468994
 21
-2289.068566714253
  0
LINE
  5
50
100
AcDbEntity
  8
1
  6
CONTINUOUS
 62
           3
100
AcDbLine
 10
-3390.549860468994
 20
-2289.068566714253
 11
-3390.549860468994
 21
-2529.068566714253
  0
LINE
  5
4F
100
AcDbEntity
  8
1
  6
CONTINUOUS
 62
           3
100
AcDbLine
 10
-3374.549860468994
 20
-2289.068566714253
 11
-3374.549860468994
 21
-2529.068566714253
  0
LINE
  5
4E
100
AcDbEntity
  8
1
  6
CONTINUOUS
 62
           2
100
AcDbLine
 10
-4322.549860468995
 20
-3404.068566714253
 11
-3269.10540491487
 21
-3404.068566714253
  0
LINE
  5
4D
100
AcDbEntity
  8
1
  6
CONTINUOUS
 62
           2
100
AcDbLine
 10
-4322.549860468995
 20
-1549.068566714253
 11
-3275.409597894087
 21
-1549.068566714253
  0
LINE
  5
4C
100
AcDbEntity
  8
1
  6
CONTINUOUS
 62
           2
100
AcDbLine
 10
-4322.549860468995
 20
-1549.068566714253
 11
-4322.549860468995
 21
-3491.068566714253
  0
LINE
  5
4B
100
AcDbEntity
  8
1
  6
CONTINUOUS
 62
           3
100
AcDbLine
 10
-4146.549860468995
 20
-2512.068566714253
 11
-4146.549860468995
 21
-2412.068566714253
  0
LINE
  5
4A
100
AcDbEntity
  8
1
  6
CONTINUOUS
 62
           3
100
AcDbLine
 10
-4338.549860468995
 20
-2612.068566714253
 11
-4338.549860468995
 21
-2412.068566714253
  0
LINE
  5
49
100
AcDbEntity
  8
1
  6
CONTINUOUS
 62
           3
100
AcDbLine
 10
-4394.549860468995
 20
-2612.068566714253
 11
-4394.549860468995
 21
-2512.068566714253
  0
LINE
  5
48
100
AcDbEntity
  8
1
  6
CONTINUOUS
 62
           3
100
AcDbLine
 10
-4394.549860468995
 20
-2512.068566714253
 11
-4146.549860468995
 21
-2512.068566714253
  0
LINE
  5
47
100
AcDbEntity
  8
1
  6
CONTINUOUS
 62
           3
100
AcDbLine
 10
-4394.549860468995
 20
-2612.068566714253
 11
-4322.549860468995
 21
-2612.068566714253
  0
LINE
  5
46
100
AcDbEntity
  8
1
  6
CONTINUOUS
 62
           3
100
AcDbLine
 10
-4338.549860468995
 20
-2412.068566714253
 11
-4146.549860468995
 21
-2412.068566714253
  0
LINE
  5
45
100
AcDbEntity
  8
1
  6
CONTINUOUS
 62
           3
100
AcDbLine
 10
-4146.549860468995
 20
-3262.068566714253
 11
-4146.549860468995
 21
-3162.068566714253
  0
LINE
  5
44
100
AcDbEntity
  8
1
  6
CONTINUOUS
 62
           3
100
AcDbLine
 10
-4338.549860468995
 20
-3362.068566714253
 11
-4338.549860468995
 21
-3162.068566714253
  0
LINE
  5
43
100
AcDbEntity
  8
1
  6
CONTINUOUS
 62
           3
100
AcDbLine
 10
-4394.549860468995
 20
-3362.068566714253
 11
-4394.549860468995
 21
-3262.068566714253
  0
LINE
  5
42
100
AcDbEntity
  8
1
  6
CONTINUOUS
 62
           3
100
AcDbLine
 10
-4394.549860468995
 20
-3262.068566714253
 11
-4146.549860468995
 21
-3262.068566714253
  0
LINE
  5
41
100
AcDbEntity
  8
1
  6
CONTINUOUS
 62
           3
100
AcDbLine
 10
-4394.549860468995
 20
-3362.068566714253
 11
-4322.549860468995
 21
-3362.068566714253
  0
LINE
  5
40
100
AcDbEntity
  8
1
  6
CONTINUOUS
 62
           3
100
AcDbLine
 10
-4338.549860468995
 20
-3162.068566714253
 11
-4146.549860468995
 21
-3162.068566714253
  0
LINE
  5
3F
100
AcDbEntity
  8
1
  6
CONTINUOUS
 62
           3
100
AcDbLine
 10
-2434.549860468994
 20
-2412.068566714253
 11
-2434.549860468994
 21
-2512.068566714253
  0
LINE
  5
3E
100
AcDbEntity
  8
1
  6
CONTINUOUS
 62
           3
100
AcDbLine
 10
-2276.549860468994
 20
-2412.068566714253
 11
-2276.549860468994
 21
-2612.068566714253
  0
LINE
  5
3D
100
AcDbEntity
  8
1
  6
CONTINUOUS
 62
           3
100
AcDbLine
 10
-2220.549860468994
 20
-2512.068566714253
 11
-2220.549860468994
 21
-2612.068566714253
  0
LINE
  5
3C
100
AcDbEntity
  8
1
  6
CONTINUOUS
 62
           3
100
AcDbLine
 10
-2434.549860468994
 20
-2512.068566714253
 11
-2220.549860468994
 21
-2512.068566714253
  0
LINE
  5
3B
100
AcDbEntity
  8
1
  6
CONTINUOUS
 62
           3
100
AcDbLine
 10
-2292.549860468994
 20
-2612.068566714253
 11
-2220.549860468994
 21
-2612.068566714253
  0
LINE
  5
3A
100
AcDbEntity
  8
1
  6
CONTINUOUS
 62
           3
100
AcDbLine
 10
-2434.549860468994
 20
-2412.068566714253
 11
-2276.549860468994
 21
-2412.068566714253
  0
LINE
  5
39
100
AcDbEntity
  8
1
  6
CONTINUOUS
 62
           3
100
AcDbLine
 10
-2434.549860468994
 20
-3162.068566714253
 11
-2434.549860468994
 21
-3262.068566714253
  0
LINE
  5
38
100
AcDbEntity
  8
1
  6
CONTINUOUS
 62
           3
100
AcDbLine
 10
-2276.549860468994
 20
-3162.068566714253
 11
-2276.549860468994
 21
-3362.068566714253
  0
LINE
  5
37
100
AcDbEntity
  8
1
  6
CONTINUOUS
 62
           3
100
AcDbLine
 10
-2220.549860468994
 20
-3262.068566714253
 11
-2220.549860468994
 21
-3362.068566714253
  0
LINE
  5
36
100
AcDbEntity
  8
1
  6
CONTINUOUS
 62
           3
100
AcDbLine
 10
-2434.549860468994
 20
-3262.068566714253
 11
-2220.549860468994
 21
-3262.068566714253
  0
LINE
  5
35
100
AcDbEntity
  8
1
  6
CONTINUOUS
 62
           3
100
AcDbLine
 10
-2292.549860468994
 20
-3362.068566714253
 11
-2220.549860468994
 21
-3362.068566714253
  0
LINE
  5
34
100
AcDbEntity
  8
1
  6
CONTINUOUS
 62
           3
100
AcDbLine
 10
-2434.549860468994
 20
-3162.068566714253
 11
-2276.549860468994
 21
-3162.068566714253
  0
LINE
  5
33
100
AcDbEntity
  8
1
  6
CONTINUOUS
 62
           2
100
AcDbLine
 10
-1632.549860468994
 20
-3491.068566714253
 11
-1632.549860468994
 21
-2441.068566714253
  0
LINE
  5
32
100
AcDbEntity
  8
1
  6
CONTINUOUS
 62
           3
100
AcDbLine
 10
-1831.549860468994
 20
-1841.068566714253
 11
-1831.549860468994
 21
-1787.868566714254
  0
LINE
  5
31
100
AcDbEntity
  8
1
  6
CONTINUOUS
 62
           3
100
AcDbLine
 10
-1732.549860468994
 20
-1841.068566714254
 11
-1732.549860468994
 21
-1787.868566714254
  0
LINE
  5
30
100
AcDbEntity
  8
1
  6
CONTINUOUS
 62
           2
100
AcDbLine
 10
-1656.249860468994
 20
-1841.068566714254
 11
-1656.249860468994
 21
-1792.068566714254
  0
LINE
  5
2F
100
AcDbEntity
  8
1
  6
CONTINUOUS
 62
           2
100
AcDbLine
 10
-2207.549860468994
 20
-2039.068566714253
 11
-2032.549860468994
 21
-2039.068566714253
  0
LINE
  5
2E
100
AcDbEntity
  8
1
  6
CONTINUOUS
 62
           2
100
AcDbLine
 10
39.741880364279
 20
-2039.068566714253
 11
-10.258119635721
 21
-2039.068566714254
  0
LINE
  5
2D
100
AcDbEntity
  8
1
  6
CONTINUOUS
 62
           3
100
AcDbLine
 10
-2292.549860468994
 20
-3162.068566714253
 11
-2292.549860468994
 21
-3362.068566714253
  0
LINE
  5
2C
100
AcDbEntity
  8
1
  6
CONTINUOUS
 62
           3
100
AcDbLine
 10
-2292.549860468994
 20
-2412.068566714253
 11
-2292.549860468994
 21
-2612.068566714253
  0
LINE
  5
2B
100
AcDbEntity
  8
1
  6
CONTINUOUS
 62
           3
100
AcDbLine
 10
-2292.549860468994
 20
-1662.068566714253
 11
-2292.549860468994
 21
-1862.068566714253
  0
LINE
  5
2A
100
AcDbEntity
  8
1
  6
CONTINUOUS
 62
           3
100
AcDbLine
 10
-4322.549860468995
 20
-3362.068566714253
 11
-4322.549860468995
 21
-3162.068566714253
  0
LINE
  5
29
100
AcDbEntity
  8
1
  6
CONTINUOUS
 62
           3
100
AcDbLine
 10
-4322.549860468995
 20
-2612.068566714253
 11
-4322.549860468995
 21
-2412.068566714253
  0
LINE
  5
28
100
AcDbEntity
  8
1
  6
CONTINUOUS
 62
           3
100
AcDbLine
 10
-4322.549860468995
 20
-1862.068566714253
 11
-4322.549860468995
 21
-1662.068566714253
  0
ENDSEC
  0
SECTION
  2
OBJECTS
  0
DICTIONARY
  5
19
100
AcDbDictionary
  3
ACAD_GROUP
350
1A
  3
ACAD_MLINESTYLE
350
1B
  0
DICTIONARY
  5
1A
102
{ACAD_REACTORS
330
19
102
}
100
AcDbDictionary
  0
DICTIONARY
  5
1B
102
{ACAD_REACTORS
330
19
102
}
100
AcDbDictionary
  3
STANDARD
350
1C
  0
MLINESTYLE
  5
1C
102
{ACAD_REACTORS
330
1B
102
}
100
AcDbMlineStyle
  2
STANDARD
 70
           0
  3

 62
           0
 51
90.0
 52
90.0
 71
           2
 49
0.5
 62
         256
  6
BYLAYER
 49
-0.5
 62
         256
  6
BYLAYER
  0
ENDSEC
  0
EOF
