  0
SECTION
  2
HEADER
  9
$ACADVER
  1
AC1014
  9
$ACADMAINTVER
 70
           0
  9
$DWGCODEPAGE
  3
DOS932
  9
$INSBASE
 10
0.0
 20
0.0
 30
0.0
  9
$EXTMIN
 10
1.000000000000E+20
 20
1.000000000000E+20
 30
1.000000000000E+20
  9
$EXTMAX
 10
-1.000000000000E+20
 20
-1.000000000000E+20
 30
-1.000000000000E+20
  9
$LIMMIN
 10
0.0
 20
0.0
  9
$LIMMAX
 10
0.0
 20
0.0
  9
$ORTHOMODE
 70
           0
  9
$REGENMODE
 70
           1
  9
$FILLMODE
 70
           1
  9
$QTEXTMODE
 70
           0
  9
$MIRRTEXT
 70
           1
  9
$DRAGMODE
 70
           2
  9
$LTSCALE
 40
1.0
  9
$OSMODE
 70
           0
  9
$ATTMODE
 70
           1
  9
$TEXTSIZE
 40
0.2
  9
$TRACEWID
 40
0.05
  9
$TEXTSTYLE
  7
STANDARD
  9
$CLAYER
  8
0
  9
$CELTYPE
  6
CONTINUOUS
  9
$CECOLOR
 62
         256
  9
$CELTSCALE
 40
1.0
  9
$DELOBJ
 70
           1
  9
$DISPSILH
 70
           0
  9
$DIMSCALE
 40
1.0
  9
$DIMASZ
 40
0.18
  9
$DIMEXO
 40
0.0625
  9
$DIMDLI
 40
0.38
  9
$DIMRND
 40
0.0
  9
$DIMDLE
 40
0.0
  9
$DIMEXE
 40
0.18
  9
$DIMTP
 40
0.0
  9
$DIMTM
 40
0.0
  9
$DIMTXT
 40
0.18
  9
$DIMCEN
 40
0.09
  9
$DIMTSZ
 40
0.0
  9
$DIMTOL
 70
           0
  9
$DIMLIM
 70
           0
  9
$DIMTIH
 70
           1
  9
$DIMTOH
 70
           1
  9
$DIMSE1
 70
           0
  9
$DIMSE2
 70
           0
  9
$DIMTAD
 70
           0
  9
$DIMZIN
 70
           0
  9
$DIMBLK
  1

  9
$DIMASO
 70
           1
  9
$DIMSHO
 70
           1
  9
$DIMPOST
  1

  9
$DIMAPOST
  1

  9
$DIMALT
 70
           0
  9
$DIMALTD
 70
           2
  9
$DIMALTF
 40
25.4
  9
$DIMLFAC
 40
1.0
  9
$DIMTOFL
 70
           0
  9
$DIMTVP
 40
0.0
  9
$DIMTIX
 70
           0
  9
$DIMSOXD
 70
           0
  9
$DIMSAH
 70
           0
  9
$DIMBLK1
  1

  9
$DIMBLK2
  1

  9
$DIMSTYLE
  2
STANDARD
  9
$DIMCLRD
 70
           0
  9
$DIMCLRE
 70
           0
  9
$DIMCLRT
 70
           0
  9
$DIMTFAC
 40
1.0
  9
$DIMGAP
 40
0.09
  9
$DIMJUST
 70
           0
  9
$DIMSD1
 70
           0
  9
$DIMSD2
 70
           0
  9
$DIMTOLJ
 70
           1
  9
$DIMTZIN
 70
           0
  9
$DIMALTZ
 70
           0
  9
$DIMALTTZ
 70
           0
  9
$DIMFIT
 70
           3
  9
$DIMUPT
 70
           0
  9
$DIMUNIT
 70
           2
  9
$DIMDEC
 70
           4
  9
$DIMTDEC
 70
           4
  9
$DIMALTU
 70
           2
  9
$DIMALTTD
 70
           2
  9
$DIMTXSTY
  7
STANDARD
  9
$DIMAUNIT
 70
           0
  9
$LUNITS
 70
           2
  9
$LUPREC
 70
           4
  9
$SKETCHINC
 40
0.1
  9
$FILLETRAD
 40
0.0
  9
$AUNITS
 70
           0
  9
$AUPREC
 70
           0
  9
$MENU
  1
acad
  9
$ELEVATION
 40
0.0
  9
$PELEVATION
 40
0.0
  9
$THICKNESS
 40
0.0
  9
$LIMCHECK
 70
           0
  9
$BLIPMODE
 70
           1
  9
$CHAMFERA
 40
0.0
  9
$CHAMFERB
 40
0.0
  9
$CHAMFERC
 40
0.0
  9
$CHAMFERD
 40
0.0
  9
$SKPOLY
 70
           0
  9
$TDCREATE
 40
0.000000000
  9
$TDUPDATE
 40
0.000000000
  9
$TDINDWG
 40
0.0000000000
  9
$TDUSRTIMER
 40
0.0000000000
  9
$USRTIMER
 70
           1
  9
$ANGBASE
 50
0.0
  9
$ANGDIR
 70
           0
  9
$PDMODE
 70
           0
  9
$PDSIZE
 40
0.0
  9
$PLINEWID
 40
0.0
  9
$COORDS
 70
           0
  9
$SPLFRAME
 70
           0
  9
$SPLINETYPE
 70
           6
  9
$SPLINESEGS
 70
           8
  9
$ATTDIA
 70
           0
  9
$ATTREQ
 70
           1
  9
$HANDLING
 70
           1
  9
$HANDSEED
  5
518
  9
$SURFTAB1
 70
           6
  9
$SURFTAB2
 70
           6
  9
$SURFTYPE
 70
           6
  9
$SURFU
 70
           6
  9
$SURFV
 70
           6
  9
$UCSNAME
  2

  9
$UCSORG
 10
0.0
 20
0.0
 30
0.0
  9
$UCSXDIR
 10
1.0
 20
0.0
 30
0.0
  9
$UCSYDIR
 10
0.0
 20
1.0
 30
0.0
  9
$PUCSNAME
  2

  9
$PUCSORG
 10
0.0
 20
0.0
 30
0.0
  9
$PUCSXDIR
 10
1.0
 20
0.0
 30
0.0
  9
$PUCSYDIR
 10
0.0
 20
1.0
 30
0.0
  9
$USERI1
 70
           0
  9
$USERI2
 70
           0
  9
$USERI3
 70
           0
  9
$USERI4
 70
           0
  9
$USERI5
 70
           0
  9
$USERR1
 40
0.0
  9
$USERR2
 40
0.0
  9
$USERR3
 40
0.0
  9
$USERR4
 40
0.0
  9
$USERR5
 40
0.0
  9
$WORLDVIEW
 70
           1
  9
$SHADEDGE
 70
           3
  9
$SHADEDIF
 70
          70
  9
$TILEMODE
 70
           1
  9
$MAXACTVP
 70
          16
  9
$PINSBASE
 10
0.0
 20
0.0
 30
0.0
  9
$PLIMCHECK
 70
           0
  9
$PEXTMIN
 10
1.000000000000E+20
 20
1.000000000000E+20
 30
1.000000000000E+20
  9
$PEXTMAX
 10
-1.000000000000E+20
 20
-1.000000000000E+20
 30
-1.000000000000E+20
  9
$PLIMMIN
 10
0.0
 20
0.0
  9
$PLIMMAX
 10
12.0
 20
9.0
  9
$UNITMODE
 70
           0
  9
$VISRETAIN
 70
           0
  9
$PLINEGEN
 70
           1
  9
$PSLTSCALE
 70
           0
  9
$TREEDEPTH
 70
        3020
  9
$PICKSTYLE
 70
           1
  9
$CMLSTYLE
  2
STANDARD
  9
$CMLJUST
 70
           0
  9
$CMLSCALE
 40
1.0
  9
$PROXYGRAPHICS
 70
           0
  9
$MEASUREMENT
 70
           0
  0
ENDSEC
  0
SECTION
  2
CLASSES
  0
CLASS
  1
LWPOLYLINE
  2
AcDbPolyline
  3
"AutoCAD"
 90
        0
280
           0
281
           1
  0
CLASS
  1
IMAGE
  2
AcDbRasterImage
  3
ISM
 90
      127
280
           0
281
           1
  0
CLASS
  1
OLE2FRAME
  2
AcDbOle2Frame
  3
""
 90
        0
280
           0
281
           1
  0
CLASS
  1
HATCH
  2
AcDbHatch
  3
"ACAD_SEDONA"
 90
        0
280
           0
281
           1
  0
CLASS
  1
DICTIONARYVAR
  2
AcDbDictionaryVar
  3
"AutoCAD"
 90
        0
280
           0
281
           0
  0
CLASS
  1
RASTERVARIABLES
  2
AcDbRasterVariables
  3
ISM
 90
        0
280
           0
281
           0
  0
CLASS
  1
IMAGEDEF
  2
AcDbRasterImageDef
  3
ISM
 90
        0
280
           0
281
           0
  0
CLASS
  1
IMAGEDEF_REACTOR
  2
AcDbRasterImageDefReactor
  3
ISM
 90
        1
280
           0
281
           0
  0
CLASS
  1
IDBUFFER
  2
AcDbIdBuffer
  3
"Acad"
 90
        0
280
           0
281
           0
  0
CLASS
  1
SPATIAL_FILTER
  2
AcDbSpatialFilter
  3
"Acad"
 90
        0
280
           0
281
           0
  0
CLASS
  1
XRECORD
  2
AcDbXrecord
  3
"<Built In>"
 90
        0
280
           0
281
           0
  0
CLASS
  1
SORTENTSTABLE
  2
AcDbSortentsTable
  3
"AutoCAD"
 90
        0
280
           0
281
           0
  0
CLASS
  1
LAYER_INDEX
  2
AcDbLayerIndex
  3
"Acad"
 90
        0
280
           0
281
           0
  0
CLASS
  1
SPATIAL_INDEX
  2
AcDbSpatialIndex
  3
"Acad"
 90
        0
280
           0
281
           0
  0
CLASS
  1
OBJECT_PTR
  2
CAseDLPNTableRecord
  3
"ASE-LPNTableRecord"
 90
        1
280
           0
281
           0
  0
CLASS
  1
LAYOUT
  2
AcDbLayout
  3
"AutoCAD 2000"
 90
        1
280
           0
281
           0
  0
CLASS
  1
PLOTSETTINGS
  2
AcDbPlotSettings
  3
"AutoCAD 2000"
 90
        1
280
           0
281
           0
  0
CLASS
  1
ACDBDICTIONARYWDFLT
  2
AcDbDictionaryWithDefault
  3
"AutoCAD 2000"
 90
        1
280
           0
281
           0
  0
CLASS
  1
ACDBPLACEHOLDER
  2
AcDbPlaceHolder
  3
"AutoCAD 2000"
 90
        1
280
           0
281
           0
  0
CLASS
  1
VBA_PROJECT
  2
AcDbVbaProject
  3
"acadvba"
 90
        1
280
           0
281
           0
  0
CLASS
  1
WIPEOUT
  2
AcDbWipeout
  3
WipeOut|AutoCAD Express Tool|expresstools@autodesk.com
 90
      127
280
           0
281
           1
  0
CLASS
  1
WIPEOUTVARIABLES
  2
AcDbWipeoutVariables
  3
WipeOut|AutoCAD Express Tool|expresstools@autodesk.com
 90
        0
280
           0
281
           0
  0
CLASS
  1
RTEXT
  2
RText
  3
RText|AutoCAD Express Tool|expresstools@autodesk.com
 90
        0
280
           0
281
           1
  0
CLASS
  1
ARCALIGNEDTEXT
  2
AcDbArcAlignedText
  3
ATEXT|AutoCAD Express Tool|expresstools@autodesk.com
 90
        0
280
           0
281
           1
  0
ENDSEC
  0
SECTION
  2
TABLES
  0
TABLE
  2
VPORT
  5
7
100
AcDbSymbolTable
 70
           1
  0
VPORT
  5
15
100
AcDbSymbolTableRecord
100
AcDbViewportTableRecord
  2
*ACTIVE
 70
           0
 10
0.0
 20
0.0
 11
1.0
 21
1.0
 12
6.591288
 22
4.579184
 13
0.0
 23
0.0
 14
1.0
 24
1.0
 15
0.0
 25
0.0
 16
0.0
 26
0.0
 36
1.0
 17
0.0
 27
0.0
 37
0.0
 40
9.158369
 41
0.688564
 42
50.0
 43
0.0
 44
0.0
 50
0.0
 51
0.0
 71
           0
 72
         100
 73
           1
 74
           1
 75
           0
 76
           0
 77
           0
 78
           0
  0
ENDTAB
  0
TABLE
  2
LTYPE
  5
4
100
AcDbSymbolTable
 70
          10
  0
LTYPE
  5
11
100
AcDbSymbolTableRecord
100
AcDbLinetypeTableRecord
  2
BYBLOCK
 70
          64
  3

 72
          65
 73
           0
 40
0.0
  0
LTYPE
  5
12
100
AcDbSymbolTableRecord
100
AcDbLinetypeTableRecord
  2
BYLAYER
 70
          64
  3

 72
          65
 73
           0
 40
0.0
  0
LTYPE
  5
13
100
AcDbSymbolTableRecord
100
AcDbLinetypeTableRecord
  2
CONTINUOUS
 70
          64
  3
Solid line
 72
          65
 73
           0
 40
0.0
  0
LTYPE
  5
1D
100
AcDbSymbolTableRecord
100
AcDbLinetypeTableRecord
  2
DASHED
 70
          64
  3
Dashed
 72
          65
 73
           2
 40
15.0
 49
12.0
 74
           0
 49
-3.0
 74
           0
  0
LTYPE
  5
1E
100
AcDbSymbolTableRecord
100
AcDbLinetypeTableRecord
  2
DOTTED
 70
          64
  3
Dotted
 72
          65
 73
           2
 40
3.5
 49
0.5
 74
           0
 49
-3.0
 74
           0
  0
LTYPE
  5
1F
100
AcDbSymbolTableRecord
100
AcDbLinetypeTableRecord
  2
DOT_CENTER
 70
          64
  3
Dot_Center
 72
          65
 73
           4
 40
2.0
 49
1.25
 74
           0
 49
-0.25
 74
           0
 49
0.25
 74
           0
 49
-0.25
 74
           0
  0
LTYPE
  5
20
100
AcDbSymbolTableRecord
100
AcDbLinetypeTableRecord
  2
LONG_DASHED
 70
          64
  3
Long_Dashed
 72
          65
 73
           2
 40
2.0
 49
1.5
 74
           0
 49
-0.5
 74
           0
  0
LTYPE
  5
21
100
AcDbSymbolTableRecord
100
AcDbLinetypeTableRecord
  2
DASH_CENTER
 70
          64
  3
Dash_Center
 72
          65
 73
           4
 40
36.0
 49
24.0
 74
           0
 49
-3.0
 74
           0
 49
6.0
 74
           0
 49
-3.0
 74
           0
  0
LTYPE
  5
22
100
AcDbSymbolTableRecord
100
AcDbLinetypeTableRecord
  2
PHANTOM
 70
          64
  3
Phantom
 72
          65
 73
           6
 40
2.5
 49
1.25
 74
           0
 49
-0.25
 74
           0
 49
0.25
 74
           0
 49
-0.25
 74
           0
 49
0.25
 74
           0
 49
-0.25
 74
           0
  0
LTYPE
  5
23
100
AcDbSymbolTableRecord
100
AcDbLinetypeTableRecord
  2
CENTER_DASH_DASH
 70
          64
  3
Center_Dash_Dash
 72
          65
 73
           6
 40
22.0
 49
12.0
 74
           0
 49
-3.0
 74
           0
 49
0.5
 74
           0
 49
-3.0
 74
           0
 49
0.5
 74
           0
 49
-3.0
 74
           0
  0
ENDTAB
  0
TABLE
  2
LAYER
  5
2
100
AcDbSymbolTable
 70
           2
  0
LAYER
  5
14
100
AcDbSymbolTableRecord
100
AcDbLayerTableRecord
  2
0
 70
           0
 62
           7
  6
CONTINUOUS
  0
LAYER
  5
24
100
AcDbSymbolTableRecord
100
AcDbLayerTableRecord
  2
1
 70
           0
 62
           7
  6
CONTINUOUS
  0
ENDTAB
  0
TABLE
  2
STYLE
  5
3
100
AcDbSymbolTable
 70
           1
  0
STYLE
  5
17
100
AcDbSymbolTableRecord
100
AcDbTextStyleTableRecord
  2
STANDARD
 70
           0
 40
0.0
 41
1.0
 50
0.0
 71
           0
 42
0.0
  3
txt
  4

  0
ENDTAB
  0
TABLE
  2
VIEW
  5
5
100
AcDbSymbolTable
 70
           0
  0
ENDTAB
  0
TABLE
  2
UCS
  5
6
100
AcDbSymbolTable
 70
           0
  0
ENDTAB
  0
TABLE
  2
APPID
  5
8
100
AcDbSymbolTable
 70
           1
  0
APPID
  5
16
100
AcDbSymbolTableRecord
100
AcDbRegAppTableRecord
  2
ACAD
 70
           0
  0
ENDTAB
  0
TABLE
  2
DIMSTYLE
  5
9
100
AcDbSymbolTable
 70
           1
  0
DIMSTYLE
105
18
100
AcDbSymbolTableRecord
100
AcDbDimStyleTableRecord
  2
STANDARD
 70
           0
  3

  4

  5

  6

  7

 40
1.0
 41
0.18
 42
0.0625
 43
0.38
 44
0.18
 45
0.0
 46
0.0
 47
0.0
 48
0.0
 71
           0
 72
           0
 73
           1
 74
           1
 75
           0
 76
           0
 77
           0
 78
           0
140
0.18
141
0.09
142
0.0
143
25.4
144
1.0
145
0.0
146
1.0
147
0.09
170
           0
171
           2
172
           0
173
           0
174
           0
175
           0
176
           0
177
           0
178
           0
270
           2
271
           4
272
           4
273
           2
274
           2
275
           0
280
           0
281
           0
282
           0
283
           1
284
           0
285
           0
286
           0
287
           0
288
           0
340
17
  0
ENDTAB
  0
TABLE
  2
BLOCK_RECORD
  5
1
100
AcDbSymbolTable
 70
           0
  0
BLOCK_RECORD
  5
A
100
AcDbSymbolTableRecord
100
AcDbBlockTableRecord
  2
*MODEL_SPACE
  0
BLOCK_RECORD
  5
B
100
AcDbSymbolTableRecord
100
AcDbBlockTableRecord
  2
*PAPER_SPACE
  0
ENDTAB
  0
ENDSEC
  0
SECTION
  2
BLOCKS
  0
BLOCK
  5
D
100
AcDbEntity
  8
0
100
AcDbBlockBegin
  2
*MODEL_SPACE
 70
           0
 10
0.0
 20
0.0
 30
0.0
  3
*MODEL_SPACE
  1

  0
ENDBLK
  5
E
100
AcDbEntity
  8
0
100
AcDbBlockEnd
  0
BLOCK
  5
F
100
AcDbEntity
 67
           1
  8
0
100
AcDbBlockBegin
  2
*PAPER_SPACE
 70
           0
 10
0.0
 20
0.0
 30
0.0
  3
*PAPER_SPACE
  1

  0
ENDBLK
  5
10
100
AcDbEntity
 67
           1
  8
0
100
AcDbBlockEnd
  0
ENDSEC
  0
SECTION
  2
ENTITIES
  0
HATCH
  5
516
100
AcDbEntity
  8
0
  6
CONTINUOUS
 62
           3
100
AcDbHatch
 10
0.0
 20
0.0
 30
0.0
210
0.0
220
0.0
230
1.0
  2
USER
 70
           0
 71
           1
 91
        1
 92
        1
 93
        4
 72
           1
 10
866.27746783862108
 20
1404.0784702522101
 11
1116.2774678386211
 21
1404.0784702522101
 72
           1
 10
866.27746783862108
 20
1404.0784702522101
 11
866.2774678386229
 21
1154.0784702522101
 72
           1
 10
1116.2774678386211
 20
1154.0784702522101
 11
866.2774678386229
 21
1154.0784702522101
 72
           1
 10
1116.2774678386211
 20
1404.0784702522101
 11
1116.2774678386211
 21
1154.0784702522101
 97
        4
330
3CF
330
3CC
330
3CD
330
3CE
 75
           1
 76
           0
 52
45.0
 41
20.0
 77
           0
 78
           2
 53
135.0
 43
0.0
 44
0.0
 45
-14.142135623730946
 46
-14.142135623730956
 79
           0
 53
45.0
 43
0.0
 44
0.0
 45
-14.142135623730949
 46
14.142135623730951
 79
           0
 98
        1
 10
0.0
 20
0.0
  0
ARC
  5
515
100
AcDbEntity
  8
1
  6
CONTINUOUS
 62
           3
100
AcDbCircle
 10
-3194.777551847118
 20
39.07847025221
 40
5.0
100
AcDbArc
 50
-90.0
 51
0.0
  0
ARC
  5
514
100
AcDbEntity
  8
1
  6
CONTINUOUS
 62
           3
100
AcDbCircle
 10
-3194.777551847118
 20
49.07847025221
 40
5.0
100
AcDbArc
 50
0.0
 51
90.0
  0
ARC
  5
513
100
AcDbEntity
  8
1
  6
CONTINUOUS
 62
           2
100
AcDbCircle
 10
864.277467838621
 20
1599.078470252212
 40
3.0
100
AcDbArc
 50
180.0
 51
-90.0
  0
ARC
  5
512
100
AcDbEntity
  8
1
  6
CONTINUOUS
 62
           2
100
AcDbCircle
 10
885.277467838621
 20
1593.078470252212
 40
3.0
100
AcDbArc
 50
0.0
 51
90.0
  0
ARC
  5
511
100
AcDbEntity
  8
1
  6
CONTINUOUS
 62
           2
100
AcDbCircle
 10
891.277467838621
 20
1572.078470252212
 40
3.0
100
AcDbArc
 50
180.0
 51
-90.0
  0
ARC
  5
510
100
AcDbEntity
  8
1
  6
CONTINUOUS
 62
           2
100
AcDbCircle
 10
1091.277467838621
 20
1572.078470252212
 40
3.0
100
AcDbArc
 50
-90.0
 51
0.0
  0
ARC
  5
50F
100
AcDbEntity
  8
1
  6
CONTINUOUS
 62
           2
100
AcDbCircle
 10
1097.277467838621
 20
1593.078470252212
 40
3.0
100
AcDbArc
 50
90.0
 51
180.0
  0
ARC
  5
50E
100
AcDbEntity
  8
1
  6
CONTINUOUS
 62
           2
100
AcDbCircle
 10
1118.277467838621
 20
1599.078470252212
 40
3.0
100
AcDbArc
 50
-90.0
 51
0.0
  0
ARC
  5
50D
100
AcDbEntity
  8
1
  6
CONTINUOUS
 62
           2
100
AcDbCircle
 10
864.277467838621
 20
1599.078470252212
 40
3.0
100
AcDbArc
 50
90.0
 51
180.0
  0
ARC
  5
50C
100
AcDbEntity
  8
1
  6
CONTINUOUS
 62
           2
100
AcDbCircle
 10
885.277467838621
 20
1605.078470252212
 40
3.0
100
AcDbArc
 50
-90.0
 51
0.0
  0
ARC
  5
50B
100
AcDbEntity
  8
1
  6
CONTINUOUS
 62
           2
100
AcDbCircle
 10
891.277467838621
 20
1626.078470252212
 40
3.0
100
AcDbArc
 50
90.0
 51
180.0
  0
ARC
  5
50A
100
AcDbEntity
  8
1
  6
CONTINUOUS
 62
           2
100
AcDbCircle
 10
1091.277467838621
 20
1626.078470252212
 40
3.0
100
AcDbArc
 50
0.0
 51
90.0
  0
ARC
  5
509
100
AcDbEntity
  8
1
  6
CONTINUOUS
 62
           2
100
AcDbCircle
 10
1097.277467838621
 20
1605.078470252212
 40
3.0
100
AcDbArc
 50
180.0
 51
-90.0
  0
ARC
  5
508
100
AcDbEntity
  8
1
  6
CONTINUOUS
 62
           2
100
AcDbCircle
 10
1118.277467838621
 20
1599.078470252212
 40
3.0
100
AcDbArc
 50
0.0
 51
90.0
  0
ARC
  5
507
100
AcDbEntity
  8
1
  6
CONTINUOUS
 62
           2
100
AcDbCircle
 10
-1689.024849268726
 20
984.078470252209
 40
5.0
100
AcDbArc
 50
90.0
 51
180.0
  0
ARC
  5
506
100
AcDbEntity
  8
1
  6
CONTINUOUS
 62
           2
100
AcDbCircle
 10
-1689.024849268726
 20
915.478470252209
 40
5.0
100
AcDbArc
 50
180.0
 51
-90.0
  0
ARC
  5
505
100
AcDbEntity
  8
1
  6
CONTINUOUS
 62
           3
100
AcDbCircle
 10
-1689.024849268726
 20
984.078470252209
 40
3.399999999999
100
AcDbArc
 50
90.0
 51
180.0
  0
ARC
  5
504
100
AcDbEntity
  8
1
  6
CONTINUOUS
 62
           3
100
AcDbCircle
 10
-1689.024849268726
 20
915.478470252209
 40
3.4
100
AcDbArc
 50
180.0
 51
-90.0
  0
ARC
  5
503
100
AcDbEntity
  8
1
  6
CONTINUOUS
 62
           2
100
AcDbCircle
 10
-2159.024849268727
 20
984.078470252209
 40
5.0
100
AcDbArc
 50
0.0
 51
90.0
  0
ARC
  5
502
100
AcDbEntity
  8
1
  6
CONTINUOUS
 62
           2
100
AcDbCircle
 10
-2159.024849268727
 20
915.478470252209
 40
5.0
100
AcDbArc
 50
-90.0
 51
0.0
  0
ARC
  5
501
100
AcDbEntity
  8
1
  6
CONTINUOUS
 62
           3
100
AcDbCircle
 10
-2159.024849268727
 20
984.078470252209
 40
3.400000000001
100
AcDbArc
 50
0.0
 51
90.0
  0
ARC
  5
500
100
AcDbEntity
  8
1
  6
CONTINUOUS
 62
           3
100
AcDbCircle
 10
-2159.024849268727
 20
915.478470252209
 40
3.4
100
AcDbArc
 50
-90.0
 51
0.0
  0
ARC
  5
4FF
100
AcDbEntity
  8
1
  6
CONTINUOUS
 62
           2
100
AcDbCircle
 10
-1707.530946186617
 20
1026.278470252209
 40
1.0
100
AcDbArc
 50
0.0
 51
90.0
  0
ARC
  5
4FE
100
AcDbEntity
  8
1
  6
CONTINUOUS
 62
           2
100
AcDbCircle
 10
-1707.530946186617
 20
1025.078470252209
 40
1.0
100
AcDbArc
 50
-90.0
 51
0.0
  0
ARC
  5
4FD
100
AcDbEntity
  8
1
  6
CONTINUOUS
 62
           2
100
AcDbCircle
 10
-1714.29363625515
 20
1032.255374839018
 40
5.000000000002
100
AcDbArc
 50
17.102728969084
 51
86.398973040161
  0
ARC
  5
4FC
100
AcDbEntity
  8
1
  6
CONTINUOUS
 62
           2
100
AcDbCircle
 10
-1739.245784356072
 20
1025.201470252208
 40
1.123000000004
100
AcDbArc
 50
-134.999999999754
 51
-90.0
  0
ARC
  5
4FB
100
AcDbEntity
  8
1
  6
CONTINUOUS
 62
           2
100
AcDbCircle
 10
-1741.776108017161
 20
1024.555470252209
 40
1.122999999998
100
AcDbArc
 50
44.999999999918
 51
90.0
  0
ARC
  5
4FA
100
AcDbEntity
  8
1
  6
CONTINUOUS
 62
           2
100
AcDbCircle
 10
-1796.28661750077
 20
1024.554637107509
 40
1.122999999997
100
AcDbArc
 50
89.897416429568
 51
135.000000000147
  0
ARC
  5
4F9
100
AcDbEntity
  8
1
  6
CONTINUOUS
 62
           2
100
AcDbCircle
 10
-1738.555420293406
 20
1030.278470252209
 40
3.000000000002
100
AcDbArc
 50
-175.135485562078
 51
-90.0
  0
ARC
  5
4F8
100
AcDbEntity
  8
1
  6
CONTINUOUS
 62
           2
100
AcDbCircle
 10
-1747.903489341966
 20
1045.778470252209
 40
5.0
100
AcDbArc
 50
4.864514437719
 51
90.0
  0
ARC
  5
4F7
100
AcDbEntity
  8
1
  6
CONTINUOUS
 62
           2
100
AcDbCircle
 10
-1790.158403031268
 20
1045.778470252209
 40
5.0
100
AcDbArc
 50
90.0
 51
175.135485562279
  0
ARC
  5
4F6
100
AcDbEntity
  8
1
  6
CONTINUOUS
 62
           2
100
AcDbCircle
 10
-1799.506472079826
 20
1030.278470252209
 40
3.0
100
AcDbArc
 50
-90.0
 51
-4.864514437924
  0
ARC
  5
4F5
100
AcDbEntity
  8
1
  6
CONTINUOUS
 62
           2
100
AcDbCircle
 10
-1798.816108017162
 20
1025.201470252208
 40
1.122999999999
100
AcDbArc
 50
-90.0
 51
-45.000000000221
  0
ARC
  5
4F4
100
AcDbEntity
  8
1
  6
CONTINUOUS
 62
           2
100
AcDbCircle
 10
-1830.530946186617
 20
1025.078470252209
 40
1.0
100
AcDbArc
 50
180.0
 51
-90.0
  0
ARC
  5
4F3
100
AcDbEntity
  8
1
  6
CONTINUOUS
 62
           2
100
AcDbCircle
 10
-1830.530946186617
 20
1026.278470252209
 40
1.0
100
AcDbArc
 50
90.0
 51
180.0
  0
ARC
  5
4F2
100
AcDbEntity
  8
1
  6
CONTINUOUS
 62
           2
100
AcDbCircle
 10
-1823.768256118083
 20
1032.255374839018
 40
5.000000000004
100
AcDbArc
 50
93.601026959852
 51
162.897271030912
  0
ARC
  5
4F1
100
AcDbEntity
  8
1
  6
CONTINUOUS
 62
           3
100
AcDbCircle
 10
-1764.15892208865
 20
1088.380076021629
 40
7.0
100
AcDbArc
 50
-90.0
 51
-15.904058987884
  0
ARC
  5
4F0
100
AcDbEntity
  8
1
  6
CONTINUOUS
 62
           3
100
AcDbCircle
 10
-1846.890891888921
 20
1088.380076021629
 40
7.0
100
AcDbArc
 50
-164.094737186574
 51
-90.0
  0
ARC
  5
4EF
100
AcDbEntity
  8
1
  6
CONTINUOUS
 62
           3
100
AcDbCircle
 10
-1765.724849268726
 20
1096.780076021629
 40
4.0
100
AcDbArc
 50
-90.0
 51
0.0
  0
ARC
  5
4EE
100
AcDbEntity
  8
1
  6
CONTINUOUS
 62
           3
100
AcDbCircle
 10
-1845.324849268726
 20
1096.780076021629
 40
4.0
100
AcDbArc
 50
180.0
 51
-90.0
  0
ARC
  5
4ED
100
AcDbEntity
  8
1
  6
CONTINUOUS
 62
           3
100
AcDbCircle
 10
-1845.324849268726
 20
1160.578470252209
 40
4.0
100
AcDbArc
 50
90.0
 51
180.0
  0
ARC
  5
4EC
100
AcDbEntity
  8
1
  6
CONTINUOUS
 62
           3
100
AcDbCircle
 10
-1765.724849268726
 20
1160.578470252209
 40
4.0
100
AcDbArc
 50
0.0
 51
90.0
  0
ARC
  5
4EB
100
AcDbEntity
  8
1
  6
CONTINUOUS
 62
           3
100
AcDbCircle
 10
-1761.024849268726
 20
1165.278470252209
 40
5.0
100
AcDbArc
 50
0.0
 51
90.0
  0
ARC
  5
4EA
100
AcDbEntity
  8
1
  6
CONTINUOUS
 62
           3
100
AcDbCircle
 10
-1850.024849268726
 20
1165.278470252209
 40
5.0
100
AcDbArc
 50
90.0
 51
180.0
  0
ARC
  5
4E9
100
AcDbEntity
  8
1
  6
CONTINUOUS
 62
           3
100
AcDbCircle
 10
-1850.024849268726
 20
1092.080076021628
 40
5.0
100
AcDbArc
 50
180.0
 51
-90.0
  0
ARC
  5
4E8
100
AcDbEntity
  8
1
  6
CONTINUOUS
 62
           3
100
AcDbCircle
 10
-1761.024849268726
 20
1092.080076021628
 40
5.0
100
AcDbArc
 50
-90.0
 51
0.0
  0
ARC
  5
4E7
100
AcDbEntity
  8
1
  6
CONTINUOUS
 62
           2
100
AcDbCircle
 10
-1759.024849268726
 20
4431.500596551712
 40
5.0
100
AcDbArc
 50
0.0
 51
90.0
  0
ARC
  5
4E6
100
AcDbEntity
  8
1
  6
CONTINUOUS
 62
           3
100
AcDbCircle
 10
-1764.724849268726
 20
4425.421853288262
 40
5.0
100
AcDbArc
 50
0.0
 51
90.0
  0
ARC
  5
4E5
100
AcDbEntity
  8
1
  6
CONTINUOUS
 62
           3
100
AcDbCircle
 10
-1842.324849268726
 20
4425.421853288262
 40
5.0
100
AcDbArc
 50
90.0
 51
180.0
  0
ARC
  5
4E4
100
AcDbEntity
  8
1
  6
CONTINUOUS
 62
           2
100
AcDbCircle
 10
-1848.024849268726
 20
4431.500596551712
 40
5.0
100
AcDbArc
 50
90.0
 51
180.0
  0
ARC
  5
4E3
100
AcDbEntity
  8
1
  6
CONTINUOUS
 62
           2
100
AcDbCircle
 10
-1848.024849268726
 20
4360.617284591182
 40
5.0
100
AcDbArc
 50
180.0
 51
-90.0
  0
ARC
  5
4E2
100
AcDbEntity
  8
1
  6
CONTINUOUS
 62
           3
100
AcDbCircle
 10
-1842.324849268726
 20
4363.596446378124
 40
5.0
100
AcDbArc
 50
180.0
 51
-90.0
  0
ARC
  5
4E1
100
AcDbEntity
  8
1
  6
CONTINUOUS
 62
           3
100
AcDbCircle
 10
-1764.724849268726
 20
4363.596446378124
 40
5.0
100
AcDbArc
 50
-90.0
 51
0.0
  0
ARC
  5
4E0
100
AcDbEntity
  8
1
  6
CONTINUOUS
 62
           2
100
AcDbCircle
 10
-1759.024849268726
 20
4360.617284591182
 40
5.0
100
AcDbArc
 50
-90.0
 51
0.0
  0
ARC
  5
4DF
100
AcDbEntity
  8
1
  6
PHANTOM
 62
           3
100
AcDbCircle
 10
-697.722007423234
 20
-473.221005009646
 40
4.0
100
AcDbArc
 50
180.0
 51
-129.997138764897
  0
ARC
  5
4DE
100
AcDbEntity
  8
1
  6
PHANTOM
 62
           3
100
AcDbCircle
 10
-732.723056899522
 20
-473.221005009646
 40
4.000000000001
100
AcDbArc
 50
-90.000000000013
 51
0.0
  0
ARC
  5
4DD
100
AcDbEntity
  8
1
  6
PHANTOM
 62
           3
100
AcDbCircle
 10
-627.972532161378
 20
-444.22152974779
 40
3.000000000001
100
AcDbArc
 50
90.0
 51
179.999999999982
  0
ARC
  5
4DC
100
AcDbEntity
  8
1
  6
PHANTOM
 62
           3
100
AcDbCircle
 10
-598.472532161378
 20
-444.22152974779
 40
3.0
100
AcDbArc
 50
-0.000000000021
 51
90.0
  0
ARC
  5
4DB
100
AcDbEntity
  8
1
  6
PHANTOM
 62
           3
100
AcDbCircle
 10
-637.222532161378
 20
-274.471529747789
 40
3.000000000001
100
AcDbArc
 50
180.0
 51
-90.000000000017
  0
ARC
  5
4DA
100
AcDbEntity
  8
1
  6
PHANTOM
 62
           3
100
AcDbCircle
 10
-637.222532161378
 20
-300.471529747789
 40
3.0
100
AcDbArc
 50
90.0
 51
180.0
  0
ARC
  5
4D9
100
AcDbEntity
  8
1
  6
PHANTOM
 62
           3
100
AcDbCircle
 10
-690.222532161379
 20
-316.58387495582
 40
5.0
100
AcDbArc
 50
180.0
 51
-91.301952672576
  0
ARC
  5
4D8
100
AcDbEntity
  8
1
  6
PHANTOM
 62
           3
100
AcDbCircle
 10
-690.222532161378
 20
-262.35918453976
 40
5.000000000001
100
AcDbArc
 50
91.301952672586
 51
179.999999999987
  0
ARC
  5
4D7
100
AcDbEntity
  8
1
  6
PHANTOM
 62
           3
100
AcDbCircle
 10
-697.722007423234
 20
-473.221005009646
 40
4.0
100
AcDbArc
 50
-129.997138764897
 51
-90.0
  0
ARC
  5
4D6
100
AcDbEntity
  8
1
  6
PHANTOM
 62
           3
100
AcDbCircle
 10
-551.222532161378
 20
-499.721529747789
 40
3.0
100
AcDbArc
 50
0.0
 51
90.0
  0
ARC
  5
4D5
100
AcDbEntity
  8
1
  6
PHANTOM
 62
           3
100
AcDbCircle
 10
-570.222532161378
 20
-493.721529747789
 40
3.0
100
AcDbArc
 50
180.0
 51
-90.0
  0
ARC
  5
4D4
100
AcDbEntity
  8
1
  6
PHANTOM
 62
           3
100
AcDbCircle
 10
-545.222532161378
 20
-518.721529747789
 40
3.0
100
AcDbArc
 50
180.0
 51
-90.0
  0
ARC
  5
4D3
100
AcDbEntity
  8
1
  6
PHANTOM
 62
           3
100
AcDbCircle
 10
-437.722532161378
 20
-457.261686413368
 40
5.0
100
AcDbArc
 50
0.0
 51
90.0
  0
ARC
  5
4D2
100
AcDbEntity
  8
1
  6
PHANTOM
 62
           3
100
AcDbCircle
 10
-437.722532161378
 20
-457.261686413368
 40
10.0
100
AcDbArc
 50
0.0
 51
90.0
  0
CIRCLE
  5
4D1
100
AcDbEntity
  8
1
  6
CONTINUOUS
 62
           3
100
AcDbCircle
 10
-3454.024849268727
 20
44.07847025221
 40
4.464352242047
  0
CIRCLE
  5
4D0
100
AcDbEntity
  8
1
  6
PHANTOM
 62
           3
100
AcDbCircle
 10
-8.722532161379
 20
1104.078470252209
 40
82.0
  0
CIRCLE
  5
4CF
100
AcDbEntity
  8
1
  6
PHANTOM
 62
           3
100
AcDbCircle
 10
481.277467838621
 20
1279.078470252209
 40
50.0
  0
CIRCLE
  5
4CE
100
AcDbEntity
  8
1
  6
CONTINUOUS
 62
           2
100
AcDbCircle
 10
-2402.024849268727
 20
4990.617309495479
 40
25.0
  0
CIRCLE
  5
4CD
100
AcDbEntity
  8
1
  6
PHANTOM
 62
           3
100
AcDbCircle
 10
-1952.024849268726
 20
-536.721529747789
 40
46.0
  0
CIRCLE
  5
4CC
100
AcDbEntity
  8
1
  6
PHANTOM
 62
           3
100
AcDbCircle
 10
-2134.024849268726
 20
-205.721529747789
 40
37.0
  0
CIRCLE
  5
4CB
100
AcDbEntity
  8
1
  6
PHANTOM
 62
           3
100
AcDbCircle
 10
-2134.024849268726
 20
-205.721529747789
 40
42.0
  0
CIRCLE
  5
4CA
100
AcDbEntity
  8
1
  6
PHANTOM
 62
           3
100
AcDbCircle
 10
-1790.024849268725
 20
3790.117309495486
 40
7.5
  0
ARC
  5
4C9
100
AcDbEntity
  8
1
  6
PHANTOM
 62
           3
100
AcDbCircle
 10
-566.220337464015
 20
-491.72152974779
 40
7.499999999999
100
AcDbArc
 50
90.0
 51
-90.0
  0
ARC
  5
4C8
100
AcDbEntity
  8
1
  6
CONTINUOUS
 62
           3
100
AcDbCircle
 10
-1808.524849268726
 20
1092.780076021629
 40
5.7
100
AcDbArc
 50
90.0
 51
180.0
  0
ARC
  5
4C7
100
AcDbEntity
  8
1
  6
CONTINUOUS
 62
           3
100
AcDbCircle
 10
-1808.524849268726
 20
1092.780076021629
 40
5.7
100
AcDbArc
 50
0.0
 51
90.0
  0
ARC
  5
4C6
100
AcDbEntity
  8
1
  6
PHANTOM
 62
           3
100
AcDbCircle
 10
-497.722532161378
 20
-364.221529747789
 40
59.999999999999
100
AcDbArc
 50
-98.626926558679
 51
0.0
  0
ARC
  5
4C5
100
AcDbEntity
  8
1
  6
PHANTOM
 62
           3
100
AcDbCircle
 10
-497.722532161378
 20
-364.221529747789
 40
59.999999999998
100
AcDbArc
 50
-122.230952635503
 51
-98.626926558679
  0
ARC
  5
4C4
100
AcDbEntity
  8
1
  6
PHANTOM
 62
           3
100
AcDbCircle
 10
-497.722532161378
 20
-364.221529747789
 40
59.999999999999
100
AcDbArc
 50
180.0
 51
-122.230952635503
  0
ARC
  5
4C3
100
AcDbEntity
  8
1
  6
PHANTOM
 62
           3
100
AcDbCircle
 10
-497.722532161378
 20
-364.221529747789
 40
59.999999999999
100
AcDbArc
 50
-98.626926558679
 51
0.0
  0
ARC
  5
4C2
100
AcDbEntity
  8
1
  6
PHANTOM
 62
           3
100
AcDbCircle
 10
-497.722532161378
 20
-364.221529747789
 40
60.000000000002
100
AcDbArc
 50
122.230952635501
 51
180.0
  0
ARC
  5
4C1
100
AcDbEntity
  8
1
  6
PHANTOM
 62
           3
100
AcDbCircle
 10
-713.648646156797
 20
-383.721529747789
 40
11.607201090505
100
AcDbArc
 50
97.793064982074
 51
-97.793064982074
  0
ARC
  5
4C0
100
AcDbEntity
  8
1
  6
PHANTOM
 62
           3
100
AcDbCircle
 10
-621.222532161378
 20
-497.725605437399
 40
4.997555649874
100
AcDbArc
 50
-143.167483801589
 51
-36.83251619841
  0
ARC
  5
4BF
100
AcDbEntity
  8
1
  6
PHANTOM
 62
           3
100
AcDbCircle
 10
-605.222532161378
 20
-497.7256054374
 40
4.997555649874
100
AcDbArc
 50
-143.167483801612
 51
-36.832516198394
  0
ARC
  5
4BE
100
AcDbEntity
  8
1
  6
PHANTOM
 62
           3
100
AcDbCircle
 10
-566.220337464015
 20
-491.72152974779
 40
7.5
100
AcDbArc
 50
-90.0
 51
-41.810314895781
  0
ARC
  5
4BD
100
AcDbEntity
  8
1
  6
PHANTOM
 62
           3
100
AcDbCircle
 10
-584.722532161378
 20
-536.72152974779
 40
9.5
100
AcDbArc
 50
180.0
 51
0.000000000005
  0
ARC
  5
4BC
100
AcDbEntity
  8
1
  6
PHANTOM
 62
           3
100
AcDbCircle
 10
-685.222532161378
 20
-435.721529747789
 40
2.999999999998
100
AcDbArc
 50
90.0
 51
180.0
  0
ARC
  5
4BB
100
AcDbEntity
  8
1
  6
PHANTOM
 62
           3
100
AcDbCircle
 10
-685.222532161378
 20
-435.721529747789
 40
7.999999999999
100
AcDbArc
 50
90.0
 51
180.0
  0
ARC
  5
4BA
100
AcDbEntity
  8
1
  6
PHANTOM
 62
           3
100
AcDbCircle
 10
-685.222532161378
 20
-435.721529747789
 40
13.0
100
AcDbArc
 50
90.000000000004
 51
180.0
  0
ARC
  5
4B9
100
AcDbEntity
  8
1
  6
PHANTOM
 62
           3
100
AcDbCircle
 10
-592.722532161378
 20
-435.72152974779
 40
3.0
100
AcDbArc
 50
0.0
 51
90.000000000017
  0
ARC
  5
4B8
100
AcDbEntity
  8
1
  6
PHANTOM
 62
           3
100
AcDbCircle
 10
-592.722532161378
 20
-435.72152974779
 40
7.999999999999
100
AcDbArc
 50
0.000000000007
 51
90.0
  0
ARC
  5
4B7
100
AcDbEntity
  8
1
  6
PHANTOM
 62
           3
100
AcDbCircle
 10
-592.722532161378
 20
-435.72152974779
 40
12.999999999999
100
AcDbArc
 50
0.000000000004
 51
90.000000000004
  0
ARC
  5
4B6
100
AcDbEntity
  8
1
  6
PHANTOM
 62
           3
100
AcDbCircle
 10
-566.220337464015
 20
-491.72152974779
 40
7.5
100
AcDbArc
 50
0.0
 51
90.0
  0
ARC
  5
4B5
100
AcDbEntity
  8
1
  6
PHANTOM
 62
           3
100
AcDbCircle
 10
-566.220337464015
 20
-491.72152974779
 40
7.5
100
AcDbArc
 50
-41.810314895781
 51
0.0
  0
ARC
  5
4B4
100
AcDbEntity
  8
1
  6
PHANTOM
 62
           3
100
AcDbCircle
 10
-566.220337464015
 20
-491.72152974779
 40
5.696404625772
100
AcDbArc
 50
0.000000000009
 51
179.99999999999
  0
ARC
  5
4B3
100
AcDbEntity
  8
1
  6
PHANTOM
 62
           3
100
AcDbCircle
 10
-566.220337464015
 20
-491.72152974779
 40
5.696404625773
100
AcDbArc
 50
179.99999999999
 51
-115.720207600236
  0
ARC
  5
4B2
100
AcDbEntity
  8
1
  6
PHANTOM
 62
           3
100
AcDbCircle
 10
-566.220337464015
 20
-491.72152974779
 40
5.029124131179
100
AcDbArc
 50
-0.00000000001
 51
180.0
  0
ARC
  5
4B1
100
AcDbEntity
  8
1
  6
PHANTOM
 62
           3
100
AcDbCircle
 10
-566.220337464015
 20
-491.72152974779
 40
5.029124131179
100
AcDbArc
 50
180.0
 51
-0.00000000001
  0
ARC
  5
4B0
100
AcDbEntity
  8
1
  6
PHANTOM
 62
           3
100
AcDbCircle
 10
-566.220337464015
 20
-491.72152974779
 40
5.696404625772
100
AcDbArc
 50
-115.720207600236
 51
-61.371724811976
  0
ARC
  5
4AF
100
AcDbEntity
  8
1
  6
PHANTOM
 62
           3
100
AcDbCircle
 10
-566.220337464015
 20
-491.72152974779
 40
5.696404625771
100
AcDbArc
 50
-61.371724811976
 51
0.000000000009
  0
ARC
  5
4AE
100
AcDbEntity
  8
1
  6
PHANTOM
 62
           3
100
AcDbCircle
 10
-513.222532161378
 20
-506.721529747789
 40
4.0
100
AcDbArc
 50
-90.0
 51
90.0
  0
ARC
  5
4AD
100
AcDbEntity
  8
1
  6
PHANTOM
 62
           3
100
AcDbCircle
 10
-497.722532161378
 20
-361.221529747789
 40
110.0
100
AcDbArc
 50
90.0
 51
118.136558786945
  0
ARC
  5
4AC
100
AcDbEntity
  8
1
  6
PHANTOM
 62
           3
100
AcDbCircle
 10
-467.722532161378
 20
-361.221529747789
 40
110.0
100
AcDbArc
 50
0.0
 51
77.620350448954
  0
ARC
  5
4AB
100
AcDbEntity
  8
1
  6
PHANTOM
 62
           3
100
AcDbCircle
 10
-497.722532161378
 20
-377.913693275885
 40
93.307836471904
100
AcDbArc
 50
-90.0
 51
-52.825916331165
  0
ARC
  5
4AA
100
AcDbEntity
  8
1
  6
PHANTOM
 62
           3
100
AcDbCircle
 10
-497.722532161378
 20
-372.913693275885
 40
93.307836471904
100
AcDbArc
 50
-90.0
 51
-52.825916331165
  0
ARC
  5
4A9
100
AcDbEntity
  8
1
  6
PHANTOM
 62
           3
100
AcDbCircle
 10
-497.722532161378
 20
-361.221529747789
 40
105.0
100
AcDbArc
 50
90.0
 51
118.774146998027
  0
ARC
  5
4A8
100
AcDbEntity
  8
1
  6
PHANTOM
 62
           3
100
AcDbCircle
 10
-467.722532161378
 20
-361.221529747789
 40
105.0
100
AcDbArc
 50
0.0
 51
71.145230571494
  0
ARC
  5
4A7
100
AcDbEntity
  8
1
  6
PHANTOM
 62
           3
100
AcDbCircle
 10
-467.722532161378
 20
-361.221529747789
 40
105.0
100
AcDbArc
 50
74.802129601451
 51
78.050291104622
  0
ARC
  5
4A6
100
AcDbEntity
  8
1
  6
PHANTOM
 62
           3
100
AcDbCircle
 10
-467.722532161378
 20
-361.221529747789
 40
110.0
100
AcDbArc
 50
82.291479370944
 51
90.0
  0
ARC
  5
4A5
100
AcDbEntity
  8
1
  6
PHANTOM
 62
           3
100
AcDbCircle
 10
-497.722532161378
 20
-361.221529747789
 40
110.000000000001
100
AcDbArc
 50
118.136558786945
 51
154.147739917022
  0
ARC
  5
4A4
100
AcDbEntity
  8
1
  6
PHANTOM
 62
           3
100
AcDbCircle
 10
-497.722532161378
 20
-361.221529747789
 40
104.999999999999
100
AcDbArc
 50
118.774146998027
 51
155.376933525152
  0
ARC
  5
4A3
100
AcDbEntity
  8
1
  6
PHANTOM
 62
           3
100
AcDbCircle
 10
-497.722532161378
 20
-361.221529747789
 40
105.000000000001
100
AcDbArc
 50
155.376933525152
 51
-108.55951093958
  0
ARC
  5
4A2
100
AcDbEntity
  8
1
  6
PHANTOM
 62
           3
100
AcDbCircle
 10
-497.722532161378
 20
-361.221529747789
 40
110.0
100
AcDbArc
 50
154.147739917022
 51
-107.184795901087
  0
ARC
  5
4A1
100
AcDbEntity
  8
1
  6
PHANTOM
 62
           3
100
AcDbCircle
 10
-497.722532161378
 20
-364.221529747789
 40
60.0
100
AcDbArc
 50
0.0
 51
98.626926558679
  0
ARC
  5
4A0
100
AcDbEntity
  8
1
  6
PHANTOM
 62
           3
100
AcDbCircle
 10
-497.722532161378
 20
-364.221529747789
 40
59.999999999999
100
AcDbArc
 50
98.626926558679
 51
122.230952635501
  0
ARC
  5
49F
100
AcDbEntity
  8
1
  6
PHANTOM
 62
           3
100
AcDbCircle
 10
-497.722532161378
 20
-364.221529747789
 40
46.999999999999
100
AcDbArc
 50
132.910184021677
 51
-168.338593579459
  0
ARC
  5
49E
100
AcDbEntity
  8
1
  6
PHANTOM
 62
           3
100
AcDbCircle
 10
-497.722532161378
 20
-364.221529747789
 40
47.0
100
AcDbArc
 50
0.0
 51
101.039714414033
  0
ARC
  5
49D
100
AcDbEntity
  8
1
  6
PHANTOM
 62
           3
100
AcDbCircle
 10
-497.722532161378
 20
-364.221529747789
 40
47.0
100
AcDbArc
 50
101.039714414033
 51
132.910184021677
  0
ARC
  5
49C
100
AcDbEntity
  8
1
  6
PHANTOM
 62
           3
100
AcDbCircle
 10
-497.722532161378
 20
-364.221529747789
 40
39.999999999999
100
AcDbArc
 50
103.002878162914
 51
143.130102354154
  0
ARC
  5
49B
100
AcDbEntity
  8
1
  6
PHANTOM
 62
           3
100
AcDbCircle
 10
-497.722532161378
 20
-364.221529747789
 40
40.0
100
AcDbArc
 50
0.0
 51
103.002878162914
  0
ARC
  5
49A
100
AcDbEntity
  8
1
  6
PHANTOM
 62
           3
100
AcDbCircle
 10
-497.722532161378
 20
-364.221529747789
 40
40.000000000001
100
AcDbArc
 50
143.130102354154
 51
-168.463040967181
  0
ARC
  5
499
100
AcDbEntity
  8
1
  6
PHANTOM
 62
           3
100
AcDbCircle
 10
-497.722532161378
 20
-364.221529747789
 40
20.000000000001
100
AcDbArc
 50
116.743683950401
 51
-116.743683950404
  0
ARC
  5
498
100
AcDbEntity
  8
1
  6
PHANTOM
 62
           3
100
AcDbCircle
 10
-497.722532161378
 20
-364.221529747789
 40
20.0
100
AcDbArc
 50
0.0
 51
116.743683950401
  0
ARC
  5
497
100
AcDbEntity
  8
1
  6
PHANTOM
 62
           3
100
AcDbCircle
 10
-497.722532161378
 20
-364.221529747789
 40
15.000000000001
100
AcDbArc
 50
140.055494810182
 51
-126.869897645842
  0
ARC
  5
496
100
AcDbEntity
  8
1
  6
PHANTOM
 62
           3
100
AcDbCircle
 10
-497.722532161378
 20
-364.221529747789
 40
15.0
100
AcDbArc
 50
0.0
 51
140.055494810182
  0
ARC
  5
495
100
AcDbEntity
  8
1
  6
PHANTOM
 62
           3
100
AcDbCircle
 10
-497.722532161378
 20
-364.221529747789
 40
15.000000000001
100
AcDbArc
 50
-126.869897645842
 51
0.0
  0
ARC
  5
494
100
AcDbEntity
  8
1
  6
PHANTOM
 62
           3
100
AcDbCircle
 10
-497.722532161378
 20
-364.221529747789
 40
19.999999999999
100
AcDbArc
 50
-116.743683950404
 51
0.0
  0
ARC
  5
493
100
AcDbEntity
  8
1
  6
PHANTOM
 62
           3
100
AcDbCircle
 10
-497.722532161378
 20
-364.221529747789
 40
40.0
100
AcDbArc
 50
-103.002878162914
 51
0.0
  0
ARC
  5
492
100
AcDbEntity
  8
1
  6
PHANTOM
 62
           3
100
AcDbCircle
 10
-497.722532161378
 20
-364.221529747789
 40
40.000000000001
100
AcDbArc
 50
-168.463040967181
 51
-103.002878162914
  0
ARC
  5
491
100
AcDbEntity
  8
1
  6
PHANTOM
 62
           3
100
AcDbCircle
 10
-497.722532161378
 20
-364.221529747789
 40
47.0
100
AcDbArc
 50
-168.338593579459
 51
-104.162973809369
  0
ARC
  5
490
100
AcDbEntity
  8
1
  6
PHANTOM
 62
           3
100
AcDbCircle
 10
-497.722532161378
 20
-364.221529747789
 40
47.0
100
AcDbArc
 50
-104.162973809369
 51
0.0
  0
ARC
  5
48F
100
AcDbEntity
  8
1
  6
PHANTOM
 62
           3
100
AcDbCircle
 10
-497.722532161378
 20
-361.221529747789
 40
105.0
100
AcDbArc
 50
-94.643310710572
 51
-90.0
  0
ARC
  5
48E
100
AcDbEntity
  8
1
  6
PHANTOM
 62
           3
100
AcDbCircle
 10
-497.722532161378
 20
-361.221529747789
 40
105.0
100
AcDbArc
 50
-108.55951093958
 51
-94.643310710572
  0
ARC
  5
48D
100
AcDbEntity
  8
1
  6
PHANTOM
 62
           3
100
AcDbCircle
 10
-497.722532161378
 20
-361.221529747789
 40
109.999999999999
100
AcDbArc
 50
-107.184795901087
 51
-94.431819082368
  0
ARC
  5
48C
100
AcDbEntity
  8
1
  6
PHANTOM
 62
           3
100
AcDbCircle
 10
-497.722532161378
 20
-361.221529747789
 40
110.0
100
AcDbArc
 50
-94.431819082368
 51
-90.0
  0
ARC
  5
48B
100
AcDbEntity
  8
1
  6
PHANTOM
 62
           3
100
AcDbCircle
 10
-467.722532161378
 20
-361.221529747789
 40
104.999999999999
100
AcDbArc
 50
78.050291104622
 51
90.0
  0
ARC
  5
48A
100
AcDbEntity
  8
1
  6
PHANTOM
 62
           3
100
AcDbCircle
 10
-467.722532161378
 20
-361.221529747789
 40
110.000000000001
100
AcDbArc
 50
77.620350448954
 51
82.291479370944
  0
ARC
  5
489
100
AcDbEntity
  8
1
  6
PHANTOM
 62
           3
100
AcDbCircle
 10
-467.722532161378
 20
-361.221529747789
 40
105.0
100
AcDbArc
 50
71.145230571494
 51
74.802129601451
  0
ARC
  5
488
100
AcDbEntity
  8
1
  6
PHANTOM
 62
           3
100
AcDbCircle
 10
-2134.024849268726
 20
-381.221529747787
 40
12.0
100
AcDbArc
 50
90.0
 51
-90.0
  0
ARC
  5
487
100
AcDbEntity
  8
1
  6
CONTINUOUS
 62
           3
100
AcDbCircle
 10
-4854.024849268726
 20
3636.61730949548
 40
5.499999999999
100
AcDbArc
 50
-40.165348630527
 51
-90.0
  0
ARC
  5
486
100
AcDbEntity
  8
1
  6
CONTINUOUS
 62
           3
100
AcDbCircle
 10
-4854.024849268726
 20
3636.61730949548
 40
9.999999999999
100
AcDbArc
 50
-33.367012969234
 51
-90.0
  0
ARC
  5
485
100
AcDbEntity
  8
1
  6
CONTINUOUS
 62
           3
100
AcDbCircle
 10
-2302.024849268727
 20
3636.61730949548
 40
5.5
100
AcDbArc
 50
-90.0
 51
-139.834651369464
  0
ARC
  5
484
100
AcDbEntity
  8
1
  6
CONTINUOUS
 62
           3
100
AcDbCircle
 10
-2302.024849268727
 20
3636.61730949548
 40
10.0
100
AcDbArc
 50
-90.0
 51
-146.632987030765
  0
ARC
  5
483
100
AcDbEntity
  8
1
  6
PHANTOM
 62
           3
100
AcDbCircle
 10
-4854.024849268726
 20
3668.07266250594
 40
1321.45535301046
100
AcDbArc
 50
-106.485819550949
 51
-90.0
  0
ARC
  5
482
100
AcDbEntity
  8
1
  6
PHANTOM
 62
           3
100
AcDbCircle
 10
-2324.461886830882
 20
3652.34498600071
 40
1305.887605307617
100
AcDbArc
 50
-163.883138838569
 51
-89.103288983677
  0
ARC
  5
481
100
AcDbEntity
  8
1
  6
PHANTOM
 62
           3
100
AcDbCircle
 10
-2304.024849268727
 20
3668.07266250594
 40
1321.45535301046
100
AcDbArc
 50
-90.0
 51
-73.514180449051
  0
ARC
  5
480
100
AcDbEntity
  8
1
  6
PHANTOM
 62
           3
100
AcDbCircle
 10
-4833.58781170657
 20
3652.34498600071
 40
1305.887605307617
100
AcDbArc
 50
-90.896711016322
 51
-16.11686116143
  0
LINE
  5
47F
100
AcDbEntity
  8
1
  6
CONTINUOUS
 62
           7
100
AcDbLine
 10
-5609.41921724425
 20
-1268.72829343324
 11
-5609.41921724425
 21
6100.51811540653
  0
LINE
  5
47E
100
AcDbEntity
  8
1
  6
CONTINUOUS
 62
           7
100
AcDbLine
 10
1705.64155623641
 20
-1268.72829343324
 11
-5609.41921724425
 21
-1268.72829343324
  0
LINE
  5
47D
100
AcDbEntity
  8
1
  6
CONTINUOUS
 62
           7
100
AcDbLine
 10
1705.64155623641
 20
6100.51811540653
 11
1705.64155623641
 21
-1268.72829343324
  0
LINE
  5
47C
100
AcDbEntity
  8
1
  6
CONTINUOUS
 62
           7
100
AcDbLine
 10
-5609.41921724425
 20
6100.51811540653
 11
1705.64155623641
 21
6100.51811540653
  0
LINE
  5
47B
100
AcDbEntity
  8
1
  6
PHANTOM
 62
           3
100
AcDbLine
 10
-559.07389318968
 20
-490.721529747791
 11
-771.244802148742
 21
-490.721529747791
  0
LINE
  5
47A
100
AcDbEntity
  8
1
  6
PHANTOM
 62
           3
100
AcDbLine
 10
-633.222532161378
 20
-502.72152974779
 11
-593.889198828045
 21
-502.72152974779
  0
LINE
  5
479
100
AcDbEntity
  8
1
  6
CONTINUOUS
 62
           2
100
AcDbLine
 10
-1692.824849268726
 20
4573.617309495492
 11
-1692.824849268726
 21
4427.617309495492
  0
LINE
  5
478
100
AcDbEntity
  8
1
  6
DOT_CENTER
 62
           3
100
AcDbLine
 10
-3605.717678743819
 20
3707.617309495482
 11
-3590.288725002029
 21
3707.617309495482
  0
LINE
  5
477
100
AcDbEntity
  8
1
  6
CONTINUOUS
 62
           2
100
AcDbLine
 10
-1892.024849268726
 20
4615.617309495479
 11
-2254.024849268727
 21
4615.617309495479
  0
LINE
  5
476
100
AcDbEntity
  8
1
  6
CONTINUOUS
 62
           2
100
AcDbLine
 10
-1654.024849268726
 20
910.478470252209
 11
-1654.024849268726
 21
-1037.92152974779
  0
LINE
  5
475
100
AcDbEntity
  8
1
  6
CONTINUOUS
 62
           2
100
AcDbLine
 10
-2054.024849268726
 20
612.07847025221
 11
-1654.024849268726
 21
612.07847025221
  0
LINE
  5
474
100
AcDbEntity
  8
1
  6
CONTINUOUS
 62
           2
100
AcDbLine
 10
-2254.024849268727
 20
5814.617413251217
 11
-4904.024849268727
 21
5814.617413251224
  0
LINE
  5
473
100
AcDbEntity
  8
1
  6
CONTINUOUS
 62
           2
100
AcDbLine
 10
-2254.024849268727
 20
5814.617413251217
 11
-2254.024849268727
 21
3738.61730949548
  0
LINE
  5
472
100
AcDbEntity
  8
1
  6
CONTINUOUS
 62
           3
100
AcDbLine
 10
1231.277467838621
 20
1465.078470252211
 11
1091.277467838621
 21
1465.078470252211
  0
LINE
  5
471
100
AcDbEntity
  8
1
  6
CONTINUOUS
 62
           2
100
AcDbLine
 10
1306.277467838621
 20
-1037.921529747788
 11
1306.277467838621
 21
1542.078470252209
  0
LINE
  5
470
100
AcDbEntity
  8
1
  6
CONTINUOUS
 62
           2
100
AcDbLine
 10
-4904.024849268727
 20
5814.617413251224
 11
-4904.024849268726
 21
3737.61730949548
  0
LINE
  5
46F
100
AcDbEntity
  8
1
  6
CONTINUOUS
 62
           3
100
AcDbLine
 10
-4829.024849268728
 20
5738.117413251217
 11
-4829.024849268726
 21
3739.617309495483
  0
LINE
  5
46E
100
AcDbEntity
  8
1
  6
CONTINUOUS
 62
           3
100
AcDbLine
 10
-2329.024849268727
 20
5738.117413251217
 11
-4829.024849268728
 21
5738.117413251217
  0
LINE
  5
46D
100
AcDbEntity
  8
1
  6
DOT_CENTER
 62
           3
100
AcDbLine
 10
481.277467838621
 20
1063.053587329656
 11
481.277467838621
 21
1512.799098501669
  0
LINE
  5
46C
100
AcDbEntity
  8
1
  6
CONTINUOUS
 62
           3
100
AcDbLine
 10
-4844.024849268726
 20
1089.07847025221
 11
-4844.024849268726
 21
1289.07847025221
  0
LINE
  5
46B
100
AcDbEntity
  8
1
  6
CONTINUOUS
 62
           3
100
AcDbLine
 10
-4844.024849268726
 20
424.07847025221
 11
-4844.024849268726
 21
624.07847025221
  0
LINE
  5
46A
100
AcDbEntity
  8
1
  6
CONTINUOUS
 62
           3
100
AcDbLine
 10
-4844.024849268726
 20
-240.92152974779
 11
-4844.024849268726
 21
-40.92152974779
  0
LINE
  5
469
100
AcDbEntity
  8
1
  6
CONTINUOUS
 62
           3
100
AcDbLine
 10
-4844.024849268726
 20
-905.92152974779
 11
-4844.024849268726
 21
-705.92152974779
  0
LINE
  5
468
100
AcDbEntity
  8
1
  6
CONTINUOUS
 62
           3
100
AcDbLine
 10
-2314.024849268727
 20
-705.92152974779
 11
-2314.024849268727
 21
-905.92152974779
  0
LINE
  5
467
100
AcDbEntity
  8
1
  6
CONTINUOUS
 62
           3
100
AcDbLine
 10
-2314.024849268727
 20
-40.92152974779
 11
-2314.024849268727
 21
-240.92152974779
  0
LINE
  5
466
100
AcDbEntity
  8
1
  6
CONTINUOUS
 62
           3
100
AcDbLine
 10
-2314.024849268727
 20
624.07847025221
 11
-2314.024849268727
 21
424.07847025221
  0
LINE
  5
465
100
AcDbEntity
  8
1
  6
CONTINUOUS
 62
           3
100
AcDbLine
 10
-2314.024849268727
 20
1289.07847025221
 11
-2314.024849268727
 21
1089.07847025221
  0
LINE
  5
464
100
AcDbEntity
  8
1
  6
CONTINUOUS
 62
           3
100
AcDbLine
 10
-4668.024849268726
 20
1189.07847025221
 11
-4668.024849268726
 21
1289.07847025221
  0
LINE
  5
463
100
AcDbEntity
  8
1
  6
CONTINUOUS
 62
           3
100
AcDbLine
 10
-4860.024849268726
 20
1089.07847025221
 11
-4860.024849268726
 21
1289.07847025221
  0
LINE
  5
462
100
AcDbEntity
  8
1
  6
CONTINUOUS
 62
           3
100
AcDbLine
 10
-4916.024849268726
 20
1089.07847025221
 11
-4916.024849268726
 21
1189.07847025221
  0
LINE
  5
461
100
AcDbEntity
  8
1
  6
CONTINUOUS
 62
           3
100
AcDbLine
 10
-4916.024849268726
 20
1189.07847025221
 11
-4668.024849268726
 21
1189.07847025221
  0
LINE
  5
460
100
AcDbEntity
  8
1
  6
CONTINUOUS
 62
           3
100
AcDbLine
 10
-4916.024849268726
 20
1089.07847025221
 11
-4844.024849268726
 21
1089.07847025221
  0
LINE
  5
45F
100
AcDbEntity
  8
1
  6
CONTINUOUS
 62
           3
100
AcDbLine
 10
-4860.024849268726
 20
1289.07847025221
 11
-4668.024849268726
 21
1289.07847025221
  0
LINE
  5
45E
100
AcDbEntity
  8
1
  6
CONTINUOUS
 62
           3
100
AcDbLine
 10
-2456.024849268727
 20
1289.07847025221
 11
-2456.024849268727
 21
1189.07847025221
  0
LINE
  5
45D
100
AcDbEntity
  8
1
  6
CONTINUOUS
 62
           3
100
AcDbLine
 10
-2298.024849268727
 20
1289.07847025221
 11
-2298.024849268727
 21
1089.07847025221
  0
LINE
  5
45C
100
AcDbEntity
  8
1
  6
CONTINUOUS
 62
           3
100
AcDbLine
 10
-2242.024849268727
 20
1189.07847025221
 11
-2242.024849268727
 21
1089.07847025221
  0
LINE
  5
45B
100
AcDbEntity
  8
1
  6
CONTINUOUS
 62
           3
100
AcDbLine
 10
-2314.024849268727
 20
1089.07847025221
 11
-2242.024849268727
 21
1089.07847025221
  0
LINE
  5
45A
100
AcDbEntity
  8
1
  6
CONTINUOUS
 62
           3
100
AcDbLine
 10
-2456.024849268727
 20
1189.07847025221
 11
-2242.024849268727
 21
1189.07847025221
  0
LINE
  5
459
100
AcDbEntity
  8
1
  6
CONTINUOUS
 62
           3
100
AcDbLine
 10
-2456.024849268727
 20
1289.07847025221
 11
-2298.024849268727
 21
1289.07847025221
  0
LINE
  5
458
100
AcDbEntity
  8
1
  6
CONTINUOUS
 62
           3
100
AcDbLine
 10
-3189.777551847118
 20
49.07847025221
 11
-3189.777551847118
 21
39.07847025221
  0
LINE
  5
457
100
AcDbEntity
  8
1
  6
CONTINUOUS
 62
           3
100
AcDbLine
 10
-3360.882352281419
 20
34.07847025221
 11
-3194.777551847118
 21
34.07847025221
  0
LINE
  5
456
100
AcDbEntity
  8
1
  6
CONTINUOUS
 62
           3
100
AcDbLine
 10
-3360.882352281419
 20
54.07847025221
 11
-3194.777551847118
 21
54.07847025221
  0
LINE
  5
455
100
AcDbEntity
  8
1
  6
CONTINUOUS
 62
           3
100
AcDbLine
 10
-3434.024849268727
 20
34.07847025221
 11
-3386.251202818999
 21
34.07847025221
  0
LINE
  5
454
100
AcDbEntity
  8
1
  6
CONTINUOUS
 62
           3
100
AcDbLine
 10
-3434.024849268727
 20
54.07847025221
 11
-3387.870491151179
 21
54.07847025221
  0
LINE
  5
453
100
AcDbEntity
  8
1
  6
CONTINUOUS
 62
           3
100
AcDbLine
 10
-3444.024849268727
 20
29.07847025221
 11
-3434.024849268727
 21
34.07847025221
  0
LINE
  5
452
100
AcDbEntity
  8
1
  6
CONTINUOUS
 62
           3
100
AcDbLine
 10
-3444.024849268727
 20
59.07847025221
 11
-3434.024849268727
 21
54.07847025221
  0
LINE
  5
451
100
AcDbEntity
  8
1
  6
CONTINUOUS
 62
           3
100
AcDbLine
 10
-3509.024849268727
 20
29.07847025221
 11
-3444.024849268727
 21
29.07847025221
  0
LINE
  5
450
100
AcDbEntity
  8
1
  6
CONTINUOUS
 62
           3
100
AcDbLine
 10
-3509.024849268727
 20
59.07847025221
 11
-3444.024849268727
 21
59.07847025221
  0
LINE
  5
44F
100
AcDbEntity
  8
1
  6
CONTINUOUS
 62
           3
100
AcDbLine
 10
-3384.024849268727
 20
24.07847025221
 11
-3384.024849268727
 21
84.07847025221
  0
LINE
  5
44E
100
AcDbEntity
  8
1
  6
CONTINUOUS
 62
           3
100
AcDbLine
 10
-3364.024849268727
 20
24.07847025221
 11
-3384.024849268727
 21
24.07847025221
  0
LINE
  5
44D
100
AcDbEntity
  8
1
  6
CONTINUOUS
 62
           3
100
AcDbLine
 10
-3364.024849268727
 20
84.07847025221
 11
-3364.024849268727
 21
24.07847025221
  0
LINE
  5
44C
100
AcDbEntity
  8
1
  6
CONTINUOUS
 62
           3
100
AcDbLine
 10
-3384.024849268727
 20
84.07847025221
 11
-3364.024849268727
 21
84.07847025221
  0
LINE
  5
44B
100
AcDbEntity
  8
1
  6
CONTINUOUS
 62
           3
100
AcDbLine
 10
-3539.024849268727
 20
1334.07847025221
 11
-3539.024849268727
 21
1416.57847025221
  0
LINE
  5
44A
100
AcDbEntity
  8
1
  6
CONTINUOUS
 62
           3
100
AcDbLine
 10
-3539.024849268727
 20
-878.92152974779
 11
-3539.024849268727
 21
1284.07847025221
  0
LINE
  5
449
100
AcDbEntity
  8
1
  6
CONTINUOUS
 62
           3
100
AcDbLine
 10
-3539.024849268727
 20
-928.92152974779
 11
-3539.024849268727
 21
-958.42152974779
  0
LINE
  5
448
100
AcDbEntity
  8
1
  6
CONTINUOUS
 62
           3
100
AcDbLine
 10
-3509.024849268727
 20
-928.92152974779
 11
-3509.024849268727
 21
-958.42152974779
  0
LINE
  5
447
100
AcDbEntity
  8
1
  6
CONTINUOUS
 62
           3
100
AcDbLine
 10
-3509.024849268727
 20
1284.07847025221
 11
-3509.024849268727
 21
-878.92152974779
  0
LINE
  5
446
100
AcDbEntity
  8
1
  6
CONTINUOUS
 62
           3
100
AcDbLine
 10
-3509.024849268727
 20
1416.57847025221
 11
-3509.024849268727
 21
1334.07847025221
  0
LINE
  5
445
100
AcDbEntity
  8
1
  6
CONTINUOUS
 62
           3
100
AcDbLine
 10
-3504.265510516128
 20
1439.469064473529
 11
-3504.265510516128
 21
1416.57847025221
  0
LINE
  5
444
100
AcDbEntity
  8
1
  6
CONTINUOUS
 62
           3
100
AcDbLine
 10
-3549.024849268727
 20
1416.57847025221
 11
-3504.265510516128
 21
1416.57847025221
  0
LINE
  5
443
100
AcDbEntity
  8
1
  6
CONTINUOUS
 62
           3
100
AcDbLine
 10
-3549.024849268727
 20
1439.469064473529
 11
-3504.265510516128
 21
1439.469064473529
  0
LINE
  5
442
100
AcDbEntity
  8
1
  6
CONTINUOUS
 62
           3
100
AcDbLine
 10
-3502.936758927559
 20
-958.42152974779
 11
-3502.936758927559
 21
-979.540872135301
  0
LINE
  5
441
100
AcDbEntity
  8
1
  6
CONTINUOUS
 62
           3
100
AcDbLine
 10
-3548.270533232246
 20
-979.540872135301
 11
-3502.936758927559
 21
-979.540872135301
  0
LINE
  5
440
100
AcDbEntity
  8
1
  6
CONTINUOUS
 62
           3
100
AcDbLine
 10
-3548.270533232246
 20
-958.42152974779
 11
-3502.936758927559
 21
-958.42152974779
  0
LINE
  5
43F
100
AcDbEntity
  8
1
  6
CONTINUOUS
 62
           2
100
AcDbLine
 10
-3505.59023319722
 20
-950.92152974779
 11
-2314.024849268727
 21
-950.92152974779
  0
LINE
  5
43E
100
AcDbEntity
  8
1
  6
CONTINUOUS
 62
           2
100
AcDbLine
 10
-3504.454213400469
 20
1404.07847025221
 11
-2314.024849268727
 21
1404.07847025221
  0
LINE
  5
43D
100
AcDbEntity
  8
1
  6
CONTINUOUS
 62
           3
100
AcDbLine
 10
-3549.024849268727
 20
1334.07847025221
 11
-3549.024849268727
 21
1324.07847025221
  0
LINE
  5
43C
100
AcDbEntity
  8
1
  6
CONTINUOUS
 62
           3
100
AcDbLine
 10
-3499.024849268727
 20
1334.07847025221
 11
-3499.024849268727
 21
1324.07847025221
  0
LINE
  5
43B
100
AcDbEntity
  8
1
  6
CONTINUOUS
 62
           3
100
AcDbLine
 10
-3549.024849268727
 20
1334.07847025221
 11
-3499.024849268727
 21
1334.07847025221
  0
LINE
  5
43A
100
AcDbEntity
  8
1
  6
CONTINUOUS
 62
           3
100
AcDbLine
 10
-3549.024849268727
 20
-918.92152974779
 11
-3549.024849268727
 21
-928.92152974779
  0
LINE
  5
439
100
AcDbEntity
  8
1
  6
CONTINUOUS
 62
           3
100
AcDbLine
 10
-3499.024849268727
 20
-918.92152974779
 11
-3499.024849268727
 21
-928.92152974779
  0
LINE
  5
438
100
AcDbEntity
  8
1
  6
CONTINUOUS
 62
           3
100
AcDbLine
 10
-3549.024849268727
 20
-928.92152974779
 11
-3499.024849268727
 21
-928.92152974779
  0
LINE
  5
437
100
AcDbEntity
  8
1
  6
CONTINUOUS
 62
           3
100
AcDbLine
 10
-3564.024849268727
 20
1324.07847025221
 11
-3564.024849268727
 21
1284.07847025221
  0
LINE
  5
436
100
AcDbEntity
  8
1
  6
CONTINUOUS
 62
           3
100
AcDbLine
 10
-3484.024849268727
 20
1324.07847025221
 11
-3484.024849268727
 21
1284.07847025221
  0
LINE
  5
435
100
AcDbEntity
  8
1
  6
CONTINUOUS
 62
           3
100
AcDbLine
 10
-3564.024849268727
 20
1284.07847025221
 11
-3484.024849268727
 21
1284.07847025221
  0
LINE
  5
434
100
AcDbEntity
  8
1
  6
CONTINUOUS
 62
           3
100
AcDbLine
 10
-3564.024849268727
 20
1324.07847025221
 11
-3484.024849268727
 21
1324.07847025221
  0
LINE
  5
433
100
AcDbEntity
  8
1
  6
CONTINUOUS
 62
           3
100
AcDbLine
 10
-3564.024849268727
 20
-35.92152974779
 11
-3564.024849268727
 21
-75.92152974779
  0
LINE
  5
432
100
AcDbEntity
  8
1
  6
CONTINUOUS
 62
           3
100
AcDbLine
 10
-3484.024849268727
 20
-35.92152974779
 11
-3484.024849268727
 21
-75.92152974779
  0
LINE
  5
431
100
AcDbEntity
  8
1
  6
CONTINUOUS
 62
           3
100
AcDbLine
 10
-3564.024849268727
 20
-75.92152974779
 11
-3484.024849268727
 21
-75.92152974779
  0
LINE
  5
430
100
AcDbEntity
  8
1
  6
CONTINUOUS
 62
           3
100
AcDbLine
 10
-3564.024849268727
 20
-35.92152974779
 11
-3484.024849268727
 21
-35.92152974779
  0
LINE
  5
42F
100
AcDbEntity
  8
1
  6
CONTINUOUS
 62
           3
100
AcDbLine
 10
-3564.024849268727
 20
-878.92152974779
 11
-3564.024849268727
 21
-918.92152974779
  0
LINE
  5
42E
100
AcDbEntity
  8
1
  6
CONTINUOUS
 62
           3
100
AcDbLine
 10
-3484.024849268727
 20
-878.92152974779
 11
-3484.024849268727
 21
-918.92152974779
  0
LINE
  5
42D
100
AcDbEntity
  8
1
  6
CONTINUOUS
 62
           3
100
AcDbLine
 10
-3564.024849268727
 20
-918.92152974779
 11
-3484.024849268727
 21
-918.92152974779
  0
LINE
  5
42C
100
AcDbEntity
  8
1
  6
CONTINUOUS
 62
           3
100
AcDbLine
 10
-3564.024849268727
 20
-878.92152974779
 11
-3484.024849268727
 21
-878.92152974779
  0
LINE
  5
42B
100
AcDbEntity
  8
1
  6
CONTINUOUS
 62
           2
100
AcDbLine
 10
-3579.024849268727
 20
-950.92152974779
 11
-3579.024849268727
 21
1404.07847025221
  0
LINE
  5
42A
100
AcDbEntity
  8
1
  6
CONTINUOUS
 62
           3
100
AcDbLine
 10
-3580.473716709229
 20
-951.950219530859
 11
-3580.473716709229
 21
-983.950219530859
  0
LINE
  5
429
100
AcDbEntity
  8
1
  6
CONTINUOUS
 62
           3
100
AcDbLine
 10
-3658.270533232246
 20
-951.950219530859
 11
-3658.270533232246
 21
-983.950219530859
  0
LINE
  5
428
100
AcDbEntity
  8
1
  6
CONTINUOUS
 62
           3
100
AcDbLine
 10
-3548.270533232246
 20
-951.950219530859
 11
-3548.270533232246
 21
-983.950219530859
  0
LINE
  5
427
100
AcDbEntity
  8
1
  6
CONTINUOUS
 62
           3
100
AcDbLine
 10
-3658.270533232246
 20
-983.950219530859
 11
-3548.270533232246
 21
-983.950219530859
  0
LINE
  5
426
100
AcDbEntity
  8
1
  6
CONTINUOUS
 62
           3
100
AcDbLine
 10
-3658.270533232246
 20
-951.950219530859
 11
-3548.270533232246
 21
-951.950219530859
  0
LINE
  5
425
100
AcDbEntity
  8
1
  6
CONTINUOUS
 62
           3
100
AcDbLine
 10
-3581.228032745709
 20
1444.50132951898
 11
-3581.228032745709
 21
1412.50132951898
  0
LINE
  5
424
100
AcDbEntity
  8
1
  6
CONTINUOUS
 62
           3
100
AcDbLine
 10
-3659.024849268727
 20
1444.50132951898
 11
-3659.024849268727
 21
1412.50132951898
  0
LINE
  5
423
100
AcDbEntity
  8
1
  6
CONTINUOUS
 62
           3
100
AcDbLine
 10
-3549.024849268727
 20
1444.50132951898
 11
-3549.024849268727
 21
1412.50132951898
  0
LINE
  5
422
100
AcDbEntity
  8
1
  6
CONTINUOUS
 62
           3
100
AcDbLine
 10
-3659.024849268727
 20
1412.50132951898
 11
-3549.024849268727
 21
1412.50132951898
  0
LINE
  5
421
100
AcDbEntity
  8
1
  6
CONTINUOUS
 62
           3
100
AcDbLine
 10
-3659.024849268727
 20
1444.50132951898
 11
-3549.024849268727
 21
1444.50132951898
  0
LINE
  5
420
100
AcDbEntity
  8
1
  6
CONTINUOUS
 62
           3
100
AcDbLine
 10
-3454.024849268727
 20
53.44647675916
 11
-3454.024849268727
 21
34.134289990259
  0
LINE
  5
41F
100
AcDbEntity
  8
1
  6
CONTINUOUS
 62
           3
100
AcDbLine
 10
-3669.024849268727
 20
-65.92152974779
 11
-3669.024849268727
 21
-85.92152974779
  0
LINE
  5
41E
100
AcDbEntity
  8
1
  6
CONTINUOUS
 62
           3
100
AcDbLine
 10
-3639.024849268727
 20
-65.92152974779
 11
-3639.024849268727
 21
-85.92152974779
  0
LINE
  5
41D
100
AcDbEntity
  8
1
  6
CONTINUOUS
 62
           3
100
AcDbLine
 10
-3669.024849268727
 20
-85.92152974779
 11
-3639.024849268727
 21
-85.92152974779
  0
LINE
  5
41C
100
AcDbEntity
  8
1
  6
CONTINUOUS
 62
           3
100
AcDbLine
 10
-3662.024849268727
 20
-55.92152974779
 11
-3669.024849268727
 21
-65.92152974779
  0
LINE
  5
41B
100
AcDbEntity
  8
1
  6
CONTINUOUS
 62
           3
100
AcDbLine
 10
-3646.024849268727
 20
-55.92152974779
 11
-3639.024849268727
 21
-65.92152974779
  0
LINE
  5
41A
100
AcDbEntity
  8
1
  6
CONTINUOUS
 62
           3
100
AcDbLine
 10
-3669.024849268727
 20
154.07847025221
 11
-3662.024849268727
 21
144.07847025221
  0
LINE
  5
419
100
AcDbEntity
  8
1
  6
CONTINUOUS
 62
           3
100
AcDbLine
 10
-3639.024849268727
 20
154.07847025221
 11
-3646.024849268727
 21
144.07847025221
  0
LINE
  5
418
100
AcDbEntity
  8
1
  6
CONTINUOUS
 62
           3
100
AcDbLine
 10
-3669.024849268727
 20
174.07847025221
 11
-3669.024849268727
 21
154.07847025221
  0
LINE
  5
417
100
AcDbEntity
  8
1
  6
CONTINUOUS
 62
           3
100
AcDbLine
 10
-3639.024849268727
 20
174.07847025221
 11
-3639.024849268727
 21
154.07847025221
  0
LINE
  5
416
100
AcDbEntity
  8
1
  6
CONTINUOUS
 62
           3
100
AcDbLine
 10
-3669.024849268727
 20
174.07847025221
 11
-3639.024849268727
 21
174.07847025221
  0
LINE
  5
415
100
AcDbEntity
  8
1
  6
DOT_CENTER
 62
           3
100
AcDbLine
 10
-3654.024849268727
 20
180.1456041815
 11
-3654.024849268727
 21
-94.503390263691
  0
LINE
  5
414
100
AcDbEntity
  8
1
  6
DOT_CENTER
 62
           3
100
AcDbLine
 10
-3520.109190129298
 20
44.07847025221
 11
-3186.68223315851
 21
44.07847025221
  0
LINE
  5
413
100
AcDbEntity
  8
1
  6
DOT_CENTER
 62
           3
100
AcDbLine
 10
-3679.834137253439
 20
44.07847025221
 11
-3630.163574428249
 21
44.07847025221
  0
LINE
  5
412
100
AcDbEntity
  8
1
  6
CONTINUOUS
 62
           3
100
AcDbLine
 10
-3662.024849268727
 20
-75.92152974779
 11
-3646.024849268727
 21
-75.92152974779
  0
LINE
  5
411
100
AcDbEntity
  8
1
  6
CONTINUOUS
 62
           3
100
AcDbLine
 10
-3662.024849268727
 20
164.07847025221
 11
-3646.024849268727
 21
164.07847025221
  0
LINE
  5
410
100
AcDbEntity
  8
1
  6
CONTINUOUS
 62
           3
100
AcDbLine
 10
-3662.024849268727
 20
164.07847025221
 11
-3662.024849268727
 21
-75.92152974779
  0
LINE
  5
40F
100
AcDbEntity
  8
1
  6
CONTINUOUS
 62
           3
100
AcDbLine
 10
-3646.024849268727
 20
164.07847025221
 11
-3646.024849268727
 21
-75.92152974779
  0
LINE
  5
40E
100
AcDbEntity
  8
1
  6
CONTINUOUS
 62
           2
100
AcDbLine
 10
-4844.024849268726
 20
-950.92152974779
 11
-3543.24671093141
 21
-950.92152974779
  0
LINE
  5
40D
100
AcDbEntity
  8
1
  6
CONTINUOUS
 62
           2
100
AcDbLine
 10
-4844.024849268726
 20
1404.07847025221
 11
-3546.884586693819
 21
1404.07847025221
  0
LINE
  5
40C
100
AcDbEntity
  8
1
  6
CONTINUOUS
 62
           2
100
AcDbLine
 10
-2314.024849268727
 20
1404.07847025221
 11
-2314.024849268727
 21
-1037.92152974779
  0
LINE
  5
40B
100
AcDbEntity
  8
1
  6
CONTINUOUS
 62
           2
100
AcDbLine
 10
-4844.024849268726
 20
1404.07847025221
 11
-4844.024849268726
 21
-1037.92152974779
  0
LINE
  5
40A
100
AcDbEntity
  8
1
  6
CONTINUOUS
 62
           3
100
AcDbLine
 10
-4668.024849268726
 20
-140.92152974779
 11
-4668.024849268726
 21
-40.92152974779
  0
LINE
  5
409
100
AcDbEntity
  8
1
  6
CONTINUOUS
 62
           3
100
AcDbLine
 10
-4860.024849268726
 20
-240.92152974779
 11
-4860.024849268726
 21
-40.92152974779
  0
LINE
  5
408
100
AcDbEntity
  8
1
  6
CONTINUOUS
 62
           3
100
AcDbLine
 10
-4916.024849268726
 20
-240.92152974779
 11
-4916.024849268726
 21
-140.92152974779
  0
LINE
  5
407
100
AcDbEntity
  8
1
  6
CONTINUOUS
 62
           3
100
AcDbLine
 10
-4916.024849268726
 20
-140.92152974779
 11
-4668.024849268726
 21
-140.92152974779
  0
LINE
  5
406
100
AcDbEntity
  8
1
  6
CONTINUOUS
 62
           3
100
AcDbLine
 10
-4916.024849268726
 20
-240.92152974779
 11
-4844.024849268726
 21
-240.92152974779
  0
LINE
  5
405
100
AcDbEntity
  8
1
  6
CONTINUOUS
 62
           3
100
AcDbLine
 10
-4860.024849268726
 20
-40.92152974779
 11
-4668.024849268726
 21
-40.92152974779
  0
LINE
  5
404
100
AcDbEntity
  8
1
  6
CONTINUOUS
 62
           3
100
AcDbLine
 10
-4668.024849268726
 20
-805.92152974779
 11
-4668.024849268726
 21
-705.92152974779
  0
LINE
  5
403
100
AcDbEntity
  8
1
  6
CONTINUOUS
 62
           3
100
AcDbLine
 10
-4860.024849268726
 20
-905.92152974779
 11
-4860.024849268726
 21
-705.92152974779
  0
LINE
  5
402
100
AcDbEntity
  8
1
  6
CONTINUOUS
 62
           3
100
AcDbLine
 10
-4916.024849268726
 20
-905.92152974779
 11
-4916.024849268726
 21
-805.92152974779
  0
LINE
  5
401
100
AcDbEntity
  8
1
  6
CONTINUOUS
 62
           3
100
AcDbLine
 10
-4916.024849268726
 20
-905.92152974779
 11
-4844.024849268726
 21
-905.92152974779
  0
LINE
  5
400
100
AcDbEntity
  8
1
  6
CONTINUOUS
 62
           3
100
AcDbLine
 10
-4916.024849268726
 20
-805.92152974779
 11
-4668.024849268726
 21
-805.92152974779
  0
LINE
  5
3FF
100
AcDbEntity
  8
1
  6
CONTINUOUS
 62
           3
100
AcDbLine
 10
-4860.024849268726
 20
-705.92152974779
 11
-4668.024849268726
 21
-705.92152974779
  0
LINE
  5
3FE
100
AcDbEntity
  8
1
  6
CONTINUOUS
 62
           3
100
AcDbLine
 10
-2456.024849268727
 20
-40.92152974779
 11
-2456.024849268727
 21
-140.92152974779
  0
LINE
  5
3FD
100
AcDbEntity
  8
1
  6
CONTINUOUS
 62
           3
100
AcDbLine
 10
-2298.024849268727
 20
-40.92152974779
 11
-2298.024849268727
 21
-240.92152974779
  0
LINE
  5
3FC
100
AcDbEntity
  8
1
  6
CONTINUOUS
 62
           3
100
AcDbLine
 10
-2242.024849268727
 20
-140.92152974779
 11
-2242.024849268727
 21
-240.92152974779
  0
LINE
  5
3FB
100
AcDbEntity
  8
1
  6
CONTINUOUS
 62
           3
100
AcDbLine
 10
-2314.024849268727
 20
-240.92152974779
 11
-2242.024849268727
 21
-240.92152974779
  0
LINE
  5
3FA
100
AcDbEntity
  8
1
  6
CONTINUOUS
 62
           3
100
AcDbLine
 10
-2456.024849268727
 20
-140.92152974779
 11
-2242.024849268727
 21
-140.92152974779
  0
LINE
  5
3F9
100
AcDbEntity
  8
1
  6
CONTINUOUS
 62
           3
100
AcDbLine
 10
-2456.024849268727
 20
-40.92152974779
 11
-2298.024849268727
 21
-40.92152974779
  0
LINE
  5
3F8
100
AcDbEntity
  8
1
  6
CONTINUOUS
 62
           3
100
AcDbLine
 10
-2456.024849268727
 20
-705.92152974779
 11
-2456.024849268727
 21
-805.92152974779
  0
LINE
  5
3F7
100
AcDbEntity
  8
1
  6
CONTINUOUS
 62
           3
100
AcDbLine
 10
-2298.024849268727
 20
-705.92152974779
 11
-2298.024849268727
 21
-905.92152974779
  0
LINE
  5
3F6
100
AcDbEntity
  8
1
  6
CONTINUOUS
 62
           3
100
AcDbLine
 10
-2242.024849268727
 20
-805.92152974779
 11
-2242.024849268727
 21
-905.921529747791
  0
LINE
  5
3F5
100
AcDbEntity
  8
1
  6
CONTINUOUS
 62
           3
100
AcDbLine
 10
-2314.024849268727
 20
-905.92152974779
 11
-2242.024849268727
 21
-905.921529747791
  0
LINE
  5
3F4
100
AcDbEntity
  8
1
  6
CONTINUOUS
 62
           3
100
AcDbLine
 10
-2456.024849268727
 20
-805.92152974779
 11
-2242.024849268727
 21
-805.92152974779
  0
LINE
  5
3F3
100
AcDbEntity
  8
1
  6
CONTINUOUS
 62
           3
100
AcDbLine
 10
-2456.024849268727
 20
-705.92152974779
 11
-2298.024849268727
 21
-705.92152974779
  0
LINE
  5
3F2
100
AcDbEntity
  8
1
  6
CONTINUOUS
 62
           3
100
AcDbLine
 10
-2456.024849268727
 20
624.07847025221
 11
-2456.024849268727
 21
524.07847025221
  0
LINE
  5
3F1
100
AcDbEntity
  8
1
  6
CONTINUOUS
 62
           3
100
AcDbLine
 10
-2298.024849268727
 20
624.07847025221
 11
-2298.024849268727
 21
424.07847025221
  0
LINE
  5
3F0
100
AcDbEntity
  8
1
  6
CONTINUOUS
 62
           3
100
AcDbLine
 10
-2242.024849268727
 20
524.07847025221
 11
-2242.024849268727
 21
424.07847025221
  0
LINE
  5
3EF
100
AcDbEntity
  8
1
  6
CONTINUOUS
 62
           3
100
AcDbLine
 10
-2314.024849268727
 20
424.07847025221
 11
-2242.024849268727
 21
424.07847025221
  0
LINE
  5
3EE
100
AcDbEntity
  8
1
  6
CONTINUOUS
 62
           3
100
AcDbLine
 10
-2456.024849268727
 20
524.07847025221
 11
-2242.024849268727
 21
524.07847025221
  0
LINE
  5
3ED
100
AcDbEntity
  8
1
  6
CONTINUOUS
 62
           3
100
AcDbLine
 10
-2456.024849268727
 20
624.07847025221
 11
-2298.024849268727
 21
624.07847025221
  0
LINE
  5
3EC
100
AcDbEntity
  8
1
  6
CONTINUOUS
 62
           3
100
AcDbLine
 10
-4668.024849268726
 20
524.07847025221
 11
-4668.024849268726
 21
624.07847025221
  0
LINE
  5
3EB
100
AcDbEntity
  8
1
  6
CONTINUOUS
 62
           3
100
AcDbLine
 10
-4860.024849268726
 20
424.07847025221
 11
-4860.024849268726
 21
624.07847025221
  0
LINE
  5
3EA
100
AcDbEntity
  8
1
  6
CONTINUOUS
 62
           3
100
AcDbLine
 10
-4916.024849268726
 20
424.07847025221
 11
-4916.024849268726
 21
524.07847025221
  0
LINE
  5
3E9
100
AcDbEntity
  8
1
  6
CONTINUOUS
 62
           3
100
AcDbLine
 10
-4916.024849268726
 20
424.07847025221
 11
-4844.024849268726
 21
424.07847025221
  0
LINE
  5
3E8
100
AcDbEntity
  8
1
  6
CONTINUOUS
 62
           3
100
AcDbLine
 10
-4916.024849268726
 20
524.07847025221
 11
-4668.024849268726
 21
524.07847025221
  0
LINE
  5
3E7
100
AcDbEntity
  8
1
  6
CONTINUOUS
 62
           3
100
AcDbLine
 10
-4860.024849268726
 20
624.07847025221
 11
-4668.024849268726
 21
624.07847025221
  0
LINE
  5
3E6
100
AcDbEntity
  8
1
  6
CONTINUOUS
 62
           2
100
AcDbLine
 10
-2254.024849268727
 20
1612.078470252209
 11
-1894.024849268726
 21
1612.078470252209
  0
LINE
  5
3E5
100
AcDbEntity
  8
1
  6
CONTINUOUS
 62
           2
100
AcDbLine
 10
106.277467838621
 20
1614.078470252209
 11
106.277467838621
 21
1272.848962055488
  0
LINE
  5
3E4
100
AcDbEntity
  8
1
  6
CONTINUOUS
 62
           2
100
AcDbLine
 10
771.277467838621
 20
1614.078470252209
 11
106.277467838621
 21
1614.078470252209
  0
LINE
  5
3E3
100
AcDbEntity
  8
1
  6
CONTINUOUS
 62
           2
100
AcDbLine
 10
771.277467838621
 20
914.078470252209
 11
771.277467838621
 21
1614.078470252209
  0
LINE
  5
3E2
100
AcDbEntity
  8
1
  6
CONTINUOUS
 62
           3
100
AcDbLine
 10
731.277467838621
 20
987.478470252208
 11
-168.722532161379
 21
987.478470252208
  0
LINE
  5
3E1
100
AcDbEntity
  8
1
  6
CONTINUOUS
 62
           3
100
AcDbLine
 10
-168.722532161379
 20
915.678470252209
 11
731.277467838621
 21
915.678470252209
  0
LINE
  5
3E0
100
AcDbEntity
  8
1
  6
CONTINUOUS
 62
           2
100
AcDbLine
 10
-138.722532161379
 20
989.078470252209
 11
-138.722532161379
 21
1179.078470252209
  0
LINE
  5
3DF
100
AcDbEntity
  8
1
  6
CONTINUOUS
 62
           2
100
AcDbLine
 10
-138.722532161379
 20
1179.078470252209
 11
-98.722532161379
 21
1219.078470252209
  0
LINE
  5
3DE
100
AcDbEntity
  8
1
  6
CONTINUOUS
 62
           2
100
AcDbLine
 10
-98.722532161379
 20
1219.078470252209
 11
511.277467838621
 21
1379.078470252209
  0
LINE
  5
3DD
100
AcDbEntity
  8
1
  6
CONTINUOUS
 62
           2
100
AcDbLine
 10
511.277467838621
 20
1379.078470252209
 11
591.277467838621
 21
1299.078470252209
  0
LINE
  5
3DC
100
AcDbEntity
  8
1
  6
CONTINUOUS
 62
           2
100
AcDbLine
 10
591.277467838621
 20
1299.078470252209
 11
591.277467838621
 21
989.078470252209
  0
LINE
  5
3DB
100
AcDbEntity
  8
1
  6
PHANTOM
 62
           3
100
AcDbLine
 10
23.554165236461
 20
1028.698003252539
 11
500.958380886086
 21
1233.114770862168
  0
LINE
  5
3DA
100
AcDbEntity
  8
1
  6
PHANTOM
 62
           3
100
AcDbLine
 10
-31.500587025284
 20
1182.851309585419
 11
467.388409994779
 21
1327.110689357829
  0
LINE
  5
3D9
100
AcDbEntity
  8
1
  6
CONTINUOUS
 62
           2
100
AcDbLine
 10
591.277467838621
 20
1236.078470252209
 11
691.277467838621
 21
989.078470252209
  0
LINE
  5
3D8
100
AcDbEntity
  8
1
  6
DOT_CENTER
 62
           3
100
AcDbLine
 10
227.980308040928
 20
1279.078470252209
 11
681.54661048414
 21
1279.078470252209
  0
LINE
  5
3D7
100
AcDbEntity
  8
1
  6
CONTINUOUS
 62
           2
100
AcDbLine
 10
731.277467838621
 20
989.078470252209
 11
-168.722532161379
 21
989.078470252209
  0
LINE
  5
3D6
100
AcDbEntity
  8
1
  6
CONTINUOUS
 62
           2
100
AcDbLine
 10
-168.722532161379
 20
989.078470252209
 11
-168.722532161379
 21
914.078470252209
  0
LINE
  5
3D5
100
AcDbEntity
  8
1
  6
DOT_CENTER
 62
           3
100
AcDbLine
 10
-8.722532161379
 20
990.958470252208
 11
-8.722532161379
 21
1217.198470252209
  0
LINE
  5
3D4
100
AcDbEntity
  8
1
  6
DOT_CENTER
 62
           3
100
AcDbLine
 10
-107.86210320512
 20
1104.078470252209
 11
91.246127558042
 21
1104.078470252209
  0
LINE
  5
3D3
100
AcDbEntity
  8
1
  6
CONTINUOUS
 62
           2
100
AcDbLine
 10
836.277467838621
 20
1434.07847025221
 11
836.277467838621
 21
1124.07847025221
  0
LINE
  5
3D2
100
AcDbEntity
  8
1
  6
CONTINUOUS
 62
           2
100
AcDbLine
 10
1146.277467838621
 20
1124.07847025221
 11
836.277467838621
 21
1124.07847025221
  0
LINE
  5
3D1
100
AcDbEntity
  8
1
  6
CONTINUOUS
 62
           2
100
AcDbLine
 10
836.277467838621
 20
1434.07847025221
 11
1146.277467838621
 21
1434.07847025221
  0
LINE
  5
3D0
100
AcDbEntity
  8
1
  6
CONTINUOUS
 62
           2
100
AcDbLine
 10
1146.277467838621
 20
1434.07847025221
 11
1146.277467838621
 21
1124.07847025221
  0
LINE
  5
3CF
100
AcDbEntity
  8
1
  6
CONTINUOUS
 62
           2
100
AcDbLine
 10
866.277467838621
 20
1404.07847025221
 11
1116.277467838621
 21
1404.07847025221
  0
LINE
  5
3CE
100
AcDbEntity
  8
1
  6
CONTINUOUS
 62
           2
100
AcDbLine
 10
1116.277467838621
 20
1404.07847025221
 11
1116.277467838621
 21
1154.07847025221
  0
LINE
  5
3CD
100
AcDbEntity
  8
1
  6
CONTINUOUS
 62
           2
100
AcDbLine
 10
1116.277467838621
 20
1154.07847025221
 11
866.277467838623
 21
1154.07847025221
  0
LINE
  5
3CC
100
AcDbEntity
  8
1
  6
CONTINUOUS
 62
           2
100
AcDbLine
 10
866.277467838621
 20
1404.07847025221
 11
866.277467838623
 21
1154.07847025221
  0
LINE
  5
3CB
100
AcDbEntity
  8
1
  6
DOT_CENTER
 62
           3
100
AcDbLine
 10
798.231626984061
 20
1279.07847025221
 11
1176.606585042211
 21
1279.07847025221
  0
LINE
  5
3CA
100
AcDbEntity
  8
1
  6
DOT_CENTER
 62
           3
100
AcDbLine
 10
991.277467838621
 20
1089.514531045072
 11
991.277467838621
 21
1683.657412306416
  0
LINE
  5
3C9
100
AcDbEntity
  8
1
  6
CONTINUOUS
 62
           2
100
AcDbLine
 10
891.277467838621
 20
1434.07847025221
 11
891.277467838621
 21
1569.078470252212
  0
LINE
  5
3C8
100
AcDbEntity
  8
1
  6
CONTINUOUS
 62
           2
100
AcDbLine
 10
891.277467838621
 20
1599.078470252212
 11
1091.277467838621
 21
1599.078470252212
  0
LINE
  5
3C7
100
AcDbEntity
  8
1
  6
CONTINUOUS
 62
           2
100
AcDbLine
 10
1091.277467838621
 20
1599.078470252212
 11
1121.277467838621
 21
1599.078470252212
  0
LINE
  5
3C6
100
AcDbEntity
  8
1
  6
CONTINUOUS
 62
           2
100
AcDbLine
 10
1118.277467838621
 20
1596.078470252212
 11
1097.277467838621
 21
1596.078470252212
  0
LINE
  5
3C5
100
AcDbEntity
  8
1
  6
CONTINUOUS
 62
           2
100
AcDbLine
 10
1094.277467838621
 20
1593.078470252212
 11
1094.277467838621
 21
1572.078470252212
  0
LINE
  5
3C4
100
AcDbEntity
  8
1
  6
CONTINUOUS
 62
           2
100
AcDbLine
 10
1091.277467838621
 20
1569.078470252212
 11
891.277467838621
 21
1569.078470252212
  0
LINE
  5
3C3
100
AcDbEntity
  8
1
  6
CONTINUOUS
 62
           2
100
AcDbLine
 10
888.277467838621
 20
1572.078470252212
 11
888.277467838621
 21
1593.078470252212
  0
LINE
  5
3C2
100
AcDbEntity
  8
1
  6
CONTINUOUS
 62
           2
100
AcDbLine
 10
885.277467838621
 20
1596.078470252212
 11
864.277467838621
 21
1596.078470252212
  0
LINE
  5
3C1
100
AcDbEntity
  8
1
  6
CONTINUOUS
 62
           2
100
AcDbLine
 10
861.277467838621
 20
1599.078470252212
 11
891.277467838621
 21
1599.078470252212
  0
LINE
  5
3C0
100
AcDbEntity
  8
1
  6
CONTINUOUS
 62
           3
100
AcDbLine
 10
885.277467838621
 20
1596.078470252212
 11
1097.277467838621
 21
1596.078470252212
  0
LINE
  5
3BF
100
AcDbEntity
  8
1
  6
CONTINUOUS
 62
           2
100
AcDbLine
 10
1091.277467838621
 20
1569.078470252212
 11
1091.277467838621
 21
1434.07847025221
  0
LINE
  5
3BE
100
AcDbEntity
  8
1
  6
CONTINUOUS
 62
           2
100
AcDbLine
 10
1097.277467838621
 20
1602.078470252212
 11
1118.277467838621
 21
1602.078470252212
  0
LINE
  5
3BD
100
AcDbEntity
  8
1
  6
CONTINUOUS
 62
           2
100
AcDbLine
 10
1094.277467838621
 20
1626.078470252212
 11
1094.277467838621
 21
1605.078470252212
  0
LINE
  5
3BC
100
AcDbEntity
  8
1
  6
CONTINUOUS
 62
           2
100
AcDbLine
 10
891.277467838621
 20
1629.078470252212
 11
1091.277467838621
 21
1629.078470252212
  0
LINE
  5
3BB
100
AcDbEntity
  8
1
  6
CONTINUOUS
 62
           2
100
AcDbLine
 10
888.277467838621
 20
1605.078470252212
 11
888.277467838621
 21
1626.078470252212
  0
LINE
  5
3BA
100
AcDbEntity
  8
1
  6
CONTINUOUS
 62
           2
100
AcDbLine
 10
864.277467838621
 20
1602.078470252212
 11
885.277467838621
 21
1602.078470252212
  0
LINE
  5
3B9
100
AcDbEntity
  8
1
  6
CONTINUOUS
 62
           3
100
AcDbLine
 10
1097.277467838621
 20
1602.078470252212
 11
885.277467838621
 21
1602.078470252212
  0
LINE
  5
3B8
100
AcDbEntity
  8
1
  6
DOT_CENTER
 62
           3
100
AcDbLine
 10
318.277467838623
 20
1037.963717987508
 11
318.277467838623
 21
945.727789092427
  0
LINE
  5
3B7
100
AcDbEntity
  8
1
  6
CONTINUOUS
 62
           2
100
AcDbLine
 10
-1654.024849268726
 20
910.478470252209
 11
-2229.024849268727
 21
910.478470252209
  0
LINE
  5
3B6
100
AcDbEntity
  8
1
  6
CONTINUOUS
 62
           2
100
AcDbLine
 10
-1894.024849268726
 20
1612.078470252209
 11
-1894.024849268726
 21
1404.078470252209
  0
LINE
  5
3B5
100
AcDbEntity
  8
1
  6
CONTINUOUS
 62
           2
100
AcDbLine
 10
-1894.024849268726
 20
1404.078470252209
 11
-1894.024849268726
 21
989.078470252209
  0
LINE
  5
3B4
100
AcDbEntity
  8
1
  6
CONTINUOUS
 62
           2
100
AcDbLine
 10
-1894.024849268726
 20
1294.078470252209
 11
-1871.056099268726
 21
1294.078470252209
  0
LINE
  5
3B3
100
AcDbEntity
  8
1
  6
PHANTOM
 62
           3
100
AcDbLine
 10
-1664.024849268726
 20
1236.078470252209
 11
-1664.024849268726
 21
1379.078470252209
  0
LINE
  5
3B2
100
AcDbEntity
  8
1
  6
PHANTOM
 62
           3
100
AcDbLine
 10
-1664.024849268726
 20
1379.078470252209
 11
-1584.024849268726
 21
1379.078470252209
  0
LINE
  5
3B1
100
AcDbEntity
  8
1
  6
PHANTOM
 62
           3
100
AcDbLine
 10
-1584.024849268726
 20
1379.078470252209
 11
-1584.024849268726
 21
989.078470252209
  0
LINE
  5
3B0
100
AcDbEntity
  8
1
  6
PHANTOM
 62
           3
100
AcDbLine
 10
-1584.024849268726
 20
989.078470252209
 11
-1654.024849268726
 21
989.078470252209
  0
LINE
  5
3AF
100
AcDbEntity
  8
1
  6
CONTINUOUS
 62
           2
100
AcDbLine
 10
-1674.649849268726
 20
1264.078470252209
 11
-1624.024849268726
 21
1264.078470252209
  0
LINE
  5
3AE
100
AcDbEntity
  8
1
  6
CONTINUOUS
 62
           2
100
AcDbLine
 10
-1624.024849268726
 20
1264.078470252209
 11
-1624.024849268726
 21
1294.078470252209
  0
LINE
  5
3AD
100
AcDbEntity
  8
1
  6
CONTINUOUS
 62
           2
100
AcDbLine
 10
-1624.024849268726
 20
1294.078470252209
 11
-1676.993599268726
 21
1294.078470252209
  0
LINE
  5
3AC
100
AcDbEntity
  8
1
  6
DOT_CENTER
 62
           3
100
AcDbLine
 10
-1634.024849268726
 20
1329.078470252209
 11
-1634.024849268726
 21
1022.078470252209
  0
LINE
  5
3AB
100
AcDbEntity
  8
1
  6
DOT_CENTER
 62
           3
100
AcDbLine
 10
-1644.024849268726
 20
1022.078470252209
 11
-1644.024849268726
 21
1329.078470252209
  0
LINE
  5
3AA
100
AcDbEntity
  8
1
  6
PHANTOM
 62
           3
100
AcDbLine
 10
-1624.024849268726
 20
1186.078470252209
 11
-1624.024849268726
 21
1022.078470252209
  0
LINE
  5
3A9
100
AcDbEntity
  8
1
  6
PHANTOM
 62
           3
100
AcDbLine
 10
-1624.024849268726
 20
1022.078470252209
 11
-1654.024849268726
 21
1022.078470252209
  0
LINE
  5
3A8
100
AcDbEntity
  8
1
  6
PHANTOM
 62
           3
100
AcDbLine
 10
-1654.024849268726
 20
1022.078470252209
 11
-1654.024849268726
 21
1186.078470252209
  0
LINE
  5
3A7
100
AcDbEntity
  8
1
  6
PHANTOM
 62
           3
100
AcDbLine
 10
-1654.024849268726
 20
1186.078470252209
 11
-1624.024849268726
 21
1186.078470252209
  0
LINE
  5
3A6
100
AcDbEntity
  8
1
  6
PHANTOM
 62
           3
100
AcDbLine
 10
-1654.024849268726
 20
1329.078470252209
 11
-1654.024849268726
 21
1229.078470252209
  0
LINE
  5
3A5
100
AcDbEntity
  8
1
  6
PHANTOM
 62
           3
100
AcDbLine
 10
-1654.024849268726
 20
1229.078470252209
 11
-1624.024849268726
 21
1229.078470252209
  0
LINE
  5
3A4
100
AcDbEntity
  8
1
  6
PHANTOM
 62
           3
100
AcDbLine
 10
-1624.024849268726
 20
1229.078470252209
 11
-1624.024849268726
 21
1329.078470252209
  0
LINE
  5
3A3
100
AcDbEntity
  8
1
  6
PHANTOM
 62
           3
100
AcDbLine
 10
-1624.024849268726
 20
1329.078470252209
 11
-1654.024849268726
 21
1329.078470252209
  0
LINE
  5
3A2
100
AcDbEntity
  8
1
  6
CONTINUOUS
 62
           2
100
AcDbLine
 10
-1669.024849268726
 20
989.078470252209
 11
-1669.024849268726
 21
1024.078470252209
  0
LINE
  5
3A1
100
AcDbEntity
  8
1
  6
CONTINUOUS
 62
           2
100
AcDbLine
 10
-1669.024849268726
 20
1024.078470252209
 11
-1869.024849268726
 21
1024.078470252209
  0
LINE
  5
3A0
100
AcDbEntity
  8
1
  6
CONTINUOUS
 62
           2
100
AcDbLine
 10
-1869.024849268726
 20
1024.078470252209
 11
-1869.024849268726
 21
989.078470252209
  0
LINE
  5
39F
100
AcDbEntity
  8
1
  6
CONTINUOUS
 62
           2
100
AcDbLine
 10
-1664.024849268726
 20
989.078470252209
 11
-1664.024849268726
 21
1094.578470252209
  0
LINE
  5
39E
100
AcDbEntity
  8
1
  6
CONTINUOUS
 62
           2
100
AcDbLine
 10
-1664.024849268726
 20
1115.592348440868
 11
-1664.024849268726
 21
1236.078470252209
  0
LINE
  5
39D
100
AcDbEntity
  8
1
  6
CONTINUOUS
 62
           2
100
AcDbLine
 10
-1884.024849268726
 20
1042.525838673258
 11
-1884.024849268726
 21
989.078470252209
  0
LINE
  5
39C
100
AcDbEntity
  8
1
  6
CONTINUOUS
 62
           2
100
AcDbLine
 10
-1884.024849268726
 20
1169.404986639626
 11
-1884.024849268726
 21
1236.078470252209
  0
LINE
  5
39B
100
AcDbEntity
  8
1
  6
CONTINUOUS
 62
           2
100
AcDbLine
 10
-1713.399849268726
 20
1264.078470252209
 11
-1834.649849268726
 21
1264.078470252209
  0
LINE
  5
39A
100
AcDbEntity
  8
1
  6
CONTINUOUS
 62
           2
100
AcDbLine
 10
-1874.024849268726
 20
1264.078470252209
 11
-1894.024849268726
 21
1264.078470252209
  0
LINE
  5
399
100
AcDbEntity
  8
1
  6
CONTINUOUS
 62
           2
100
AcDbLine
 10
-1836.993599268726
 20
1294.078470252209
 11
-1711.056099268726
 21
1294.078470252209
  0
LINE
  5
398
100
AcDbEntity
  8
1
  6
CONTINUOUS
 62
           2
100
AcDbLine
 10
-1714.024849268726
 20
1256.078470252209
 11
-1709.024849268726
 21
1320.078470252209
  0
LINE
  5
397
100
AcDbEntity
  8
1
  6
CONTINUOUS
 62
           2
100
AcDbLine
 10
-1709.024849268726
 20
1320.078470252209
 11
-1679.024849268726
 21
1320.078470252209
  0
LINE
  5
396
100
AcDbEntity
  8
1
  6
CONTINUOUS
 62
           2
100
AcDbLine
 10
-1679.024849268726
 20
1320.078470252209
 11
-1674.024849268726
 21
1256.078470252209
  0
LINE
  5
395
100
AcDbEntity
  8
1
  6
CONTINUOUS
 62
           2
100
AcDbLine
 10
-1718.024849268726
 20
1236.078470252209
 11
-1718.024849268726
 21
1256.078470252209
  0
LINE
  5
394
100
AcDbEntity
  8
1
  6
CONTINUOUS
 62
           2
100
AcDbLine
 10
-1718.024849268726
 20
1256.078470252209
 11
-1670.024849268726
 21
1256.078470252209
  0
LINE
  5
393
100
AcDbEntity
  8
1
  6
CONTINUOUS
 62
           2
100
AcDbLine
 10
-1670.024849268726
 20
1256.078470252209
 11
-1670.024849268726
 21
1236.078470252209
  0
LINE
  5
392
100
AcDbEntity
  8
1
  6
CONTINUOUS
 62
           2
100
AcDbLine
 10
-1874.024849268726
 20
1256.078470252209
 11
-1869.024849268726
 21
1320.078470252209
  0
LINE
  5
391
100
AcDbEntity
  8
1
  6
CONTINUOUS
 62
           2
100
AcDbLine
 10
-1869.024849268726
 20
1320.078470252209
 11
-1839.024849268726
 21
1320.078470252209
  0
LINE
  5
390
100
AcDbEntity
  8
1
  6
CONTINUOUS
 62
           2
100
AcDbLine
 10
-1839.024849268726
 20
1320.078470252209
 11
-1834.024849268726
 21
1256.078470252209
  0
LINE
  5
38F
100
AcDbEntity
  8
1
  6
CONTINUOUS
 62
           2
100
AcDbLine
 10
-1878.024849268726
 20
1236.078470252209
 11
-1878.024849268726
 21
1256.078470252209
  0
LINE
  5
38E
100
AcDbEntity
  8
1
  6
CONTINUOUS
 62
           2
100
AcDbLine
 10
-1878.024849268726
 20
1256.078470252209
 11
-1830.024849268726
 21
1256.078470252209
  0
LINE
  5
38D
100
AcDbEntity
  8
1
  6
CONTINUOUS
 62
           2
100
AcDbLine
 10
-1830.024849268726
 20
1256.078470252209
 11
-1830.024849268726
 21
1236.078470252209
  0
LINE
  5
38C
100
AcDbEntity
  8
1
  6
CONTINUOUS
 62
           2
100
AcDbLine
 10
-1664.024849268726
 20
1236.078470252209
 11
-1884.024849268726
 21
1236.078470252209
  0
LINE
  5
38B
100
AcDbEntity
  8
1
  6
DOT_CENTER
 62
           3
100
AcDbLine
 10
-2242.006780193377
 20
1279.078470252209
 11
-1581.373602072685
 21
1279.078470252209
  0
LINE
  5
38A
100
AcDbEntity
  8
1
  6
CONTINUOUS
 62
           2
100
AcDbLine
 10
-1654.024849268726
 20
989.078470252209
 11
-2159.024849268727
 21
989.078470252209
  0
LINE
  5
389
100
AcDbEntity
  8
1
  6
CONTINUOUS
 62
           3
100
AcDbLine
 10
-1654.024849268726
 20
987.478470252208
 11
-1654.024849268726
 21
989.078470252209
  0
LINE
  5
388
100
AcDbEntity
  8
1
  6
CONTINUOUS
 62
           3
100
AcDbLine
 10
-1689.024849268726
 20
987.478470252208
 11
-1654.024849268726
 21
987.478470252208
  0
LINE
  5
387
100
AcDbEntity
  8
1
  6
CONTINUOUS
 62
           3
100
AcDbLine
 10
-1692.424849268726
 20
915.478470252209
 11
-1692.424849268726
 21
984.078470252209
  0
LINE
  5
386
100
AcDbEntity
  8
1
  6
CONTINUOUS
 62
           3
100
AcDbLine
 10
-1654.024849268726
 20
912.078470252209
 11
-1689.024849268726
 21
912.078470252209
  0
LINE
  5
385
100
AcDbEntity
  8
1
  6
CONTINUOUS
 62
           3
100
AcDbLine
 10
-1654.024849268726
 20
910.478470252209
 11
-1654.024849268726
 21
912.078470252209
  0
LINE
  5
384
100
AcDbEntity
  8
1
  6
CONTINUOUS
 62
           2
100
AcDbLine
 10
-1689.024849268726
 20
910.478470252209
 11
-1654.024849268726
 21
910.478470252209
  0
LINE
  5
383
100
AcDbEntity
  8
1
  6
CONTINUOUS
 62
           2
100
AcDbLine
 10
-1694.024849268726
 20
984.078470252209
 11
-1694.024849268726
 21
915.478470252209
  0
LINE
  5
382
100
AcDbEntity
  8
1
  6
CONTINUOUS
 62
           3
100
AcDbLine
 10
-2194.024849268727
 20
989.078470252209
 11
-2194.024849268727
 21
987.478470252208
  0
LINE
  5
381
100
AcDbEntity
  8
1
  6
CONTINUOUS
 62
           3
100
AcDbLine
 10
-2194.024849268727
 20
987.478470252208
 11
-2159.024849268727
 21
987.478470252208
  0
LINE
  5
380
100
AcDbEntity
  8
1
  6
CONTINUOUS
 62
           3
100
AcDbLine
 10
-2155.624849268726
 20
984.078470252209
 11
-2155.624849268726
 21
915.478470252209
  0
LINE
  5
37F
100
AcDbEntity
  8
1
  6
CONTINUOUS
 62
           3
100
AcDbLine
 10
-2159.024849268727
 20
912.078470252209
 11
-2194.024849268727
 21
912.078470252209
  0
LINE
  5
37E
100
AcDbEntity
  8
1
  6
CONTINUOUS
 62
           3
100
AcDbLine
 10
-2194.024849268727
 20
912.078470252209
 11
-2194.024849268727
 21
910.478470252209
  0
LINE
  5
37D
100
AcDbEntity
  8
1
  6
CONTINUOUS
 62
           2
100
AcDbLine
 10
-2154.024849268727
 20
915.478470252209
 11
-2154.024849268727
 21
984.078470252209
  0
LINE
  5
37C
100
AcDbEntity
  8
1
  6
CONTINUOUS
 62
           2
100
AcDbLine
 10
-2159.024849268727
 20
989.078470252209
 11
-2194.024849268727
 21
989.078470252209
  0
LINE
  5
37B
100
AcDbEntity
  8
1
  6
CONTINUOUS
 62
           2
100
AcDbLine
 10
-1830.024849268726
 20
1170.278470252209
 11
-1830.024849268726
 21
1189.478470252208
  0
LINE
  5
37A
100
AcDbEntity
  8
1
  6
CONTINUOUS
 62
           3
100
AcDbLine
 10
-1688.596465081614
 20
1056.358289123738
 11
-1683.124849268725
 21
1056.358289123738
  0
LINE
  5
379
100
AcDbEntity
  8
1
  6
CONTINUOUS
 62
           3
100
AcDbLine
 10
-1688.596465081614
 20
1080.096756556988
 11
-1688.596465081614
 21
1056.358289123738
  0
LINE
  5
378
100
AcDbEntity
  8
1
  6
CONTINUOUS
 62
           3
100
AcDbLine
 10
-1683.124849268725
 20
1080.096756556988
 11
-1688.596465081614
 21
1080.096756556988
  0
LINE
  5
377
100
AcDbEntity
  8
1
  6
CONTINUOUS
 62
           2
100
AcDbLine
 10
-1830.024849268726
 20
1031.078470252209
 11
-1829.361715417385
 21
1031.078470252209
  0
LINE
  5
376
100
AcDbEntity
  8
1
  6
CONTINUOUS
 62
           2
100
AcDbLine
 10
-1683.124849268725
 20
1031.078470252209
 11
-1708.700176955847
 21
1031.078470252209
  0
LINE
  5
375
100
AcDbEntity
  8
1
  6
DOT_CENTER
 62
           3
100
AcDbLine
 10
-1819.030946186617
 20
1030.308916329348
 11
-1819.030946186617
 21
1018.919932565828
  0
LINE
  5
374
100
AcDbEntity
  8
1
  6
CONTINUOUS
 62
           2
100
AcDbLine
 10
-1742.310946186617
 20
1039.028470252209
 11
-1713.979594215244
 21
1037.245502853129
  0
LINE
  5
373
100
AcDbEntity
  8
1
  6
CONTINUOUS
 62
           2
100
AcDbLine
 10
-1706.530946186617
 20
1026.278470252209
 11
-1706.530946186617
 21
1025.078470252209
  0
LINE
  5
372
100
AcDbEntity
  8
1
  6
CONTINUOUS
 62
           2
100
AcDbLine
 10
-1707.530946186617
 20
1027.278470252209
 11
-1709.514741211539
 21
1033.725804083209
  0
LINE
  5
371
100
AcDbEntity
  8
1
  6
DOT_CENTER
 62
           3
100
AcDbLine
 10
-1719.030946186617
 20
1030.826597409508
 11
-1719.030946186617
 21
1017.884570405509
  0
LINE
  5
370
100
AcDbEntity
  8
1
  6
CONTINUOUS
 62
           2
100
AcDbLine
 10
-1794.774856857812
 20
1025.674932216469
 11
-1794.685784356072
 21
1025.678470252209
  0
LINE
  5
36F
100
AcDbEntity
  8
1
  6
CONTINUOUS
 62
           2
100
AcDbLine
 10
-1707.530946186617
 20
1027.278470252209
 11
-1830.530946186617
 21
1027.278470252209
  0
LINE
  5
36E
100
AcDbEntity
  8
1
  6
CONTINUOUS
 62
           2
100
AcDbLine
 10
-1707.530946186617
 20
1024.078470252209
 11
-1739.245784356072
 21
1024.078470252209
  0
LINE
  5
36D
100
AcDbEntity
  8
1
  6
CONTINUOUS
 62
           2
100
AcDbLine
 10
-1740.039865271344
 20
1024.407389336929
 11
-1740.982027101889
 21
1025.349551167479
  0
LINE
  5
36C
100
AcDbEntity
  8
1
  6
CONTINUOUS
 62
           2
100
AcDbLine
 10
-1794.774856857812
 20
1025.674932216469
 11
-1796.284606858991
 21
1025.677635307558
  0
LINE
  5
36B
100
AcDbEntity
  8
1
  6
CONTINUOUS
 62
           2
100
AcDbLine
 10
-1741.776108017161
 20
1025.678470252209
 11
-1794.685784356072
 21
1025.678470252209
  0
LINE
  5
36A
100
AcDbEntity
  8
1
  6
CONTINUOUS
 62
           2
100
AcDbLine
 10
-1742.921499305936
 20
1046.202469404208
 11
-1741.544614315025
 21
1030.024070760999
  0
LINE
  5
369
100
AcDbEntity
  8
1
  6
CONTINUOUS
 62
           2
100
AcDbLine
 10
-1747.903489341966
 20
1050.778470252209
 11
-1790.158403031268
 21
1050.778470252209
  0
LINE
  5
368
100
AcDbEntity
  8
1
  6
CONTINUOUS
 62
           2
100
AcDbLine
 10
-1795.140393067297
 20
1046.202469404208
 11
-1796.517278058209
 21
1030.024070760999
  0
LINE
  5
367
100
AcDbEntity
  8
1
  6
CONTINUOUS
 62
           2
100
AcDbLine
 10
-1797.080698416043
 20
1025.348718022778
 11
-1798.022027101889
 21
1024.407389336929
  0
LINE
  5
366
100
AcDbEntity
  8
1
  6
CONTINUOUS
 62
           2
100
AcDbLine
 10
-1830.530946186617
 20
1024.078470252209
 11
-1798.816108017162
 21
1024.078470252209
  0
LINE
  5
365
100
AcDbEntity
  8
1
  6
CONTINUOUS
 62
           2
100
AcDbLine
 10
-1831.530946186617
 20
1025.078470252209
 11
-1831.530946186617
 21
1026.278470252209
  0
LINE
  5
364
100
AcDbEntity
  8
1
  6
CONTINUOUS
 62
           2
100
AcDbLine
 10
-1830.530946186617
 20
1027.278470252209
 11
-1828.547151161693
 21
1033.725804083209
  0
LINE
  5
363
100
AcDbEntity
  8
1
  6
CONTINUOUS
 62
           2
100
AcDbLine
 10
-1795.750946186617
 20
1039.028470252209
 11
-1824.08229815799
 21
1037.245502853129
  0
LINE
  5
362
100
AcDbEntity
  8
1
  6
CONTINUOUS
 62
           3
100
AcDbLine
 10
-1886.424849268726
 20
1162.578470252209
 11
-1886.424849268726
 21
1045.578470252209
  0
LINE
  5
361
100
AcDbEntity
  8
1
  6
CONTINUOUS
 62
           3
100
AcDbLine
 10
-1845.324849268726
 20
1092.780076021629
 11
-1814.224849268726
 21
1092.780076021629
  0
LINE
  5
360
100
AcDbEntity
  8
1
  6
CONTINUOUS
 62
           3
100
AcDbLine
 10
-1765.724849268726
 20
1092.780076021629
 11
-1802.824849268726
 21
1092.780076021629
  0
LINE
  5
35F
100
AcDbEntity
  8
1
  6
CONTINUOUS
 62
           3
100
AcDbLine
 10
-1756.228852281169
 20
1090.666423696848
 11
-1757.42686879478
 21
1086.461884569118
  0
LINE
  5
35E
100
AcDbEntity
  8
1
  6
CONTINUOUS
 62
           3
100
AcDbLine
 10
-1854.832389167847
 20
1090.706190976089
 11
-1853.622904878723
 21
1086.461743124259
  0
LINE
  5
35D
100
AcDbEntity
  8
1
  6
CONTINUOUS
 62
           3
100
AcDbLine
 10
-1846.890891888921
 20
1081.380076021629
 11
-1764.15892208865
 21
1081.380076021629
  0
LINE
  5
35C
100
AcDbEntity
  8
1
  6
CONTINUOUS
 62
           3
100
AcDbLine
 10
-1849.324849268726
 20
1160.578470252209
 11
-1849.324849268726
 21
1096.780076021629
  0
LINE
  5
35B
100
AcDbEntity
  8
1
  6
CONTINUOUS
 62
           3
100
AcDbLine
 10
-1765.724849268726
 20
1164.578470252209
 11
-1845.324849268726
 21
1164.578470252209
  0
LINE
  5
35A
100
AcDbEntity
  8
1
  6
CONTINUOUS
 62
           3
100
AcDbLine
 10
-1761.724849268726
 20
1160.578470252209
 11
-1761.724849268726
 21
1096.780076021629
  0
LINE
  5
359
100
AcDbEntity
  8
1
  6
CONTINUOUS
 62
           3
100
AcDbLine
 10
-1756.024849268726
 20
1092.080076021628
 11
-1756.024849268726
 21
1165.278470252209
  0
LINE
  5
358
100
AcDbEntity
  8
1
  6
CONTINUOUS
 62
           3
100
AcDbLine
 10
-1761.024849268726
 20
1087.080076021628
 11
-1850.024849268726
 21
1087.080076021628
  0
LINE
  5
357
100
AcDbEntity
  8
1
  6
CONTINUOUS
 62
           3
100
AcDbLine
 10
-1855.024849268726
 20
1092.080076021628
 11
-1855.024849268726
 21
1165.278470252209
  0
LINE
  5
356
100
AcDbEntity
  8
1
  6
CONTINUOUS
 62
           3
100
AcDbLine
 10
-1850.024849268726
 20
1170.278470252209
 11
-1761.024849268726
 21
1170.278470252209
  0
LINE
  5
355
100
AcDbEntity
  8
1
  6
DOT_CENTER
 62
           3
100
AcDbLine
 10
-1619.676565245057
 20
1104.078470252209
 11
-1901.737393647424
 21
1104.078470252209
  0
LINE
  5
354
100
AcDbEntity
  8
1
  6
DOT_CENTER
 62
           3
100
AcDbLine
 10
-1769.024849268726
 20
1201.111488003689
 11
-1769.024849268726
 21
1005.340127056939
  0
LINE
  5
353
100
AcDbEntity
  8
1
  6
CONTINUOUS
 62
           3
100
AcDbLine
 10
-1850.024849268726
 20
1059.578470252209
 11
-1830.024849268726
 21
1059.578470252209
  0
LINE
  5
352
100
AcDbEntity
  8
1
  6
CONTINUOUS
 62
           3
100
AcDbLine
 10
-1850.024849268726
 20
1073.278470252209
 11
-1850.024849268726
 21
1059.578470252209
  0
LINE
  5
351
100
AcDbEntity
  8
1
  6
CONTINUOUS
 62
           3
100
AcDbLine
 10
-1830.024849268726
 20
1073.278470252209
 11
-1850.024849268726
 21
1073.278470252209
  0
LINE
  5
350
100
AcDbEntity
  8
1
  6
CONTINUOUS
 62
           2
100
AcDbLine
 10
-1875.024849268726
 20
1184.878470252208
 11
-1875.024849268726
 21
1031.078470252209
  0
LINE
  5
34F
100
AcDbEntity
  8
1
  6
CONTINUOUS
 62
           2
100
AcDbLine
 10
-1830.024849268726
 20
1031.078470252209
 11
-1875.024849268726
 21
1031.078470252209
  0
LINE
  5
34E
100
AcDbEntity
  8
1
  6
CONTINUOUS
 62
           3
100
AcDbLine
 10
-1830.024849268726
 20
1031.078470252209
 11
-1830.024849268726
 21
1081.380076021629
  0
LINE
  5
34D
100
AcDbEntity
  8
1
  6
CONTINUOUS
 62
           2
100
AcDbLine
 10
-1875.024849268726
 20
1184.878470252208
 11
-1830.024849268726
 21
1184.878470252208
  0
LINE
  5
34C
100
AcDbEntity
  8
1
  6
CONTINUOUS
 62
           2
100
AcDbLine
 10
-1886.424849268726
 20
1045.578470252209
 11
-1875.024849268726
 21
1031.078470252209
  0
LINE
  5
34B
100
AcDbEntity
  8
1
  6
CONTINUOUS
 62
           2
100
AcDbLine
 10
-1875.024849268726
 20
1177.078470252209
 11
-1886.424849268726
 21
1162.578470252209
  0
LINE
  5
34A
100
AcDbEntity
  8
1
  6
CONTINUOUS
 62
           2
100
AcDbLine
 10
-1694.824849268726
 20
1177.078470252209
 11
-1694.824849268726
 21
1031.078470252209
  0
LINE
  5
349
100
AcDbEntity
  8
1
  6
CONTINUOUS
 62
           2
100
AcDbLine
 10
-1891.024849268726
 20
1045.578470252209
 11
-1886.424849268726
 21
1045.578470252209
  0
LINE
  5
348
100
AcDbEntity
  8
1
  6
CONTINUOUS
 62
           2
100
AcDbLine
 10
-1891.024849268726
 20
1162.578470252209
 11
-1891.024849268726
 21
1045.578470252209
  0
LINE
  5
347
100
AcDbEntity
  8
1
  6
CONTINUOUS
 62
           2
100
AcDbLine
 10
-1886.424849268726
 20
1162.578470252209
 11
-1891.024849268726
 21
1162.578470252209
  0
LINE
  5
346
100
AcDbEntity
  8
1
  6
CONTINUOUS
 62
           2
100
AcDbLine
 10
-1683.124849268725
 20
1031.078470252209
 11
-1683.124849268725
 21
1177.078470252209
  0
LINE
  5
345
100
AcDbEntity
  8
1
  6
CONTINUOUS
 62
           2
100
AcDbLine
 10
-1679.724849268726
 20
1047.078470252209
 11
-1679.724849268726
 21
1161.078470252209
  0
LINE
  5
344
100
AcDbEntity
  8
1
  6
CONTINUOUS
 62
           2
100
AcDbLine
 10
-1683.124849268725
 20
1047.078470252209
 11
-1679.724849268726
 21
1047.078470252209
  0
LINE
  5
343
100
AcDbEntity
  8
1
  6
CONTINUOUS
 62
           2
100
AcDbLine
 10
-1679.724849268726
 20
1161.078470252209
 11
-1683.124849268725
 21
1161.078470252209
  0
LINE
  5
342
100
AcDbEntity
  8
1
  6
CONTINUOUS
 62
           2
100
AcDbLine
 10
-1679.724849268726
 20
1076.078470252209
 11
-1674.024849268726
 21
1076.078470252209
  0
LINE
  5
341
100
AcDbEntity
  8
1
  6
CONTINUOUS
 62
           2
100
AcDbLine
 10
-1674.024849268726
 20
1132.078470252209
 11
-1679.724849268726
 21
1132.078470252209
  0
LINE
  5
340
100
AcDbEntity
  8
1
  6
CONTINUOUS
 62
           2
100
AcDbLine
 10
-1674.024849268726
 20
1076.078470252209
 11
-1674.024849268726
 21
1132.078470252209
  0
LINE
  5
33F
100
AcDbEntity
  8
1
  6
CONTINUOUS
 62
           2
100
AcDbLine
 10
-1669.024849268726
 20
1093.078470252209
 11
-1674.024849268726
 21
1093.078470252209
  0
LINE
  5
33E
100
AcDbEntity
  8
1
  6
CONTINUOUS
 62
           2
100
AcDbLine
 10
-1674.024849268726
 20
1115.078470252209
 11
-1669.024849268726
 21
1115.078470252209
  0
LINE
  5
33D
100
AcDbEntity
  8
1
  6
CONTINUOUS
 62
           2
100
AcDbLine
 10
-1669.024849268726
 20
1093.078470252209
 11
-1669.024849268726
 21
1115.078470252209
  0
LINE
  5
33C
100
AcDbEntity
  8
1
  6
CONTINUOUS
 62
           2
100
AcDbLine
 10
-1629.024849268726
 20
1094.578470252209
 11
-1669.024849268726
 21
1094.578470252209
  0
LINE
  5
33B
100
AcDbEntity
  8
1
  6
CONTINUOUS
 62
           2
100
AcDbLine
 10
-1661.024849268726
 20
1113.578470252209
 11
-1669.024849268726
 21
1113.578470252209
  0
LINE
  5
33A
100
AcDbEntity
  8
1
  6
CONTINUOUS
 62
           2
100
AcDbLine
 10
-1661.024849268726
 20
1113.092348440868
 11
-1629.024849268726
 21
1113.092348440868
  0
LINE
  5
339
100
AcDbEntity
  8
1
  6
CONTINUOUS
 62
           2
100
AcDbLine
 10
-1661.024849268726
 20
1115.592348440868
 11
-1661.024849268726
 21
1113.092348440868
  0
LINE
  5
338
100
AcDbEntity
  8
1
  6
CONTINUOUS
 62
           2
100
AcDbLine
 10
-1629.024849268726
 20
1115.592348440868
 11
-1661.024849268726
 21
1115.592348440868
  0
LINE
  5
337
100
AcDbEntity
  8
1
  6
CONTINUOUS
 62
           2
100
AcDbLine
 10
-1629.024849268726
 20
1113.092348440868
 11
-1629.024849268726
 21
1115.592348440868
  0
LINE
  5
336
100
AcDbEntity
  8
1
  6
CONTINUOUS
 62
           2
100
AcDbLine
 10
-1629.024849268726
 20
1094.578470252209
 11
-1629.024849268726
 21
1113.092348440868
  0
LINE
  5
335
100
AcDbEntity
  8
1
  6
CONTINUOUS
 62
           2
100
AcDbLine
 10
-1850.024849268726
 20
1184.878470252208
 11
-1850.024849268726
 21
1189.478470252208
  0
LINE
  5
334
100
AcDbEntity
  8
1
  6
CONTINUOUS
 62
           2
100
AcDbLine
 10
-1850.024849268726
 20
1189.478470252208
 11
-1830.024849268726
 21
1189.478470252208
  0
LINE
  5
333
100
AcDbEntity
  8
1
  6
CONTINUOUS
 62
           2
100
AcDbLine
 10
-1683.124849268725
 20
1177.078470252209
 11
-1830.024849268726
 21
1177.078470252209
  0
LINE
  5
332
100
AcDbEntity
  8
1
  6
CONTINUOUS
 62
           2
100
AcDbLine
 10
-2254.024849268727
 20
1541.812324993749
 11
-2254.024849268727
 21
1612.078470252209
  0
LINE
  5
331
100
AcDbEntity
  8
1
  6
CONTINUOUS
 62
           2
100
AcDbLine
 10
-2254.024849268727
 20
5280.617309495479
 11
-1892.024849268726
 21
5280.617309495479
  0
LINE
  5
330
100
AcDbEntity
  8
1
  6
DOT_CENTER
 62
           3
100
AcDbLine
 10
-2437.024849268727
 20
4990.617309495479
 11
-2367.024849268727
 21
4990.617309495479
  0
LINE
  5
32F
100
AcDbEntity
  8
1
  6
DOT_CENTER
 62
           3
100
AcDbLine
 10
-2402.024849268727
 20
4955.617309495479
 11
-2402.024849268727
 21
5025.617309495479
  0
LINE
  5
32E
100
AcDbEntity
  8
1
  6
CONTINUOUS
 62
           2
100
AcDbLine
 10
-1627.024849268726
 20
4491.117309495492
 11
-1627.024849268726
 21
4510.117309495492
  0
LINE
  5
32D
100
AcDbEntity
  8
1
  6
CONTINUOUS
 62
           2
100
AcDbLine
 10
-1667.024849268726
 20
4510.117309495492
 11
-1627.024849268726
 21
4510.117309495492
  0
LINE
  5
32C
100
AcDbEntity
  8
1
  6
CONTINUOUS
 62
           2
100
AcDbLine
 10
-1672.024849268726
 20
4511.617309495492
 11
-1667.024849268726
 21
4511.617309495492
  0
LINE
  5
32B
100
AcDbEntity
  8
1
  6
CONTINUOUS
 62
           2
100
AcDbLine
 10
-1667.024849268726
 20
4489.617309495492
 11
-1672.024849268726
 21
4489.617309495492
  0
LINE
  5
32A
100
AcDbEntity
  8
1
  6
CONTINUOUS
 62
           2
100
AcDbLine
 10
-1672.024849268726
 20
4472.617309495492
 11
-1672.024849268726
 21
4528.617309495492
  0
LINE
  5
329
100
AcDbEntity
  8
1
  6
CONTINUOUS
 62
           2
100
AcDbLine
 10
-1672.024849268726
 20
4528.617309495492
 11
-1677.724849268726
 21
4528.617309495492
  0
LINE
  5
328
100
AcDbEntity
  8
1
  6
CONTINUOUS
 62
           2
100
AcDbLine
 10
-1677.724849268726
 20
4557.617309495492
 11
-1681.124849268726
 21
4557.617309495492
  0
LINE
  5
327
100
AcDbEntity
  8
1
  6
CONTINUOUS
 62
           2
100
AcDbLine
 10
-1681.124849268726
 20
4443.617309495492
 11
-1677.724849268726
 21
4443.617309495492
  0
LINE
  5
326
100
AcDbEntity
  8
1
  6
CONTINUOUS
 62
           2
100
AcDbLine
 10
-1677.724849268726
 20
4443.617309495492
 11
-1677.724849268726
 21
4557.617309495492
  0
LINE
  5
325
100
AcDbEntity
  8
1
  6
CONTINUOUS
 62
           2
100
AcDbLine
 10
-1681.124849268726
 20
4427.617309495492
 11
-1681.124849268726
 21
4573.617309495492
  0
LINE
  5
324
100
AcDbEntity
  8
1
  6
CONTINUOUS
 62
           2
100
AcDbLine
 10
-1681.124849268726
 20
4573.617309495492
 11
-1828.024849268726
 21
4573.617309495492
  0
LINE
  5
323
100
AcDbEntity
  8
1
  6
CONTINUOUS
 62
           2
100
AcDbLine
 10
-1754.024849268726
 20
4427.617309495492
 11
-1681.124849268726
 21
4427.617309495492
  0
LINE
  5
322
100
AcDbEntity
  8
1
  6
CONTINUOUS
 62
           2
100
AcDbLine
 10
-1884.424849268726
 20
4559.117309495492
 11
-1889.024849268726
 21
4559.117309495492
  0
LINE
  5
321
100
AcDbEntity
  8
1
  6
CONTINUOUS
 62
           2
100
AcDbLine
 10
-1889.024849268726
 20
4559.117309495492
 11
-1889.024849268726
 21
4442.117309495492
  0
LINE
  5
320
100
AcDbEntity
  8
1
  6
CONTINUOUS
 62
           2
100
AcDbLine
 10
-1889.024849268726
 20
4442.117309495492
 11
-1884.424849268726
 21
4442.117309495492
  0
LINE
  5
31F
100
AcDbEntity
  8
1
  6
CONTINUOUS
 62
           2
100
AcDbLine
 10
-1873.024849268726
 20
4573.617309495492
 11
-1884.424849268726
 21
4559.117309495492
  0
LINE
  5
31E
100
AcDbEntity
  8
1
  6
CONTINUOUS
 62
           2
100
AcDbLine
 10
-1884.424849268726
 20
4442.117309495492
 11
-1873.024849268726
 21
4427.617309495492
  0
LINE
  5
31D
100
AcDbEntity
  8
1
  6
CONTINUOUS
 62
           2
100
AcDbLine
 10
-1873.024849268726
 20
4581.417309495491
 11
-1828.024849268726
 21
4581.417309495491
  0
LINE
  5
31C
100
AcDbEntity
  8
1
  6
CONTINUOUS
 62
           2
100
AcDbLine
 10
-1873.024849268726
 20
4581.417309495491
 11
-1873.024849268726
 21
4419.817309495493
  0
LINE
  5
31B
100
AcDbEntity
  8
1
  6
DOT_CENTER
 62
           3
100
AcDbLine
 10
-1617.676565245058
 20
4500.617309495492
 11
-1899.737393647425
 21
4500.617309495492
  0
LINE
  5
31A
100
AcDbEntity
  8
1
  6
CONTINUOUS
 62
           3
100
AcDbLine
 10
-1884.424849268726
 20
4559.117309495492
 11
-1884.424849268726
 21
4442.117309495492
  0
LINE
  5
319
100
AcDbEntity
  8
1
  6
CONTINUOUS
 62
           2
100
AcDbLine
 10
-1754.024849268726
 20
4360.617284591182
 11
-1754.024849268726
 21
4431.500596551712
  0
LINE
  5
318
100
AcDbEntity
  8
1
  6
CONTINUOUS
 62
           2
100
AcDbLine
 10
-1759.024849268726
 20
4436.500596551712
 11
-1848.024849268726
 21
4436.500596551712
  0
LINE
  5
317
100
AcDbEntity
  8
1
  6
CONTINUOUS
 62
           2
100
AcDbLine
 10
-1853.024849268726
 20
4431.500596551712
 11
-1853.024849268726
 21
4360.617284591182
  0
LINE
  5
316
100
AcDbEntity
  8
1
  6
CONTINUOUS
 62
           2
100
AcDbLine
 10
-1848.024849268726
 20
4355.617284591182
 11
-1759.024849268726
 21
4355.617284591182
  0
LINE
  5
315
100
AcDbEntity
  8
1
  6
CONTINUOUS
 62
           3
100
AcDbLine
 10
-1847.324849268726
 20
4425.421853288262
 11
-1847.324849268726
 21
4363.596446378124
  0
LINE
  5
314
100
AcDbEntity
  8
1
  6
CONTINUOUS
 62
           3
100
AcDbLine
 10
-1842.324849268726
 20
4358.596446378124
 11
-1764.724849268726
 21
4358.596446378124
  0
LINE
  5
313
100
AcDbEntity
  8
1
  6
CONTINUOUS
 62
           3
100
AcDbLine
 10
-1759.724849268726
 20
4363.596446378124
 11
-1759.724849268726
 21
4425.421853288262
  0
LINE
  5
312
100
AcDbEntity
  8
1
  6
CONTINUOUS
 62
           3
100
AcDbLine
 10
-1764.724849268726
 20
4430.421853288262
 11
-1842.324849268726
 21
4430.421853288262
  0
LINE
  5
311
100
AcDbEntity
  8
1
  6
CONTINUOUS
 62
           2
100
AcDbLine
 10
-1828.024849268726
 20
4436.500596551712
 11
-1828.024849268726
 21
4581.417309495491
  0
LINE
  5
310
100
AcDbEntity
  8
1
  6
CONTINUOUS
 62
           2
100
AcDbLine
 10
-1853.024849268726
 20
4419.817309495493
 11
-1873.024849268726
 21
4419.817309495493
  0
LINE
  5
30F
100
AcDbEntity
  8
1
  6
CONTINUOUS
 62
           2
100
AcDbLine
 10
-1892.024849268726
 20
5005.617309495479
 11
-1872.024849268727
 21
5005.617309495479
  0
LINE
  5
30E
100
AcDbEntity
  8
1
  6
CONTINUOUS
 62
           2
100
AcDbLine
 10
-2152.024849268727
 20
4410.617309495479
 11
-1867.024849268726
 21
4410.617309495479
  0
LINE
  5
30D
100
AcDbEntity
  8
1
  6
CONTINUOUS
 62
           2
100
AcDbLine
 10
-2192.024849268727
 20
4340.617309495479
 11
-2152.024849268727
 21
4340.617309495479
  0
LINE
  5
30C
100
AcDbEntity
  8
1
  6
CONTINUOUS
 62
           2
100
AcDbLine
 10
-1652.024849268727
 20
4340.617309495479
 11
-1652.024849268727
 21
5240.617309495479
  0
LINE
  5
30B
100
AcDbEntity
  8
1
  6
CONTINUOUS
 62
           2
100
AcDbLine
 10
-1692.024849268727
 20
4340.617309495479
 11
-1652.024849268727
 21
4340.617309495479
  0
LINE
  5
30A
100
AcDbEntity
  8
1
  6
CONTINUOUS
 62
           2
100
AcDbLine
 10
-1692.024849268727
 20
4375.617309495479
 11
-1692.024849268727
 21
4340.617309495479
  0
LINE
  5
309
100
AcDbEntity
  8
1
  6
CONTINUOUS
 62
           2
100
AcDbLine
 10
-1652.024849268727
 20
5240.617309495479
 11
-1892.024849268726
 21
5240.617309495479
  0
LINE
  5
308
100
AcDbEntity
  8
1
  6
CONTINUOUS
 62
           2
100
AcDbLine
 10
-1889.024849268726
 20
4450.617309495479
 11
-2152.024849268727
 21
4450.617309495479
  0
LINE
  5
307
100
AcDbEntity
  8
1
  6
CONTINUOUS
 62
           2
100
AcDbLine
 10
-1889.024849268726
 20
4550.617309495479
 11
-1912.024849268726
 21
4550.617309495479
  0
LINE
  5
306
100
AcDbEntity
  8
1
  6
CONTINUOUS
 62
           2
100
AcDbLine
 10
-1692.024849268727
 20
5240.617309495479
 11
-1692.024849268727
 21
5200.617309495479
  0
LINE
  5
305
100
AcDbEntity
  8
1
  6
CONTINUOUS
 62
           2
100
AcDbLine
 10
-1882.024849268726
 20
4975.617309495479
 11
-1882.024849268726
 21
4780.617309495479
  0
LINE
  5
304
100
AcDbEntity
  8
1
  6
CONTINUOUS
 62
           2
100
AcDbLine
 10
-1662.024849268727
 20
5200.617309495479
 11
-1882.024849268726
 21
5200.617309495479
  0
LINE
  5
303
100
AcDbEntity
  8
1
  6
CONTINUOUS
 62
           2
100
AcDbLine
 10
-1662.024849268727
 20
4880.617309495479
 11
-1882.024849268726
 21
4880.617309495479
  0
LINE
  5
302
100
AcDbEntity
  8
1
  6
CONTINUOUS
 62
           2
100
AcDbLine
 10
-1662.024849268727
 20
5100.617309495479
 11
-1882.024849268726
 21
5100.617309495479
  0
LINE
  5
301
100
AcDbEntity
  8
1
  6
CONTINUOUS
 62
           2
100
AcDbLine
 10
-1832.024849268727
 20
4940.617309495479
 11
-1832.024849268727
 21
5040.617309495479
  0
LINE
  5
300
100
AcDbEntity
  8
1
  6
CONTINUOUS
 62
           2
100
AcDbLine
 10
-1872.024849268727
 20
4940.617309495479
 11
-1832.024849268727
 21
4940.617309495479
  0
LINE
  5
2FF
100
AcDbEntity
  8
1
  6
CONTINUOUS
 62
           2
100
AcDbLine
 10
-1872.024849268727
 20
5040.617309495479
 11
-1872.024849268727
 21
4940.617309495479
  0
LINE
  5
2FE
100
AcDbEntity
  8
1
  6
CONTINUOUS
 62
           2
100
AcDbLine
 10
-1832.024849268727
 20
5040.617309495479
 11
-1872.024849268727
 21
5040.617309495479
  0
LINE
  5
2FD
100
AcDbEntity
  8
1
  6
CONTINUOUS
 62
           2
100
AcDbLine
 10
-1828.024849268727
 20
4960.617309495479
 11
-1832.024849268727
 21
4960.617309495479
  0
LINE
  5
2FC
100
AcDbEntity
  8
1
  6
CONTINUOUS
 62
           2
100
AcDbLine
 10
-1828.024849268727
 20
4908.117309495479
 11
-1828.024849268727
 21
4960.617309495479
  0
LINE
  5
2FB
100
AcDbEntity
  8
1
  6
CONTINUOUS
 62
           2
100
AcDbLine
 10
-1876.024849268726
 20
4908.117309495479
 11
-1828.024849268727
 21
4908.117309495479
  0
LINE
  5
2FA
100
AcDbEntity
  8
1
  6
CONTINUOUS
 62
           2
100
AcDbLine
 10
-1876.024849268726
 20
4960.617309495479
 11
-1876.024849268726
 21
4908.117309495479
  0
LINE
  5
2F9
100
AcDbEntity
  8
1
  6
CONTINUOUS
 62
           2
100
AcDbLine
 10
-1872.024849268726
 20
4960.617309495479
 11
-1876.024849268726
 21
4960.617309495479
  0
LINE
  5
2F8
100
AcDbEntity
  8
1
  6
CONTINUOUS
 62
           2
100
AcDbLine
 10
-1876.024849268726
 20
5020.617309495479
 11
-1872.024849268726
 21
5020.617309495479
  0
LINE
  5
2F7
100
AcDbEntity
  8
1
  6
CONTINUOUS
 62
           2
100
AcDbLine
 10
-1876.024849268726
 20
5073.117309495479
 11
-1876.024849268726
 21
5020.617309495479
  0
LINE
  5
2F6
100
AcDbEntity
  8
1
  6
CONTINUOUS
 62
           2
100
AcDbLine
 10
-1828.024849268727
 20
5073.117309495479
 11
-1876.024849268726
 21
5073.117309495479
  0
LINE
  5
2F5
100
AcDbEntity
  8
1
  6
CONTINUOUS
 62
           2
100
AcDbLine
 10
-1828.024849268727
 20
5020.617309495479
 11
-1828.024849268727
 21
5073.117309495479
  0
LINE
  5
2F4
100
AcDbEntity
  8
1
  6
CONTINUOUS
 62
           2
100
AcDbLine
 10
-1832.024849268727
 20
5020.617309495479
 11
-1828.024849268727
 21
5020.617309495479
  0
LINE
  5
2F3
100
AcDbEntity
  8
1
  6
CONTINUOUS
 62
           2
100
AcDbLine
 10
-1672.024849268727
 20
4940.617309495479
 11
-1672.024849268727
 21
5040.617309495479
  0
LINE
  5
2F2
100
AcDbEntity
  8
1
  6
CONTINUOUS
 62
           2
100
AcDbLine
 10
-1712.024849268727
 20
4940.617309495479
 11
-1672.024849268727
 21
4940.617309495479
  0
LINE
  5
2F1
100
AcDbEntity
  8
1
  6
CONTINUOUS
 62
           2
100
AcDbLine
 10
-1712.024849268727
 20
5040.617309495479
 11
-1712.024849268727
 21
4940.617309495479
  0
LINE
  5
2F0
100
AcDbEntity
  8
1
  6
CONTINUOUS
 62
           2
100
AcDbLine
 10
-1672.024849268727
 20
5040.617309495479
 11
-1712.024849268727
 21
5040.617309495479
  0
LINE
  5
2EF
100
AcDbEntity
  8
1
  6
CONTINUOUS
 62
           2
100
AcDbLine
 10
-1668.024849268727
 20
4960.617309495479
 11
-1672.024849268727
 21
4960.617309495479
  0
LINE
  5
2EE
100
AcDbEntity
  8
1
  6
CONTINUOUS
 62
           2
100
AcDbLine
 10
-1668.024849268727
 20
4908.117309495479
 11
-1668.024849268727
 21
4960.617309495479
  0
LINE
  5
2ED
100
AcDbEntity
  8
1
  6
CONTINUOUS
 62
           2
100
AcDbLine
 10
-1716.024849268727
 20
4908.117309495479
 11
-1668.024849268727
 21
4908.117309495479
  0
LINE
  5
2EC
100
AcDbEntity
  8
1
  6
CONTINUOUS
 62
           2
100
AcDbLine
 10
-1716.024849268727
 20
4960.617309495479
 11
-1716.024849268727
 21
4908.117309495479
  0
LINE
  5
2EB
100
AcDbEntity
  8
1
  6
CONTINUOUS
 62
           2
100
AcDbLine
 10
-1712.024849268727
 20
4960.617309495479
 11
-1716.024849268727
 21
4960.617309495479
  0
LINE
  5
2EA
100
AcDbEntity
  8
1
  6
CONTINUOUS
 62
           2
100
AcDbLine
 10
-1716.024849268727
 20
5020.617309495479
 11
-1712.024849268727
 21
5020.617309495479
  0
LINE
  5
2E9
100
AcDbEntity
  8
1
  6
CONTINUOUS
 62
           2
100
AcDbLine
 10
-1716.024849268727
 20
5073.117309495479
 11
-1716.024849268727
 21
5020.617309495479
  0
LINE
  5
2E8
100
AcDbEntity
  8
1
  6
CONTINUOUS
 62
           2
100
AcDbLine
 10
-1668.024849268727
 20
5073.117309495479
 11
-1716.024849268727
 21
5073.117309495479
  0
LINE
  5
2E7
100
AcDbEntity
  8
1
  6
CONTINUOUS
 62
           2
100
AcDbLine
 10
-1668.024849268727
 20
5020.617309495479
 11
-1668.024849268727
 21
5073.117309495479
  0
LINE
  5
2E6
100
AcDbEntity
  8
1
  6
CONTINUOUS
 62
           2
100
AcDbLine
 10
-1672.024849268727
 20
5020.617309495479
 11
-1668.024849268727
 21
5020.617309495479
  0
LINE
  5
2E5
100
AcDbEntity
  8
1
  6
PHANTOM
 62
           3
100
AcDbLine
 10
-1582.024849268727
 20
4370.617309495479
 11
-1582.024849268727
 21
5100.617309495479
  0
LINE
  5
2E4
100
AcDbEntity
  8
1
  6
PHANTOM
 62
           3
100
AcDbLine
 10
-1662.024849268727
 20
4370.617309495479
 11
-1582.024849268727
 21
4370.617309495479
  0
LINE
  5
2E3
100
AcDbEntity
  8
1
  6
PHANTOM
 62
           3
100
AcDbLine
 10
-1662.024849268727
 20
5100.617309495479
 11
-1662.024849268727
 21
4370.617309495479
  0
LINE
  5
2E2
100
AcDbEntity
  8
1
  6
PHANTOM
 62
           3
100
AcDbLine
 10
-1582.024849268727
 20
5100.617309495479
 11
-1662.024849268727
 21
5100.617309495479
  0
LINE
  5
2E1
100
AcDbEntity
  8
1
  6
PHANTOM
 62
           3
100
AcDbLine
 10
-1622.024849268727
 20
5040.617309495479
 11
-1652.024849268727
 21
5040.617309495479
  0
LINE
  5
2E0
100
AcDbEntity
  8
1
  6
PHANTOM
 62
           3
100
AcDbLine
 10
-1622.024849268727
 20
4940.617309495479
 11
-1622.024849268727
 21
5040.617309495479
  0
LINE
  5
2DF
100
AcDbEntity
  8
1
  6
PHANTOM
 62
           3
100
AcDbLine
 10
-1652.024849268727
 20
4940.617309495479
 11
-1622.024849268727
 21
4940.617309495479
  0
LINE
  5
2DE
100
AcDbEntity
  8
1
  6
PHANTOM
 62
           3
100
AcDbLine
 10
-1652.024849268727
 20
5040.617309495479
 11
-1652.024849268727
 21
4940.617309495479
  0
LINE
  5
2DD
100
AcDbEntity
  8
1
  6
PHANTOM
 62
           3
100
AcDbLine
 10
-1652.024849268727
 20
4582.617309495479
 11
-1622.024849268727
 21
4582.617309495479
  0
LINE
  5
2DC
100
AcDbEntity
  8
1
  6
PHANTOM
 62
           3
100
AcDbLine
 10
-1652.024849268727
 20
4418.617309495479
 11
-1652.024849268727
 21
4582.617309495479
  0
LINE
  5
2DB
100
AcDbEntity
  8
1
  6
PHANTOM
 62
           3
100
AcDbLine
 10
-1622.024849268727
 20
4418.617309495479
 11
-1652.024849268727
 21
4418.617309495479
  0
LINE
  5
2DA
100
AcDbEntity
  8
1
  6
PHANTOM
 62
           3
100
AcDbLine
 10
-1622.024849268727
 20
4582.617309495479
 11
-1622.024849268727
 21
4418.617309495479
  0
LINE
  5
2D9
100
AcDbEntity
  8
1
  6
DOT_CENTER
 62
           3
100
AcDbLine
 10
-1642.024849268727
 20
4418.617309495479
 11
-1642.024849268727
 21
5040.617309495479
  0
LINE
  5
2D8
100
AcDbEntity
  8
1
  6
DOT_CENTER
 62
           3
100
AcDbLine
 10
-1632.024849268727
 20
5040.617309495479
 11
-1632.024849268727
 21
4418.617309495479
  0
LINE
  5
2D7
100
AcDbEntity
  8
1
  6
CONTINUOUS
 62
           2
100
AcDbLine
 10
-1622.024849268727
 20
4975.617309495479
 11
-1622.024849268727
 21
5005.617309495479
  0
LINE
  5
2D6
100
AcDbEntity
  8
1
  6
CONTINUOUS
 62
           2
100
AcDbLine
 10
-1872.024849268727
 20
4975.617309495479
 11
-1892.024849268726
 21
4975.617309495479
  0
LINE
  5
2D5
100
AcDbEntity
  8
1
  6
CONTINUOUS
 62
           2
100
AcDbLine
 10
-1712.024849268727
 20
4975.617309495479
 11
-1832.024849268727
 21
4975.617309495479
  0
LINE
  5
2D4
100
AcDbEntity
  8
1
  6
CONTINUOUS
 62
           2
100
AcDbLine
 10
-1622.024849268727
 20
4975.617309495479
 11
-1672.024849268727
 21
4975.617309495479
  0
LINE
  5
2D3
100
AcDbEntity
  8
1
  6
CONTINUOUS
 62
           2
100
AcDbLine
 10
-1662.024849268727
 20
5005.617309495479
 11
-1622.024849268727
 21
5005.617309495479
  0
LINE
  5
2D2
100
AcDbEntity
  8
1
  6
CONTINUOUS
 62
           2
100
AcDbLine
 10
-1672.024849268727
 20
5005.617309495479
 11
-1662.024849268727
 21
5005.617309495479
  0
LINE
  5
2D1
100
AcDbEntity
  8
1
  6
CONTINUOUS
 62
           2
100
AcDbLine
 10
-1832.024849268727
 20
5005.617309495479
 11
-1712.024849268727
 21
5005.617309495479
  0
LINE
  5
2D0
100
AcDbEntity
  8
1
  6
CONTINUOUS
 62
           2
100
AcDbLine
 10
-1882.024849268726
 20
5200.617309495479
 11
-1882.024849268726
 21
5005.617309495479
  0
LINE
  5
2CF
100
AcDbEntity
  8
1
  6
CONTINUOUS
 62
           2
100
AcDbLine
 10
-1662.024849268727
 20
4780.617309495479
 11
-1662.024849268727
 21
4975.617309495479
  0
LINE
  5
2CE
100
AcDbEntity
  8
1
  6
CONTINUOUS
 62
           2
100
AcDbLine
 10
-1667.024849268727
 20
4375.617309495479
 11
-1667.024849268727
 21
4625.617309495479
  0
LINE
  5
2CD
100
AcDbEntity
  8
1
  6
CONTINUOUS
 62
           2
100
AcDbLine
 10
-1867.024849268726
 20
4375.617309495479
 11
-1853.024849268726
 21
4375.617309495479
  0
LINE
  5
2CC
100
AcDbEntity
  8
1
  6
CONTINUOUS
 62
           2
100
AcDbLine
 10
-1867.024849268726
 20
4419.817309495482
 11
-1867.024849268726
 21
4375.617309495479
  0
LINE
  5
2CB
100
AcDbEntity
  8
1
  6
CONTINUOUS
 62
           2
100
AcDbLine
 10
-1867.024849268726
 20
4625.617309495479
 11
-1667.024849268727
 21
4625.617309495479
  0
LINE
  5
2CA
100
AcDbEntity
  8
1
  6
CONTINUOUS
 62
           2
100
AcDbLine
 10
-1912.024849268726
 20
4590.617309495479
 11
-1867.024849268726
 21
4590.617309495479
  0
LINE
  5
2C9
100
AcDbEntity
  8
1
  6
CONTINUOUS
 62
           2
100
AcDbLine
 10
-1692.024849268727
 20
4780.617309495479
 11
-1692.024849268727
 21
4625.617309495479
  0
LINE
  5
2C8
100
AcDbEntity
  8
1
  6
CONTINUOUS
 62
           2
100
AcDbLine
 10
-1867.024849268726
 20
4625.617309495479
 11
-1867.024849268726
 21
4581.417309495482
  0
LINE
  5
2C7
100
AcDbEntity
  8
1
  6
CONTINUOUS
 62
           2
100
AcDbLine
 10
-1754.024849268726
 20
4375.617309495479
 11
-1667.024849268727
 21
4375.617309495479
  0
LINE
  5
2C6
100
AcDbEntity
  8
1
  6
CONTINUOUS
 62
           2
100
AcDbLine
 10
771.277467838621
 20
914.078470252209
 11
740.526666085031
 21
914.078470252209
  0
LINE
  5
2C5
100
AcDbEntity
  8
1
  6
PHANTOM
 62
           3
100
AcDbLine
 10
-531.222532161378
 20
-451.224461606069
 11
-531.222532161378
 21
-594.798912226586
  0
LINE
  5
2C4
100
AcDbEntity
  8
1
  6
PHANTOM
 62
           3
100
AcDbLine
 10
-517.222511341325
 20
-236.989153259096
 11
-504.222511341325
 21
-226.080858053792
  0
LINE
  5
2C3
100
AcDbEntity
  8
1
  6
PHANTOM
 62
           3
100
AcDbLine
 10
-517.222511341326
 20
-200.967215087137
 11
-504.222511341325
 21
-216.460011790861
  0
LINE
  5
2C2
100
AcDbEntity
  8
1
  6
PHANTOM
 62
           3
100
AcDbLine
 10
-622.067981634007
 20
-277.970286296332
 11
-610.222532161378
 21
-268.03077401272
  0
LINE
  5
2C1
100
AcDbEntity
  8
1
  6
PHANTOM
 62
           3
100
AcDbLine
 10
-623.222532161378
 20
-260.663367167374
 11
-618.226894857018
 21
-256.471529747789
  0
LINE
  5
2C0
100
AcDbEntity
  8
1
  6
PHANTOM
 62
           3
100
AcDbLine
 10
-517.222453354021
 20
-249.721529747789
 11
-545.222552981431
 21
-249.721529747789
  0
LINE
  5
2BF
100
AcDbEntity
  8
1
  6
PHANTOM
 62
           3
100
AcDbLine
 10
-517.222511341325
 20
-249.721529747789
 11
-517.222511341326
 21
-165.221529747789
  0
LINE
  5
2BE
100
AcDbEntity
  8
1
  6
PHANTOM
 62
           3
100
AcDbLine
 10
-545.222610968735
 20
-165.221529747789
 11
-517.222511341326
 21
-165.221529747789
  0
LINE
  5
2BD
100
AcDbEntity
  8
1
  6
PHANTOM
 62
           3
100
AcDbLine
 10
-545.22255298143
 20
-163.721529747789
 11
-565.222544991952
 21
-163.721529747789
  0
LINE
  5
2BC
100
AcDbEntity
  8
1
  6
PHANTOM
 62
           3
100
AcDbLine
 10
-565.222544991952
 20
-163.721529747789
 11
-565.222544991952
 21
-251.221529747789
  0
LINE
  5
2BB
100
AcDbEntity
  8
1
  6
PHANTOM
 62
           3
100
AcDbLine
 10
-545.22255298143
 20
-251.221529747789
 11
-545.22255298143
 21
-163.721529747789
  0
LINE
  5
2BA
100
AcDbEntity
  8
1
  6
PHANTOM
 62
           3
100
AcDbLine
 10
-565.222544991952
 20
-251.221529747789
 11
-545.22255298143
 21
-251.221529747789
  0
LINE
  5
2B9
100
AcDbEntity
  8
1
  6
PHANTOM
 62
           3
100
AcDbLine
 10
-522.222532161378
 20
-249.721529747789
 11
-522.222532161378
 21
-253.984642437497
  0
LINE
  5
2B8
100
AcDbEntity
  8
1
  6
PHANTOM
 62
           3
100
AcDbLine
 10
-540.222532161378
 20
-249.599418396939
 11
-540.222532161378
 21
-259.763410309272
  0
LINE
  5
2B7
100
AcDbEntity
  8
1
  6
PHANTOM
 62
           3
100
AcDbLine
 10
-519.222532161378
 20
-502.72152974779
 11
-519.222532161378
 21
-469.927183422638
  0
LINE
  5
2B6
100
AcDbEntity
  8
1
  6
PHANTOM
 62
           3
100
AcDbLine
 10
-543.222532161378
 20
-536.22152974779
 11
-543.222532161378
 21
-461.370169279238
  0
LINE
  5
2B5
100
AcDbEntity
  8
1
  6
PHANTOM
 62
           3
100
AcDbLine
 10
-519.222532161378
 20
-536.22152974779
 11
-519.222532161378
 21
-510.72152974779
  0
LINE
  5
2B4
100
AcDbEntity
  8
1
  6
PHANTOM
 62
           3
100
AcDbLine
 10
-695.722532161377
 20
-320.221529747791
 11
-695.722532161377
 21
-356.221529747789
  0
LINE
  5
2B3
100
AcDbEntity
  8
1
  6
PHANTOM
 62
           3
100
AcDbLine
 10
-707.722532161378
 20
-320.22152974779
 11
-707.722532161378
 21
-315.221529747791
  0
LINE
  5
2B2
100
AcDbEntity
  8
1
  6
PHANTOM
 62
           3
100
AcDbLine
 10
-722.722532161378
 20
-320.221529747789
 11
-722.722532161378
 21
-315.221529747791
  0
LINE
  5
2B1
100
AcDbEntity
  8
1
  6
PHANTOM
 62
           3
100
AcDbLine
 10
-722.722532161378
 20
-315.221529747791
 11
-707.722532161378
 21
-315.221529747791
  0
LINE
  5
2B0
100
AcDbEntity
  8
1
  6
PHANTOM
 62
           3
100
AcDbLine
 10
-695.722532161377
 20
-356.221529747789
 11
-734.722532161379
 21
-356.22152974779
  0
LINE
  5
2AF
100
AcDbEntity
  8
1
  6
PHANTOM
 62
           3
100
AcDbLine
 10
-734.722532161379
 20
-356.22152974779
 11
-734.722532161379
 21
-320.221529747789
  0
LINE
  5
2AE
100
AcDbEntity
  8
1
  6
PHANTOM
 62
           3
100
AcDbLine
 10
-695.722532161377
 20
-320.221529747791
 11
-734.722532161379
 21
-320.221529747789
  0
LINE
  5
2AD
100
AcDbEntity
  8
1
  6
PHANTOM
 62
           3
100
AcDbLine
 10
-715.222532161378
 20
-511.608201728768
 11
-715.222532161378
 21
-302.941570097253
  0
LINE
  5
2AC
100
AcDbEntity
  8
1
  6
PHANTOM
 62
           3
100
AcDbLine
 10
-693.222532161378
 20
-373.721529747791
 11
-607.00999713335
 21
-373.721529747788
  0
LINE
  5
2AB
100
AcDbEntity
  8
1
  6
PHANTOM
 62
           3
100
AcDbLine
 10
-732.194205262468
 20
-383.721529747789
 11
-595.787260869529
 21
-383.721529747789
  0
LINE
  5
2AA
100
AcDbEntity
  8
1
  6
PHANTOM
 62
           3
100
AcDbLine
 10
-693.222532161378
 20
-393.72152974779
 11
-602.811779946296
 21
-393.721529747791
  0
LINE
  5
2A9
100
AcDbEntity
  8
1
  6
PHANTOM
 62
           3
100
AcDbLine
 10
-715.222532161378
 20
-395.22152974779
 11
-728.722532161378
 21
-395.221529747789
  0
LINE
  5
2A8
100
AcDbEntity
  8
1
  6
PHANTOM
 62
           3
100
AcDbLine
 10
-727.222532161378
 20
-366.221529747789
 11
-727.222532161378
 21
-356.221529747789
  0
LINE
  5
2A7
100
AcDbEntity
  8
1
  6
PHANTOM
 62
           3
100
AcDbLine
 10
-703.222532161378
 20
-366.221529747789
 11
-703.222532161378
 21
-356.221529747789
  0
LINE
  5
2A6
100
AcDbEntity
  8
1
  6
PHANTOM
 62
           3
100
AcDbLine
 10
-728.722532161378
 20
-395.221529747789
 11
-728.722532161378
 21
-372.221529747789
  0
LINE
  5
2A5
100
AcDbEntity
  8
1
  6
PHANTOM
 62
           3
100
AcDbLine
 10
-699.222532161378
 20
-372.221529747789
 11
-699.222532161378
 21
-366.221529747789
  0
LINE
  5
2A4
100
AcDbEntity
  8
1
  6
PHANTOM
 62
           3
100
AcDbLine
 10
-699.222532161378
 20
-366.221529747789
 11
-731.222532161378
 21
-366.221529747789
  0
LINE
  5
2A3
100
AcDbEntity
  8
1
  6
PHANTOM
 62
           3
100
AcDbLine
 10
-731.222532161378
 20
-366.221529747789
 11
-731.222532161378
 21
-372.221529747789
  0
LINE
  5
2A2
100
AcDbEntity
  8
1
  6
PHANTOM
 62
           3
100
AcDbLine
 10
-731.222532161378
 20
-372.221529747789
 11
-715.222532161378
 21
-372.221529747789
  0
LINE
  5
2A1
100
AcDbEntity
  8
1
  6
PHANTOM
 62
           3
100
AcDbLine
 10
-693.222532161378
 20
-395.22152974779
 11
-693.222532161379
 21
-372.221529747789
  0
LINE
  5
2A0
100
AcDbEntity
  8
1
  6
PHANTOM
 62
           3
100
AcDbLine
 10
-693.222532161378
 20
-395.22152974779
 11
-715.222532161378
 21
-395.22152974779
  0
LINE
  5
29F
100
AcDbEntity
  8
1
  6
PHANTOM
 62
           3
100
AcDbLine
 10
-693.222532161379
 20
-372.221529747789
 11
-715.222532161378
 21
-372.221529747789
  0
LINE
  5
29E
100
AcDbEntity
  8
1
  6
PHANTOM
 62
           3
100
AcDbLine
 10
-703.722007423234
 20
-463.719259745541
 11
-703.722007423234
 21
-407.221529747791
  0
LINE
  5
29D
100
AcDbEntity
  8
1
  6
PHANTOM
 62
           3
100
AcDbLine
 10
-703.222532161378
 20
-395.22152974779
 11
-703.222532161378
 21
-407.221529747789
  0
LINE
  5
29C
100
AcDbEntity
  8
1
  6
PHANTOM
 62
           3
100
AcDbLine
 10
-703.222532161378
 20
-407.221529747789
 11
-727.222532161378
 21
-407.22152974779
  0
LINE
  5
29B
100
AcDbEntity
  8
1
  6
PHANTOM
 62
           3
100
AcDbLine
 10
-727.222532161378
 20
-407.22152974779
 11
-727.222532161378
 21
-395.22152974779
  0
LINE
  5
29A
100
AcDbEntity
  8
1
  6
PHANTOM
 62
           3
100
AcDbLine
 10
-726.723056899522
 20
-463.719259745541
 11
-726.723056899523
 21
-407.221529747789
  0
LINE
  5
299
100
AcDbEntity
  8
1
  6
PHANTOM
 62
           3
100
AcDbLine
 10
-701.722007423234
 20
-463.719259745541
 11
-728.723056899522
 21
-463.719259745541
  0
LINE
  5
298
100
AcDbEntity
  8
1
  6
PHANTOM
 62
           3
100
AcDbLine
 10
-728.723056899522
 20
-463.719259745541
 11
-728.723056899523
 21
-473.221005009646
  0
LINE
  5
297
100
AcDbEntity
  8
1
  6
PHANTOM
 62
           3
100
AcDbLine
 10
-746.224802163627
 20
-480.72152974779
 11
-742.224802163627
 21
-480.72152974779
  0
LINE
  5
296
100
AcDbEntity
  8
1
  6
PHANTOM
 62
           3
100
AcDbLine
 10
-746.224802163627
 20
-475.721529747789
 11
-754.224802163628
 21
-475.721529747789
  0
LINE
  5
295
100
AcDbEntity
  8
1
  6
PHANTOM
 62
           3
100
AcDbLine
 10
-742.224802163627
 20
-477.221005009646
 11
-732.723056899523
 21
-477.221005009647
  0
LINE
  5
294
100
AcDbEntity
  8
1
  6
PHANTOM
 62
           3
100
AcDbLine
 10
-746.224802163627
 20
-499.22152974779
 11
-754.224802163628
 21
-499.22152974779
  0
LINE
  5
293
100
AcDbEntity
  8
1
  6
PHANTOM
 62
           3
100
AcDbLine
 10
-754.224802163628
 20
-482.22152974779
 11
-746.224802163627
 21
-482.22152974779
  0
LINE
  5
292
100
AcDbEntity
  8
1
  6
PHANTOM
 62
           3
100
AcDbLine
 10
-766.222532161379
 20
-497.72152974779
 11
-766.222532161379
 21
-483.721529747791
  0
LINE
  5
291
100
AcDbEntity
  8
1
  6
PHANTOM
 62
           3
100
AcDbLine
 10
-766.222532161379
 20
-497.72152974779
 11
-754.224802163628
 21
-497.72152974779
  0
LINE
  5
290
100
AcDbEntity
  8
1
  6
PHANTOM
 62
           3
100
AcDbLine
 10
-766.222532161379
 20
-483.721529747791
 11
-754.224802163628
 21
-483.72152974779
  0
LINE
  5
28F
100
AcDbEntity
  8
1
  6
PHANTOM
 62
           3
100
AcDbLine
 10
-746.224802163628
 20
-500.721529747789
 11
-742.224802163627
 21
-500.72152974779
  0
LINE
  5
28E
100
AcDbEntity
  8
1
  6
PHANTOM
 62
           3
100
AcDbLine
 10
-746.224802163627
 20
-505.72152974779
 11
-746.224802163627
 21
-475.721529747789
  0
LINE
  5
28D
100
AcDbEntity
  8
1
  6
PHANTOM
 62
           3
100
AcDbLine
 10
-754.224802163628
 20
-475.721529747789
 11
-754.224802163628
 21
-505.72152974779
  0
LINE
  5
28C
100
AcDbEntity
  8
1
  6
PHANTOM
 62
           3
100
AcDbLine
 10
-754.224802163628
 20
-505.72152974779
 11
-746.224802163627
 21
-505.72152974779
  0
LINE
  5
28B
100
AcDbEntity
  8
1
  6
PHANTOM
 62
           3
100
AcDbLine
 10
-742.224802163627
 20
-477.221005009646
 11
-742.224802163628
 21
-504.222054485933
  0
LINE
  5
28A
100
AcDbEntity
  8
1
  6
PHANTOM
 62
           3
100
AcDbLine
 10
-742.224802163628
 20
-504.222054485933
 11
-688.220262159129
 21
-504.222054485934
  0
LINE
  5
289
100
AcDbEntity
  8
1
  6
PHANTOM
 62
           3
100
AcDbLine
 10
-617.222532161378
 20
-502.72152974779
 11
-617.222532161378
 21
-486.721529747791
  0
LINE
  5
288
100
AcDbEntity
  8
1
  6
PHANTOM
 62
           3
100
AcDbLine
 10
-609.222532161378
 20
-502.72152974779
 11
-609.222532161378
 21
-486.721529747791
  0
LINE
  5
287
100
AcDbEntity
  8
1
  6
PHANTOM
 62
           3
100
AcDbLine
 10
-601.222532161378
 20
-502.721529747791
 11
-601.222532161377
 21
-486.721529747791
  0
LINE
  5
286
100
AcDbEntity
  8
1
  6
PHANTOM
 62
           3
100
AcDbLine
 10
-625.222532161378
 20
-486.721529747789
 11
-625.222532161378
 21
-502.72152974779
  0
LINE
  5
285
100
AcDbEntity
  8
1
  6
PHANTOM
 62
           3
100
AcDbLine
 10
-630.972532161378
 20
-475.72152974779
 11
-630.972532161378
 21
-444.221529747789
  0
LINE
  5
284
100
AcDbEntity
  8
1
  6
PHANTOM
 62
           3
100
AcDbLine
 10
-627.972532161378
 20
-441.221529747789
 11
-598.472532161378
 21
-441.22152974779
  0
LINE
  5
283
100
AcDbEntity
  8
1
  6
PHANTOM
 62
           3
100
AcDbLine
 10
-595.472532161378
 20
-444.221529747791
 11
-595.472532161379
 21
-475.721529747789
  0
LINE
  5
282
100
AcDbEntity
  8
1
  6
PHANTOM
 62
           3
100
AcDbLine
 10
-566.220337464015
 20
-491.72152974779
 11
-566.220337464015
 21
-501.478757278474
  0
LINE
  5
281
100
AcDbEntity
  8
1
  6
PHANTOM
 62
           3
100
AcDbLine
 10
-566.220337464015
 20
-499.22152974779
 11
-576.722532161378
 21
-499.221529747791
  0
LINE
  5
280
100
AcDbEntity
  8
1
  6
PHANTOM
 62
           3
100
AcDbLine
 10
-579.722532161378
 20
-484.221529747791
 11
-566.220337464015
 21
-484.221529747791
  0
LINE
  5
27F
100
AcDbEntity
  8
1
  6
PHANTOM
 62
           3
100
AcDbLine
 10
-566.220337464016
 20
-481.960802811626
 11
-566.220337464015
 21
-491.72152974779
  0
LINE
  5
27E
100
AcDbEntity
  8
1
  6
PHANTOM
 62
           3
100
AcDbLine
 10
-591.949262241544
 20
-496.72152974779
 11
-593.222532161378
 21
-496.72152974779
  0
LINE
  5
27D
100
AcDbEntity
  8
1
  6
PHANTOM
 62
           3
100
AcDbLine
 10
-593.222532161378
 20
-475.72152974779
 11
-633.222532161378
 21
-475.721529747789
  0
LINE
  5
27C
100
AcDbEntity
  8
1
  6
PHANTOM
 62
           3
100
AcDbLine
 10
-633.222532161378
 20
-477.221529747791
 11
-593.222532161378
 21
-477.22152974779
  0
LINE
  5
27B
100
AcDbEntity
  8
1
  6
PHANTOM
 62
           3
100
AcDbLine
 10
-633.222532161378
 20
-481.72152974779
 11
-593.222532161378
 21
-481.72152974779
  0
LINE
  5
27A
100
AcDbEntity
  8
1
  6
PHANTOM
 62
           3
100
AcDbLine
 10
-633.222532161378
 20
-502.72152974779
 11
-633.222532161378
 21
-475.721529747789
  0
LINE
  5
279
100
AcDbEntity
  8
1
  6
PHANTOM
 62
           3
100
AcDbLine
 10
-643.222532161378
 20
-496.72152974779
 11
-633.222532161378
 21
-496.721529747789
  0
LINE
  5
278
100
AcDbEntity
  8
1
  6
PHANTOM
 62
           3
100
AcDbLine
 10
-643.222532161378
 20
-486.72152974779
 11
-589.722532161378
 21
-486.72152974779
  0
LINE
  5
277
100
AcDbEntity
  8
1
  6
PHANTOM
 62
           3
100
AcDbLine
 10
-648.222532161378
 20
-485.22152974779
 11
-643.222532161378
 21
-485.22152974779
  0
LINE
  5
276
100
AcDbEntity
  8
1
  6
PHANTOM
 62
           3
100
AcDbLine
 10
-648.222532161378
 20
-498.22152974779
 11
-643.222532161378
 21
-498.22152974779
  0
LINE
  5
275
100
AcDbEntity
  8
1
  6
PHANTOM
 62
           3
100
AcDbLine
 10
-643.222532161378
 20
-501.72152974779
 11
-643.222532161378
 21
-481.72152974779
  0
LINE
  5
274
100
AcDbEntity
  8
1
  6
PHANTOM
 62
           3
100
AcDbLine
 10
-648.222532161378
 20
-481.72152974779
 11
-648.222532161379
 21
-501.721529747791
  0
LINE
  5
273
100
AcDbEntity
  8
1
  6
PHANTOM
 62
           3
100
AcDbLine
 10
-683.222532161378
 20
-481.72152974779
 11
-643.222532161378
 21
-481.72152974779
  0
LINE
  5
272
100
AcDbEntity
  8
1
  6
PHANTOM
 62
           3
100
AcDbLine
 10
-683.222532161378
 20
-501.72152974779
 11
-643.222532161378
 21
-501.72152974779
  0
LINE
  5
271
100
AcDbEntity
  8
1
  6
PHANTOM
 62
           3
100
AcDbLine
 10
-658.222532161378
 20
-481.721529747789
 11
-658.222532161378
 21
-467.721529747789
  0
LINE
  5
270
100
AcDbEntity
  8
1
  6
PHANTOM
 62
           3
100
AcDbLine
 10
-643.222532161378
 20
-472.72152974779
 11
-643.222532161378
 21
-467.721529747791
  0
LINE
  5
26F
100
AcDbEntity
  8
1
  6
PHANTOM
 62
           3
100
AcDbLine
 10
-658.222532161378
 20
-475.721529747789
 11
-643.222532161378
 21
-472.72152974779
  0
LINE
  5
26E
100
AcDbEntity
  8
1
  6
PHANTOM
 62
           3
100
AcDbLine
 10
-663.222532161379
 20
-505.147554268819
 11
-663.222532161378
 21
-465.158421329179
  0
LINE
  5
26D
100
AcDbEntity
  8
1
  6
PHANTOM
 62
           3
100
AcDbLine
 10
-668.222532161379
 20
-481.721529747789
 11
-668.222532161378
 21
-467.721529747791
  0
LINE
  5
26C
100
AcDbEntity
  8
1
  6
PHANTOM
 62
           3
100
AcDbLine
 10
-683.222532161378
 20
-467.721529747791
 11
-643.222532161378
 21
-467.721529747791
  0
LINE
  5
26B
100
AcDbEntity
  8
1
  6
PHANTOM
 62
           3
100
AcDbLine
 10
-668.222532161378
 20
-475.72152974779
 11
-683.222532161378
 21
-472.72152974779
  0
LINE
  5
26A
100
AcDbEntity
  8
1
  6
PHANTOM
 62
           3
100
AcDbLine
 10
-683.222532161378
 20
-472.72152974779
 11
-683.222532161378
 21
-467.721529747791
  0
LINE
  5
269
100
AcDbEntity
  8
1
  6
PHANTOM
 62
           3
100
AcDbLine
 10
-697.722007423234
 20
-477.221005009645
 11
-688.220262159129
 21
-477.221005009646
  0
LINE
  5
268
100
AcDbEntity
  8
1
  6
PHANTOM
 62
           3
100
AcDbLine
 10
-683.222532161378
 20
-485.22152974779
 11
-678.222532161378
 21
-485.221529747789
  0
LINE
  5
267
100
AcDbEntity
  8
1
  6
PHANTOM
 62
           3
100
AcDbLine
 10
-683.222532161378
 20
-481.72152974779
 11
-683.222532161378
 21
-501.72152974779
  0
LINE
  5
266
100
AcDbEntity
  8
1
  6
PHANTOM
 62
           3
100
AcDbLine
 10
-683.222532161379
 20
-498.221529747791
 11
-678.222532161378
 21
-498.22152974779
  0
LINE
  5
265
100
AcDbEntity
  8
1
  6
PHANTOM
 62
           3
100
AcDbLine
 10
-685.722532161378
 20
-479.721529747791
 11
-687.222532161378
 21
-467.721529747791
  0
LINE
  5
264
100
AcDbEntity
  8
1
  6
PHANTOM
 62
           3
100
AcDbLine
 10
-699.222532161378
 20
-467.72152974779
 11
-687.222532161378
 21
-467.721529747791
  0
LINE
  5
263
100
AcDbEntity
  8
1
  6
PHANTOM
 62
           3
100
AcDbLine
 10
-685.722532161378
 20
-482.72152974779
 11
-685.722532161378
 21
-479.721529747791
  0
LINE
  5
262
100
AcDbEntity
  8
1
  6
PHANTOM
 62
           3
100
AcDbLine
 10
-700.722532161378
 20
-482.72152974779
 11
-685.722532161378
 21
-482.72152974779
  0
LINE
  5
261
100
AcDbEntity
  8
1
  6
PHANTOM
 62
           3
100
AcDbLine
 10
-685.722532161378
 20
-479.721529747791
 11
-700.722532161378
 21
-479.72152974779
  0
LINE
  5
260
100
AcDbEntity
  8
1
  6
PHANTOM
 62
           3
100
AcDbLine
 10
-700.722532161378
 20
-479.72152974779
 11
-700.722532161378
 21
-482.72152974779
  0
LINE
  5
25F
100
AcDbEntity
  8
1
  6
PHANTOM
 62
           3
100
AcDbLine
 10
-700.722532161378
 20
-479.72152974779
 11
-699.222532161378
 21
-467.72152974779
  0
LINE
  5
25E
100
AcDbEntity
  8
1
  6
PHANTOM
 62
           3
100
AcDbLine
 10
-584.722532161379
 20
-435.721529747789
 11
-584.722532161378
 21
-551.198916322939
  0
LINE
  5
25D
100
AcDbEntity
  8
1
  6
PHANTOM
 62
           3
100
AcDbLine
 10
-603.722532161378
 20
-546.22152974779
 11
-603.722532161378
 21
-527.22152974779
  0
LINE
  5
25C
100
AcDbEntity
  8
1
  6
PHANTOM
 62
           3
100
AcDbLine
 10
-603.722532161378
 20
-546.22152974779
 11
-584.722532161378
 21
-546.221529747791
  0
LINE
  5
25B
100
AcDbEntity
  8
1
  6
PHANTOM
 62
           3
100
AcDbLine
 10
-584.722532161378
 20
-546.221529747791
 11
-565.722532161378
 21
-546.22152974779
  0
LINE
  5
25A
100
AcDbEntity
  8
1
  6
PHANTOM
 62
           3
100
AcDbLine
 10
-565.722532161378
 20
-527.221529747791
 11
-565.722532161378
 21
-546.22152974779
  0
LINE
  5
259
100
AcDbEntity
  8
1
  6
PHANTOM
 62
           3
100
AcDbLine
 10
-575.222532161378
 20
-527.22152974779
 11
-565.722532161378
 21
-527.221529747791
  0
LINE
  5
258
100
AcDbEntity
  8
1
  6
PHANTOM
 62
           3
100
AcDbLine
 10
-607.722532161378
 20
-539.72152974779
 11
-603.722532161378
 21
-539.72152974779
  0
LINE
  5
257
100
AcDbEntity
  8
1
  6
PHANTOM
 62
           3
100
AcDbLine
 10
-607.722532161378
 20
-533.72152974779
 11
-603.722532161378
 21
-533.72152974779
  0
LINE
  5
256
100
AcDbEntity
  8
1
  6
PHANTOM
 62
           3
100
AcDbLine
 10
-607.722532161378
 20
-542.43950274806
 11
-611.722532161379
 21
-542.43950274806
  0
LINE
  5
255
100
AcDbEntity
  8
1
  6
PHANTOM
 62
           3
100
AcDbLine
 10
-611.722532161379
 20
-531.00355674752
 11
-607.722532161378
 21
-531.00355674752
  0
LINE
  5
254
100
AcDbEntity
  8
1
  6
PHANTOM
 62
           3
100
AcDbLine
 10
-603.722532161378
 20
-528.72152974779
 11
-607.722532161379
 21
-528.721529747791
  0
LINE
  5
253
100
AcDbEntity
  8
1
  6
PHANTOM
 62
           3
100
AcDbLine
 10
-607.722532161379
 20
-528.721529747791
 11
-607.722532161378
 21
-544.72152974779
  0
LINE
  5
252
100
AcDbEntity
  8
1
  6
PHANTOM
 62
           3
100
AcDbLine
 10
-607.722532161378
 20
-544.72152974779
 11
-603.722532161378
 21
-544.72152974779
  0
LINE
  5
251
100
AcDbEntity
  8
1
  6
PHANTOM
 62
           3
100
AcDbLine
 10
-565.722532161378
 20
-544.721529747788
 11
-560.722532161379
 21
-544.721529747789
  0
LINE
  5
250
100
AcDbEntity
  8
1
  6
PHANTOM
 62
           3
100
AcDbLine
 10
-565.722532161379
 20
-528.721529747789
 11
-560.722532161378
 21
-528.721529747788
  0
LINE
  5
24F
100
AcDbEntity
  8
1
  6
PHANTOM
 62
           3
100
AcDbLine
 10
-560.722532161378
 20
-542.72152974779
 11
-554.722532161378
 21
-542.72152974779
  0
LINE
  5
24E
100
AcDbEntity
  8
1
  6
PHANTOM
 62
           3
100
AcDbLine
 10
-560.722532161378
 20
-530.72152974779
 11
-554.722532161378
 21
-530.72152974779
  0
LINE
  5
24D
100
AcDbEntity
  8
1
  6
PHANTOM
 62
           3
100
AcDbLine
 10
-554.722532161379
 20
-551.721529747789
 11
-554.722532161378
 21
-521.721529747788
  0
LINE
  5
24C
100
AcDbEntity
  8
1
  6
PHANTOM
 62
           3
100
AcDbLine
 10
-554.722532161378
 20
-521.721529747788
 11
-560.722532161378
 21
-521.72152974779
  0
LINE
  5
24B
100
AcDbEntity
  8
1
  6
PHANTOM
 62
           3
100
AcDbLine
 10
-560.722532161378
 20
-521.72152974779
 11
-560.722532161378
 21
-551.72152974779
  0
LINE
  5
24A
100
AcDbEntity
  8
1
  6
PHANTOM
 62
           3
100
AcDbLine
 10
-560.722532161378
 20
-551.72152974779
 11
-554.722532161379
 21
-551.721529747789
  0
LINE
  5
249
100
AcDbEntity
  8
1
  6
PHANTOM
 62
           3
100
AcDbLine
 10
-554.722532161378
 20
-525.72152974779
 11
-550.722532161378
 21
-525.72152974779
  0
LINE
  5
248
100
AcDbEntity
  8
1
  6
PHANTOM
 62
           3
100
AcDbLine
 10
-554.722532161378
 20
-547.72152974779
 11
-550.722532161378
 21
-547.72152974779
  0
LINE
  5
247
100
AcDbEntity
  8
1
  6
PHANTOM
 62
           3
100
AcDbLine
 10
-550.722532161378
 20
-550.003857932738
 11
-550.722532161378
 21
-521.72152974779
  0
LINE
  5
246
100
AcDbEntity
  8
1
  6
PHANTOM
 62
           3
100
AcDbLine
 10
-550.722532161378
 20
-521.72152974779
 11
-543.222532161378
 21
-521.721529747789
  0
LINE
  5
245
100
AcDbEntity
  8
1
  6
PHANTOM
 62
           3
100
AcDbLine
 10
-551.222532161379
 20
-562.721529747791
 11
-511.222532161378
 21
-562.72152974779
  0
LINE
  5
244
100
AcDbEntity
  8
1
  6
PHANTOM
 62
           3
100
AcDbLine
 10
-551.222532161378
 20
-550.22152974779
 11
-551.222532161379
 21
-562.721529747791
  0
LINE
  5
243
100
AcDbEntity
  8
1
  6
PHANTOM
 62
           3
100
AcDbLine
 10
-511.222532161378
 20
-550.22152974779
 11
-551.222532161378
 21
-550.22152974779
  0
LINE
  5
242
100
AcDbEntity
  8
1
  6
PHANTOM
 62
           3
100
AcDbLine
 10
-511.222532161378
 20
-562.72152974779
 11
-511.222532161378
 21
-550.22152974779
  0
LINE
  5
241
100
AcDbEntity
  8
1
  6
PHANTOM
 62
           3
100
AcDbLine
 10
-516.222532161378
 20
-536.221529747791
 11
-516.222532161378
 21
-550.22152974779
  0
LINE
  5
240
100
AcDbEntity
  8
1
  6
PHANTOM
 62
           3
100
AcDbLine
 10
-546.222532161378
 20
-536.22152974779
 11
-546.222532161378
 21
-550.22152974779
  0
LINE
  5
23F
100
AcDbEntity
  8
1
  6
PHANTOM
 62
           3
100
AcDbLine
 10
-546.222532161378
 20
-536.22152974779
 11
-516.222532161378
 21
-536.221529747791
  0
LINE
  5
23E
100
AcDbEntity
  8
1
  6
PHANTOM
 62
           3
100
AcDbLine
 10
-516.222532161378
 20
-562.72152974779
 11
-516.222532161378
 21
-576.72152974779
  0
LINE
  5
23D
100
AcDbEntity
  8
1
  6
PHANTOM
 62
           3
100
AcDbLine
 10
-516.222532161378
 20
-576.72152974779
 11
-546.222532161378
 21
-576.72152974779
  0
LINE
  5
23C
100
AcDbEntity
  8
1
  6
PHANTOM
 62
           3
100
AcDbLine
 10
-546.222532161378
 20
-562.72152974779
 11
-546.222532161378
 21
-576.72152974779
  0
LINE
  5
23B
100
AcDbEntity
  8
1
  6
PHANTOM
 62
           3
100
AcDbLine
 10
-524.222532161378
 20
-550.22152974779
 11
-524.222532161379
 21
-536.221529747789
  0
LINE
  5
23A
100
AcDbEntity
  8
1
  6
PHANTOM
 62
           3
100
AcDbLine
 10
-538.222532161378
 20
-550.22152974779
 11
-538.222532161378
 21
-536.22152974779
  0
LINE
  5
239
100
AcDbEntity
  8
1
  6
PHANTOM
 62
           3
100
AcDbLine
 10
-524.222532161379
 20
-576.721529747789
 11
-524.222532161378
 21
-562.72152974779
  0
LINE
  5
238
100
AcDbEntity
  8
1
  6
PHANTOM
 62
           3
100
AcDbLine
 10
-538.222532161378
 20
-576.72152974779
 11
-538.222532161378
 21
-562.72152974779
  0
LINE
  5
237
100
AcDbEntity
  8
1
  6
PHANTOM
 62
           3
100
AcDbLine
 10
-521.222532161378
 20
-562.72152974779
 11
-521.222532161378
 21
-550.221529747791
  0
LINE
  5
236
100
AcDbEntity
  8
1
  6
PHANTOM
 62
           3
100
AcDbLine
 10
-541.222532161378
 20
-562.72152974779
 11
-541.222532161378
 21
-550.221529747791
  0
LINE
  5
235
100
AcDbEntity
  8
1
  6
PHANTOM
 62
           3
100
AcDbLine
 10
-594.222532161378
 20
-517.221529747791
 11
-575.222532161378
 21
-517.221529747791
  0
LINE
  5
234
100
AcDbEntity
  8
1
  6
PHANTOM
 62
           3
100
AcDbLine
 10
-575.222532161378
 20
-536.721529747789
 11
-575.222532161378
 21
-517.221529747791
  0
LINE
  5
233
100
AcDbEntity
  8
1
  6
PHANTOM
 62
           3
100
AcDbLine
 10
-594.222532161378
 20
-536.72152974779
 11
-594.222532161378
 21
-517.221529747791
  0
LINE
  5
232
100
AcDbEntity
  8
1
  6
PHANTOM
 62
           3
100
AcDbLine
 10
-603.722532161378
 20
-527.22152974779
 11
-594.222532161378
 21
-527.22152974779
  0
LINE
  5
231
100
AcDbEntity
  8
1
  6
PHANTOM
 62
           3
100
AcDbLine
 10
-590.722532161378
 20
-493.221529747791
 11
-578.722532161379
 21
-493.221529747789
  0
LINE
  5
230
100
AcDbEntity
  8
1
  6
PHANTOM
 62
           3
100
AcDbLine
 10
-590.722532161378
 20
-493.221529747791
 11
-594.722532161378
 21
-505.221529747791
  0
LINE
  5
22F
100
AcDbEntity
  8
1
  6
PHANTOM
 62
           3
100
AcDbLine
 10
-578.722532161379
 20
-493.221529747789
 11
-574.722532161378
 21
-505.221529747791
  0
LINE
  5
22E
100
AcDbEntity
  8
1
  6
PHANTOM
 62
           3
100
AcDbLine
 10
-589.722532161378
 20
-505.22152974779
 11
-589.722532161378
 21
-508.22152974779
  0
LINE
  5
22D
100
AcDbEntity
  8
1
  6
PHANTOM
 62
           3
100
AcDbLine
 10
-589.722532161378
 20
-511.22152974779
 11
-589.722532161379
 21
-515.221529747791
  0
LINE
  5
22C
100
AcDbEntity
  8
1
  6
PHANTOM
 62
           3
100
AcDbLine
 10
-579.722532161378
 20
-505.22152974779
 11
-579.722532161378
 21
-508.22152974779
  0
LINE
  5
22B
100
AcDbEntity
  8
1
  6
PHANTOM
 62
           3
100
AcDbLine
 10
-579.722532161378
 20
-511.22152974779
 11
-579.722532161378
 21
-515.22152974779
  0
LINE
  5
22A
100
AcDbEntity
  8
1
  6
PHANTOM
 62
           3
100
AcDbLine
 10
-590.440505161648
 20
-511.22152974779
 11
-590.440505161648
 21
-508.221529747791
  0
LINE
  5
229
100
AcDbEntity
  8
1
  6
PHANTOM
 62
           3
100
AcDbLine
 10
-579.004559161108
 20
-508.22152974779
 11
-579.004559161108
 21
-511.22152974779
  0
LINE
  5
228
100
AcDbEntity
  8
1
  6
PHANTOM
 62
           3
100
AcDbLine
 10
-594.722532161378
 20
-508.22152974779
 11
-574.722532161378
 21
-508.22152974779
  0
LINE
  5
227
100
AcDbEntity
  8
1
  6
PHANTOM
 62
           3
100
AcDbLine
 10
-574.722532161378
 20
-508.22152974779
 11
-574.722532161378
 21
-505.221529747791
  0
LINE
  5
226
100
AcDbEntity
  8
1
  6
PHANTOM
 62
           3
100
AcDbLine
 10
-574.722532161378
 20
-505.221529747791
 11
-594.722532161378
 21
-505.221529747791
  0
LINE
  5
225
100
AcDbEntity
  8
1
  6
PHANTOM
 62
           3
100
AcDbLine
 10
-594.722532161378
 20
-505.221529747791
 11
-594.722532161378
 21
-508.22152974779
  0
LINE
  5
224
100
AcDbEntity
  8
1
  6
PHANTOM
 62
           3
100
AcDbLine
 10
-594.722532161378
 20
-515.22152974779
 11
-574.722532161378
 21
-515.22152974779
  0
LINE
  5
223
100
AcDbEntity
  8
1
  6
PHANTOM
 62
           3
100
AcDbLine
 10
-574.722532161378
 20
-515.22152974779
 11
-574.722532161378
 21
-511.22152974779
  0
LINE
  5
222
100
AcDbEntity
  8
1
  6
PHANTOM
 62
           3
100
AcDbLine
 10
-574.722532161378
 20
-511.22152974779
 11
-594.722532161378
 21
-511.22152974779
  0
LINE
  5
221
100
AcDbEntity
  8
1
  6
PHANTOM
 62
           3
100
AcDbLine
 10
-594.722532161378
 20
-511.22152974779
 11
-594.722532161378
 21
-515.22152974779
  0
LINE
  5
220
100
AcDbEntity
  8
1
  6
PHANTOM
 62
           3
100
AcDbLine
 10
-576.722532161378
 20
-515.22152974779
 11
-576.722532161378
 21
-517.22152974779
  0
LINE
  5
21F
100
AcDbEntity
  8
1
  6
PHANTOM
 62
           3
100
AcDbLine
 10
-592.722532161378
 20
-517.22152974779
 11
-592.722532161378
 21
-515.22152974779
  0
LINE
  5
21E
100
AcDbEntity
  8
1
  6
PHANTOM
 62
           3
100
AcDbLine
 10
-579.722532161379
 20
-435.721529747789
 11
-579.722532161378
 21
-493.22152974779
  0
LINE
  5
21D
100
AcDbEntity
  8
1
  6
PHANTOM
 62
           3
100
AcDbLine
 10
-589.722532161378
 20
-435.72152974779
 11
-589.722532161379
 21
-493.221529747789
  0
LINE
  5
21C
100
AcDbEntity
  8
1
  6
PHANTOM
 62
           3
100
AcDbLine
 10
-593.222532161378
 20
-475.72152974779
 11
-593.222532161378
 21
-500.721529747789
  0
LINE
  5
21B
100
AcDbEntity
  8
1
  6
PHANTOM
 62
           3
100
AcDbLine
 10
-693.222532161378
 20
-498.55600759353
 11
-693.222532161379
 21
-435.721529747789
  0
LINE
  5
21A
100
AcDbEntity
  8
1
  6
PHANTOM
 62
           3
100
AcDbLine
 10
-698.222532161378
 20
-467.72152974779
 11
-698.222532161378
 21
-435.721529747789
  0
LINE
  5
219
100
AcDbEntity
  8
1
  6
PHANTOM
 62
           3
100
AcDbLine
 10
-688.222532161378
 20
-467.721529747791
 11
-688.222532161379
 21
-435.721529747789
  0
LINE
  5
218
100
AcDbEntity
  8
1
  6
PHANTOM
 62
           3
100
AcDbLine
 10
-688.222532161378
 20
-504.222054485934
 11
-688.222532161378
 21
-482.72152974779
  0
LINE
  5
217
100
AcDbEntity
  8
1
  6
PHANTOM
 62
           3
100
AcDbLine
 10
-698.222532161378
 20
-496.72152974779
 11
-698.222532161378
 21
-482.72152974779
  0
LINE
  5
216
100
AcDbEntity
  8
1
  6
PHANTOM
 62
           3
100
AcDbLine
 10
-683.222532161379
 20
-496.72152974779
 11
-698.222532161378
 21
-496.72152974779
  0
LINE
  5
215
100
AcDbEntity
  8
1
  6
PHANTOM
 62
           3
100
AcDbLine
 10
-683.222532161378
 20
-486.721529747789
 11
-698.222532161378
 21
-486.72152974779
  0
LINE
  5
214
100
AcDbEntity
  8
1
  6
PHANTOM
 62
           3
100
AcDbLine
 10
-701.722007423234
 20
-473.221005009646
 11
-701.722007423234
 21
-463.719259745541
  0
LINE
  5
213
100
AcDbEntity
  8
1
  6
PHANTOM
 62
           3
100
AcDbLine
 10
-685.222532161378
 20
-432.721529747791
 11
-592.722532161379
 21
-432.721529747789
  0
LINE
  5
212
100
AcDbEntity
  8
1
  6
PHANTOM
 62
           3
100
AcDbLine
 10
-685.222532161378
 20
-427.72152974779
 11
-592.722532161378
 21
-427.721529747791
  0
LINE
  5
211
100
AcDbEntity
  8
1
  6
PHANTOM
 62
           3
100
AcDbLine
 10
-685.222532161379
 20
-422.721529747789
 11
-592.722532161379
 21
-422.721529747789
  0
LINE
  5
210
100
AcDbEntity
  8
1
  6
PHANTOM
 62
           3
100
AcDbLine
 10
-611.722532161379
 20
-531.00355674752
 11
-611.722532161379
 21
-542.43950274806
  0
LINE
  5
20F
100
AcDbEntity
  8
1
  6
PHANTOM
 62
           3
100
AcDbLine
 10
-571.688172268749
 20
-207.471529747789
 11
-496.239111127398
 21
-207.471529747789
  0
LINE
  5
20E
100
AcDbEntity
  8
1
  6
PHANTOM
 62
           3
100
AcDbLine
 10
-531.222532161378
 20
-151.53961656212
 11
-531.222532161378
 21
-268.097020377758
  0
LINE
  5
20D
100
AcDbEntity
  8
1
  6
PHANTOM
 62
           3
100
AcDbLine
 10
-622.630409697558
 20
-278.97152974779
 11
-570.763188648022
 21
-278.971529747789
  0
LINE
  5
20C
100
AcDbEntity
  8
1
  6
PHANTOM
 62
           3
100
AcDbLine
 10
-622.630409697558
 20
-295.97152974779
 11
-587.514970421469
 21
-295.971529747791
  0
LINE
  5
20B
100
AcDbEntity
  8
1
  6
PHANTOM
 62
           3
100
AcDbLine
 10
-711.404345796725
 20
-287.471529747789
 11
-565.082784449599
 21
-287.471529747789
  0
LINE
  5
20A
100
AcDbEntity
  8
1
  6
PHANTOM
 62
           3
100
AcDbLine
 10
-632.222532161378
 20
-277.471529747789
 11
-632.222532161378
 21
-274.471529747789
  0
LINE
  5
209
100
AcDbEntity
  8
1
  6
PHANTOM
 62
           3
100
AcDbLine
 10
-623.222532161378
 20
-297.471529747789
 11
-637.222532161378
 21
-297.471529747789
  0
LINE
  5
208
100
AcDbEntity
  8
1
  6
PHANTOM
 62
           3
100
AcDbLine
 10
-623.222532161378
 20
-297.471529747789
 11
-623.222532161378
 21
-285.471529747789
  0
LINE
  5
207
100
AcDbEntity
  8
1
  6
PHANTOM
 62
           3
100
AcDbLine
 10
-623.222532161378
 20
-279.971529747789
 11
-626.222532161378
 21
-279.971529747789
  0
LINE
  5
206
100
AcDbEntity
  8
1
  6
PHANTOM
 62
           3
100
AcDbLine
 10
-623.222532161378
 20
-282.971529747789
 11
-626.222532161378
 21
-282.971529747789
  0
LINE
  5
205
100
AcDbEntity
  8
1
  6
PHANTOM
 62
           3
100
AcDbLine
 10
-626.222532161378
 20
-285.471529747789
 11
-626.222532161378
 21
-277.471529747789
  0
LINE
  5
204
100
AcDbEntity
  8
1
  6
PHANTOM
 62
           3
100
AcDbLine
 10
-627.222532161378
 20
-277.471529747789
 11
-640.222532161378
 21
-277.471529747789
  0
LINE
  5
203
100
AcDbEntity
  8
1
  6
PHANTOM
 62
           3
100
AcDbLine
 10
-627.222532161378
 20
-285.471529747789
 11
-640.222532161378
 21
-285.471529747789
  0
LINE
  5
202
100
AcDbEntity
  8
1
  6
PHANTOM
 62
           3
100
AcDbLine
 10
-623.222532161378
 20
-285.471529747789
 11
-623.222532161378
 21
-277.471529747789
  0
LINE
  5
201
100
AcDbEntity
  8
1
  6
PHANTOM
 62
           3
100
AcDbLine
 10
-627.222532161378
 20
-285.471529747789
 11
-623.222532161378
 21
-285.471529747789
  0
LINE
  5
200
100
AcDbEntity
  8
1
  6
PHANTOM
 62
           3
100
AcDbLine
 10
-627.222532161378
 20
-277.471529747789
 11
-627.222532161378
 21
-285.471529747789
  0
LINE
  5
1FF
100
AcDbEntity
  8
1
  6
PHANTOM
 62
           3
100
AcDbLine
 10
-623.222532161378
 20
-277.471529747789
 11
-627.222532161378
 21
-277.471529747789
  0
LINE
  5
1FE
100
AcDbEntity
  8
1
  6
PHANTOM
 62
           3
100
AcDbLine
 10
-630.222532161379
 20
-312.471529747789
 11
-630.222532161378
 21
-300.471529747791
  0
LINE
  5
1FD
100
AcDbEntity
  8
1
  6
PHANTOM
 62
           3
100
AcDbLine
 10
-630.222532161378
 20
-300.471529747791
 11
-640.222532161379
 21
-300.471529747789
  0
LINE
  5
1FC
100
AcDbEntity
  8
1
  6
PHANTOM
 62
           3
100
AcDbLine
 10
-630.222532161379
 20
-312.471529747789
 11
-640.222532161379
 21
-312.471529747789
  0
LINE
  5
1FB
100
AcDbEntity
  8
1
  6
PHANTOM
 62
           3
100
AcDbLine
 10
-623.222532161379
 20
-274.471529747789
 11
-623.222532161378
 21
-256.471529747789
  0
LINE
  5
1FA
100
AcDbEntity
  8
1
  6
PHANTOM
 62
           3
100
AcDbLine
 10
-623.222532161379
 20
-274.471529747789
 11
-640.222532161379
 21
-274.471529747789
  0
LINE
  5
1F9
100
AcDbEntity
  8
1
  6
PHANTOM
 62
           3
100
AcDbLine
 10
-651.222532161379
 20
-322.471529747789
 11
-690.336139188145
 21
-321.582584133545
  0
LINE
  5
1F8
100
AcDbEntity
  8
1
  6
PHANTOM
 62
           3
100
AcDbLine
 10
-640.222532161379
 20
-322.471529747789
 11
-640.222532161379
 21
-300.471529747789
  0
LINE
  5
1F7
100
AcDbEntity
  8
1
  6
PHANTOM
 62
           3
100
AcDbLine
 10
-651.222532161379
 20
-322.471529747789
 11
-640.222532161379
 21
-322.471529747789
  0
LINE
  5
1F6
100
AcDbEntity
  8
1
  6
PHANTOM
 62
           3
100
AcDbLine
 10
-640.222532161379
 20
-300.471529747789
 11
-640.222532161378
 21
-256.471529747789
  0
LINE
  5
1F5
100
AcDbEntity
  8
1
  6
PHANTOM
 62
           3
100
AcDbLine
 10
-662.222532161379
 20
-322.221529747789
 11
-662.222532161379
 21
-256.471529747789
  0
LINE
  5
1F4
100
AcDbEntity
  8
1
  6
PHANTOM
 62
           3
100
AcDbLine
 10
-650.222532161379
 20
-322.471529747789
 11
-650.222532161379
 21
-256.471529747789
  0
LINE
  5
1F3
100
AcDbEntity
  8
1
  6
PHANTOM
 62
           3
100
AcDbLine
 10
-651.222532161379
 20
-256.471529747789
 11
-651.222532161379
 21
-322.471529747789
  0
LINE
  5
1F2
100
AcDbEntity
  8
1
  6
PHANTOM
 62
           3
100
AcDbLine
 10
-651.222532161379
 20
-256.471529747789
 11
-690.336139188145
 21
-257.360475362034
  0
LINE
  5
1F1
100
AcDbEntity
  8
1
  6
PHANTOM
 62
           3
100
AcDbLine
 10
-695.222532161379
 20
-316.58387495582
 11
-695.222532161379
 21
-262.359184539759
  0
LINE
  5
1F0
100
AcDbEntity
  8
1
  6
PHANTOM
 62
           3
100
AcDbLine
 10
-640.222532161378
 20
-256.471529747789
 11
-651.222532161379
 21
-256.471529747789
  0
LINE
  5
1EF
100
AcDbEntity
  8
1
  6
PHANTOM
 62
           3
100
AcDbLine
 10
-623.222532161378
 20
-256.471529747789
 11
-640.222532161378
 21
-256.471529747789
  0
LINE
  5
1EE
100
AcDbEntity
  8
1
  6
PHANTOM
 62
           3
100
AcDbLine
 10
-620.464466558055
 20
-281.471529747791
 11
-643.128139504247
 21
-281.471529747789
  0
LINE
  5
1ED
100
AcDbEntity
  8
1
  6
PHANTOM
 62
           3
100
AcDbLine
 10
-678.222532161378
 20
-501.721529747789
 11
-678.222532161378
 21
-481.721529747791
  0
LINE
  5
1EC
100
AcDbEntity
  8
1
  6
PHANTOM
 62
           3
100
AcDbLine
 10
-688.220262159129
 20
-482.72152974779
 11
-688.220262159129
 21
-477.221005009646
  0
LINE
  5
1EB
100
AcDbEntity
  8
1
  6
PHANTOM
 62
           3
100
AcDbLine
 10
-668.222532161378
 20
-480.721529747789
 11
-678.220262159129
 21
-480.721529747789
  0
LINE
  5
1EA
100
AcDbEntity
  8
1
  6
PHANTOM
 62
           3
100
AcDbLine
 10
-632.972532161378
 20
-486.721529747789
 11
-632.972532161378
 21
-438.552415316712
  0
LINE
  5
1E9
100
AcDbEntity
  8
1
  6
PHANTOM
 62
           3
100
AcDbLine
 10
-644.698559558638
 20
-475.721529747789
 11
-644.548709446696
 21
-472.986765204853
  0
LINE
  5
1E8
100
AcDbEntity
  8
1
  6
PHANTOM
 62
           3
100
AcDbLine
 10
-658.222532161378
 20
-479.721529747789
 11
-633.222532161378
 21
-479.721529747789
  0
LINE
  5
1E7
100
AcDbEntity
  8
1
  6
PHANTOM
 62
           3
100
AcDbLine
 10
-658.222532161378
 20
-477.721529747789
 11
-633.222532161378
 21
-477.721529747789
  0
LINE
  5
1E6
100
AcDbEntity
  8
1
  6
PHANTOM
 62
           3
100
AcDbLine
 10
-658.222532161378
 20
-475.721529747789
 11
-633.222532161378
 21
-475.721529747789
  0
LINE
  5
1E5
100
AcDbEntity
  8
1
  6
PHANTOM
 62
           3
100
AcDbLine
 10
-644.260203394255
 20
-467.721529747789
 11
-642.972532161378
 21
-444.221529747789
  0
LINE
  5
1E4
100
AcDbEntity
  8
1
  6
PHANTOM
 62
           3
100
AcDbLine
 10
-642.972532161378
 20
-444.221529747789
 11
-630.972532161378
 21
-444.221529747789
  0
LINE
  5
1E3
100
AcDbEntity
  8
1
  6
PHANTOM
 62
           3
100
AcDbLine
 10
-498.722532161377
 20
-547.721529747789
 11
-468.722532161377
 21
-547.721529747789
  0
LINE
  5
1E2
100
AcDbEntity
  8
1
  6
PHANTOM
 62
           3
100
AcDbLine
 10
-498.722532161377
 20
-525.721529747789
 11
-468.722532161377
 21
-525.721529747789
  0
LINE
  5
1E1
100
AcDbEntity
  8
1
  6
PHANTOM
 62
           3
100
AcDbLine
 10
-468.722532161377
 20
-551.721529747789
 11
-468.722532161377
 21
-521.721529747789
  0
LINE
  5
1E0
100
AcDbEntity
  8
1
  6
PHANTOM
 62
           3
100
AcDbLine
 10
-468.722532161377
 20
-551.721529747789
 11
-435.722532161379
 21
-551.721529747789
  0
LINE
  5
1DF
100
AcDbEntity
  8
1
  6
PHANTOM
 62
           3
100
AcDbLine
 10
-497.722532161378
 20
-485.297084278106
 11
-497.722532161378
 21
-168.027834584944
  0
LINE
  5
1DE
100
AcDbEntity
  8
1
  6
PHANTOM
 62
           3
100
AcDbLine
 10
-637.821112043035
 20
-364.221529747789
 11
-329.51377614485
 21
-364.221529747789
  0
LINE
  5
1DD
100
AcDbEntity
  8
1
  6
PHANTOM
 62
           3
100
AcDbLine
 10
-273.222532161378
 20
-461.221529747789
 11
-435.722532161378
 21
-461.221529747789
  0
LINE
  5
1DC
100
AcDbEntity
  8
1
  6
PHANTOM
 62
           3
100
AcDbLine
 10
-432.722532161378
 20
-461.221529747789
 11
-432.722532161378
 21
-458.221529747789
  0
LINE
  5
1DB
100
AcDbEntity
  8
1
  6
PHANTOM
 62
           3
100
AcDbLine
 10
-273.222532161378
 20
-636.721529747789
 11
-268.722532161378
 21
-636.721529747789
  0
LINE
  5
1DA
100
AcDbEntity
  8
1
  6
PHANTOM
 62
           3
100
AcDbLine
 10
-273.222532161378
 20
-437.221529747789
 11
-273.222532161378
 21
-636.721529747789
  0
LINE
  5
1D9
100
AcDbEntity
  8
1
  6
PHANTOM
 62
           3
100
AcDbLine
 10
-268.722532161378
 20
-437.221529747789
 11
-273.222532161378
 21
-437.221529747789
  0
LINE
  5
1D8
100
AcDbEntity
  8
1
  6
PHANTOM
 62
           3
100
AcDbLine
 10
-435.722532161378
 20
-612.721529747789
 11
-273.222532161378
 21
-612.721529747789
  0
LINE
  5
1D7
100
AcDbEntity
  8
1
  6
PHANTOM
 62
           3
100
AcDbLine
 10
-435.722532161378
 20
-491.721529747789
 11
-435.722532161378
 21
-461.221529747789
  0
LINE
  5
1D6
100
AcDbEntity
  8
1
  6
PHANTOM
 62
           3
100
AcDbLine
 10
-432.722532161378
 20
-491.721529747789
 11
-432.722532161378
 21
-461.221529747789
  0
LINE
  5
1D5
100
AcDbEntity
  8
1
  6
PHANTOM
 62
           3
100
AcDbLine
 10
-395.222532161378
 20
-470.299992115445
 11
-395.222532161378
 21
-434.758948620096
  0
LINE
  5
1D4
100
AcDbEntity
  8
1
  6
PHANTOM
 62
           3
100
AcDbLine
 10
-573.222532161378
 20
-491.721529747789
 11
-543.222532161378
 21
-491.721529747789
  0
LINE
  5
1D3
100
AcDbEntity
  8
1
  6
PHANTOM
 62
           3
100
AcDbLine
 10
-570.222532161378
 20
-496.721529747789
 11
-551.222532161378
 21
-496.721529747789
  0
LINE
  5
1D2
100
AcDbEntity
  8
1
  6
PHANTOM
 62
           3
100
AcDbLine
 10
-545.222532161378
 20
-521.721529747789
 11
-543.222532161378
 21
-521.721529747789
  0
LINE
  5
1D1
100
AcDbEntity
  8
1
  6
PHANTOM
 62
           3
100
AcDbLine
 10
-573.222532161378
 20
-493.721529747789
 11
-573.222532161378
 21
-491.721529747789
  0
LINE
  5
1D0
100
AcDbEntity
  8
1
  6
PHANTOM
 62
           3
100
AcDbLine
 10
-548.222532161378
 20
-518.721529747789
 11
-548.222532161378
 21
-499.721529747789
  0
LINE
  5
1CF
100
AcDbEntity
  8
1
  6
PHANTOM
 62
           3
100
AcDbLine
 10
-519.222532161378
 20
-491.721529747789
 11
-324.222532161379
 21
-491.721529747789
  0
LINE
  5
1CE
100
AcDbEntity
  8
1
  6
PHANTOM
 62
           3
100
AcDbLine
 10
-324.222532161379
 20
-521.721529747789
 11
-324.222532161379
 21
-491.721529747789
  0
LINE
  5
1CD
100
AcDbEntity
  8
1
  6
PHANTOM
 62
           3
100
AcDbLine
 10
-519.222532161378
 20
-496.721529747789
 11
-324.222532161379
 21
-496.721529747789
  0
LINE
  5
1CC
100
AcDbEntity
  8
1
  6
PHANTOM
 62
           3
100
AcDbLine
 10
-553.222532161378
 20
-499.721529747789
 11
-548.222532161378
 21
-499.721529747789
  0
LINE
  5
1CB
100
AcDbEntity
  8
1
  6
PHANTOM
 62
           3
100
AcDbLine
 10
-553.222532161378
 20
-513.721529747789
 11
-548.222532161378
 21
-513.721529747789
  0
LINE
  5
1CA
100
AcDbEntity
  8
1
  6
PHANTOM
 62
           3
100
AcDbLine
 10
-553.222532161378
 20
-513.721529747789
 11
-553.222532161378
 21
-499.721529747789
  0
LINE
  5
1C9
100
AcDbEntity
  8
1
  6
PHANTOM
 62
           3
100
AcDbLine
 10
-559.222532161378
 20
-510.721529747789
 11
-559.222532161378
 21
-502.721529747789
  0
LINE
  5
1C8
100
AcDbEntity
  8
1
  6
PHANTOM
 62
           3
100
AcDbLine
 10
-543.222532161378
 20
-502.721529747789
 11
-513.222532161378
 21
-502.721529747789
  0
LINE
  5
1C7
100
AcDbEntity
  8
1
  6
PHANTOM
 62
           3
100
AcDbLine
 10
-543.222532161378
 20
-510.721529747789
 11
-513.222532161378
 21
-510.721529747789
  0
LINE
  5
1C6
100
AcDbEntity
  8
1
  6
PHANTOM
 62
           3
100
AcDbLine
 10
-561.050232774275
 20
-506.721529747789
 11
-507.714802310149
 21
-506.721529747789
  0
LINE
  5
1C5
100
AcDbEntity
  8
1
  6
PHANTOM
 62
           3
100
AcDbLine
 10
-559.222532161378
 20
-502.721529747789
 11
-548.222532161378
 21
-502.721529747789
  0
LINE
  5
1C4
100
AcDbEntity
  8
1
  6
PHANTOM
 62
           3
100
AcDbLine
 10
-559.222532161378
 20
-510.721529747789
 11
-548.222532161378
 21
-510.721529747789
  0
LINE
  5
1C3
100
AcDbEntity
  8
1
  6
PHANTOM
 62
           3
100
AcDbLine
 10
-432.722532161378
 20
-612.721529747789
 11
-432.722532161378
 21
-521.721529747789
  0
LINE
  5
1C2
100
AcDbEntity
  8
1
  6
PHANTOM
 62
           3
100
AcDbLine
 10
-435.722532161378
 20
-612.721529747789
 11
-435.722532161379
 21
-521.721529747789
  0
LINE
  5
1C1
100
AcDbEntity
  8
1
  6
PHANTOM
 62
           3
100
AcDbLine
 10
-357.722532161378
 20
-458.221529747789
 11
-357.722532161378
 21
-361.221529747789
  0
LINE
  5
1C0
100
AcDbEntity
  8
1
  6
PHANTOM
 62
           3
100
AcDbLine
 10
-441.342320530911
 20
-452.261686413368
 11
-437.722532161378
 21
-452.261686413368
  0
LINE
  5
1BF
100
AcDbEntity
  8
1
  6
PHANTOM
 62
           3
100
AcDbLine
 10
-497.722532161378
 20
-256.221529747789
 11
-467.722532161378
 21
-256.221529747789
  0
LINE
  5
1BE
100
AcDbEntity
  8
1
  6
PHANTOM
 62
           3
100
AcDbLine
 10
-362.722532161378
 20
-458.221529747789
 11
-362.722532161378
 21
-361.221529747789
  0
LINE
  5
1BD
100
AcDbEntity
  8
1
  6
PHANTOM
 62
           3
100
AcDbLine
 10
-427.722532161378
 20
-458.221529747789
 11
-427.722532161378
 21
-457.261686413368
  0
LINE
  5
1BC
100
AcDbEntity
  8
1
  6
PHANTOM
 62
           3
100
AcDbLine
 10
-441.342320530911
 20
-447.261686413368
 11
-437.722532161378
 21
-447.261686413368
  0
LINE
  5
1BB
100
AcDbEntity
  8
1
  6
PHANTOM
 62
           3
100
AcDbLine
 10
-497.722532161378
 20
-251.221529747789
 11
-467.722532161378
 21
-251.221529747789
  0
LINE
  5
1BA
100
AcDbEntity
  8
1
  6
PHANTOM
 62
           3
100
AcDbLine
 10
-504.222511341325
 20
-216.460011790861
 11
-499.485169346191
 21
-222.105756132914
  0
LINE
  5
1B9
100
AcDbEntity
  8
1
  6
PHANTOM
 62
           3
100
AcDbLine
 10
-650.475262843765
 20
-322.193058595915
 11
-637.373169107605
 21
-337.807525876489
  0
LINE
  5
1B8
100
AcDbEntity
  8
1
  6
PHANTOM
 62
           3
100
AcDbLine
 10
-504.222511341325
 20
-226.080858053792
 11
-499.485169346191
 21
-222.105756132914
  0
LINE
  5
1B7
100
AcDbEntity
  8
1
  6
PHANTOM
 62
           3
100
AcDbLine
 10
-597.620966555258
 20
-315.174783873064
 11
-602.901169167251
 21
-308.882083440595
  0
LINE
  5
1B6
100
AcDbEntity
  8
1
  6
PHANTOM
 62
           3
100
AcDbLine
 10
-497.722532161378
 20
-364.221529747789
 11
-597.889944565944
 21
-221.167639381694
  0
LINE
  5
1B5
100
AcDbEntity
  8
1
  6
DOT_CENTER
 62
           3
100
AcDbLine
 10
-619.259325139562
 20
-536.721529747789
 11
-142.555623825249
 21
-536.721529747789
  0
LINE
  5
1B4
100
AcDbEntity
  8
1
  6
PHANTOM
 62
           3
100
AcDbLine
 10
-618.226894857018
 20
-256.471529747789
 11
-565.222544991952
 21
-211.99559932522
  0
LINE
  5
1B3
100
AcDbEntity
  8
1
  6
PHANTOM
 62
           3
100
AcDbLine
 10
-610.222532161378
 20
-268.03077401272
 11
-565.222544991952
 21
-230.271301375873
  0
LINE
  5
1B2
100
AcDbEntity
  8
1
  6
PHANTOM
 62
           3
100
AcDbLine
 10
-637.373169107605
 20
-337.807525876489
 11
-587.514970421469
 21
-295.971529747791
  0
LINE
  5
1B1
100
AcDbEntity
  8
1
  6
PHANTOM
 62
           3
100
AcDbLine
 10
-587.514970421469
 20
-295.971529747791
 11
-585.095941560074
 21
-294.394234949571
  0
LINE
  5
1B0
100
AcDbEntity
  8
1
  6
PHANTOM
 62
           3
100
AcDbLine
 10
-432.722532161378
 20
-458.221529747789
 11
-354.722532161379
 21
-458.221529747789
  0
LINE
  5
1AF
100
AcDbEntity
  8
1
  6
PHANTOM
 62
           3
100
AcDbLine
 10
-354.722532161379
 20
-461.221529747789
 11
-354.722532161379
 21
-458.221529747789
  0
LINE
  5
1AE
100
AcDbEntity
  8
1
  6
PHANTOM
 62
           3
100
AcDbLine
 10
-375.222532161379
 20
-442.221529747789
 11
-362.722532161378
 21
-458.221529747789
  0
LINE
  5
1AD
100
AcDbEntity
  8
1
  6
PHANTOM
 62
           3
100
AcDbLine
 10
-415.222532161379
 20
-442.221529747789
 11
-427.722532161378
 21
-458.221529747789
  0
LINE
  5
1AC
100
AcDbEntity
  8
1
  6
PHANTOM
 62
           3
100
AcDbLine
 10
-415.222532161379
 20
-442.221529747789
 11
-375.222532161379
 21
-442.221529747789
  0
LINE
  5
1AB
100
AcDbEntity
  8
1
  6
PHANTOM
 62
           3
100
AcDbLine
 10
-519.222532161378
 20
-521.721529747789
 11
-324.222532161377
 21
-521.721529747791
  0
LINE
  5
1AA
100
AcDbEntity
  8
1
  6
PHANTOM
 62
           3
100
AcDbLine
 10
-498.722532161377
 20
-551.721529747789
 11
-498.722532161377
 21
-521.721529747788
  0
LINE
  5
1A9
100
AcDbEntity
  8
1
  6
PHANTOM
 62
           3
100
AcDbLine
 10
-511.222532161378
 20
-551.721529747789
 11
-498.722532161377
 21
-551.721529747789
  0
LINE
  5
1A8
100
AcDbEntity
  8
1
  6
CONTINUOUS
 62
           3
100
AcDbLine
 10
-1924.024849268726
 20
22.07847025221
 11
-1924.024849268726
 21
76.07847025221
  0
LINE
  5
1A7
100
AcDbEntity
  8
1
  6
CONTINUOUS
 62
           3
100
AcDbLine
 10
-1804.024849268726
 20
22.07847025221
 11
-1924.024849268726
 21
22.07847025221
  0
LINE
  5
1A6
100
AcDbEntity
  8
1
  6
CONTINUOUS
 62
           3
100
AcDbLine
 10
-1804.024849268726
 20
76.07847025221
 11
-1804.024849268726
 21
22.07847025221
  0
LINE
  5
1A5
100
AcDbEntity
  8
1
  6
CONTINUOUS
 62
           3
100
AcDbLine
 10
-1924.024849268726
 20
76.07847025221
 11
-1804.024849268726
 21
76.07847025221
  0
LINE
  5
1A4
100
AcDbEntity
  8
1
  6
CONTINUOUS
 62
           3
100
AcDbLine
 10
-1724.024849268726
 20
22.07847025221
 11
-1724.024849268726
 21
72.07847025221
  0
LINE
  5
1A3
100
AcDbEntity
  8
1
  6
CONTINUOUS
 62
           3
100
AcDbLine
 10
-1664.024849268726
 20
22.07847025221
 11
-1724.024849268726
 21
22.07847025221
  0
LINE
  5
1A2
100
AcDbEntity
  8
1
  6
CONTINUOUS
 62
           3
100
AcDbLine
 10
-1664.024849268726
 20
72.07847025221
 11
-1664.024849268726
 21
22.07847025221
  0
LINE
  5
1A1
100
AcDbEntity
  8
1
  6
CONTINUOUS
 62
           3
100
AcDbLine
 10
-1724.024849268726
 20
72.07847025221
 11
-1664.024849268726
 21
72.07847025221
  0
LINE
  5
1A0
100
AcDbEntity
  8
1
  6
CONTINUOUS
 62
           3
100
AcDbLine
 10
-2044.024849268726
 20
22.07847025221
 11
-2044.024849268726
 21
41.57847025221
  0
LINE
  5
19F
100
AcDbEntity
  8
1
  6
CONTINUOUS
 62
           3
100
AcDbLine
 10
-2019.024849268726
 20
22.07847025221
 11
-2044.024849268726
 21
22.07847025221
  0
LINE
  5
19E
100
AcDbEntity
  8
1
  6
CONTINUOUS
 62
           3
100
AcDbLine
 10
-2019.024849268726
 20
41.57847025221
 11
-2019.024849268726
 21
22.07847025221
  0
LINE
  5
19D
100
AcDbEntity
  8
1
  6
CONTINUOUS
 62
           3
100
AcDbLine
 10
-2044.024849268726
 20
41.57847025221
 11
-2019.024849268726
 21
41.57847025221
  0
LINE
  5
19C
100
AcDbEntity
  8
1
  6
CONTINUOUS
 62
           3
100
AcDbLine
 10
106.277467838621
 20
1465.078470252211
 11
-768.722532161379
 21
1465.078470252211
  0
LINE
  5
19B
100
AcDbEntity
  8
1
  6
CONTINUOUS
 62
           3
100
AcDbLine
 10
891.277467838621
 20
1465.078470252211
 11
771.277467838621
 21
1465.078470252211
  0
LINE
  5
19A
100
AcDbEntity
  8
1
  6
CONTINUOUS
 62
           3
100
AcDbLine
 10
-268.722532161379
 20
915.07847025221
 11
-168.722532161379
 21
915.07847025221
  0
LINE
  5
199
100
AcDbEntity
  8
1
  6
CONTINUOUS
 62
           3
100
AcDbLine
 10
771.277467838621
 20
914.078470252209
 11
1231.277467838621
 21
914.07847025221
  0
LINE
  5
198
100
AcDbEntity
  8
1
  6
CONTINUOUS
 62
           2
100
AcDbLine
 10
731.277467838621
 20
989.078470252209
 11
731.277467838621
 21
414.07847025221
  0
LINE
  5
197
100
AcDbEntity
  8
1
  6
CONTINUOUS
 62
           2
100
AcDbLine
 10
-168.722532161379
 20
914.078470252209
 11
-168.722532161379
 21
414.07847025221
  0
LINE
  5
196
100
AcDbEntity
  8
1
  6
DOT_CENTER
 62
           3
100
AcDbLine
 10
-2054.024849268726
 20
1665.190259412167
 11
-2054.024849268726
 21
866.771023747726
  0
LINE
  5
195
100
AcDbEntity
  8
1
  6
CONTINUOUS
 62
           3
100
AcDbLine
 10
731.277467838621
 20
388.07847025221
 11
731.277467838621
 21
-937.921529747788
  0
LINE
  5
194
100
AcDbEntity
  8
1
  6
CONTINUOUS
 62
           3
100
AcDbLine
 10
231.277467838621
 20
388.07847025221
 11
231.277467838621
 21
-937.921529747788
  0
LINE
  5
193
100
AcDbEntity
  8
1
  6
CONTINUOUS
 62
           3
100
AcDbLine
 10
-3579.024849268727
 20
5739.617413251217
 11
-3579.024849268727
 21
3739.617309495483
  0
LINE
  5
192
100
AcDbEntity
  8
1
  6
CONTINUOUS
 62
           2
100
AcDbLine
 10
106.277467838621
 20
1542.07847025221
 11
-845.722532161379
 21
1542.07847025221
  0
LINE
  5
191
100
AcDbEntity
  8
1
  6
CONTINUOUS
 62
           2
100
AcDbLine
 10
891.277467838621
 20
1542.07847025221
 11
771.277467838621
 21
1542.07847025221
  0
LINE
  5
190
100
AcDbEntity
  8
1
  6
CONTINUOUS
 62
           3
100
AcDbLine
 10
-268.722532161379
 20
388.07847025221
 11
1231.277467838621
 21
388.07847025221
  0
LINE
  5
18F
100
AcDbEntity
  8
1
  6
CONTINUOUS
 62
           3
100
AcDbLine
 10
-768.722532161379
 20
-967.921529747788
 11
-268.722532161379
 21
-967.921529747788
  0
LINE
  5
18E
100
AcDbEntity
  8
1
  6
CONTINUOUS
 62
           2
100
AcDbLine
 10
-768.722532161379
 20
-972.921529747788
 11
-268.722532161379
 21
-972.921529747788
  0
LINE
  5
18D
100
AcDbEntity
  8
1
  6
CONTINUOUS
 62
           3
100
AcDbLine
 10
-268.722532161379
 20
-987.921529747788
 11
1231.277467838621
 21
-987.921529747788
  0
LINE
  5
18C
100
AcDbEntity
  8
1
  6
CONTINUOUS
 62
           2
100
AcDbLine
 10
-268.722532161379
 20
-937.921529747788
 11
1231.277467838621
 21
-937.921529747788
  0
LINE
  5
18B
100
AcDbEntity
  8
1
  6
CONTINUOUS
 62
           2
100
AcDbLine
 10
-768.722532161379
 20
-1037.921529747788
 11
-768.722532161379
 21
1542.07847025221
  0
LINE
  5
18A
100
AcDbEntity
  8
1
  6
CONTINUOUS
 62
           2
100
AcDbLine
 10
1231.277467838621
 20
414.07847025221
 11
1231.277467838621
 21
1465.078470252211
  0
LINE
  5
189
100
AcDbEntity
  8
1
  6
CONTINUOUS
 62
           2
100
AcDbLine
 10
1231.277467838621
 20
414.07847025221
 11
1231.277467838621
 21
-1037.921529747788
  0
LINE
  5
188
100
AcDbEntity
  8
1
  6
CONTINUOUS
 62
           2
100
AcDbLine
 10
-268.722532161379
 20
414.07847025221
 11
1231.277467838621
 21
414.07847025221
  0
LINE
  5
187
100
AcDbEntity
  8
1
  6
CONTINUOUS
 62
           2
100
AcDbLine
 10
-268.722532161379
 20
-1037.921529747788
 11
-268.722532161379
 21
414.07847025221
  0
LINE
  5
186
100
AcDbEntity
  8
1
  6
CONTINUOUS
 62
           2
100
AcDbLine
 10
-845.722532161379
 20
1542.07847025221
 11
-845.722532161379
 21
-1037.921529747788
  0
LINE
  5
185
100
AcDbEntity
  8
1
  6
CONTINUOUS
 62
           2
100
AcDbLine
 10
1306.277467838621
 20
1542.078470252209
 11
1091.277467838621
 21
1542.07847025221
  0
LINE
  5
184
100
AcDbEntity
  8
1
  6
CONTINUOUS
 62
           2
100
AcDbLine
 10
-845.722532161379
 20
-1037.921529747788
 11
1306.277467838621
 21
-1037.921529747788
  0
LINE
  5
183
100
AcDbEntity
  8
1
  6
CONTINUOUS
 62
           3
100
AcDbLine
 10
-1954.024849268726
 20
7.07847025221
 11
-1754.024849268725
 21
7.07847025221
  0
LINE
  5
182
100
AcDbEntity
  8
1
  6
CONTINUOUS
 62
           3
100
AcDbLine
 10
-1754.024849268725
 20
7.07847025221
 11
-1754.024849268725
 21
12.07847025221
  0
LINE
  5
181
100
AcDbEntity
  8
1
  6
CONTINUOUS
 62
           3
100
AcDbLine
 10
-1954.024849268726
 20
12.07847025221
 11
-1754.024849268725
 21
12.07847025221
  0
LINE
  5
180
100
AcDbEntity
  8
1
  6
CONTINUOUS
 62
           3
100
AcDbLine
 10
-1954.024849268726
 20
12.07847025221
 11
-1954.024849268726
 21
7.07847025221
  0
LINE
  5
17F
100
AcDbEntity
  8
1
  6
CONTINUOUS
 62
           2
100
AcDbLine
 10
-2072.024849268726
 20
192.07847025221
 11
-2054.024849268726
 21
192.07847025221
  0
LINE
  5
17E
100
AcDbEntity
  8
1
  6
CONTINUOUS
 62
           2
100
AcDbLine
 10
-2072.024849268726
 20
232.07847025221
 11
-2072.024849268726
 21
192.07847025221
  0
LINE
  5
17D
100
AcDbEntity
  8
1
  6
CONTINUOUS
 62
           2
100
AcDbLine
 10
-2054.024849268726
 20
232.07847025221
 11
-2072.024849268726
 21
232.07847025221
  0
LINE
  5
17C
100
AcDbEntity
  8
1
  6
CONTINUOUS
 62
           2
100
AcDbLine
 10
-1654.024849268725
 20
74.57847025221
 11
-1647.024849268725
 21
74.57847025221
  0
LINE
  5
17B
100
AcDbEntity
  8
1
  6
CONTINUOUS
 62
           2
100
AcDbLine
 10
-1654.024849268725
 20
87.07847025221
 11
-1647.024849268725
 21
87.07847025221
  0
LINE
  5
17A
100
AcDbEntity
  8
1
  6
CONTINUOUS
 62
           2
100
AcDbLine
 10
-1654.024849268725
 20
99.57847025221
 11
-1647.024849268725
 21
99.57847025221
  0
LINE
  5
179
100
AcDbEntity
  8
1
  6
CONTINUOUS
 62
           2
100
AcDbLine
 10
-1647.024849268725
 20
62.07847025221
 11
-1654.024849268725
 21
62.07847025221
  0
LINE
  5
178
100
AcDbEntity
  8
1
  6
CONTINUOUS
 62
           2
100
AcDbLine
 10
-1647.024849268725
 20
112.07847025221
 11
-1647.024849268725
 21
62.07847025221
  0
LINE
  5
177
100
AcDbEntity
  8
1
  6
CONTINUOUS
 62
           2
100
AcDbLine
 10
-1654.024849268725
 20
112.07847025221
 11
-1647.024849268725
 21
112.07847025221
  0
LINE
  5
176
100
AcDbEntity
  8
1
  6
CONTINUOUS
 62
           2
100
AcDbLine
 10
-1654.024849268725
 20
524.57847025221
 11
-1647.024849268725
 21
524.57847025221
  0
LINE
  5
175
100
AcDbEntity
  8
1
  6
CONTINUOUS
 62
           2
100
AcDbLine
 10
-1654.024849268725
 20
537.07847025221
 11
-1647.024849268725
 21
537.07847025221
  0
LINE
  5
174
100
AcDbEntity
  8
1
  6
CONTINUOUS
 62
           2
100
AcDbLine
 10
-1654.024849268725
 20
549.57847025221
 11
-1647.024849268725
 21
549.57847025221
  0
LINE
  5
173
100
AcDbEntity
  8
1
  6
CONTINUOUS
 62
           2
100
AcDbLine
 10
-1647.024849268725
 20
512.07847025221
 11
-1654.024849268725
 21
512.07847025221
  0
LINE
  5
172
100
AcDbEntity
  8
1
  6
CONTINUOUS
 62
           2
100
AcDbLine
 10
-1647.024849268725
 20
562.07847025221
 11
-1647.024849268725
 21
512.07847025221
  0
LINE
  5
171
100
AcDbEntity
  8
1
  6
CONTINUOUS
 62
           2
100
AcDbLine
 10
-1654.024849268725
 20
562.07847025221
 11
-1647.024849268725
 21
562.07847025221
  0
LINE
  5
170
100
AcDbEntity
  8
1
  6
CONTINUOUS
 62
           3
100
AcDbLine
 10
-1859.024849268725
 20
212.07847025221
 11
-1889.024849268726
 21
212.07847025221
  0
LINE
  5
16F
100
AcDbEntity
  8
1
  6
CONTINUOUS
 62
           3
100
AcDbLine
 10
-1859.024849268725
 20
192.07847025221
 11
-1859.024849268725
 21
212.07847025221
  0
LINE
  5
16E
100
AcDbEntity
  8
1
  6
CONTINUOUS
 62
           3
100
AcDbLine
 10
-1889.024849268726
 20
192.07847025221
 11
-1859.024849268725
 21
192.07847025221
  0
LINE
  5
16D
100
AcDbEntity
  8
1
  6
CONTINUOUS
 62
           3
100
AcDbLine
 10
-1889.024849268726
 20
212.07847025221
 11
-1889.024849268726
 21
192.07847025221
  0
LINE
  5
16C
100
AcDbEntity
  8
1
  6
CONTINUOUS
 62
           3
100
AcDbLine
 10
-1859.024849268725
 20
272.07847025221
 11
-1889.024849268726
 21
272.07847025221
  0
LINE
  5
16B
100
AcDbEntity
  8
1
  6
CONTINUOUS
 62
           3
100
AcDbLine
 10
-1859.024849268725
 20
252.07847025221
 11
-1859.024849268725
 21
272.07847025221
  0
LINE
  5
16A
100
AcDbEntity
  8
1
  6
CONTINUOUS
 62
           3
100
AcDbLine
 10
-1889.024849268726
 20
252.07847025221
 11
-1859.024849268725
 21
252.07847025221
  0
LINE
  5
169
100
AcDbEntity
  8
1
  6
CONTINUOUS
 62
           3
100
AcDbLine
 10
-1889.024849268726
 20
272.07847025221
 11
-1889.024849268726
 21
252.07847025221
  0
LINE
  5
168
100
AcDbEntity
  8
1
  6
CONTINUOUS
 62
           3
100
AcDbLine
 10
-1689.024849268725
 20
287.07847025221
 11
-1834.024849268725
 21
287.07847025221
  0
LINE
  5
167
100
AcDbEntity
  8
1
  6
CONTINUOUS
 62
           3
100
AcDbLine
 10
-1689.024849268725
 20
137.07847025221
 11
-1689.024849268725
 21
287.07847025221
  0
LINE
  5
166
100
AcDbEntity
  8
1
  6
CONTINUOUS
 62
           3
100
AcDbLine
 10
-1834.024849268725
 20
137.07847025221
 11
-1689.024849268725
 21
137.07847025221
  0
LINE
  5
165
100
AcDbEntity
  8
1
  6
CONTINUOUS
 62
           3
100
AcDbLine
 10
-1834.024849268725
 20
287.07847025221
 11
-1834.024849268725
 21
137.07847025221
  0
LINE
  5
164
100
AcDbEntity
  8
1
  6
CONTINUOUS
 62
           3
100
AcDbLine
 10
-1956.524849268726
 20
152.07847025221
 11
-1966.524849268726
 21
152.07847025221
  0
LINE
  5
163
100
AcDbEntity
  8
1
  6
CONTINUOUS
 62
           3
100
AcDbLine
 10
-1956.524849268726
 20
132.07847025221
 11
-1956.524849268726
 21
152.07847025221
  0
LINE
  5
162
100
AcDbEntity
  8
1
  6
CONTINUOUS
 62
           3
100
AcDbLine
 10
-1966.524849268726
 20
132.07847025221
 11
-1956.524849268726
 21
132.07847025221
  0
LINE
  5
161
100
AcDbEntity
  8
1
  6
CONTINUOUS
 62
           3
100
AcDbLine
 10
-1966.524849268726
 20
152.07847025221
 11
-1966.524849268726
 21
132.07847025221
  0
LINE
  5
160
100
AcDbEntity
  8
1
  6
CONTINUOUS
 62
           3
100
AcDbLine
 10
-1931.524849268726
 20
167.07847025221
 11
-1991.524849268726
 21
167.07847025221
  0
LINE
  5
15F
100
AcDbEntity
  8
1
  6
CONTINUOUS
 62
           3
100
AcDbLine
 10
-1931.524849268726
 20
117.07847025221
 11
-1931.524849268726
 21
167.07847025221
  0
LINE
  5
15E
100
AcDbEntity
  8
1
  6
CONTINUOUS
 62
           3
100
AcDbLine
 10
-1991.524849268726
 20
117.07847025221
 11
-1931.524849268726
 21
117.07847025221
  0
LINE
  5
15D
100
AcDbEntity
  8
1
  6
CONTINUOUS
 62
           3
100
AcDbLine
 10
-1991.524849268726
 20
167.07847025221
 11
-1991.524849268726
 21
117.07847025221
  0
LINE
  5
15C
100
AcDbEntity
  8
1
  6
CONTINUOUS
 62
           3
100
AcDbLine
 10
-1936.524849268726
 20
317.07847025221
 11
-1986.524849268726
 21
317.07847025221
  0
LINE
  5
15B
100
AcDbEntity
  8
1
  6
CONTINUOUS
 62
           3
100
AcDbLine
 10
-1936.524849268726
 20
267.07847025221
 11
-1936.524849268726
 21
317.07847025221
  0
LINE
  5
15A
100
AcDbEntity
  8
1
  6
CONTINUOUS
 62
           3
100
AcDbLine
 10
-1986.524849268726
 20
267.07847025221
 11
-1936.524849268726
 21
267.07847025221
  0
LINE
  5
159
100
AcDbEntity
  8
1
  6
CONTINUOUS
 62
           3
100
AcDbLine
 10
-1986.524849268726
 20
317.07847025221
 11
-1986.524849268726
 21
267.07847025221
  0
LINE
  5
158
100
AcDbEntity
  8
1
  6
CONTINUOUS
 62
           3
100
AcDbLine
 10
-1939.024849268726
 20
342.07847025221
 11
-1984.024849268726
 21
342.07847025221
  0
LINE
  5
157
100
AcDbEntity
  8
1
  6
CONTINUOUS
 62
           3
100
AcDbLine
 10
-1939.024849268726
 20
327.07847025221
 11
-1939.024849268726
 21
342.07847025221
  0
LINE
  5
156
100
AcDbEntity
  8
1
  6
CONTINUOUS
 62
           3
100
AcDbLine
 10
-1984.024849268726
 20
327.07847025221
 11
-1939.024849268726
 21
327.07847025221
  0
LINE
  5
155
100
AcDbEntity
  8
1
  6
CONTINUOUS
 62
           3
100
AcDbLine
 10
-1984.024849268726
 20
342.07847025221
 11
-1984.024849268726
 21
327.07847025221
  0
LINE
  5
154
100
AcDbEntity
  8
1
  6
CONTINUOUS
 62
           3
100
AcDbLine
 10
-2054.024849268726
 20
72.07847025221
 11
-2159.024849268727
 21
72.07847025221
  0
LINE
  5
153
100
AcDbEntity
  8
1
  6
CONTINUOUS
 62
           3
100
AcDbLine
 10
-2159.024849268727
 20
72.07847025221
 11
-2159.024849268727
 21
32.07847025221
  0
LINE
  5
152
100
AcDbEntity
  8
1
  6
CONTINUOUS
 62
           3
100
AcDbLine
 10
-2159.024849268727
 20
32.07847025221
 11
-2054.024849268726
 21
32.07847025221
  0
LINE
  5
151
100
AcDbEntity
  8
1
  6
DOT_CENTER
 62
           3
100
AcDbLine
 10
-2077.379869289745
 20
-529.37506268719
 11
-2077.379869289745
 21
-616.873513326591
  0
LINE
  5
150
100
AcDbEntity
  8
1
  6
DOT_CENTER
 62
           3
100
AcDbLine
 10
-2119.283235840366
 20
-572.721529747789
 11
-2036.618395062055
 21
-572.721529747789
  0
LINE
  5
14F
100
AcDbEntity
  8
1
  6
DOT_CENTER
 62
           3
100
AcDbLine
 10
-2114.379869289746
 20
-609.721529747789
 11
-2114.379869289746
 21
-535.721529747787
  0
LINE
  5
14E
100
AcDbEntity
  8
1
  6
PHANTOM
 62
           3
100
AcDbLine
 10
-2040.379869289746
 20
-609.721529747789
 11
-2114.379869289746
 21
-609.721529747789
  0
LINE
  5
14D
100
AcDbEntity
  8
1
  6
DOT_CENTER
 62
           3
100
AcDbLine
 10
-2040.379869289745
 20
-535.721529747787
 11
-2040.379869289746
 21
-609.721529747789
  0
LINE
  5
14C
100
AcDbEntity
  8
1
  6
DOT_CENTER
 62
           3
100
AcDbLine
 10
-2114.379869289746
 20
-535.721529747787
 11
-2040.379869289745
 21
-535.721529747787
  0
LINE
  5
14B
100
AcDbEntity
  8
1
  6
PHANTOM
 62
           3
100
AcDbLine
 10
-2125.024849268726
 20
-512.721529747789
 11
-2125.024849268726
 21
-536.721529747789
  0
LINE
  5
14A
100
AcDbEntity
  8
1
  6
PHANTOM
 62
           3
100
AcDbLine
 10
-2143.024849268727
 20
-512.721529747789
 11
-2143.024849268727
 21
-536.721529747789
  0
LINE
  5
149
100
AcDbEntity
  8
1
  6
PHANTOM
 62
           3
100
AcDbLine
 10
-2052.024849268726
 20
-512.721529747789
 11
-2052.024849268726
 21
-636.721529747787
  0
LINE
  5
148
100
AcDbEntity
  8
1
  6
PHANTOM
 62
           3
100
AcDbLine
 10
-2158.024849268727
 20
-482.721529747789
 11
-2158.024849268727
 21
-512.721529747789
  0
LINE
  5
147
100
AcDbEntity
  8
1
  6
PHANTOM
 62
           3
100
AcDbLine
 10
-2158.024849268727
 20
-512.721529747789
 11
-2032.024849268726
 21
-512.721529747789
  0
LINE
  5
146
100
AcDbEntity
  8
1
  6
PHANTOM
 62
           3
100
AcDbLine
 10
-2158.024849268727
 20
-482.721529747789
 11
-2032.024849268726
 21
-482.721529747789
  0
LINE
  5
145
100
AcDbEntity
  8
1
  6
PHANTOM
 62
           3
100
AcDbLine
 10
-1872.024849268726
 20
-616.721529747789
 11
-1872.024849268726
 21
-471.221529747789
  0
LINE
  5
144
100
AcDbEntity
  8
1
  6
PHANTOM
 62
           3
100
AcDbLine
 10
-2032.024849268726
 20
-456.721529747789
 11
-1977.024849268726
 21
-456.721529747789
  0
LINE
  5
143
100
AcDbEntity
  8
1
  6
PHANTOM
 62
           3
100
AcDbLine
 10
-2032.024849268726
 20
-616.721529747789
 11
-2032.024849268726
 21
-456.721529747789
  0
LINE
  5
142
100
AcDbEntity
  8
1
  6
PHANTOM
 62
           3
100
AcDbLine
 10
-2032.024849268726
 20
-616.721529747789
 11
-1872.024849268726
 21
-616.721529747789
  0
LINE
  5
141
100
AcDbEntity
  8
1
  6
PHANTOM
 62
           3
100
AcDbLine
 10
-2125.024849268726
 20
-359.221529747787
 11
-2125.024849268726
 21
-322.721529747789
  0
LINE
  5
140
100
AcDbEntity
  8
1
  6
PHANTOM
 62
           3
100
AcDbLine
 10
-2143.024849268727
 20
-359.221529747787
 11
-2143.024849268727
 21
-322.721529747789
  0
LINE
  5
13F
100
AcDbEntity
  8
1
  6
PHANTOM
 62
           3
100
AcDbLine
 10
-2122.024849268726
 20
-393.221529747785
 11
-2122.024849268726
 21
-403.221529747789
  0
LINE
  5
13E
100
AcDbEntity
  8
1
  6
PHANTOM
 62
           3
100
AcDbLine
 10
-2146.024849268727
 20
-359.221529747787
 11
-2122.024849268726
 21
-359.221529747787
  0
LINE
  5
13D
100
AcDbEntity
  8
1
  6
PHANTOM
 62
           3
100
AcDbLine
 10
-2146.024849268727
 20
-403.221529747789
 11
-2122.024849268726
 21
-403.221529747789
  0
LINE
  5
13C
100
AcDbEntity
  8
1
  6
PHANTOM
 62
           3
100
AcDbLine
 10
-2146.024849268727
 20
-359.221529747787
 11
-2146.024849268727
 21
-403.221529747789
  0
LINE
  5
13B
100
AcDbEntity
  8
1
  6
PHANTOM
 62
           3
100
AcDbLine
 10
-2122.024849268726
 20
-369.221529747787
 11
-2122.024849268726
 21
-359.221529747787
  0
LINE
  5
13A
100
AcDbEntity
  8
1
  6
PHANTOM
 62
           3
100
AcDbLine
 10
-2112.024849268726
 20
-393.221529747787
 11
-2134.024849268726
 21
-393.221529747787
  0
LINE
  5
139
100
AcDbEntity
  8
1
  6
PHANTOM
 62
           3
100
AcDbLine
 10
-2134.024849268726
 20
-369.221529747787
 11
-2112.024849268726
 21
-369.221529747787
  0
LINE
  5
138
100
AcDbEntity
  8
1
  6
PHANTOM
 62
           3
100
AcDbLine
 10
-2112.024849268726
 20
-369.221529747787
 11
-2112.024849268726
 21
-393.221529747789
  0
LINE
  5
137
100
AcDbEntity
  8
1
  6
PHANTOM
 62
           3
100
AcDbLine
 10
-2125.024849268726
 20
-418.721529747787
 11
-2125.024849268726
 21
-403.221529747789
  0
LINE
  5
136
100
AcDbEntity
  8
1
  6
PHANTOM
 62
           3
100
AcDbLine
 10
-2143.024849268727
 20
-418.721529747787
 11
-2143.024849268727
 21
-403.221529747789
  0
LINE
  5
135
100
AcDbEntity
  8
1
  6
PHANTOM
 62
           3
100
AcDbLine
 10
-2125.024849268726
 20
-456.721529747789
 11
-2125.024849268726
 21
-482.721529747789
  0
LINE
  5
134
100
AcDbEntity
  8
1
  6
PHANTOM
 62
           3
100
AcDbLine
 10
-2143.024849268727
 20
-456.721529747789
 11
-2143.024849268727
 21
-482.721529747789
  0
LINE
  5
133
100
AcDbEntity
  8
1
  6
PHANTOM
 62
           3
100
AcDbLine
 10
-2119.024849268726
 20
-456.721529747789
 11
-2119.024849268726
 21
-451.721529747789
  0
LINE
  5
132
100
AcDbEntity
  8
1
  6
PHANTOM
 62
           3
100
AcDbLine
 10
-2119.024849268726
 20
-451.721529747789
 11
-2122.024849268726
 21
-418.721529747787
  0
LINE
  5
131
100
AcDbEntity
  8
1
  6
PHANTOM
 62
           3
100
AcDbLine
 10
-2149.024849268727
 20
-451.721529747789
 11
-2149.024849268727
 21
-456.721529747789
  0
LINE
  5
130
100
AcDbEntity
  8
1
  6
PHANTOM
 62
           3
100
AcDbLine
 10
-2146.024849268727
 20
-418.721529747787
 11
-2149.024849268727
 21
-451.721529747789
  0
LINE
  5
12F
100
AcDbEntity
  8
1
  6
PHANTOM
 62
           3
100
AcDbLine
 10
-2146.024849268727
 20
-418.721529747787
 11
-2122.024849268726
 21
-418.721529747787
  0
LINE
  5
12E
100
AcDbEntity
  8
1
  6
PHANTOM
 62
           3
100
AcDbLine
 10
-2149.024849268727
 20
-456.721529747789
 11
-2119.024849268726
 21
-456.721529747789
  0
LINE
  5
12D
100
AcDbEntity
  8
1
  6
PHANTOM
 62
           3
100
AcDbLine
 10
-1972.024849268726
 20
-295.221529747789
 11
-1814.024849268725
 21
-295.221529747789
  0
LINE
  5
12C
100
AcDbEntity
  8
1
  6
PHANTOM
 62
           3
100
AcDbLine
 10
-1962.832433205525
 20
-178.17770503879
 11
-1962.832433205525
 21
-206.202684120987
  0
LINE
  5
12B
100
AcDbEntity
  8
1
  6
PHANTOM
 62
           3
100
AcDbLine
 10
-1914.093339149585
 20
-178.17770503879
 11
-1962.832433205525
 21
-178.17770503879
  0
LINE
  5
12A
100
AcDbEntity
  8
1
  6
PHANTOM
 62
           3
100
AcDbLine
 10
-1914.093339149585
 20
-206.202684120987
 11
-1914.093339149585
 21
-178.17770503879
  0
LINE
  5
129
100
AcDbEntity
  8
1
  6
PHANTOM
 62
           3
100
AcDbLine
 10
-1962.832433205525
 20
-206.202684120987
 11
-1914.093339149585
 21
-206.202684120987
  0
LINE
  5
128
100
AcDbEntity
  8
1
  6
PHANTOM
 62
           3
100
AcDbLine
 10
-1972.024849268726
 20
-251.221529747787
 11
-1977.024849268726
 21
-251.221529747789
  0
LINE
  5
127
100
AcDbEntity
  8
1
  6
PHANTOM
 62
           3
100
AcDbLine
 10
-1972.024849268726
 20
-171.221529747787
 11
-1972.024849268726
 21
-333.221529747789
  0
LINE
  5
126
100
AcDbEntity
  8
1
  6
PHANTOM
 62
           3
100
AcDbLine
 10
-1814.024849268725
 20
-171.221529747787
 11
-1972.024849268726
 21
-171.221529747787
  0
LINE
  5
125
100
AcDbEntity
  8
1
  6
PHANTOM
 62
           3
100
AcDbLine
 10
-1814.024849268725
 20
-333.221529747789
 11
-1814.024849268725
 21
-171.221529747787
  0
LINE
  5
124
100
AcDbEntity
  8
1
  6
PHANTOM
 62
           3
100
AcDbLine
 10
-1972.024849268726
 20
-333.221529747789
 11
-1814.024849268725
 21
-333.221529747789
  0
LINE
  5
123
100
AcDbEntity
  8
1
  6
PHANTOM
 62
           3
100
AcDbLine
 10
-2175.928215819346
 20
-285.721529747789
 11
-2093.263375041036
 21
-285.721529747789
  0
LINE
  5
122
100
AcDbEntity
  8
1
  6
DOT_CENTER
 62
           3
100
AcDbLine
 10
-2171.024849268727
 20
-322.721529747789
 11
-2171.024849268727
 21
-248.721529747787
  0
LINE
  5
121
100
AcDbEntity
  8
1
  6
PHANTOM
 62
           3
100
AcDbLine
 10
-2097.024849268726
 20
-322.721529747789
 11
-2171.024849268727
 21
-322.721529747789
  0
LINE
  5
120
100
AcDbEntity
  8
1
  6
DOT_CENTER
 62
           3
100
AcDbLine
 10
-2097.024849268726
 20
-248.721529747787
 11
-2097.024849268726
 21
-322.721529747789
  0
LINE
  5
11F
100
AcDbEntity
  8
1
  6
DOT_CENTER
 62
           3
100
AcDbLine
 10
-2171.024849268727
 20
-248.721529747787
 11
-2097.024849268726
 21
-248.721529747787
  0
LINE
  5
11E
100
AcDbEntity
  8
1
  6
PHANTOM
 62
           3
100
AcDbLine
 10
-2120.024849268726
 20
-576.721529747789
 11
-2120.024849268726
 21
-564.221529747789
  0
LINE
  5
11D
100
AcDbEntity
  8
1
  6
PHANTOM
 62
           3
100
AcDbLine
 10
-2148.024849268727
 20
-576.721529747789
 11
-2148.024849268727
 21
-564.221529747789
  0
LINE
  5
11C
100
AcDbEntity
  8
1
  6
PHANTOM
 62
           3
100
AcDbLine
 10
-2148.024849268727
 20
-576.721529747789
 11
-2120.024849268726
 21
-576.721529747789
  0
LINE
  5
11B
100
AcDbEntity
  8
1
  6
PHANTOM
 62
           3
100
AcDbLine
 10
-2148.024849268727
 20
-536.721529747789
 11
-2120.024849268726
 21
-536.721529747789
  0
LINE
  5
11A
100
AcDbEntity
  8
1
  6
PHANTOM
 62
           3
100
AcDbLine
 10
-2120.024849268726
 20
-548.613364611189
 11
-2120.024849268726
 21
-536.721529747789
  0
LINE
  5
119
100
AcDbEntity
  8
1
  6
PHANTOM
 62
           3
100
AcDbLine
 10
-2148.024849268727
 20
-549.221529747789
 11
-2148.024849268727
 21
-536.721529747789
  0
LINE
  5
118
100
AcDbEntity
  8
1
  6
PHANTOM
 62
           3
100
AcDbLine
 10
-2153.024849268727
 20
-549.221529747789
 11
-2153.024849268727
 21
-564.221529747789
  0
LINE
  5
117
100
AcDbEntity
  8
1
  6
PHANTOM
 62
           3
100
AcDbLine
 10
-2115.024849268726
 20
-549.221529747789
 11
-2153.024849268727
 21
-549.221529747789
  0
LINE
  5
116
100
AcDbEntity
  8
1
  6
PHANTOM
 62
           3
100
AcDbLine
 10
-2115.024849268726
 20
-564.221529747789
 11
-2115.024849268726
 21
-549.221529747789
  0
LINE
  5
115
100
AcDbEntity
  8
1
  6
PHANTOM
 62
           3
100
AcDbLine
 10
-2153.024849268727
 20
-564.221529747789
 11
-2115.024849268726
 21
-564.221529747789
  0
LINE
  5
114
100
AcDbEntity
  8
1
  6
DOT_CENTER
 62
           3
100
AcDbLine
 10
-2192.824849268725
 20
-205.721529747789
 11
-2075.224849268726
 21
-205.721529747789
  0
LINE
  5
113
100
AcDbEntity
  8
1
  6
DOT_CENTER
 62
           3
100
AcDbLine
 10
-2134.024849268726
 20
-596.06005743231
 11
-2134.024849268726
 21
-145.209422822391
  0
LINE
  5
112
100
AcDbEntity
  8
1
  6
DOT_CENTER
 62
           3
100
AcDbLine
 10
-2162.662718834866
 20
-381.221529747787
 11
-1654.024849268725
 21
-381.221529747787
  0
LINE
  5
111
100
AcDbEntity
  8
1
  6
PHANTOM
 62
           3
100
AcDbLine
 10
-1977.024849268726
 20
-436.721529747787
 11
-2052.024849268726
 21
-436.721529747787
  0
LINE
  5
110
100
AcDbEntity
  8
1
  6
PHANTOM
 62
           3
100
AcDbLine
 10
-1849.024849268726
 20
-333.221529747789
 11
-1849.024849268726
 21
-471.221529747789
  0
LINE
  5
10F
100
AcDbEntity
  8
1
  6
PHANTOM
 62
           3
100
AcDbLine
 10
-1799.024849268726
 20
-251.221529747789
 11
-1814.024849268725
 21
-251.221529747787
  0
LINE
  5
10E
100
AcDbEntity
  8
1
  6
PHANTOM
 62
           3
100
AcDbLine
 10
-1799.024849268726
 20
-471.221529747789
 11
-1799.024849268726
 21
-251.221529747789
  0
LINE
  5
10D
100
AcDbEntity
  8
1
  6
PHANTOM
 62
           3
100
AcDbLine
 10
-1913.024849268726
 20
-333.221529747789
 11
-1913.024849268726
 21
-471.221529747789
  0
LINE
  5
10C
100
AcDbEntity
  8
1
  6
PHANTOM
 62
           3
100
AcDbLine
 10
-1863.024849268726
 20
-471.221529747791
 11
-1863.024849268726
 21
-333.221529747789
  0
LINE
  5
10B
100
AcDbEntity
  8
1
  6
PHANTOM
 62
           3
100
AcDbLine
 10
-1977.024849268726
 20
-251.221529747789
 11
-1977.024849268726
 21
-471.221529747789
  0
LINE
  5
10A
100
AcDbEntity
  8
1
  6
PHANTOM
 62
           3
100
AcDbLine
 10
-1927.024849268726
 20
-471.221529747789
 11
-1927.024849268726
 21
-333.221529747789
  0
LINE
  5
109
100
AcDbEntity
  8
1
  6
PHANTOM
 62
           3
100
AcDbLine
 10
-1977.024849268726
 20
-471.221529747789
 11
-1799.024849268726
 21
-471.221529747789
  0
LINE
  5
108
100
AcDbEntity
  8
1
  6
DOT_CENTER
 62
           3
100
AcDbLine
 10
-2016.068032177685
 20
-361.221529747789
 11
-1774.971261381956
 21
-361.221529747789
  0
LINE
  5
107
100
AcDbEntity
  8
1
  6
PHANTOM
 62
           3
100
AcDbLine
 10
-2052.024849268726
 20
-436.721529747787
 11
-2052.024849268726
 21
-482.721529747789
  0
LINE
  5
106
100
AcDbEntity
  8
1
  6
PHANTOM
 62
           3
100
AcDbLine
 10
-1852.024849268726
 20
-636.721529747787
 11
-1852.024849268726
 21
-471.221529747789
  0
LINE
  5
105
100
AcDbEntity
  8
1
  6
PHANTOM
 62
           3
100
AcDbLine
 10
-2052.024849268726
 20
-636.721529747787
 11
-1852.024849268726
 21
-636.721529747787
  0
LINE
  5
104
100
AcDbEntity
  8
1
  6
DOT_CENTER
 62
           3
100
AcDbLine
 10
-2134.024849268726
 20
3778.293646644284
 11
-2134.024849268726
 21
3977.117309495484
  0
LINE
  5
103
100
AcDbEntity
  8
1
  6
DOT_CENTER
 62
           3
100
AcDbLine
 10
-2171.024849268727
 20
3800.117309495486
 11
-2171.024849268727
 21
3854.117309495488
  0
LINE
  5
102
100
AcDbEntity
  8
1
  6
DOT_CENTER
 62
           3
100
AcDbLine
 10
-2097.024849268726
 20
3800.117309495486
 11
-2171.024849268727
 21
3800.117309495486
  0
LINE
  5
101
100
AcDbEntity
  8
1
  6
DOT_CENTER
 62
           3
100
AcDbLine
 10
-2097.024849268725
 20
3854.117309495488
 11
-2097.024849268726
 21
3800.117309495486
  0
LINE
  5
100
100
AcDbEntity
  8
1
  6
DOT_CENTER
 62
           3
100
AcDbLine
 10
-2171.024849268727
 20
3854.117309495488
 11
-2097.024849268725
 21
3854.117309495488
  0
LINE
  5
FF
100
AcDbEntity
  8
1
  6
DOT_CENTER
 62
           3
100
AcDbLine
 10
-1940.024849268726
 20
3927.09884531058
 11
-1940.024849268726
 21
3770.357369382081
  0
LINE
  5
FE
100
AcDbEntity
  8
1
  6
PHANTOM
 62
           3
100
AcDbLine
 10
-1782.524849268716
 20
3785.787182476564
 11
-1782.524849268716
 21
3794.537414137381
  0
LINE
  5
FD
100
AcDbEntity
  8
1
  6
PHANTOM
 62
           3
100
AcDbLine
 10
-1797.524849268734
 20
3785.787182476564
 11
-1797.524849268734
 21
3794.447436514408
  0
LINE
  5
FC
100
AcDbEntity
  8
1
  6
PHANTOM
 62
           3
100
AcDbLine
 10
-1790.024849268725
 20
3799.117309495486
 11
-1782.524849268725
 21
3794.447436514408
  0
LINE
  5
FB
100
AcDbEntity
  8
1
  6
PHANTOM
 62
           3
100
AcDbLine
 10
-1790.024849268734
 20
3781.117309495486
 11
-1797.524849268734
 21
3785.787182476564
  0
LINE
  5
FA
100
AcDbEntity
  8
1
  6
PHANTOM
 62
           3
100
AcDbLine
 10
-1782.524849268716
 20
3785.787182476564
 11
-1790.024849268716
 21
3781.117309495486
  0
LINE
  5
F9
100
AcDbEntity
  8
1
  6
PHANTOM
 62
           3
100
AcDbLine
 10
-1797.524849268725
 20
3794.447436514408
 11
-1790.024849268725
 21
3799.117309495486
  0
LINE
  5
F8
100
AcDbEntity
  8
1
  6
PHANTOM
 62
           3
100
AcDbLine
 10
-1814.024849268725
 20
3809.117309495486
 11
-1814.024849268725
 21
3771.117309495488
  0
LINE
  5
F7
100
AcDbEntity
  8
1
  6
PHANTOM
 62
           3
100
AcDbLine
 10
-1766.024849268725
 20
3809.117309495486
 11
-1814.024849268725
 21
3809.117309495486
  0
LINE
  5
F6
100
AcDbEntity
  8
1
  6
PHANTOM
 62
           3
100
AcDbLine
 10
-1766.024849268725
 20
3771.117309495488
 11
-1766.024849268725
 21
3809.117309495486
  0
LINE
  5
F5
100
AcDbEntity
  8
1
  6
PHANTOM
 62
           3
100
AcDbLine
 10
-1814.024849268725
 20
3771.117309495488
 11
-1766.024849268725
 21
3771.117309495488
  0
LINE
  5
F4
100
AcDbEntity
  8
1
  6
DOT_CENTER
 62
           3
100
AcDbLine
 10
-1790.024849268725
 20
3760.437022804283
 11
-1790.024849268725
 21
3996.541271354882
  0
LINE
  5
F3
100
AcDbEntity
  8
1
  6
DOT_CENTER
 62
           3
100
AcDbLine
 10
-2158.349416789806
 20
3790.117309495484
 11
-1731.758583261806
 21
3790.117309495484
  0
LINE
  5
F2
100
AcDbEntity
  8
1
  6
DOT_CENTER
 62
           3
100
AcDbLine
 10
-1987.520322096776
 20
4015.117309495485
 11
-1709.750617919576
 21
4015.117309495485
  0
LINE
  5
F1
100
AcDbEntity
  8
1
  6
PHANTOM
 62
           3
100
AcDbLine
 10
-1847.024849268725
 20
4155.117309495485
 11
-1847.024849268726
 21
3905.117309495485
  0
LINE
  5
F0
100
AcDbEntity
  8
1
  6
PHANTOM
 62
           3
100
AcDbLine
 10
-1797.024849268726
 20
3905.117309495485
 11
-1797.024849268726
 21
4155.117309495485
  0
LINE
  5
EF
100
AcDbEntity
  8
1
  6
PHANTOM
 62
           3
100
AcDbLine
 10
-1911.024849268726
 20
4155.117309495485
 11
-1911.024849268726
 21
3905.117309495485
  0
LINE
  5
EE
100
AcDbEntity
  8
1
  6
PHANTOM
 62
           3
100
AcDbLine
 10
-1861.024849268726
 20
3905.117309495485
 11
-1861.024849268726
 21
4155.117309495485
  0
LINE
  5
ED
100
AcDbEntity
  8
1
  6
PHANTOM
 62
           3
100
AcDbLine
 10
-1975.024849268726
 20
4155.117309495485
 11
-1975.024849268726
 21
3905.117309495485
  0
LINE
  5
EC
100
AcDbEntity
  8
1
  6
PHANTOM
 62
           3
100
AcDbLine
 10
-1797.024849268726
 20
4155.117309495485
 11
-1975.024849268726
 21
4155.117309495485
  0
LINE
  5
EB
100
AcDbEntity
  8
1
  6
PHANTOM
 62
           3
100
AcDbLine
 10
-1925.024849268726
 20
3905.117309495485
 11
-1925.024849268726
 21
4155.117309495485
  0
LINE
  5
EA
100
AcDbEntity
  8
1
  6
PHANTOM
 62
           3
100
AcDbLine
 10
-1975.024849268726
 20
3905.117309495485
 11
-1797.024849268726
 21
3905.117309495485
  0
LINE
  5
E9
100
AcDbEntity
  8
1
  6
PHANTOM
 62
           3
100
AcDbLine
 10
-2030.024849268726
 20
4075.117309495485
 11
-1975.024849268726
 21
4075.117309495485
  0
LINE
  5
E8
100
AcDbEntity
  8
1
  6
PHANTOM
 62
           3
100
AcDbLine
 10
-1870.024849268726
 20
4235.117309495485
 11
-1870.024849268726
 21
4155.117309495485
  0
LINE
  5
E7
100
AcDbEntity
  8
1
  6
PHANTOM
 62
           3
100
AcDbLine
 10
-2030.024849268726
 20
4235.117309495485
 11
-2030.024849268726
 21
4075.117309495485
  0
LINE
  5
E6
100
AcDbEntity
  8
1
  6
PHANTOM
 62
           3
100
AcDbLine
 10
-2050.024849268726
 20
4235.117309495485
 11
-1850.024849268726
 21
4235.117309495485
  0
LINE
  5
E5
100
AcDbEntity
  8
1
  6
PHANTOM
 62
           3
100
AcDbLine
 10
-1850.024849268726
 20
4235.117309495485
 11
-1850.024849268726
 21
4239.617309495483
  0
LINE
  5
E4
100
AcDbEntity
  8
1
  6
PHANTOM
 62
           3
100
AcDbLine
 10
-2050.024849268726
 20
4235.117309495485
 11
-2050.024849268726
 21
4239.617309495483
  0
LINE
  5
E3
100
AcDbEntity
  8
1
  6
DOT_CENTER
 62
           3
100
AcDbLine
 10
-2134.024849268726
 20
3959.617309495484
 11
-2132.024849268726
 21
3994.617309495484
  0
LINE
  5
E2
100
AcDbEntity
  8
1
  6
DOT_CENTER
 62
           3
100
AcDbLine
 10
-2151.524849268727
 20
3977.117309495484
 11
-2116.524849268726
 21
3977.117309495484
  0
LINE
  5
E1
100
AcDbEntity
  8
1
  6
DOT_CENTER
 62
           3
100
AcDbLine
 10
-1950.024849268726
 20
4293.981451407382
 11
-1950.024849268726
 21
3689.199915273981
  0
LINE
  5
E0
100
AcDbEntity
  8
1
  6
DOT_CENTER
 62
           3
100
AcDbLine
 10
-1749.024849268726
 20
3823.431992364074
 11
-1749.024849268726
 21
3877.431992364076
  0
LINE
  5
DF
100
AcDbEntity
  8
1
  6
DOT_CENTER
 62
           3
100
AcDbLine
 10
-1675.024849268726
 20
3823.431992364074
 11
-1749.024849268726
 21
3823.431992364074
  0
LINE
  5
DE
100
AcDbEntity
  8
1
  6
DOT_CENTER
 62
           3
100
AcDbLine
 10
-1675.024849268726
 20
3877.431992364076
 11
-1675.024849268726
 21
3823.431992364074
  0
LINE
  5
DD
100
AcDbEntity
  8
1
  6
DOT_CENTER
 62
           3
100
AcDbLine
 10
-1749.024849268726
 20
3877.431992364076
 11
-1675.024849268726
 21
3877.431992364076
  0
LINE
  5
DC
100
AcDbEntity
  8
1
  6
DOT_CENTER
 62
           3
100
AcDbLine
 10
-2177.024849268727
 20
3742.117309495483
 11
-2177.024849268727
 21
4239.617309495479
  0
LINE
  5
DB
100
AcDbEntity
  8
1
  6
DOT_CENTER
 62
           3
100
AcDbLine
 10
-1766.318820170333
 20
3742.117309495484
 11
-2177.024849268727
 21
3742.117309495483
  0
LINE
  5
DA
100
AcDbEntity
  8
1
  6
DOT_CENTER
 62
           3
100
AcDbLine
 10
-1766.318820170333
 20
4239.617309495479
 11
-1766.318820170333
 21
3742.117309495484
  0
LINE
  5
D9
100
AcDbEntity
  8
1
  6
PHANTOM
 62
           3
100
AcDbLine
 10
-1751.024849268726
 20
-418.221529747789
 11
-1751.024849268726
 21
-344.221529747787
  0
LINE
  5
D8
100
AcDbEntity
  8
1
  6
PHANTOM
 62
           3
100
AcDbLine
 10
-1677.024849268726
 20
-418.221529747789
 11
-1751.024849268726
 21
-418.221529747789
  0
LINE
  5
D7
100
AcDbEntity
  8
1
  6
PHANTOM
 62
           3
100
AcDbLine
 10
-1677.024849268726
 20
-344.221529747787
 11
-1677.024849268726
 21
-418.221529747789
  0
LINE
  5
D6
100
AcDbEntity
  8
1
  6
PHANTOM
 62
           3
100
AcDbLine
 10
-1751.024849268726
 20
-344.221529747787
 11
-1677.024849268726
 21
-344.221529747787
  0
LINE
  5
D5
100
AcDbEntity
  8
1
  6
DOT_CENTER
 62
           3
100
AcDbLine
 10
-2175.024849268727
 20
-636.721529747789
 11
-2175.024849268727
 21
-163.721529747787
  0
LINE
  5
D4
100
AcDbEntity
  8
1
  6
DOT_CENTER
 62
           3
100
AcDbLine
 10
-1755.024849268726
 20
-636.721529747789
 11
-2175.024849268727
 21
-636.721529747789
  0
LINE
  5
D3
100
AcDbEntity
  8
1
  6
DOT_CENTER
 62
           3
100
AcDbLine
 10
-1755.024849268725
 20
-163.721529747787
 11
-1755.024849268726
 21
-636.721529747789
  0
LINE
  5
D2
100
AcDbEntity
  8
1
  6
DOT_CENTER
 62
           3
100
AcDbLine
 10
-2175.024849268727
 20
-163.721529747787
 11
-1755.024849268725
 21
-163.721529747787
  0
LINE
  5
D1
100
AcDbEntity
  8
1
  6
DOT_CENTER
 62
           3
100
AcDbLine
 10
-3623.024849268727
 20
3642.468148597201
 11
-3623.024849268727
 21
3616.291349325559
  0
LINE
  5
D0
100
AcDbEntity
  8
1
  6
DOT_CENTER
 62
           3
100
AcDbLine
 10
-3617.024849268727
 20
3642.468148597201
 11
-3617.024849268727
 21
3616.291349325559
  0
LINE
  5
CF
100
AcDbEntity
  8
1
  6
DOT_CENTER
 62
           3
100
AcDbLine
 10
-3363.024849268727
 20
3641.404483312711
 11
-3363.024849268727
 21
3619.339317882789
  0
LINE
  5
CE
100
AcDbEntity
  8
1
  6
DOT_CENTER
 62
           3
100
AcDbLine
 10
-3379.024849268727
 20
3641.404483312711
 11
-3379.024849268727
 21
3619.339317882789
  0
LINE
  5
CD
100
AcDbEntity
  8
1
  6
DOT_CENTER
 62
           3
100
AcDbLine
 10
-3493.024849268727
 20
3641.40448331271
 11
-3493.024849268727
 21
3619.339317882789
  0
LINE
  5
CC
100
AcDbEntity
  8
1
  6
DOT_CENTER
 62
           3
100
AcDbLine
 10
-3551.024849268727
 20
3639.690684056031
 11
-3551.024849268727
 21
3617.197068811911
  0
LINE
  5
CB
100
AcDbEntity
  8
1
  6
DOT_CENTER
 62
           3
100
AcDbLine
 10
-3522.024849268727
 20
3644.189407104842
 11
-3522.024849268727
 21
3590.633180333161
  0
LINE
  5
CA
100
AcDbEntity
  8
1
  6
DOT_CENTER
 62
           3
100
AcDbLine
 10
-4889.024849268726
 20
3664.23815594663
 11
-4889.024849268726
 21
3636.4949226784
  0
LINE
  5
C9
100
AcDbEntity
  8
1
  6
DOT_CENTER
 62
           3
100
AcDbLine
 10
-4810.024849268726
 20
3640.11730949548
 11
-4810.024849268726
 21
3613.426456883191
  0
LINE
  5
C8
100
AcDbEntity
  8
1
  6
DOT_CENTER
 62
           3
100
AcDbLine
 10
-4765.024849268726
 20
3640.11730949548
 11
-4765.024849268726
 21
3614.76916379088
  0
LINE
  5
C7
100
AcDbEntity
  8
1
  6
DOT_CENTER
 62
           3
100
AcDbLine
 10
-4720.024849268726
 20
3640.11730949548
 11
-4720.024849268726
 21
3616.335655183191
  0
LINE
  5
C6
100
AcDbEntity
  8
1
  6
CONTINUOUS
 62
           3
100
AcDbLine
 10
-4707.024849268726
 20
3631.11730949548
 11
-4707.024849268726
 21
3626.61730949548
  0
LINE
  5
C5
100
AcDbEntity
  8
1
  6
CONTINUOUS
 62
           3
100
AcDbLine
 10
-4707.024849268726
 20
3631.11730949548
 11
-4854.024849268726
 21
3631.11730949548
  0
LINE
  5
C4
100
AcDbEntity
  8
1
  6
CONTINUOUS
 62
           3
100
AcDbLine
 10
-4854.024849268726
 20
3626.61730949548
 11
-4707.024849268726
 21
3626.61730949548
  0
LINE
  5
C3
100
AcDbEntity
  8
1
  6
CONTINUOUS
 62
           3
100
AcDbLine
 10
-4842.024849268726
 20
3656.11730949548
 11
-4827.024849268726
 21
3656.11730949548
  0
LINE
  5
C2
100
AcDbEntity
  8
1
  6
CONTINUOUS
 62
           3
100
AcDbLine
 10
-4842.024849268726
 20
3656.11730949548
 11
-4842.024849268726
 21
3631.11730949548
  0
LINE
  5
C1
100
AcDbEntity
  8
1
  6
CONTINUOUS
 62
           3
100
AcDbLine
 10
-3597.024849268727
 20
3656.11730949548
 11
-3582.024849268727
 21
3656.11730949548
  0
LINE
  5
C0
100
AcDbEntity
  8
1
  6
CONTINUOUS
 62
           3
100
AcDbLine
 10
-3583.024849268727
 20
3632.11730949548
 11
-3583.024849268727
 21
3633.11730949548
  0
LINE
  5
BF
100
AcDbEntity
  8
1
  6
CONTINUOUS
 62
           3
100
AcDbLine
 10
-3582.024849268727
 20
3631.11730949548
 11
-3582.024849268727
 21
3656.11730949548
  0
LINE
  5
BE
100
AcDbEntity
  8
1
  6
CONTINUOUS
 62
           3
100
AcDbLine
 10
-3582.024849268727
 20
3631.11730949548
 11
-4707.024849268726
 21
3631.11730949548
  0
LINE
  5
BD
100
AcDbEntity
  8
1
  6
DOT_CENTER
 62
           3
100
AcDbLine
 10
-3618.024849268727
 20
3735.310433239512
 11
-3618.024849268727
 21
3667.277303110151
  0
LINE
  5
BC
100
AcDbEntity
  8
1
  6
DOT_CENTER
 62
           3
100
AcDbLine
 10
-4792.024849268726
 20
3674.151571702473
 11
-4792.024849268726
 21
3734.875086438851
  0
LINE
  5
BB
100
AcDbEntity
  8
1
  6
CONTINUOUS
 62
           3
100
AcDbLine
 10
-4849.821824898439
 20
3633.069833471211
 11
-4845.673202724482
 21
3631.11730949548
  0
LINE
  5
BA
100
AcDbEntity
  8
1
  6
DOT_CENTER
 62
           3
100
AcDbLine
 10
-4866.923015020575
 20
3636.61730949548
 11
-4842.843996922142
 21
3636.61730949548
  0
LINE
  5
B9
100
AcDbEntity
  8
1
  6
DOT_CENTER
 62
           3
100
AcDbLine
 10
-4854.024849268726
 20
3649.512244799659
 11
-4854.024849268726
 21
3623.251065686061
  0
LINE
  5
B8
100
AcDbEntity
  8
1
  6
CONTINUOUS
 62
           3
100
AcDbLine
 10
-4914.024849268726
 20
3646.61730949548
 11
-4914.024849268726
 21
3642.11730949548
  0
LINE
  5
B7
100
AcDbEntity
  8
1
  6
CONTINUOUS
 62
           3
100
AcDbLine
 10
-4914.024849268726
 20
3642.11730949548
 11
-4864.035198689378
 21
3642.11730949548
  0
LINE
  5
B6
100
AcDbEntity
  8
1
  6
CONTINUOUS
 62
           3
100
AcDbLine
 10
-4914.024849268726
 20
3646.61730949548
 11
-4859.920428061323
 21
3646.61730949548
  0
LINE
  5
B5
100
AcDbEntity
  8
1
  6
DOT_CENTER
 62
           3
100
AcDbLine
 10
-2267.024849268727
 20
3636.4949226784
 11
-2267.024849268727
 21
3664.23815594663
  0
LINE
  5
B4
100
AcDbEntity
  8
1
  6
DOT_CENTER
 62
           3
100
AcDbLine
 10
-2346.024849268727
 20
3613.426456883191
 11
-2346.024849268727
 21
3640.11730949548
  0
LINE
  5
B3
100
AcDbEntity
  8
1
  6
DOT_CENTER
 62
           3
100
AcDbLine
 10
-2391.024849268727
 20
3614.76916379088
 11
-2391.024849268727
 21
3640.11730949548
  0
LINE
  5
B2
100
AcDbEntity
  8
1
  6
CONTINUOUS
 62
           3
100
AcDbLine
 10
-2436.024849268727
 20
3616.335655183191
 11
-2436.024849268727
 21
3640.11730949548
  0
LINE
  5
B1
100
AcDbEntity
  8
1
  6
CONTINUOUS
 62
           3
100
AcDbLine
 10
-2449.024849268727
 20
3626.61730949548
 11
-2449.024849268727
 21
3631.11730949548
  0
LINE
  5
B0
100
AcDbEntity
  8
1
  6
CONTINUOUS
 62
           3
100
AcDbLine
 10
-2302.024849268727
 20
3631.11730949548
 11
-2449.024849268727
 21
3631.11730949548
  0
LINE
  5
AF
100
AcDbEntity
  8
1
  6
CONTINUOUS
 62
           3
100
AcDbLine
 10
-2449.024849268727
 20
3626.61730949548
 11
-2302.024849268727
 21
3626.61730949548
  0
LINE
  5
AE
100
AcDbEntity
  8
1
  6
CONTINUOUS
 62
           3
100
AcDbLine
 10
-2329.024849268727
 20
3656.11730949548
 11
-2314.024849268727
 21
3656.117309495479
  0
LINE
  5
AD
100
AcDbEntity
  8
1
  6
CONTINUOUS
 62
           3
100
AcDbLine
 10
-2314.024849268727
 20
3631.11730949548
 11
-2314.024849268727
 21
3656.117309495479
  0
LINE
  5
AC
100
AcDbEntity
  8
1
  6
CONTINUOUS
 62
           3
100
AcDbLine
 10
-3572.024849268727
 20
3656.11730949548
 11
-3557.024849268727
 21
3656.11730949548
  0
LINE
  5
AB
100
AcDbEntity
  8
1
  6
CONTINUOUS
 62
           3
100
AcDbLine
 10
-3571.024849268727
 20
3633.11730949548
 11
-3571.024849268727
 21
3632.11730949548
  0
LINE
  5
AA
100
AcDbEntity
  8
1
  6
CONTINUOUS
 62
           3
100
AcDbLine
 10
-3572.024849268727
 20
3656.11730949548
 11
-3572.024849268727
 21
3631.11730949548
  0
LINE
  5
A9
100
AcDbEntity
  8
1
  6
CONTINUOUS
 62
           3
100
AcDbLine
 10
-2445.450336985409
 20
3631.11730949548
 11
-3572.024849268727
 21
3631.11730949548
  0
LINE
  5
A8
100
AcDbEntity
  8
1
  6
DOT_CENTER
 62
           3
100
AcDbLine
 10
-3536.024849268727
 20
3667.277303110151
 11
-3536.024849268727
 21
3737.03256058689
  0
LINE
  5
A7
100
AcDbEntity
  8
1
  6
CONTINUOUS
 62
           1
100
AcDbLine
 10
-2330.024849268727
 20
3633.11730949548
 11
-2330.024849268727
 21
3632.11730949548
  0
LINE
  5
A6
100
AcDbEntity
  8
1
  6
DOT_CENTER
 62
           3
100
AcDbLine
 10
-2364.024849268727
 20
3736.047272932124
 11
-2364.024849268727
 21
3671.360755246513
  0
LINE
  5
A5
100
AcDbEntity
  8
1
  6
CONTINUOUS
 62
           3
100
AcDbLine
 10
-2310.376495812971
 20
3631.11730949548
 11
-2306.227873639012
 21
3633.069833471211
  0
LINE
  5
A4
100
AcDbEntity
  8
1
  6
DOT_CENTER
 62
           3
100
AcDbLine
 10
-2313.20570161531
 20
3636.61730949548
 11
-2289.126683516877
 21
3636.61730949548
  0
LINE
  5
A3
100
AcDbEntity
  8
1
  6
DOT_CENTER
 62
           3
100
AcDbLine
 10
-2302.024849268727
 20
3623.251065686061
 11
-2302.024849268727
 21
3649.512244799659
  0
LINE
  5
A2
100
AcDbEntity
  8
1
  6
CONTINUOUS
 62
           3
100
AcDbLine
 10
-2242.024849268727
 20
3642.11730949548
 11
-2242.024849268727
 21
3646.61730949548
  0
LINE
  5
A1
100
AcDbEntity
  8
1
  6
CONTINUOUS
 62
           3
100
AcDbLine
 10
-2292.014499848071
 20
3642.11730949548
 11
-2242.024849268727
 21
3642.11730949548
  0
LINE
  5
A0
100
AcDbEntity
  8
1
  6
CONTINUOUS
 62
           3
100
AcDbLine
 10
-2296.12927047613
 20
3646.61730949548
 11
-2242.024849268727
 21
3646.61730949548
  0
LINE
  5
9F
100
AcDbEntity
  8
1
  6
CONTINUOUS
 62
           3
100
AcDbLine
 10
-4842.024849268726
 20
3656.11730949548
 11
-3582.024849268727
 21
3656.11730949548
  0
LINE
  5
9E
100
AcDbEntity
  8
1
  6
CONTINUOUS
 62
           3
100
AcDbLine
 10
-3572.024849268727
 20
3656.11730949548
 11
-2314.024849268727
 21
3656.117309495479
  0
LINE
  5
9D
100
AcDbEntity
  8
1
  6
CONTINUOUS
 62
           1
100
AcDbLine
 10
-4864.024849268726
 20
3662.61730949548
 11
-4864.024849268726
 21
3646.61730949548
  0
LINE
  5
9C
100
AcDbEntity
  8
1
  6
CONTINUOUS
 62
           1
100
AcDbLine
 10
-4914.024849268726
 20
3662.61730949548
 11
-4914.024849268726
 21
3646.61730949548
  0
LINE
  5
9B
100
AcDbEntity
  8
1
  6
CONTINUOUS
 62
           1
100
AcDbLine
 10
-2242.024849268727
 20
3662.61730949548
 11
-2242.024849268727
 21
3646.29846037167
  0
LINE
  5
9A
100
AcDbEntity
  8
1
  6
CONTINUOUS
 62
           1
100
AcDbLine
 10
-2292.024849268727
 20
3662.61730949548
 11
-2292.024849268727
 21
3646.61730949548
  0
LINE
  5
99
100
AcDbEntity
  8
1
  6
CONTINUOUS
 62
           2
100
AcDbLine
 10
-2229.024849268725
 20
3738.61730949548
 11
-2229.024849268727
 21
3662.61730949548
  0
LINE
  5
98
100
AcDbEntity
  8
1
  6
CONTINUOUS
 62
           2
100
AcDbLine
 10
-2229.024849268725
 20
3738.61730949548
 11
-2254.024849268727
 21
3738.61730949548
  0
LINE
  5
97
100
AcDbEntity
  8
1
  6
CONTINUOUS
 62
           2
100
AcDbLine
 10
-4904.024849268726
 20
3737.61730949548
 11
-4929.024849268726
 21
3737.61730949548
  0
LINE
  5
96
100
AcDbEntity
  8
1
  6
CONTINUOUS
 62
           2
100
AcDbLine
 10
-4929.024849268726
 20
3737.61730949548
 11
-4929.024849268726
 21
3662.61730949548
  0
LINE
  5
95
100
AcDbEntity
  8
1
  6
DOT_CENTER
 62
           3
100
AcDbLine
 10
-1952.024849268726
 20
-218.085585906389
 11
-1952.024849268726
 21
-700.712285793969
  0
LINE
  5
94
100
AcDbEntity
  8
1
  6
DOT_CENTER
 62
           3
100
AcDbLine
 10
-2037.200646244216
 20
-536.721529747789
 11
-1815.383348518889
 21
-536.721529747789
  0
LINE
  5
93
100
AcDbEntity
  8
1
  6
CONTINUOUS
 62
           2
100
AcDbLine
 10
-2229.024849268727
 20
-987.92152974779
 11
-1654.024849268726
 21
-987.92152974779
  0
LINE
  5
92
100
AcDbEntity
  8
1
  6
CONTINUOUS
 62
           2
100
AcDbLine
 10
-2152.024849268727
 20
4189.617309495479
 11
-2152.024849268727
 21
4239.617309495479
  0
LINE
  5
91
100
AcDbEntity
  8
1
  6
CONTINUOUS
 62
           2
100
AcDbLine
 10
-2254.024849268727
 20
5739.617309495479
 11
-1654.024849268726
 21
5739.617309495479
  0
LINE
  5
90
100
AcDbEntity
  8
1
  6
CONTINUOUS
 62
           3
100
AcDbLine
 10
-2329.024849268727
 20
1404.07847025221
 11
-2329.024849268727
 21
1542.07847025221
  0
LINE
  5
8F
100
AcDbEntity
  8
1
  6
CONTINUOUS
 62
           2
100
AcDbLine
 10
-4929.024849268726
 20
-1037.92152974779
 11
-1654.024849268726
 21
-1037.92152974779
  0
LINE
  5
8E
100
AcDbEntity
  8
1
  6
CONTINUOUS
 62
           2
100
AcDbLine
 10
-4929.024849268726
 20
3662.61730949548
 11
-2229.024849268727
 21
3662.61730949548
  0
LINE
  5
8D
100
AcDbEntity
  8
1
  6
PHANTOM
 62
           3
100
AcDbLine
 10
-3579.024849268727
 20
5958.616341729932
 11
-3579.024849268727
 21
2961.878656350898
  0
LINE
  5
8C
100
AcDbEntity
  8
1
  6
DOT_CENTER
 62
           3
100
AcDbLine
 10
-2358.075846316876
 20
5499.617309495479
 11
-1897.588454356965
 21
5499.617309495479
  0
LINE
  5
8B
100
AcDbEntity
  8
1
  6
DOT_CENTER
 62
           3
100
AcDbLine
 10
-2343.907003487336
 20
4990.617309495479
 11
-1502.444127168805
 21
4989.617309495479
  0
LINE
  5
8A
100
AcDbEntity
  8
1
  6
CONTINUOUS
 62
           2
100
AcDbLine
 10
-4929.024849268726
 20
1542.07847025221
 11
-2229.024849268727
 21
1542.07847025221
  0
LINE
  5
89
100
AcDbEntity
  8
1
  6
CONTINUOUS
 62
           2
100
AcDbLine
 10
-2229.024849268727
 20
412.07847025221
 11
-2054.024849268726
 21
412.07847025221
  0
LINE
  5
88
100
AcDbEntity
  8
1
  6
CONTINUOUS
 62
           2
100
AcDbLine
 10
-2229.024849268727
 20
1542.07847025221
 11
-2229.024849268727
 21
-1037.92152974779
  0
LINE
  5
87
100
AcDbEntity
  8
1
  6
CONTINUOUS
 62
           2
100
AcDbLine
 10
-4929.024849268726
 20
1542.07847025221
 11
-4929.024849268726
 21
-1037.92152974779
  0
LINE
  5
86
100
AcDbEntity
  8
1
  6
CONTINUOUS
 62
           2
100
AcDbLine
 10
-1944.024849268726
 20
5654.617309495481
 11
-1944.024849268726
 21
5344.617309495479
  0
LINE
  5
85
100
AcDbEntity
  8
1
  6
CONTINUOUS
 62
           2
100
AcDbLine
 10
-1974.024849268726
 20
5654.617309495481
 11
-1974.024849268726
 21
5344.617309495479
  0
LINE
  5
84
100
AcDbEntity
  8
1
  6
CONTINUOUS
 62
           2
100
AcDbLine
 10
-2254.024849268727
 20
5654.617309495481
 11
-1944.024849268726
 21
5654.617309495481
  0
LINE
  5
83
100
AcDbEntity
  8
1
  6
CONTINUOUS
 62
           2
100
AcDbLine
 10
-2254.024849268727
 20
5344.617309495479
 11
-1944.024849268726
 21
5344.617309495479
  0
LINE
  5
82
100
AcDbEntity
  8
1
  6
CONTINUOUS
 62
           2
100
AcDbLine
 10
-2234.024849268727
 20
5629.617309495479
 11
-1974.024849268726
 21
5629.617309495479
  0
LINE
  5
81
100
AcDbEntity
  8
1
  6
CONTINUOUS
 62
           2
100
AcDbLine
 10
-2234.024849268727
 20
5369.617309495479
 11
-1974.024849268726
 21
5369.617309495479
  0
LINE
  5
80
100
AcDbEntity
  8
1
  6
CONTINUOUS
 62
           2
100
AcDbLine
 10
-2204.024849268727
 20
5399.617309495479
 11
-2004.024849268726
 21
5399.617309495479
  0
LINE
  5
7F
100
AcDbEntity
  8
1
  6
CONTINUOUS
 62
           2
100
AcDbLine
 10
-2204.024849268727
 20
5599.617309495479
 11
-2004.024849268726
 21
5599.617309495479
  0
LINE
  5
7E
100
AcDbEntity
  8
1
  6
CONTINUOUS
 62
           2
100
AcDbLine
 10
-2004.024849268726
 20
5599.617309495479
 11
-2004.024849268726
 21
5399.617309495479
  0
LINE
  5
7D
100
AcDbEntity
  8
1
  6
CONTINUOUS
 62
           2
100
AcDbLine
 10
-2204.024849268727
 20
5599.617309495479
 11
-2204.024849268727
 21
5399.617309495479
  0
LINE
  5
7C
100
AcDbEntity
  8
1
  6
CONTINUOUS
 62
           2
100
AcDbLine
 10
-2234.024849268727
 20
5629.617309495479
 11
-2234.024849268727
 21
5369.617309495479
  0
LINE
  5
7B
100
AcDbEntity
  8
1
  6
CONTINUOUS
 62
           3
100
AcDbLine
 10
-2204.024849268727
 20
5599.617309495479
 11
-2004.024849268726
 21
5399.617309495479
  0
LINE
  5
7A
100
AcDbEntity
  8
1
  6
CONTINUOUS
 62
           3
100
AcDbLine
 10
-2004.024849268726
 20
5599.617309495479
 11
-2204.024849268727
 21
5399.617309495479
  0
LINE
  5
79
100
AcDbEntity
  8
1
  6
DOT_CENTER
 62
           3
100
AcDbLine
 10
-2104.024849268726
 20
5712.507054694101
 11
-2104.024849268726
 21
5327.684645816084
  0
LINE
  5
78
100
AcDbEntity
  8
1
  6
CONTINUOUS
 62
           3
100
AcDbLine
 10
-1944.024849268726
 20
5654.617309495481
 11
-1974.024849268726
 21
5344.617309495479
  0
LINE
  5
77
100
AcDbEntity
  8
1
  6
CONTINUOUS
 62
           3
100
AcDbLine
 10
-1974.024849268726
 20
5654.617309495481
 11
-1944.024849268726
 21
5344.617309495479
  0
LINE
  5
76
100
AcDbEntity
  8
1
  6
CONTINUOUS
 62
           2
100
AcDbLine
 10
-1654.024849268726
 20
5739.617309495479
 11
-1654.024849268726
 21
5240.617309495479
  0
LINE
  5
75
100
AcDbEntity
  8
1
  6
CONTINUOUS
 62
           2
100
AcDbLine
 10
-2152.024849268727
 20
4189.617309495479
 11
-1654.024849268726
 21
4189.617309495479
  0
LINE
  5
74
100
AcDbEntity
  8
1
  6
CONTINUOUS
 62
           2
100
AcDbLine
 10
-2054.024849268726
 20
3939.61730949548
 11
-2054.024849268726
 21
4189.617309495479
  0
LINE
  5
73
100
AcDbEntity
  8
1
  6
CONTINUOUS
 62
           2
100
AcDbLine
 10
-2054.024849268726
 20
12.07847025221
 11
-1654.024849268726
 21
12.07847025221
  0
LINE
  5
72
100
AcDbEntity
  8
1
  6
CONTINUOUS
 62
           2
100
AcDbLine
 10
-2054.024849268726
 20
612.07847025221
 11
-2054.024849268726
 21
12.07847025221
  0
LINE
  5
71
100
AcDbEntity
  8
1
  6
CONTINUOUS
 62
           2
100
AcDbLine
 10
-2229.024849268727
 20
-937.92152974779
 11
-1654.024849268726
 21
-937.92152974779
  0
LINE
  5
70
100
AcDbEntity
  8
1
  6
DOT_CENTER
 62
           3
100
AcDbLine
 10
-2052.024849268726
 20
5261.509497244842
 11
-2052.024849268726
 21
4633.72438968542
  0
LINE
  5
6F
100
AcDbEntity
  8
1
  6
DOT_CENTER
 62
           3
100
AcDbLine
 10
-3579.024849268727
 20
1586.766104343521
 11
-3579.024849268727
 21
-1058.92152974779
  0
LINE
  5
6E
100
AcDbEntity
  8
1
  6
DOT_CENTER
 62
           3
100
AcDbLine
 10
-2403.024849268727
 20
1572.895676908371
 11
-2403.024849268727
 21
1319.742066257941
  0
LINE
  5
6D
100
AcDbEntity
  8
1
  6
CONTINUOUS
 62
           2
100
AcDbLine
 10
-568.722532161379
 20
14.07847025221
 11
-318.722532161379
 21
14.07847025221
  0
LINE
  5
6C
100
AcDbEntity
  8
1
  6
CONTINUOUS
 62
           2
100
AcDbLine
 10
-318.722532161379
 20
14.07847025221
 11
-318.722532161379
 21
614.07847025221
  0
LINE
  5
6B
100
AcDbEntity
  8
1
  6
CONTINUOUS
 62
           2
100
AcDbLine
 10
-318.722532161379
 20
614.07847025221
 11
-568.722532161379
 21
614.07847025221
  0
LINE
  5
6A
100
AcDbEntity
  8
1
  6
CONTINUOUS
 62
           2
100
AcDbLine
 10
-568.722532161379
 20
614.07847025221
 11
-568.722532161379
 21
14.07847025221
  0
LINE
  5
69
100
AcDbEntity
  8
1
  6
CONTINUOUS
 62
           3
100
AcDbLine
 10
-551.722665525859
 20
9.07847025221
 11
-268.722532161379
 21
9.07847025221
  0
LINE
  5
68
100
AcDbEntity
  8
1
  6
CONTINUOUS
 62
           3
100
AcDbLine
 10
-318.722532161379
 20
414.07847025221
 11
-268.722532161379
 21
414.07847025221
  0
LINE
  5
67
100
AcDbEntity
  8
1
  6
CONTINUOUS
 62
           3
100
AcDbLine
 10
-551.722665525859
 20
9.07847025221
 11
-551.722665525859
 21
14.07847025221
  0
LINE
  5
66
100
AcDbEntity
  8
1
  6
CONTINUOUS
 62
           3
100
AcDbLine
 10
-318.722532161379
 20
14.07847025221
 11
-318.722532161379
 21
9.07847025221
  0
LINE
  5
65
100
AcDbEntity
  8
1
  6
CONTINUOUS
 62
           3
100
AcDbLine
 10
-538.722532161379
 20
614.07847025221
 11
-538.722532161379
 21
14.07847025221
  0
LINE
  5
64
100
AcDbEntity
  8
1
  6
CONTINUOUS
 62
           3
100
AcDbLine
 10
-531.722532161377
 20
526.57847025221
 11
-524.722532161376
 21
526.57847025221
  0
LINE
  5
63
100
AcDbEntity
  8
1
  6
CONTINUOUS
 62
           3
100
AcDbLine
 10
-531.722532161377
 20
539.07847025221
 11
-524.722532161376
 21
539.07847025221
  0
LINE
  5
62
100
AcDbEntity
  8
1
  6
CONTINUOUS
 62
           3
100
AcDbLine
 10
-531.722532161377
 20
551.57847025221
 11
-524.722532161376
 21
551.57847025221
  0
LINE
  5
61
100
AcDbEntity
  8
1
  6
CONTINUOUS
 62
           3
100
AcDbLine
 10
-524.722532161376
 20
564.07847025221
 11
-524.722532161377
 21
514.07847025221
  0
LINE
  5
60
100
AcDbEntity
  8
1
  6
CONTINUOUS
 62
           3
100
AcDbLine
 10
-531.722532161377
 20
76.57847025221
 11
-524.722532161376
 21
76.57847025221
  0
LINE
  5
5F
100
AcDbEntity
  8
1
  6
CONTINUOUS
 62
           3
100
AcDbLine
 10
-531.722532161377
 20
89.07847025221
 11
-524.722532161376
 21
89.07847025221
  0
LINE
  5
5E
100
AcDbEntity
  8
1
  6
CONTINUOUS
 62
           3
100
AcDbLine
 10
-531.722532161377
 20
101.57847025221
 11
-524.722532161376
 21
101.57847025221
  0
LINE
  5
5D
100
AcDbEntity
  8
1
  6
CONTINUOUS
 62
           3
100
AcDbLine
 10
-524.722532161376
 20
114.07847025221
 11
-524.722532161377
 21
64.07847025221
  0
LINE
  5
5C
100
AcDbEntity
  8
1
  6
CONTINUOUS
 62
           3
100
AcDbLine
 10
-531.722532161377
 20
564.07847025221
 11
-531.722532161377
 21
514.07847025221
  0
LINE
  5
5B
100
AcDbEntity
  8
1
  6
CONTINUOUS
 62
           3
100
AcDbLine
 10
-531.722532161378
 20
114.07847025221
 11
-531.722532161378
 21
64.07847025221
  0
LINE
  5
5A
100
AcDbEntity
  8
1
  6
CONTINUOUS
 62
           3
100
AcDbLine
 10
-545.722532161379
 20
64.07847025221
 11
-545.722532161379
 21
114.07847025221
  0
LINE
  5
59
100
AcDbEntity
  8
1
  6
CONTINUOUS
 62
           3
100
AcDbLine
 10
-552.722532161381
 20
76.57847025221
 11
-545.722532161381
 21
76.57847025221
  0
LINE
  5
58
100
AcDbEntity
  8
1
  6
CONTINUOUS
 62
           3
100
AcDbLine
 10
-552.722532161381
 20
89.07847025221
 11
-545.722532161381
 21
89.07847025221
  0
LINE
  5
57
100
AcDbEntity
  8
1
  6
CONTINUOUS
 62
           3
100
AcDbLine
 10
-552.722532161381
 20
101.57847025221
 11
-545.722532161381
 21
101.57847025221
  0
LINE
  5
56
100
AcDbEntity
  8
1
  6
CONTINUOUS
 62
           3
100
AcDbLine
 10
-552.722532161381
 20
64.07847025221
 11
-552.722532161381
 21
114.07847025221
  0
LINE
  5
55
100
AcDbEntity
  8
1
  6
CONTINUOUS
 62
           3
100
AcDbLine
 10
-552.722532161381
 20
114.07847025221
 11
-524.722532161376
 21
114.07847025221
  0
LINE
  5
54
100
AcDbEntity
  8
1
  6
CONTINUOUS
 62
           3
100
AcDbLine
 10
-524.722532161377
 20
64.07847025221
 11
-552.722532161381
 21
64.07847025221
  0
LINE
  5
53
100
AcDbEntity
  8
1
  6
CONTINUOUS
 62
           3
100
AcDbLine
 10
-545.722532161381
 20
514.07847025221
 11
-545.722532161381
 21
564.07847025221
  0
LINE
  5
52
100
AcDbEntity
  8
1
  6
CONTINUOUS
 62
           3
100
AcDbLine
 10
-552.722532161381
 20
526.57847025221
 11
-545.722532161381
 21
526.57847025221
  0
LINE
  5
51
100
AcDbEntity
  8
1
  6
CONTINUOUS
 62
           3
100
AcDbLine
 10
-552.722532161381
 20
539.07847025221
 11
-545.722532161381
 21
539.07847025221
  0
LINE
  5
50
100
AcDbEntity
  8
1
  6
CONTINUOUS
 62
           3
100
AcDbLine
 10
-552.722532161381
 20
551.57847025221
 11
-545.722532161381
 21
551.57847025221
  0
LINE
  5
4F
100
AcDbEntity
  8
1
  6
CONTINUOUS
 62
           3
100
AcDbLine
 10
-552.722532161381
 20
514.07847025221
 11
-552.722532161381
 21
564.07847025221
  0
LINE
  5
4E
100
AcDbEntity
  8
1
  6
CONTINUOUS
 62
           3
100
AcDbLine
 10
-552.722532161381
 20
514.07847025221
 11
-552.722532161381
 21
564.07847025221
  0
LINE
  5
4D
100
AcDbEntity
  8
1
  6
CONTINUOUS
 62
           3
100
AcDbLine
 10
-552.722532161381
 20
564.07847025221
 11
-524.722532161376
 21
564.07847025221
  0
LINE
  5
4C
100
AcDbEntity
  8
1
  6
CONTINUOUS
 62
           3
100
AcDbLine
 10
-524.722532161377
 20
514.07847025221
 11
-552.722532161381
 21
514.07847025221
  0
LINE
  5
4B
100
AcDbEntity
  8
1
  6
CONTINUOUS
 62
           2
100
AcDbLine
 10
-881.722532161378
 20
-950.921529747791
 11
-845.722532161379
 21
-950.92152974779
  0
LINE
  5
4A
100
AcDbEntity
  8
1
  6
CONTINUOUS
 62
           2
100
AcDbLine
 10
-881.722532161378
 20
-950.921529747791
 11
-881.722532161378
 21
1405.07847025221
  0
LINE
  5
49
100
AcDbEntity
  8
1
  6
CONTINUOUS
 62
           2
100
AcDbLine
 10
-881.722532161378
 20
1405.07847025221
 11
-845.722532161379
 21
1405.078470252209
  0
LINE
  5
48
100
AcDbEntity
  8
1
  6
CONTINUOUS
 62
           3
100
AcDbLine
 10
-4829.024849268726
 20
1542.07847025221
 11
-4829.024849268726
 21
1404.07847025221
  0
LINE
  5
47
100
AcDbEntity
  8
1
  6
CONTINUOUS
 62
           2
100
AcDbLine
 10
-2418.024849268727
 20
1547.07847025221
 11
-2388.024849268727
 21
1547.07847025221
  0
LINE
  5
46
100
AcDbEntity
  8
1
  6
CONTINUOUS
 62
           2
100
AcDbLine
 10
-2418.024849268727
 20
1547.07847025221
 11
-2418.024849268727
 21
1542.07847025221
  0
LINE
  5
45
100
AcDbEntity
  8
1
  6
CONTINUOUS
 62
           2
100
AcDbLine
 10
-2388.024849268727
 20
1547.07847025221
 11
-2388.024849268727
 21
1542.07847025221
  0
LINE
  5
44
100
AcDbEntity
  8
1
  6
CONTINUOUS
 62
           2
100
AcDbLine
 10
-2405.424849268726
 20
1552.07847025221
 11
-2405.424849268726
 21
1547.07847025221
  0
LINE
  5
43
100
AcDbEntity
  8
1
  6
CONTINUOUS
 62
           2
100
AcDbLine
 10
-2400.624849268726
 20
1552.07847025221
 11
-2400.624849268726
 21
1547.07847025221
  0
LINE
  5
42
100
AcDbEntity
  8
1
  6
CONTINUOUS
 62
           2
100
AcDbLine
 10
-2413.024849268727
 20
1552.07847025221
 11
-2393.024849268727
 21
1552.07847025221
  0
LINE
  5
41
100
AcDbEntity
  8
1
  6
CONTINUOUS
 62
           2
100
AcDbLine
 10
-2393.024849268727
 20
1552.07847025221
 11
-2393.024849268727
 21
1567.07847025221
  0
LINE
  5
40
100
AcDbEntity
  8
1
  6
CONTINUOUS
 62
           2
100
AcDbLine
 10
-2393.024849268727
 20
1567.07847025221
 11
-2413.024849268727
 21
1567.07847025221
  0
LINE
  5
3F
100
AcDbEntity
  8
1
  6
CONTINUOUS
 62
           2
100
AcDbLine
 10
-2413.024849268727
 20
1567.07847025221
 11
-2413.024849268727
 21
1552.07847025221
  0
LINE
  5
3E
100
AcDbEntity
  8
1
  6
CONTINUOUS
 62
           3
100
AcDbLine
 10
-3598.024849268727
 20
3673.117309495482
 11
-3596.024849268727
 21
3673.117309495482
  0
LINE
  5
3D
100
AcDbEntity
  8
1
  6
CONTINUOUS
 62
           3
100
AcDbLine
 10
-3596.024849268727
 20
3687.617309495482
 11
-3596.024849268727
 21
3682.953455038624
  0
LINE
  5
3C
100
AcDbEntity
  8
1
  6
CONTINUOUS
 62
           3
100
AcDbLine
 10
-4829.024849268726
 20
5239.617309495485
 11
-2329.024849268727
 21
5239.617309495485
  0
LINE
  5
3B
100
AcDbEntity
  8
1
  6
CONTINUOUS
 62
           3
100
AcDbLine
 10
-4829.024849268726
 20
4739.617309495485
 11
-2329.024849268727
 21
4739.617309495485
  0
LINE
  5
3A
100
AcDbEntity
  8
1
  6
CONTINUOUS
 62
           3
100
AcDbLine
 10
-4829.024849268726
 20
4239.617309495483
 11
-2329.024849268727
 21
4239.617309495483
  0
LINE
  5
39
100
AcDbEntity
  8
1
  6
PHANTOM
 62
           3
100
AcDbLine
 10
-4854.024849268726
 20
3636.61730949548
 11
-5229.024849268725
 21
2400.942341662816
  0
LINE
  5
38
100
AcDbEntity
  8
1
  6
PHANTOM
 62
           3
100
AcDbLine
 10
-1929.024849268727
 20
2400.942341662815
 11
-2304.024849268727
 21
3636.61730949548
  0
LINE
  5
37
100
AcDbEntity
  8
1
  6
CONTINUOUS
 62
           2
100
AcDbLine
 10
-2192.024849268727
 20
4615.617309495479
 11
-2192.024849268727
 21
4340.617309495479
  0
LINE
  5
36
100
AcDbEntity
  8
1
  6
CONTINUOUS
 62
           2
100
AcDbLine
 10
-2152.024849268727
 20
4340.617309495479
 11
-2152.024849268727
 21
4615.617309495479
  0
LINE
  5
35
100
AcDbEntity
  8
1
  6
CONTINUOUS
 62
           2
100
AcDbLine
 10
-1952.024849268726
 20
4615.617309495479
 11
-1952.024849268726
 21
4450.617309495479
  0
LINE
  5
34
100
AcDbEntity
  8
1
  6
CONTINUOUS
 62
           2
100
AcDbLine
 10
-2254.024849268727
 20
4239.617309495479
 11
-1654.024849268726
 21
4239.617309495479
  0
LINE
  5
33
100
AcDbEntity
  8
1
  6
CONTINUOUS
 62
           2
100
AcDbLine
 10
-1654.024849268726
 20
4340.617309495479
 11
-1654.024849268726
 21
3939.61730949548
  0
LINE
  5
32
100
AcDbEntity
  8
1
  6
CONTINUOUS
 62
           2
100
AcDbLine
 10
-1654.024849268726
 20
3939.61730949548
 11
-2054.024849268726
 21
3939.61730949548
  0
LINE
  5
31
100
AcDbEntity
  8
1
  6
CONTINUOUS
 62
           2
100
AcDbLine
 10
-1627.024849268726
 20
4491.117309495492
 11
-1667.024849268726
 21
4491.117309495492
  0
LINE
  5
30
100
AcDbEntity
  8
1
  6
CONTINUOUS
 62
           2
100
AcDbLine
 10
-1677.724849268726
 20
4472.617309495492
 11
-1672.024849268726
 21
4472.617309495492
  0
LINE
  5
2F
100
AcDbEntity
  8
1
  6
CONTINUOUS
 62
           2
100
AcDbLine
 10
-1892.024849268726
 20
4780.617309495479
 11
-1662.024849268727
 21
4780.617309495479
  0
LINE
  5
2E
100
AcDbEntity
  8
1
  6
CONTINUOUS
 62
           2
100
AcDbLine
 10
-1912.024849268726
 20
4450.617309495479
 11
-1912.024849268726
 21
4615.617309495479
  0
LINE
  5
2D
100
AcDbEntity
  8
1
  6
CONTINUOUS
 62
           2
100
AcDbLine
 10
-1892.024849268726
 20
4740.617309495479
 11
-1692.024849268727
 21
4740.617309495479
  0
LINE
  5
2C
100
AcDbEntity
  8
1
  6
CONTINUOUS
 62
           2
100
AcDbLine
 10
-1662.024849268727
 20
5005.617309495479
 11
-1662.024849268727
 21
5200.617309495479
  0
LINE
  5
2B
100
AcDbEntity
  8
1
  6
CONTINUOUS
 62
           2
100
AcDbLine
 10
-1892.024849268726
 20
5280.617309495479
 11
-1892.024849268726
 21
4615.617309495479
  0
LINE
  5
2A
100
AcDbEntity
  8
1
  6
CONTINUOUS
 62
           3
100
AcDbLine
 10
-4904.024849268726
 20
3739.617309495483
 11
-2254.024849268727
 21
3739.617309495483
  0
LINE
  5
29
100
AcDbEntity
  8
1
  6
CONTINUOUS
 62
           3
100
AcDbLine
 10
-2329.024849268727
 20
5738.117413251217
 11
-2329.024849268727
 21
3739.617309495483
  0
LINE
  5
28
100
AcDbEntity
  8
1
  6
CONTINUOUS
 62
           3
100
AcDbLine
 10
-268.722532161379
 20
414.07847025221
 11
-268.722532161379
 21
1465.078470252211
  0
ENDSEC
  0
SECTION
  2
OBJECTS
  0
DICTIONARY
  5
19
100
AcDbDictionary
  3
ACAD_GROUP
350
1A
  3
ACAD_MLINESTYLE
350
1B
  0
DICTIONARY
  5
1A
102
{ACAD_REACTORS
330
19
102
}
100
AcDbDictionary
  0
DICTIONARY
  5
1B
102
{ACAD_REACTORS
330
19
102
}
100
AcDbDictionary
  3
STANDARD
350
1C
  0
MLINESTYLE
  5
1C
102
{ACAD_REACTORS
330
1B
102
}
100
AcDbMlineStyle
  2
STANDARD
 70
           0
  3

 62
           0
 51
90.0
 52
90.0
 71
           2
 49
0.5
 62
         256
  6
BYLAYER
 49
-0.5
 62
         256
  6
BYLAYER
  0
ENDSEC
  0
EOF
