  0
SECTION
  2
HEADER
  9
$ACADVER
  1
AC1014
  9
$ACADMAINTVER
 70
           0
  9
$DWGCODEPAGE
  3
DOS932
  9
$INSBASE
 10
0.0
 20
0.0
 30
0.0
  9
$EXTMIN
 10
1.000000000000E+20
 20
1.000000000000E+20
 30
1.000000000000E+20
  9
$EXTMAX
 10
-1.000000000000E+20
 20
-1.000000000000E+20
 30
-1.000000000000E+20
  9
$LIMMIN
 10
0.0
 20
0.0
  9
$LIMMAX
 10
0.0
 20
0.0
  9
$ORTHOMODE
 70
           0
  9
$REGENMODE
 70
           1
  9
$FILLMODE
 70
           1
  9
$QTEXTMODE
 70
           0
  9
$MIRRTEXT
 70
           1
  9
$DRAGMODE
 70
           2
  9
$LTSCALE
 40
1.0
  9
$OSMODE
 70
           0
  9
$ATTMODE
 70
           1
  9
$TEXTSIZE
 40
0.2
  9
$TRACEWID
 40
0.05
  9
$TEXTSTYLE
  7
STANDARD
  9
$CLAYER
  8
0
  9
$CELTYPE
  6
CONTINUOUS
  9
$CECOLOR
 62
         256
  9
$CELTSCALE
 40
1.0
  9
$DELOBJ
 70
           1
  9
$DISPSILH
 70
           0
  9
$DIMSCALE
 40
1.0
  9
$DIMASZ
 40
0.18
  9
$DIMEXO
 40
0.0625
  9
$DIMDLI
 40
0.38
  9
$DIMRND
 40
0.0
  9
$DIMDLE
 40
0.0
  9
$DIMEXE
 40
0.18
  9
$DIMTP
 40
0.0
  9
$DIMTM
 40
0.0
  9
$DIMTXT
 40
0.18
  9
$DIMCEN
 40
0.09
  9
$DIMTSZ
 40
0.0
  9
$DIMTOL
 70
           0
  9
$DIMLIM
 70
           0
  9
$DIMTIH
 70
           1
  9
$DIMTOH
 70
           1
  9
$DIMSE1
 70
           0
  9
$DIMSE2
 70
           0
  9
$DIMTAD
 70
           0
  9
$DIMZIN
 70
           0
  9
$DIMBLK
  1

  9
$DIMASO
 70
           1
  9
$DIMSHO
 70
           1
  9
$DIMPOST
  1

  9
$DIMAPOST
  1

  9
$DIMALT
 70
           0
  9
$DIMALTD
 70
           2
  9
$DIMALTF
 40
25.4
  9
$DIMLFAC
 40
1.0
  9
$DIMTOFL
 70
           0
  9
$DIMTVP
 40
0.0
  9
$DIMTIX
 70
           0
  9
$DIMSOXD
 70
           0
  9
$DIMSAH
 70
           0
  9
$DIMBLK1
  1

  9
$DIMBLK2
  1

  9
$DIMSTYLE
  2
STANDARD
  9
$DIMCLRD
 70
           0
  9
$DIMCLRE
 70
           0
  9
$DIMCLRT
 70
           0
  9
$DIMTFAC
 40
1.0
  9
$DIMGAP
 40
0.09
  9
$DIMJUST
 70
           0
  9
$DIMSD1
 70
           0
  9
$DIMSD2
 70
           0
  9
$DIMTOLJ
 70
           1
  9
$DIMTZIN
 70
           0
  9
$DIMALTZ
 70
           0
  9
$DIMALTTZ
 70
           0
  9
$DIMFIT
 70
           3
  9
$DIMUPT
 70
           0
  9
$DIMUNIT
 70
           2
  9
$DIMDEC
 70
           4
  9
$DIMTDEC
 70
           4
  9
$DIMALTU
 70
           2
  9
$DIMALTTD
 70
           2
  9
$DIMTXSTY
  7
STANDARD
  9
$DIMAUNIT
 70
           0
  9
$LUNITS
 70
           2
  9
$LUPREC
 70
           4
  9
$SKETCHINC
 40
0.1
  9
$FILLETRAD
 40
0.0
  9
$AUNITS
 70
           0
  9
$AUPREC
 70
           0
  9
$MENU
  1
acad
  9
$ELEVATION
 40
0.0
  9
$PELEVATION
 40
0.0
  9
$THICKNESS
 40
0.0
  9
$LIMCHECK
 70
           0
  9
$BLIPMODE
 70
           1
  9
$CHAMFERA
 40
0.0
  9
$CHAMFERB
 40
0.0
  9
$CHAMFERC
 40
0.0
  9
$CHAMFERD
 40
0.0
  9
$SKPOLY
 70
           0
  9
$TDCREATE
 40
0.000000000
  9
$TDUPDATE
 40
0.000000000
  9
$TDINDWG
 40
0.0000000000
  9
$TDUSRTIMER
 40
0.0000000000
  9
$USRTIMER
 70
           1
  9
$ANGBASE
 50
0.0
  9
$ANGDIR
 70
           0
  9
$PDMODE
 70
           0
  9
$PDSIZE
 40
0.0
  9
$PLINEWID
 40
0.0
  9
$COORDS
 70
           0
  9
$SPLFRAME
 70
           0
  9
$SPLINETYPE
 70
           6
  9
$SPLINESEGS
 70
           8
  9
$ATTDIA
 70
           0
  9
$ATTREQ
 70
           1
  9
$HANDLING
 70
           1
  9
$HANDSEED
  5
36B
  9
$SURFTAB1
 70
           6
  9
$SURFTAB2
 70
           6
  9
$SURFTYPE
 70
           6
  9
$SURFU
 70
           6
  9
$SURFV
 70
           6
  9
$UCSNAME
  2

  9
$UCSORG
 10
0.0
 20
0.0
 30
0.0
  9
$UCSXDIR
 10
1.0
 20
0.0
 30
0.0
  9
$UCSYDIR
 10
0.0
 20
1.0
 30
0.0
  9
$PUCSNAME
  2

  9
$PUCSORG
 10
0.0
 20
0.0
 30
0.0
  9
$PUCSXDIR
 10
1.0
 20
0.0
 30
0.0
  9
$PUCSYDIR
 10
0.0
 20
1.0
 30
0.0
  9
$USERI1
 70
           0
  9
$USERI2
 70
           0
  9
$USERI3
 70
           0
  9
$USERI4
 70
           0
  9
$USERI5
 70
           0
  9
$USERR1
 40
0.0
  9
$USERR2
 40
0.0
  9
$USERR3
 40
0.0
  9
$USERR4
 40
0.0
  9
$USERR5
 40
0.0
  9
$WORLDVIEW
 70
           1
  9
$SHADEDGE
 70
           3
  9
$SHADEDIF
 70
          70
  9
$TILEMODE
 70
           1
  9
$MAXACTVP
 70
          16
  9
$PINSBASE
 10
0.0
 20
0.0
 30
0.0
  9
$PLIMCHECK
 70
           0
  9
$PEXTMIN
 10
1.000000000000E+20
 20
1.000000000000E+20
 30
1.000000000000E+20
  9
$PEXTMAX
 10
-1.000000000000E+20
 20
-1.000000000000E+20
 30
-1.000000000000E+20
  9
$PLIMMIN
 10
0.0
 20
0.0
  9
$PLIMMAX
 10
12.0
 20
9.0
  9
$UNITMODE
 70
           0
  9
$VISRETAIN
 70
           0
  9
$PLINEGEN
 70
           1
  9
$PSLTSCALE
 70
           0
  9
$TREEDEPTH
 70
        3020
  9
$PICKSTYLE
 70
           1
  9
$CMLSTYLE
  2
STANDARD
  9
$CMLJUST
 70
           0
  9
$CMLSCALE
 40
1.0
  9
$PROXYGRAPHICS
 70
           0
  9
$MEASUREMENT
 70
           0
  0
ENDSEC
  0
SECTION
  2
CLASSES
  0
CLASS
  1
LWPOLYLINE
  2
AcDbPolyline
  3
"AutoCAD"
 90
        0
280
           0
281
           1
  0
CLASS
  1
IMAGE
  2
AcDbRasterImage
  3
ISM
 90
      127
280
           0
281
           1
  0
CLASS
  1
OLE2FRAME
  2
AcDbOle2Frame
  3
""
 90
        0
280
           0
281
           1
  0
CLASS
  1
HATCH
  2
AcDbHatch
  3
"ACAD_SEDONA"
 90
        0
280
           0
281
           1
  0
CLASS
  1
DICTIONARYVAR
  2
AcDbDictionaryVar
  3
"AutoCAD"
 90
        0
280
           0
281
           0
  0
CLASS
  1
RASTERVARIABLES
  2
AcDbRasterVariables
  3
ISM
 90
        0
280
           0
281
           0
  0
CLASS
  1
IMAGEDEF
  2
AcDbRasterImageDef
  3
ISM
 90
        0
280
           0
281
           0
  0
CLASS
  1
IMAGEDEF_REACTOR
  2
AcDbRasterImageDefReactor
  3
ISM
 90
        1
280
           0
281
           0
  0
CLASS
  1
IDBUFFER
  2
AcDbIdBuffer
  3
"Acad"
 90
        0
280
           0
281
           0
  0
CLASS
  1
SPATIAL_FILTER
  2
AcDbSpatialFilter
  3
"Acad"
 90
        0
280
           0
281
           0
  0
CLASS
  1
XRECORD
  2
AcDbXrecord
  3
"<Built In>"
 90
        0
280
           0
281
           0
  0
CLASS
  1
SORTENTSTABLE
  2
AcDbSortentsTable
  3
"AutoCAD"
 90
        0
280
           0
281
           0
  0
CLASS
  1
LAYER_INDEX
  2
AcDbLayerIndex
  3
"Acad"
 90
        0
280
           0
281
           0
  0
CLASS
  1
SPATIAL_INDEX
  2
AcDbSpatialIndex
  3
"Acad"
 90
        0
280
           0
281
           0
  0
CLASS
  1
OBJECT_PTR
  2
CAseDLPNTableRecord
  3
"ASE-LPNTableRecord"
 90
        1
280
           0
281
           0
  0
CLASS
  1
LAYOUT
  2
AcDbLayout
  3
"AutoCAD 2000"
 90
        1
280
           0
281
           0
  0
CLASS
  1
PLOTSETTINGS
  2
AcDbPlotSettings
  3
"AutoCAD 2000"
 90
        1
280
           0
281
           0
  0
CLASS
  1
ACDBDICTIONARYWDFLT
  2
AcDbDictionaryWithDefault
  3
"AutoCAD 2000"
 90
        1
280
           0
281
           0
  0
CLASS
  1
ACDBPLACEHOLDER
  2
AcDbPlaceHolder
  3
"AutoCAD 2000"
 90
        1
280
           0
281
           0
  0
CLASS
  1
VBA_PROJECT
  2
AcDbVbaProject
  3
"acadvba"
 90
        1
280
           0
281
           0
  0
CLASS
  1
WIPEOUT
  2
AcDbWipeout
  3
WipeOut|AutoCAD Express Tool|expresstools@autodesk.com
 90
      127
280
           0
281
           1
  0
CLASS
  1
WIPEOUTVARIABLES
  2
AcDbWipeoutVariables
  3
WipeOut|AutoCAD Express Tool|expresstools@autodesk.com
 90
        0
280
           0
281
           0
  0
CLASS
  1
RTEXT
  2
RText
  3
RText|AutoCAD Express Tool|expresstools@autodesk.com
 90
        0
280
           0
281
           1
  0
CLASS
  1
ARCALIGNEDTEXT
  2
AcDbArcAlignedText
  3
ATEXT|AutoCAD Express Tool|expresstools@autodesk.com
 90
        0
280
           0
281
           1
  0
ENDSEC
  0
SECTION
  2
TABLES
  0
TABLE
  2
VPORT
  5
7
100
AcDbSymbolTable
 70
           1
  0
VPORT
  5
15
100
AcDbSymbolTableRecord
100
AcDbViewportTableRecord
  2
*ACTIVE
 70
           0
 10
0.0
 20
0.0
 11
1.0
 21
1.0
 12
6.591288
 22
4.579184
 13
0.0
 23
0.0
 14
1.0
 24
1.0
 15
0.0
 25
0.0
 16
0.0
 26
0.0
 36
1.0
 17
0.0
 27
0.0
 37
0.0
 40
9.158369
 41
0.688564
 42
50.0
 43
0.0
 44
0.0
 50
0.0
 51
0.0
 71
           0
 72
         100
 73
           1
 74
           1
 75
           0
 76
           0
 77
           0
 78
           0
  0
ENDTAB
  0
TABLE
  2
LTYPE
  5
4
100
AcDbSymbolTable
 70
          10
  0
LTYPE
  5
11
100
AcDbSymbolTableRecord
100
AcDbLinetypeTableRecord
  2
BYBLOCK
 70
          64
  3

 72
          65
 73
           0
 40
0.0
  0
LTYPE
  5
12
100
AcDbSymbolTableRecord
100
AcDbLinetypeTableRecord
  2
BYLAYER
 70
          64
  3

 72
          65
 73
           0
 40
0.0
  0
LTYPE
  5
13
100
AcDbSymbolTableRecord
100
AcDbLinetypeTableRecord
  2
CONTINUOUS
 70
          64
  3
Solid line
 72
          65
 73
           0
 40
0.0
  0
LTYPE
  5
1D
100
AcDbSymbolTableRecord
100
AcDbLinetypeTableRecord
  2
DASHED
 70
          64
  3
Dashed
 72
          65
 73
           2
 40
15.0
 49
12.0
 74
           0
 49
-3.0
 74
           0
  0
LTYPE
  5
1E
100
AcDbSymbolTableRecord
100
AcDbLinetypeTableRecord
  2
DOTTED
 70
          64
  3
Dotted
 72
          65
 73
           2
 40
3.5
 49
0.5
 74
           0
 49
-3.0
 74
           0
  0
LTYPE
  5
1F
100
AcDbSymbolTableRecord
100
AcDbLinetypeTableRecord
  2
DOT_CENTER
 70
          64
  3
Dot_Center
 72
          65
 73
           4
 40
2.0
 49
1.25
 74
           0
 49
-0.25
 74
           0
 49
0.25
 74
           0
 49
-0.25
 74
           0
  0
LTYPE
  5
20
100
AcDbSymbolTableRecord
100
AcDbLinetypeTableRecord
  2
LONG_DASHED
 70
          64
  3
Long_Dashed
 72
          65
 73
           2
 40
2.0
 49
1.5
 74
           0
 49
-0.5
 74
           0
  0
LTYPE
  5
21
100
AcDbSymbolTableRecord
100
AcDbLinetypeTableRecord
  2
DASH_CENTER
 70
          64
  3
Dash_Center
 72
          65
 73
           4
 40
36.0
 49
24.0
 74
           0
 49
-3.0
 74
           0
 49
6.0
 74
           0
 49
-3.0
 74
           0
  0
LTYPE
  5
22
100
AcDbSymbolTableRecord
100
AcDbLinetypeTableRecord
  2
PHANTOM
 70
          64
  3
Phantom
 72
          65
 73
           6
 40
2.5
 49
1.25
 74
           0
 49
-0.25
 74
           0
 49
0.25
 74
           0
 49
-0.25
 74
           0
 49
0.25
 74
           0
 49
-0.25
 74
           0
  0
LTYPE
  5
23
100
AcDbSymbolTableRecord
100
AcDbLinetypeTableRecord
  2
CENTER_DASH_DASH
 70
          64
  3
Center_Dash_Dash
 72
          65
 73
           6
 40
22.0
 49
12.0
 74
           0
 49
-3.0
 74
           0
 49
0.5
 74
           0
 49
-3.0
 74
           0
 49
0.5
 74
           0
 49
-3.0
 74
           0
  0
ENDTAB
  0
TABLE
  2
LAYER
  5
2
100
AcDbSymbolTable
 70
           7
  0
LAYER
  5
14
100
AcDbSymbolTableRecord
100
AcDbLayerTableRecord
  2
0
 70
           0
 62
           7
  6
CONTINUOUS
  0
LAYER
  5
24
100
AcDbSymbolTableRecord
100
AcDbLayerTableRecord
  2
___S__
 70
           0
 62
           7
  6
CONTINUOUS
  0
LAYER
  5
25
100
AcDbSymbolTableRecord
100
AcDbLayerTableRecord
  2
FORMAT
 70
           0
 62
           7
  6
CONTINUOUS
  0
LAYER
  5
26
100
AcDbSymbolTableRecord
100
AcDbLayerTableRecord
  2
1
 70
           0
 62
           7
  6
CONTINUOUS
  0
LAYER
  5
27
100
AcDbSymbolTableRecord
100
AcDbLayerTableRecord
  2
2
 70
           0
 62
           7
  6
CONTINUOUS
  0
LAYER
  5
28
100
AcDbSymbolTableRecord
100
AcDbLayerTableRecord
  2
7
 70
           0
 62
           7
  6
CONTINUOUS
  0
LAYER
  5
29
100
AcDbSymbolTableRecord
100
AcDbLayerTableRecord
  2
____
 70
           0
 62
           7
  6
CONTINUOUS
  0
ENDTAB
  0
TABLE
  2
STYLE
  5
3
100
AcDbSymbolTable
 70
           1
  0
STYLE
  5
17
100
AcDbSymbolTableRecord
100
AcDbTextStyleTableRecord
  2
STANDARD
 70
           0
 40
0.0
 41
1.0
 50
0.0
 71
           0
 42
0.0
  3
txt
  4

  0
ENDTAB
  0
TABLE
  2
VIEW
  5
5
100
AcDbSymbolTable
 70
           0
  0
ENDTAB
  0
TABLE
  2
UCS
  5
6
100
AcDbSymbolTable
 70
           0
  0
ENDTAB
  0
TABLE
  2
APPID
  5
8
100
AcDbSymbolTable
 70
           1
  0
APPID
  5
16
100
AcDbSymbolTableRecord
100
AcDbRegAppTableRecord
  2
ACAD
 70
           0
  0
ENDTAB
  0
TABLE
  2
DIMSTYLE
  5
9
100
AcDbSymbolTable
 70
           1
  0
DIMSTYLE
105
18
100
AcDbSymbolTableRecord
100
AcDbDimStyleTableRecord
  2
STANDARD
 70
           0
  3

  4

  5

  6

  7

 40
1.0
 41
0.18
 42
0.0625
 43
0.38
 44
0.18
 45
0.0
 46
0.0
 47
0.0
 48
0.0
 71
           0
 72
           0
 73
           1
 74
           1
 75
           0
 76
           0
 77
           0
 78
           0
140
0.18
141
0.09
142
0.0
143
25.4
144
1.0
145
0.0
146
1.0
147
0.09
170
           0
171
           2
172
           0
173
           0
174
           0
175
           0
176
           0
177
           0
178
           0
270
           2
271
           4
272
           4
273
           2
274
           2
275
           0
280
           0
281
           0
282
           0
283
           1
284
           0
285
           0
286
           0
287
           0
288
           0
340
17
  0
ENDTAB
  0
TABLE
  2
BLOCK_RECORD
  5
1
100
AcDbSymbolTable
 70
           0
  0
BLOCK_RECORD
  5
A
100
AcDbSymbolTableRecord
100
AcDbBlockTableRecord
  2
*MODEL_SPACE
  0
BLOCK_RECORD
  5
B
100
AcDbSymbolTableRecord
100
AcDbBlockTableRecord
  2
*PAPER_SPACE
  0
ENDTAB
  0
ENDSEC
  0
SECTION
  2
BLOCKS
  0
BLOCK
  5
D
100
AcDbEntity
  8
0
100
AcDbBlockBegin
  2
*MODEL_SPACE
 70
           0
 10
0.0
 20
0.0
 30
0.0
  3
*MODEL_SPACE
  1

  0
ENDBLK
  5
E
100
AcDbEntity
  8
0
100
AcDbBlockEnd
  0
BLOCK
  5
F
100
AcDbEntity
 67
           1
  8
0
100
AcDbBlockBegin
  2
*PAPER_SPACE
 70
           0
 10
0.0
 20
0.0
 30
0.0
  3
*PAPER_SPACE
  1

  0
ENDBLK
  5
10
100
AcDbEntity
 67
           1
  8
0
100
AcDbBlockEnd
  0
ENDSEC
  0
SECTION
  2
ENTITIES
  0
HATCH
  5
369
100
AcDbEntity
  8
0
  6
CONTINUOUS
 62
           2
100
AcDbHatch
 10
0.0
 20
0.0
 30
0.0
210
0.0
220
0.0
230
1.0
  2
USER
 70
           0
 71
           1
 91
        1
 92
        1
 93
        8
 72
           1
 10
2682.0000000000041
 20
1239.750000000002
 11
2730.0000000000041
 21
1239.750000000002
 72
           2
 10
2682.0000000000041
 20
1256.750000000002
 40
17.0
 50
180.0
 51
-90.0
 73
           1
 72
           1
 10
2665.0000000000041
 20
1256.750000000002
 11
2665.0000000000041
 21
1270.000000000002
 72
           1
 10
2665.0000000000041
 20
1270.000000000002
 11
2645.0000000000041
 21
1270.000000000002
 72
           1
 10
2645.0000000000041
 20
1270.000000000002
 11
2645.0000000000041
 21
1256.750000000002
 72
           2
 10
2682.0000000000041
 20
1256.750000000002
 40
37.0
 50
180.0
 51
-90.0
 73
           1
 72
           1
 10
2682.0000000000041
 20
1219.750000000002
 11
2730.0000000000041
 21
1219.750000000002
 72
           1
 10
2730.0000000000041
 20
1219.750000000002
 11
2730.0000000000041
 21
1239.750000000002
 97
        7
330
3B
330
2E5
330
352
330
3C
330
2E6
330
3A
330
351
 75
           1
 76
           0
 52
45.0
 41
10.0
 77
           0
 78
           1
 53
45.0
 43
0.0
 44
0.0
 45
-7.0710678118654746
 46
7.0710678118654755
 79
           0
 98
        1
 10
0.0
 20
0.0
  0
ARC
  5
368
100
AcDbEntity
  8
1
  6
CONTINUOUS
 62
           4
100
AcDbCircle
 10
109.265668111721
 20
5314.450729926999
 40
10.0
100
AcDbArc
 50
90.0
 51
120.430594205724
  0
ARC
  5
367
100
AcDbEntity
  8
1
  6
CONTINUOUS
 62
           4
100
AcDbCircle
 10
109.265668111721
 20
5256.950729926999
 40
10.000000000002
100
AcDbArc
 50
-120.430594205724
 51
-90.0
  0
ARC
  5
366
100
AcDbEntity
  8
1
  6
CONTINUOUS
 62
           7
100
AcDbCircle
 10
123.94625844666
 20
5251.950729926999
 40
10.0
100
AcDbArc
 50
180.0
 51
-90.0
  0
ARC
  5
365
100
AcDbEntity
  8
1
  6
CONTINUOUS
 62
           7
100
AcDbCircle
 10
123.94625844666
 20
5319.450729926999
 40
10.0
100
AcDbArc
 50
90.0
 51
180.0
  0
ARC
  5
364
100
AcDbEntity
  8
1
  6
CONTINUOUS
 62
           7
100
AcDbCircle
 10
156.5
 20
5251.950729926999
 40
10.0
100
AcDbArc
 50
-90.0
 51
0.0
  0
ARC
  5
363
100
AcDbEntity
  8
1
  6
CONTINUOUS
 62
           7
100
AcDbCircle
 10
156.5
 20
5319.450729926999
 40
10.0
100
AcDbArc
 50
0.0
 51
90.0
  0
ARC
  5
362
100
AcDbEntity
  8
1
  6
CONTINUOUS
 62
           7
100
AcDbCircle
 10
156.499999999998
 20
2741.300000000002
 40
10.0
100
AcDbArc
 50
0.0
 51
90.0
  0
ARC
  5
361
100
AcDbEntity
  8
1
  6
CONTINUOUS
 62
           7
100
AcDbCircle
 10
156.499999999998
 20
2681.300000000003
 40
10.0
100
AcDbArc
 50
-90.0
 51
0.0
  0
ARC
  5
360
100
AcDbEntity
  8
1
  6
CONTINUOUS
 62
           7
100
AcDbCircle
 10
118.613663999999
 20
2741.300000000002
 40
10.0
100
AcDbArc
 50
90.0
 51
180.0
  0
ARC
  5
35F
100
AcDbEntity
  8
1
  6
CONTINUOUS
 62
           7
100
AcDbCircle
 10
118.613663999999
 20
2681.300000000003
 40
10.0
100
AcDbArc
 50
180.0
 51
-90.0
  0
ARC
  5
35E
100
AcDbEntity
  8
1
  6
CONTINUOUS
 62
           4
100
AcDbCircle
 10
4305.500000000006
 20
2556.000000000001
 40
1.0
100
AcDbArc
 50
180.0
 51
-90.0
  0
ARC
  5
35D
100
AcDbEntity
  8
1
  6
CONTINUOUS
 62
           4
100
AcDbCircle
 10
4294.500000000004
 20
2556.000000000001
 40
1.0
100
AcDbArc
 50
-90.0
 51
0.0
  0
ARC
  5
35C
100
AcDbEntity
  8
1
  6
CONTINUOUS
 62
           4
100
AcDbCircle
 10
4305.500000000006
 20
2160.000000000002
 40
1.0
100
AcDbArc
 50
90.0
 51
180.0
  0
ARC
  5
35B
100
AcDbEntity
  8
1
  6
CONTINUOUS
 62
           4
100
AcDbCircle
 10
4294.500000000004
 20
2160.000000000002
 40
1.0
100
AcDbArc
 50
0.0
 51
90.0
  0
ARC
  5
35A
100
AcDbEntity
  8
1
  6
CONTINUOUS
 62
           7
100
AcDbCircle
 10
3893.750000000004
 20
2680.0
 40
10.0
100
AcDbArc
 50
-90.0
 51
0.0
  0
ARC
  5
359
100
AcDbEntity
  8
1
  6
CONTINUOUS
 62
           7
100
AcDbCircle
 10
3826.250000000004
 20
2680.0
 40
10.0
100
AcDbArc
 50
180.0
 51
-90.0
  0
ARC
  5
358
100
AcDbEntity
  8
1
  6
CONTINUOUS
 62
           7
100
AcDbCircle
 10
3893.750000000004
 20
2740.0
 40
10.0
100
AcDbArc
 50
0.0
 51
90.0
  0
ARC
  5
357
100
AcDbEntity
  8
1
  6
CONTINUOUS
 62
           7
100
AcDbCircle
 10
3826.250000000004
 20
2740.0
 40
10.0
100
AcDbArc
 50
90.0
 51
180.0
  0
ARC
  5
356
100
AcDbEntity
  8
1
  6
CONTINUOUS
 62
           3
100
AcDbCircle
 10
3648.163567691041
 20
1917.80625341996
 40
0.5
100
AcDbArc
 50
180.0
 51
-90.0
  0
ARC
  5
355
100
AcDbEntity
  8
1
  6
CONTINUOUS
 62
           3
100
AcDbCircle
 10
3648.163567691041
 20
1932.19374658004
 40
0.5
100
AcDbArc
 50
90.0
 51
180.0
  0
ARC
  5
354
100
AcDbEntity
  8
1
  6
CONTINUOUS
 62
           3
100
AcDbCircle
 10
3499.899998122328
 20
1641.000000000001
 40
280.0
100
AcDbArc
 50
90.0
 51
180.0
  0
ARC
  5
353
100
AcDbEntity
  8
1
  6
CONTINUOUS
 62
           3
100
AcDbCircle
 10
3499.899996810933
 20
1641.0
 40
288.0
100
AcDbArc
 50
90.0
 51
180.0
  0
LWPOLYLINE
  5
352
100
AcDbEntity
  8
1
  6
CONTINUOUS
 62
           7
 60
           1
100
AcDbPolyline
 90
        3
 70
           0
 10
2665.000000000004
 20
1256.750000000002
 10
2665.000000000004
 20
1270.000000000002
 10
2645.000000000004
 20
1270.000000000002
  0
LWPOLYLINE
  5
351
100
AcDbEntity
  8
1
  6
CONTINUOUS
 62
           7
 60
           1
100
AcDbPolyline
 90
        2
 70
           0
 10
2730.000000000004
 20
1219.750000000002
 10
2730.000000000004
 20
1239.750000000002
  0
SPLINE
  5
350
100
AcDbEntity
  8
0
  6
CONTINUOUS
 62
           3
100
AcDbSpline
210
0.0
220
0.0
230
1.0
 70
           0
 71
           3
 72
           8
 73
           5
 74
           7
 42
0.00000000001
 43
0.00000000001
 44
0.00000000001
 40
0.0
 40
0.0
 40
0.0
 40
0.2989651950314283
 40
0.4296296276529574
 40
0.4465803504019732
 40
0.4465803504019732
 40
0.4465803504019732
 10
3170.8999966098668
 20
1384.6465796233019
 30
0.0
 10
3170.8999966099132
 20
1384.4669365634261
 30
0.0
 10
3170.8999966099132
 20
1384.2282922931149
 30
0.0
 10
3170.8999966099132
 20
1384.205607698183
 30
0.0
 10
3170.8999966099132
 20
1384.1999992729
 30
0.0
 11
3170.8999966098668
 21
1384.6465796233019
 31
0.0
 11
3170.8999966099018
 21
1384.4703311443234
 31
0.0
 11
3170.8999966099132
 21
1384.3008718271403
 31
0.0
 11
3170.8999966099132
 21
1384.2414172487579
 31
0.0
 11
3170.8999966099132
 21
1384.2082125816614
 31
0.0
 11
3170.8999966099132
 21
1384.2048568127318
 31
0.0
 11
3170.8999966099132
 21
1384.1999992729
 31
0.0
  0
SPLINE
  5
34F
100
AcDbEntity
  8
0
  6
CONTINUOUS
 62
           3
100
AcDbSpline
210
0.0
220
0.0
230
1.0
 70
           0
 71
           3
 72
           8
 73
           5
 74
           7
 42
0.00000000001
 43
0.00000000001
 44
0.00000000001
 40
0.0
 40
0.0
 40
0.0
 40
0.0169507227490158
 40
0.1476151553705449
 40
0.4465803504019732
 40
0.4465803504019732
 40
0.4465803504019732
 10
3160.8999968334392
 20
1384.1999992729
 30
0.0
 10
3160.8999968334392
 20
1384.205607698183
 30
0.0
 10
3160.8999968334392
 20
1384.2282922931149
 30
0.0
 10
3160.8999968334392
 20
1384.4669365634261
 30
0.0
 10
3160.8999968334761
 20
1384.6465796233019
 30
0.0
 11
3160.8999968334392
 21
1384.1999992729
 31
0.0
 11
3160.8999968334392
 21
1384.2048568127318
 31
0.0
 11
3160.8999968334392
 21
1384.2082125816612
 31
0.0
 11
3160.8999968334392
 21
1384.2414172487579
 31
0.0
 11
3160.8999968334392
 21
1384.3008718271403
 31
0.0
 11
3160.8999968334483
 21
1384.4703311443236
 31
0.0
 11
3160.8999968334761
 21
1384.6465796233019
 31
0.0
  0
SPLINE
  5
34E
100
AcDbEntity
  8
0
  6
CONTINUOUS
 62
           3
100
AcDbSpline
210
0.0
220
0.0
230
1.0
 70
           0
 71
           3
 72
           8
 73
           5
 74
           7
 42
0.00000000001
 43
0.00000000001
 44
0.00000000001
 40
0.0
 40
0.0
 40
0.0
 40
0.4813883392789984
 40
1.3325653926389922
 40
2.5594910488265357
 40
2.5594910488265357
 40
2.5594910488265357
 10
3168.399996665768
 20
1384.1999992729
 30
0.0
 10
3168.4592614719459
 20
1384.2004449713099
 30
0.0
 10
3169.3034813132931
 20
1384.2067938900659
 30
0.0
 10
3170.1307773327831
 20
1384.4346858415561
 30
0.0
 10
3170.8999966098668
 20
1384.6465796233019
 30
0.0
 11
3168.399996665768
 21
1384.1999992729
 31
0.0
 11
3168.5206887308836
 21
1384.2009069323501
 31
0.0
 11
3168.7642353138731
 21
1384.2027385138806
 31
0.0
 11
3169.2533835507447
 21
1384.2291158030616
 31
0.0
 11
3169.6423362625173
 21
1384.3001369182343
 31
0.0
 11
3170.2009718844879
 21
1384.4540220561621
 31
0.0
 11
3170.8999966098668
 21
1384.6465796233019
 31
0.0
  0
SPLINE
  5
34D
100
AcDbEntity
  8
0
  6
CONTINUOUS
 62
           3
100
AcDbSpline
210
0.0
220
0.0
230
1.0
 70
           0
 71
           3
 72
           8
 73
           5
 74
           7
 42
0.00000000001
 43
0.00000000001
 44
0.00000000001
 40
0.0
 40
0.0
 40
0.0
 40
0.4813884775015296
 40
1.3325655942391104
 40
2.5594910572497307
 40
2.5594910572497307
 40
2.5594910572497307
 10
3163.399996777558
 20
1384.1999992729
 30
0.0
 10
3163.4592615843899
 20
1384.200444971553
 30
0.0
 10
3164.303481700837
 20
1384.206793895828
 30
0.0
 10
3165.130777567962
 20
1384.4346858417271
 30
0.0
 10
3165.8999967216751
 20
1384.6465796232951
 30
0.0
 11
3163.399996777558
 21
1384.1999992729
 31
0.0
 11
3163.5206888783659
 21
1384.2009069331089
 31
0.0
 11
3163.7642355671264
 21
1384.202738516429
 31
0.0
 11
3164.2533839007124
 21
1384.229115810643
 31
0.0
 11
3164.6423366340491
 21
1384.3001369344865
 31
0.0
 11
3165.2009721229124
 21
1384.4540220603089
 31
0.0
 11
3165.8999967216751
 21
1384.6465796232951
 31
0.0
  0
SPLINE
  5
34C
100
AcDbEntity
  8
0
  6
CONTINUOUS
 62
           3
100
AcDbSpline
210
0.0
220
0.0
230
1.0
 70
           0
 71
           3
 72
           8
 73
           5
 74
           7
 42
0.00000000001
 43
0.00000000001
 44
0.00000000001
 40
0.0
 40
0.0
 40
0.0
 40
0.2779454797525598
 40
0.7862825386947563
 40
1.542963890726553
 40
1.542963890726553
 40
1.542963890726553
 10
3161.5698696873419
 20
1367.5999939442561
 30
0.0
 10
3161.6040862319219
 20
1367.6004396365131
 30
0.0
 10
3162.0914969500368
 20
1367.606788471174
 30
0.0
 10
3162.5691364171912
 20
1367.834684325677
 30
0.0
 10
3163.0132452878438
 20
1368.046581745235
 30
0.0
 11
3161.5698696873419
 21
1367.5999939442561
 31
0.0
 11
3161.6386061814956
 21
1367.6008892808163
 31
0.0
 11
3161.7763825747961
 21
1367.6026839059823
 31
0.0
 11
3162.0607022116124
 21
1367.6286568402284
 31
0.0
 11
3162.2834323715779
 21
1367.6983665125829
 31
0.0
 11
3162.6087376234509
 21
1367.853579227293
 31
0.0
 11
3163.0132452878438
 21
1368.046581745235
 31
0.0
  0
SPLINE
  5
34B
100
AcDbEntity
  8
0
  6
CONTINUOUS
 62
           3
100
AcDbSpline
210
0.0
220
0.0
230
1.0
 70
           0
 71
           3
 72
           8
 73
           5
 74
           7
 42
0.00000000001
 43
0.00000000001
 44
0.00000000001
 40
0.0
 40
0.0
 40
0.0
 40
0.2779464854274467
 40
0.7862840843637106
 40
1.5429642658504847
 40
1.5429642658504847
 40
1.5429642658504847
 10
3161.5698696873419
 20
1372.6000040770409
 30
0.0
 10
3161.5356531379839
 20
1372.5995583816691
 30
0.0
 10
3161.048240418892
 20
1372.59320947744
 30
0.0
 10
3160.5706019393492
 20
1372.365313693474
 30
0.0
 10
3160.1264938539748
 20
1372.1534162761091
 30
0.0
 11
3161.5698696873419
 21
1372.6000040770409
 31
0.0
 11
3161.5011329415938
 21
1372.5991087310695
 31
0.0
 11
3161.363355803066
 21
1372.5973140838996
 31
0.0
 11
3161.0790354338765
 21
1372.5713410900569
 31
0.0
 11
3160.8563050946559
 21
1372.5016313214473
 31
0.0
 11
3160.5310007068324
 21
1372.3464187461261
 31
0.0
 11
3160.1264938539748
 21
1372.1534162761091
 31
0.0
  0
SPLINE
  5
34A
100
AcDbEntity
  8
0
  6
CONTINUOUS
 62
           3
100
AcDbSpline
210
0.0
220
0.0
230
1.0
 70
           0
 71
           3
 72
           8
 73
           5
 74
           7
 42
0.00000000001
 43
0.00000000001
 44
0.00000000001
 40
0.0
 40
0.0
 40
0.0
 40
0.277946485425947
 40
0.7862840843607435
 40
1.5429642658924831
 40
1.5429642658924831
 40
1.5429642658924831
 10
3170.23012375601
 20
1367.5999939442561
 30
0.0
 10
3170.264340305368
 20
1367.6004396396349
 30
0.0
 10
3170.7517530244568
 20
1367.606788543864
 30
0.0
 10
3171.2293915040032
 20
1367.834684327823
 30
0.0
 10
3171.673499589368
 20
1368.0465817453121
 30
0.0
 11
3170.23012375601
 21
1367.5999939442561
 31
0.0
 11
3170.2988605017581
 21
1367.6008892902328
 31
0.0
 11
3170.436637640285
 21
1367.6026839374044
 31
0.0
 11
3170.7209580094709
 21
1367.6286569312458
 31
0.0
 11
3170.9436883486878
 21
1367.6983666998503
 31
0.0
 11
3171.2689927365154
 21
1367.853579275202
 31
0.0
 11
3171.673499589368
 21
1368.0465817453121
 31
0.0
  0
SPLINE
  5
349
100
AcDbEntity
  8
0
  6
CONTINUOUS
 62
           3
100
AcDbSpline
210
0.0
220
0.0
230
1.0
 70
           0
 71
           3
 72
           8
 73
           5
 74
           7
 42
0.00000000001
 43
0.00000000001
 44
0.00000000001
 40
0.0
 40
0.0
 40
0.0
 40
0.2779454797525331
 40
0.7862825386968155
 40
1.5429638907282623
 40
1.5429638907282623
 40
1.5429638907282623
 10
3170.23012375601
 20
1372.6000040770409
 30
0.0
 10
3170.19590721143
 20
1372.5995583847839
 30
0.0
 10
3169.7084964933151
 20
1372.5932095501271
 30
0.0
 10
3169.230857026158
 20
1372.36531369562
 30
0.0
 10
3168.7867481555081
 20
1372.153416276062
 30
0.0
 11
3170.23012375601
 21
1372.6000040770409
 31
0.0
 11
3170.1613872618564
 21
1372.5991087404811
 31
0.0
 11
3170.0236108685567
 21
1372.5973141153163
 31
0.0
 11
3169.7392912317396
 21
1372.5713411810718
 31
0.0
 11
3169.5165610717722
 21
1372.5016315087164
 31
0.0
 11
3169.1912558198997
 21
1372.3464187940049
 31
0.0
 11
3168.7867481555081
 21
1372.153416276062
 31
0.0
  0
SPLINE
  5
348
100
AcDbEntity
  8
0
  6
CONTINUOUS
 62
           3
100
AcDbSpline
210
0.0
220
0.0
230
1.0
 70
           0
 71
           3
 72
           8
 73
           5
 74
           7
 42
0.00000000001
 43
0.00000000001
 44
0.00000000001
 40
0.0
 40
0.0
 40
0.0
 40
0.7097107189163608
 40
1.6878556121225361
 40
2.9354150974121289
 40
2.9354150974121289
 40
2.9354150974121289
 10
3163.0132452878438
 20
1368.046581745235
 30
0.0
 10
3163.2266018694968
 20
1367.986940602696
 30
0.0
 10
3164.1669045504659
 20
1367.7240908429519
 30
0.0
 10
3165.1443418916879
 20
1367.654102099867
 30
0.0
 10
3165.8999967216751
 20
1367.5999939442561
 30
0.0
 11
3163.0132452878438
 21
1368.046581745235
 31
0.0
 11
3163.2721075078016
 21
1367.9742200752128
 31
0.0
 11
3163.6219810043685
 21
1367.8764173502241
 31
0.0
 11
3164.1380638628584
 21
1367.754482866841
 31
0.0
 11
3164.5964653461324
 21
1367.6933324312367
 31
0.0
 11
3165.1962864627958
 21
1367.6503826438068
 31
0.0
 11
3165.8999967216751
 21
1367.5999939442561
 31
0.0
  0
SPLINE
  5
347
100
AcDbEntity
  8
0
  6
CONTINUOUS
 62
           3
100
AcDbSpline
210
0.0
220
0.0
230
1.0
 70
           0
 71
           3
 72
           8
 73
           5
 74
           7
 42
0.00000000001
 43
0.00000000001
 44
0.00000000001
 40
0.0
 40
0.0
 40
0.0
 40
0.727368139492963
 40
1.7065914567911151
 40
2.9387223240351532
 40
2.9387223240351532
 40
2.9387223240351532
 10
3165.8999967216751
 20
1367.5999939442561
 30
0.0
 10
3166.1387195010361
 20
1367.6054734833269
 30
0.0
 10
3167.1156271469831
 20
1367.6278969974519
 30
0.0
 10
3168.067488856248
 20
1367.8663776207211
 30
0.0
 10
3168.786748155369
 20
1368.0465817453121
 30
0.0
 11
3165.8999967216751
 21
1367.5999939442561
 31
0.0
 11
3166.1831310149755
 21
1367.6064928859432
 31
0.0
 11
3166.5550883361557
 21
1367.6150306328632
 31
0.0
 11
3167.0808673755141
 21
1367.6510811733845
 31
0.0
 11
3167.5371268719346
 21
1367.7335000657713
 31
0.0
 11
3168.1147131849498
 21
1367.8782092631316
 31
0.0
 11
3168.786748155369
 21
1368.0465817453121
 31
0.0
  0
SPLINE
  5
346
100
AcDbEntity
  8
0
  6
CONTINUOUS
 62
           3
100
AcDbSpline
210
0.0
220
0.0
230
1.0
 70
           0
 71
           3
 72
           8
 73
           5
 74
           7
 42
0.00000000001
 43
0.00000000001
 44
0.00000000001
 40
0.0
 40
0.0
 40
0.0
 40
1.2321308673611429
 40
2.2113541846593336
 40
2.9387223241522524
 40
2.9387223241522524
 40
2.9387223241522524
 10
3168.7867481555081
 20
1372.153416276062
 30
0.0
 10
3168.067488856248
 20
1372.3336204005791
 30
0.0
 10
3167.1156271469831
 20
1372.572101023849
 30
0.0
 10
3166.1387195010361
 20
1372.5945245379701
 30
0.0
 10
3165.8999967216751
 20
1372.6000040770409
 30
0.0
 11
3168.7867481555081
 21
1372.153416276062
 31
0.0
 11
3168.1147131849793
 21
1372.3217887581886
 31
0.0
 11
3167.5371268719123
 21
1372.4664979555346
 31
0.0
 11
3167.0808673755091
 21
1372.5489168479171
 31
0.0
 11
3166.5550883361557
 21
1372.5849673884354
 31
0.0
 11
3166.183131014976
 21
1372.593505135354
 31
0.0
 11
3165.8999967216751
 21
1372.6000040770409
 31
0.0
  0
SPLINE
  5
345
100
AcDbEntity
  8
0
  6
CONTINUOUS
 62
           3
100
AcDbSpline
210
0.0
220
0.0
230
1.0
 70
           0
 71
           3
 72
           8
 73
           5
 74
           7
 42
0.00000000001
 43
0.00000000001
 44
0.00000000001
 40
0.0
 40
0.0
 40
0.0
 40
1.2475616964938057
 40
2.2257084622399863
 40
2.9354211178800509
 40
2.9354211178800509
 40
2.9354211178800509
 10
3165.8999967216751
 20
1372.6000040770409
 30
0.0
 10
3165.1443400642511
 20
1372.5459088094719
 30
0.0
 10
3164.1668989125851
 20
1372.475936633469
 30
0.0
 10
3163.2266017037659
 20
1372.2130631111611
 30
0.0
 10
3163.0132452878438
 20
1372.153416276062
 30
0.0
 11
3165.8999967216751
 21
1372.6000040770409
 31
0.0
 11
3165.1962845668027
 21
1372.5496273656929
 31
0.0
 11
3164.5964614170325
 21
1372.5066877667871
 31
0.0
 11
3164.1380594916341
 21
1372.445539360308
 31
0.0
 11
3163.6219787243317
 21
1372.3235964075072
 31
0.0
 11
3163.2721068549267
 21
1372.2257847264727
 31
0.0
 11
3163.0132452878438
 21
1372.153416276062
 31
0.0
  0
SPLINE
  5
344
100
AcDbEntity
  8
0
  6
CONTINUOUS
 62
           3
100
AcDbSpline
210
0.0
220
0.0
230
1.0
 70
           0
 71
           3
 72
           8
 73
           5
 74
           7
 42
0.00000000001
 43
0.00000000001
 44
0.00000000001
 40
0.0
 40
0.0
 40
0.0
 40
0.2779452695568832
 40
0.7862805426591408
 40
1.5429573555012195
 40
1.5429573555012195
 40
1.5429573555012195
 10
3161.5698696873419
 20
1372.6000040770409
 30
0.0
 10
3161.6040862308728
 20
1372.6004497818101
 30
0.0
 10
3162.0914965280808
 20
1372.6067987893659
 30
0.0
 10
3162.5691362283619
 20
1372.834686833085
 30
0.0
 10
3163.0132452878438
 20
1373.04657697686
 30
0.0
 11
3161.5698696873419
 21
1372.6000040770409
 31
0.0
 11
3161.6386062202832
 21
1372.6008994392644
 31
0.0
 11
3161.7763827320478
 21
1372.6026941163966
 31
0.0
 11
3162.0607020292232
 21
1372.628666380841
 31
0.0
 11
3162.2834323286825
 21
1372.6983738282354
 31
0.0
 11
3162.6087375183129
 21
1372.8535811178162
 31
0.0
 11
3163.0132452878438
 21
1373.04657697686
 31
0.0
  0
SPLINE
  5
343
100
AcDbEntity
  8
0
  6
CONTINUOUS
 62
           3
100
AcDbSpline
210
0.0
220
0.0
230
1.0
 70
           0
 71
           3
 72
           8
 73
           5
 74
           7
 42
0.00000000001
 43
0.00000000001
 44
0.00000000001
 40
0.0
 40
0.0
 40
0.0
 40
0.2779463803282737
 40
0.7862830863351852
 40
1.5429609982549422
 40
1.5429609982549422
 40
1.5429609982549422
 10
3161.5698696873419
 20
1377.5999993086659
 30
0.0
 10
3161.5356531385082
 20
1377.599553607037
 30
0.0
 10
3161.0482406298729
 20
1377.593204616358
 30
0.0
 10
3160.5706020337661
 20
1377.3653127377879
 30
0.0
 10
3160.1264938539748
 20
1377.1534189582051
 30
0.0
 11
3161.5698696873419
 21
1377.5999993086659
 31
0.0
 11
3161.5011329221998
 21
1377.599103949862
 31
0.0
 11
3161.3633557244393
 21
1377.5973092767078
 31
0.0
 11
3161.0790355250738
 21
1377.5713366177663
 31
0.0
 11
3160.8563051161118
 21
1377.5016279616407
 31
0.0
 11
3160.5310007594044
 21
1377.3464180988553
 31
0.0
 11
3160.1264938539748
 21
1377.1534189582051
 31
0.0
  0
SPLINE
  5
342
100
AcDbEntity
  8
0
  6
CONTINUOUS
 62
           3
100
AcDbSpline
210
0.0
220
0.0
230
1.0
 70
           0
 71
           3
 72
           8
 73
           5
 74
           7
 42
0.00000000001
 43
0.00000000001
 44
0.00000000001
 40
0.0
 40
0.0
 40
0.0
 40
0.2779462752325085
 40
0.7862820883230828
 40
1.542957730647845
 40
1.542957730647845
 40
1.542957730647845
 10
3170.23012375601
 20
1372.6000040770409
 30
0.0
 10
3170.2643403043221
 20
1372.6004497849281
 30
0.0
 10
3170.7517526025022
 20
1372.606798862053
 30
0.0
 10
3171.2293913151698
 20
1372.8346868352351
 30
0.0
 10
3171.673499589368
 20
1373.046576976911
 30
0.0
 11
3170.23012375601
 21
1372.6000040770409
 31
0.0
 11
3170.298860540549
 21
1372.6008994486781
 31
0.0
 11
3170.4366377975416
 21
1372.6026941478156
 31
0.0
 11
3170.7209578270854
 21
1372.6286664718552
 31
0.0
 11
3170.9436883057942
 21
1372.6983740154992
 31
0.0
 11
3171.2689926313751
 21
1372.8535811657198
 31
0.0
 11
3171.673499589368
 21
1373.046576976911
 31
0.0
  0
SPLINE
  5
341
100
AcDbEntity
  8
0
  6
CONTINUOUS
 62
           3
100
AcDbSpline
210
0.0
220
0.0
230
1.0
 70
           0
 71
           3
 72
           8
 73
           5
 74
           7
 42
0.00000000001
 43
0.00000000001
 44
0.00000000001
 40
0.0
 40
0.0
 40
0.0
 40
0.2779453746551804
 40
0.786281540670457
 40
1.5429606230909243
 40
1.5429606230909243
 40
1.5429606230909243
 10
3170.23012375601
 20
1377.5999993086659
 30
0.0
 10
3170.1959072119548
 20
1377.5995536101509
 30
0.0
 10
3169.708496704292
 20
1377.593204689045
 30
0.0
 10
3169.2308571205758
 20
1377.365312739938
 30
0.0
 10
3168.7867481555081
 20
1377.1534189582669
 30
0.0
 11
3170.23012375601
 21
1377.5999993086659
 31
0.0
 11
3170.1613872424618
 21
1377.599103959273
 31
0.0
 11
3170.0236107899282
 21
1377.5973093081241
 31
0.0
 11
3169.7392913229328
 21
1377.5713367087801
 31
0.0
 11
3169.5165610932204
 21
1377.5016281489061
 31
0.0
 11
3169.1912558724698
 21
1377.3464181467623
 31
0.0
 11
3168.7867481555081
 21
1377.1534189582669
 31
0.0
  0
SPLINE
  5
340
100
AcDbEntity
  8
0
  6
CONTINUOUS
 62
           3
100
AcDbSpline
210
0.0
220
0.0
230
1.0
 70
           0
 71
           3
 72
           8
 73
           5
 74
           7
 42
0.00000000001
 43
0.00000000001
 44
0.00000000001
 40
0.0
 40
0.0
 40
0.0
 40
0.7097104926829335
 40
1.6878550560209435
 40
2.9354142011754254
 40
2.9354142011754254
 40
2.9354142011754254
 10
3163.0132452878438
 20
1373.04657697686
 30
0.0
 10
3163.2266018489572
 20
1372.9869356693489
 30
0.0
 10
3164.166903851652
 20
1372.7240853468579
 30
0.0
 10
3165.1443416651759
 20
1372.654105412621
 30
0.0
 10
3165.8999967216751
 20
1372.6000040770409
 30
0.0
 11
3163.0132452878438
 21
1373.04657697686
 31
0.0
 11
3163.2721074221545
 21
1372.9742151236571
 31
0.0
 11
3163.6219807028601
 21
1372.8764121790696
 31
0.0
 11
3164.1380633113736
 21
1372.7544784200809
 31
0.0
 11
3164.5964648393301
 21
1372.6933308075384
 31
0.0
 11
3165.1962862228393
 21
1372.6503864274553
 31
0.0
 11
3165.8999967216751
 21
1372.6000040770409
 31
0.0
  0
SPLINE
  5
33F
100
AcDbEntity
  8
0
  6
CONTINUOUS
 62
           3
100
AcDbSpline
210
0.0
220
0.0
230
1.0
 70
           0
 71
           3
 72
           8
 73
           5
 74
           7
 42
0.00000000001
 43
0.00000000001
 44
0.00000000001
 40
0.0
 40
0.0
 40
0.0
 40
0.7273675739577689
 40
1.7065896374657425
 40
2.9387184666067916
 40
2.9387184666067916
 40
2.9387184666067916
 10
3165.8999967216751
 20
1372.6000040770409
 30
0.0
 10
3166.1387194651538
 20
1372.605483801264
 30
0.0
 10
3167.1156260261
 20
1372.6279080515201
 30
0.0
 10
3168.0674885010521
 20
1372.866379694286
 30
0.0
 10
3168.786748155369
 20
1373.046576976911
 30
0.0
 11
3165.8999967216751
 21
1372.6000040770409
 31
0.0
 11
3166.1831309024901
 21
1372.6065032367185
 31
0.0
 11
3166.5550879579769
 21
1372.6150412673051
 31
0.0
 11
3167.0808665470149
 21
1372.651091133866
 31
0.0
 11
3167.5371261778837
 21
1372.7335071651178
 31
0.0
 11
3168.1147128338389
 21
1372.8782108826499
 31
0.0
 11
3168.786748155369
 21
1373.046576976911
 31
0.0
  0
SPLINE
  5
33E
100
AcDbEntity
  8
0
  6
CONTINUOUS
 62
           3
100
AcDbSpline
210
0.0
220
0.0
230
1.0
 70
           0
 71
           3
 72
           8
 73
           5
 74
           7
 42
0.00000000001
 43
0.00000000001
 44
0.00000000001
 40
0.0
 40
0.0
 40
0.0
 40
1.2321298483036798
 40
2.2113525387001283
 40
2.9387203954235201
 40
2.9387203954235201
 40
2.9387203954235201
 10
3168.7867481555081
 20
1377.1534189582669
 30
0.0
 10
3168.0674886786469
 20
1377.333619661815
 30
0.0
 10
3167.1156265865379
 20
1377.5720957948331
 30
0.0
 10
3166.138719483095
 20
1377.5945196770231
 30
0.0
 10
3165.8999967216751
 20
1377.5999993086659
 30
0.0
 11
3168.7867481555081
 21
1377.1534189582669
 31
0.0
 11
3168.1147130094214
 21
1377.3217882464442
 31
0.0
 11
3167.5371265248828
 21
1377.4664947038796
 31
0.0
 11
3167.0808669612557
 21
1377.5489121656951
 31
0.0
 11
3166.5550881470654
 21
1377.5849623692343
 31
0.0
 11
3166.1831309587324
 21
1377.5935002579865
 31
0.0
 11
3165.8999967216751
 21
1377.5999993086659
 31
0.0
  0
SPLINE
  5
33D
100
AcDbEntity
  8
0
  6
CONTINUOUS
 62
           3
100
AcDbSpline
210
0.0
220
0.0
230
1.0
 70
           0
 71
           3
 72
           8
 73
           5
 74
           7
 42
0.00000000001
 43
0.00000000001
 44
0.00000000001
 40
0.0
 40
0.0
 40
0.0
 40
1.2475604207816262
 40
2.2257060852935431
 40
2.9354176594310468
 40
2.9354176594310468
 40
2.9354176594310468
 10
3165.8999967216751
 20
1377.5999993086659
 30
0.0
 10
3165.1443408647278
 20
1377.5459010071061
 30
0.0
 10
3164.1669013821652
 20
1377.4759249520071
 30
0.0
 10
3163.2266017763632
 20
1377.2130630295719
 30
0.0
 10
3163.0132452878438
 20
1377.1534189582669
 30
0.0
 11
3165.8999967216751
 21
1377.5999993086659
 31
0.0
 11
3165.1962853948367
 21
1377.5496197777986
 31
0.0
 11
3164.5964631282145
 21
1377.5066777883167
 31
0.0
 11
3164.1380614015407
 21
1377.4455297788072
 31
0.0
 11
3163.6219797136164
 21
1377.3235914228985
 31
0.0
 11
3163.2721071385467
 21
1377.2257841100775
 31
0.0
 11
3163.0132452878438
 21
1377.1534189582669
 31
0.0
  0
SPLINE
  5
33C
100
AcDbEntity
  8
0
  6
CONTINUOUS
 62
           3
100
AcDbSpline
210
0.0
220
0.0
230
1.0
 70
           0
 71
           3
 72
           8
 73
           5
 74
           7
 42
0.00000000001
 43
0.00000000001
 44
0.00000000001
 40
0.0
 40
0.0
 40
0.0
 40
0.2779454797525494
 40
0.7862825386955531
 40
1.5429638907264198
 40
1.5429638907264198
 40
1.5429638907264198
 10
3161.5698696873419
 20
1359.9999994040479
 30
0.0
 10
3161.6040862319219
 20
1360.0004450963061
 30
0.0
 10
3162.0914969500368
 20
1360.0067939309631
 30
0.0
 10
3162.5691364171912
 20
1360.23468978547
 30
0.0
 10
3163.0132452878438
 20
1360.4465872050239
 30
0.0
 11
3161.5698696873419
 21
1359.9999994040479
 31
0.0
 11
3161.6386061814956
 21
1360.0008947406084
 31
0.0
 11
3161.7763825747961
 21
1360.0026893657739
 31
0.0
 11
3162.0607022116119
 21
1360.0286623000186
 31
0.0
 11
3162.2834323715788
 21
1360.0983719723736
 31
0.0
 11
3162.6087376234509
 21
1360.2535846870842
 31
0.0
 11
3163.0132452878438
 21
1360.4465872050239
 31
0.0
  0
SPLINE
  5
33B
100
AcDbEntity
  8
0
  6
CONTINUOUS
 62
           3
100
AcDbSpline
210
0.0
220
0.0
230
1.0
 70
           0
 71
           3
 72
           8
 73
           5
 74
           7
 42
0.00000000001
 43
0.00000000001
 44
0.00000000001
 40
0.0
 40
0.0
 40
0.0
 40
0.2779462752322456
 40
0.7862820883221331
 40
1.5429577306078226
 40
1.5429577306078226
 40
1.5429577306078226
 10
3161.5698696873419
 20
1364.9999946356729
 30
0.0
 10
3161.5356531390298
 20
1364.9995489277901
 30
0.0
 10
3161.0482408408502
 20
1364.993199850662
 30
0.0
 10
3160.5706021281821
 20
1364.7653118774831
 30
0.0
 10
3160.1264938539748
 20
1364.5534217359159
 30
0.0
 11
3161.5698696873419
 21
1364.9999946356729
 31
0.0
 11
3161.501132902803
 21
1364.9990992640387
 31
0.0
 11
3161.3633556458103
 21
1364.9973045649017
 31
0.0
 11
3161.0790356162656
 21
1364.9713322408597
 31
0.0
 11
3160.8563051375522
 21
1364.9016246972142
 31
0.0
 11
3160.5310008119727
 21
1364.7464175470241
 31
0.0
 11
3160.1264938539748
 21
1364.5534217359159
 31
0.0
  0
SPLINE
  5
33A
100
AcDbEntity
  8
0
  6
CONTINUOUS
 62
           3
100
AcDbSpline
210
0.0
220
0.0
230
1.0
 70
           0
 71
           3
 72
           8
 73
           5
 74
           7
 42
0.00000000001
 43
0.00000000001
 44
0.00000000001
 40
0.0
 40
0.0
 40
0.0
 40
0.2779464854693971
 40
0.7862840844050258
 40
1.5429642659448433
 40
1.5429642659448433
 40
1.5429642659448433
 10
3170.2301237559682
 20
1359.999999403921
 30
0.0
 10
3170.264340305368
 20
1360.000445099424
 30
0.0
 10
3170.7517530244568
 20
1360.0067940036531
 30
0.0
 10
3171.2293915040032
 20
1360.2346897876159
 30
0.0
 10
3171.673499589368
 20
1360.4465872051219
 30
0.0
 11
3170.2301237559682
 21
1359.999999403921
 31
0.0
 11
3170.2988605017513
 21
1360.0008947499907
 31
0.0
 11
3170.4366376403013
 21
1360.0026893971938
 31
0.0
 11
3170.7209580094759
 21
1360.0286623910351
 31
0.0
 11
3170.9436883486865
 21
1360.0983721596406
 31
0.0
 11
3171.2689927365154
 21
1360.2535847349986
 31
0.0
 11
3171.673499589368
 21
1360.4465872051219
 31
0.0
  0
SPLINE
  5
339
100
AcDbEntity
  8
0
  6
CONTINUOUS
 62
           3
100
AcDbSpline
210
0.0
220
0.0
230
1.0
 70
           0
 71
           3
 72
           8
 73
           5
 74
           7
 42
0.00000000001
 43
0.00000000001
 44
0.00000000001
 40
0.0
 40
0.0
 40
0.0
 40
0.2779452695579918
 40
0.7862805426594981
 40
1.5429573555011664
 40
1.5429573555011664
 40
1.5429573555011664
 10
3170.23012375601
 20
1364.9999946356729
 30
0.0
 10
3170.1959072124769
 20
1364.999548930904
 30
0.0
 10
3169.7084969152711
 20
1364.993199923352
 30
0.0
 10
3169.2308572149891
 20
1364.7653118796329
 30
0.0
 10
3168.7867481555081
 20
1364.5534217358579
 30
0.0
 11
3170.23012375601
 21
1364.9999946356729
 31
0.0
 11
3170.161387223066
 21
1364.9990992734497
 31
0.0
 11
3170.0236107113014
 21
1364.9973045963188
 31
0.0
 11
3169.7392914141287
 21
1364.9713323318765
 31
0.0
 11
3169.5165611146685
 21
1364.9016248844825
 31
0.0
 11
3169.1912559250386
 21
1364.7464175949015
 31
0.0
 11
3168.7867481555081
 21
1364.5534217358579
 31
0.0
  0
SPLINE
  5
338
100
AcDbEntity
  8
0
  6
CONTINUOUS
 62
           3
100
AcDbSpline
210
0.0
220
0.0
230
1.0
 70
           0
 71
           3
 72
           8
 73
           5
 74
           7
 42
0.00000000001
 43
0.00000000001
 44
0.00000000001
 40
0.0
 40
0.0
 40
0.0
 40
0.7097126556392074
 40
1.6878594213853964
 40
2.9354211178792098
 40
2.9354211178792098
 40
2.9354211178792098
 10
3163.0132452878438
 20
1360.4465872050239
 30
0.0
 10
3163.2266017037659
 20
1360.386940369928
 30
0.0
 10
3164.1668989125851
 20
1360.12406684762
 30
0.0
 10
3165.1443400642511
 20
1360.0540946716169
 30
0.0
 10
3165.8999967216751
 20
1359.9999994040479
 30
0.0
 11
3163.0132452878438
 21
1360.4465872050239
 31
0.0
 11
3163.2721068549267
 21
1360.3742187546156
 31
0.0
 11
3163.6219787243317
 21
1360.2764070735818
 31
0.0
 11
3164.1380594916341
 21
1360.1544641207811
 31
0.0
 11
3164.5964614170325
 21
1360.0933157143018
 31
0.0
 11
3165.1962845668022
 21
1360.0503761153959
 31
0.0
 11
3165.8999967216751
 21
1359.9999994040479
 31
0.0
  0
SPLINE
  5
337
100
AcDbEntity
  8
0
  6
CONTINUOUS
 62
           3
100
AcDbSpline
210
0.0
220
0.0
230
1.0
 70
           0
 71
           3
 72
           8
 73
           5
 74
           7
 42
0.00000000001
 43
0.00000000001
 44
0.00000000001
 40
0.0
 40
0.0
 40
0.0
 40
0.7273681394929004
 40
1.7065914567911631
 40
2.9387223240401195
 40
2.9387223240401195
 40
2.9387223240401195
 10
3165.8999967216751
 20
1359.9999994040479
 30
0.0
 10
3166.1387195010361
 20
1360.005478943116
 30
0.0
 10
3167.1156271469831
 20
1360.027902457241
 30
0.0
 10
3168.067488856248
 20
1360.2663830805111
 30
0.0
 10
3168.786748155369
 20
1360.4465872051219
 30
0.0
 11
3165.8999967216751
 21
1359.9999994040479
 31
0.0
 11
3166.1831310149755
 21
1360.006498345733
 31
0.0
 11
3166.5550883361552
 21
1360.0150360926523
 31
0.0
 11
3167.0808673755146
 21
1360.051086633174
 31
0.0
 11
3167.5371268719337
 21
1360.1335055255608
 31
0.0
 11
3168.1147131849498
 21
1360.2782147229264
 31
0.0
 11
3168.786748155369
 21
1360.4465872051219
 31
0.0
  0
SPLINE
  5
336
100
AcDbEntity
  8
0
  6
CONTINUOUS
 62
           3
100
AcDbSpline
210
0.0
220
0.0
230
1.0
 70
           0
 71
           3
 72
           8
 73
           5
 74
           7
 42
0.00000000001
 43
0.00000000001
 44
0.00000000001
 40
0.0
 40
0.0
 40
0.0
 40
1.232128829263321
 40
2.2113508927716787
 40
2.9387184667293509
 40
2.9387184667293509
 40
2.9387184667293509
 10
3168.7867481555081
 20
1364.5534217358579
 30
0.0
 10
3168.0674885010521
 20
1364.733619018429
 30
0.0
 10
3167.1156260261
 20
1364.9720906611981
 30
0.0
 10
3166.1387194651538
 20
1364.994514911454
 30
0.0
 10
3165.8999967216751
 20
1364.9999946356729
 30
0.0
 11
3168.7867481555081
 21
1364.5534217358579
 31
0.0
 11
3168.114712833868
 21
1364.7217878300801
 31
0.0
 11
3167.53712617786
 21
1364.8664915476047
 31
0.0
 11
3167.0808665470086
 21
1364.9489075788533
 31
0.0
 11
3166.5550879579769
 21
1364.9849574454129
 31
0.0
 11
3166.1831309024892
 21
1364.9934954759983
 31
0.0
 11
3165.8999967216751
 21
1364.9999946356729
 31
0.0
  0
SPLINE
  5
335
100
AcDbEntity
  8
0
  6
CONTINUOUS
 62
           3
100
AcDbSpline
210
0.0
220
0.0
230
1.0
 70
           0
 71
           3
 72
           8
 73
           5
 74
           7
 42
0.00000000001
 43
0.00000000001
 44
0.00000000001
 40
0.0
 40
0.0
 40
0.0
 40
1.2475591451553403
 40
2.2257037084933495
 40
2.9354142011746114
 40
2.9354142011746114
 40
2.9354142011746114
 10
3165.8999967216751
 20
1364.9999946356729
 30
0.0
 10
3165.1443416651759
 20
1364.9458933000931
 30
0.0
 10
3164.1669038516502
 20
1364.8759133658571
 30
0.0
 10
3163.2266018489572
 20
1364.6130630433661
 30
0.0
 10
3163.0132452878438
 20
1364.5534217358579
 30
0.0
 11
3165.8999967216751
 21
1364.9999946356729
 31
0.0
 11
3165.1962862228384
 21
1364.9496122852588
 31
0.0
 11
3164.5964648393292
 21
1364.9066679051762
 31
0.0
 11
3164.1380633113718
 21
1364.8455202926339
 31
0.0
 11
3163.6219807028583
 21
1364.7235865336452
 31
0.0
 11
3163.272107422154
 21
1364.6257835890588
 31
0.0
 11
3163.0132452878438
 21
1364.5534217358579
 31
0.0
  0
SPLINE
  5
334
100
AcDbEntity
  8
0
  6
CONTINUOUS
 62
           3
100
AcDbSpline
210
0.0
220
0.0
230
1.0
 70
           0
 71
           3
 72
           8
 73
           5
 74
           7
 42
0.00000000001
 43
0.00000000001
 44
0.00000000001
 40
0.0
 40
0.0
 40
0.0
 40
0.2779464854660625
 40
0.7862840844017669
 40
1.5429642659213654
 40
1.5429642659213654
 40
1.5429642659213654
 10
3170.2301237559682
 20
1359.999999403921
 30
0.0
 10
3170.264340305368
 20
1359.9995537086761
 30
0.0
 10
3170.7517530244568
 20
1359.9932048044429
 30
0.0
 10
3171.2293915040032
 20
1359.7653090204799
 30
0.0
 10
3171.673499589368
 20
1359.553411603021
 30
0.0
 11
3170.2301237559682
 21
1359.999999403921
 31
0.0
 11
3170.2988605017513
 21
1359.9991040580446
 31
0.0
 11
3170.4366376403004
 21
1359.9973094109048
 31
0.0
 11
3170.7209580094759
 21
1359.9713364170611
 31
0.0
 11
3170.9436883486896
 21
1359.9016266484541
 31
0.0
 11
3171.2689927365154
 21
1359.7464140731086
 31
0.0
 11
3171.673499589368
 21
1359.553411603021
 31
0.0
  0
SPLINE
  5
333
100
AcDbEntity
  8
0
  6
CONTINUOUS
 62
           3
100
AcDbSpline
210
0.0
220
0.0
230
1.0
 70
           0
 71
           3
 72
           8
 73
           5
 74
           7
 42
0.00000000001
 43
0.00000000001
 44
0.00000000001
 40
0.0
 40
0.0
 40
0.0
 40
0.3778155284989183
 40
0.8942062233990173
 40
1.535751417460842
 40
1.535751417460842
 40
1.535751417460842
 10
3160.1264938539748
 20
1359.553411603021
 30
0.0
 10
3160.2210118970338
 20
1359.6064716909059
 30
0.0
 10
3160.6908817949079
 20
1359.870245011374
 30
0.0
 10
3161.1795227343059
 20
1359.9423771861991
 30
0.0
 10
3161.5698696873419
 20
1359.9999994040479
 30
0.0
 11
3160.1264938539748
 21
1359.553411603021
 31
0.0
 11
3160.2470141544077
 21
1359.6210687140281
 31
0.0
 11
3160.4195389695878
 21
1359.7179198712795
 31
0.0
 11
3160.6775244143337
 21
1359.8402057052365
 31
0.0
 11
3160.908795097931
 21
1359.9024129269189
 31
0.0
 11
3161.2094275634713
 21
1359.9467916758413
 31
0.0
 11
3161.5698696873419
 21
1359.9999994040479
 31
0.0
  0
SPLINE
  5
332
100
AcDbEntity
  8
0
  6
CONTINUOUS
 62
           3
100
AcDbSpline
210
0.0
220
0.0
230
1.0
 70
           0
 71
           3
 72
           8
 73
           5
 74
           7
 42
0.00000000001
 43
0.00000000001
 44
0.00000000001
 40
0.0
 40
0.0
 40
0.0
 40
0.6415450374694814
 40
1.157930368601785
 40
1.5357381749000683
 40
1.5357381749000683
 40
1.5357381749000683
 10
3161.5698696873419
 20
1355.0000041724199
 30
0.0
 10
3161.1795237086149
 20
1355.0576336938759
 30
0.0
 10
3160.690884629365
 20
1355.1297749168839
 30
0.0
 10
3160.2210119621182
 20
1355.3935224482559
 30
0.0
 10
3160.1264938539748
 20
1355.446577072224
 30
0.0
 11
3161.5698696873419
 21
1355.0000041724199
 31
0.0
 11
3161.2094282457047
 21
1355.0532186767991
 31
0.0
 11
3160.9087958782488
 21
1355.097603147025
 31
0.0
 11
3160.6775260473246
 21
1355.1598096979617
 31
0.0
 11
3160.4195390523191
 21
1355.282085811054
 31
0.0
 11
3160.2470142076327
 21
1355.3789269449474
 31
0.0
 11
3160.1264938539748
 21
1355.446577072224
 31
0.0
  0
SPLINE
  5
331
100
AcDbEntity
  8
0
  6
CONTINUOUS
 62
           3
100
AcDbSpline
210
0.0
220
0.0
230
1.0
 70
           0
 71
           3
 72
           8
 73
           5
 74
           7
 42
0.00000000001
 43
0.00000000001
 44
0.00000000001
 40
0.0
 40
0.0
 40
0.0
 40
0.3539460334989843
 40
0.8643414136630605
 40
1.5431068114059312
 40
1.5431068114059312
 40
1.5431068114059312
 10
3161.5698696873419
 20
1359.9999994040479
 30
0.0
 10
3161.6793238424252
 20
1359.9953935078299
 30
0.0
 10
3162.1676816710419
 20
1359.97484311874
 30
0.0
 10
3162.6438213484471
 20
1359.7375336343539
 30
0.0
 10
3163.0132452879729
 20
1359.553411603021
 30
0.0
 11
3161.5698696873419
 21
1359.9999994040479
 31
0.0
 11
3161.7019556855817
 21
1359.9944411463541
 31
0.0
 11
3161.8793053701347
 21
1359.9869781657089
 31
0.0
 11
3162.1466781413865
 21
1359.9524131949256
 31
0.0
 11
3162.3720438533264
 21
1359.8729883765131
 31
0.0
 11
3162.6682329595483
 21
1359.7253668120607
 31
0.0
 11
3163.0132452879729
 21
1359.553411603021
 31
0.0
  0
SPLINE
  5
330
100
AcDbEntity
  8
0
  6
CONTINUOUS
 62
           3
100
AcDbSpline
210
0.0
220
0.0
230
1.0
 70
           0
 71
           3
 72
           8
 73
           5
 74
           7
 42
0.00000000001
 43
0.00000000001
 44
0.00000000001
 40
0.0
 40
0.0
 40
0.0
 40
0.6787700534894813
 40
1.1891668948802716
 40
1.5431123743501056
 40
1.5431123743501056
 40
1.5431123743501056
 10
3163.0132452878438
 20
1355.446577072242
 30
0.0
 10
3162.6438214744071
 20
1355.2624483716061
 30
0.0
 10
3162.1676820506268
 20
1355.0251303367841
 30
0.0
 10
3161.6793238525861
 20
1355.0046045512611
 30
0.0
 10
3161.5698696873419
 20
1355.0000041724199
 30
0.0
 11
3163.0132452878438
 21
1355.446577072242
 31
0.0
 11
3162.6682329736409
 21
1355.2746155830071
 31
0.0
 11
3162.3720436579042
 21
1355.1269885165734
 31
0.0
 11
3162.1466781919517
 21
1355.0475647466087
 31
0.0
 11
3161.8793050086474
 21
1355.0130097962931
 31
0.0
 11
3161.7019556002906
 21
1355.0055557678088
 31
0.0
 11
3161.5698696873419
 21
1355.0000041724199
 31
0.0
  0
SPLINE
  5
32F
100
AcDbEntity
  8
0
  6
CONTINUOUS
 62
           3
100
AcDbSpline
210
0.0
220
0.0
230
1.0
 70
           0
 71
           3
 72
           8
 73
           5
 74
           7
 42
0.00000000001
 43
0.00000000001
 44
0.00000000001
 40
0.0
 40
0.0
 40
0.0
 40
0.277945269558014
 40
0.7862805426603717
 40
1.5429573556207279
 40
1.5429573556207279
 40
1.5429573556207279
 10
3170.23012375601
 20
1355.0000041724199
 30
0.0
 10
3170.1959072124769
 20
1355.0004498771891
 30
0.0
 10
3169.7084969152711
 20
1355.0067988847441
 30
0.0
 10
3169.2308572149891
 20
1355.234686928467
 30
0.0
 10
3168.786748155369
 20
1355.446577072224
 30
0.0
 11
3170.23012375601
 21
1355.0000041724199
 31
0.0
 11
3170.1613872230664
 21
1355.0008995346434
 31
0.0
 11
3170.0236107113024
 21
1355.0026942117752
 31
0.0
 11
3169.7392914141328
 21
1355.0286664762175
 31
0.0
 11
3169.5165611146867
 21
1355.0983739236065
 31
0.0
 11
3169.1912559250081
 21
1355.253581213191
 31
0.0
 11
3168.786748155369
 21
1355.446577072224
 31
0.0
  0
SPLINE
  5
32E
100
AcDbEntity
  8
0
  6
CONTINUOUS
 62
           3
100
AcDbSpline
210
0.0
220
0.0
230
1.0
 70
           0
 71
           3
 72
           8
 73
           5
 74
           7
 42
0.00000000001
 43
0.00000000001
 44
0.00000000001
 40
0.0
 40
0.0
 40
0.0
 40
0.5558558490614896
 40
1.5343195421996656
 40
2.9385037456599621
 40
2.9385037456599621
 40
2.9385037456599621
 10
3165.899996721671
 20
1355.000004172322
 30
0.0
 10
3165.8315636362968
 20
1355.0004498783021
 30
0.0
 10
3164.8567416872429
 20
1355.0067989106681
 30
0.0
 10
3163.9014629162648
 20
1355.234686929231
 30
0.0
 10
3163.0132452878438
 20
1355.446577072242
 30
0.0
 11
3165.899996721671
 21
1355.000004172322
 31
0.0
 11
3165.76038187625
 21
1355.0009134863224
 31
0.0
 11
3165.478403510735
 21
1355.0027500163628
 31
0.0
 11
3164.9140828960185
 21
1355.0291829422185
 31
0.0
 11
3164.4644446988532
 21
1355.1003839311754
 31
0.0
 11
3163.8201539548068
 21
1355.2540837154697
 31
0.0
 11
3163.0132452878438
 21
1355.446577072242
 31
0.0
  0
SPLINE
  5
32D
100
AcDbEntity
  8
0
  6
CONTINUOUS
 62
           3
100
AcDbSpline
210
0.0
220
0.0
230
1.0
 70
           0
 71
           3
 72
           8
 73
           5
 74
           7
 42
0.00000000001
 43
0.00000000001
 44
0.00000000001
 40
0.0
 40
0.0
 40
0.0
 40
0.5558562714156194
 40
1.5343210643713761
 40
2.9385072682982787
 40
2.9385072682982787
 40
2.9385072682982787
 10
3165.8999967216751
 20
1359.9999994040479
 30
0.0
 10
3165.9684298091488
 20
1359.999553710677
 30
0.0
 10
3166.9432526000201
 20
1359.993204851213
 30
0.0
 10
3167.898530904748
 20
1359.765309021863
 30
0.0
 10
3168.7867481555081
 20
1359.553411603069
 30
0.0
 11
3165.8999967216751
 21
1359.9999994040479
 31
0.0
 11
3166.0396116244087
 21
1359.999090115298
 31
0.0
 11
3166.3215901576623
 21
1359.9972536357895
 31
0.0
 11
3166.8859111712841
 21
1359.9708199944764
 31
0.0
 11
3167.3355493274357
 21
1359.8996166396905
 31
0.0
 11
3167.9798398231101
 21
1359.7459115716215
 31
0.0
 11
3168.7867481555081
 21
1359.553411603069
 31
0.0
  0
CIRCLE
  5
32C
100
AcDbEntity
  8
1
  6
CONTINUOUS
 62
           7
100
AcDbCircle
 10
0.0
 20
5285.700729926999
 40
317.5
  0
CIRCLE
  5
32B
100
AcDbEntity
  8
1
  6
CONTINUOUS
 62
           4
100
AcDbCircle
 10
0.0
 20
5285.700729926999
 40
84.123
  0
CIRCLE
  5
32A
100
AcDbEntity
  8
1
  6
CONTINUOUS
 62
           4
100
AcDbCircle
 10
0.0
 20
5285.700729926999
 40
110.700000000001
  0
CIRCLE
  5
329
100
AcDbEntity
  8
1
  6
CONTINUOUS
 62
           3
100
AcDbCircle
 10
508.472255321878
 20
1295.200848327053
 40
40.0
  0
CIRCLE
  5
328
100
AcDbEntity
  8
1
  6
CONTINUOUS
 62
           7
100
AcDbCircle
 10
3550.000000000004
 20
600.0
 40
7.5
  0
CIRCLE
  5
327
100
AcDbEntity
  8
1
  6
CONTINUOUS
 62
           2
100
AcDbCircle
 10
3550.000000000004
 20
600.0
 40
8.350000000001
  0
CIRCLE
  5
326
100
AcDbEntity
  8
1
  6
CONTINUOUS
 62
           7
100
AcDbCircle
 10
3550.000000000004
 20
600.0
 40
15.0
  0
ARC
  5
325
100
AcDbEntity
  8
1
  6
CONTINUOUS
 62
           7
100
AcDbCircle
 10
0.0
 20
5285.700729926999
 40
125.0
100
AcDbArc
 50
19.47546158221
 51
90.0
  0
ARC
  5
324
100
AcDbEntity
  8
1
  6
CONTINUOUS
 62
           7
100
AcDbCircle
 10
0.0
 20
5285.700729926999
 40
125.0
100
AcDbArc
 50
90.0
 51
-19.47546158221
  0
ARC
  5
323
100
AcDbEntity
  8
1
  6
CONTINUOUS
 62
           7
100
AcDbCircle
 10
55.0
 20
5270.700729926997
 40
359.999999999999
100
AcDbArc
 50
-1.498629881627
 51
0.0
  0
ARC
  5
322
100
AcDbEntity
  8
1
  6
CONTINUOUS
 62
           7
100
AcDbCircle
 10
160.551161566789
 20
5614.879393257399
 40
4.999999999997
100
AcDbArc
 50
163.348397297215
 51
-17.447383814444
  0
ARC
  5
321
100
AcDbEntity
  8
1
  6
CONTINUOUS
 62
           7
100
AcDbCircle
 10
55.0
 20
5270.700729926997
 40
360.000000000004
100
AcDbArc
 50
18.095065654746
 51
72.15472562971
  0
ARC
  5
320
100
AcDbEntity
  8
1
  6
CONTINUOUS
 62
           7
100
AcDbCircle
 10
55.0
 20
5270.700729926997
 40
360.0
100
AcDbArc
 50
0.0
 51
16.503503431389
  0
ARC
  5
31F
100
AcDbEntity
  8
1
  6
CONTINUOUS
 62
           7
100
AcDbCircle
 10
398.7152245979
 20
5377.751392604139
 40
4.999999999998
100
AcDbArc
 50
107.697175098858
 51
-73.098606012774
  0
ARC
  5
31E
100
AcDbEntity
  8
1
  6
CONTINUOUS
 62
           7
100
AcDbCircle
 10
413.41903650011
 20
5212.803799453532
 40
5.0
100
AcDbArc
 50
90.0
 51
-95.092511460472
  0
ARC
  5
31D
100
AcDbEntity
  8
1
  6
CONTINUOUS
 62
           7
100
AcDbCircle
 10
413.41903650011
 20
5212.803799453532
 40
5.000000000002
100
AcDbArc
 50
85.537115658274
 51
90.0
  0
ARC
  5
31C
100
AcDbEntity
  8
1
  6
CONTINUOUS
 62
           7
100
AcDbCircle
 10
-42.74781696846
 20
5248.200729926998
 40
457.508251836064
100
AcDbArc
 50
-89.655876673073
 51
-5.063201692938
  0
ARC
  5
31B
100
AcDbEntity
  8
1
  6
CONTINUOUS
 62
           7
100
AcDbCircle
 10
-40.0
 20
5335.700729926997
 40
540.0
100
AcDbArc
 50
180.0
 51
-175.217743666854
  0
ARC
  5
31A
100
AcDbEntity
  8
1
  6
CONTINUOUS
 62
           7
100
AcDbCircle
 10
-577.680202350801
 20
5285.700729926999
 40
5.000000000001
100
AcDbArc
 50
-84.421966108709
 51
90.0
  0
ARC
  5
319
100
AcDbEntity
  8
1
  6
CONTINUOUS
 62
           7
100
AcDbCircle
 10
-577.680202350801
 20
5285.700729926999
 40
5.0
100
AcDbArc
 50
90.0
 51
95.047515519261
  0
ARC
  5
318
100
AcDbEntity
  8
1
  6
CONTINUOUS
 62
           7
100
AcDbCircle
 10
-37.23109292451
 20
5333.200729926997
 40
542.507066171859
100
AcDbArc
 50
-174.449140676885
 51
-90.292433754283
  0
ARC
  5
317
100
AcDbEntity
  8
1
  6
CONTINUOUS
 62
           7
100
AcDbCircle
 10
55.0
 20
5270.700729926997
 40
360.000000000002
100
AcDbArc
 50
73.746287853066
 51
93.901683355293
  0
ARC
  5
316
100
AcDbEntity
  8
1
  6
CONTINUOUS
 62
           7
100
AcDbCircle
 10
-40.0
 20
5250.700729926997
 40
454.999999999998
100
AcDbArc
 50
-4.148070782362
 51
1.333022116547
  0
ARC
  5
315
100
AcDbEntity
  8
7
  6
CONTINUOUS
 62
           7
100
AcDbCircle
 10
-105.800000000003
 20
2887.411357000001
 40
6.199999999995
100
AcDbArc
 50
122.681914999929
 51
180.0
  0
ARC
  5
314
100
AcDbEntity
  8
7
  6
CONTINUOUS
 62
           7
100
AcDbCircle
 10
-84.750000000002
 20
2908.95
 40
3.053686296921
100
AcDbArc
 50
87.184443315796
 51
177.184443315771
  0
ARC
  5
313
100
AcDbEntity
  8
7
  6
CONTINUOUS
 62
           7
100
AcDbCircle
 10
-89.800000000003
 20
2909.341134000002
 40
2.0
100
AcDbArc
 50
-55.000000000028
 51
0.0
  0
ARC
  5
312
100
AcDbEntity
  8
7
  6
CONTINUOUS
 62
           7
100
AcDbCircle
 10
82.249999999998
 20
2908.95
 40
3.05368629692
100
AcDbArc
 50
2.815556684231
 51
92.815556684204
  0
ARC
  5
311
100
AcDbEntity
  8
7
  6
CONTINUOUS
 62
           7
100
AcDbCircle
 10
87.299999999997
 20
2909.341134000002
 40
2.0
100
AcDbArc
 50
180.0
 51
-124.999999999929
  0
ARC
  5
310
100
AcDbEntity
  8
7
  6
CONTINUOUS
 62
           7
100
AcDbCircle
 10
107.923186999999
 20
2892.800000000003
 40
2.0
100
AcDbArc
 50
-124.99999999997
 51
-90.0
  0
ARC
  5
30F
100
AcDbEntity
  8
7
  6
CONTINUOUS
 62
           7
100
AcDbCircle
 10
108.799999999998
 20
2887.600000000001
 40
3.200000000001
100
AcDbArc
 50
0.0
 51
90.0
  0
ARC
  5
30E
100
AcDbEntity
  8
7
  6
CONTINUOUS
 62
           7
100
AcDbCircle
 10
3965.800000000005
 20
2887.111357
 40
6.199999999999
100
AcDbArc
 50
0.0
 51
57.318085000075
  0
ARC
  5
30D
100
AcDbEntity
  8
7
  6
CONTINUOUS
 62
           7
100
AcDbCircle
 10
3944.600000000004
 20
2908.799999999998
 40
3.200000000001
100
AcDbArc
 50
0.0
 51
90.0
  0
ARC
  5
30C
100
AcDbEntity
  8
7
  6
CONTINUOUS
 62
           7
100
AcDbCircle
 10
3949.800000000005
 20
2909.041133999998
 40
2.0
100
AcDbArc
 50
180.0
 51
-125.000000000248
  0
ARC
  5
30B
100
AcDbEntity
  8
7
  6
CONTINUOUS
 62
           7
100
AcDbCircle
 10
3777.900000000005
 20
2908.799999999998
 40
3.200000000002
100
AcDbArc
 50
90.0
 51
180.0
  0
ARC
  5
30A
100
AcDbEntity
  8
7
  6
CONTINUOUS
 62
           7
100
AcDbCircle
 10
3772.700000000004
 20
2909.041133999998
 40
1.999999999997
100
AcDbArc
 50
-55.000000000008
 51
0.0
  0
ARC
  5
309
100
AcDbEntity
  8
7
  6
CONTINUOUS
 62
           7
100
AcDbCircle
 10
3752.076813000003
 20
2892.500000000002
 40
2.0
100
AcDbArc
 50
-90.0
 51
-55.000000000032
  0
ARC
  5
308
100
AcDbEntity
  8
7
  6
CONTINUOUS
 62
           7
100
AcDbCircle
 10
3751.200000000004
 20
2887.299999999998
 40
3.200000000004
100
AcDbArc
 50
90.0
 51
180.0
  0
ARC
  5
307
100
AcDbEntity
  8
1
  6
CONTINUOUS
 62
           3
100
AcDbCircle
 10
3670.163567691041
 20
1925.0
 40
9.499999999999
100
AcDbArc
 50
-124.797812779177
 51
0.0
  0
ARC
  5
306
100
AcDbEntity
  8
1
  6
CONTINUOUS
 62
           3
100
AcDbCircle
 10
3670.163567691041
 20
1925.0
 40
9.5
100
AcDbArc
 50
0.0
 51
125.916957371426
  0
ARC
  5
305
100
AcDbEntity
  8
1
  6
CONTINUOUS
 62
           3
100
AcDbCircle
 10
3670.163567691041
 20
1925.0
 40
5.871834995067
100
AcDbArc
 50
0.0
 51
38.599713917935
  0
ARC
  5
304
100
AcDbEntity
  8
1
  6
CONTINUOUS
 62
           3
100
AcDbCircle
 10
3670.163567691041
 20
1925.0
 40
5.871834995067
100
AcDbArc
 50
38.599713917935
 51
90.0
  0
ARC
  5
303
100
AcDbEntity
  8
1
  6
CONTINUOUS
 62
           3
100
AcDbCircle
 10
3670.163567691041
 20
1925.0
 40
5.871834995066
100
AcDbArc
 50
-90.0
 51
0.0
  0
ARC
  5
302
100
AcDbEntity
  8
0
  6
CONTINUOUS
 62
           3
100
AcDbCircle
 10
3228.39999672152
 20
1368.000000000113
 40
2.499999999997
100
AcDbArc
 50
0.0
 51
180.0
  0
ARC
  5
301
100
AcDbEntity
  8
0
  6
CONTINUOUS
 62
           3
100
AcDbCircle
 10
3228.39999672152
 20
1631.999999999898
 40
2.499999999998
100
AcDbArc
 50
180.0
 51
0.0
  0
ARC
  5
300
100
AcDbEntity
  8
0
  6
CONTINUOUS
 62
           3
100
AcDbCircle
 10
3103.399996721822
 20
1631.999999999898
 40
2.499999999996
100
AcDbArc
 50
180.0
 51
0.0
  0
ARC
  5
2FF
100
AcDbEntity
  8
0
  6
CONTINUOUS
 62
           3
100
AcDbCircle
 10
3103.399996721822
 20
1368.000000000113
 40
2.499999999997
100
AcDbArc
 50
0.0
 51
180.0
  0
ARC
  5
2FE
100
AcDbEntity
  8
0
  6
CONTINUOUS
 62
           3
100
AcDbCircle
 10
3107.899996721819
 20
1508.999999999996
 40
0.999999999996
100
AcDbArc
 50
-90.0
 51
90.0
  0
ARC
  5
2FD
100
AcDbEntity
  8
0
  6
CONTINUOUS
 62
           3
100
AcDbCircle
 10
3107.899996721819
 20
1431.000000000062
 40
1.0
100
AcDbArc
 50
-90.0
 51
90.0
  0
ARC
  5
2FC
100
AcDbEntity
  8
0
  6
CONTINUOUS
 62
           3
100
AcDbCircle
 10
3107.899996721819
 20
1409.000000000178
 40
0.999999999996
100
AcDbArc
 50
-90.0
 51
90.0
  0
ARC
  5
2FB
100
AcDbEntity
  8
0
  6
CONTINUOUS
 62
           3
100
AcDbCircle
 10
3223.899996721524
 20
1409.000000000178
 40
1.0
100
AcDbArc
 50
90.0
 51
-90.0
  0
ARC
  5
2FA
100
AcDbEntity
  8
0
  6
CONTINUOUS
 62
           3
100
AcDbCircle
 10
3223.899996721524
 20
1431.000000000062
 40
0.999999999996
100
AcDbArc
 50
90.0
 51
-90.0
  0
ARC
  5
2F9
100
AcDbEntity
  8
0
  6
CONTINUOUS
 62
           3
100
AcDbCircle
 10
3223.899996721524
 20
1508.999999999996
 40
1.0
100
AcDbArc
 50
90.0
 51
-90.0
  0
ARC
  5
2F8
100
AcDbEntity
  8
0
  6
CONTINUOUS
 62
           3
100
AcDbCircle
 10
3223.899996721524
 20
1530.99999999988
 40
1.0
100
AcDbArc
 50
90.0
 51
-90.0
  0
ARC
  5
2F7
100
AcDbEntity
  8
0
  6
CONTINUOUS
 62
           3
100
AcDbCircle
 10
3107.899996721819
 20
1530.99999999988
 40
0.999999999996
100
AcDbArc
 50
-90.0
 51
90.0
  0
ARC
  5
2F6
100
AcDbEntity
  8
0
  6
CONTINUOUS
 62
           3
100
AcDbCircle
 10
3172.373499413467
 20
1389.999999999996
 40
0.900000000001
100
AcDbArc
 50
-90.0
 51
-62.73395554943
  0
ARC
  5
2F5
100
AcDbEntity
  8
0
  6
CONTINUOUS
 62
           3
100
AcDbCircle
 10
3159.426494029876
 20
1389.999999999996
 40
0.900000000001
100
AcDbArc
 50
-117.26604445057
 51
-90.0
  0
ARC
  5
2F4
100
AcDbEntity
  8
0
  6
CONTINUOUS
 62
           3
100
AcDbCircle
 10
3165.899996721671
 20
1315.000000000058
 40
53.999999999956
100
AcDbArc
 50
180.0
 51
0.0
  0
ARC
  5
2F3
100
AcDbEntity
  8
0
  6
CONTINUOUS
 62
           3
100
AcDbCircle
 10
3165.899996721671
 20
1315.000000000058
 40
45.999999999961
100
AcDbArc
 50
180.0
 51
0.0
  0
ARC
  5
2F2
100
AcDbEntity
  8
0
  6
CONTINUOUS
 62
           3
100
AcDbCircle
 10
3165.899996721671
 20
1355.000000000222
 40
3.999999999996
100
AcDbArc
 50
180.0
 51
0.0
  0
ARC
  5
2F1
100
AcDbEntity
  8
1
  6
CONTINUOUS
 62
           3
100
AcDbCircle
 10
511.509758321877
 20
1267.114622327062
 40
0.500000000003
100
AcDbArc
 50
-83.827497998186
 51
-5.006793000224
  0
ARC
  5
2F0
100
AcDbEntity
  8
1
  6
CONTINUOUS
 62
           3
100
AcDbCircle
 10
505.434752321878
 20
1267.114622327062
 40
0.499999999996
100
AcDbArc
 50
-174.993206999702
 51
-96.172501999314
  0
ARC
  5
2EF
100
AcDbEntity
  8
1
  6
CONTINUOUS
 62
           3
100
AcDbCircle
 10
511.509758321877
 20
1323.287074327053
 40
0.500000000004
100
AcDbArc
 50
5.006793001366
 51
83.827497998172
  0
ARC
  5
2EE
100
AcDbEntity
  8
1
  6
CONTINUOUS
 62
           3
100
AcDbCircle
 10
505.434752321878
 20
1323.287074327053
 40
0.5
100
AcDbArc
 50
96.172501999328
 51
174.99320699856
  0
ARC
  5
2ED
100
AcDbEntity
  8
1
  6
CONTINUOUS
 62
           3
100
AcDbCircle
 10
504.433952321884
 20
1295.200848327053
 40
9.999999999999
100
AcDbArc
 50
-5.006792999978
 51
5.006793000023
  0
ARC
  5
2EC
100
AcDbEntity
  8
1
  6
CONTINUOUS
 62
           3
100
AcDbCircle
 10
512.510557321878
 20
1295.200848327053
 40
10.0
100
AcDbArc
 50
174.993206999977
 51
-174.993207000021
  0
ARC
  5
2EB
100
AcDbEntity
  8
1
  6
CONTINUOUS
 62
           3
100
AcDbCircle
 10
508.472255321878
 20
1295.200848327053
 40
10.749999999989
100
AcDbArc
 50
118.77350699997
 51
-118.773506999946
  0
ARC
  5
2EA
100
AcDbEntity
  8
1
  6
CONTINUOUS
 62
           3
100
AcDbCircle
 10
508.472255321878
 20
1295.200848327053
 40
10.750000000001
100
AcDbArc
 50
-61.22649300002
 51
0.0
  0
ARC
  5
2E9
100
AcDbEntity
  8
1
  6
CONTINUOUS
 62
           3
100
AcDbCircle
 10
508.472255321878
 20
1295.200848327053
 40
10.75
100
AcDbArc
 50
0.0
 51
61.226492999996
  0
ARC
  5
2E8
100
AcDbEntity
  8
1
  6
CONTINUOUS
 62
           3
100
AcDbCircle
 10
508.472255321878
 20
1295.200848327053
 40
28.749999999988
100
AcDbArc
 50
-96.172501999993
 51
-83.827497999993
  0
ARC
  5
2E7
100
AcDbEntity
  8
1
  6
CONTINUOUS
 62
           3
100
AcDbCircle
 10
508.472255321878
 20
1295.200848327053
 40
28.750000000008
100
AcDbArc
 50
83.827497999997
 51
96.172501999988
  0
ARC
  5
2E6
100
AcDbEntity
  8
1
  6
CONTINUOUS
 62
           7
100
AcDbCircle
 10
2682.000000000004
 20
1256.750000000002
 40
37.0
100
AcDbArc
 50
180.0
 51
-90.0
  0
ARC
  5
2E5
100
AcDbEntity
  8
1
  6
CONTINUOUS
 62
           7
100
AcDbCircle
 10
2682.000000000004
 20
1256.750000000002
 40
17.0
100
AcDbArc
 50
180.0
 51
-90.0
  0
LINE
  5
2E4
100
AcDbEntity
  8
1
  6
DOT_CENTER
 62
           2
100
AcDbLine
 10
-285.0
 20
5830.967813931817
 11
-285.0
 21
5488.161178942835
  0
LINE
  5
2E3
100
AcDbEntity
  8
1
  6
CONTINUOUS
 62
           4
100
AcDbLine
 10
40.0
 20
5730.200729926999
 11
-610.0
 21
5730.200729926999
  0
LINE
  5
2E2
100
AcDbEntity
  8
1
  6
CONTINUOUS
 62
           7
100
AcDbLine
 10
-610.0
 20
5725.700729926999
 11
40.0
 21
5725.700729926999
  0
LINE
  5
2E1
100
AcDbEntity
  8
1
  6
CONTINUOUS
 62
           4
100
AcDbLine
 10
-610.0
 20
5721.200729926999
 11
40.0
 21
5721.200729926999
  0
LINE
  5
2E0
100
AcDbEntity
  8
1
  6
CONTINUOUS
 62
           7
100
AcDbLine
 10
-610.0
 20
5725.700729926999
 11
-610.0
 21
5760.700729926999
  0
LINE
  5
2DF
100
AcDbEntity
  8
1
  6
CONTINUOUS
 62
           7
100
AcDbLine
 10
-610.0
 20
5760.700729926999
 11
-605.0
 21
5765.700729926999
  0
LINE
  5
2DE
100
AcDbEntity
  8
1
  6
CONTINUOUS
 62
           7
100
AcDbLine
 10
-605.0
 20
5765.700729926999
 11
35.0
 21
5765.700729926999
  0
LINE
  5
2DD
100
AcDbEntity
  8
1
  6
CONTINUOUS
 62
           7
100
AcDbLine
 10
40.0
 20
5760.700729926999
 11
35.0
 21
5765.700729926999
  0
LINE
  5
2DC
100
AcDbEntity
  8
1
  6
CONTINUOUS
 62
           7
100
AcDbLine
 10
40.0
 20
5760.700729926999
 11
40.0
 21
5725.700729926999
  0
LINE
  5
2DB
100
AcDbEntity
  8
1
  6
CONTINUOUS
 62
           7
100
AcDbLine
 10
35.0
 20
5685.700729926999
 11
-605.0
 21
5685.700729926999
  0
LINE
  5
2DA
100
AcDbEntity
  8
1
  6
CONTINUOUS
 62
           7
100
AcDbLine
 10
40.0
 20
5725.700729926999
 11
40.0
 21
5690.700729926999
  0
LINE
  5
2D9
100
AcDbEntity
  8
1
  6
CONTINUOUS
 62
           7
100
AcDbLine
 10
-610.0
 20
5690.700729926999
 11
-610.0
 21
5725.700729926999
  0
LINE
  5
2D8
100
AcDbEntity
  8
1
  6
CONTINUOUS
 62
           7
100
AcDbLine
 10
-605.0
 20
5685.700729926999
 11
-610.0
 21
5690.700729926999
  0
LINE
  5
2D7
100
AcDbEntity
  8
1
  6
CONTINUOUS
 62
           7
100
AcDbLine
 10
35.0
 20
5685.700729926999
 11
40.0
 21
5690.700729926999
  0
LINE
  5
2D6
100
AcDbEntity
  8
1
  6
CONTINUOUS
 62
           7
100
AcDbLine
 10
390.0
 20
5377.700729926997
 11
160.0
 21
5607.700729926997
  0
LINE
  5
2D5
100
AcDbEntity
  8
1
  6
CONTINUOUS
 62
           4
100
AcDbLine
 10
115.286004408819
 20
5246.950729926999
 11
109.265668111721
 21
5246.950729926999
  0
LINE
  5
2D4
100
AcDbEntity
  8
1
  6
CONTINUOUS
 62
           4
100
AcDbLine
 10
115.286004408819
 20
5324.450729926999
 11
109.265668111721
 21
5324.450729926999
  0
LINE
  5
2D3
100
AcDbEntity
  8
1
  6
CONTINUOUS
 62
           7
100
AcDbLine
 10
156.5
 20
5241.950729926999
 11
123.94625844666
 21
5241.950729926999
  0
LINE
  5
2D2
100
AcDbEntity
  8
1
  6
CONTINUOUS
 62
           7
100
AcDbLine
 10
123.94625844666
 20
5329.450729926999
 11
156.5
 21
5329.450729926999
  0
LINE
  5
2D1
100
AcDbEntity
  8
1
  6
CONTINUOUS
 62
           7
100
AcDbLine
 10
113.94625844666
 20
5251.950729926999
 11
113.94625844666
 21
5319.450729926999
  0
LINE
  5
2D0
100
AcDbEntity
  8
1
  6
CONTINUOUS
 62
           7
100
AcDbLine
 10
166.5
 20
5319.450729926999
 11
166.5
 21
5251.950729926999
  0
LINE
  5
2CF
100
AcDbEntity
  8
1
  6
CONTINUOUS
 62
           7
100
AcDbLine
 10
410.99206566863
 20
5212.57064263901
 11
-40.38731682328
 21
4758.856356924725
  0
LINE
  5
2CE
100
AcDbEntity
  8
1
  6
CONTINUOUS
 62
           7
100
AcDbLine
 10
-569.956959680419
 20
5285.700729927001
 11
-175.0
 21
5685.700729927
  0
LINE
  5
2CD
100
AcDbEntity
  8
1
  6
CONTINUOUS
 62
           7
100
AcDbLine
 10
-40.38731682328
 20
4758.856356924725
 11
-569.956959680419
 21
5285.700729927001
  0
LINE
  5
2CC
100
AcDbEntity
  8
1
  6
CONTINUOUS
 62
           7
100
AcDbLine
 10
-570.0
 20
5685.700729926999
 11
-570.0
 21
5675.700729926999
  0
LINE
  5
2CB
100
AcDbEntity
  8
1
  6
CONTINUOUS
 62
           7
100
AcDbLine
 10
-580.0
 20
5662.700729926999
 11
-570.0
 21
5675.700729926999
  0
LINE
  5
2CA
100
AcDbEntity
  8
1
  6
CONTINUOUS
 62
           7
100
AcDbLine
 10
-580.0
 20
5662.700729926999
 11
-580.0
 21
5335.700729926997
  0
LINE
  5
2C9
100
AcDbEntity
  8
1
  6
CONTINUOUS
 62
           7
100
AcDbLine
 10
30.50394303083
 20
5629.866350766413
 11
0.0
 21
5685.700729926999
  0
LINE
  5
2C8
100
AcDbEntity
  8
1
  6
CONTINUOUS
 62
           7
100
AcDbLine
 10
-186.0
 20
5099.700729926999
 11
210.0
 21
5099.700729926999
  0
LINE
  5
2C7
100
AcDbEntity
  8
1
  6
CONTINUOUS
 62
           7
100
AcDbLine
 10
185.999999999989
 20
5099.700729926999
 11
185.999999999989
 21
5495.700729926999
  0
LINE
  5
2C6
100
AcDbEntity
  8
1
  6
CONTINUOUS
 62
           7
100
AcDbLine
 10
185.999999999989
 20
5471.700729926992
 11
-210.0
 21
5471.700729926992
  0
LINE
  5
2C5
100
AcDbEntity
  8
1
  6
CONTINUOUS
 62
           7
100
AcDbLine
 10
-186.0
 20
5471.700729926992
 11
-186.0
 21
5075.700729926999
  0
LINE
  5
2C4
100
AcDbEntity
  8
1
  6
DOT_CENTER
 62
           2
100
AcDbLine
 10
-0.000000000002
 20
2944.483879124647
 11
-0.000000000002
 21
2049.379684115579
  0
LINE
  5
2C3
100
AcDbEntity
  8
7
  6
CONTINUOUS
 62
           7
100
AcDbLine
 10
-0.000000000002
 20
2825.300000000003
 11
-115.000000000002
 21
2825.300000000003
  0
LINE
  5
2C2
100
AcDbEntity
  8
7
  6
CONTINUOUS
 62
           7
100
AcDbLine
 10
-88.652848000002
 20
2907.702830000002
 11
-109.147843000003
 21
2892.629781000002
  0
LINE
  5
2C1
100
AcDbEntity
  8
7
  6
CONTINUOUS
 62
           7
100
AcDbLine
 10
-0.000000000002
 20
2912.0
 11
-84.600000000002
 21
2912.0
  0
LINE
  5
2C0
100
AcDbEntity
  8
7
  6
CONTINUOUS
 62
           7
100
AcDbLine
 10
-115.000000000002
 20
2825.300000000003
 11
-115.000000000002
 21
2852.837538373371
  0
LINE
  5
2BF
100
AcDbEntity
  8
7
  6
CONTINUOUS
 62
           7
100
AcDbLine
 10
114.999999999998
 20
2825.300000000003
 11
-0.000000000002
 21
2825.300000000003
  0
LINE
  5
2BE
100
AcDbEntity
  8
7
  6
CONTINUOUS
 62
           7
100
AcDbLine
 10
111.999999999998
 20
2887.600000000001
 11
114.999999999998
 21
2852.837538373371
  0
LINE
  5
2BD
100
AcDbEntity
  8
7
  6
CONTINUOUS
 62
           4
100
AcDbLine
 10
-110.992023000003
 20
2890.800000000003
 11
108.799999999998
 21
2890.800000000003
  0
LINE
  5
2BC
100
AcDbEntity
  8
7
  6
CONTINUOUS
 62
           7
100
AcDbLine
 10
86.152846999998
 20
2907.702830000002
 11
106.776033999999
 21
2891.161696000003
  0
LINE
  5
2BB
100
AcDbEntity
  8
7
  6
CONTINUOUS
 62
           7
100
AcDbLine
 10
-0.000000000002
 20
2912.0
 11
82.099999999999
 21
2912.0
  0
LINE
  5
2BA
100
AcDbEntity
  8
2
  6
CONTINUOUS
 62
           7
100
AcDbLine
 10
108.613663999999
 20
2813.800000000003
 11
103.820540999997
 21
2825.300000000003
  0
LINE
  5
2B9
100
AcDbEntity
  8
2
  6
CONTINUOUS
 62
           7
100
AcDbLine
 10
-103.820541000003
 20
2825.300000000003
 11
-108.613664000002
 21
2813.800000000003
  0
LINE
  5
2B8
100
AcDbEntity
  8
1
  6
CONTINUOUS
 62
           4
100
AcDbLine
 10
114.999999999998
 20
2852.837538373371
 11
-115.000000000002
 21
2852.837538373371
  0
LINE
  5
2B7
100
AcDbEntity
  8
7
  6
CONTINUOUS
 62
           7
100
AcDbLine
 10
-115.000000000002
 20
2852.837538373371
 11
-112.000000000002
 21
2887.411357000001
  0
LINE
  5
2B6
100
AcDbEntity
  8
7
  6
CONTINUOUS
 62
           7
100
AcDbLine
 10
114.999999999998
 20
2852.837538373371
 11
114.999999999998
 21
2825.300000000003
  0
LINE
  5
2B5
100
AcDbEntity
  8
1
  6
CONTINUOUS
 62
           7
100
AcDbLine
 10
166.499999999998
 20
2741.300000000002
 11
166.499999999998
 21
2681.300000000003
  0
LINE
  5
2B4
100
AcDbEntity
  8
1
  6
CONTINUOUS
 62
           7
100
AcDbLine
 10
108.613663999999
 20
2681.300000000003
 11
108.613663999999
 21
2741.300000000002
  0
LINE
  5
2B3
100
AcDbEntity
  8
1
  6
CONTINUOUS
 62
           7
100
AcDbLine
 10
118.613663999999
 20
2751.300000000002
 11
156.499999999998
 21
2751.300000000002
  0
LINE
  5
2B2
100
AcDbEntity
  8
1
  6
CONTINUOUS
 62
           7
100
AcDbLine
 10
156.499999999998
 20
2671.300000000003
 11
118.613663999999
 21
2671.300000000003
  0
LINE
  5
2B1
100
AcDbEntity
  8
2
  6
CONTINUOUS
 62
           7
100
AcDbLine
 10
-108.613664000002
 20
2650.0
 11
-108.613664000002
 21
2813.800000000003
  0
LINE
  5
2B0
100
AcDbEntity
  8
2
  6
CONTINUOUS
 62
           7
100
AcDbLine
 10
108.613663999999
 20
2650.0
 11
108.613663999999
 21
2813.800000000003
  0
LINE
  5
2AF
100
AcDbEntity
  8
1
  6
CONTINUOUS
 62
           7
100
AcDbLine
 10
4198.000000000004
 20
2550.5
 11
4198.000000000004
 21
2165.5
  0
LINE
  5
2AE
100
AcDbEntity
  8
1
  6
CONTINUOUS
 62
           2
100
AcDbLine
 10
4036.090589533995
 20
2537.0
 11
3631.153949290645
 21
2537.0
  0
LINE
  5
2AD
100
AcDbEntity
  8
1
  6
CONTINUOUS
 62
           2
100
AcDbLine
 10
4036.090589533995
 20
2177.0
 11
4036.090589533995
 21
2537.0
  0
LINE
  5
2AC
100
AcDbEntity
  8
1
  6
CONTINUOUS
 62
           2
100
AcDbLine
 10
3631.153949290645
 20
2177.0
 11
4036.090589533995
 21
2177.0
  0
LINE
  5
2AB
100
AcDbEntity
  8
1
  6
CONTINUOUS
 62
           2
100
AcDbLine
 10
3631.153949290645
 20
2537.0
 11
3631.153949290645
 21
2177.0
  0
LINE
  5
2AA
100
AcDbEntity
  8
1
  6
CONTINUOUS
 62
           4
100
AcDbLine
 10
4070.000000000004
 20
2587.199999999997
 11
4070.000000000004
 21
2589.500000000002
  0
LINE
  5
2A9
100
AcDbEntity
  8
1
  6
CONTINUOUS
 62
           4
100
AcDbLine
 10
4070.000000000004
 20
2589.500000000002
 11
4064.993063735605
 21
2594.500000000002
  0
LINE
  5
2A8
100
AcDbEntity
  8
1
  6
CONTINUOUS
 62
           4
100
AcDbLine
 10
3655.000000000004
 20
2594.500000000002
 11
3650.000000000004
 21
2589.500000000002
  0
LINE
  5
2A7
100
AcDbEntity
  8
1
  6
CONTINUOUS
 62
           4
100
AcDbLine
 10
4064.993063735605
 20
2594.500000000002
 11
3655.000000000004
 21
2594.500000000002
  0
LINE
  5
2A6
100
AcDbEntity
  8
1
  6
DOT_CENTER
 62
           2
100
AcDbLine
 10
3860.000000000004
 20
2049.379684115577
 11
3860.000000000004
 21
2963.483879124648
  0
LINE
  5
2A5
100
AcDbEntity
  8
1
  6
CONTINUOUS
 62
           7
100
AcDbLine
 10
4260.000000000004
 20
2132.500000000002
 11
4256.455357142855
 21
2127.500000000002
  0
LINE
  5
2A4
100
AcDbEntity
  8
1
  6
CONTINUOUS
 62
           7
100
AcDbLine
 10
4256.455357142855
 20
2587.199999999997
 11
4260.000000000004
 21
2582.199999999997
  0
LINE
  5
2A3
100
AcDbEntity
  8
1
  6
CONTINUOUS
 62
           7
100
AcDbLine
 10
4260.000000000004
 20
2132.500000000002
 11
4260.000000000004
 21
2165.5
  0
LINE
  5
2A2
100
AcDbEntity
  8
1
  6
CONTINUOUS
 62
           7
100
AcDbLine
 10
3333.155626997725
 20
2165.5
 11
3333.155626997725
 21
2127.500000000002
  0
LINE
  5
2A1
100
AcDbEntity
  8
1
  6
CONTINUOUS
 62
           7
100
AcDbLine
 10
4256.455357142855
 20
2587.199999999997
 11
3951.999999999995
 21
2587.199999999997
  0
LINE
  5
2A0
100
AcDbEntity
  8
1
  6
CONTINUOUS
 62
           7
100
AcDbLine
 10
3333.155626997725
 20
2587.199999999997
 11
3333.155626997725
 21
2550.5
  0
LINE
  5
29F
100
AcDbEntity
  8
1
  6
CONTINUOUS
 62
           7
100
AcDbLine
 10
4259.999999999996
 20
2550.5
 11
3333.155626997725
 21
2550.5
  0
LINE
  5
29E
100
AcDbEntity
  8
1
  6
CONTINUOUS
 62
           4
100
AcDbLine
 10
3650.000000000004
 20
2589.500000000002
 11
3650.000000000004
 21
2587.199999999997
  0
LINE
  5
29D
100
AcDbEntity
  8
1
  6
DOT_CENTER
 62
           2
100
AcDbLine
 10
4395.456827495063
 20
2358.0
 11
3302.780498763485
 21
2358.0
  0
LINE
  5
29C
100
AcDbEntity
  8
7
  6
CONTINUOUS
 62
           7
100
AcDbLine
 10
3975.000000000004
 20
2825.000000000002
 11
3860.000000000004
 21
2825.000000000002
  0
LINE
  5
29B
100
AcDbEntity
  8
7
  6
CONTINUOUS
 62
           7
100
AcDbLine
 10
3969.147843000004
 20
2892.329781
 11
3948.652848000003
 21
2907.402830000001
  0
LINE
  5
29A
100
AcDbEntity
  8
7
  6
CONTINUOUS
 62
           7
100
AcDbLine
 10
3944.600000000004
 20
2912.0
 11
3860.000000000004
 21
2912.0
  0
LINE
  5
299
100
AcDbEntity
  8
7
  6
CONTINUOUS
 62
           7
100
AcDbLine
 10
3975.000000000004
 20
2852.53753837337
 11
3975.000000000004
 21
2825.000000000002
  0
LINE
  5
298
100
AcDbEntity
  8
7
  6
CONTINUOUS
 62
           7
100
AcDbLine
 10
3860.000000000004
 20
2825.000000000002
 11
3745.000000000004
 21
2825.000000000002
  0
LINE
  5
297
100
AcDbEntity
  8
7
  6
CONTINUOUS
 62
           7
100
AcDbLine
 10
3745.000000000004
 20
2852.53753837337
 11
3748.000000000004
 21
2887.299999999998
  0
LINE
  5
296
100
AcDbEntity
  8
7
  6
CONTINUOUS
 62
           7
100
AcDbLine
 10
3753.223966000005
 20
2890.861696
 11
3773.847153000004
 21
2907.402830000001
  0
LINE
  5
295
100
AcDbEntity
  8
7
  6
CONTINUOUS
 62
           7
100
AcDbLine
 10
3777.900000000005
 20
2912.0
 11
3860.000000000004
 21
2912.0
  0
LINE
  5
294
100
AcDbEntity
  8
2
  6
CONTINUOUS
 62
           7
100
AcDbLine
 10
3762.431358000004
 20
2596.500000000002
 11
3751.386336000005
 21
2621.699999999999
  0
LINE
  5
293
100
AcDbEntity
  8
2
  6
CONTINUOUS
 62
           7
100
AcDbLine
 10
3751.386336000005
 20
2813.500000000002
 11
3751.386336000005
 21
2621.699999999999
  0
LINE
  5
292
100
AcDbEntity
  8
2
  6
CONTINUOUS
 62
           7
100
AcDbLine
 10
3756.179459000005
 20
2825.000000000002
 11
3751.386336000005
 21
2813.500000000002
  0
LINE
  5
291
100
AcDbEntity
  8
2
  6
CONTINUOUS
 62
           4
100
AcDbLine
 10
3953.250000000004
 20
2594.500000000002
 11
3953.250000000004
 21
2596.500000000002
  0
LINE
  5
290
100
AcDbEntity
  8
2
  6
CONTINUOUS
 62
           7
100
AcDbLine
 10
3968.613664000004
 20
2813.500000000002
 11
3968.613664000004
 21
2621.699999999999
  0
LINE
  5
28F
100
AcDbEntity
  8
2
  6
CONTINUOUS
 62
           7
100
AcDbLine
 10
3968.613664000004
 20
2813.500000000002
 11
3963.820541000005
 21
2825.000000000002
  0
LINE
  5
28E
100
AcDbEntity
  8
2
  6
CONTINUOUS
 62
           4
100
AcDbLine
 10
3957.568642000004
 20
2596.500000000002
 11
3762.431358000004
 21
2596.500000000002
  0
LINE
  5
28D
100
AcDbEntity
  8
2
  6
CONTINUOUS
 62
           7
100
AcDbLine
 10
3968.613664000004
 20
2621.699999999999
 11
3957.568642000004
 21
2596.500000000002
  0
LINE
  5
28C
100
AcDbEntity
  8
7
  6
CONTINUOUS
 62
           7
100
AcDbLine
 10
3972.000000000004
 20
2887.111357
 11
3975.000000000004
 21
2852.53753837337
  0
LINE
  5
28B
100
AcDbEntity
  8
7
  6
CONTINUOUS
 62
           7
100
AcDbLine
 10
3745.000000000004
 20
2825.000000000002
 11
3745.000000000004
 21
2852.53753837337
  0
LINE
  5
28A
100
AcDbEntity
  8
2
  6
CONTINUOUS
 62
           4
100
AcDbLine
 10
3766.750000000004
 20
2596.500000000002
 11
3766.750000000004
 21
2594.500000000002
  0
LINE
  5
289
100
AcDbEntity
  8
1
  6
CONTINUOUS
 62
           7
100
AcDbLine
 10
3601.800000000005
 20
2127.500000000002
 11
3601.800000000005
 21
2081.0
  0
LINE
  5
288
100
AcDbEntity
  8
1
  6
CONTINUOUS
 62
           7
100
AcDbLine
 10
3333.155626997725
 20
2127.500000000002
 11
3786.869912712014
 21
2127.500000000004
  0
LINE
  5
287
100
AcDbEntity
  8
1
  6
CONTINUOUS
 62
           7
100
AcDbLine
 10
3379.999999999995
 20
2550.5
 11
3379.999999999995
 21
2165.5
  0
LINE
  5
286
100
AcDbEntity
  8
1
  6
CONTINUOUS
 62
           7
100
AcDbLine
 10
4118.200000000004
 20
2081.0
 11
4118.200000000004
 21
2127.500000000002
  0
LINE
  5
285
100
AcDbEntity
  8
1
  6
CONTINUOUS
 62
           7
100
AcDbLine
 10
4260.000000000004
 20
2165.5
 11
4260.000000000004
 21
2582.199999999997
  0
LINE
  5
284
100
AcDbEntity
  8
1
  6
CONTINUOUS
 62
           7
100
AcDbLine
 10
4340.000000000006
 20
2555.000000000001
 11
4340.000000000006
 21
2161.000000000002
  0
LINE
  5
283
100
AcDbEntity
  8
1
  6
CONTINUOUS
 62
           4
100
AcDbLine
 10
4340.000000000006
 20
2555.000000000001
 11
4305.500000000006
 21
2555.000000000001
  0
LINE
  5
282
100
AcDbEntity
  8
1
  6
CONTINUOUS
 62
           4
100
AcDbLine
 10
4304.500000000006
 20
2590.500000000001
 11
4304.500000000006
 21
2556.000000000001
  0
LINE
  5
281
100
AcDbEntity
  8
1
  6
CONTINUOUS
 62
           4
100
AcDbLine
 10
4304.500000000006
 20
2590.500000000001
 11
4295.500000000004
 21
2590.500000000001
  0
LINE
  5
280
100
AcDbEntity
  8
1
  6
CONTINUOUS
 62
           4
100
AcDbLine
 10
4295.500000000004
 20
2556.000000000001
 11
4295.500000000004
 21
2590.500000000001
  0
LINE
  5
27F
100
AcDbEntity
  8
1
  6
CONTINUOUS
 62
           4
100
AcDbLine
 10
4294.500000000004
 20
2555.000000000001
 11
4259.999999999996
 21
2555.000000000001
  0
LINE
  5
27E
100
AcDbEntity
  8
1
  6
CONTINUOUS
 62
           4
100
AcDbLine
 10
4305.500000000006
 20
2161.000000000002
 11
4340.000000000006
 21
2161.000000000002
  0
LINE
  5
27D
100
AcDbEntity
  8
1
  6
CONTINUOUS
 62
           4
100
AcDbLine
 10
4304.500000000006
 20
2160.000000000002
 11
4304.500000000006
 21
2125.500000000002
  0
LINE
  5
27C
100
AcDbEntity
  8
1
  6
CONTINUOUS
 62
           4
100
AcDbLine
 10
4259.999999999996
 20
2161.000000000002
 11
4294.500000000004
 21
2161.000000000002
  0
LINE
  5
27B
100
AcDbEntity
  8
1
  6
CONTINUOUS
 62
           4
100
AcDbLine
 10
4295.500000000004
 20
2125.500000000002
 11
4295.500000000004
 21
2160.000000000002
  0
LINE
  5
27A
100
AcDbEntity
  8
1
  6
CONTINUOUS
 62
           4
100
AcDbLine
 10
4295.500000000004
 20
2550.500000000004
 11
4295.500000000004
 21
2165.500000000001
  0
LINE
  5
279
100
AcDbEntity
  8
1
  6
CONTINUOUS
 62
           4
100
AcDbLine
 10
4304.500000000006
 20
2165.5
 11
4304.500000000006
 21
2550.500000000004
  0
LINE
  5
278
100
AcDbEntity
  8
1
  6
CONTINUOUS
 62
           4
100
AcDbLine
 10
4295.500000000004
 20
2125.500000000002
 11
4304.500000000006
 21
2125.500000000002
  0
LINE
  5
277
100
AcDbEntity
  8
1
  6
CONTINUOUS
 62
           4
100
AcDbLine
 10
3562.500000000004
 20
2081.0
 11
3562.500000000004
 21
2075.0
  0
LINE
  5
276
100
AcDbEntity
  8
1
  6
CONTINUOUS
 62
           4
100
AcDbLine
 10
4157.500000000004
 20
2081.0
 11
4157.500000000004
 21
2075.0
  0
LINE
  5
275
100
AcDbEntity
  8
1
  6
CONTINUOUS
 62
           4
100
AcDbLine
 10
4157.500000000004
 20
2081.0
 11
3562.500000000004
 21
2081.0
  0
LINE
  5
274
100
AcDbEntity
  8
1
  6
CONTINUOUS
 62
           7
100
AcDbLine
 10
3860.000000000004
 20
2075.0
 11
3562.500000000004
 21
2075.0
  0
LINE
  5
273
100
AcDbEntity
  8
1
  6
CONTINUOUS
 62
           7
100
AcDbLine
 10
4157.500000000004
 20
2075.0
 11
3860.000000000004
 21
2075.0
  0
LINE
  5
272
100
AcDbEntity
  8
1
  6
CONTINUOUS
 62
           7
100
AcDbLine
 10
4260.000000000004
 20
2165.5
 11
3333.155626997725
 21
2165.5
  0
LINE
  5
271
100
AcDbEntity
  8
1
  6
CONTINUOUS
 62
           4
100
AcDbLine
 10
3975.000000000004
 20
2852.53753837337
 11
3745.000000000004
 21
2852.53753837337
  0
LINE
  5
270
100
AcDbEntity
  8
7
  6
CONTINUOUS
 62
           4
100
AcDbLine
 10
3751.200000000004
 20
2890.500000000002
 11
3970.992023000004
 21
2890.500000000002
  0
LINE
  5
26F
100
AcDbEntity
  8
1
  6
CONTINUOUS
 62
           7
100
AcDbLine
 10
4300.000000000006
 20
2590.500000000001
 11
4300.000000000006
 21
2125.500000000002
  0
LINE
  5
26E
100
AcDbEntity
  8
1
  6
CONTINUOUS
 62
           7
100
AcDbLine
 10
4259.999999999996
 20
2550.5
 11
4340.000000000006
 21
2550.500000000001
  0
LINE
  5
26D
100
AcDbEntity
  8
1
  6
CONTINUOUS
 62
           7
100
AcDbLine
 10
4340.000000000006
 20
2165.500000000002
 11
4259.999999999996
 21
2165.500000000002
  0
LINE
  5
26C
100
AcDbEntity
  8
1
  6
CONTINUOUS
 62
           7
100
AcDbLine
 10
3893.750000000004
 20
2670.0
 11
3826.250000000004
 21
2670.0
  0
LINE
  5
26B
100
AcDbEntity
  8
1
  6
CONTINUOUS
 62
           7
100
AcDbLine
 10
3826.250000000004
 20
2750.0
 11
3893.750000000004
 21
2750.0
  0
LINE
  5
26A
100
AcDbEntity
  8
1
  6
CONTINUOUS
 62
           7
100
AcDbLine
 10
3903.750000000004
 20
2740.0
 11
3903.750000000004
 21
2680.0
  0
LINE
  5
269
100
AcDbEntity
  8
1
  6
CONTINUOUS
 62
           7
100
AcDbLine
 10
3816.250000000004
 20
2680.0
 11
3816.250000000004
 21
2740.0
  0
LINE
  5
268
100
AcDbEntity
  8
1
  6
CONTINUOUS
 62
           7
100
AcDbLine
 10
3951.999999999995
 20
2587.199999999997
 11
3951.999999999995
 21
2550.5
  0
LINE
  5
267
100
AcDbEntity
  8
1
  6
CONTINUOUS
 62
           7
100
AcDbLine
 10
3786.869912712014
 20
2587.199999999997
 11
3786.869912712014
 21
2550.5
  0
LINE
  5
266
100
AcDbEntity
  8
1
  6
CONTINUOUS
 62
           7
100
AcDbLine
 10
3786.869912712014
 20
2587.199999999997
 11
3333.155626997725
 21
2587.199999999997
  0
LINE
  5
265
100
AcDbEntity
  8
1
  6
CONTINUOUS
 62
           7
100
AcDbLine
 10
3786.869912712014
 20
2165.500000000004
 11
3786.869912712014
 21
2127.500000000004
  0
LINE
  5
264
100
AcDbEntity
  8
1
  6
CONTINUOUS
 62
           7
100
AcDbLine
 10
3951.999999999995
 20
2165.500000000004
 11
3951.999999999995
 21
2127.500000000004
  0
LINE
  5
263
100
AcDbEntity
  8
1
  6
CONTINUOUS
 62
           7
100
AcDbLine
 10
3951.999999999995
 20
2127.500000000004
 11
4256.455357142855
 21
2127.500000000002
  0
LINE
  5
262
100
AcDbEntity
  8
1
  6
CONTINUOUS
 62
           7
100
AcDbLine
 10
4185.000000000004
 20
2127.500000000002
 11
4185.000000000004
 21
2165.5
  0
LINE
  5
261
100
AcDbEntity
  8
1
  6
CONTINUOUS
 62
           7
100
AcDbLine
 10
4185.000000000004
 20
2550.5
 11
4185.000000000004
 21
2587.199999999997
  0
LINE
  5
260
100
AcDbEntity
  8
1
  6
CONTINUOUS
 62
           3
100
AcDbLine
 10
3670.163567691041
 20
1935.969655114603
 11
3664.48952766823
 21
1932.69374658004
  0
LINE
  5
25F
100
AcDbEntity
  8
1
  6
CONTINUOUS
 62
           3
100
AcDbLine
 10
3679.663567691041
 20
1930.484827557302
 11
3670.163567691041
 21
1935.969655114603
  0
LINE
  5
25E
100
AcDbEntity
  8
1
  6
CONTINUOUS
 62
           3
100
AcDbLine
 10
3679.663567691041
 20
1919.515172442699
 11
3679.663567691041
 21
1930.484827557302
  0
LINE
  5
25D
100
AcDbEntity
  8
1
  6
CONTINUOUS
 62
           3
100
AcDbLine
 10
3670.163567691041
 20
1914.030344885398
 11
3679.663567691041
 21
1919.515172442699
  0
LINE
  5
25C
100
AcDbEntity
  8
1
  6
CONTINUOUS
 62
           3
100
AcDbLine
 10
3664.48952766823
 20
1917.30625341996
 11
3670.163567691041
 21
1914.030344885398
  0
LINE
  5
25B
100
AcDbEntity
  8
1
  6
DOT_CENTER
 62
           3
100
AcDbLine
 10
3646.218519558623
 20
1925.0
 11
3687.66769526245
 21
1925.0
  0
LINE
  5
25A
100
AcDbEntity
  8
1
  6
CONTINUOUS
 62
           3
100
AcDbLine
 10
3659.389214871942
 20
1916.75
 11
3659.389214871942
 21
1917.30625341996
  0
LINE
  5
259
100
AcDbEntity
  8
1
  6
CONTINUOUS
 62
           3
100
AcDbLine
 10
3659.389214871942
 20
1916.75
 11
3649.714603906645
 21
1916.75
  0
LINE
  5
258
100
AcDbEntity
  8
1
  6
CONTINUOUS
 62
           3
100
AcDbLine
 10
3649.714603906645
 20
1916.75
 11
3649.714603906645
 21
1925.0
  0
LINE
  5
257
100
AcDbEntity
  8
1
  6
CONTINUOUS
 62
           3
100
AcDbLine
 10
3649.714603906645
 20
1919.0
 11
3648.868798384465
 21
1919.0
  0
LINE
  5
256
100
AcDbEntity
  8
1
  6
CONTINUOUS
 62
           3
100
AcDbLine
 10
3648.868798384465
 20
1917.30625341996
 11
3648.868798384465
 21
1925.0
  0
LINE
  5
255
100
AcDbEntity
  8
1
  6
CONTINUOUS
 62
           3
100
AcDbLine
 10
3648.868798384465
 20
1917.30625341996
 11
3648.163567691041
 21
1917.30625341996
  0
LINE
  5
254
100
AcDbEntity
  8
1
  6
CONTINUOUS
 62
           3
100
AcDbLine
 10
3647.663567691041
 20
1925.0
 11
3647.663567691041
 21
1917.80625341996
  0
LINE
  5
253
100
AcDbEntity
  8
1
  6
CONTINUOUS
 62
           3
100
AcDbLine
 10
3647.663567691041
 20
1932.19374658004
 11
3647.663567691041
 21
1925.0
  0
LINE
  5
252
100
AcDbEntity
  8
1
  6
CONTINUOUS
 62
           3
100
AcDbLine
 10
3648.163567691041
 20
1932.69374658004
 11
3648.868798384465
 21
1932.69374658004
  0
LINE
  5
251
100
AcDbEntity
  8
1
  6
CONTINUOUS
 62
           3
100
AcDbLine
 10
3648.868798384465
 20
1925.0
 11
3648.868798384465
 21
1932.69374658004
  0
LINE
  5
250
100
AcDbEntity
  8
1
  6
CONTINUOUS
 62
           3
100
AcDbLine
 10
3648.868798384465
 20
1931.0
 11
3649.714603906645
 21
1931.0
  0
LINE
  5
24F
100
AcDbEntity
  8
1
  6
CONTINUOUS
 62
           3
100
AcDbLine
 10
3649.714603906645
 20
1933.25
 11
3659.389214871942
 21
1933.25
  0
LINE
  5
24E
100
AcDbEntity
  8
1
  6
CONTINUOUS
 62
           3
100
AcDbLine
 10
3649.714603906645
 20
1925.0
 11
3649.714603906645
 21
1933.25
  0
LINE
  5
24D
100
AcDbEntity
  8
1
  6
CONTINUOUS
 62
           3
100
AcDbLine
 10
3659.389214871942
 20
1932.69374658004
 11
3659.389214871942
 21
1933.25
  0
LINE
  5
24C
100
AcDbEntity
  8
1
  6
CONTINUOUS
 62
           3
100
AcDbLine
 10
3659.389214871942
 20
1917.30625341996
 11
3659.389214871942
 21
1932.69374658004
  0
LINE
  5
24B
100
AcDbEntity
  8
1
  6
CONTINUOUS
 62
           3
100
AcDbLine
 10
3665.254330418631
 20
1917.30625341996
 11
3665.254330418631
 21
1932.69374658004
  0
LINE
  5
24A
100
AcDbEntity
  8
1
  6
CONTINUOUS
 62
           3
100
AcDbLine
 10
3665.254330418631
 20
1917.30625341996
 11
3659.389214871942
 21
1917.30625341996
  0
LINE
  5
249
100
AcDbEntity
  8
1
  6
CONTINUOUS
 62
           3
100
AcDbLine
 10
3665.254330418631
 20
1932.69374658004
 11
3659.389214871942
 21
1932.69374658004
  0
LINE
  5
248
100
AcDbEntity
  8
1
  6
CONTINUOUS
 62
           3
100
AcDbLine
 10
3665.254330418631
 20
1930.871834995069
 11
3670.163567691041
 21
1930.871834995069
  0
LINE
  5
247
100
AcDbEntity
  8
1
  6
DOT_CENTER
 62
           3
100
AcDbLine
 10
3670.163567691041
 20
1938.643555804874
 11
3670.163567691041
 21
1907.508008255125
  0
LINE
  5
246
100
AcDbEntity
  8
1
  6
CONTINUOUS
 62
           3
100
AcDbLine
 10
3670.163567691041
 20
1919.128165004934
 11
3665.254330418631
 21
1919.128165004934
  0
LINE
  5
245
100
AcDbEntity
  8
0
  6
CONTINUOUS
 62
           3
100
AcDbLine
 10
3164.844723494172
 20
1393.116392195192
 11
3165.899996721671
 21
1393.131740391393
  0
LINE
  5
244
100
AcDbEntity
  8
0
  6
CONTINUOUS
 62
           3
100
AcDbLine
 10
3163.903805503273
 20
1393.072016537193
 11
3164.844723494172
 21
1393.116392195192
  0
LINE
  5
243
100
AcDbEntity
  8
0
  6
CONTINUOUS
 62
           3
100
AcDbLine
 10
3163.179205573575
 20
1393.003411590991
 11
3163.903805503273
 21
1393.072016537193
  0
LINE
  5
242
100
AcDbEntity
  8
0
  6
CONTINUOUS
 62
           3
100
AcDbLine
 10
3162.749445840374
 20
1392.918020486792
 11
3163.179205573575
 21
1393.003411590991
  0
LINE
  5
241
100
AcDbEntity
  8
0
  6
CONTINUOUS
 62
           3
100
AcDbLine
 10
3162.661097088374
 20
1392.825089394992
 11
3162.749445840374
 21
1392.918020486792
  0
LINE
  5
240
100
AcDbEntity
  8
0
  6
CONTINUOUS
 62
           3
100
AcDbLine
 10
3162.899996695574
 20
1392.739541828793
 11
3162.661097088374
 21
1392.825089394992
  0
LINE
  5
23F
100
AcDbEntity
  8
0
  6
CONTINUOUS
 62
           3
100
AcDbLine
 10
3169.138896354969
 20
1392.825089394992
 11
3168.899996747769
 21
1392.739541828793
  0
LINE
  5
23E
100
AcDbEntity
  8
0
  6
CONTINUOUS
 62
           3
100
AcDbLine
 10
3169.050547602968
 20
1392.918020486792
 11
3169.138896354969
 21
1392.825089394992
  0
LINE
  5
23D
100
AcDbEntity
  8
0
  6
CONTINUOUS
 62
           3
100
AcDbLine
 10
3168.62078786977
 20
1393.003411590991
 11
3169.050547602968
 21
1392.918020486792
  0
LINE
  5
23C
100
AcDbEntity
  8
0
  6
CONTINUOUS
 62
           3
100
AcDbLine
 10
3167.89618794007
 20
1393.072016537193
 11
3168.62078786977
 21
1393.003411590991
  0
LINE
  5
23B
100
AcDbEntity
  8
0
  6
CONTINUOUS
 62
           3
100
AcDbLine
 10
3166.955269949171
 20
1393.116392195192
 11
3167.89618794007
 21
1393.072016537193
  0
LINE
  5
23A
100
AcDbEntity
  8
0
  6
CONTINUOUS
 62
           3
100
AcDbLine
 10
3165.899996721671
 20
1393.131740391393
 11
3166.955269949171
 21
1393.116392195192
  0
LINE
  5
239
100
AcDbEntity
  8
FORMAT
  6
CONTINUOUS
 62
           3
100
AcDbLine
 10
3162.399996721575
 20
1392.596845102893
 11
3151.899996721582
 21
1392.596845102893
  0
LINE
  5
238
100
AcDbEntity
  8
FORMAT
  6
DOT_CENTER
 62
           3
100
AcDbLine
 10
3165.899996721671
 20
1249.759397252256
 11
3165.899996721671
 21
1725.394390768569
  0
LINE
  5
237
100
AcDbEntity
  8
FORMAT
  6
CONTINUOUS
 62
           3
100
AcDbLine
 10
3169.399996721768
 20
1392.596845102893
 11
3162.399996721575
 21
1392.596845102893
  0
LINE
  5
236
100
AcDbEntity
  8
FORMAT
  6
CONTINUOUS
 62
           3
100
AcDbLine
 10
3179.899996721761
 20
1392.596845102893
 11
3169.399996721768
 21
1392.596845102893
  0
LINE
  5
235
100
AcDbEntity
  8
FORMAT
  6
DOT_CENTER
 62
           3
100
AcDbLine
 10
3090.999996721634
 20
1375.000000000007
 11
3077.399996721744
 21
1375.000000000007
  0
LINE
  5
234
100
AcDbEntity
  8
FORMAT
  6
DOT_CENTER
 62
           3
100
AcDbLine
 10
3090.999996721634
 20
1625.0
 11
3077.399996721744
 21
1625.0
  0
LINE
  5
233
100
AcDbEntity
  8
0
  6
CONTINUOUS
 62
           3
100
AcDbLine
 10
3100.899999106025
 20
1364.999994635815
 11
3085.499999189236
 21
1364.999994635815
  0
LINE
  5
232
100
AcDbEntity
  8
0
  6
CONTINUOUS
 62
           3
100
AcDbLine
 10
3104.399995023121
 20
1590.000003576231
 11
3104.399995023121
 21
1509.999999776395
  0
LINE
  5
231
100
AcDbEntity
  8
0
  6
CONTINUOUS
 62
           3
100
AcDbLine
 10
3107.399997377519
 20
1590.000003576231
 11
3104.399995023121
 21
1590.000003576231
  0
LINE
  5
230
100
AcDbEntity
  8
0
  6
CONTINUOUS
 62
           3
100
AcDbLine
 10
3107.399997377519
 20
1550.000000744964
 11
3107.399997377519
 21
1590.000003576231
  0
LINE
  5
22F
100
AcDbEntity
  8
0
  6
CONTINUOUS
 62
           3
100
AcDbLine
 10
3107.399997377519
 20
1529.999999329481
 11
3107.399997377519
 21
1532.000001519879
  0
LINE
  5
22E
100
AcDbEntity
  8
0
  6
CONTINUOUS
 62
           3
100
AcDbLine
 10
3104.399995023121
 20
1509.999999776395
 11
3105.975189322322
 21
1509.999999776395
  0
LINE
  5
22D
100
AcDbEntity
  8
0
  6
CONTINUOUS
 62
           3
100
AcDbLine
 10
3225.899995380623
 20
1368.000000715314
 11
3225.899995380623
 21
1367.300003767014
  0
LINE
  5
22C
100
AcDbEntity
  8
0
  6
CONTINUOUS
 62
           3
100
AcDbLine
 10
3230.899994337318
 20
1364.999994635815
 11
3230.899994337318
 21
1368.000000715314
  0
LINE
  5
22B
100
AcDbEntity
  8
0
  6
CONTINUOUS
 62
           3
100
AcDbLine
 10
3230.899994337318
 20
1635.000005364196
 11
3230.899994337318
 21
1631.999999284697
  0
LINE
  5
22A
100
AcDbEntity
  8
0
  6
CONTINUOUS
 62
           3
100
AcDbLine
 10
3225.899995380623
 20
1631.999999284697
 11
3225.899995380623
 21
1632.699996232994
  0
LINE
  5
229
100
AcDbEntity
  8
0
  6
CONTINUOUS
 62
           3
100
AcDbLine
 10
3105.89999806272
 20
1631.999999284697
 11
3105.89999806272
 21
1632.699996232994
  0
LINE
  5
228
100
AcDbEntity
  8
0
  6
CONTINUOUS
 62
           3
100
AcDbLine
 10
3100.899999106025
 20
1635.000005364196
 11
3100.899999106025
 21
1631.999999284697
  0
LINE
  5
227
100
AcDbEntity
  8
0
  6
CONTINUOUS
 62
           3
100
AcDbLine
 10
3100.899999106025
 20
1635.000005364196
 11
3085.499999189236
 21
1635.000005364196
  0
LINE
  5
226
100
AcDbEntity
  8
0
  6
CONTINUOUS
 62
           3
100
AcDbLine
 10
3100.899999106025
 20
1364.999994635815
 11
3100.899999106025
 21
1368.000000715314
  0
LINE
  5
225
100
AcDbEntity
  8
0
  6
CONTINUOUS
 62
           3
100
AcDbLine
 10
3105.89999806272
 20
1368.000000715314
 11
3105.89999806272
 21
1367.300003767014
  0
LINE
  5
224
100
AcDbEntity
  8
0
  6
CONTINUOUS
 62
           3
100
AcDbLine
 10
3104.399995023121
 20
1409.99999642378
 11
3104.399995023121
 21
1490.000000223612
  0
LINE
  5
223
100
AcDbEntity
  8
0
  6
CONTINUOUS
 62
           3
100
AcDbLine
 10
3104.399995023121
 20
1490.000000223612
 11
3105.89999806272
 21
1490.000000223612
  0
LINE
  5
222
100
AcDbEntity
  8
0
  6
CONTINUOUS
 62
           3
100
AcDbLine
 10
3107.399997377519
 20
1431.999996304559
 11
3107.399997377519
 21
1429.999999701962
  0
LINE
  5
221
100
AcDbEntity
  8
0
  6
CONTINUOUS
 62
           3
100
AcDbLine
 10
3105.975189322322
 20
1409.99999642378
 11
3104.399995023121
 21
1409.99999642378
  0
LINE
  5
220
100
AcDbEntity
  8
0
  6
CONTINUOUS
 62
           3
100
AcDbLine
 10
3227.39999842022
 20
1590.000003576231
 11
3227.39999842022
 21
1509.999999776395
  0
LINE
  5
21F
100
AcDbEntity
  8
0
  6
CONTINUOUS
 62
           3
100
AcDbLine
 10
3227.39999842022
 20
1509.999999776395
 11
3225.824804121023
 21
1509.999999776395
  0
LINE
  5
21E
100
AcDbEntity
  8
0
  6
CONTINUOUS
 62
           3
100
AcDbLine
 10
3224.399996066124
 20
1550.000000744964
 11
3224.399996066124
 21
1590.000003576231
  0
LINE
  5
21D
100
AcDbEntity
  8
0
  6
CONTINUOUS
 62
           3
100
AcDbLine
 10
3224.399996066124
 20
1529.999999329481
 11
3224.399996066124
 21
1532.000001519879
  0
LINE
  5
21C
100
AcDbEntity
  8
0
  6
CONTINUOUS
 62
           3
100
AcDbLine
 10
3224.399996066124
 20
1590.000003576231
 11
3227.39999842022
 21
1590.000003576231
  0
LINE
  5
21B
100
AcDbEntity
  8
0
  6
CONTINUOUS
 62
           3
100
AcDbLine
 10
3227.39999842022
 20
1409.99999642378
 11
3227.39999842022
 21
1490.000000223612
  0
LINE
  5
21A
100
AcDbEntity
  8
0
  6
CONTINUOUS
 62
           3
100
AcDbLine
 10
3225.824804121023
 20
1409.99999642378
 11
3227.39999842022
 21
1409.99999642378
  0
LINE
  5
219
100
AcDbEntity
  8
0
  6
CONTINUOUS
 62
           3
100
AcDbLine
 10
3224.399996066124
 20
1431.999996304559
 11
3224.399996066124
 21
1429.999999701962
  0
LINE
  5
218
100
AcDbEntity
  8
0
  6
CONTINUOUS
 62
           3
100
AcDbLine
 10
3227.39999842022
 20
1490.000000223612
 11
3225.899995380623
 21
1490.000000223612
  0
LINE
  5
217
100
AcDbEntity
  8
0
  6
CONTINUOUS
 62
           3
100
AcDbLine
 10
3085.499999189236
 20
1635.000005364196
 11
3083.39999344334
 21
1635.000005364196
  0
LINE
  5
216
100
AcDbEntity
  8
0
  6
CONTINUOUS
 62
           3
100
AcDbLine
 10
3083.39999344334
 20
1635.000005364196
 11
3083.39999344334
 21
1364.999994635815
  0
LINE
  5
215
100
AcDbEntity
  8
0
  6
CONTINUOUS
 62
           3
100
AcDbLine
 10
3085.499999189236
 20
1364.999994635815
 11
3083.39999344334
 21
1364.999994635815
  0
LINE
  5
214
100
AcDbEntity
  8
0
  6
CONTINUOUS
 62
           3
100
AcDbLine
 10
3105.89999806272
 20
1366.600006818713
 11
3105.89999806272
 21
1367.300003767014
  0
LINE
  5
213
100
AcDbEntity
  8
0
  6
CONTINUOUS
 62
           3
100
AcDbLine
 10
3225.899995380623
 20
1366.600006818713
 11
3225.899995380623
 21
1367.300003767014
  0
LINE
  5
212
100
AcDbEntity
  8
0
  6
CONTINUOUS
 62
           3
100
AcDbLine
 10
3105.89999806272
 20
1633.399993180996
 11
3105.89999806272
 21
1632.699996232994
  0
LINE
  5
211
100
AcDbEntity
  8
0
  6
CONTINUOUS
 62
           3
100
AcDbLine
 10
3225.899995380623
 20
1633.399993180996
 11
3225.899995380623
 21
1632.699996232994
  0
LINE
  5
210
100
AcDbEntity
  8
0
  6
CONTINUOUS
 62
           3
100
AcDbLine
 10
3220.899996423626
 20
1633.399993180996
 11
3225.899995380623
 21
1633.399993180996
  0
LINE
  5
20F
100
AcDbEntity
  8
0
  6
CONTINUOUS
 62
           3
100
AcDbLine
 10
3225.899995380623
 20
1635.000005364196
 11
3220.899996423626
 21
1635.000005364196
  0
LINE
  5
20E
100
AcDbEntity
  8
0
  6
CONTINUOUS
 62
           3
100
AcDbLine
 10
3225.899995380623
 20
1633.399993180996
 11
3225.899995380623
 21
1635.000005364196
  0
LINE
  5
20D
100
AcDbEntity
  8
0
  6
CONTINUOUS
 62
           3
100
AcDbLine
 10
3220.899996423626
 20
1366.600006818713
 11
3225.899995380623
 21
1366.600006818713
  0
LINE
  5
20C
100
AcDbEntity
  8
0
  6
CONTINUOUS
 62
           3
100
AcDbLine
 10
3225.899995380623
 20
1364.999994635815
 11
3220.899996423626
 21
1364.999994635815
  0
LINE
  5
20B
100
AcDbEntity
  8
0
  6
CONTINUOUS
 62
           3
100
AcDbLine
 10
3225.899995380623
 20
1366.600006818713
 11
3225.899995380623
 21
1364.999994635815
  0
LINE
  5
20A
100
AcDbEntity
  8
0
  6
CONTINUOUS
 62
           3
100
AcDbLine
 10
3210.899998509634
 20
1366.600006818713
 11
3212.899995112233
 21
1366.600006818713
  0
LINE
  5
209
100
AcDbEntity
  8
0
  6
CONTINUOUS
 62
           3
100
AcDbLine
 10
3212.899995112233
 20
1364.999994635815
 11
3210.899998509634
 21
1364.999994635815
  0
LINE
  5
208
100
AcDbEntity
  8
0
  6
CONTINUOUS
 62
           3
100
AcDbLine
 10
3212.899995112233
 20
1366.600006818713
 11
3212.899995112233
 21
1364.999994635815
  0
LINE
  5
207
100
AcDbEntity
  8
0
  6
CONTINUOUS
 62
           3
100
AcDbLine
 10
3210.899998509634
 20
1633.399993180996
 11
3212.899995112233
 21
1633.399993180996
  0
LINE
  5
206
100
AcDbEntity
  8
0
  6
CONTINUOUS
 62
           3
100
AcDbLine
 10
3212.899995112233
 20
1635.000005364196
 11
3210.899998509634
 21
1635.000005364196
  0
LINE
  5
205
100
AcDbEntity
  8
0
  6
CONTINUOUS
 62
           3
100
AcDbLine
 10
3212.899995112233
 20
1633.399993180996
 11
3212.899995112233
 21
1635.000005364196
  0
LINE
  5
204
100
AcDbEntity
  8
0
  6
CONTINUOUS
 62
           3
100
AcDbLine
 10
3218.899996095928
 20
1366.600006818713
 11
3220.899996423626
 21
1366.600006818713
  0
LINE
  5
203
100
AcDbEntity
  8
0
  6
CONTINUOUS
 62
           3
100
AcDbLine
 10
3220.899996423626
 20
1364.999994635815
 11
3218.899996095928
 21
1364.999994635815
  0
LINE
  5
202
100
AcDbEntity
  8
0
  6
CONTINUOUS
 62
           3
100
AcDbLine
 10
3218.899996095928
 20
1364.999994635815
 11
3218.899996095928
 21
1366.600006818713
  0
LINE
  5
201
100
AcDbEntity
  8
0
  6
CONTINUOUS
 62
           3
100
AcDbLine
 10
3218.899996095928
 20
1633.399993180996
 11
3220.899996423626
 21
1633.399993180996
  0
LINE
  5
200
100
AcDbEntity
  8
0
  6
CONTINUOUS
 62
           3
100
AcDbLine
 10
3220.899996423626
 20
1635.000005364196
 11
3218.899996095928
 21
1635.000005364196
  0
LINE
  5
1FF
100
AcDbEntity
  8
0
  6
CONTINUOUS
 62
           3
100
AcDbLine
 10
3218.899996095928
 20
1635.000005364196
 11
3218.899996095928
 21
1633.399993180996
  0
LINE
  5
1FE
100
AcDbEntity
  8
0
  6
CONTINUOUS
 62
           3
100
AcDbLine
 10
3110.899997019717
 20
1633.399993180996
 11
3105.89999806272
 21
1633.399993180996
  0
LINE
  5
1FD
100
AcDbEntity
  8
0
  6
CONTINUOUS
 62
           3
100
AcDbLine
 10
3105.89999806272
 20
1635.000005364196
 11
3110.899997019717
 21
1635.000005364196
  0
LINE
  5
1FC
100
AcDbEntity
  8
0
  6
CONTINUOUS
 62
           3
100
AcDbLine
 10
3105.89999806272
 20
1633.399993180996
 11
3105.89999806272
 21
1635.000005364196
  0
LINE
  5
1FB
100
AcDbEntity
  8
0
  6
CONTINUOUS
 62
           3
100
AcDbLine
 10
3110.899997019717
 20
1366.600006818713
 11
3105.89999806272
 21
1366.600006818713
  0
LINE
  5
1FA
100
AcDbEntity
  8
0
  6
CONTINUOUS
 62
           3
100
AcDbLine
 10
3105.89999806272
 20
1364.999994635815
 11
3110.899997019717
 21
1364.999994635815
  0
LINE
  5
1F9
100
AcDbEntity
  8
0
  6
CONTINUOUS
 62
           3
100
AcDbLine
 10
3105.89999806272
 20
1366.600006818713
 11
3105.89999806272
 21
1364.999994635815
  0
LINE
  5
1F8
100
AcDbEntity
  8
0
  6
CONTINUOUS
 62
           3
100
AcDbLine
 10
3120.899994933709
 20
1633.399993180996
 11
3210.899998509634
 21
1633.399993180996
  0
LINE
  5
1F7
100
AcDbEntity
  8
0
  6
CONTINUOUS
 62
           3
100
AcDbLine
 10
3120.899994933709
 20
1635.000005364196
 11
3210.899998509634
 21
1635.000005364196
  0
LINE
  5
1F6
100
AcDbEntity
  8
0
  6
CONTINUOUS
 62
           3
100
AcDbLine
 10
3120.899994933709
 20
1366.600006818713
 11
3210.899998509634
 21
1366.600006818713
  0
LINE
  5
1F5
100
AcDbEntity
  8
0
  6
CONTINUOUS
 62
           3
100
AcDbLine
 10
3120.899994933709
 20
1364.999994635815
 11
3210.899998509634
 21
1364.999994635815
  0
LINE
  5
1F4
100
AcDbEntity
  8
0
  6
CONTINUOUS
 62
           3
100
AcDbLine
 10
3120.899994933709
 20
1366.600006818713
 11
3118.89999833111
 21
1366.600006818713
  0
LINE
  5
1F3
100
AcDbEntity
  8
0
  6
CONTINUOUS
 62
           3
100
AcDbLine
 10
3118.89999833111
 20
1366.600006818713
 11
3118.89999833111
 21
1364.999994635815
  0
LINE
  5
1F2
100
AcDbEntity
  8
0
  6
CONTINUOUS
 62
           3
100
AcDbLine
 10
3118.89999833111
 20
1364.999994635815
 11
3120.899994933709
 21
1364.999994635815
  0
LINE
  5
1F1
100
AcDbEntity
  8
0
  6
CONTINUOUS
 62
           3
100
AcDbLine
 10
3120.899994933709
 20
1633.399993180996
 11
3118.89999833111
 21
1633.399993180996
  0
LINE
  5
1F0
100
AcDbEntity
  8
0
  6
CONTINUOUS
 62
           3
100
AcDbLine
 10
3118.89999833111
 20
1635.000005364196
 11
3120.899994933709
 21
1635.000005364196
  0
LINE
  5
1EF
100
AcDbEntity
  8
0
  6
CONTINUOUS
 62
           3
100
AcDbLine
 10
3118.89999833111
 20
1633.399993180996
 11
3118.89999833111
 21
1635.000005364196
  0
LINE
  5
1EE
100
AcDbEntity
  8
0
  6
CONTINUOUS
 62
           3
100
AcDbLine
 10
3112.899997347715
 20
1633.399993180996
 11
3110.899997019717
 21
1633.399993180996
  0
LINE
  5
1ED
100
AcDbEntity
  8
0
  6
CONTINUOUS
 62
           3
100
AcDbLine
 10
3112.899997347715
 20
1635.000005364196
 11
3112.899997347715
 21
1633.399993180996
  0
LINE
  5
1EC
100
AcDbEntity
  8
0
  6
CONTINUOUS
 62
           3
100
AcDbLine
 10
3110.899997019717
 20
1635.000005364196
 11
3112.899997347715
 21
1635.000005364196
  0
LINE
  5
1EB
100
AcDbEntity
  8
0
  6
CONTINUOUS
 62
           3
100
AcDbLine
 10
3112.899997347715
 20
1366.600006818713
 11
3110.899997019717
 21
1366.600006818713
  0
LINE
  5
1EA
100
AcDbEntity
  8
0
  6
CONTINUOUS
 62
           3
100
AcDbLine
 10
3110.899997019717
 20
1364.999994635815
 11
3112.899997347715
 21
1364.999994635815
  0
LINE
  5
1E9
100
AcDbEntity
  8
0
  6
CONTINUOUS
 62
           3
100
AcDbLine
 10
3112.899997347715
 20
1364.999994635815
 11
3112.899997347715
 21
1366.600006818713
  0
LINE
  5
1E8
100
AcDbEntity
  8
0
  6
CONTINUOUS
 62
           3
100
AcDbLine
 10
3225.824804121023
 20
1409.99999642378
 11
3224.199996405623
 21
1409.99999642378
  0
LINE
  5
1E7
100
AcDbEntity
  8
0
  6
CONTINUOUS
 62
           3
100
AcDbLine
 10
3224.199996405623
 20
1429.999999701962
 11
3225.899995380623
 21
1429.999999701962
  0
LINE
  5
1E6
100
AcDbEntity
  8
0
  6
CONTINUOUS
 62
           3
100
AcDbLine
 10
3225.899995380623
 20
1429.999999701962
 11
3225.899995380623
 21
1409.99999642378
  0
LINE
  5
1E5
100
AcDbEntity
  8
0
  6
CONTINUOUS
 62
           3
100
AcDbLine
 10
3105.89999806272
 20
1529.999999329481
 11
3107.59999703772
 21
1529.999999329481
  0
LINE
  5
1E4
100
AcDbEntity
  8
0
  6
CONTINUOUS
 62
           3
100
AcDbLine
 10
3105.89999806272
 20
1509.999999776395
 11
3105.89999806272
 21
1529.999999329481
  0
LINE
  5
1E3
100
AcDbEntity
  8
0
  6
CONTINUOUS
 62
           3
100
AcDbLine
 10
3107.59999703772
 20
1509.999999776395
 11
3105.975189322322
 21
1509.999999776395
  0
LINE
  5
1E2
100
AcDbEntity
  8
0
  6
CONTINUOUS
 62
           3
100
AcDbLine
 10
3105.975189322322
 20
1409.99999642378
 11
3107.59999703772
 21
1409.99999642378
  0
LINE
  5
1E1
100
AcDbEntity
  8
0
  6
CONTINUOUS
 62
           3
100
AcDbLine
 10
3107.59999703772
 20
1429.999999701962
 11
3105.89999806272
 21
1429.999999701962
  0
LINE
  5
1E0
100
AcDbEntity
  8
0
  6
CONTINUOUS
 62
           3
100
AcDbLine
 10
3105.89999806272
 20
1429.999999701962
 11
3105.89999806272
 21
1409.99999642378
  0
LINE
  5
1DF
100
AcDbEntity
  8
0
  6
CONTINUOUS
 62
           3
100
AcDbLine
 10
3107.59999703772
 20
1529.999999329481
 11
3107.89999839072
 21
1529.999999329481
  0
LINE
  5
1DE
100
AcDbEntity
  8
0
  6
CONTINUOUS
 62
           3
100
AcDbLine
 10
3107.89999839072
 20
1509.999999776395
 11
3107.59999703772
 21
1509.999999776395
  0
LINE
  5
1DD
100
AcDbEntity
  8
0
  6
CONTINUOUS
 62
           3
100
AcDbLine
 10
3105.89999806272
 20
1508.0000003799
 11
3107.89999839072
 21
1508.0000003799
  0
LINE
  5
1DC
100
AcDbEntity
  8
0
  6
CONTINUOUS
 62
           3
100
AcDbLine
 10
3105.89999806272
 20
1508.0000003799
 11
3105.89999806272
 21
1431.999996304559
  0
LINE
  5
1DB
100
AcDbEntity
  8
0
  6
CONTINUOUS
 62
           3
100
AcDbLine
 10
3105.89999806272
 20
1431.999996304559
 11
3107.89999839072
 21
1431.999996304559
  0
LINE
  5
1DA
100
AcDbEntity
  8
0
  6
CONTINUOUS
 62
           3
100
AcDbLine
 10
3107.89999839072
 20
1429.999999701962
 11
3107.59999703772
 21
1429.999999701962
  0
LINE
  5
1D9
100
AcDbEntity
  8
0
  6
CONTINUOUS
 62
           3
100
AcDbLine
 10
3107.59999703772
 20
1409.99999642378
 11
3107.89999839072
 21
1409.99999642378
  0
LINE
  5
1D8
100
AcDbEntity
  8
0
  6
CONTINUOUS
 62
           3
100
AcDbLine
 10
3107.89999839072
 20
1407.999999821183
 11
3105.89999806272
 21
1407.999999821183
  0
LINE
  5
1D7
100
AcDbEntity
  8
0
  6
CONTINUOUS
 62
           3
100
AcDbLine
 10
3105.89999806272
 20
1391.699999570792
 11
3105.89999806272
 21
1407.999999821183
  0
LINE
  5
1D6
100
AcDbEntity
  8
0
  6
CONTINUOUS
 62
           3
100
AcDbLine
 10
3225.899995380623
 20
1391.699999570792
 11
3225.899995380623
 21
1407.999999821183
  0
LINE
  5
1D5
100
AcDbEntity
  8
0
  6
CONTINUOUS
 62
           3
100
AcDbLine
 10
3223.899995052625
 20
1407.999999821183
 11
3225.899995380623
 21
1407.999999821183
  0
LINE
  5
1D4
100
AcDbEntity
  8
0
  6
CONTINUOUS
 62
           3
100
AcDbLine
 10
3224.199996405623
 20
1409.99999642378
 11
3223.899995052625
 21
1409.99999642378
  0
LINE
  5
1D3
100
AcDbEntity
  8
0
  6
CONTINUOUS
 62
           3
100
AcDbLine
 10
3223.899995052625
 20
1429.999999701962
 11
3224.199996405623
 21
1429.999999701962
  0
LINE
  5
1D2
100
AcDbEntity
  8
0
  6
CONTINUOUS
 62
           3
100
AcDbLine
 10
3225.899995380623
 20
1431.999996304559
 11
3223.899995052625
 21
1431.999996304559
  0
LINE
  5
1D1
100
AcDbEntity
  8
0
  6
CONTINUOUS
 62
           3
100
AcDbLine
 10
3225.899995380623
 20
1508.0000003799
 11
3225.899995380623
 21
1431.999996304559
  0
LINE
  5
1D0
100
AcDbEntity
  8
0
  6
CONTINUOUS
 62
           3
100
AcDbLine
 10
3225.899995380623
 20
1508.0000003799
 11
3223.899995052625
 21
1508.0000003799
  0
LINE
  5
1CF
100
AcDbEntity
  8
0
  6
CONTINUOUS
 62
           3
100
AcDbLine
 10
3223.899995052625
 20
1509.999999776395
 11
3224.199996405623
 21
1509.999999776395
  0
LINE
  5
1CE
100
AcDbEntity
  8
0
  6
CONTINUOUS
 62
           3
100
AcDbLine
 10
3224.199996405623
 20
1529.999999329481
 11
3223.899995052625
 21
1529.999999329481
  0
LINE
  5
1CD
100
AcDbEntity
  8
0
  6
CONTINUOUS
 62
           3
100
AcDbLine
 10
3223.899995052625
 20
1532.000001519879
 11
3225.899995380623
 21
1532.000001519879
  0
LINE
  5
1CC
100
AcDbEntity
  8
0
  6
CONTINUOUS
 62
           3
100
AcDbLine
 10
3225.899995380623
 20
1548.300001770265
 11
3225.899995380623
 21
1532.000001519879
  0
LINE
  5
1CB
100
AcDbEntity
  8
0
  6
CONTINUOUS
 62
           3
100
AcDbLine
 10
3105.89999806272
 20
1548.300001770265
 11
3105.89999806272
 21
1532.000001519879
  0
LINE
  5
1CA
100
AcDbEntity
  8
0
  6
CONTINUOUS
 62
           3
100
AcDbLine
 10
3107.89999839072
 20
1532.000001519879
 11
3105.89999806272
 21
1532.000001519879
  0
LINE
  5
1C9
100
AcDbEntity
  8
0
  6
CONTINUOUS
 62
           3
100
AcDbLine
 10
3224.199996405623
 20
1509.999999776395
 11
3225.824804121023
 21
1509.999999776395
  0
LINE
  5
1C8
100
AcDbEntity
  8
0
  6
CONTINUOUS
 62
           3
100
AcDbLine
 10
3225.899995380623
 20
1509.999999776395
 11
3225.899995380623
 21
1529.999999329481
  0
LINE
  5
1C7
100
AcDbEntity
  8
0
  6
CONTINUOUS
 62
           3
100
AcDbLine
 10
3225.899995380623
 20
1529.999999329481
 11
3224.199996405623
 21
1529.999999329481
  0
LINE
  5
1C6
100
AcDbEntity
  8
0
  6
CONTINUOUS
 62
           3
100
AcDbLine
 10
3225.899995380623
 20
1548.799999058065
 11
3225.899995380623
 21
1548.300001770265
  0
LINE
  5
1C5
100
AcDbEntity
  8
0
  6
CONTINUOUS
 62
           3
100
AcDbLine
 10
3105.89999806272
 20
1548.799999058065
 11
3105.89999806272
 21
1548.300001770265
  0
LINE
  5
1C4
100
AcDbEntity
  8
0
  6
CONTINUOUS
 62
           3
100
AcDbLine
 10
3105.89999806272
 20
1391.199998557593
 11
3105.89999806272
 21
1391.699999570792
  0
LINE
  5
1C3
100
AcDbEntity
  8
0
  6
CONTINUOUS
 62
           3
100
AcDbLine
 10
3225.899995380623
 20
1391.199998557593
 11
3225.899995380623
 21
1391.699999570792
  0
LINE
  5
1C2
100
AcDbEntity
  8
0
  6
CONTINUOUS
 62
           3
100
AcDbLine
 10
3168.899996747769
 20
1550.000000744964
 11
3169.149996788769
 21
1550.000000744964
  0
LINE
  5
1C1
100
AcDbEntity
  8
0
  6
CONTINUOUS
 62
           3
100
AcDbLine
 10
3162.649996654574
 20
1550.000000744964
 11
3162.899996695574
 21
1550.000000744964
  0
LINE
  5
1C0
100
AcDbEntity
  8
0
  6
CONTINUOUS
 62
           3
100
AcDbLine
 10
3168.899996747769
 20
1548.799999058065
 11
3169.149996788769
 21
1548.799999058065
  0
LINE
  5
1BF
100
AcDbEntity
  8
0
  6
CONTINUOUS
 62
           3
100
AcDbLine
 10
3162.649996654574
 20
1548.799999058065
 11
3162.899996695574
 21
1548.799999058065
  0
LINE
  5
1BE
100
AcDbEntity
  8
0
  6
CONTINUOUS
 62
           3
100
AcDbLine
 10
3162.899996695574
 20
1391.199998557593
 11
3162.649996654574
 21
1391.199998557593
  0
LINE
  5
1BD
100
AcDbEntity
  8
0
  6
CONTINUOUS
 62
           3
100
AcDbLine
 10
3169.149996788769
 20
1391.199998557593
 11
3168.899996747769
 21
1391.199998557593
  0
LINE
  5
1BC
100
AcDbEntity
  8
0
  6
CONTINUOUS
 62
           3
100
AcDbLine
 10
3110.899997019717
 20
1391.199998557593
 11
3105.89999806272
 21
1391.199998557593
  0
LINE
  5
1BB
100
AcDbEntity
  8
0
  6
CONTINUOUS
 62
           3
100
AcDbLine
 10
3105.89999806272
 20
1390.000000596097
 11
3110.899997019717
 21
1390.000000596097
  0
LINE
  5
1BA
100
AcDbEntity
  8
0
  6
CONTINUOUS
 62
           3
100
AcDbLine
 10
3105.89999806272
 20
1391.199998557593
 11
3105.89999806272
 21
1390.000000596097
  0
LINE
  5
1B9
100
AcDbEntity
  8
0
  6
CONTINUOUS
 62
           3
100
AcDbLine
 10
3105.89999806272
 20
1550.000000744964
 11
3110.899997019717
 21
1550.000000744964
  0
LINE
  5
1B8
100
AcDbEntity
  8
0
  6
CONTINUOUS
 62
           3
100
AcDbLine
 10
3110.899997019717
 20
1548.799999058065
 11
3105.89999806272
 21
1548.799999058065
  0
LINE
  5
1B7
100
AcDbEntity
  8
0
  6
CONTINUOUS
 62
           3
100
AcDbLine
 10
3105.89999806272
 20
1548.799999058065
 11
3105.89999806272
 21
1550.000000744964
  0
LINE
  5
1B6
100
AcDbEntity
  8
0
  6
CONTINUOUS
 62
           3
100
AcDbLine
 10
3210.899998509634
 20
1550.000000744964
 11
3195.899996051146
 21
1550.000000744964
  0
LINE
  5
1B5
100
AcDbEntity
  8
0
  6
CONTINUOUS
 62
           3
100
AcDbLine
 10
3210.899998509634
 20
1548.799999058065
 11
3195.899996051146
 21
1548.799999058065
  0
LINE
  5
1B4
100
AcDbEntity
  8
0
  6
CONTINUOUS
 62
           3
100
AcDbLine
 10
3225.899995380623
 20
1550.000000744964
 11
3220.899996423626
 21
1550.000000744964
  0
LINE
  5
1B3
100
AcDbEntity
  8
0
  6
CONTINUOUS
 62
           3
100
AcDbLine
 10
3220.899996423626
 20
1548.799999058065
 11
3225.899995380623
 21
1548.799999058065
  0
LINE
  5
1B2
100
AcDbEntity
  8
0
  6
CONTINUOUS
 62
           3
100
AcDbLine
 10
3225.899995380623
 20
1548.799999058065
 11
3225.899995380623
 21
1550.000000744964
  0
LINE
  5
1B1
100
AcDbEntity
  8
0
  6
CONTINUOUS
 62
           3
100
AcDbLine
 10
3210.899998509634
 20
1391.199998557593
 11
3195.899996051146
 21
1391.199998557593
  0
LINE
  5
1B0
100
AcDbEntity
  8
0
  6
CONTINUOUS
 62
           3
100
AcDbLine
 10
3210.899998509634
 20
1390.000000596097
 11
3195.899996051146
 21
1390.000000596097
  0
LINE
  5
1AF
100
AcDbEntity
  8
0
  6
CONTINUOUS
 62
           3
100
AcDbLine
 10
3120.899994933709
 20
1550.000000744964
 11
3135.899997392196
 21
1550.000000744964
  0
LINE
  5
1AE
100
AcDbEntity
  8
0
  6
CONTINUOUS
 62
           3
100
AcDbLine
 10
3120.899994933709
 20
1548.799999058065
 11
3135.899997392196
 21
1548.799999058065
  0
LINE
  5
1AD
100
AcDbEntity
  8
0
  6
CONTINUOUS
 62
           3
100
AcDbLine
 10
3220.899996423626
 20
1391.199998557593
 11
3225.899995380623
 21
1391.199998557593
  0
LINE
  5
1AC
100
AcDbEntity
  8
0
  6
CONTINUOUS
 62
           3
100
AcDbLine
 10
3225.899995380623
 20
1390.000000596097
 11
3220.899996423626
 21
1390.000000596097
  0
LINE
  5
1AB
100
AcDbEntity
  8
0
  6
CONTINUOUS
 62
           3
100
AcDbLine
 10
3225.899995380623
 20
1391.199998557593
 11
3225.899995380623
 21
1390.000000596097
  0
LINE
  5
1AA
100
AcDbEntity
  8
0
  6
CONTINUOUS
 62
           3
100
AcDbLine
 10
3120.899994933709
 20
1391.199998557593
 11
3135.899997392196
 21
1391.199998557593
  0
LINE
  5
1A9
100
AcDbEntity
  8
0
  6
CONTINUOUS
 62
           3
100
AcDbLine
 10
3120.899994933709
 20
1390.000000596097
 11
3135.899997392196
 21
1390.000000596097
  0
LINE
  5
1A8
100
AcDbEntity
  8
0
  6
CONTINUOUS
 62
           3
100
AcDbLine
 10
3118.89999833111
 20
1550.000000744964
 11
3120.899994933709
 21
1550.000000744964
  0
LINE
  5
1A7
100
AcDbEntity
  8
0
  6
CONTINUOUS
 62
           3
100
AcDbLine
 10
3120.899994933709
 20
1548.799999058065
 11
3118.89999833111
 21
1548.799999058065
  0
LINE
  5
1A6
100
AcDbEntity
  8
0
  6
CONTINUOUS
 62
           3
100
AcDbLine
 10
3118.89999833111
 20
1548.799999058065
 11
3118.89999833111
 21
1550.000000744964
  0
LINE
  5
1A5
100
AcDbEntity
  8
0
  6
CONTINUOUS
 62
           3
100
AcDbLine
 10
3110.899997019717
 20
1550.000000744964
 11
3112.899997347715
 21
1550.000000744964
  0
LINE
  5
1A4
100
AcDbEntity
  8
0
  6
CONTINUOUS
 62
           3
100
AcDbLine
 10
3112.899997347715
 20
1548.799999058065
 11
3110.899997019717
 21
1548.799999058065
  0
LINE
  5
1A3
100
AcDbEntity
  8
0
  6
CONTINUOUS
 62
           3
100
AcDbLine
 10
3112.899997347715
 20
1550.000000744964
 11
3112.899997347715
 21
1548.799999058065
  0
LINE
  5
1A2
100
AcDbEntity
  8
0
  6
CONTINUOUS
 62
           3
100
AcDbLine
 10
3210.899998509634
 20
1391.199998557593
 11
3212.899995112233
 21
1391.199998557593
  0
LINE
  5
1A1
100
AcDbEntity
  8
0
  6
CONTINUOUS
 62
           3
100
AcDbLine
 10
3212.899995112233
 20
1390.000000596097
 11
3210.899998509634
 21
1390.000000596097
  0
LINE
  5
1A0
100
AcDbEntity
  8
0
  6
CONTINUOUS
 62
           3
100
AcDbLine
 10
3212.899995112233
 20
1391.199998557593
 11
3212.899995112233
 21
1390.000000596097
  0
LINE
  5
19F
100
AcDbEntity
  8
0
  6
CONTINUOUS
 62
           3
100
AcDbLine
 10
3218.899996095928
 20
1391.199998557593
 11
3220.899996423626
 21
1391.199998557593
  0
LINE
  5
19E
100
AcDbEntity
  8
0
  6
CONTINUOUS
 62
           3
100
AcDbLine
 10
3220.899996423626
 20
1390.000000596097
 11
3218.899996095928
 21
1390.000000596097
  0
LINE
  5
19D
100
AcDbEntity
  8
0
  6
CONTINUOUS
 62
           3
100
AcDbLine
 10
3218.899996095928
 20
1390.000000596097
 11
3218.899996095928
 21
1391.199998557593
  0
LINE
  5
19C
100
AcDbEntity
  8
0
  6
CONTINUOUS
 62
           3
100
AcDbLine
 10
3212.899995112233
 20
1550.000000744964
 11
3210.899998509634
 21
1550.000000744964
  0
LINE
  5
19B
100
AcDbEntity
  8
0
  6
CONTINUOUS
 62
           3
100
AcDbLine
 10
3210.899998509634
 20
1548.799999058065
 11
3212.899995112233
 21
1548.799999058065
  0
LINE
  5
19A
100
AcDbEntity
  8
0
  6
CONTINUOUS
 62
           3
100
AcDbLine
 10
3212.899995112233
 20
1548.799999058065
 11
3212.899995112233
 21
1550.000000744964
  0
LINE
  5
199
100
AcDbEntity
  8
0
  6
CONTINUOUS
 62
           3
100
AcDbLine
 10
3220.899996423626
 20
1550.000000744964
 11
3218.899996095928
 21
1550.000000744964
  0
LINE
  5
198
100
AcDbEntity
  8
0
  6
CONTINUOUS
 62
           3
100
AcDbLine
 10
3218.899996095928
 20
1548.799999058065
 11
3220.899996423626
 21
1548.799999058065
  0
LINE
  5
197
100
AcDbEntity
  8
0
  6
CONTINUOUS
 62
           3
100
AcDbLine
 10
3218.899996095928
 20
1550.000000744964
 11
3218.899996095928
 21
1548.799999058065
  0
LINE
  5
196
100
AcDbEntity
  8
0
  6
CONTINUOUS
 62
           3
100
AcDbLine
 10
3120.899994933709
 20
1391.199998557593
 11
3118.89999833111
 21
1391.199998557593
  0
LINE
  5
195
100
AcDbEntity
  8
0
  6
CONTINUOUS
 62
           3
100
AcDbLine
 10
3118.89999833111
 20
1390.000000596097
 11
3120.899994933709
 21
1390.000000596097
  0
LINE
  5
194
100
AcDbEntity
  8
0
  6
CONTINUOUS
 62
           3
100
AcDbLine
 10
3118.89999833111
 20
1391.199998557593
 11
3118.89999833111
 21
1390.000000596097
  0
LINE
  5
193
100
AcDbEntity
  8
0
  6
CONTINUOUS
 62
           3
100
AcDbLine
 10
3112.899997347715
 20
1391.199998557593
 11
3110.899997019717
 21
1391.199998557593
  0
LINE
  5
192
100
AcDbEntity
  8
0
  6
CONTINUOUS
 62
           3
100
AcDbLine
 10
3110.899997019717
 20
1390.000000596097
 11
3112.899997347715
 21
1390.000000596097
  0
LINE
  5
191
100
AcDbEntity
  8
0
  6
CONTINUOUS
 62
           3
100
AcDbLine
 10
3112.899997347715
 20
1390.000000596097
 11
3112.899997347715
 21
1391.199998557593
  0
LINE
  5
190
100
AcDbEntity
  8
0
  6
CONTINUOUS
 62
           3
100
AcDbLine
 10
3162.399996613574
 20
1391.199998557593
 11
3162.649996654574
 21
1391.199998557593
  0
LINE
  5
18F
100
AcDbEntity
  8
0
  6
CONTINUOUS
 62
           3
100
AcDbLine
 10
3162.649996654574
 20
1391.199998557593
 11
3162.649996654574
 21
1390.000000596097
  0
LINE
  5
18E
100
AcDbEntity
  8
0
  6
CONTINUOUS
 62
           3
100
AcDbLine
 10
3195.899996051146
 20
1391.199998557593
 11
3185.899996274755
 21
1391.199998557593
  0
LINE
  5
18D
100
AcDbEntity
  8
0
  6
CONTINUOUS
 62
           3
100
AcDbLine
 10
3195.899996051146
 20
1390.000000596097
 11
3185.899996274755
 21
1390.000000596097
  0
LINE
  5
18C
100
AcDbEntity
  8
0
  6
CONTINUOUS
 62
           3
100
AcDbLine
 10
3195.899996051146
 20
1391.199998557593
 11
3195.899996051146
 21
1390.000000596097
  0
LINE
  5
18B
100
AcDbEntity
  8
0
  6
CONTINUOUS
 62
           3
100
AcDbLine
 10
3160.649996792476
 20
1550.000000744964
 11
3162.649996654574
 21
1550.000000744964
  0
LINE
  5
18A
100
AcDbEntity
  8
0
  6
CONTINUOUS
 62
           3
100
AcDbLine
 10
3162.649996654574
 20
1548.799999058065
 11
3160.649996792476
 21
1548.799999058065
  0
LINE
  5
189
100
AcDbEntity
  8
0
  6
CONTINUOUS
 62
           3
100
AcDbLine
 10
3162.649996654574
 20
1550.000000744964
 11
3162.649996654574
 21
1548.799999058065
  0
LINE
  5
188
100
AcDbEntity
  8
0
  6
CONTINUOUS
 62
           3
100
AcDbLine
 10
3173.899997101564
 20
1391.199998557593
 11
3185.899996274755
 21
1391.199998557593
  0
LINE
  5
187
100
AcDbEntity
  8
0
  6
CONTINUOUS
 62
           3
100
AcDbLine
 10
3173.899997101564
 20
1390.000000596097
 11
3185.899996274755
 21
1390.000000596097
  0
LINE
  5
186
100
AcDbEntity
  8
0
  6
CONTINUOUS
 62
           3
100
AcDbLine
 10
3185.899996274755
 20
1391.199998557593
 11
3185.899996274755
 21
1390.000000596097
  0
LINE
  5
185
100
AcDbEntity
  8
0
  6
CONTINUOUS
 62
           3
100
AcDbLine
 10
3135.899997392196
 20
1391.199998557593
 11
3145.899997168588
 21
1391.199998557593
  0
LINE
  5
184
100
AcDbEntity
  8
0
  6
CONTINUOUS
 62
           3
100
AcDbLine
 10
3135.899997392196
 20
1390.000000596097
 11
3145.899997168588
 21
1390.000000596097
  0
LINE
  5
183
100
AcDbEntity
  8
0
  6
CONTINUOUS
 62
           3
100
AcDbLine
 10
3135.899997392196
 20
1391.199998557593
 11
3135.899997392196
 21
1390.000000596097
  0
LINE
  5
182
100
AcDbEntity
  8
0
  6
CONTINUOUS
 62
           3
100
AcDbLine
 10
3169.149996788769
 20
1550.000000744964
 11
3171.149996650867
 21
1550.000000744964
  0
LINE
  5
181
100
AcDbEntity
  8
0
  6
CONTINUOUS
 62
           3
100
AcDbLine
 10
3171.149996650867
 20
1548.799999058065
 11
3169.149996788769
 21
1548.799999058065
  0
LINE
  5
180
100
AcDbEntity
  8
0
  6
CONTINUOUS
 62
           3
100
AcDbLine
 10
3169.149996788769
 20
1548.799999058065
 11
3169.149996788769
 21
1550.000000744964
  0
LINE
  5
17F
100
AcDbEntity
  8
0
  6
CONTINUOUS
 62
           3
100
AcDbLine
 10
3195.899996051146
 20
1550.000000744964
 11
3185.899996274755
 21
1550.000000744964
  0
LINE
  5
17E
100
AcDbEntity
  8
0
  6
CONTINUOUS
 62
           3
100
AcDbLine
 10
3195.899996051146
 20
1548.799999058065
 11
3185.899996274755
 21
1548.799999058065
  0
LINE
  5
17D
100
AcDbEntity
  8
0
  6
CONTINUOUS
 62
           3
100
AcDbLine
 10
3195.899996051146
 20
1548.799999058065
 11
3195.899996051146
 21
1550.000000744964
  0
LINE
  5
17C
100
AcDbEntity
  8
0
  6
CONTINUOUS
 62
           3
100
AcDbLine
 10
3169.149996788769
 20
1391.199998557593
 11
3169.399996829769
 21
1391.199998557593
  0
LINE
  5
17B
100
AcDbEntity
  8
0
  6
CONTINUOUS
 62
           3
100
AcDbLine
 10
3169.149996788769
 20
1390.000000596097
 11
3169.149996788769
 21
1391.199998557593
  0
LINE
  5
17A
100
AcDbEntity
  8
0
  6
CONTINUOUS
 62
           3
100
AcDbLine
 10
3145.899997168588
 20
1391.199998557593
 11
3157.899996341777
 21
1391.199998557593
  0
LINE
  5
179
100
AcDbEntity
  8
0
  6
CONTINUOUS
 62
           3
100
AcDbLine
 10
3145.899997168588
 20
1390.000000596097
 11
3157.899996341777
 21
1390.000000596097
  0
LINE
  5
178
100
AcDbEntity
  8
0
  6
CONTINUOUS
 62
           3
100
AcDbLine
 10
3145.899997168588
 20
1391.199998557593
 11
3145.899997168588
 21
1390.000000596097
  0
LINE
  5
177
100
AcDbEntity
  8
0
  6
CONTINUOUS
 62
           3
100
AcDbLine
 10
3145.899997168588
 20
1550.000000744964
 11
3160.649996792476
 21
1550.000000744964
  0
LINE
  5
176
100
AcDbEntity
  8
0
  6
CONTINUOUS
 62
           3
100
AcDbLine
 10
3145.899997168588
 20
1548.799999058065
 11
3160.649996792476
 21
1548.799999058065
  0
LINE
  5
175
100
AcDbEntity
  8
0
  6
CONTINUOUS
 62
           3
100
AcDbLine
 10
3171.149996650867
 20
1550.000000744964
 11
3185.899996274755
 21
1550.000000744964
  0
LINE
  5
174
100
AcDbEntity
  8
0
  6
CONTINUOUS
 62
           3
100
AcDbLine
 10
3171.149996650867
 20
1548.799999058065
 11
3185.899996274755
 21
1548.799999058065
  0
LINE
  5
173
100
AcDbEntity
  8
0
  6
CONTINUOUS
 62
           3
100
AcDbLine
 10
3185.899996274755
 20
1548.799999058065
 11
3185.899996274755
 21
1550.000000744964
  0
LINE
  5
172
100
AcDbEntity
  8
0
  6
CONTINUOUS
 62
           3
100
AcDbLine
 10
3135.899997392196
 20
1548.799999058065
 11
3135.899997392196
 21
1550.000000744964
  0
LINE
  5
171
100
AcDbEntity
  8
0
  6
CONTINUOUS
 62
           3
100
AcDbLine
 10
3135.899997392196
 20
1548.799999058065
 11
3145.899997168588
 21
1548.799999058065
  0
LINE
  5
170
100
AcDbEntity
  8
0
  6
CONTINUOUS
 62
           3
100
AcDbLine
 10
3145.899997168588
 20
1548.799999058065
 11
3145.899997168588
 21
1550.000000744964
  0
LINE
  5
16F
100
AcDbEntity
  8
0
  6
CONTINUOUS
 62
           3
100
AcDbLine
 10
3135.899997392196
 20
1550.000000744964
 11
3145.899997168588
 21
1550.000000744964
  0
LINE
  5
16E
100
AcDbEntity
  8
0
  6
CONTINUOUS
 62
           3
100
AcDbLine
 10
3173.899997101564
 20
1389.200001954996
 11
3173.899997101564
 21
1388.276241719796
  0
LINE
  5
16D
100
AcDbEntity
  8
0
  6
CONTINUOUS
 62
           3
100
AcDbLine
 10
3157.899996341777
 20
1389.200001954996
 11
3157.899996341777
 21
1388.276241719796
  0
LINE
  5
16C
100
AcDbEntity
  8
0
  6
CONTINUOUS
 62
           3
100
AcDbLine
 10
3160.899996833476
 20
1388.276241719796
 11
3157.899996341777
 21
1388.276241719796
  0
LINE
  5
16B
100
AcDbEntity
  8
0
  6
CONTINUOUS
 62
           3
100
AcDbLine
 10
3173.899997101564
 20
1388.276241719796
 11
3170.899996609867
 21
1388.276241719796
  0
LINE
  5
16A
100
AcDbEntity
  8
0
  6
CONTINUOUS
 62
           3
100
AcDbLine
 10
3168.399996665768
 20
1384.1999992729
 11
3170.899996609913
 21
1384.1999992729
  0
LINE
  5
169
100
AcDbEntity
  8
0
  6
CONTINUOUS
 62
           3
100
AcDbLine
 10
3160.899996833439
 20
1384.1999992729
 11
3163.399996777558
 21
1384.1999992729
  0
LINE
  5
168
100
AcDbEntity
  8
0
  6
CONTINUOUS
 62
           3
100
AcDbLine
 10
3170.899996609867
 20
1384.646579623302
 11
3170.899996609867
 21
1389.100000262195
  0
LINE
  5
167
100
AcDbEntity
  8
0
  6
CONTINUOUS
 62
           3
100
AcDbLine
 10
3160.899996833476
 20
1384.646579623302
 11
3160.899996833476
 21
1389.100000262195
  0
LINE
  5
166
100
AcDbEntity
  8
0
  6
CONTINUOUS
 62
           3
100
AcDbLine
 10
3160.899996833476
 20
1384.646579623302
 11
3163.399996777558
 21
1384.1999992729
  0
LINE
  5
165
100
AcDbEntity
  8
0
  6
CONTINUOUS
 62
           3
100
AcDbLine
 10
3165.899996721675
 20
1384.646579623295
 11
3165.899996721671
 21
1389.100000262195
  0
LINE
  5
164
100
AcDbEntity
  8
0
  6
CONTINUOUS
 62
           3
100
AcDbLine
 10
3163.399996777558
 20
1384.1999992729
 11
3168.399996665768
 21
1384.1999992729
  0
LINE
  5
163
100
AcDbEntity
  8
0
  6
CONTINUOUS
 62
           3
100
AcDbLine
 10
3165.899996721675
 20
1384.646579623295
 11
3168.399996665768
 21
1384.1999992729
  0
LINE
  5
162
100
AcDbEntity
  8
0
  6
CONTINUOUS
 62
           3
100
AcDbLine
 10
3162.399996613574
 20
1389.200001954996
 11
3169.399996829769
 21
1389.200001954996
  0
LINE
  5
161
100
AcDbEntity
  8
0
  6
CONTINUOUS
 62
           3
100
AcDbLine
 10
3162.399996613574
 20
1390.000000596097
 11
3169.399996829769
 21
1390.000000596097
  0
LINE
  5
160
100
AcDbEntity
  8
0
  6
CONTINUOUS
 62
           3
100
AcDbLine
 10
3169.399996829769
 20
1393.990144133492
 11
3162.399996613574
 21
1393.990144133492
  0
LINE
  5
15F
100
AcDbEntity
  8
0
  6
CONTINUOUS
 62
           3
100
AcDbLine
 10
3162.899996695574
 20
1392.246469855294
 11
3162.399996613574
 21
1392.246469855294
  0
LINE
  5
15E
100
AcDbEntity
  8
0
  6
CONTINUOUS
 62
           3
100
AcDbLine
 10
3169.399996829769
 20
1392.246469855294
 11
3168.899996747769
 21
1392.246469855294
  0
LINE
  5
15D
100
AcDbEntity
  8
0
  6
CONTINUOUS
 62
           3
100
AcDbLine
 10
3173.899997101564
 20
1394.799999892894
 11
3173.899997101564
 21
1389.200001954996
  0
LINE
  5
15C
100
AcDbEntity
  8
0
  6
CONTINUOUS
 62
           3
100
AcDbLine
 10
3157.899996341777
 20
1394.799999892894
 11
3157.899996341777
 21
1389.200001954996
  0
LINE
  5
15B
100
AcDbEntity
  8
0
  6
CONTINUOUS
 62
           3
100
AcDbLine
 10
3162.399996613574
 20
1389.200001954996
 11
3162.399996613574
 21
1394.799999892894
  0
LINE
  5
15A
100
AcDbEntity
  8
0
  6
CONTINUOUS
 62
           3
100
AcDbLine
 10
3169.399996829769
 20
1394.799999892894
 11
3169.399996829769
 21
1389.200001954996
  0
LINE
  5
159
100
AcDbEntity
  8
0
  6
CONTINUOUS
 62
           3
100
AcDbLine
 10
3162.399996613574
 20
1389.200001954996
 11
3157.899996341777
 21
1389.200001954996
  0
LINE
  5
158
100
AcDbEntity
  8
0
  6
CONTINUOUS
 62
           3
100
AcDbLine
 10
3162.399996613574
 20
1394.792847335491
 11
3169.399996829769
 21
1394.792847335491
  0
LINE
  5
157
100
AcDbEntity
  8
0
  6
CONTINUOUS
 62
           3
100
AcDbLine
 10
3173.899997101564
 20
1389.200001954996
 11
3169.399996829769
 21
1389.200001954996
  0
LINE
  5
156
100
AcDbEntity
  8
0
  6
CONTINUOUS
 62
           3
100
AcDbLine
 10
3167.89999681657
 20
1638.422653078993
 11
3163.899996626773
 21
1638.422653078993
  0
LINE
  5
155
100
AcDbEntity
  8
0
  6
CONTINUOUS
 62
           3
100
AcDbLine
 10
3162.899996695574
 20
1637.422651052293
 11
3168.899996747769
 21
1637.422651052293
  0
LINE
  5
154
100
AcDbEntity
  8
0
  6
CONTINUOUS
 62
           3
100
AcDbLine
 10
3111.899995321017
 20
1665.000006556369
 11
3115.899995976712
 21
1665.000006556369
  0
LINE
  5
153
100
AcDbEntity
  8
0
  6
CONTINUOUS
 62
           3
100
AcDbLine
 10
3115.899995976712
 20
1665.000006556369
 11
3119.89999663241
 21
1665.000006556369
  0
LINE
  5
152
100
AcDbEntity
  8
0
  6
CONTINUOUS
 62
           3
100
AcDbLine
 10
3161.569869687342
 20
1367.599993944256
 11
3160.899996833476
 21
1367.599993944114
  0
LINE
  5
151
100
AcDbEntity
  8
0
  6
CONTINUOUS
 62
           3
100
AcDbLine
 10
3170.899996609867
 20
1367.599993944114
 11
3170.23012375601
 21
1367.599993944256
  0
LINE
  5
150
100
AcDbEntity
  8
0
  6
CONTINUOUS
 62
           3
100
AcDbLine
 10
3161.569869687342
 20
1372.600004077041
 11
3160.899996833476
 21
1372.600004077009
  0
LINE
  5
14F
100
AcDbEntity
  8
0
  6
CONTINUOUS
 62
           3
100
AcDbLine
 10
3170.23012375601
 20
1367.599993944256
 11
3165.899996721675
 21
1367.599993944256
  0
LINE
  5
14E
100
AcDbEntity
  8
0
  6
CONTINUOUS
 62
           3
100
AcDbLine
 10
3165.899996721675
 20
1367.599993944256
 11
3161.569869687342
 21
1367.599993944256
  0
LINE
  5
14D
100
AcDbEntity
  8
0
  6
CONTINUOUS
 62
           3
100
AcDbLine
 10
3160.126493853975
 20
1372.153416276109
 11
3160.126493853975
 21
1368.046581745312
  0
LINE
  5
14C
100
AcDbEntity
  8
0
  6
CONTINUOUS
 62
           3
100
AcDbLine
 10
3160.126493853975
 20
1368.046581745312
 11
3161.569869687342
 21
1367.599993944256
  0
LINE
  5
14B
100
AcDbEntity
  8
0
  6
CONTINUOUS
 62
           3
100
AcDbLine
 10
3163.013245287844
 20
1372.153416276062
 11
3161.569869687342
 21
1372.600004077041
  0
LINE
  5
14A
100
AcDbEntity
  8
0
  6
CONTINUOUS
 62
           3
100
AcDbLine
 10
3168.786748155369
 20
1368.046581745312
 11
3170.23012375601
 21
1367.599993944256
  0
LINE
  5
149
100
AcDbEntity
  8
0
  6
CONTINUOUS
 62
           3
100
AcDbLine
 10
3171.673499589368
 20
1372.153416276109
 11
3171.673499589368
 21
1368.046581745312
  0
LINE
  5
148
100
AcDbEntity
  8
0
  6
CONTINUOUS
 62
           3
100
AcDbLine
 10
3171.673499589368
 20
1372.153416276109
 11
3170.23012375601
 21
1372.600004077041
  0
LINE
  5
147
100
AcDbEntity
  8
0
  6
CONTINUOUS
 62
           3
100
AcDbLine
 10
3163.013245287844
 20
1372.153416276062
 11
3163.013245287844
 21
1368.046581745235
  0
LINE
  5
146
100
AcDbEntity
  8
0
  6
CONTINUOUS
 62
           3
100
AcDbLine
 10
3168.786748155508
 20
1372.153416276062
 11
3168.786748155369
 21
1368.046581745312
  0
LINE
  5
145
100
AcDbEntity
  8
0
  6
CONTINUOUS
 62
           3
100
AcDbLine
 10
3170.899996609867
 20
1372.600004077009
 11
3170.23012375601
 21
1372.600004077041
  0
LINE
  5
144
100
AcDbEntity
  8
0
  6
CONTINUOUS
 62
           3
100
AcDbLine
 10
3170.899996609867
 20
1377.599999308604
 11
3170.23012375601
 21
1377.599999308666
  0
LINE
  5
143
100
AcDbEntity
  8
0
  6
CONTINUOUS
 62
           3
100
AcDbLine
 10
3161.569869687342
 20
1377.599999308666
 11
3160.899996833476
 21
1377.599999308604
  0
LINE
  5
142
100
AcDbEntity
  8
0
  6
CONTINUOUS
 62
           3
100
AcDbLine
 10
3165.899996721675
 20
1372.600004077041
 11
3161.569869687342
 21
1372.600004077041
  0
LINE
  5
141
100
AcDbEntity
  8
0
  6
CONTINUOUS
 62
           3
100
AcDbLine
 10
3170.23012375601
 20
1372.600004077041
 11
3165.899996721675
 21
1372.600004077041
  0
LINE
  5
140
100
AcDbEntity
  8
0
  6
CONTINUOUS
 62
           3
100
AcDbLine
 10
3165.899996721675
 20
1377.599999308666
 11
3161.569869687342
 21
1377.599999308666
  0
LINE
  5
13F
100
AcDbEntity
  8
0
  6
CONTINUOUS
 62
           3
100
AcDbLine
 10
3160.126493853975
 20
1377.153418958205
 11
3160.126493853975
 21
1373.046576976911
  0
LINE
  5
13E
100
AcDbEntity
  8
0
  6
CONTINUOUS
 62
           3
100
AcDbLine
 10
3160.126493853975
 20
1373.046576976911
 11
3161.569869687342
 21
1372.600004077041
  0
LINE
  5
13D
100
AcDbEntity
  8
0
  6
CONTINUOUS
 62
           3
100
AcDbLine
 10
3163.013245287844
 20
1377.153418958267
 11
3161.569869687342
 21
1377.599999308666
  0
LINE
  5
13C
100
AcDbEntity
  8
0
  6
CONTINUOUS
 62
           3
100
AcDbLine
 10
3170.23012375601
 20
1377.599999308666
 11
3165.899996721675
 21
1377.599999308666
  0
LINE
  5
13B
100
AcDbEntity
  8
0
  6
CONTINUOUS
 62
           3
100
AcDbLine
 10
3168.786748155369
 20
1373.046576976911
 11
3170.23012375601
 21
1372.600004077041
  0
LINE
  5
13A
100
AcDbEntity
  8
0
  6
CONTINUOUS
 62
           3
100
AcDbLine
 10
3171.673499589368
 20
1377.153418958205
 11
3171.673499589368
 21
1373.046576976911
  0
LINE
  5
139
100
AcDbEntity
  8
0
  6
CONTINUOUS
 62
           3
100
AcDbLine
 10
3171.673499589368
 20
1377.153418958205
 11
3170.23012375601
 21
1377.599999308666
  0
LINE
  5
138
100
AcDbEntity
  8
0
  6
CONTINUOUS
 62
           3
100
AcDbLine
 10
3163.013245287844
 20
1377.153418958267
 11
3163.013245287844
 21
1373.04657697686
  0
LINE
  5
137
100
AcDbEntity
  8
0
  6
CONTINUOUS
 62
           3
100
AcDbLine
 10
3168.786748155508
 20
1377.153418958267
 11
3168.786748155369
 21
1373.046576976911
  0
LINE
  5
136
100
AcDbEntity
  8
0
  6
CONTINUOUS
 62
           3
100
AcDbLine
 10
3160.126493853975
 20
1364.553421735916
 11
3160.126493853975
 21
1360.446587205122
  0
LINE
  5
135
100
AcDbEntity
  8
0
  6
CONTINUOUS
 62
           3
100
AcDbLine
 10
3160.126493853975
 20
1360.446587205122
 11
3161.569869687342
 21
1359.999999404048
  0
LINE
  5
134
100
AcDbEntity
  8
0
  6
CONTINUOUS
 62
           3
100
AcDbLine
 10
3163.013245287844
 20
1364.553421735858
 11
3161.569869687342
 21
1364.999994635673
  0
LINE
  5
133
100
AcDbEntity
  8
0
  6
CONTINUOUS
 62
           3
100
AcDbLine
 10
3168.786748155369
 20
1360.446587205122
 11
3170.230123755968
 21
1359.999999403921
  0
LINE
  5
132
100
AcDbEntity
  8
0
  6
CONTINUOUS
 62
           3
100
AcDbLine
 10
3171.673499589368
 20
1364.553421735916
 11
3171.673499589368
 21
1360.446587205122
  0
LINE
  5
131
100
AcDbEntity
  8
0
  6
CONTINUOUS
 62
           3
100
AcDbLine
 10
3171.673499589368
 20
1364.553421735916
 11
3170.23012375601
 21
1364.999994635673
  0
LINE
  5
130
100
AcDbEntity
  8
0
  6
CONTINUOUS
 62
           3
100
AcDbLine
 10
3163.013245287844
 20
1364.553421735858
 11
3163.013245287844
 21
1360.446587205024
  0
LINE
  5
12F
100
AcDbEntity
  8
0
  6
CONTINUOUS
 62
           3
100
AcDbLine
 10
3168.786748155508
 20
1364.553421735858
 11
3168.786748155369
 21
1360.446587205122
  0
LINE
  5
12E
100
AcDbEntity
  8
0
  6
CONTINUOUS
 62
           3
100
AcDbLine
 10
3160.899996833476
 20
1359.999999403921
 11
3161.569869687342
 21
1359.999999404048
  0
LINE
  5
12D
100
AcDbEntity
  8
0
  6
CONTINUOUS
 62
           3
100
AcDbLine
 10
3170.899996609867
 20
1355.000004172322
 11
3170.23012375601
 21
1355.00000417242
  0
LINE
  5
12C
100
AcDbEntity
  8
0
  6
CONTINUOUS
 62
           3
100
AcDbLine
 10
3160.899996833476
 20
1355.000004172322
 11
3161.569869687342
 21
1355.00000417242
  0
LINE
  5
12B
100
AcDbEntity
  8
0
  6
CONTINUOUS
 62
           3
100
AcDbLine
 10
3171.673499589368
 20
1355.446577072224
 11
3170.23012375601
 21
1355.00000417242
  0
LINE
  5
12A
100
AcDbEntity
  8
0
  6
CONTINUOUS
 62
           3
100
AcDbLine
 10
3171.673499589368
 20
1355.446577072224
 11
3171.673499589368
 21
1359.553411603021
  0
LINE
  5
129
100
AcDbEntity
  8
0
  6
CONTINUOUS
 62
           3
100
AcDbLine
 10
3160.126493853975
 20
1355.446577072224
 11
3160.126493853975
 21
1359.553411603021
  0
LINE
  5
128
100
AcDbEntity
  8
0
  6
CONTINUOUS
 62
           3
100
AcDbLine
 10
3165.899996721675
 20
1359.999999404048
 11
3170.230123755968
 21
1359.999999403921
  0
LINE
  5
127
100
AcDbEntity
  8
0
  6
CONTINUOUS
 62
           3
100
AcDbLine
 10
3168.786748155508
 20
1359.553411603069
 11
3170.230123755968
 21
1359.999999403921
  0
LINE
  5
126
100
AcDbEntity
  8
0
  6
CONTINUOUS
 62
           3
100
AcDbLine
 10
3161.569869687342
 20
1359.999999404048
 11
3165.899996721675
 21
1359.999999404048
  0
LINE
  5
125
100
AcDbEntity
  8
0
  6
CONTINUOUS
 62
           3
100
AcDbLine
 10
3161.569869687342
 20
1355.00000417242
 11
3165.899996721671
 21
1355.000004172322
  0
LINE
  5
124
100
AcDbEntity
  8
0
  6
CONTINUOUS
 62
           3
100
AcDbLine
 10
3165.899996721671
 20
1355.000004172322
 11
3170.23012375601
 21
1355.00000417242
  0
LINE
  5
123
100
AcDbEntity
  8
0
  6
CONTINUOUS
 62
           3
100
AcDbLine
 10
3163.013245287973
 20
1359.553411603021
 11
3165.899996721675
 21
1359.999999404048
  0
LINE
  5
122
100
AcDbEntity
  8
0
  6
CONTINUOUS
 62
           3
100
AcDbLine
 10
3163.013245287844
 20
1355.446577072242
 11
3163.013245287973
 21
1359.553411603021
  0
LINE
  5
121
100
AcDbEntity
  8
0
  6
CONTINUOUS
 62
           3
100
AcDbLine
 10
3168.786748155369
 20
1355.446577072224
 11
3165.899996721671
 21
1355.000004172322
  0
LINE
  5
120
100
AcDbEntity
  8
0
  6
CONTINUOUS
 62
           3
100
AcDbLine
 10
3168.786748155369
 20
1355.446577072224
 11
3168.786748155508
 21
1359.553411603069
  0
LINE
  5
11F
100
AcDbEntity
  8
0
  6
CONTINUOUS
 62
           3
100
AcDbLine
 10
3222.899996751325
 20
1393.799997866194
 11
3222.899996751325
 21
1543.800000101368
  0
LINE
  5
11E
100
AcDbEntity
  8
0
  6
CONTINUOUS
 62
           3
100
AcDbLine
 10
3111.899995321017
 20
1543.800000101368
 11
3108.899996692018
 21
1543.800000101368
  0
LINE
  5
11D
100
AcDbEntity
  8
0
  6
CONTINUOUS
 62
           3
100
AcDbLine
 10
3162.899996695574
 20
1543.800000101368
 11
3119.89999663241
 21
1543.800000101368
  0
LINE
  5
11C
100
AcDbEntity
  8
0
  6
CONTINUOUS
 62
           3
100
AcDbLine
 10
3211.899996810933
 20
1543.800000101368
 11
3168.899996747769
 21
1543.800000101368
  0
LINE
  5
11B
100
AcDbEntity
  8
0
  6
CONTINUOUS
 62
           3
100
AcDbLine
 10
3222.899996751325
 20
1543.800000101368
 11
3219.899998122328
 21
1543.800000101368
  0
LINE
  5
11A
100
AcDbEntity
  8
0
  6
CONTINUOUS
 62
           3
100
AcDbLine
 10
3108.899996692018
 20
1543.800000101368
 11
3108.899996692018
 21
1393.799997866194
  0
LINE
  5
119
100
AcDbEntity
  8
0
  6
CONTINUOUS
 62
           3
100
AcDbLine
 10
3219.899998122328
 20
1393.799997866194
 11
3222.899996751325
 21
1393.799997866194
  0
LINE
  5
118
100
AcDbEntity
  8
0
  6
CONTINUOUS
 62
           3
100
AcDbLine
 10
3173.899997101564
 20
1393.799997866194
 11
3211.899996810933
 21
1393.799997866194
  0
LINE
  5
117
100
AcDbEntity
  8
0
  6
CONTINUOUS
 62
           3
100
AcDbLine
 10
3119.89999663241
 20
1393.799997866194
 11
3157.899996341777
 21
1393.799997866194
  0
LINE
  5
116
100
AcDbEntity
  8
0
  6
CONTINUOUS
 62
           3
100
AcDbLine
 10
3108.899996692018
 20
1393.799997866194
 11
3111.899995321017
 21
1393.799997866194
  0
LINE
  5
115
100
AcDbEntity
  8
0
  6
CONTINUOUS
 62
           3
100
AcDbLine
 10
3159.426494029876
 20
1389.099999999995
 11
3172.373499413467
 21
1389.099999999995
  0
LINE
  5
114
100
AcDbEntity
  8
0
  6
CONTINUOUS
 62
           3
100
AcDbLine
 10
3173.899997101564
 20
1394.799999892894
 11
3169.399996829769
 21
1394.799999892894
  0
LINE
  5
113
100
AcDbEntity
  8
0
  6
CONTINUOUS
 62
           3
100
AcDbLine
 10
3162.399996613574
 20
1394.799999892894
 11
3157.899996341777
 21
1394.799999892894
  0
LINE
  5
112
100
AcDbEntity
  8
0
  6
CONTINUOUS
 62
           3
100
AcDbLine
 10
3163.899996626773
 20
1638.422653078993
 11
3162.899996695574
 21
1637.422651052293
  0
LINE
  5
111
100
AcDbEntity
  8
0
  6
CONTINUOUS
 62
           3
100
AcDbLine
 10
3168.899996747769
 20
1637.422651052293
 11
3167.89999681657
 21
1638.422653078993
  0
LINE
  5
110
100
AcDbEntity
  8
0
  6
CONTINUOUS
 62
           3
100
AcDbLine
 10
3162.899996695574
 20
1367.599993944114
 11
3162.899996695574
 21
1366.600006818713
  0
LINE
  5
10F
100
AcDbEntity
  8
0
  6
CONTINUOUS
 62
           3
100
AcDbLine
 10
3162.899996695574
 20
1384.1999992729
 11
3162.899996695574
 21
1377.599999308604
  0
LINE
  5
10E
100
AcDbEntity
  8
0
  6
CONTINUOUS
 62
           3
100
AcDbLine
 10
3162.899996695574
 20
1392.957426607594
 11
3162.899996695574
 21
1390.000000596097
  0
LINE
  5
10D
100
AcDbEntity
  8
0
  6
CONTINUOUS
 62
           3
100
AcDbLine
 10
3162.899996695574
 20
1633.399993180996
 11
3162.899996695574
 21
1394.792847335491
  0
LINE
  5
10C
100
AcDbEntity
  8
0
  6
CONTINUOUS
 62
           3
100
AcDbLine
 10
3162.899996695574
 20
1637.422651052293
 11
3162.899996695574
 21
1635.000005364196
  0
LINE
  5
10B
100
AcDbEntity
  8
0
  6
CONTINUOUS
 62
           3
100
AcDbLine
 10
3168.899996747769
 20
1635.000005364196
 11
3168.899996747769
 21
1637.422651052293
  0
LINE
  5
10A
100
AcDbEntity
  8
0
  6
CONTINUOUS
 62
           3
100
AcDbLine
 10
3168.899996747769
 20
1394.792847335491
 11
3168.899996747769
 21
1633.399993180996
  0
LINE
  5
109
100
AcDbEntity
  8
0
  6
CONTINUOUS
 62
           3
100
AcDbLine
 10
3168.899996747769
 20
1390.000000596097
 11
3168.899996747769
 21
1392.957426607594
  0
LINE
  5
108
100
AcDbEntity
  8
0
  6
CONTINUOUS
 62
           3
100
AcDbLine
 10
3168.899996747769
 20
1377.599999308604
 11
3168.899996747769
 21
1384.1999992729
  0
LINE
  5
107
100
AcDbEntity
  8
0
  6
CONTINUOUS
 62
           3
100
AcDbLine
 10
3168.899996747769
 20
1366.600006818713
 11
3168.899996747769
 21
1367.599993944114
  0
LINE
  5
106
100
AcDbEntity
  8
0
  6
CONTINUOUS
 62
           3
100
AcDbLine
 10
3119.89999663241
 20
1635.000005364196
 11
3119.89999663241
 21
1665.000006556369
  0
LINE
  5
105
100
AcDbEntity
  8
0
  6
CONTINUOUS
 62
           3
100
AcDbLine
 10
3119.89999663241
 20
1550.000000744964
 11
3119.89999663241
 21
1633.399993180996
  0
LINE
  5
104
100
AcDbEntity
  8
0
  6
CONTINUOUS
 62
           3
100
AcDbLine
 10
3119.89999663241
 20
1391.199998557593
 11
3119.89999663241
 21
1548.799999058065
  0
LINE
  5
103
100
AcDbEntity
  8
0
  6
CONTINUOUS
 62
           3
100
AcDbLine
 10
3119.89999663241
 20
1366.600006818713
 11
3119.89999663241
 21
1390.000000596097
  0
LINE
  5
102
100
AcDbEntity
  8
0
  6
CONTINUOUS
 62
           3
100
AcDbLine
 10
3111.899995321017
 20
1364.999994635815
 11
3111.899995321017
 21
1314.999997615956
  0
LINE
  5
101
100
AcDbEntity
  8
0
  6
CONTINUOUS
 62
           3
100
AcDbLine
 10
3111.899995321017
 20
1390.000000596097
 11
3111.899995321017
 21
1366.600006818713
  0
LINE
  5
100
100
AcDbEntity
  8
0
  6
CONTINUOUS
 62
           3
100
AcDbLine
 10
3111.899995321017
 20
1548.799999058065
 11
3111.899995321017
 21
1391.199998557593
  0
LINE
  5
FF
100
AcDbEntity
  8
0
  6
CONTINUOUS
 62
           3
100
AcDbLine
 10
3111.899995321017
 20
1633.399993180996
 11
3111.899995321017
 21
1550.000000744964
  0
LINE
  5
FE
100
AcDbEntity
  8
0
  6
CONTINUOUS
 62
           3
100
AcDbLine
 10
3111.899995321017
 20
1665.000006556369
 11
3111.899995321017
 21
1635.000005364196
  0
LINE
  5
FD
100
AcDbEntity
  8
0
  6
CONTINUOUS
 62
           3
100
AcDbLine
 10
3219.899998122328
 20
1635.000005364196
 11
3219.899998122328
 21
1641.000000000001
  0
LINE
  5
FC
100
AcDbEntity
  8
0
  6
CONTINUOUS
 62
           3
100
AcDbLine
 10
3219.899998122328
 20
1550.000000744964
 11
3219.899998122328
 21
1633.399993180996
  0
LINE
  5
FB
100
AcDbEntity
  8
0
  6
CONTINUOUS
 62
           3
100
AcDbLine
 10
3219.899998122328
 20
1391.199998557593
 11
3219.899998122328
 21
1548.799999058065
  0
LINE
  5
FA
100
AcDbEntity
  8
0
  6
CONTINUOUS
 62
           3
100
AcDbLine
 10
3219.899998122328
 20
1366.600006818713
 11
3219.899998122328
 21
1390.000000596097
  0
LINE
  5
F9
100
AcDbEntity
  8
0
  6
CONTINUOUS
 62
           3
100
AcDbLine
 10
3219.899998122328
 20
1314.999997615956
 11
3219.899998122328
 21
1364.999994635815
  0
LINE
  5
F8
100
AcDbEntity
  8
0
  6
CONTINUOUS
 62
           3
100
AcDbLine
 10
3211.899996810933
 20
1364.999994635815
 11
3211.899996810933
 21
1314.999997615956
  0
LINE
  5
F7
100
AcDbEntity
  8
0
  6
CONTINUOUS
 62
           3
100
AcDbLine
 10
3211.899996810933
 20
1390.000000596097
 11
3211.899996810933
 21
1366.600006818713
  0
LINE
  5
F6
100
AcDbEntity
  8
0
  6
CONTINUOUS
 62
           3
100
AcDbLine
 10
3211.899996810933
 20
1548.799999058065
 11
3211.899996810933
 21
1391.199998557593
  0
LINE
  5
F5
100
AcDbEntity
  8
0
  6
CONTINUOUS
 62
           3
100
AcDbLine
 10
3211.899996810933
 20
1633.399993180996
 11
3211.899996810933
 21
1550.000000744964
  0
LINE
  5
F4
100
AcDbEntity
  8
0
  6
CONTINUOUS
 62
           3
100
AcDbLine
 10
3211.899996810933
 20
1641.0
 11
3211.899996810933
 21
1635.000005364196
  0
LINE
  5
F3
100
AcDbEntity
  8
0
  6
CONTINUOUS
 62
           3
100
AcDbLine
 10
3160.126493853975
 20
1368.046581745312
 11
3160.899996833476
 21
1367.599993944114
  0
LINE
  5
F2
100
AcDbEntity
  8
0
  6
CONTINUOUS
 62
           3
100
AcDbLine
 10
3170.899996609867
 20
1367.599993944114
 11
3171.673499589368
 21
1368.046581745312
  0
LINE
  5
F1
100
AcDbEntity
  8
0
  6
CONTINUOUS
 62
           3
100
AcDbLine
 10
3171.673499589368
 20
1372.153416276109
 11
3170.899996609867
 21
1372.600004077009
  0
LINE
  5
F0
100
AcDbEntity
  8
0
  6
CONTINUOUS
 62
           3
100
AcDbLine
 10
3160.899996833476
 20
1372.600004077009
 11
3160.126493853975
 21
1372.153416276109
  0
LINE
  5
EF
100
AcDbEntity
  8
0
  6
CONTINUOUS
 62
           3
100
AcDbLine
 10
3160.126493853975
 20
1373.046576976911
 11
3160.899996833476
 21
1372.600004077009
  0
LINE
  5
EE
100
AcDbEntity
  8
0
  6
CONTINUOUS
 62
           3
100
AcDbLine
 10
3170.899996609867
 20
1372.600004077009
 11
3171.673499589368
 21
1373.046576976911
  0
LINE
  5
ED
100
AcDbEntity
  8
0
  6
CONTINUOUS
 62
           3
100
AcDbLine
 10
3171.673499589368
 20
1377.153418958205
 11
3170.899996609867
 21
1377.599999308604
  0
LINE
  5
EC
100
AcDbEntity
  8
0
  6
CONTINUOUS
 62
           3
100
AcDbLine
 10
3160.899996833476
 20
1377.599999308604
 11
3160.126493853975
 21
1377.153418958205
  0
LINE
  5
EB
100
AcDbEntity
  8
0
  6
CONTINUOUS
 62
           3
100
AcDbLine
 10
3160.126493853975
 20
1360.446587205122
 11
3160.899996833476
 21
1359.999999403921
  0
LINE
  5
EA
100
AcDbEntity
  8
0
  6
CONTINUOUS
 62
           3
100
AcDbLine
 10
3170.899996609867
 20
1359.999999403921
 11
3171.673499589368
 21
1360.446587205122
  0
LINE
  5
E9
100
AcDbEntity
  8
0
  6
CONTINUOUS
 62
           3
100
AcDbLine
 10
3171.673499589368
 20
1364.553421735916
 11
3170.899996609867
 21
1364.999994635815
  0
LINE
  5
E8
100
AcDbEntity
  8
0
  6
CONTINUOUS
 62
           3
100
AcDbLine
 10
3160.899996833476
 20
1364.999994635815
 11
3160.126493853975
 21
1364.553421735916
  0
LINE
  5
E7
100
AcDbEntity
  8
0
  6
CONTINUOUS
 62
           3
100
AcDbLine
 10
3171.673499589368
 20
1359.553411603021
 11
3170.899996609867
 21
1359.999999403921
  0
LINE
  5
E6
100
AcDbEntity
  8
0
  6
CONTINUOUS
 62
           3
100
AcDbLine
 10
3160.899996833476
 20
1359.999999403921
 11
3160.126493853975
 21
1359.553411603021
  0
LINE
  5
E5
100
AcDbEntity
  8
0
  6
CONTINUOUS
 62
           3
100
AcDbLine
 10
3170.899996609867
 20
1355.000004172322
 11
3171.673499589368
 21
1355.446577072224
  0
LINE
  5
E4
100
AcDbEntity
  8
0
  6
CONTINUOUS
 62
           3
100
AcDbLine
 10
3160.126493853975
 20
1355.446577072224
 11
3160.899996833476
 21
1355.000004172322
  0
LINE
  5
E3
100
AcDbEntity
  8
0
  6
CONTINUOUS
 62
           3
100
AcDbLine
 10
3119.89999663241
 20
1314.999997615956
 11
3119.89999663241
 21
1364.999994635815
  0
LINE
  5
E2
100
AcDbEntity
  8
1
  6
CONTINUOUS
 62
           3
100
AcDbLine
 10
3647.500000000004
 20
1929.0
 11
3499.899996810933
 21
1929.0
  0
LINE
  5
E1
100
AcDbEntity
  8
1
  6
CONTINUOUS
 62
           3
100
AcDbLine
 10
3647.500000000004
 20
1921.000000000001
 11
3499.899998122328
 21
1921.000000000001
  0
LINE
  5
E0
100
AcDbEntity
  8
1
  6
CONTINUOUS
 62
           3
100
AcDbLine
 10
514.395796321874
 20
1294.328109327063
 11
512.007850321893
 21
1267.070985327062
  0
LINE
  5
DF
100
AcDbEntity
  8
1
  6
CONTINUOUS
 62
           3
100
AcDbLine
 10
512.007850321893
 20
1323.330711327063
 11
514.395796321874
 21
1296.073587327063
  0
LINE
  5
DE
100
AcDbEntity
  8
1
  6
CONTINUOUS
 62
           3
100
AcDbLine
 10
502.548714321874
 20
1294.328109327063
 11
504.936660321884
 21
1267.070985327062
  0
LINE
  5
DD
100
AcDbEntity
  8
1
  6
CONTINUOUS
 62
           3
100
AcDbLine
 10
504.936660321884
 20
1323.330711327063
 11
502.548714321874
 21
1296.073587327063
  0
LINE
  5
DC
100
AcDbEntity
  8
1
  6
DOT_CENTER
 62
           3
100
AcDbLine
 10
553.472255321877
 20
1295.200848327053
 11
463.474800321873
 21
1295.200848327053
  0
LINE
  5
DB
100
AcDbEntity
  8
1
  6
DOT_CENTER
 62
           3
100
AcDbLine
 10
508.472255321878
 20
1340.200848327053
 11
508.472255321878
 21
1250.202277327053
  0
LINE
  5
DA
100
AcDbEntity
  8
1
  6
CONTINUOUS
 62
           7
100
AcDbLine
 10
2980.000000000005
 20
1640.0
 11
2800.000000000004
 21
1639.999999999999
  0
LINE
  5
D9
100
AcDbEntity
  8
1
  6
CONTINUOUS
 62
           7
100
AcDbLine
 10
2800.000000000005
 20
1753.0
 11
2980.000000000005
 21
1753.0
  0
LINE
  5
D8
100
AcDbEntity
  8
1
  6
CONTINUOUS
 62
           7
100
AcDbLine
 10
2980.000000000005
 20
1753.0
 11
2980.000000000005
 21
1640.0
  0
LINE
  5
D7
100
AcDbEntity
  8
1
  6
CONTINUOUS
 62
           7
100
AcDbLine
 10
2800.000000000004
 20
1639.999999999999
 11
2800.000000000005
 21
1753.0
  0
LINE
  5
D6
100
AcDbEntity
  8
1
  6
CONTINUOUS
 62
           7
100
AcDbLine
 10
-569.497691536609
 20
986.513526798368
 11
575.0
 21
986.513526798368
  0
LINE
  5
D5
100
AcDbEntity
  8
1
  6
CONTINUOUS
 62
           4
100
AcDbLine
 10
3270.000000000005
 20
1800.831132334586
 11
3270.000000000004
 21
520.0
  0
LINE
  5
D4
100
AcDbEntity
  8
1
  6
CONTINUOUS
 62
           7
100
AcDbLine
 10
3250.000000000005
 20
1784.157226830845
 11
3250.000000000004
 21
2000.0
  0
LINE
  5
D3
100
AcDbEntity
  8
1
  6
CONTINUOUS
 62
           4
100
AcDbLine
 10
3230.000000000005
 20
1741.488764155307
 11
3230.000000000004
 21
1980.0
  0
LINE
  5
D2
100
AcDbEntity
  8
1
  6
CONTINUOUS
 62
           4
100
AcDbLine
 10
3270.000000000004
 20
1980.0
 11
3270.000000000005
 21
1814.464669216343
  0
LINE
  5
D1
100
AcDbEntity
  8
1
  6
CONTINUOUS
 62
           4
100
AcDbLine
 10
3230.000000000004
 20
520.0
 11
3230.000000000005
 21
1715.525103244275
  0
LINE
  5
D0
100
AcDbEntity
  8
1
  6
CONTINUOUS
 62
           7
100
AcDbLine
 10
3250.000000000004
 20
500.0
 11
3250.000000000005
 21
1767.293273528177
  0
LINE
  5
CF
100
AcDbEntity
  8
___S__
  6
DOT_CENTER
 62
           3
100
AcDbLine
 10
-574.999999999999
 20
1067.063266596461
 11
-575.000000000001
 21
982.067556365336
  0
LINE
  5
CE
100
AcDbEntity
  8
____
  6
CONTINUOUS
 62
           3
100
AcDbLine
 10
-569.59594704488
 20
1060.459504816179
 11
-569.59594704488
 21
1058.581574068057
  0
LINE
  5
CD
100
AcDbEntity
  8
____
  6
CONTINUOUS
 62
           3
100
AcDbLine
 10
-579.912775413744
 20
1060.92898750321
 11
-570.087224586255
 21
1060.92898750321
  0
LINE
  5
CC
100
AcDbEntity
  8
____
  6
CONTINUOUS
 62
           3
100
AcDbLine
 10
-580.404052955118
 20
1058.581574068057
 11
-580.404052955118
 21
1060.459504816179
  0
LINE
  5
CB
100
AcDbEntity
  8
____
  6
CONTINUOUS
 62
           3
100
AcDbLine
 10
-569.497691536608
 20
1022.900889853723
 11
-580.502308463384
 21
1022.900889853724
  0
LINE
  5
CA
100
AcDbEntity
  8
____
  6
CONTINUOUS
 62
           3
100
AcDbLine
 10
-569.497691536607
 20
1058.581574068057
 11
-569.497691536608
 21
1022.900889853723
  0
LINE
  5
C9
100
AcDbEntity
  8
____
  6
CONTINUOUS
 62
           3
100
AcDbLine
 10
-580.502308463383
 20
1058.581574068057
 11
-569.497691536607
 21
1058.581574068057
  0
LINE
  5
C8
100
AcDbEntity
  8
____
  6
CONTINUOUS
 62
           3
100
AcDbLine
 10
-580.502308463384
 20
1022.900889853724
 11
-580.502308463383
 21
1058.581574068057
  0
LINE
  5
C7
100
AcDbEntity
  8
____
  6
CONTINUOUS
 62
           3
100
AcDbLine
 10
-580.40405295512
 20
984.403309517207
 11
-580.40405295512
 21
986.28124026533
  0
LINE
  5
C6
100
AcDbEntity
  8
____
  6
CONTINUOUS
 62
           3
100
AcDbLine
 10
-570.087224586257
 20
983.933826830176
 11
-579.912775413746
 21
983.933826830176
  0
LINE
  5
C5
100
AcDbEntity
  8
____
  6
CONTINUOUS
 62
           3
100
AcDbLine
 10
-569.595947044882
 20
986.28124026533
 11
-569.595947044882
 21
984.403309517207
  0
LINE
  5
C4
100
AcDbEntity
  8
____
  6
CONTINUOUS
 62
           3
100
AcDbLine
 10
-580.158414184432
 20
1022.900889853724
 11
-580.158414184432
 21
1021.961924479662
  0
LINE
  5
C3
100
AcDbEntity
  8
____
  6
CONTINUOUS
 62
           3
100
AcDbLine
 10
-569.841585815569
 20
1022.900889853723
 11
-580.158414184432
 21
1022.900889853724
  0
LINE
  5
C2
100
AcDbEntity
  8
____
  6
CONTINUOUS
 62
           3
100
AcDbLine
 10
-569.841585815569
 20
1021.961924479662
 11
-569.841585815569
 21
1022.900889853723
  0
LINE
  5
C1
100
AcDbEntity
  8
____
  6
CONTINUOUS
 62
           3
100
AcDbLine
 10
-580.404052955118
 20
1060.459504816179
 11
-569.59594704488
 21
1060.459504816179
  0
LINE
  5
C0
100
AcDbEntity
  8
____
  6
CONTINUOUS
 62
           3
100
AcDbLine
 10
-580.502308463384
 20
1021.961924479662
 11
-569.497691536608
 21
1021.961924479662
  0
LINE
  5
BF
100
AcDbEntity
  8
____
  6
CONTINUOUS
 62
           3
100
AcDbLine
 10
-580.502308463385
 20
986.28124026533
 11
-580.502308463384
 21
1021.961924479662
  0
LINE
  5
BE
100
AcDbEntity
  8
____
  6
CONTINUOUS
 62
           3
100
AcDbLine
 10
-569.497691536609
 20
986.28124026533
 11
-580.502308463385
 21
986.28124026533
  0
LINE
  5
BD
100
AcDbEntity
  8
____
  6
CONTINUOUS
 62
           3
100
AcDbLine
 10
-569.497691536608
 20
1021.961924479662
 11
-569.497691536609
 21
986.28124026533
  0
LINE
  5
BC
100
AcDbEntity
  8
____
  6
CONTINUOUS
 62
           3
100
AcDbLine
 10
-580.404052955118
 20
1060.459504816179
 11
-579.912775413744
 21
1060.92898750321
  0
LINE
  5
BB
100
AcDbEntity
  8
____
  6
CONTINUOUS
 62
           3
100
AcDbLine
 10
-570.087224586255
 20
1060.92898750321
 11
-569.59594704488
 21
1060.459504816179
  0
LINE
  5
BA
100
AcDbEntity
  8
____
  6
CONTINUOUS
 62
           3
100
AcDbLine
 10
-579.912775413746
 20
983.933826830176
 11
-580.40405295512
 21
984.403309517207
  0
LINE
  5
B9
100
AcDbEntity
  8
____
  6
CONTINUOUS
 62
           3
100
AcDbLine
 10
-569.595947044882
 20
984.403309517207
 11
-570.087224586257
 21
983.933826830176
  0
LINE
  5
B8
100
AcDbEntity
  8
____
  6
CONTINUOUS
 62
           3
100
AcDbLine
 10
-580.40405295512
 20
984.403309517207
 11
-569.595947044882
 21
984.403309517207
  0
LINE
  5
B7
100
AcDbEntity
  8
____
  6
CONTINUOUS
 62
           3
100
AcDbLine
 10
-580.404052955096
 20
1538.39288020726
 11
-569.595947044858
 21
1538.39288020726
  0
LINE
  5
B6
100
AcDbEntity
  8
____
  6
CONTINUOUS
 62
           3
100
AcDbLine
 10
-569.595947044858
 20
1538.39288020726
 11
-570.087224586232
 21
1537.923397520231
  0
LINE
  5
B5
100
AcDbEntity
  8
____
  6
CONTINUOUS
 62
           3
100
AcDbLine
 10
-579.912775413721
 20
1537.923397520231
 11
-580.404052955096
 21
1538.39288020726
  0
LINE
  5
B4
100
AcDbEntity
  8
____
  6
CONTINUOUS
 62
           3
100
AcDbLine
 10
-570.087224586231
 20
1614.918558193264
 11
-569.595947044857
 21
1614.449075506232
  0
LINE
  5
B3
100
AcDbEntity
  8
____
  6
CONTINUOUS
 62
           3
100
AcDbLine
 10
-580.404052955095
 20
1614.449075506232
 11
-579.91277541372
 21
1614.918558193264
  0
LINE
  5
B2
100
AcDbEntity
  8
____
  6
CONTINUOUS
 62
           3
100
AcDbLine
 10
-569.497691536592
 20
1575.951495169716
 11
-569.497691536592
 21
1540.270810955383
  0
LINE
  5
B1
100
AcDbEntity
  8
____
  6
CONTINUOUS
 62
           3
100
AcDbLine
 10
-569.497691536592
 20
1540.270810955383
 11
-580.502308463369
 21
1540.270810955383
  0
LINE
  5
B0
100
AcDbEntity
  8
____
  6
CONTINUOUS
 62
           3
100
AcDbLine
 10
-580.502308463369
 20
1540.270810955383
 11
-580.502308463369
 21
1575.951495169716
  0
LINE
  5
AF
100
AcDbEntity
  8
____
  6
CONTINUOUS
 62
           3
100
AcDbLine
 10
-580.502308463369
 20
1575.951495169716
 11
-569.497691536592
 21
1575.951495169716
  0
LINE
  5
AE
100
AcDbEntity
  8
____
  6
CONTINUOUS
 62
           3
100
AcDbLine
 10
-580.404052955095
 20
1614.449075506232
 11
-569.595947044857
 21
1614.449075506232
  0
LINE
  5
AD
100
AcDbEntity
  8
____
  6
CONTINUOUS
 62
           3
100
AcDbLine
 10
-569.841585815545
 20
1575.951495169716
 11
-569.841585815545
 21
1576.890460543778
  0
LINE
  5
AC
100
AcDbEntity
  8
____
  6
CONTINUOUS
 62
           3
100
AcDbLine
 10
-569.841585815545
 20
1576.890460543778
 11
-580.158414184408
 21
1576.890460543778
  0
LINE
  5
AB
100
AcDbEntity
  8
____
  6
CONTINUOUS
 62
           3
100
AcDbLine
 10
-580.158414184408
 20
1576.890460543778
 11
-580.158414184408
 21
1575.951495169716
  0
LINE
  5
AA
100
AcDbEntity
  8
____
  6
CONTINUOUS
 62
           3
100
AcDbLine
 10
-569.595947044858
 20
1540.270810955383
 11
-569.595947044858
 21
1538.39288020726
  0
LINE
  5
A9
100
AcDbEntity
  8
____
  6
CONTINUOUS
 62
           3
100
AcDbLine
 10
-570.087224586232
 20
1537.923397520231
 11
-579.912775413721
 21
1537.923397520231
  0
LINE
  5
A8
100
AcDbEntity
  8
____
  6
CONTINUOUS
 62
           3
100
AcDbLine
 10
-580.404052955096
 20
1538.39288020726
 11
-580.404052955096
 21
1540.270810955383
  0
LINE
  5
A7
100
AcDbEntity
  8
____
  6
CONTINUOUS
 62
           3
100
AcDbLine
 10
-580.502308463369
 20
1576.890460543778
 11
-580.502308463368
 21
1612.57114475811
  0
LINE
  5
A6
100
AcDbEntity
  8
____
  6
CONTINUOUS
 62
           3
100
AcDbLine
 10
-580.502308463368
 20
1612.57114475811
 11
-569.497691536591
 21
1612.571144758109
  0
LINE
  5
A5
100
AcDbEntity
  8
____
  6
CONTINUOUS
 62
           3
100
AcDbLine
 10
-569.497691536591
 20
1612.571144758109
 11
-569.497691536592
 21
1576.890460543778
  0
LINE
  5
A4
100
AcDbEntity
  8
____
  6
CONTINUOUS
 62
           3
100
AcDbLine
 10
-569.497691536592
 20
1576.890460543778
 11
-580.502308463369
 21
1576.890460543778
  0
LINE
  5
A3
100
AcDbEntity
  8
____
  6
CONTINUOUS
 62
           3
100
AcDbLine
 10
-580.404052955095
 20
1612.57114475811
 11
-580.404052955095
 21
1614.449075506232
  0
LINE
  5
A2
100
AcDbEntity
  8
____
  6
CONTINUOUS
 62
           3
100
AcDbLine
 10
-579.91277541372
 20
1614.918558193264
 11
-570.087224586231
 21
1614.918558193264
  0
LINE
  5
A1
100
AcDbEntity
  8
____
  6
CONTINUOUS
 62
           3
100
AcDbLine
 10
-569.595947044857
 20
1614.449075506232
 11
-569.595947044857
 21
1612.571144758109
  0
LINE
  5
A0
100
AcDbEntity
  8
___S__
  6
DOT_CENTER
 62
           3
100
AcDbLine
 10
-574.999999999976
 20
1621.052837286498
 11
-574.999999999977
 21
1536.05712705539
  0
LINE
  5
9F
100
AcDbEntity
  8
1
  6
CONTINUOUS
 62
           7
100
AcDbLine
 10
-575.0
 20
941.513526798368
 11
575.0
 21
941.513526798368
  0
LINE
  5
9E
100
AcDbEntity
  8
1
  6
CONTINUOUS
 62
           7
100
AcDbLine
 10
575.0
 20
941.513526798368
 11
575.0
 21
1646.282992387803
  0
LINE
  5
9D
100
AcDbEntity
  8
1
  6
CONTINUOUS
 62
           7
100
AcDbLine
 10
-575.0
 20
941.513526798368
 11
-575.0
 21
1646.282992387803
  0
LINE
  5
9C
100
AcDbEntity
  8
1
  6
CONTINUOUS
 62
           7
100
AcDbLine
 10
575.0
 20
1646.282992387803
 11
-575.0
 21
1646.282992387803
  0
LINE
  5
9B
100
AcDbEntity
  8
1
  6
CONTINUOUS
 62
           7
100
AcDbLine
 10
750.0
 20
1763.744569986044
 11
-750.0
 21
1763.744569986044
  0
LINE
  5
9A
100
AcDbEntity
  8
1
  6
CONTINUOUS
 62
           7
100
AcDbLine
 10
960.000000000001
 20
3925.700729927
 11
800.000000000001
 21
3925.700729927
  0
LINE
  5
99
100
AcDbEntity
  8
1
  6
CONTINUOUS
 62
           7
100
AcDbLine
 10
960.000000000001
 20
4125.700729927
 11
960.000000000001
 21
3925.700729927
  0
LINE
  5
98
100
AcDbEntity
  8
1
  6
CONTINUOUS
 62
           7
100
AcDbLine
 10
800.000000000001
 20
4125.700729927
 11
960.000000000001
 21
4125.700729927
  0
LINE
  5
97
100
AcDbEntity
  8
1
  6
CONTINUOUS
 62
           7
100
AcDbLine
 10
960.000000000001
 20
1300.000000000002
 11
800.000000000001
 21
1300.000000000002
  0
LINE
  5
96
100
AcDbEntity
  8
1
  6
CONTINUOUS
 62
           7
100
AcDbLine
 10
960.000000000001
 20
1700.000000000002
 11
960.000000000001
 21
1300.000000000002
  0
LINE
  5
95
100
AcDbEntity
  8
1
  6
CONTINUOUS
 62
           7
100
AcDbLine
 10
800.000000000001
 20
1700.000000000002
 11
960.000000000001
 21
1700.000000000002
  0
LINE
  5
94
100
AcDbEntity
  8
1
  6
CONTINUOUS
 62
           4
100
AcDbLine
 10
2700.000000000004
 20
1700.000000000002
 11
2730.000000000004
 21
1700.000000000002
  0
LINE
  5
93
100
AcDbEntity
  8
1
  6
CONTINUOUS
 62
           4
100
AcDbLine
 10
2700.000000000004
 20
1300.000000000002
 11
2730.000000000004
 21
1300.000000000002
  0
LINE
  5
92
100
AcDbEntity
  8
1
  6
CONTINUOUS
 62
           7
100
AcDbLine
 10
2500.000000000004
 20
1700.000000000002
 11
2500.000000000004
 21
1300.000000000002
  0
LINE
  5
91
100
AcDbEntity
  8
1
  6
CONTINUOUS
 62
           7
100
AcDbLine
 10
2700.000000000004
 20
1700.000000000002
 11
2500.000000000004
 21
1700.000000000002
  0
LINE
  5
90
100
AcDbEntity
  8
1
  6
CONTINUOUS
 62
           7
100
AcDbLine
 10
2700.000000000004
 20
1300.000000000002
 11
2700.000000000004
 21
1700.000000000002
  0
LINE
  5
8F
100
AcDbEntity
  8
1
  6
CONTINUOUS
 62
           7
100
AcDbLine
 10
2500.000000000004
 20
1300.000000000002
 11
2700.000000000004
 21
1300.000000000002
  0
LINE
  5
8E
100
AcDbEntity
  8
1
  6
CONTINUOUS
 62
           4
100
AcDbLine
 10
-780.0
 20
5655.700729927
 11
-579.000000000002
 21
5655.700729927002
  0
LINE
  5
8D
100
AcDbEntity
  8
1
  6
CONTINUOUS
 62
           4
100
AcDbLine
 10
790.0
 20
4175.700729927
 11
790.000000000001
 21
3695.700729927
  0
LINE
  5
8C
100
AcDbEntity
  8
1
  6
CONTINUOUS
 62
           4
100
AcDbLine
 10
753.0
 20
4175.700729927
 11
753.000000000001
 21
3695.700729927
  0
LINE
  5
8B
100
AcDbEntity
  8
1
  6
CONTINUOUS
 62
           4
100
AcDbLine
 10
-753.0
 20
4175.700729927
 11
-753.0
 21
3695.700729927
  0
LINE
  5
8A
100
AcDbEntity
  8
1
  6
CONTINUOUS
 62
           4
100
AcDbLine
 10
-790.0
 20
4175.700729927
 11
-790.0
 21
3695.700729927
  0
LINE
  5
89
100
AcDbEntity
  8
1
  6
CONTINUOUS
 62
           7
100
AcDbLine
 10
1300.0
 20
0.0
 11
-1300.0
 21
0.0
  0
LINE
  5
88
100
AcDbEntity
  8
1
  6
CONTINUOUS
 62
           7
100
AcDbLine
 10
-500.0
 20
4675.700729927
 11
-500.0
 21
5052.47748518662
  0
LINE
  5
87
100
AcDbEntity
  8
1
  6
CONTINUOUS
 62
           4
100
AcDbLine
 10
-520.0
 20
4695.700729927
 11
-520.0
 21
5087.677693546745
  0
LINE
  5
86
100
AcDbEntity
  8
1
  6
CONTINUOUS
 62
           7
100
AcDbLine
 10
500.0
 20
4675.700729927
 11
500.0
 21
5675.700729927
  0
LINE
  5
85
100
AcDbEntity
  8
1
  6
CONTINUOUS
 62
           4
100
AcDbLine
 10
520.0
 20
5655.700729927
 11
520.0
 21
4695.700729927
  0
LINE
  5
84
100
AcDbEntity
  8
1
  6
CONTINUOUS
 62
           7
100
AcDbLine
 10
735.0
 20
540.0
 11
-734.999999999999
 21
540.0
  0
LINE
  5
83
100
AcDbEntity
  8
1
  6
CONTINUOUS
 62
           7
100
AcDbLine
 10
-735.0
 20
475.000000000001
 11
-734.999999999999
 21
540.0
  0
LINE
  5
82
100
AcDbEntity
  8
1
  6
CONTINUOUS
 62
           7
100
AcDbLine
 10
-750.0
 20
475.000000000001
 11
750.0
 21
475.000000000001
  0
LINE
  5
81
100
AcDbEntity
  8
1
  6
CONTINUOUS
 62
           4
100
AcDbLine
 10
4230.000000000004
 20
1980.0
 11
3270.000000000004
 21
1980.0
  0
LINE
  5
80
100
AcDbEntity
  8
1
  6
CONTINUOUS
 62
           4
100
AcDbLine
 10
4230.000000000004
 20
520.0
 11
4230.000000000004
 21
1980.0
  0
LINE
  5
7F
100
AcDbEntity
  8
1
  6
CONTINUOUS
 62
           4
100
AcDbLine
 10
3270.000000000004
 20
520.0
 11
4230.000000000004
 21
520.0
  0
LINE
  5
7E
100
AcDbEntity
  8
1
  6
CONTINUOUS
 62
           4
100
AcDbLine
 10
2770.000000000004
 20
520.0
 11
3230.000000000004
 21
520.0
  0
LINE
  5
7D
100
AcDbEntity
  8
1
  6
CONTINUOUS
 62
           4
100
AcDbLine
 10
2770.000000000004
 20
1980.0
 11
2770.000000000004
 21
520.0
  0
LINE
  5
7C
100
AcDbEntity
  8
1
  6
CONTINUOUS
 62
           4
100
AcDbLine
 10
3230.000000000004
 20
1980.0
 11
2770.000000000004
 21
1980.0
  0
LINE
  5
7B
100
AcDbEntity
  8
1
  6
CONTINUOUS
 62
           4
100
AcDbLine
 10
4229.433325304566
 20
20.0
 11
4229.433325304566
 21
479.385061529882
  0
LINE
  5
7A
100
AcDbEntity
  8
1
  6
CONTINUOUS
 62
           4
100
AcDbLine
 10
2770.000000000004
 20
20.0
 11
4229.433325304566
 21
20.0
  0
LINE
  5
79
100
AcDbEntity
  8
1
  6
CONTINUOUS
 62
           4
100
AcDbLine
 10
2770.000000000004
 20
479.385061529882
 11
2770.000000000004
 21
20.0
  0
LINE
  5
78
100
AcDbEntity
  8
1
  6
CONTINUOUS
 62
           4
100
AcDbLine
 10
4229.433325304566
 20
479.385061529882
 11
2770.000000000004
 21
479.385061529882
  0
LINE
  5
77
100
AcDbEntity
  8
1
  6
CONTINUOUS
 62
           7
100
AcDbLine
 10
2750.000000000004
 20
500.0
 11
4250.000000000004
 21
500.0
  0
LINE
  5
76
100
AcDbEntity
  8
1
  6
CONTINUOUS
 62
           7
100
AcDbLine
 10
2750.000000000004
 20
0.0
 11
2750.000000000004
 21
2550.0
  0
LINE
  5
75
100
AcDbEntity
  8
1
  6
CONTINUOUS
 62
           4
100
AcDbLine
 10
2270.000000000004
 20
2480.0
 11
2270.000000000004
 21
20.0
  0
LINE
  5
74
100
AcDbEntity
  8
1
  6
CONTINUOUS
 62
           4
100
AcDbLine
 10
2730.000000000004
 20
2480.0
 11
2270.000000000004
 21
2480.0
  0
LINE
  5
73
100
AcDbEntity
  8
1
  6
CONTINUOUS
 62
           4
100
AcDbLine
 10
2730.000000000004
 20
20.0
 11
2730.000000000004
 21
2480.0
  0
LINE
  5
72
100
AcDbEntity
  8
1
  6
CONTINUOUS
 62
           4
100
AcDbLine
 10
2270.000000000004
 20
20.0
 11
2730.000000000004
 21
20.0
  0
LINE
  5
71
100
AcDbEntity
  8
1
  6
CONTINUOUS
 62
           7
100
AcDbLine
 10
-800.0
 20
3675.700729927
 11
800.0
 21
3675.700729927
  0
LINE
  5
70
100
AcDbEntity
  8
1
  6
CONTINUOUS
 62
           7
100
AcDbLine
 10
-800.0
 20
5675.700729927
 11
-800.0
 21
3675.700729927
  0
LINE
  5
6F
100
AcDbEntity
  8
1
  6
CONTINUOUS
 62
           7
100
AcDbLine
 10
-800.0
 20
4675.700729927
 11
800.0
 21
4675.700729927
  0
LINE
  5
6E
100
AcDbEntity
  8
1
  6
CONTINUOUS
 62
           4
100
AcDbLine
 10
-730.0
 20
4155.700729927
 11
-730.0
 21
3695.700729927
  0
LINE
  5
6D
100
AcDbEntity
  8
1
  6
CONTINUOUS
 62
           4
100
AcDbLine
 10
-780.0
 20
4695.700729927
 11
-520.0
 21
4695.700729927
  0
LINE
  5
6C
100
AcDbEntity
  8
1
  6
CONTINUOUS
 62
           4
100
AcDbLine
 10
-780.0
 20
4695.700729927
 11
-780.0
 21
5655.700729927
  0
LINE
  5
6B
100
AcDbEntity
  8
1
  6
CONTINUOUS
 62
           7
100
AcDbLine
 10
800.0
 20
5675.700729927
 11
1.0
 21
5675.700729927
  0
LINE
  5
6A
100
AcDbEntity
  8
1
  6
CONTINUOUS
 62
           7
100
AcDbLine
 10
800.0
 20
0.0
 11
800.0
 21
2505.0
  0
LINE
  5
69
100
AcDbEntity
  8
1
  6
CONTINUOUS
 62
           7
100
AcDbLine
 10
750.0
 20
2000.0
 11
-750.0
 21
2000.0
  0
LINE
  5
68
100
AcDbEntity
  8
1
  6
CONTINUOUS
 62
           7
100
AcDbLine
 10
2250.000000000004
 20
0.0
 11
2250.000000000004
 21
2550.0
  0
LINE
  5
67
100
AcDbEntity
  8
1
  6
CONTINUOUS
 62
           7
100
AcDbLine
 10
4250.000000000004
 20
0.0
 11
4250.000000000004
 21
2075.0
  0
LINE
  5
66
100
AcDbEntity
  8
1
  6
CONTINUOUS
 62
           7
100
AcDbLine
 10
4250.000000000004
 20
2000.0
 11
2750.000000000004
 21
2000.0
  0
LINE
  5
65
100
AcDbEntity
  8
1
  6
CONTINUOUS
 62
           4
100
AcDbLine
 10
2250.000000000005
 20
2503.000000000001
 11
2750.000000000005
 21
2503.0
  0
LINE
  5
64
100
AcDbEntity
  8
1
  6
CONTINUOUS
 62
           7
100
AcDbLine
 10
2250.000000000004
 20
2550.0
 11
2750.000000000004
 21
2550.0
  0
LINE
  5
63
100
AcDbEntity
  8
1
  6
CONTINUOUS
 62
           7
100
AcDbLine
 10
3250.000000000004
 20
2000.0
 11
3250.000000000004
 21
2075.0
  0
LINE
  5
62
100
AcDbEntity
  8
1
  6
CONTINUOUS
 62
           7
100
AcDbLine
 10
3250.000000000004
 20
2075.0
 11
4250.000000000004
 21
2075.0
  0
LINE
  5
61
100
AcDbEntity
  8
1
  6
CONTINUOUS
 62
           7
100
AcDbLine
 10
-750.0
 20
0.0
 11
-750.0
 21
2500.0
  0
LINE
  5
60
100
AcDbEntity
  8
1
  6
CONTINUOUS
 62
           7
100
AcDbLine
 10
750.0
 20
0.0
 11
750.0
 21
2500.0
  0
LINE
  5
5F
100
AcDbEntity
  8
1
  6
CONTINUOUS
 62
           7
100
AcDbLine
 10
750.0
 20
1900.0
 11
-750.0
 21
1900.0
  0
LINE
  5
5E
100
AcDbEntity
  8
1
  6
CONTINUOUS
 62
           7
100
AcDbLine
 10
750.0
 20
50.0
 11
-750.0
 21
50.0
  0
LINE
  5
5D
100
AcDbEntity
  8
1
  6
CONTINUOUS
 62
           7
100
AcDbLine
 10
-750.0
 20
400.0
 11
750.0
 21
400.0
  0
LINE
  5
5C
100
AcDbEntity
  8
1
  6
CONTINUOUS
 62
           7
100
AcDbLine
 10
735.0
 20
540.0
 11
735.0
 21
475.000000000001
  0
LINE
  5
5B
100
AcDbEntity
  8
1
  6
CONTINUOUS
 62
           7
100
AcDbLine
 10
-750.0
 20
513.85332266763
 11
-750.0
 21
572.607085651512
  0
LINE
  5
5A
100
AcDbEntity
  8
1
  6
CONTINUOUS
 62
           7
100
AcDbLine
 10
-750.0
 20
800.0
 11
750.0
 21
800.0
  0
LINE
  5
59
100
AcDbEntity
  8
1
  6
CONTINUOUS
 62
           7
100
AcDbLine
 10
735.0
 20
500.0
 11
750.0
 21
500.0
  0
LINE
  5
58
100
AcDbEntity
  8
1
  6
CONTINUOUS
 62
           7
100
AcDbLine
 10
-750.0
 20
500.0
 11
-735.0
 21
500.0
  0
LINE
  5
57
100
AcDbEntity
  8
1
  6
DOT_CENTER
 62
           2
100
AcDbLine
 10
0.0
 20
2943.2006168349
 11
0.0
 21
-130.0
  0
LINE
  5
56
100
AcDbEntity
  8
1
  6
DOT_CENTER
 62
           2
100
AcDbLine
 10
3475.000000000004
 20
600.0
 11
3625.000000000004
 21
600.0
  0
LINE
  5
55
100
AcDbEntity
  8
1
  6
DOT_CENTER
 62
           2
100
AcDbLine
 10
3550.000000000004
 20
675.0
 11
3550.000000000004
 21
525.0
  0
LINE
  5
54
100
AcDbEntity
  8
1
  6
CONTINUOUS
 62
           7
100
AcDbLine
 10
800.0
 20
3675.700729927
 11
800.0
 21
5675.700729927
  0
LINE
  5
53
100
AcDbEntity
  8
1
  6
CONTINUOUS
 62
           4
100
AcDbLine
 10
780.0
 20
5655.700729927
 11
780.0
 21
4695.700729927
  0
LINE
  5
52
100
AcDbEntity
  8
1
  6
CONTINUOUS
 62
           4
100
AcDbLine
 10
730.0
 20
4155.700729927
 11
730.0
 21
3695.700729927
  0
LINE
  5
51
100
AcDbEntity
  8
1
  6
CONTINUOUS
 62
           4
100
AcDbLine
 10
780.0
 20
5655.700729927
 11
520.0
 21
5655.700729927
  0
LINE
  5
50
100
AcDbEntity
  8
1
  6
CONTINUOUS
 62
           4
100
AcDbLine
 10
780.0
 20
4695.700729927
 11
520.0
 21
4695.700729927
  0
LINE
  5
4F
100
AcDbEntity
  8
1
  6
CONTINUOUS
 62
           4
100
AcDbLine
 10
-730.0
 20
4155.700729927
 11
730.0
 21
4155.700729927
  0
LINE
  5
4E
100
AcDbEntity
  8
1
  6
CONTINUOUS
 62
           7
100
AcDbLine
 10
4750.000000000004
 20
0.0
 11
1750.000000000003
 21
0.0
  0
LINE
  5
4D
100
AcDbEntity
  8
1
  6
DOT_CENTER
 62
           2
100
AcDbLine
 10
0.0
 20
5808.45845076892
 11
0.0
 21
3580.761275220271
  0
LINE
  5
4C
100
AcDbEntity
  8
1
  6
CONTINUOUS
 62
           4
100
AcDbLine
 10
2250.000000000004
 20
2540.0
 11
2750.000000000004
 21
2540.0
  0
LINE
  5
4B
100
AcDbEntity
  8
1
  6
CONTINUOUS
 62
           7
100
AcDbLine
 10
2490.000000000004
 20
1862.0
 11
2490.000000000004
 21
1950.0
  0
LINE
  5
4A
100
AcDbEntity
  8
1
  6
CONTINUOUS
 62
           7
100
AcDbLine
 10
2300.000000000004
 20
1862.0
 11
2490.000000000004
 21
1862.0
  0
LINE
  5
49
100
AcDbEntity
  8
1
  6
CONTINUOUS
 62
           7
100
AcDbLine
 10
2300.000000000004
 20
1950.0
 11
2300.000000000004
 21
1862.0
  0
LINE
  5
48
100
AcDbEntity
  8
1
  6
CONTINUOUS
 62
           7
100
AcDbLine
 10
2490.000000000004
 20
1950.0
 11
2300.000000000004
 21
1950.0
  0
LINE
  5
47
100
AcDbEntity
  8
1
  6
CONTINUOUS
 62
           7
100
AcDbLine
 10
2980.000000000004
 20
1349.999999999999
 11
2800.000000000004
 21
1349.999999999999
  0
LINE
  5
46
100
AcDbEntity
  8
1
  6
CONTINUOUS
 62
           7
100
AcDbLine
 10
2800.000000000004
 20
1589.999999999999
 11
2980.000000000004
 21
1589.999999999999
  0
LINE
  5
45
100
AcDbEntity
  8
1
  6
CONTINUOUS
 62
           7
100
AcDbLine
 10
2800.000000000004
 20
1349.999999999999
 11
2800.000000000004
 21
1589.999999999999
  0
LINE
  5
44
100
AcDbEntity
  8
1
  6
CONTINUOUS
 62
           7
100
AcDbLine
 10
2980.000000000004
 20
1589.999999999999
 11
2980.000000000004
 21
1349.999999999999
  0
LINE
  5
43
100
AcDbEntity
  8
1
  6
CONTINUOUS
 62
           7
100
AcDbLine
 10
-800.0
 20
2505.0
 11
-800.0
 21
0.0
  0
LINE
  5
42
100
AcDbEntity
  8
1
  6
DOT_CENTER
 62
           2
100
AcDbLine
 10
485.240658633307
 20
5285.700729927
 11
-690.049906953528
 21
5285.700729927
  0
LINE
  5
41
100
AcDbEntity
  8
1
  6
CONTINUOUS
 62
           7
100
AcDbLine
 10
-571.0
 20
5675.700729927
 11
-800.0
 21
5675.700729927
  0
LINE
  5
40
100
AcDbEntity
  8
1
  6
CONTINUOUS
 62
           7
100
AcDbLine
 10
2665.000000000004
 20
1256.750000000002
 11
2665.000000000004
 21
1270.000000000002
  0
LINE
  5
3F
100
AcDbEntity
  8
1
  6
CONTINUOUS
 62
           7
100
AcDbLine
 10
2642.500000000004
 20
1300.000000000002
 11
2642.500000000004
 21
1270.000000000002
  0
LINE
  5
3E
100
AcDbEntity
  8
1
  6
CONTINUOUS
 62
           7
100
AcDbLine
 10
2667.500000000004
 20
1300.000000000002
 11
2667.500000000004
 21
1270.000000000002
  0
LINE
  5
3D
100
AcDbEntity
  8
1
  6
CONTINUOUS
 62
           7
100
AcDbLine
 10
2642.500000000004
 20
1270.000000000002
 11
2667.500000000004
 21
1270.000000000002
  0
LINE
  5
3C
100
AcDbEntity
  8
1
  6
CONTINUOUS
 62
           7
100
AcDbLine
 10
2645.000000000004
 20
1270.000000000002
 11
2645.000000000004
 21
1256.750000000002
  0
LINE
  5
3B
100
AcDbEntity
  8
1
  6
CONTINUOUS
 62
           7
100
AcDbLine
 10
2682.000000000004
 20
1239.750000000002
 11
2730.000000000004
 21
1239.750000000002
  0
LINE
  5
3A
100
AcDbEntity
  8
1
  6
CONTINUOUS
 62
           7
100
AcDbLine
 10
2682.000000000004
 20
1219.750000000002
 11
2730.000000000004
 21
1219.750000000002
  0
LINE
  5
39
100
AcDbEntity
  8
1
  6
CONTINUOUS
 62
           7
100
AcDbLine
 10
-800.0
 20
4175.700729927
 11
800.0
 21
4175.700729927
  0
LINE
  5
38
100
AcDbEntity
  8
1
  6
CONTINUOUS
 62
           7
100
AcDbLine
 10
800.0
 20
2500.0
 11
-800.0
 21
2500.0
  0
LINE
  5
37
100
AcDbEntity
  8
1
  6
CONTINUOUS
 62
           7
100
AcDbLine
 10
2750.000000000004
 20
2550.0
 11
3250.000000000005
 21
2050.0
  0
LINE
  5
36
100
AcDbEntity
  8
1
  6
CONTINUOUS
 62
           7
100
AcDbLine
 10
2750.000000000004
 20
2500.0
 11
2250.000000000004
 21
2500.0
  0
LINE
  5
35
100
AcDbEntity
  8
1
  6
CONTINUOUS
 62
           7
100
AcDbLine
 10
3250.000000000005
 20
2050.0
 11
4250.000000000004
 21
2050.0
  0
LINE
  5
34
100
AcDbEntity
  8
1
  6
CONTINUOUS
 62
           7
100
AcDbLine
 10
-800.0
 20
2500.0
 11
-800.0
 21
2650.0
  0
LINE
  5
33
100
AcDbEntity
  8
1
  6
CONTINUOUS
 62
           7
100
AcDbLine
 10
-800.0
 20
2650.0
 11
800.000000000001
 21
2650.0
  0
LINE
  5
32
100
AcDbEntity
  8
1
  6
CONTINUOUS
 62
           7
100
AcDbLine
 10
2250.000000000004
 20
2550.0
 11
2250.000000000004
 21
2650.0
  0
LINE
  5
31
100
AcDbEntity
  8
1
  6
CONTINUOUS
 62
           7
100
AcDbLine
 10
2250.000000000004
 20
2650.0
 11
2270.000000000004
 21
2650.0
  0
LINE
  5
30
100
AcDbEntity
  8
1
  6
CONTINUOUS
 62
           7
100
AcDbLine
 10
-800.0
 20
3695.700729927
 11
800.000000000001
 21
3695.700729927
  0
LINE
  5
2F
100
AcDbEntity
  8
1
  6
CONTINUOUS
 62
           7
100
AcDbLine
 10
-750.0
 20
3695.700729927
 11
-750.0
 21
4675.700729927
  0
LINE
  5
2E
100
AcDbEntity
  8
1
  6
CONTINUOUS
 62
           7
100
AcDbLine
 10
750.0
 20
3695.700729927
 11
750.0
 21
4675.700729927
  0
POINT
  5
2D
100
AcDbEntity
  8
0
 62
           3
100
AcDbPoint
 10
3083.399996721739
 20
1365.000000000117
  0
ENDSEC
  0
SECTION
  2
OBJECTS
  0
DICTIONARY
  5
19
100
AcDbDictionary
  3
ACAD_GROUP
350
1A
  3
ACAD_MLINESTYLE
350
1B
  0
DICTIONARY
  5
1A
102
{ACAD_REACTORS
330
19
102
}
100
AcDbDictionary
  0
DICTIONARY
  5
1B
102
{ACAD_REACTORS
330
19
102
}
100
AcDbDictionary
  3
STANDARD
350
1C
  0
MLINESTYLE
  5
1C
102
{ACAD_REACTORS
330
1B
102
}
100
AcDbMlineStyle
  2
STANDARD
 70
           0
  3

 62
           0
 51
90.0
 52
90.0
 71
           2
 49
0.5
 62
         256
  6
BYLAYER
 49
-0.5
 62
         256
  6
BYLAYER
  0
ENDSEC
  0
EOF
