  0
SECTION
  2
HEADER
  9
$ACADVER
  1
AC1014
  9
$ACADMAINTVER
 70
           0
  9
$DWGCODEPAGE
  3
DOS932
  9
$INSBASE
 10
0.0
 20
0.0
 30
0.0
  9
$EXTMIN
 10
1.000000000000E+20
 20
1.000000000000E+20
 30
1.000000000000E+20
  9
$EXTMAX
 10
-1.000000000000E+20
 20
-1.000000000000E+20
 30
-1.000000000000E+20
  9
$LIMMIN
 10
0.0
 20
0.0
  9
$LIMMAX
 10
0.0
 20
0.0
  9
$ORTHOMODE
 70
           0
  9
$REGENMODE
 70
           1
  9
$FILLMODE
 70
           1
  9
$QTEXTMODE
 70
           0
  9
$MIRRTEXT
 70
           1
  9
$DRAGMODE
 70
           2
  9
$LTSCALE
 40
1.0
  9
$OSMODE
 70
           0
  9
$ATTMODE
 70
           1
  9
$TEXTSIZE
 40
0.2
  9
$TRACEWID
 40
0.05
  9
$TEXTSTYLE
  7
STANDARD
  9
$CLAYER
  8
0
  9
$CELTYPE
  6
CONTINUOUS
  9
$CECOLOR
 62
         256
  9
$CELTSCALE
 40
1.0
  9
$DELOBJ
 70
           1
  9
$DISPSILH
 70
           0
  9
$DIMSCALE
 40
1.0
  9
$DIMASZ
 40
0.18
  9
$DIMEXO
 40
0.0625
  9
$DIMDLI
 40
0.38
  9
$DIMRND
 40
0.0
  9
$DIMDLE
 40
0.0
  9
$DIMEXE
 40
0.18
  9
$DIMTP
 40
0.0
  9
$DIMTM
 40
0.0
  9
$DIMTXT
 40
0.18
  9
$DIMCEN
 40
0.09
  9
$DIMTSZ
 40
0.0
  9
$DIMTOL
 70
           0
  9
$DIMLIM
 70
           0
  9
$DIMTIH
 70
           1
  9
$DIMTOH
 70
           1
  9
$DIMSE1
 70
           0
  9
$DIMSE2
 70
           0
  9
$DIMTAD
 70
           0
  9
$DIMZIN
 70
           0
  9
$DIMBLK
  1

  9
$DIMASO
 70
           1
  9
$DIMSHO
 70
           1
  9
$DIMPOST
  1

  9
$DIMAPOST
  1

  9
$DIMALT
 70
           0
  9
$DIMALTD
 70
           2
  9
$DIMALTF
 40
25.4
  9
$DIMLFAC
 40
1.0
  9
$DIMTOFL
 70
           0
  9
$DIMTVP
 40
0.0
  9
$DIMTIX
 70
           0
  9
$DIMSOXD
 70
           0
  9
$DIMSAH
 70
           0
  9
$DIMBLK1
  1

  9
$DIMBLK2
  1

  9
$DIMSTYLE
  2
STANDARD
  9
$DIMCLRD
 70
           0
  9
$DIMCLRE
 70
           0
  9
$DIMCLRT
 70
           0
  9
$DIMTFAC
 40
1.0
  9
$DIMGAP
 40
0.09
  9
$DIMJUST
 70
           0
  9
$DIMSD1
 70
           0
  9
$DIMSD2
 70
           0
  9
$DIMTOLJ
 70
           1
  9
$DIMTZIN
 70
           0
  9
$DIMALTZ
 70
           0
  9
$DIMALTTZ
 70
           0
  9
$DIMFIT
 70
           3
  9
$DIMUPT
 70
           0
  9
$DIMUNIT
 70
           2
  9
$DIMDEC
 70
           4
  9
$DIMTDEC
 70
           4
  9
$DIMALTU
 70
           2
  9
$DIMALTTD
 70
           2
  9
$DIMTXSTY
  7
STANDARD
  9
$DIMAUNIT
 70
           0
  9
$LUNITS
 70
           2
  9
$LUPREC
 70
           4
  9
$SKETCHINC
 40
0.1
  9
$FILLETRAD
 40
0.0
  9
$AUNITS
 70
           0
  9
$AUPREC
 70
           0
  9
$MENU
  1
acad
  9
$ELEVATION
 40
0.0
  9
$PELEVATION
 40
0.0
  9
$THICKNESS
 40
0.0
  9
$LIMCHECK
 70
           0
  9
$BLIPMODE
 70
           1
  9
$CHAMFERA
 40
0.0
  9
$CHAMFERB
 40
0.0
  9
$CHAMFERC
 40
0.0
  9
$CHAMFERD
 40
0.0
  9
$SKPOLY
 70
           0
  9
$TDCREATE
 40
0.000000000
  9
$TDUPDATE
 40
0.000000000
  9
$TDINDWG
 40
0.0000000000
  9
$TDUSRTIMER
 40
0.0000000000
  9
$USRTIMER
 70
           1
  9
$ANGBASE
 50
0.0
  9
$ANGDIR
 70
           0
  9
$PDMODE
 70
           0
  9
$PDSIZE
 40
0.0
  9
$PLINEWID
 40
0.0
  9
$COORDS
 70
           0
  9
$SPLFRAME
 70
           0
  9
$SPLINETYPE
 70
           6
  9
$SPLINESEGS
 70
           8
  9
$ATTDIA
 70
           0
  9
$ATTREQ
 70
           1
  9
$HANDLING
 70
           1
  9
$HANDSEED
  5
3A4
  9
$SURFTAB1
 70
           6
  9
$SURFTAB2
 70
           6
  9
$SURFTYPE
 70
           6
  9
$SURFU
 70
           6
  9
$SURFV
 70
           6
  9
$UCSNAME
  2

  9
$UCSORG
 10
0.0
 20
0.0
 30
0.0
  9
$UCSXDIR
 10
1.0
 20
0.0
 30
0.0
  9
$UCSYDIR
 10
0.0
 20
1.0
 30
0.0
  9
$PUCSNAME
  2

  9
$PUCSORG
 10
0.0
 20
0.0
 30
0.0
  9
$PUCSXDIR
 10
1.0
 20
0.0
 30
0.0
  9
$PUCSYDIR
 10
0.0
 20
1.0
 30
0.0
  9
$USERI1
 70
           0
  9
$USERI2
 70
           0
  9
$USERI3
 70
           0
  9
$USERI4
 70
           0
  9
$USERI5
 70
           0
  9
$USERR1
 40
0.0
  9
$USERR2
 40
0.0
  9
$USERR3
 40
0.0
  9
$USERR4
 40
0.0
  9
$USERR5
 40
0.0
  9
$WORLDVIEW
 70
           1
  9
$SHADEDGE
 70
           3
  9
$SHADEDIF
 70
          70
  9
$TILEMODE
 70
           1
  9
$MAXACTVP
 70
          16
  9
$PINSBASE
 10
0.0
 20
0.0
 30
0.0
  9
$PLIMCHECK
 70
           0
  9
$PEXTMIN
 10
1.000000000000E+20
 20
1.000000000000E+20
 30
1.000000000000E+20
  9
$PEXTMAX
 10
-1.000000000000E+20
 20
-1.000000000000E+20
 30
-1.000000000000E+20
  9
$PLIMMIN
 10
0.0
 20
0.0
  9
$PLIMMAX
 10
12.0
 20
9.0
  9
$UNITMODE
 70
           0
  9
$VISRETAIN
 70
           0
  9
$PLINEGEN
 70
           1
  9
$PSLTSCALE
 70
           0
  9
$TREEDEPTH
 70
        3020
  9
$PICKSTYLE
 70
           1
  9
$CMLSTYLE
  2
STANDARD
  9
$CMLJUST
 70
           0
  9
$CMLSCALE
 40
1.0
  9
$PROXYGRAPHICS
 70
           0
  9
$MEASUREMENT
 70
           0
  0
ENDSEC
  0
SECTION
  2
CLASSES
  0
CLASS
  1
LWPOLYLINE
  2
AcDbPolyline
  3
"AutoCAD"
 90
        0
280
           0
281
           1
  0
CLASS
  1
IMAGE
  2
AcDbRasterImage
  3
ISM
 90
      127
280
           0
281
           1
  0
CLASS
  1
OLE2FRAME
  2
AcDbOle2Frame
  3
""
 90
        0
280
           0
281
           1
  0
CLASS
  1
HATCH
  2
AcDbHatch
  3
"ACAD_SEDONA"
 90
        0
280
           0
281
           1
  0
CLASS
  1
DICTIONARYVAR
  2
AcDbDictionaryVar
  3
"AutoCAD"
 90
        0
280
           0
281
           0
  0
CLASS
  1
RASTERVARIABLES
  2
AcDbRasterVariables
  3
ISM
 90
        0
280
           0
281
           0
  0
CLASS
  1
IMAGEDEF
  2
AcDbRasterImageDef
  3
ISM
 90
        0
280
           0
281
           0
  0
CLASS
  1
IMAGEDEF_REACTOR
  2
AcDbRasterImageDefReactor
  3
ISM
 90
        1
280
           0
281
           0
  0
CLASS
  1
IDBUFFER
  2
AcDbIdBuffer
  3
"Acad"
 90
        0
280
           0
281
           0
  0
CLASS
  1
SPATIAL_FILTER
  2
AcDbSpatialFilter
  3
"Acad"
 90
        0
280
           0
281
           0
  0
CLASS
  1
XRECORD
  2
AcDbXrecord
  3
"<Built In>"
 90
        0
280
           0
281
           0
  0
CLASS
  1
SORTENTSTABLE
  2
AcDbSortentsTable
  3
"AutoCAD"
 90
        0
280
           0
281
           0
  0
CLASS
  1
LAYER_INDEX
  2
AcDbLayerIndex
  3
"Acad"
 90
        0
280
           0
281
           0
  0
CLASS
  1
SPATIAL_INDEX
  2
AcDbSpatialIndex
  3
"Acad"
 90
        0
280
           0
281
           0
  0
CLASS
  1
OBJECT_PTR
  2
CAseDLPNTableRecord
  3
"ASE-LPNTableRecord"
 90
        1
280
           0
281
           0
  0
CLASS
  1
LAYOUT
  2
AcDbLayout
  3
"AutoCAD 2000"
 90
        1
280
           0
281
           0
  0
CLASS
  1
PLOTSETTINGS
  2
AcDbPlotSettings
  3
"AutoCAD 2000"
 90
        1
280
           0
281
           0
  0
CLASS
  1
ACDBDICTIONARYWDFLT
  2
AcDbDictionaryWithDefault
  3
"AutoCAD 2000"
 90
        1
280
           0
281
           0
  0
CLASS
  1
ACDBPLACEHOLDER
  2
AcDbPlaceHolder
  3
"AutoCAD 2000"
 90
        1
280
           0
281
           0
  0
CLASS
  1
VBA_PROJECT
  2
AcDbVbaProject
  3
"acadvba"
 90
        1
280
           0
281
           0
  0
CLASS
  1
WIPEOUT
  2
AcDbWipeout
  3
WipeOut|AutoCAD Express Tool|expresstools@autodesk.com
 90
      127
280
           0
281
           1
  0
CLASS
  1
WIPEOUTVARIABLES
  2
AcDbWipeoutVariables
  3
WipeOut|AutoCAD Express Tool|expresstools@autodesk.com
 90
        0
280
           0
281
           0
  0
CLASS
  1
RTEXT
  2
RText
  3
RText|AutoCAD Express Tool|expresstools@autodesk.com
 90
        0
280
           0
281
           1
  0
CLASS
  1
ARCALIGNEDTEXT
  2
AcDbArcAlignedText
  3
ATEXT|AutoCAD Express Tool|expresstools@autodesk.com
 90
        0
280
           0
281
           1
  0
ENDSEC
  0
SECTION
  2
TABLES
  0
TABLE
  2
VPORT
  5
7
100
AcDbSymbolTable
 70
           1
  0
VPORT
  5
15
100
AcDbSymbolTableRecord
100
AcDbViewportTableRecord
  2
*ACTIVE
 70
           0
 10
0.0
 20
0.0
 11
1.0
 21
1.0
 12
6.591288
 22
4.579184
 13
0.0
 23
0.0
 14
1.0
 24
1.0
 15
0.0
 25
0.0
 16
0.0
 26
0.0
 36
1.0
 17
0.0
 27
0.0
 37
0.0
 40
9.158369
 41
0.688564
 42
50.0
 43
0.0
 44
0.0
 50
0.0
 51
0.0
 71
           0
 72
         100
 73
           1
 74
           1
 75
           0
 76
           0
 77
           0
 78
           0
  0
ENDTAB
  0
TABLE
  2
LTYPE
  5
4
100
AcDbSymbolTable
 70
          10
  0
LTYPE
  5
11
100
AcDbSymbolTableRecord
100
AcDbLinetypeTableRecord
  2
BYBLOCK
 70
          64
  3

 72
          65
 73
           0
 40
0.0
  0
LTYPE
  5
12
100
AcDbSymbolTableRecord
100
AcDbLinetypeTableRecord
  2
BYLAYER
 70
          64
  3

 72
          65
 73
           0
 40
0.0
  0
LTYPE
  5
13
100
AcDbSymbolTableRecord
100
AcDbLinetypeTableRecord
  2
CONTINUOUS
 70
          64
  3
Solid line
 72
          65
 73
           0
 40
0.0
  0
LTYPE
  5
1D
100
AcDbSymbolTableRecord
100
AcDbLinetypeTableRecord
  2
DASHED
 70
          64
  3
Dashed
 72
          65
 73
           2
 40
15.0
 49
12.0
 74
           0
 49
-3.0
 74
           0
  0
LTYPE
  5
1E
100
AcDbSymbolTableRecord
100
AcDbLinetypeTableRecord
  2
DOTTED
 70
          64
  3
Dotted
 72
          65
 73
           2
 40
3.5
 49
0.5
 74
           0
 49
-3.0
 74
           0
  0
LTYPE
  5
1F
100
AcDbSymbolTableRecord
100
AcDbLinetypeTableRecord
  2
DOT_CENTER
 70
          64
  3
Dot_Center
 72
          65
 73
           4
 40
2.0
 49
1.25
 74
           0
 49
-0.25
 74
           0
 49
0.25
 74
           0
 49
-0.25
 74
           0
  0
LTYPE
  5
20
100
AcDbSymbolTableRecord
100
AcDbLinetypeTableRecord
  2
LONG_DASHED
 70
          64
  3
Long_Dashed
 72
          65
 73
           2
 40
2.0
 49
1.5
 74
           0
 49
-0.5
 74
           0
  0
LTYPE
  5
21
100
AcDbSymbolTableRecord
100
AcDbLinetypeTableRecord
  2
DASH_CENTER
 70
          64
  3
Dash_Center
 72
          65
 73
           4
 40
36.0
 49
24.0
 74
           0
 49
-3.0
 74
           0
 49
6.0
 74
           0
 49
-3.0
 74
           0
  0
LTYPE
  5
22
100
AcDbSymbolTableRecord
100
AcDbLinetypeTableRecord
  2
PHANTOM
 70
          64
  3
Phantom
 72
          65
 73
           6
 40
2.5
 49
1.25
 74
           0
 49
-0.25
 74
           0
 49
0.25
 74
           0
 49
-0.25
 74
           0
 49
0.25
 74
           0
 49
-0.25
 74
           0
  0
LTYPE
  5
23
100
AcDbSymbolTableRecord
100
AcDbLinetypeTableRecord
  2
CENTER_DASH_DASH
 70
          64
  3
Center_Dash_Dash
 72
          65
 73
           6
 40
22.0
 49
12.0
 74
           0
 49
-3.0
 74
           0
 49
0.5
 74
           0
 49
-3.0
 74
           0
 49
0.5
 74
           0
 49
-3.0
 74
           0
  0
ENDTAB
  0
TABLE
  2
LAYER
  5
2
100
AcDbSymbolTable
 70
           8
  0
LAYER
  5
14
100
AcDbSymbolTableRecord
100
AcDbLayerTableRecord
  2
0
 70
           0
 62
           7
  6
CONTINUOUS
  0
LAYER
  5
24
100
AcDbSymbolTableRecord
100
AcDbLayerTableRecord
  2
___S__
 70
           0
 62
           7
  6
CONTINUOUS
  0
LAYER
  5
25
100
AcDbSymbolTableRecord
100
AcDbLayerTableRecord
  2
976
 70
           0
 62
           7
  6
CONTINUOUS
  0
LAYER
  5
26
100
AcDbSymbolTableRecord
100
AcDbLayerTableRecord
  2
FORMAT
 70
           0
 62
           7
  6
CONTINUOUS
  0
LAYER
  5
27
100
AcDbSymbolTableRecord
100
AcDbLayerTableRecord
  2
1
 70
           0
 62
           7
  6
CONTINUOUS
  0
LAYER
  5
28
100
AcDbSymbolTableRecord
100
AcDbLayerTableRecord
  2
2
 70
           0
 62
           7
  6
CONTINUOUS
  0
LAYER
  5
29
100
AcDbSymbolTableRecord
100
AcDbLayerTableRecord
  2
7
 70
           0
 62
           7
  6
CONTINUOUS
  0
LAYER
  5
2A
100
AcDbSymbolTableRecord
100
AcDbLayerTableRecord
  2
____
 70
           0
 62
           7
  6
CONTINUOUS
  0
ENDTAB
  0
TABLE
  2
STYLE
  5
3
100
AcDbSymbolTable
 70
           1
  0
STYLE
  5
17
100
AcDbSymbolTableRecord
100
AcDbTextStyleTableRecord
  2
STANDARD
 70
           0
 40
0.0
 41
1.0
 50
0.0
 71
           0
 42
0.0
  3
txt
  4

  0
ENDTAB
  0
TABLE
  2
VIEW
  5
5
100
AcDbSymbolTable
 70
           0
  0
ENDTAB
  0
TABLE
  2
UCS
  5
6
100
AcDbSymbolTable
 70
           0
  0
ENDTAB
  0
TABLE
  2
APPID
  5
8
100
AcDbSymbolTable
 70
           1
  0
APPID
  5
16
100
AcDbSymbolTableRecord
100
AcDbRegAppTableRecord
  2
ACAD
 70
           0
  0
ENDTAB
  0
TABLE
  2
DIMSTYLE
  5
9
100
AcDbSymbolTable
 70
           1
  0
DIMSTYLE
105
18
100
AcDbSymbolTableRecord
100
AcDbDimStyleTableRecord
  2
STANDARD
 70
           0
  3

  4

  5

  6

  7

 40
1.0
 41
0.18
 42
0.0625
 43
0.38
 44
0.18
 45
0.0
 46
0.0
 47
0.0
 48
0.0
 71
           0
 72
           0
 73
           1
 74
           1
 75
           0
 76
           0
 77
           0
 78
           0
140
0.18
141
0.09
142
0.0
143
25.4
144
1.0
145
0.0
146
1.0
147
0.09
170
           0
171
           2
172
           0
173
           0
174
           0
175
           0
176
           0
177
           0
178
           0
270
           2
271
           4
272
           4
273
           2
274
           2
275
           0
280
           0
281
           0
282
           0
283
           1
284
           0
285
           0
286
           0
287
           0
288
           0
340
17
  0
ENDTAB
  0
TABLE
  2
BLOCK_RECORD
  5
1
100
AcDbSymbolTable
 70
           0
  0
BLOCK_RECORD
  5
A
100
AcDbSymbolTableRecord
100
AcDbBlockTableRecord
  2
*MODEL_SPACE
  0
BLOCK_RECORD
  5
B
100
AcDbSymbolTableRecord
100
AcDbBlockTableRecord
  2
*PAPER_SPACE
  0
ENDTAB
  0
ENDSEC
  0
SECTION
  2
BLOCKS
  0
BLOCK
  5
D
100
AcDbEntity
  8
0
100
AcDbBlockBegin
  2
*MODEL_SPACE
 70
           0
 10
0.0
 20
0.0
 30
0.0
  3
*MODEL_SPACE
  1

  0
ENDBLK
  5
E
100
AcDbEntity
  8
0
100
AcDbBlockEnd
  0
BLOCK
  5
F
100
AcDbEntity
 67
           1
  8
0
100
AcDbBlockBegin
  2
*PAPER_SPACE
 70
           0
 10
0.0
 20
0.0
 30
0.0
  3
*PAPER_SPACE
  1

  0
ENDBLK
  5
10
100
AcDbEntity
 67
           1
  8
0
100
AcDbBlockEnd
  0
ENDSEC
  0
SECTION
  2
ENTITIES
  0
HATCH
  5
3A2
100
AcDbEntity
  8
0
  6
CONTINUOUS
 62
           2
100
AcDbHatch
 10
0.0
 20
0.0
 30
0.0
210
0.0
220
0.0
230
1.0
  2
USER
 70
           0
 71
           1
 91
        1
 92
        1
 93
        8
 72
           1
 10
4030.2172241254279
 20
1318.19631887274
 11
4030.2172241254279
 21
1338.19631887274
 72
           1
 10
3952.2172241254311
 20
1318.19631887274
 11
4030.2172241254279
 21
1318.19631887274
 72
           2
 10
3952.2172241254311
 20
1355.19631887274
 40
37.0
 50
180.0
 51
-90.0
 73
           1
 72
           1
 10
3915.2172241254311
 20
1368.44631887274
 11
3915.2172241254311
 21
1355.19631887274
 72
           1
 10
3935.2172241254311
 20
1355.19631887274
 11
3935.2172241254311
 21
1368.44631887274
 72
           1
 10
3935.2172241254311
 20
1368.44631887274
 11
3915.2172241254311
 21
1368.44631887274
 72
           2
 10
3952.2172241254311
 20
1355.19631887274
 40
17.0
 50
180.0
 51
-90.0
 73
           1
 72
           1
 10
3952.2172241254311
 20
1338.19631887274
 11
4030.2172241254279
 21
1338.19631887274
 97
        7
330
38A
330
AD
330
320
330
AF
330
38B
330
31F
330
AE
 75
           1
 76
           0
 52
45.0
 41
10.0
 77
           0
 78
           1
 53
45.0
 43
0.0
 44
0.0
 45
-7.0710678118654746
 46
7.0710678118654755
 79
           0
 98
        1
 10
0.0
 20
0.0
  0
ARC
  5
3A1
100
AcDbEntity
  8
1
  6
CONTINUOUS
 62
           7
100
AcDbCircle
 10
184.999999999997
 20
5649.946318872744
 40
12.0
100
AcDbArc
 50
0.0
 51
90.0
  0
ARC
  5
3A0
100
AcDbEntity
  8
1
  6
CONTINUOUS
 62
           7
100
AcDbCircle
 10
184.999999999997
 20
5546.946318872744
 40
12.0
100
AcDbArc
 50
-90.0
 51
0.0
  0
ARC
  5
39F
100
AcDbEntity
  8
1
  6
CONTINUOUS
 62
           7
100
AcDbCircle
 10
144.824966598192
 20
5649.946318872744
 40
12.0
100
AcDbArc
 50
90.0
 51
180.0
  0
ARC
  5
39E
100
AcDbEntity
  8
1
  6
CONTINUOUS
 62
           7
100
AcDbCircle
 10
144.824966598192
 20
5546.946318872744
 40
12.0
100
AcDbArc
 50
180.0
 51
-90.0
  0
ARC
  5
39D
100
AcDbEntity
  8
1
  6
CONTINUOUS
 62
           4
100
AcDbCircle
 10
117.908702762042
 20
5552.946318872744
 40
11.999999999999
100
AcDbArc
 50
-120.430594205709
 51
-90.0
  0
ARC
  5
39C
100
AcDbEntity
  8
1
  6
CONTINUOUS
 62
           4
100
AcDbCircle
 10
117.908702762042
 20
5643.946318872744
 40
12.0
100
AcDbArc
 50
90.0
 51
120.430594205709
  0
ARC
  5
39B
100
AcDbEntity
  8
1
  6
CONTINUOUS
 62
           7
100
AcDbCircle
 10
134.496396800002
 20
3034.946318872737
 40
12.0
100
AcDbArc
 50
180.0
 51
-90.0
  0
ARC
  5
39A
100
AcDbEntity
  8
1
  6
CONTINUOUS
 62
           7
100
AcDbCircle
 10
134.496396800002
 20
3110.946318872737
 40
12.0
100
AcDbArc
 50
90.0
 51
180.0
  0
ARC
  5
399
100
AcDbEntity
  8
1
  6
CONTINUOUS
 62
           7
100
AcDbCircle
 10
185.000000000003
 20
3034.946318872737
 40
12.0
100
AcDbArc
 50
-90.0
 51
0.0
  0
ARC
  5
398
100
AcDbEntity
  8
1
  6
CONTINUOUS
 62
           7
100
AcDbCircle
 10
185.000000000003
 20
3110.946318872737
 40
12.0
100
AcDbArc
 50
0.0
 51
90.0
  0
ARC
  5
397
100
AcDbEntity
  8
1
  6
CONTINUOUS
 62
           4
100
AcDbCircle
 10
5605.717224125426
 20
2889.446318872739
 40
1.0
100
AcDbArc
 50
179.999999999947
 51
-90.0
  0
ARC
  5
396
100
AcDbEntity
  8
1
  6
CONTINUOUS
 62
           4
100
AcDbCircle
 10
5594.717224125426
 20
2889.446318872739
 40
0.999999999999
100
AcDbArc
 50
-90.0
 51
0.000000000052
  0
ARC
  5
395
100
AcDbEntity
  8
1
  6
CONTINUOUS
 62
           4
100
AcDbCircle
 10
5594.717224125426
 20
2383.44631887274
 40
1.0
100
AcDbArc
 50
0.0
 51
90.0
  0
ARC
  5
394
100
AcDbEntity
  8
1
  6
CONTINUOUS
 62
           4
100
AcDbCircle
 10
5605.717224125426
 20
2383.44631887274
 40
1.0
100
AcDbArc
 50
90.0
 51
180.0
  0
ARC
  5
393
100
AcDbEntity
  8
1
  6
CONTINUOUS
 62
           7
100
AcDbCircle
 10
5101.717224125426
 20
3110.94631887274
 40
12.0
100
AcDbArc
 50
0.0
 51
90.0
  0
ARC
  5
392
100
AcDbEntity
  8
1
  6
CONTINUOUS
 62
           7
100
AcDbCircle
 10
5101.717224125426
 20
3034.94631887274
 40
12.0
100
AcDbArc
 50
-90.0
 51
0.0
  0
ARC
  5
391
100
AcDbEntity
  8
1
  6
CONTINUOUS
 62
           7
100
AcDbCircle
 10
4998.717224125426
 20
3110.94631887274
 40
12.0
100
AcDbArc
 50
90.0
 51
180.0
  0
ARC
  5
390
100
AcDbEntity
  8
1
  6
CONTINUOUS
 62
           7
100
AcDbCircle
 10
4998.717224125426
 20
3034.94631887274
 40
12.0
100
AcDbArc
 50
180.0
 51
-90.0
  0
ARC
  5
38F
100
AcDbEntity
  8
1
  6
CONTINUOUS
 62
           3
100
AcDbCircle
 10
4800.117220936359
 20
1739.44631887274
 40
288.0
100
AcDbArc
 50
90.0
 51
180.0
  0
ARC
  5
38E
100
AcDbEntity
  8
1
  6
CONTINUOUS
 62
           3
100
AcDbCircle
 10
4800.117222247753
 20
1739.44631887274
 40
280.0
100
AcDbArc
 50
90.0
 51
180.0
  0
ARC
  5
38D
100
AcDbEntity
  8
1
  6
CONTINUOUS
 62
           3
100
AcDbCircle
 10
4948.380791816469
 20
2030.640065452781
 40
0.5
100
AcDbArc
 50
90.0
 51
180.0
  0
ARC
  5
38C
100
AcDbEntity
  8
1
  6
CONTINUOUS
 62
           3
100
AcDbCircle
 10
4948.380791816469
 20
2016.2525722927
 40
0.5
100
AcDbArc
 50
180.0
 51
-90.0
  0
LWPOLYLINE
  5
38B
100
AcDbEntity
  8
1
  6
CONTINUOUS
 62
           7
 60
           1
100
AcDbPolyline
 90
        3
 70
           0
 10
3935.217224125431
 20
1355.19631887274
 10
3935.217224125431
 20
1368.44631887274
 10
3915.217224125431
 20
1368.44631887274
  0
LWPOLYLINE
  5
38A
100
AcDbEntity
  8
1
  6
CONTINUOUS
 62
           7
 60
           1
100
AcDbPolyline
 90
        2
 70
           0
 10
4030.217224125428
 20
1318.19631887274
 10
4030.217224125428
 20
1338.19631887274
  0
SPLINE
  5
389
100
AcDbEntity
  8
0
  6
CONTINUOUS
 62
           3
100
AcDbSpline
210
0.0
220
0.0
230
1.0
 70
           0
 71
           3
 72
           8
 73
           5
 74
           7
 42
0.00000000001
 43
0.00000000001
 44
0.00000000001
 40
0.0
 40
0.0
 40
0.0
 40
0.5558562714160904
 40
1.5343210643713361
 40
2.9385072682924331
 40
2.9385072682924331
 40
2.9385072682924331
 10
4466.1172208471044
 20
1458.44631827679
 30
0.0
 10
4466.1856539345736
 20
1458.445872583419
 30
0.0
 10
4467.1604767254548
 20
1458.4395237239501
 30
0.0
 10
4468.1157550301714
 20
1458.2116278946
 30
0.0
 10
4469.0039722809324
 20
1457.999730475811
 30
0.0
 11
4466.1172208471044
 21
1458.44631827679
 31
0.0
 11
4466.2568357498358
 21
1458.4454089880396
 31
0.0
 11
4466.5388142830907
 21
1458.4435725085298
 31
0.0
 11
4467.1031352967166
 21
1458.4171388672144
 31
0.0
 11
4467.5527734528669
 21
1458.3459355124273
 31
0.0
 11
4468.1970639485353
 21
1458.1922304443597
 31
0.0
 11
4469.0039722809324
 21
1457.999730475811
 31
0.0
  0
SPLINE
  5
388
100
AcDbEntity
  8
0
  6
CONTINUOUS
 62
           3
100
AcDbSpline
210
0.0
220
0.0
230
1.0
 70
           0
 71
           3
 72
           8
 73
           5
 74
           7
 42
0.00000000001
 43
0.00000000001
 44
0.00000000001
 40
0.0
 40
0.0
 40
0.0
 40
0.5558558490683299
 40
1.5343195422050293
 40
2.9385037456607646
 40
2.9385037456607646
 40
2.9385037456607646
 10
4466.1172208471044
 20
1453.4463230450599
 30
0.0
 10
4466.0487877617225
 20
1453.446768751041
 30
0.0
 10
4465.0739658126704
 20
1453.453117783411
 30
0.0
 10
4464.1186870416923
 20
1453.6810058019689
 30
0.0
 10
4463.2304694132754
 20
1453.89289594498
 30
0.0
 11
4466.1172208471044
 21
1453.4463230450599
 31
0.0
 11
4465.9776060016766
 21
1453.4472323590612
 31
0.0
 11
4465.695627636158
 21
1453.4490688891033
 31
0.0
 11
4465.1313070214446
 21
1453.4755018149606
 31
0.0
 11
4464.6816688242807
 21
1453.5467028039166
 31
0.0
 11
4464.0373780802356
 21
1453.7004025882086
 31
0.0
 11
4463.2304694132754
 21
1453.89289594498
 31
0.0
  0
SPLINE
  5
387
100
AcDbEntity
  8
0
  6
CONTINUOUS
 62
           3
100
AcDbSpline
210
0.0
220
0.0
230
1.0
 70
           0
 71
           3
 72
           8
 73
           5
 74
           7
 42
0.00000000001
 43
0.00000000001
 44
0.00000000001
 40
0.0
 40
0.0
 40
0.0
 40
0.2779452695528233
 40
0.7862805426564031
 40
1.542957355620229
 40
1.542957355620229
 40
1.542957355620229
 10
4470.4473478814334
 20
1453.4463230451599
 30
0.0
 10
4470.4131313379048
 20
1453.4467687499291
 30
0.0
 10
4469.9257210407004
 20
1453.45311775749
 30
0.0
 10
4469.4480813404134
 20
1453.6810058012111
 30
0.0
 10
4469.0039722807924
 20
1453.89289594497
 30
0.0
 11
4470.4473478814334
 21
1453.4463230451599
 31
0.0
 11
4470.3786113484948
 21
1453.4472184073838
 31
0.0
 11
4470.2408348367326
 21
1453.4490130845174
 31
0.0
 11
4469.9565155395612
 21
1453.474985348962
 31
0.0
 11
4469.7337852401142
 21
1453.5446927963515
 31
0.0
 11
4469.4084800504334
 21
1453.6999000859357
 31
0.0
 11
4469.0039722807924
 21
1453.89289594497
 31
0.0
  0
SPLINE
  5
386
100
AcDbEntity
  8
0
  6
CONTINUOUS
 62
           3
100
AcDbSpline
210
0.0
220
0.0
230
1.0
 70
           0
 71
           3
 72
           8
 73
           5
 74
           7
 42
0.00000000001
 43
0.00000000001
 44
0.00000000001
 40
0.0
 40
0.0
 40
0.0
 40
0.6787700534916785
 40
1.1891668948801632
 40
1.5431123743444182
 40
1.5431123743444182
 40
1.5431123743444182
 10
4463.2304694132754
 20
1453.89289594498
 30
0.0
 10
4462.8610455998323
 20
1453.7087672443499
 30
0.0
 10
4462.3849061760529
 20
1453.47144920953
 30
0.0
 10
4461.8965479780154
 20
1453.4509234239999
 30
0.0
 10
4461.7870938127753
 20
1453.4463230451599
 30
0.0
 11
4463.2304694132754
 21
1453.89289594498
 31
0.0
 11
4462.885457099067
 21
1453.7209344557493
 31
0.0
 11
4462.589267783329
 21
1453.573307389318
 31
0.0
 11
4462.3639023173764
 21
1453.493883619353
 31
0.0
 11
4462.0965291340744
 21
1453.4593286690347
 31
0.0
 11
4461.9191797257199
 21
1453.4518746405488
 31
0.0
 11
4461.7870938127753
 21
1453.4463230451599
 31
0.0
  0
SPLINE
  5
385
100
AcDbEntity
  8
0
  6
CONTINUOUS
 62
           3
100
AcDbSpline
210
0.0
220
0.0
230
1.0
 70
           0
 71
           3
 72
           8
 73
           5
 74
           7
 42
0.00000000001
 43
0.00000000001
 44
0.00000000001
 40
0.0
 40
0.0
 40
0.0
 40
0.3539460334960932
 40
0.8643414136594443
 40
1.5431068114014446
 40
1.5431068114014446
 40
1.5431068114014446
 10
4461.7870938127753
 20
1458.44631827679
 30
0.0
 10
4461.8965479678536
 20
1458.4417123805711
 30
0.0
 10
4462.3849057964744
 20
1458.4211619914799
 30
0.0
 10
4462.8610454738764
 20
1458.1838525071
 30
0.0
 10
4463.2304694134009
 20
1457.9997304757601
 30
0.0
 11
4461.7870938127753
 21
1458.44631827679
 31
0.0
 11
4461.9191798110114
 21
1458.4407600190955
 31
0.0
 11
4462.096529495564
 21
1458.4332970384498
 31
0.0
 11
4462.3639022668185
 21
1458.3987320676665
 31
0.0
 11
4462.5892679787576
 21
1458.3193072492559
 31
0.0
 11
4462.885457084978
 21
1458.1716856848038
 31
0.0
 11
4463.2304694134009
 21
1457.9997304757601
 31
0.0
  0
SPLINE
  5
384
100
AcDbEntity
  8
0
  6
CONTINUOUS
 62
           3
100
AcDbSpline
210
0.0
220
0.0
230
1.0
 70
           0
 71
           3
 72
           8
 73
           5
 74
           7
 42
0.00000000001
 43
0.00000000001
 44
0.00000000001
 40
0.0
 40
0.0
 40
0.0
 40
0.6415450374778764
 40
1.1579303686112847
 40
1.5357381749059922
 40
1.5357381749059922
 40
1.5357381749059922
 10
4461.7870938127753
 20
1453.4463230451599
 30
0.0
 10
4461.3967478340428
 20
1453.50395256662
 30
0.0
 10
4460.9081087547884
 20
1453.57609378963
 30
0.0
 10
4460.4382360875434
 20
1453.839841321
 30
0.0
 10
4460.3437179794037
 20
1453.89289594497
 30
0.0
 11
4461.7870938127753
 21
1453.4463230451599
 31
0.0
 11
4461.4266523711331
 21
1453.4995375495425
 31
0.0
 11
4461.1260200036731
 21
1453.5439220197704
 31
0.0
 11
4460.894750172748
 21
1453.6061285707074
 31
0.0
 11
4460.6367631777421
 21
1453.7284046837997
 31
0.0
 11
4460.4642383330574
 21
1453.8252458176923
 31
0.0
 11
4460.3437179794037
 21
1453.89289594497
 31
0.0
  0
SPLINE
  5
383
100
AcDbEntity
  8
0
  6
CONTINUOUS
 62
           3
100
AcDbSpline
210
0.0
220
0.0
230
1.0
 70
           0
 71
           3
 72
           8
 73
           5
 74
           7
 42
0.00000000001
 43
0.00000000001
 44
0.00000000001
 40
0.0
 40
0.0
 40
0.0
 40
0.3778155285016139
 40
0.8942062234004066
 40
1.5357514174684888
 40
1.5357514174684888
 40
1.5357514174684888
 10
4460.3437179794037
 20
1457.9997304757601
 30
0.0
 10
4460.4382360224654
 20
1458.05279056365
 30
0.0
 10
4460.9081059203336
 20
1458.3165638841199
 30
0.0
 10
4461.3967468597339
 20
1458.3886960589409
 30
0.0
 10
4461.7870938127753
 20
1458.44631827679
 30
0.0
 11
4460.3437179794037
 21
1457.9997304757601
 31
0.0
 11
4460.4642382798384
 21
1458.067387586771
 31
0.0
 11
4460.6367630950181
 21
1458.1642387440249
 31
0.0
 11
4460.8947485397603
 21
1458.2865245779819
 31
0.0
 11
4461.1260192233558
 21
1458.3487317996628
 31
0.0
 11
4461.4266516888993
 21
1458.3931105485835
 31
0.0
 11
4461.7870938127753
 21
1458.44631827679
 31
0.0
  0
SPLINE
  5
382
100
AcDbEntity
  8
0
  6
CONTINUOUS
 62
           3
100
AcDbSpline
210
0.0
220
0.0
230
1.0
 70
           0
 71
           3
 72
           8
 73
           5
 74
           7
 42
0.00000000001
 43
0.00000000001
 44
0.00000000001
 40
0.0
 40
0.0
 40
0.0
 40
0.2779464854673941
 40
0.786284084401646
 40
1.5429642659230913
 40
1.5429642659230913
 40
1.5429642659230913
 10
4470.4473478813934
 20
1458.446318276659
 30
0.0
 10
4470.4815644307946
 20
1458.44587258142
 30
0.0
 10
4470.9689771498834
 20
1458.43952367718
 30
0.0
 10
4471.4466156294284
 20
1458.211627893221
 30
0.0
 10
4471.890723714796
 20
1457.9997304757601
 30
0.0
 11
4470.4473478813934
 21
1458.446318276659
 31
0.0
 11
4470.5160846271783
 21
1458.4454229307862
 31
0.0
 11
4470.6538617657279
 21
1458.4436282836464
 31
0.0
 11
4470.9381821349025
 21
1458.4176552898
 31
0.0
 11
4471.1609124741153
 21
1458.3479455211927
 31
0.0
 11
4471.486216861942
 21
1458.1927329458488
 31
0.0
 11
4471.890723714796
 21
1457.9997304757601
 31
0.0
  0
SPLINE
  5
381
100
AcDbEntity
  8
0
  6
CONTINUOUS
 62
           3
100
AcDbSpline
210
0.0
220
0.0
230
1.0
 70
           0
 71
           3
 72
           8
 73
           5
 74
           7
 42
0.00000000001
 43
0.00000000001
 44
0.00000000001
 40
0.0
 40
0.0
 40
0.0
 40
1.2475591451550718
 40
2.2257037084922464
 40
2.9354142011720015
 40
2.9354142011720015
 40
2.9354142011720015
 10
4466.1172208471044
 20
1463.44631350841
 30
0.0
 10
4465.361565790603
 20
1463.392212172839
 30
0.0
 10
4464.3841279770813
 20
1463.3222322385991
 30
0.0
 10
4463.4438259743856
 20
1463.0593819161099
 30
0.0
 10
4463.2304694132754
 20
1462.9997406086
 30
0.0
 11
4466.1172208471044
 21
1463.44631350841
 31
0.0
 11
4465.4135103482677
 21
1463.3959311580022
 31
0.0
 11
4464.8136889647585
 21
1463.3529867779198
 31
0.0
 11
4464.3552874368015
 21
1463.2918391653766
 31
0.0
 11
4463.8392048282876
 21
1463.1699054063881
 31
0.0
 11
4463.4893315475829
 21
1463.0721024618019
 31
0.0
 11
4463.2304694132754
 21
1462.9997406086
 31
0.0
  0
SPLINE
  5
380
100
AcDbEntity
  8
0
  6
CONTINUOUS
 62
           3
100
AcDbSpline
210
0.0
220
0.0
230
1.0
 70
           0
 71
           3
 72
           8
 73
           5
 74
           7
 42
0.00000000001
 43
0.00000000001
 44
0.00000000001
 40
0.0
 40
0.0
 40
0.0
 40
1.2321288292607568
 40
2.2113508927687269
 40
2.9387184667244086
 40
2.9387184667244086
 40
2.9387184667244086
 10
4469.0039722809324
 20
1462.9997406086
 30
0.0
 10
4468.2847126264824
 20
1463.1799378911689
 30
0.0
 10
4467.3328501515234
 20
1463.418409533941
 30
0.0
 10
4466.3559435905854
 20
1463.4408337842001
 30
0.0
 10
4466.1172208471044
 20
1463.44631350841
 30
0.0
 11
4469.0039722809324
 21
1462.9997406086
 31
0.0
 11
4468.3319369592955
 21
1463.168106702821
 31
0.0
 11
4467.7543503032866
 21
1463.3128104203461
 31
0.0
 11
4467.2980906724342
 21
1463.3952264515963
 31
0.0
 11
4466.7723120834034
 21
1463.4312763181574
 31
0.0
 11
4466.4003550279194
 21
1463.4398143487419
 31
0.0
 11
4466.1172208471044
 21
1463.44631350841
 31
0.0
  0
SPLINE
  5
37F
100
AcDbEntity
  8
0
  6
CONTINUOUS
 62
           3
100
AcDbSpline
210
0.0
220
0.0
230
1.0
 70
           0
 71
           3
 72
           8
 73
           5
 74
           7
 42
0.00000000001
 43
0.00000000001
 44
0.00000000001
 40
0.0
 40
0.0
 40
0.0
 40
0.7273681394906142
 40
1.7065914567893998
 40
2.9387223240338063
 40
2.9387223240338063
 40
2.9387223240338063
 10
4466.1172208471044
 20
1458.44631827679
 30
0.0
 10
4466.3559436264613
 20
1458.4517978158599
 30
0.0
 10
4467.332851272412
 20
1458.4742213299801
 30
0.0
 10
4468.2847129816746
 20
1458.7127019532491
 30
0.0
 10
4469.0039722807924
 20
1458.8929060778589
 30
0.0
 11
4466.1172208471044
 21
1458.44631827679
 31
0.0
 11
4466.4003551404021
 21
1458.452817218476
 31
0.0
 11
4466.7723124615814
 21
1458.4613549653941
 31
0.0
 11
4467.2980915009421
 21
1458.4974055059133
 31
0.0
 11
4467.754350997363
 21
1458.5798243982995
 31
0.0
 11
4468.3319373103759
 21
1458.7245335956641
 31
0.0
 11
4469.0039722807924
 21
1458.8929060778589
 31
0.0
  0
SPLINE
  5
37E
100
AcDbEntity
  8
0
  6
CONTINUOUS
 62
           3
100
AcDbSpline
210
0.0
220
0.0
230
1.0
 70
           0
 71
           3
 72
           8
 73
           5
 74
           7
 42
0.00000000001
 43
0.00000000001
 44
0.00000000001
 40
0.0
 40
0.0
 40
0.0
 40
0.7097126556368363
 40
1.6878594213861366
 40
2.9354211178783629
 40
2.9354211178783629
 40
2.9354211178783629
 10
4463.2304694132754
 20
1458.89290607777
 30
0.0
 10
4463.443825829193
 20
1458.8332592426709
 30
0.0
 10
4464.384123038014
 20
1458.5703857203609
 30
0.0
 10
4465.361564189684
 20
1458.5004135443601
 30
0.0
 10
4466.1172208471044
 20
1458.44631827679
 30
0.0
 11
4463.2304694132754
 21
1458.89290607777
 31
0.0
 11
4463.4893309803547
 21
1458.8205376273588
 31
0.0
 11
4463.8392028497583
 21
1458.7227259463243
 31
0.0
 11
4464.3552836170629
 21
1458.6007829935227
 31
0.0
 11
4464.8136855424646
 21
1458.5396345870436
 31
0.0
 11
4465.4135086922342
 21
1458.4966949881384
 31
0.0
 11
4466.1172208471044
 21
1458.44631827679
 31
0.0
  0
SPLINE
  5
37D
100
AcDbEntity
  8
0
  6
CONTINUOUS
 62
           3
100
AcDbSpline
210
0.0
220
0.0
230
1.0
 70
           0
 71
           3
 72
           8
 73
           5
 74
           7
 42
0.00000000001
 43
0.00000000001
 44
0.00000000001
 40
0.0
 40
0.0
 40
0.0
 40
0.2779452695526916
 40
0.7862805426542998
 40
1.5429573554984704
 40
1.5429573554984704
 40
1.5429573554984704
 10
4470.4473478814334
 20
1463.44631350841
 30
0.0
 10
4470.4131313379048
 20
1463.4458678036499
 30
0.0
 10
4469.9257210407004
 20
1463.4395187960911
 30
0.0
 10
4469.4480813404134
 20
1463.2116307523791
 30
0.0
 10
4469.0039722809324
 20
1462.9997406086
 30
0.0
 11
4470.4473478814334
 21
1463.44631350841
 31
0.0
 11
4470.378611348493
 21
1463.4454181461931
 31
0.0
 11
4470.2408348367326
 21
1463.4436234690625
 31
0.0
 11
4469.9565155395576
 21
1463.4176512046174
 31
0.0
 11
4469.733785240096
 21
1463.3479437572246
 31
0.0
 11
4469.4084800504643
 21
1463.1927364676458
 31
0.0
 11
4469.0039722809324
 21
1462.9997406086
 31
0.0
  0
SPLINE
  5
37C
100
AcDbEntity
  8
0
  6
CONTINUOUS
 62
           3
100
AcDbSpline
210
0.0
220
0.0
230
1.0
 70
           0
 71
           3
 72
           8
 73
           5
 74
           7
 42
0.00000000001
 43
0.00000000001
 44
0.00000000001
 40
0.0
 40
0.0
 40
0.0
 40
0.2779464854708649
 40
0.7862840844054864
 40
1.5429642659437237
 40
1.5429642659437237
 40
1.5429642659437237
 10
4470.4473478813934
 20
1458.446318276659
 30
0.0
 10
4470.4815644307946
 20
1458.4467639721699
 30
0.0
 10
4470.9689771498834
 20
1458.453112876399
 30
0.0
 10
4471.4466156294284
 20
1458.68100866036
 30
0.0
 10
4471.890723714796
 20
1458.8929060778589
 30
0.0
 11
4470.4473478813934
 21
1458.446318276659
 31
0.0
 11
4470.5160846271783
 21
1458.4472136227346
 31
0.0
 11
4470.6538617657297
 21
1458.4490082699399
 31
0.0
 11
4470.9381821349025
 21
1458.474981263781
 31
0.0
 11
4471.1609124741126
 21
1458.5446910323858
 31
0.0
 11
4471.486216861942
 21
1458.6999036077411
 31
0.0
 11
4471.890723714796
 21
1458.8929060778589
 31
0.0
  0
SPLINE
  5
37B
100
AcDbEntity
  8
0
  6
CONTINUOUS
 62
           3
100
AcDbSpline
210
0.0
220
0.0
230
1.0
 70
           0
 71
           3
 72
           8
 73
           5
 74
           7
 42
0.00000000001
 43
0.00000000001
 44
0.00000000001
 40
0.0
 40
0.0
 40
0.0
 40
0.2779462752365401
 40
0.7862820883263353
 40
1.5429577306100686
 40
1.5429577306100686
 40
1.5429577306100686
 10
4461.7870938127753
 20
1463.44631350841
 30
0.0
 10
4461.7528772644628
 20
1463.4458678005301
 30
0.0
 10
4461.2654649662754
 20
1463.4395187233999
 30
0.0
 10
4460.7878262536124
 20
1463.211630750229
 30
0.0
 10
4460.3437179794037
 20
1462.99974060866
 30
0.0
 11
4461.7870938127753
 21
1463.44631350841
 31
0.0
 11
4461.7183570282341
 21
1463.4454181367778
 31
0.0
 11
4461.5805797712383
 21
1463.4436234376408
 31
0.0
 11
4461.2962597416927
 21
1463.417651113599
 31
0.0
 11
4461.0735292629797
 21
1463.3479435699551
 31
0.0
 11
4460.7482249374025
 21
1463.1927364197682
 31
0.0
 11
4460.3437179794037
 21
1462.99974060866
 31
0.0
  0
SPLINE
  5
37A
100
AcDbEntity
  8
0
  6
CONTINUOUS
 62
           3
100
AcDbSpline
210
0.0
220
0.0
230
1.0
 70
           0
 71
           3
 72
           8
 73
           5
 74
           7
 42
0.00000000001
 43
0.00000000001
 44
0.00000000001
 40
0.0
 40
0.0
 40
0.0
 40
0.2779454797457066
 40
0.7862825386910033
 40
1.5429638907276617
 40
1.5429638907276617
 40
1.5429638907276617
 10
4461.7870938127753
 20
1458.44631827679
 30
0.0
 10
4461.8213103573526
 20
1458.4467639690499
 30
0.0
 10
4462.3087210754593
 20
1458.4531128036999
 30
0.0
 10
4462.7863605426264
 20
1458.68100865821
 30
0.0
 10
4463.2304694132754
 20
1458.89290607777
 30
0.0
 11
4461.7870938127753
 21
1458.44631827679
 31
0.0
 11
4461.8558303069258
 21
1458.4472136133513
 31
0.0
 11
4461.9936067002209
 21
1458.449008238515
 31
0.0
 11
4462.2779263370367
 21
1458.4749811727568
 31
0.0
 11
4462.5006564970054
 21
1458.5446908451115
 31
0.0
 11
4462.8259617488829
 21
1458.6999035598253
 31
0.0
 11
4463.2304694132754
 21
1458.89290607777
 31
0.0
  0
SPLINE
  5
379
100
AcDbEntity
  8
0
  6
CONTINUOUS
 62
           3
100
AcDbSpline
210
0.0
220
0.0
230
1.0
 70
           0
 71
           3
 72
           8
 73
           5
 74
           7
 42
0.00000000001
 43
0.00000000001
 44
0.00000000001
 40
0.0
 40
0.0
 40
0.0
 40
1.2475604207870856
 40
2.2257060852961512
 40
2.9354176594295036
 40
2.9354176594295036
 40
2.9354176594295036
 10
4466.1172208471044
 20
1476.04631818141
 30
0.0
 10
4465.3615649901503
 20
1475.9922198798499
 30
0.0
 10
4464.3841255075904
 20
1475.9222438247509
 30
0.0
 10
4463.4438259017934
 20
1475.659381902309
 30
0.0
 10
4463.2304694132754
 20
1475.599737831009
 30
0.0
 11
4466.1172208471044
 21
1476.04631818141
 31
0.0
 11
4465.413509520261
 21
1475.9959386505427
 31
0.0
 11
4464.8136872536361
 21
1475.9529966610608
 31
0.0
 11
4464.3552855269654
 21
1475.8918486515502
 31
0.0
 11
4463.839203839043
 21
1475.7699102956381
 31
0.0
 11
4463.4893312639761
 21
1475.6721029828163
 31
0.0
 11
4463.2304694132754
 21
1475.599737831009
 31
0.0
  0
SPLINE
  5
378
100
AcDbEntity
  8
0
  6
CONTINUOUS
 62
           3
100
AcDbSpline
210
0.0
220
0.0
230
1.0
 70
           0
 71
           3
 72
           8
 73
           5
 74
           7
 42
0.00000000001
 43
0.00000000001
 44
0.00000000001
 40
0.0
 40
0.0
 40
0.0
 40
1.2321298483021077
 40
2.2113525386979274
 40
2.9387203954171883
 40
2.9387203954171883
 40
2.9387203954171883
 10
4469.0039722809324
 20
1475.599737831009
 30
0.0
 10
4468.2847128040748
 20
1475.7799385345611
 30
0.0
 10
4467.3328507119613
 20
1476.018414667569
 30
0.0
 10
4466.3559436085216
 20
1476.040838549759
 30
0.0
 10
4466.1172208471044
 20
1476.04631818141
 30
0.0
 11
4469.0039722809324
 21
1475.599737831009
 31
0.0
 11
4468.331937134848
 21
1475.7681071191878
 31
0.0
 11
4467.754350650308
 21
1475.91281357662
 31
0.0
 11
4467.29809108668
 21
1475.9952310384322
 31
0.0
 11
4466.7723122724892
 21
1476.0312812419704
 31
0.0
 11
4466.4003550841589
 21
1476.0398191307245
 31
0.0
 11
4466.1172208471044
 21
1476.04631818141
 31
0.0
  0
SPLINE
  5
377
100
AcDbEntity
  8
0
  6
CONTINUOUS
 62
           3
100
AcDbSpline
210
0.0
220
0.0
230
1.0
 70
           0
 71
           3
 72
           8
 73
           5
 74
           7
 42
0.00000000001
 43
0.00000000001
 44
0.00000000001
 40
0.0
 40
0.0
 40
0.0
 40
0.7273675739560418
 40
1.7065896374636589
 40
2.9387184666004051
 40
2.9387184666004051
 40
2.9387184666004051
 10
4466.1172208471044
 20
1471.04632294978
 30
0.0
 10
4466.3559435905854
 20
1471.0518026740101
 30
0.0
 10
4467.3328501515234
 20
1471.0742269242601
 30
0.0
 10
4468.2847126264824
 20
1471.3126985670301
 30
0.0
 10
4469.0039722807924
 20
1471.4928958496489
 30
0.0
 11
4466.1172208471044
 21
1471.04632294978
 31
0.0
 11
4466.4003550279203
 21
1471.0528221094621
 31
0.0
 11
4466.7723120834044
 21
1471.0613601400487
 31
0.0
 11
4467.2980906724397
 21
1471.0974100066069
 31
0.0
 11
4467.7543503033103
 21
1471.1798260378598
 31
0.0
 11
4468.3319369592664
 21
1471.3245297553922
 31
0.0
 11
4469.0039722807924
 21
1471.4928958496489
 31
0.0
  0
SPLINE
  5
376
100
AcDbEntity
  8
0
  6
CONTINUOUS
 62
           3
100
AcDbSpline
210
0.0
220
0.0
230
1.0
 70
           0
 71
           3
 72
           8
 73
           5
 74
           7
 42
0.00000000001
 43
0.00000000001
 44
0.00000000001
 40
0.0
 40
0.0
 40
0.0
 40
0.7097104926800303
 40
1.6878550560171743
 40
2.9354142011728959
 40
2.9354142011728959
 40
2.9354142011728959
 10
4463.2304694132754
 20
1471.4928958496
 30
0.0
 10
4463.4438259743856
 20
1471.4332545420889
 30
0.0
 10
4464.3841279770813
 20
1471.1704042196
 30
0.0
 10
4465.361565790603
 20
1471.1004242853601
 30
0.0
 10
4466.1172208471044
 20
1471.04632294978
 30
0.0
 11
4463.2304694132754
 21
1471.4928958496
 31
0.0
 11
4463.4893315475838
 21
1471.4205339963971
 31
0.0
 11
4463.8392048282876
 21
1471.3227310518107
 31
0.0
 11
4464.3552874368024
 21
1471.2007972928225
 31
0.0
 11
4464.8136889647576
 21
1471.139649680279
 31
0.0
 11
4465.4135103482677
 21
1471.096705300195
 31
0.0
 11
4466.1172208471044
 21
1471.04632294978
 31
0.0
  0
SPLINE
  5
375
100
AcDbEntity
  8
0
  6
CONTINUOUS
 62
           3
100
AcDbSpline
210
0.0
220
0.0
230
1.0
 70
           0
 71
           3
 72
           8
 73
           5
 74
           7
 42
0.00000000001
 43
0.00000000001
 44
0.00000000001
 40
0.0
 40
0.0
 40
0.0
 40
0.2779453746513361
 40
0.7862815406666743
 40
1.5429606230912571
 40
1.5429606230912571
 40
1.5429606230912571
 10
4470.4473478814334
 20
1476.04631818141
 30
0.0
 10
4470.4131313373809
 20
1476.04587248289
 30
0.0
 10
4469.9257208297204
 20
1476.0395235617909
 30
0.0
 10
4469.4480812460033
 20
1475.81163161268
 30
0.0
 10
4469.0039722809324
 20
1475.599737831009
 30
0.0
 11
4470.4473478814334
 21
1476.04631818141
 31
0.0
 11
4470.378611367888
 21
1476.0454228320139
 31
0.0
 11
4470.2408349153566
 21
1476.0436281808657
 31
0.0
 11
4469.9565154483616
 21
1476.0176555815247
 31
0.0
 11
4469.7337852186492
 21
1475.9479470216506
 31
0.0
 11
4469.4084799978973
 21
1475.7927370195048
 31
0.0
 11
4469.0039722809324
 21
1475.599737831009
 31
0.0
  0
SPLINE
  5
374
100
AcDbEntity
  8
0
  6
CONTINUOUS
 62
           3
100
AcDbSpline
210
0.0
220
0.0
230
1.0
 70
           0
 71
           3
 72
           8
 73
           5
 74
           7
 42
0.00000000001
 43
0.00000000001
 44
0.00000000001
 40
0.0
 40
0.0
 40
0.0
 40
0.2779462752393291
 40
0.7862820883304169
 40
1.542957730653447
 40
1.542957730653447
 40
1.542957730653447
 10
4470.4473478814334
 20
1471.04632294978
 30
0.0
 10
4470.4815644297514
 20
1471.0467686576701
 30
0.0
 10
4470.9689767279333
 20
1471.0531177347891
 30
0.0
 10
4471.4466154405955
 20
1471.281005707981
 30
0.0
 10
4471.890723714796
 20
1471.4928958496489
 30
0.0
 11
4470.4473478814334
 21
1471.04632294978
 31
0.0
 11
4470.5160846659774
 21
1471.0472183214188
 31
0.0
 11
4470.6538619229741
 21
1471.0490130205553
 31
0.0
 11
4470.9381819525161
 21
1471.0749853445934
 31
0.0
 11
4471.1609124312236
 21
1471.1446928882397
 31
0.0
 11
4471.4862167568026
 21
1471.2999000384627
 31
0.0
 11
4471.890723714796
 21
1471.4928958496489
 31
0.0
  0
SPLINE
  5
373
100
AcDbEntity
  8
0
  6
CONTINUOUS
 62
           3
100
AcDbSpline
210
0.0
220
0.0
230
1.0
 70
           0
 71
           3
 72
           8
 73
           5
 74
           7
 42
0.00000000001
 43
0.00000000001
 44
0.00000000001
 40
0.0
 40
0.0
 40
0.0
 40
0.2779463803328474
 40
0.7862830863394046
 40
1.5429609982583783
 40
1.5429609982583783
 40
1.5429609982583783
 10
4461.7870938127753
 20
1476.04631818141
 30
0.0
 10
4461.7528772639334
 20
1476.0458724797791
 30
0.0
 10
4461.2654647553054
 20
1476.0395234891
 30
0.0
 10
4460.7878261591914
 20
1475.81163161053
 30
0.0
 10
4460.3437179794037
 20
1475.5997378309489
 30
0.0
 11
4461.7870938127753
 21
1476.04631818141
 31
0.0
 11
4461.7183570476273
 21
1476.0454228226045
 31
0.0
 11
4461.580579849865
 21
1476.0436281494499
 31
0.0
 11
4461.2962596505049
 21
1476.0176554905081
 31
0.0
 11
4461.073529241542
 21
1475.9479468343829
 31
0.0
 11
4460.7482248848319
 21
1475.7927369715978
 31
0.0
 11
4460.3437179794037
 21
1475.5997378309489
 31
0.0
  0
SPLINE
  5
372
100
AcDbEntity
  8
0
  6
CONTINUOUS
 62
           3
100
AcDbSpline
210
0.0
220
0.0
230
1.0
 70
           0
 71
           3
 72
           8
 73
           5
 74
           7
 42
0.00000000001
 43
0.00000000001
 44
0.00000000001
 40
0.0
 40
0.0
 40
0.0
 40
0.2779452695555634
 40
0.7862805426589377
 40
1.5429573554978362
 40
1.5429573554978362
 40
1.5429573554978362
 10
4461.7870938127753
 20
1471.04632294978
 30
0.0
 10
4461.8213103563039
 20
1471.046768654551
 30
0.0
 10
4462.3087206535138
 20
1471.05311766211
 30
0.0
 10
4462.7863603537944
 20
1471.2810057058309
 30
0.0
 10
4463.2304694132754
 20
1471.4928958496
 30
0.0
 11
4461.7870938127753
 21
1471.04632294978
 31
0.0
 11
4461.8558303457157
 21
1471.047218312005
 31
0.0
 11
4461.9936068574789
 21
1471.0490129891386
 31
0.0
 11
4462.2779261546548
 21
1471.0749852535844
 31
0.0
 11
4462.5006564541163
 21
1471.1446927009806
 31
0.0
 11
4462.8259616437454
 21
1471.2998999905608
 31
0.0
 11
4463.2304694132754
 21
1471.4928958496
 31
0.0
  0
SPLINE
  5
371
100
AcDbEntity
  8
0
  6
CONTINUOUS
 62
           3
100
AcDbSpline
210
0.0
220
0.0
230
1.0
 70
           0
 71
           3
 72
           8
 73
           5
 74
           7
 42
0.00000000001
 43
0.00000000001
 44
0.00000000001
 40
0.0
 40
0.0
 40
0.0
 40
1.247561696492153
 40
2.2257084622414611
 40
2.9354211178785428
 40
2.9354211178785428
 40
2.9354211178785428
 10
4466.1172208471044
 20
1471.04632294978
 30
0.0
 10
4465.361564189684
 20
1470.992227682211
 30
0.0
 10
4464.384123038014
 20
1470.9222555062099
 30
0.0
 10
4463.443825829193
 20
1470.6593819838999
 30
0.0
 10
4463.2304694132754
 20
1470.5997351487999
 30
0.0
 11
4466.1172208471044
 21
1471.04632294978
 31
0.0
 11
4465.4135086922342
 21
1470.9959462384325
 31
0.0
 11
4464.8136855424646
 21
1470.9530066395273
 31
0.0
 11
4464.355283617062
 21
1470.8918582330482
 31
0.0
 11
4463.8392028497574
 21
1470.7699152802461
 31
0.0
 11
4463.4893309803538
 21
1470.6721035992114
 31
0.0
 11
4463.2304694132754
 21
1470.5997351487999
 31
0.0
  0
SPLINE
  5
370
100
AcDbEntity
  8
0
  6
CONTINUOUS
 62
           3
100
AcDbSpline
210
0.0
220
0.0
230
1.0
 70
           0
 71
           3
 72
           8
 73
           5
 74
           7
 42
0.00000000001
 43
0.00000000001
 44
0.00000000001
 40
0.0
 40
0.0
 40
0.0
 40
1.232130867358691
 40
2.2113541846577123
 40
2.9387223241483138
 40
2.9387223241483138
 40
2.9387223241483138
 10
4469.0039722809324
 20
1470.5997351487999
 30
0.0
 10
4468.2847129816746
 20
1470.77993927332
 30
0.0
 10
4467.332851272412
 20
1471.018419896591
 30
0.0
 10
4466.3559436264613
 20
1471.0408434107101
 30
0.0
 10
4466.1172208471044
 20
1471.04632294978
 30
0.0
 11
4469.0039722809324
 21
1470.5997351487999
 31
0.0
 11
4468.3319373104059
 21
1470.7681076309291
 31
0.0
 11
4467.7543509973411
 21
1470.9128168282759
 31
0.0
 11
4467.2980915009357
 21
1470.9952357206585
 31
0.0
 11
4466.7723124615814
 21
1471.0312862611763
 31
0.0
 11
4466.4003551404021
 21
1471.039824008094
 31
0.0
 11
4466.1172208471044
 21
1471.04632294978
 31
0.0
  0
SPLINE
  5
36F
100
AcDbEntity
  8
0
  6
CONTINUOUS
 62
           3
100
AcDbSpline
210
0.0
220
0.0
230
1.0
 70
           0
 71
           3
 72
           8
 73
           5
 74
           7
 42
0.00000000001
 43
0.00000000001
 44
0.00000000001
 40
0.0
 40
0.0
 40
0.0
 40
0.7273681394906142
 40
1.7065914567894207
 40
2.9387223240290199
 40
2.9387223240290199
 40
2.9387223240290199
 10
4466.1172208471044
 20
1466.0463128169999
 30
0.0
 10
4466.3559436264613
 20
1466.051792356069
 30
0.0
 10
4467.332851272412
 20
1466.074215870191
 30
0.0
 10
4468.2847129816746
 20
1466.31269649346
 30
0.0
 10
4469.0039722807924
 20
1466.49290061805
 30
0.0
 11
4466.1172208471044
 21
1466.0463128169999
 31
0.0
 11
4466.4003551404021
 21
1466.0528117586855
 31
0.0
 11
4466.7723124615814
 21
1466.0613495056039
 31
0.0
 11
4467.2980915009421
 21
1466.097400046124
 31
0.0
 11
4467.7543509973639
 21
1466.1798189385108
 31
0.0
 11
4468.3319373103768
 21
1466.3245281358704
 31
0.0
 11
4469.0039722807924
 21
1466.49290061805
 31
0.0
  0
SPLINE
  5
36E
100
AcDbEntity
  8
0
  6
CONTINUOUS
 62
           3
100
AcDbSpline
210
0.0
220
0.0
230
1.0
 70
           0
 71
           3
 72
           8
 73
           5
 74
           7
 42
0.00000000001
 43
0.00000000001
 44
0.00000000001
 40
0.0
 40
0.0
 40
0.0
 40
0.7097107189137494
 40
1.6878556121197703
 40
2.9354150974110071
 40
2.9354150974110071
 40
2.9354150974110071
 10
4463.2304694132754
 20
1466.4929006179791
 30
0.0
 10
4463.4438259949256
 20
1466.4332594754401
 30
0.0
 10
4464.3841286758934
 20
1466.170409715691
 30
0.0
 10
4465.3615660171154
 20
1466.1004209726109
 30
0.0
 10
4466.1172208471044
 20
1466.0463128169999
 30
0.0
 11
4463.2304694132754
 21
1466.4929006179791
 31
0.0
 11
4463.48933163323
 21
1466.4205389479564
 31
0.0
 11
4463.839205129796
 21
1466.3227362229663
 31
0.0
 11
4464.3552879882864
 21
1466.2008017395815
 31
0.0
 11
4464.8136894715599
 21
1466.1396513039779
 31
0.0
 11
4465.4135105882233
 21
1466.0967015165497
 31
0.0
 11
4466.1172208471044
 21
1466.0463128169999
 31
0.0
  0
SPLINE
  5
36D
100
AcDbEntity
  8
0
  6
CONTINUOUS
 62
           3
100
AcDbSpline
210
0.0
220
0.0
230
1.0
 70
           0
 71
           3
 72
           8
 73
           5
 74
           7
 42
0.00000000001
 43
0.00000000001
 44
0.00000000001
 40
0.0
 40
0.0
 40
0.0
 40
0.2779454797515542
 40
0.7862825386965875
 40
1.5429638907297478
 40
1.5429638907297478
 40
1.5429638907297478
 10
4470.4473478814334
 20
1471.04632294978
 30
0.0
 10
4470.4131313368534
 20
1471.0458772575289
 30
0.0
 10
4469.9257206187403
 20
1471.0395284228709
 30
0.0
 10
4469.4480811515814
 20
1470.81163256836
 30
0.0
 10
4469.0039722809324
 20
1470.5997351487999
 30
0.0
 11
4470.4473478814334
 21
1471.04632294978
 31
0.0
 11
4470.3786113872802
 21
1471.0454276132245
 31
0.0
 11
4470.2408349939815
 21
1471.0436329880608
 31
0.0
 11
4469.9565153571648
 21
1471.0176600538152
 31
0.0
 11
4469.733785197197
 21
1470.9479503814587
 31
0.0
 11
4469.4084799453231
 21
1470.7927376667449
 31
0.0
 11
4469.0039722809324
 21
1470.5997351487999
 31
0.0
  0
SPLINE
  5
36C
100
AcDbEntity
  8
0
  6
CONTINUOUS
 62
           3
100
AcDbSpline
210
0.0
220
0.0
230
1.0
 70
           0
 71
           3
 72
           8
 73
           5
 74
           7
 42
0.00000000001
 43
0.00000000001
 44
0.00000000001
 40
0.0
 40
0.0
 40
0.0
 40
0.2779464854291581
 40
0.7862840843633863
 40
1.542964265893497
 40
1.542964265893497
 40
1.542964265893497
 10
4470.4473478814334
 20
1466.0463128169999
 30
0.0
 10
4470.4815644307946
 20
1466.0467585123811
 30
0.0
 10
4470.9689771498834
 20
1466.0531074166099
 30
0.0
 10
4471.4466156294284
 20
1466.2810032005691
 30
0.0
 10
4471.890723714796
 20
1466.49290061805
 30
0.0
 11
4470.4473478814334
 21
1466.0463128169999
 31
0.0
 11
4470.5160846271829
 21
1466.047208162978
 31
0.0
 11
4470.6538617657125
 21
1466.0490028101506
 31
0.0
 11
4470.9381821348979
 21
1466.0749758039917
 31
0.0
 11
4471.1609124741135
 21
1466.1446855725965
 31
0.0
 11
4471.486216861942
 21
1466.2998981479461
 31
0.0
 11
4471.890723714796
 21
1466.49290061805
 31
0.0
  0
SPLINE
  5
36B
100
AcDbEntity
  8
0
  6
CONTINUOUS
 62
           3
100
AcDbSpline
210
0.0
220
0.0
230
1.0
 70
           0
 71
           3
 72
           8
 73
           5
 74
           7
 42
0.00000000001
 43
0.00000000001
 44
0.00000000001
 40
0.0
 40
0.0
 40
0.0
 40
0.2779464854367504
 40
0.7862840843753629
 40
1.5429642658554252
 40
1.5429642658554252
 40
1.5429642658554252
 10
4461.7870938127753
 20
1471.04632294978
 30
0.0
 10
4461.7528772634114
 20
1471.04587725441
 30
0.0
 10
4461.2654645443126
 20
1471.03952835018
 30
0.0
 10
4460.7878260647694
 20
1470.8116325662199
 30
0.0
 10
4460.3437179794037
 20
1470.59973514885
 30
0.0
 11
4461.7870938127753
 21
1471.04632294978
 31
0.0
 11
4461.7183570670213
 21
1471.0454276038101
 31
0.0
 11
4461.5805799284881
 21
1471.0436329566401
 31
0.0
 11
4461.2962595592962
 21
1471.0176599627971
 31
0.0
 11
4461.0735292200743
 21
1470.9479501941892
 31
0.0
 11
4460.748224832254
 21
1470.7927376188695
 31
0.0
 11
4460.3437179794037
 21
1470.59973514885
 31
0.0
  0
SPLINE
  5
36A
100
AcDbEntity
  8
0
  6
CONTINUOUS
 62
           3
100
AcDbSpline
210
0.0
220
0.0
230
1.0
 70
           0
 71
           3
 72
           8
 73
           5
 74
           7
 42
0.00000000001
 43
0.00000000001
 44
0.00000000001
 40
0.0
 40
0.0
 40
0.0
 40
0.2779454797457658
 40
0.7862825386887837
 40
1.5429638907230923
 40
1.5429638907230923
 40
1.5429638907230923
 10
4461.7870938127753
 20
1466.0463128169999
 30
0.0
 10
4461.8213103573526
 20
1466.046758509259
 30
0.0
 10
4462.3087210754593
 20
1466.0531073439199
 30
0.0
 10
4462.7863605426264
 20
1466.2810031984191
 30
0.0
 10
4463.2304694132754
 20
1466.4929006179791
 30
0.0
 11
4461.7870938127753
 21
1466.0463128169999
 31
0.0
 11
4461.8558303069249
 21
1466.0472081535615
 31
0.0
 11
4461.9936067002209
 21
1466.0490027787282
 31
0.0
 11
4462.2779263370367
 21
1466.0749757129738
 31
0.0
 11
4462.5006564970054
 21
1466.1446853853272
 31
0.0
 11
4462.8259617488839
 21
1466.2998981000362
 31
0.0
 11
4463.2304694132754
 21
1466.4929006179791
 31
0.0
  0
SPLINE
  5
369
100
AcDbEntity
  8
0
  6
CONTINUOUS
 62
           3
100
AcDbSpline
210
0.0
220
0.0
230
1.0
 70
           0
 71
           3
 72
           8
 73
           5
 74
           7
 42
0.00000000001
 43
0.00000000001
 44
0.00000000001
 40
0.0
 40
0.0
 40
0.0
 40
0.4813884775033785
 40
1.3325655942388144
 40
2.5594910572527452
 40
2.5594910572527452
 40
2.5594910572527452
 10
4463.6172209029846
 20
1482.64631814564
 30
0.0
 10
4463.6764857098233
 20
1482.6467638442989
 30
0.0
 10
4464.5207058262604
 20
1482.6531127685701
 30
0.0
 10
4465.3480016933909
 20
1482.8810047144709
 30
0.0
 10
4466.1172208471044
 20
1483.092898496039
 30
0.0
 11
4463.6172209029846
 21
1482.64631814564
 31
0.0
 11
4463.7379130037971
 21
1482.6472258058527
 31
0.0
 11
4463.9814596925571
 21
1482.6490573891733
 31
0.0
 11
4464.4706080261376
 21
1482.6754346833859
 31
0.0
 11
4464.8595607594734
 21
1482.7464558072293
 31
0.0
 11
4465.4181962483399
 21
1482.9003409330526
 31
0.0
 11
4466.1172208471044
 21
1483.092898496039
 31
0.0
  0
SPLINE
  5
368
100
AcDbEntity
  8
0
  6
CONTINUOUS
 62
           3
100
AcDbSpline
210
0.0
220
0.0
230
1.0
 70
           0
 71
           3
 72
           8
 73
           5
 74
           7
 42
0.00000000001
 43
0.00000000001
 44
0.00000000001
 40
0.0
 40
0.0
 40
0.0
 40
0.4813883392837886
 40
1.3325653926426961
 40
2.5594910488301519
 40
2.5594910488301519
 40
2.5594910488301519
 10
4468.6172207911914
 20
1482.64631814564
 30
0.0
 10
4468.6764855973734
 20
1482.6467638440499
 30
0.0
 10
4469.520705438722
 20
1482.65311276281
 30
0.0
 10
4470.3480014582083
 20
1482.8810047142999
 30
0.0
 10
4471.1172207352956
 20
1483.092898496039
 30
0.0
 11
4468.6172207911914
 21
1482.64631814564
 31
0.0
 11
4468.7379128563098
 21
1482.6472258050903
 31
0.0
 11
4468.9814594393029
 21
1482.6490573866222
 31
0.0
 11
4469.4706076761731
 21
1482.6754346758053
 31
0.0
 11
4469.8595603879439
 21
1482.7464557909782
 31
0.0
 11
4470.418196009914
 21
1482.9003409289041
 31
0.0
 11
4471.1172207352956
 21
1483.092898496039
 31
0.0
  0
SPLINE
  5
367
100
AcDbEntity
  8
0
  6
CONTINUOUS
 62
           3
100
AcDbSpline
210
0.0
220
0.0
230
1.0
 70
           0
 71
           3
 72
           8
 73
           5
 74
           7
 42
0.00000000001
 43
0.00000000001
 44
0.00000000001
 40
0.0
 40
0.0
 40
0.0
 40
0.0169507227494705
 40
0.1476151553749787
 40
0.4465803503990173
 40
0.4465803503990173
 40
0.4465803503990173
 10
4461.117220958864
 20
1482.64631814564
 30
0.0
 10
4461.117220958864
 20
1482.6519265709189
 30
0.0
 10
4461.117220958864
 20
1482.6746111658599
 30
0.0
 10
4461.117220958864
 20
1482.9132554361699
 30
0.0
 10
4461.1172209589013
 20
1483.092898496039
 30
0.0
 11
4461.117220958864
 21
1482.64631814564
 31
0.0
 11
4461.117220958864
 21
1482.6511756854691
 31
0.0
 11
4461.117220958864
 21
1482.654531454398
 31
0.0
 11
4461.1172209588649
 21
1482.6877361215013
 31
0.0
 11
4461.117220958864
 21
1482.7471906998878
 31
0.0
 11
4461.1172209588731
 21
1482.9166500170668
 31
0.0
 11
4461.1172209589013
 21
1483.092898496039
 31
0.0
  0
SPLINE
  5
366
100
AcDbEntity
  8
0
  6
CONTINUOUS
 62
           3
100
AcDbSpline
210
0.0
220
0.0
230
1.0
 70
           0
 71
           3
 72
           8
 73
           5
 74
           7
 42
0.00000000001
 43
0.00000000001
 44
0.00000000001
 40
0.0
 40
0.0
 40
0.0
 40
0.2989651950240386
 40
0.4296296276495468
 40
0.4465803503990173
 40
0.4465803503990173
 40
0.4465803503990173
 10
4471.1172207352956
 20
1483.092898496039
 30
0.0
 10
4471.117220735342
 20
1482.9132554361699
 30
0.0
 10
4471.117220735342
 20
1482.6746111658599
 30
0.0
 10
4471.117220735342
 20
1482.6519265709189
 30
0.0
 10
4471.117220735342
 20
1482.64631814564
 30
0.0
 11
4471.1172207352956
 21
1483.092898496039
 31
0.0
 11
4471.1172207353302
 21
1482.9166500170666
 31
0.0
 11
4471.117220735342
 21
1482.7471906998878
 31
0.0
 11
4471.117220735342
 21
1482.6877361215013
 31
0.0
 11
4471.117220735342
 21
1482.654531454398
 31
0.0
 11
4471.1172207353411
 21
1482.6511756854691
 31
0.0
 11
4471.117220735342
 21
1482.64631814564
 31
0.0
  0
CIRCLE
  5
365
100
AcDbEntity
  8
1
  6
CONTINUOUS
 62
           7
100
AcDbCircle
 10
-0.000000000004
 20
5598.446318872742
 40
400.0
  0
CIRCLE
  5
364
100
AcDbEntity
  8
1
  6
CONTINUOUS
 62
           4
100
AcDbCircle
 10
-0.000000000004
 20
5598.446318872742
 40
125.0
  0
CIRCLE
  5
363
100
AcDbEntity
  8
1
  6
CONTINUOUS
 62
           4
100
AcDbCircle
 10
-0.000000000004
 20
5598.446318872742
 40
100.9476
  0
CIRCLE
  5
362
100
AcDbEntity
  8
1
  6
CONTINUOUS
 62
           3
100
AcDbCircle
 10
-491.527744678121
 20
1393.64716719979
 40
40.0
  0
CIRCLE
  5
361
100
AcDbEntity
  8
1
  6
CONTINUOUS
 62
           7
100
AcDbCircle
 10
4850.217224125428
 20
698.44631887274
 40
7.5
  0
CIRCLE
  5
360
100
AcDbEntity
  8
1
  6
CONTINUOUS
 62
           2
100
AcDbCircle
 10
4850.217224125428
 20
698.44631887274
 40
8.350000000001
  0
CIRCLE
  5
35F
100
AcDbEntity
  8
1
  6
CONTINUOUS
 62
           7
100
AcDbCircle
 10
4850.217224125428
 20
698.44631887274
 40
15.0
  0
ARC
  5
35E
100
AcDbEntity
  8
0
  6
CONTINUOUS
 62
           7
100
AcDbCircle
 10
-68.000000000004
 20
5638.446318872742
 40
670.0
100
AcDbArc
 50
-90.0
 51
-65.560184603745
  0
ARC
  5
35D
100
AcDbEntity
  8
0
  6
CONTINUOUS
 62
           7
100
AcDbCircle
 10
44.999999999996
 20
5575.446318872742
 40
469.999999999995
100
AcDbArc
 50
73.766596122265
 51
91.7405042324
  0
ARC
  5
35C
100
AcDbEntity
  8
0
  6
CONTINUOUS
 62
           7
100
AcDbCircle
 10
-20.000000000004
 20
5528.446318872742
 40
550.0
100
AcDbArc
 50
19.235892312416
 51
32.0167313156
  0
ARC
  5
35B
100
AcDbEntity
  8
0
  6
CONTINUOUS
 62
           7
100
AcDbCircle
 10
-68.000000000004
 20
5638.44631887274
 40
669.999999999999
100
AcDbArc
 50
-176.149739729349
 51
-90.0
  0
ARC
  5
35A
100
AcDbEntity
  8
1
  6
CONTINUOUS
 62
           7
100
AcDbCircle
 10
-736.804904288242
 20
5598.446318872742
 40
5.0
100
AcDbArc
 50
-86.36353044751
 51
93.208888116184
  0
ARC
  5
359
100
AcDbEntity
  8
0
  6
CONTINUOUS
 62
           7
100
AcDbCircle
 10
-68.000000000004
 20
5638.446318872742
 40
670.0
100
AcDbArc
 50
180.0
 51
-177.004902602006
  0
ARC
  5
358
100
AcDbEntity
  8
1
  6
CONTINUOUS
 62
           7
100
AcDbCircle
 10
500.919408978723
 20
5704.92002611904
 40
4.999999999999
100
AcDbArc
 50
108.975456054153
 51
-71.54541646233
  0
ARC
  5
357
100
AcDbEntity
  8
0
  6
CONTINUOUS
 62
           7
100
AcDbCircle
 10
-20.000000000004
 20
5528.446318872742
 40
550.000000000001
100
AcDbArc
 50
0.053742830624
 51
18.194147279427
  0
ARC
  5
356
100
AcDbEntity
  8
0
  6
CONTINUOUS
 62
           7
100
AcDbCircle
 10
-20.000000000004
 20
5528.446318872742
 40
550.0
100
AcDbArc
 50
-65.3714141245
 51
-0.988002202365
  0
ARC
  5
355
100
AcDbEntity
  8
1
  6
CONTINUOUS
 62
           7
100
AcDbCircle
 10
529.981720683262
 20
5523.962245470908
 40
4.999999999999
100
AcDbArc
 50
89.793306572368
 51
-90.727565944124
  0
ARC
  5
354
100
AcDbEntity
  8
1
  6
CONTINUOUS
 62
           7
100
AcDbCircle
 10
181.18208262821
 20
6025.284556877292
 40
5.0
100
AcDbArc
 50
163.46182990047
 51
-17.147702543131
  0
ARC
  5
353
100
AcDbEntity
  8
0
  6
CONTINUOUS
 62
           7
100
AcDbCircle
 10
44.999999999996
 20
5575.446318872742
 40
469.999999999994
100
AcDbArc
 50
31.359627184827
 51
72.547531235072
  0
ARC
  5
352
100
AcDbEntity
  8
1
  6
CONTINUOUS
 62
           7
100
AcDbCircle
 10
-0.000000000004
 20
5598.446318872742
 40
150.000000000002
100
AcDbArc
 50
23.882765003116
 51
-89.999999999999
  0
ARC
  5
351
100
AcDbEntity
  8
1
  6
CONTINUOUS
 62
           7
100
AcDbCircle
 10
-0.000000000004
 20
5598.446318872742
 40
132.84
100
AcDbArc
 50
-75.809724714478
 51
-75.809724714478
  0
ARC
  5
350
100
AcDbEntity
  8
1
  6
CONTINUOUS
 62
           7
100
AcDbCircle
 10
-0.000000000004
 20
5598.446318872742
 40
150.0
100
AcDbArc
 50
-89.999999999999
 51
-23.882765003115
  0
ARC
  5
34F
100
AcDbEntity
  8
7
  6
CONTINUOUS
 62
           7
100
AcDbCircle
 10
117.560000000003
 20
3293.806318872743
 40
3.84
100
AcDbArc
 50
0.0
 51
90.0
  0
ARC
  5
34E
100
AcDbEntity
  8
7
  6
CONTINUOUS
 62
           7
100
AcDbCircle
 10
116.507824400003
 20
3300.046318872741
 40
2.399999999997
100
AcDbArc
 50
-125.000000000015
 51
-90.0
  0
ARC
  5
34D
100
AcDbEntity
  8
7
  6
CONTINUOUS
 62
           7
100
AcDbCircle
 10
91.760000000001
 20
3319.89567967274
 40
2.4
100
AcDbArc
 50
180.0
 51
-124.999999999991
  0
ARC
  5
34C
100
AcDbEntity
  8
7
  6
CONTINUOUS
 62
           7
100
AcDbCircle
 10
85.520000000002
 20
3319.60631887274
 40
3.84
100
AcDbArc
 50
0.0
 51
90.0
  0
ARC
  5
34B
100
AcDbEntity
  8
7
  6
CONTINUOUS
 62
           7
100
AcDbCircle
 10
-94.759999999999
 20
3319.89567967274
 40
2.4
100
AcDbArc
 50
-54.999999999971
 51
0.0
  0
ARC
  5
34A
100
AcDbEntity
  8
7
  6
CONTINUOUS
 62
           7
100
AcDbCircle
 10
-88.519999999999
 20
3319.60631887274
 40
3.84
100
AcDbArc
 50
90.0
 51
180.0
  0
ARC
  5
349
100
AcDbEntity
  8
7
  6
CONTINUOUS
 62
           7
100
AcDbCircle
 10
-113.959999999998
 20
3293.579947272741
 40
7.440000000001
100
AcDbArc
 50
122.681915000002
 51
180.0
  0
ARC
  5
348
100
AcDbEntity
  8
7
  6
CONTINUOUS
 62
           7
100
AcDbCircle
 10
4936.257224125427
 20
3293.579947272741
 40
7.439999999998
100
AcDbArc
 50
122.681914999973
 51
180.0
  0
ARC
  5
347
100
AcDbEntity
  8
7
  6
CONTINUOUS
 62
           7
100
AcDbCircle
 10
4961.697224125429
 20
3319.60631887274
 40
3.84
100
AcDbArc
 50
90.0
 51
180.0
  0
ARC
  5
346
100
AcDbEntity
  8
7
  6
CONTINUOUS
 62
           7
100
AcDbCircle
 10
4955.457224125424
 20
3319.89567967274
 40
2.4
100
AcDbArc
 50
-54.999999999956
 51
0.0
  0
ARC
  5
345
100
AcDbEntity
  8
7
  6
CONTINUOUS
 62
           7
100
AcDbCircle
 10
5135.737224125426
 20
3319.60631887274
 40
3.84
100
AcDbArc
 50
0.0
 51
90.0
  0
ARC
  5
344
100
AcDbEntity
  8
7
  6
CONTINUOUS
 62
           7
100
AcDbCircle
 10
5141.977224125428
 20
3319.89567967274
 40
2.400000000001
100
AcDbArc
 50
180.0
 51
-125.000000000026
  0
ARC
  5
343
100
AcDbEntity
  8
7
  6
CONTINUOUS
 62
           7
100
AcDbCircle
 10
5166.72504852543
 20
3300.046318872741
 40
2.4
100
AcDbArc
 50
-125.000000000056
 51
-90.0
  0
ARC
  5
342
100
AcDbEntity
  8
7
  6
CONTINUOUS
 62
           7
100
AcDbCircle
 10
5167.777224125428
 20
3293.806318872741
 40
3.84
100
AcDbArc
 50
0.0
 51
90.0
  0
ARC
  5
341
100
AcDbEntity
  8
0
  6
CONTINUOUS
 62
           3
100
AcDbCircle
 10
4466.117220847104
 20
1453.446318872961
 40
4.0
100
AcDbArc
 50
180.0
 51
0.0
  0
ARC
  5
340
100
AcDbEntity
  8
0
  6
CONTINUOUS
 62
           3
100
AcDbCircle
 10
4466.117220847104
 20
1413.446318872801
 40
45.99999999997
100
AcDbArc
 50
180.0
 51
0.0
  0
ARC
  5
33F
100
AcDbEntity
  8
0
  6
CONTINUOUS
 62
           3
100
AcDbCircle
 10
4466.117220847104
 20
1413.446318872801
 40
53.999999999963
100
AcDbArc
 50
180.0
 51
0.0
  0
ARC
  5
33E
100
AcDbEntity
  8
0
  6
CONTINUOUS
 62
           3
100
AcDbCircle
 10
4459.643718155302
 20
1488.44631887274
 40
0.9
100
AcDbArc
 50
-117.266044450519
 51
-90.0
  0
ARC
  5
33D
100
AcDbEntity
  8
0
  6
CONTINUOUS
 62
           3
100
AcDbCircle
 10
4472.59072353889
 20
1488.44631887274
 40
0.899999999999
100
AcDbArc
 50
-90.0
 51
-62.733955549377
  0
ARC
  5
33C
100
AcDbEntity
  8
0
  6
CONTINUOUS
 62
           3
100
AcDbCircle
 10
4408.117220847244
 20
1629.44631887262
 40
0.99999999999
100
AcDbArc
 50
-90.0
 51
90.0
  0
ARC
  5
33B
100
AcDbEntity
  8
0
  6
CONTINUOUS
 62
           3
100
AcDbCircle
 10
4524.117220846952
 20
1629.44631887262
 40
1.0
100
AcDbArc
 50
90.0
 51
-90.0
  0
ARC
  5
33A
100
AcDbEntity
  8
0
  6
CONTINUOUS
 62
           3
100
AcDbCircle
 10
4524.117220846952
 20
1607.44631887274
 40
1.0
100
AcDbArc
 50
90.0
 51
-90.0
  0
ARC
  5
339
100
AcDbEntity
  8
0
  6
CONTINUOUS
 62
           3
100
AcDbCircle
 10
4524.117220846952
 20
1529.446318872801
 40
1.0
100
AcDbArc
 50
90.0
 51
-90.0
  0
ARC
  5
338
100
AcDbEntity
  8
0
  6
CONTINUOUS
 62
           3
100
AcDbCircle
 10
4524.117220846952
 20
1507.446318872921
 40
1.0
100
AcDbArc
 50
90.0
 51
-90.0
  0
ARC
  5
337
100
AcDbEntity
  8
0
  6
CONTINUOUS
 62
           3
100
AcDbCircle
 10
4408.117220847244
 20
1507.446318872921
 40
1.0
100
AcDbArc
 50
-90.0
 51
90.0
  0
ARC
  5
336
100
AcDbEntity
  8
0
  6
CONTINUOUS
 62
           3
100
AcDbCircle
 10
4408.117220847244
 20
1529.446318872801
 40
1.0
100
AcDbArc
 50
-90.0
 51
90.0
  0
ARC
  5
335
100
AcDbEntity
  8
0
  6
CONTINUOUS
 62
           3
100
AcDbCircle
 10
4408.117220847244
 20
1607.44631887274
 40
1.0
100
AcDbArc
 50
-90.0
 51
90.0
  0
ARC
  5
334
100
AcDbEntity
  8
0
  6
CONTINUOUS
 62
           3
100
AcDbCircle
 10
4403.617220847254
 20
1466.44631887285
 40
2.49999999999
100
AcDbArc
 50
0.0
 51
180.0
  0
ARC
  5
333
100
AcDbEntity
  8
0
  6
CONTINUOUS
 62
           3
100
AcDbCircle
 10
4403.617220847254
 20
1730.44631887264
 40
2.5
100
AcDbArc
 50
180.0
 51
0.0
  0
ARC
  5
332
100
AcDbEntity
  8
0
  6
CONTINUOUS
 62
           3
100
AcDbCircle
 10
4528.617220846943
 20
1730.44631887264
 40
2.499999999992
100
AcDbArc
 50
180.0
 51
0.0
  0
ARC
  5
331
100
AcDbEntity
  8
0
  6
CONTINUOUS
 62
           3
100
AcDbCircle
 10
4528.617220846943
 20
1466.44631887285
 40
2.5
100
AcDbArc
 50
0.0
 51
180.0
  0
ARC
  5
330
100
AcDbEntity
  8
1
  6
CONTINUOUS
 62
           3
100
AcDbCircle
 10
4970.380791816469
 20
2023.44631887274
 40
5.871834995061
100
AcDbArc
 50
-90.0
 51
0.0
  0
ARC
  5
32F
100
AcDbEntity
  8
1
  6
CONTINUOUS
 62
           3
100
AcDbCircle
 10
4970.380791816469
 20
2023.44631887274
 40
5.87183499507
100
AcDbArc
 50
38.59971391794
 51
90.0
  0
ARC
  5
32E
100
AcDbEntity
  8
1
  6
CONTINUOUS
 62
           3
100
AcDbCircle
 10
4970.380791816469
 20
2023.44631887274
 40
5.871834995061
100
AcDbArc
 50
0.0
 51
38.59971391794
  0
ARC
  5
32D
100
AcDbEntity
  8
1
  6
CONTINUOUS
 62
           3
100
AcDbCircle
 10
4970.380791816469
 20
2023.44631887274
 40
9.5
100
AcDbArc
 50
0.0
 51
125.916957371437
  0
ARC
  5
32C
100
AcDbEntity
  8
1
  6
CONTINUOUS
 62
           3
100
AcDbCircle
 10
4970.380791816469
 20
2023.44631887274
 40
9.499999999996
100
AcDbArc
 50
-124.797812779188
 51
0.0
  0
ARC
  5
32B
100
AcDbEntity
  8
1
  6
CONTINUOUS
 62
           3
100
AcDbCircle
 10
-488.490241678122
 20
1365.560941199799
 40
0.500000000002
100
AcDbArc
 50
-83.827497998178
 51
-5.00679300009
  0
ARC
  5
32A
100
AcDbEntity
  8
1
  6
CONTINUOUS
 62
           3
100
AcDbCircle
 10
-494.565247678121
 20
1365.560941199799
 40
0.499999999996
100
AcDbArc
 50
-174.99320699983
 51
-96.172501999315
  0
ARC
  5
329
100
AcDbEntity
  8
1
  6
CONTINUOUS
 62
           3
100
AcDbCircle
 10
-488.490241678122
 20
1421.733393199789
 40
0.500000000005
100
AcDbArc
 50
5.006793001596
 51
83.827497998203
  0
ARC
  5
328
100
AcDbEntity
  8
1
  6
CONTINUOUS
 62
           3
100
AcDbCircle
 10
-494.565247678121
 20
1421.733393199789
 40
0.500000000002
100
AcDbArc
 50
96.17250199929
 51
174.993206998325
  0
ARC
  5
327
100
AcDbEntity
  8
1
  6
CONTINUOUS
 62
           3
100
AcDbCircle
 10
-495.566047678115
 20
1393.64716719979
 40
9.999999999999
100
AcDbArc
 50
-5.006792999965
 51
5.006793000029
  0
ARC
  5
326
100
AcDbEntity
  8
1
  6
CONTINUOUS
 62
           3
100
AcDbCircle
 10
-487.489442678121
 20
1393.64716719979
 40
10.0
100
AcDbArc
 50
174.993206999971
 51
-174.993207000034
  0
ARC
  5
325
100
AcDbEntity
  8
1
  6
CONTINUOUS
 62
           3
100
AcDbCircle
 10
-491.527744678121
 20
1393.64716719979
 40
10.749999999988
100
AcDbArc
 50
118.773506999977
 51
-118.773506999946
  0
ARC
  5
324
100
AcDbEntity
  8
1
  6
CONTINUOUS
 62
           3
100
AcDbCircle
 10
-491.527744678121
 20
1393.64716719979
 40
10.750000000001
100
AcDbArc
 50
-61.226493000026
 51
0.0
  0
ARC
  5
323
100
AcDbEntity
  8
1
  6
CONTINUOUS
 62
           3
100
AcDbCircle
 10
-491.527744678121
 20
1393.64716719979
 40
10.75
100
AcDbArc
 50
0.0
 51
61.226492999996
  0
ARC
  5
322
100
AcDbEntity
  8
1
  6
CONTINUOUS
 62
           3
100
AcDbCircle
 10
-491.527744678121
 20
1393.64716719979
 40
28.74999999999
100
AcDbArc
 50
-96.172501999994
 51
-83.827497999995
  0
ARC
  5
321
100
AcDbEntity
  8
1
  6
CONTINUOUS
 62
           3
100
AcDbCircle
 10
-491.527744678121
 20
1393.64716719979
 40
28.75000000001
100
AcDbArc
 50
83.827497999999
 51
96.17250199999
  0
ARC
  5
320
100
AcDbEntity
  8
1
  6
CONTINUOUS
 62
           7
100
AcDbCircle
 10
3952.217224125431
 20
1355.19631887274
 40
37.0
100
AcDbArc
 50
180.0
 51
-90.0
  0
ARC
  5
31F
100
AcDbEntity
  8
1
  6
CONTINUOUS
 62
           7
100
AcDbCircle
 10
3952.217224125431
 20
1355.19631887274
 40
17.0
100
AcDbArc
 50
180.0
 51
-90.0
  0
LINE
  5
31E
100
AcDbEntity
  8
1
  6
CONTINUOUS
 62
           7
100
AcDbLine
 10
-769.000000000004
 20
6148.446318872742
 11
40.999999999996
 21
6148.446318872742
  0
LINE
  5
31D
100
AcDbEntity
  8
1
  6
CONTINUOUS
 62
           7
100
AcDbLine
 10
-764.000000000004
 20
6108.446318872742
 11
-769.000000000004
 21
6113.446318872742
  0
LINE
  5
31C
100
AcDbEntity
  8
1
  6
CONTINUOUS
 62
           7
100
AcDbLine
 10
35.999999999996
 20
6108.446318872742
 11
40.999999999996
 21
6113.446318872742
  0
LINE
  5
31B
100
AcDbEntity
  8
1
  6
CONTINUOUS
 62
           7
100
AcDbLine
 10
35.999999999996
 20
6108.446318872742
 11
-764.000000000004
 21
6108.446318872742
  0
LINE
  5
31A
100
AcDbEntity
  8
1
  6
CONTINUOUS
 62
           7
100
AcDbLine
 10
-769.000000000004
 20
6113.446318872742
 11
-769.000000000004
 21
6148.446318872742
  0
LINE
  5
319
100
AcDbEntity
  8
1
  6
CONTINUOUS
 62
           7
100
AcDbLine
 10
40.999999999996
 20
6148.446318872742
 11
40.999999999996
 21
6113.446318872742
  0
LINE
  5
318
100
AcDbEntity
  8
1
  6
CONTINUOUS
 62
           4
100
AcDbLine
 10
40.999999999996
 20
6143.946318872742
 11
-769.000000000004
 21
6143.946318872742
  0
LINE
  5
317
100
AcDbEntity
  8
1
  6
CONTINUOUS
 62
           4
100
AcDbLine
 10
-769.000000000004
 20
6152.94631887274
 11
40.999999999996
 21
6152.946318872742
  0
LINE
  5
316
100
AcDbEntity
  8
1
  6
CONTINUOUS
 62
           7
100
AcDbLine
 10
40.999999999996
 20
6183.446318872742
 11
40.999999999996
 21
6148.446318872742
  0
LINE
  5
315
100
AcDbEntity
  8
1
  6
CONTINUOUS
 62
           7
100
AcDbLine
 10
-769.000000000004
 20
6148.446318872742
 11
-769.000000000004
 21
6183.446318872742
  0
LINE
  5
314
100
AcDbEntity
  8
1
  6
CONTINUOUS
 62
           7
100
AcDbLine
 10
-764.000000000004
 20
6188.44631887274
 11
35.999999999996
 21
6188.446318872742
  0
LINE
  5
313
100
AcDbEntity
  8
1
  6
CONTINUOUS
 62
           7
100
AcDbLine
 10
40.999999999996
 20
6183.446318872742
 11
35.999999999996
 21
6188.446318872742
  0
LINE
  5
312
100
AcDbEntity
  8
1
  6
CONTINUOUS
 62
           7
100
AcDbLine
 10
-769.000000000004
 20
6183.446318872742
 11
-764.000000000004
 21
6188.44631887274
  0
LINE
  5
311
100
AcDbEntity
  8
1
  6
CONTINUOUS
 62
           7
100
AcDbLine
 10
527.411867714175
 20
5523.669010831467
 11
-63.022294576592
 21
4933.2348485407
  0
LINE
  5
310
100
AcDbEntity
  8
1
  6
CONTINUOUS
 62
           7
100
AcDbLine
 10
-729.116882454319
 20
5599.329436418429
 11
-63.022294576592
 21
4933.2348485407
  0
LINE
  5
30F
100
AcDbEntity
  8
1
  6
CONTINUOUS
 62
           7
100
AcDbLine
 10
495.999999999996
 20
5706.44647864563
 11
181.999999999996
 21
6020.446318872742
  0
LINE
  5
30E
100
AcDbEntity
  8
1
  6
CONTINUOUS
 62
           7
100
AcDbLine
 10
-729.116882454319
 20
5599.329436418429
 11
-220.000000000004
 21
6108.446318872742
  0
LINE
  5
30D
100
AcDbEntity
  8
0
  6
CONTINUOUS
 62
           7
100
AcDbLine
 10
-0.000000000004
 20
6098.446318872742
 11
-0.000000000004
 21
6108.446318872742
  0
LINE
  5
30C
100
AcDbEntity
  8
1
  6
CONTINUOUS
 62
           7
100
AcDbLine
 10
-0.000000000004
 20
6098.446318872742
 11
-0.000000000004
 21
6108.446318872742
  0
LINE
  5
30B
100
AcDbEntity
  8
0
  6
CONTINUOUS
 62
           7
100
AcDbLine
 10
-730.000000000004
 20
6108.446318872742
 11
-730.000000000004
 21
6098.446318872742
  0
LINE
  5
30A
100
AcDbEntity
  8
0
  6
CONTINUOUS
 62
           7
100
AcDbLine
 10
-738.000000000004
 20
6088.446318872742
 11
-738.000000000004
 21
5638.446318872742
  0
LINE
  5
309
100
AcDbEntity
  8
0
  6
CONTINUOUS
 62
           7
100
AcDbLine
 10
-730.000000000004
 20
6098.446318872742
 11
-738.000000000004
 21
6088.446318872742
  0
LINE
  5
308
100
AcDbEntity
  8
0
  6
CONTINUOUS
 62
           7
100
AcDbLine
 10
30.724756890078
 20
6045.229478888246
 11
-0.000000000004
 21
6098.446318872742
  0
LINE
  5
307
100
AcDbEntity
  8
1
  6
CONTINUOUS
 62
           7
100
AcDbLine
 10
-226.000000000003
 20
5824.446318872742
 11
-226.000000000003
 21
5338.446318872742
  0
LINE
  5
306
100
AcDbEntity
  8
1
  6
CONTINUOUS
 62
           7
100
AcDbLine
 10
225.999999999996
 20
5824.446318872742
 11
-260.000000000003
 21
5824.446318872742
  0
LINE
  5
305
100
AcDbEntity
  8
1
  6
CONTINUOUS
 62
           7
100
AcDbLine
 10
-226.000000000003
 20
5372.446318872742
 11
259.999999999997
 21
5372.446318872742
  0
LINE
  5
304
100
AcDbEntity
  8
1
  6
CONTINUOUS
 62
           7
100
AcDbLine
 10
225.999999999996
 20
5372.446318872742
 11
225.999999999996
 21
5858.446318872742
  0
LINE
  5
303
100
AcDbEntity
  8
1
  6
DOT_CENTER
 62
           2
100
AcDbLine
 10
-365.000000000004
 20
6241.473612704358
 11
-365.000000000004
 21
5795.141725282859
  0
LINE
  5
302
100
AcDbEntity
  8
1
  6
CONTINUOUS
 62
           7
100
AcDbLine
 10
196.999999999997
 20
5649.946318872744
 11
196.999999999997
 21
5546.946318872744
  0
LINE
  5
301
100
AcDbEntity
  8
1
  6
CONTINUOUS
 62
           7
100
AcDbLine
 10
132.824966598192
 20
5546.946318872744
 11
132.824966598192
 21
5649.946318872744
  0
LINE
  5
300
100
AcDbEntity
  8
1
  6
CONTINUOUS
 62
           7
100
AcDbLine
 10
144.824966598192
 20
5661.946318872744
 11
184.999999999997
 21
5661.946318872744
  0
LINE
  5
2FF
100
AcDbEntity
  8
1
  6
CONTINUOUS
 62
           7
100
AcDbLine
 10
184.999999999997
 20
5534.946318872744
 11
144.824966598192
 21
5534.946318872744
  0
LINE
  5
2FE
100
AcDbEntity
  8
1
  6
CONTINUOUS
 62
           4
100
AcDbLine
 10
134.432661752782
 20
5655.946318872744
 11
117.908702762042
 21
5655.946318872744
  0
LINE
  5
2FD
100
AcDbEntity
  8
1
  6
CONTINUOUS
 62
           4
100
AcDbLine
 10
134.432661752782
 20
5540.946318872744
 11
117.908702762042
 21
5540.946318872744
  0
LINE
  5
2FC
100
AcDbEntity
  8
976
  6
CONTINUOUS
 62
           7
100
AcDbLine
 10
530.000000000001
 20
2921.950303439649
 11
530.000000000001
 21
2883.950303439649
  0
LINE
  5
2FB
100
AcDbEntity
  8
1
  6
CONTINUOUS
 62
           4
100
AcDbLine
 10
255.000000000001
 20
2927.950303439649
 11
260.000000000001
 21
2922.950303439649
  0
LINE
  5
2FA
100
AcDbEntity
  8
1
  6
CONTINUOUS
 62
           4
100
AcDbLine
 10
255.000000000001
 20
2927.950303439649
 11
-254.999999999999
 21
2927.950303439649
  0
LINE
  5
2F9
100
AcDbEntity
  8
1
  6
CONTINUOUS
 62
           4
100
AcDbLine
 10
-259.999999999999
 20
2922.950303439649
 11
-254.999999999999
 21
2927.950303439649
  0
LINE
  5
2F8
100
AcDbEntity
  8
1
  6
CONTINUOUS
 62
           4
100
AcDbLine
 10
-259.999999999999
 20
2921.950303439649
 11
-259.999999999999
 21
2922.950303439649
  0
LINE
  5
2F7
100
AcDbEntity
  8
1
  6
CONTINUOUS
 62
           4
100
AcDbLine
 10
260.000000000001
 20
2921.950303439649
 11
260.000000000001
 21
2922.950303439649
  0
LINE
  5
2F6
100
AcDbEntity
  8
976
  6
CONTINUOUS
 62
           7
100
AcDbLine
 10
532.588132285822
 20
2883.950303439649
 11
-739.999999999999
 21
2883.950303439649
  0
LINE
  5
2F5
100
AcDbEntity
  8
1
  6
CONTINUOUS
 62
           7
100
AcDbLine
 10
-770.999999999997
 20
2884.750303439651
 11
-749.999999999999
 21
2884.750303439651
  0
LINE
  5
2F4
100
AcDbEntity
  8
1
  6
CONTINUOUS
 62
           7
100
AcDbLine
 10
-770.999999999997
 20
2924.750303439651
 11
-749.999999999999
 21
2924.750303439651
  0
LINE
  5
2F3
100
AcDbEntity
  8
1
  6
CONTINUOUS
 62
           4
100
AcDbLine
 10
-770.999999999997
 20
2889.250303439651
 11
-749.999999999999
 21
2889.250303439651
  0
LINE
  5
2F2
100
AcDbEntity
  8
976
  6
CONTINUOUS
 62
           7
100
AcDbLine
 10
498.588132285821
 20
2921.950303439649
 11
498.588132285821
 21
2883.950303439649
  0
LINE
  5
2F1
100
AcDbEntity
  8
976
  6
CONTINUOUS
 62
           7
100
AcDbLine
 10
-63.022294576586
 20
2921.950303439649
 11
-63.022294576586
 21
2883.950303439649
  0
LINE
  5
2F0
100
AcDbEntity
  8
976
  6
CONTINUOUS
 62
           7
100
AcDbLine
 10
530.000000000001
 20
2921.950303439649
 11
-731.116882454311
 21
2921.950303439649
  0
LINE
  5
2EF
100
AcDbEntity
  8
1
  6
CONTINUOUS
 62
           2
100
AcDbLine
 10
483.681715763564
 20
2816.44631887274
 11
483.681715763564
 21
2748.446318872742
  0
LINE
  5
2EE
100
AcDbEntity
  8
1
  6
CONTINUOUS
 62
           2
100
AcDbLine
 10
522.588132285822
 20
2816.44631887274
 11
483.681715763564
 21
2816.44631887274
  0
LINE
  5
2ED
100
AcDbEntity
  8
976
  6
CONTINUOUS
 62
           7
100
AcDbLine
 10
-731.116882454311
 20
2921.950303439649
 11
-731.116882454311
 21
2883.950303439649
  0
LINE
  5
2EC
100
AcDbEntity
  8
1
  6
CONTINUOUS
 62
           2
100
AcDbLine
 10
-313.160800656587
 20
2816.44631887274
 11
-630.593032057172
 21
2816.44631887274
  0
LINE
  5
2EB
100
AcDbEntity
  8
1
  6
CONTINUOUS
 62
           2
100
AcDbLine
 10
-630.593032057172
 20
2816.44631887274
 11
-630.593032057172
 21
2748.446318872742
  0
LINE
  5
2EA
100
AcDbEntity
  8
2
  6
CONTINUOUS
 62
           4
100
AcDbLine
 10
104.060000000003
 20
2927.950303439649
 11
104.060000000003
 21
2932.050303439648
  0
LINE
  5
2E9
100
AcDbEntity
  8
7
  6
CONTINUOUS
 62
           7
100
AcDbLine
 10
125.000000000001
 20
3260.678184120785
 11
125.000000000001
 21
3227.633138072739
  0
LINE
  5
2E8
100
AcDbEntity
  8
7
  6
CONTINUOUS
 62
           7
100
AcDbLine
 10
-124.999999999999
 20
3260.678184120785
 11
-121.399999999999
 21
3293.579947272741
  0
LINE
  5
2E7
100
AcDbEntity
  8
1
  6
CONTINUOUS
 62
           7
100
AcDbLine
 10
125.000000000001
 20
3260.678184120785
 11
-124.999999999999
 21
3260.678184120785
  0
LINE
  5
2E6
100
AcDbEntity
  8
2
  6
CONTINUOUS
 62
           7
100
AcDbLine
 10
-112.242370399998
 20
2932.050303439648
 11
-125.496396799998
 21
2963.850303439649
  0
LINE
  5
2E5
100
AcDbEntity
  8
2
  6
CONTINUOUS
 62
           7
100
AcDbLine
 10
-119.744649199999
 20
3227.633138072739
 11
-125.496396799998
 21
3213.833138072741
  0
LINE
  5
2E4
100
AcDbEntity
  8
2
  6
CONTINUOUS
 62
           7
100
AcDbLine
 10
-125.496396799998
 20
2963.850303439649
 11
-125.496396799998
 21
3213.833138072741
  0
LINE
  5
2E3
100
AcDbEntity
  8
2
  6
CONTINUOUS
 62
           4
100
AcDbLine
 10
-107.059999999998
 20
2932.050303439648
 11
-107.059999999998
 21
2927.950303439649
  0
LINE
  5
2E2
100
AcDbEntity
  8
2
  6
CONTINUOUS
 62
           7
100
AcDbLine
 10
122.496396800002
 20
3213.833138072741
 11
116.744649200001
 21
3227.633138072739
  0
LINE
  5
2E1
100
AcDbEntity
  8
2
  6
CONTINUOUS
 62
           4
100
AcDbLine
 10
109.242370400002
 20
2932.050303439648
 11
-112.242370399998
 21
2932.050303439648
  0
LINE
  5
2E0
100
AcDbEntity
  8
2
  6
CONTINUOUS
 62
           7
100
AcDbLine
 10
122.496396800002
 20
2963.850303439649
 11
122.496396800002
 21
3213.833138072741
  0
LINE
  5
2DF
100
AcDbEntity
  8
2
  6
CONTINUOUS
 62
           7
100
AcDbLine
 10
122.496396800002
 20
2963.850303439649
 11
109.242370400002
 21
2932.050303439648
  0
LINE
  5
2DE
100
AcDbEntity
  8
7
  6
CONTINUOUS
 62
           7
100
AcDbLine
 10
-88.519999999999
 20
3323.44631887274
 11
85.520000000002
 21
3323.44631887274
  0
LINE
  5
2DD
100
AcDbEntity
  8
7
  6
CONTINUOUS
 62
           7
100
AcDbLine
 10
90.383416400001
 20
3317.92971487274
 11
115.131240800001
 21
3298.080354072743
  0
LINE
  5
2DC
100
AcDbEntity
  8
7
  6
CONTINUOUS
 62
           7
100
AcDbLine
 10
-120.190427599998
 20
3297.646318872741
 11
117.560000000003
 21
3297.646318872741
  0
LINE
  5
2DB
100
AcDbEntity
  8
7
  6
CONTINUOUS
 62
           7
100
AcDbLine
 10
121.400000000003
 20
3293.806318872743
 11
125.000000000001
 21
3260.678184120785
  0
LINE
  5
2DA
100
AcDbEntity
  8
7
  6
CONTINUOUS
 62
           7
100
AcDbLine
 10
125.000000000001
 20
3227.633138072739
 11
-124.999999999999
 21
3227.633138072739
  0
LINE
  5
2D9
100
AcDbEntity
  8
7
  6
CONTINUOUS
 62
           7
100
AcDbLine
 10
-124.999999999999
 20
3227.633138072739
 11
-124.999999999999
 21
3260.678184120785
  0
LINE
  5
2D8
100
AcDbEntity
  8
7
  6
CONTINUOUS
 62
           7
100
AcDbLine
 10
-93.383417599999
 20
3317.92971487274
 11
-117.977411599998
 21
3299.842056072741
  0
LINE
  5
2D7
100
AcDbEntity
  8
1
  6
CONTINUOUS
 62
           7
100
AcDbLine
 10
185.000000000003
 20
3022.946318872737
 11
134.496396800002
 21
3022.946318872737
  0
LINE
  5
2D6
100
AcDbEntity
  8
1
  6
CONTINUOUS
 62
           7
100
AcDbLine
 10
134.496396800002
 20
3122.946318872737
 11
185.000000000003
 21
3122.946318872737
  0
LINE
  5
2D5
100
AcDbEntity
  8
1
  6
CONTINUOUS
 62
           7
100
AcDbLine
 10
122.496396800002
 20
3034.946318872737
 11
122.496396800002
 21
3110.946318872737
  0
LINE
  5
2D4
100
AcDbEntity
  8
1
  6
CONTINUOUS
 62
           7
100
AcDbLine
 10
197.000000000003
 20
3110.946318872737
 11
197.000000000003
 21
3034.946318872737
  0
LINE
  5
2D3
100
AcDbEntity
  8
1
  6
CONTINUOUS
 62
           7
100
AcDbLine
 10
-770.999999999997
 20
2748.446318872742
 11
-770.999999999997
 21
2924.750303439651
  0
LINE
  5
2D2
100
AcDbEntity
  8
1
  6
CONTINUOUS
 62
           7
100
AcDbLine
 10
-729.999999999999
 20
2748.446318872742
 11
-729.999999999999
 21
2883.950303439649
  0
LINE
  5
2D1
100
AcDbEntity
  8
1
  6
CONTINUOUS
 62
           7
100
AcDbLine
 10
522.588132285822
 20
2748.446318872742
 11
522.588132285822
 21
2883.950303439649
  0
LINE
  5
2D0
100
AcDbEntity
  8
1
  6
CONTINUOUS
 62
           2
100
AcDbLine
 10
-313.160800656587
 20
2748.446318872742
 11
-313.160800656587
 21
2816.44631887274
  0
LINE
  5
2CF
100
AcDbEntity
  8
1
  6
CONTINUOUS
 62
           4
100
AcDbLine
 10
5422.717224125426
 20
2304.44631887274
 11
5422.717224125426
 21
2298.44631887274
  0
LINE
  5
2CE
100
AcDbEntity
  8
1
  6
CONTINUOUS
 62
           4
100
AcDbLine
 10
4677.717224125426
 20
2298.44631887274
 11
4677.717224125426
 21
2304.44631887274
  0
LINE
  5
2CD
100
AcDbEntity
  8
1
  6
CONTINUOUS
 62
           7
100
AcDbLine
 10
5422.717224125426
 20
2298.44631887274
 11
4677.717224125426
 21
2298.44631887274
  0
LINE
  5
2CC
100
AcDbEntity
  8
1
  6
CONTINUOUS
 62
           4
100
AcDbLine
 10
4677.717224125426
 20
2304.44631887274
 11
5422.717224125426
 21
2304.44631887274
  0
LINE
  5
2CB
100
AcDbEntity
  8
0
  6
CONTINUOUS
 62
           7
100
AcDbLine
 10
5383.417224125426
 20
2304.44631887274
 11
5383.417224125426
 21
2351.746318872742
  0
LINE
  5
2CA
100
AcDbEntity
  8
0
  6
CONTINUOUS
 62
           7
100
AcDbLine
 10
4717.017224125427
 20
2351.746318872742
 11
4717.017224125426
 21
2304.44631887274
  0
LINE
  5
2C9
100
AcDbEntity
  8
1
  6
CONTINUOUS
 62
           4
100
AcDbLine
 10
4790.217224125426
 20
2922.146318872739
 11
4790.217224125426
 21
2921.146318872739
  0
LINE
  5
2C8
100
AcDbEntity
  8
1
  6
CONTINUOUS
 62
           4
100
AcDbLine
 10
5310.217224125426
 20
2922.146318872739
 11
5310.217224125426
 21
2921.146318872739
  0
LINE
  5
2C7
100
AcDbEntity
  8
1
  6
CONTINUOUS
 62
           4
100
AcDbLine
 10
5305.217224125426
 20
2927.146318872739
 11
5310.217224125426
 21
2922.146318872739
  0
LINE
  5
2C6
100
AcDbEntity
  8
1
  6
CONTINUOUS
 62
           4
100
AcDbLine
 10
5305.217224125426
 20
2927.146318872739
 11
4795.217224125426
 21
2927.146318872739
  0
LINE
  5
2C5
100
AcDbEntity
  8
1
  6
CONTINUOUS
 62
           4
100
AcDbLine
 10
4790.217224125426
 20
2922.146318872739
 11
4795.217224125426
 21
2927.146318872739
  0
LINE
  5
2C4
100
AcDbEntity
  8
976
  6
CONTINUOUS
 62
           7
100
AcDbLine
 10
5556.657902091526
 20
2921.146318872739
 11
5158.217383898314
 21
2921.146318872739
  0
LINE
  5
2C3
100
AcDbEntity
  8
976
  6
CONTINUOUS
 62
           7
100
AcDbLine
 10
5560.217224125426
 20
2389.746318872742
 11
4375.005753793389
 21
2389.746318872742
  0
LINE
  5
2C2
100
AcDbEntity
  8
976
  6
CONTINUOUS
 62
           7
100
AcDbLine
 10
5560.217224125426
 20
2389.746318872742
 11
5560.217224125426
 21
2356.746318872742
  0
LINE
  5
2C1
100
AcDbEntity
  8
976
  6
CONTINUOUS
 62
           7
100
AcDbLine
 10
4375.005753793389
 20
2351.746318872742
 11
4975.439916084153
 21
2351.746318872743
  0
LINE
  5
2C0
100
AcDbEntity
  8
976
  6
CONTINUOUS
 62
           7
100
AcDbLine
 10
4375.005753793389
 20
2883.146318872739
 11
4375.005753793389
 21
2921.146318872739
  0
LINE
  5
2BF
100
AcDbEntity
  8
976
  6
CONTINUOUS
 62
           7
100
AcDbLine
 10
4375.005753793389
 20
2351.746318872742
 11
4375.005753793389
 21
2389.746318872742
  0
LINE
  5
2BE
100
AcDbEntity
  8
1
  6
CONTINUOUS
 62
           7
100
AcDbLine
 10
5560.217224125426
 20
2916.146318872739
 11
5556.657902091526
 21
2921.146318872739
  0
LINE
  5
2BD
100
AcDbEntity
  8
1
  6
CONTINUOUS
 62
           7
100
AcDbLine
 10
5560.217224125426
 20
2356.746318872742
 11
5556.657902091526
 21
2351.746318872742
  0
LINE
  5
2BC
100
AcDbEntity
  8
1
  6
CONTINUOUS
 62
           7
100
AcDbLine
 10
5640.217224125426
 20
2883.94631887274
 11
5605.717224125426
 21
2883.94631887274
  0
LINE
  5
2BB
100
AcDbEntity
  8
1
  6
CONTINUOUS
 62
           7
100
AcDbLine
 10
5594.717224125426
 20
2883.94631887274
 11
5560.217224125426
 21
2883.94631887274
  0
LINE
  5
2BA
100
AcDbEntity
  8
1
  6
CONTINUOUS
 62
           7
100
AcDbLine
 10
5560.217224125426
 20
2388.94631887274
 11
5594.717224125426
 21
2388.94631887274
  0
LINE
  5
2B9
100
AcDbEntity
  8
1
  6
CONTINUOUS
 62
           7
100
AcDbLine
 10
4420.217224125427
 20
2883.146318872739
 11
4420.217224125427
 21
2389.746318872742
  0
LINE
  5
2B8
100
AcDbEntity
  8
1
  6
CONTINUOUS
 62
           7
100
AcDbLine
 10
5600.217224125426
 20
2883.94631887274
 11
5640.217224125426
 21
2883.94631887274
  0
LINE
  5
2B7
100
AcDbEntity
  8
1
  6
CONTINUOUS
 62
           7
100
AcDbLine
 10
5560.217224125426
 20
2384.44631887274
 11
5560.217224125426
 21
2888.44631887274
  0
LINE
  5
2B6
100
AcDbEntity
  8
1
  6
CONTINUOUS
 62
           7
100
AcDbLine
 10
5560.217224125426
 20
2883.94631887274
 11
5600.217224125426
 21
2883.94631887274
  0
LINE
  5
2B5
100
AcDbEntity
  8
1
  6
CONTINUOUS
 62
           7
100
AcDbLine
 10
5600.217224125426
 20
2388.94631887274
 11
5560.217224125426
 21
2388.94631887274
  0
LINE
  5
2B4
100
AcDbEntity
  8
1
  6
CONTINUOUS
 62
           4
100
AcDbLine
 10
5595.917224125423
 20
2883.94631887274
 11
5595.917224125423
 21
2388.94631887274
  0
LINE
  5
2B3
100
AcDbEntity
  8
1
  6
CONTINUOUS
 62
           4
100
AcDbLine
 10
5604.517224125426
 20
2388.94631887274
 11
5604.517224125426
 21
2883.94631887274
  0
LINE
  5
2B2
100
AcDbEntity
  8
1
  6
CONTINUOUS
 62
           7
100
AcDbLine
 10
5600.217224125426
 20
2923.94631887274
 11
5600.217224125426
 21
2348.94631887274
  0
LINE
  5
2B1
100
AcDbEntity
  8
1
  6
CONTINUOUS
 62
           4
100
AcDbLine
 10
5604.717224125426
 20
2889.44631887274
 11
5604.717224125426
 21
2923.94631887274
  0
LINE
  5
2B0
100
AcDbEntity
  8
1
  6
CONTINUOUS
 62
           4
100
AcDbLine
 10
5604.717224125426
 20
2923.94631887274
 11
5600.217224125426
 21
2923.94631887274
  0
LINE
  5
2AF
100
AcDbEntity
  8
1
  6
CONTINUOUS
 62
           4
100
AcDbLine
 10
5600.217224125426
 20
2923.94631887274
 11
5595.717224125426
 21
2923.94631887274
  0
LINE
  5
2AE
100
AcDbEntity
  8
1
  6
CONTINUOUS
 62
           4
100
AcDbLine
 10
5595.717224125426
 20
2923.94631887274
 11
5595.717224125426
 21
2889.44631887274
  0
LINE
  5
2AD
100
AcDbEntity
  8
1
  6
CONTINUOUS
 62
           4
100
AcDbLine
 10
5560.217224125426
 20
2888.44631887274
 11
5594.717224125426
 21
2888.44631887274
  0
LINE
  5
2AC
100
AcDbEntity
  8
1
  6
CONTINUOUS
 62
           4
100
AcDbLine
 10
5600.217224125426
 20
2348.94631887274
 11
5604.717224125426
 21
2348.94631887274
  0
LINE
  5
2AB
100
AcDbEntity
  8
1
  6
CONTINUOUS
 62
           4
100
AcDbLine
 10
5604.717224125426
 20
2348.94631887274
 11
5604.717224125426
 21
2383.44631887274
  0
LINE
  5
2AA
100
AcDbEntity
  8
1
  6
CONTINUOUS
 62
           4
100
AcDbLine
 10
5640.217224125426
 20
2384.44631887274
 11
5605.717224125426
 21
2384.44631887274
  0
LINE
  5
2A9
100
AcDbEntity
  8
1
  6
CONTINUOUS
 62
           4
100
AcDbLine
 10
5595.717224125426
 20
2383.44631887274
 11
5595.717224125426
 21
2348.94631887274
  0
LINE
  5
2A8
100
AcDbEntity
  8
1
  6
CONTINUOUS
 62
           4
100
AcDbLine
 10
5595.717224125426
 20
2348.94631887274
 11
5600.217224125426
 21
2348.94631887274
  0
LINE
  5
2A7
100
AcDbEntity
  8
1
  6
CONTINUOUS
 62
           7
100
AcDbLine
 10
5605.717224125426
 20
2388.94631887274
 11
5640.217224125426
 21
2388.94631887274
  0
LINE
  5
2A6
100
AcDbEntity
  8
1
  6
CONTINUOUS
 62
           4
100
AcDbLine
 10
5594.717224125426
 20
2384.44631887274
 11
5560.217224125426
 21
2384.44631887274
  0
LINE
  5
2A5
100
AcDbEntity
  8
976
  6
CONTINUOUS
 62
           7
100
AcDbLine
 10
5560.217224125426
 20
2883.146318872739
 11
5560.217224125426
 21
2916.146318872739
  0
LINE
  5
2A4
100
AcDbEntity
  8
976
  6
CONTINUOUS
 62
           7
100
AcDbLine
 10
5472.217224125426
 20
2883.146318872739
 11
5472.217224125426
 21
2921.146318872739
  0
LINE
  5
2A3
100
AcDbEntity
  8
976
  6
CONTINUOUS
 62
           7
100
AcDbLine
 10
5158.217383898314
 20
2883.146318872739
 11
5158.217383898314
 21
2921.146318872739
  0
LINE
  5
2A2
100
AcDbEntity
  8
976
  6
CONTINUOUS
 62
           7
100
AcDbLine
 10
4975.439916084153
 20
2883.146318872739
 11
4975.439916084153
 21
2921.146318872739
  0
LINE
  5
2A1
100
AcDbEntity
  8
976
  6
CONTINUOUS
 62
           7
100
AcDbLine
 10
4975.439916084153
 20
2921.146318872739
 11
4375.005753793389
 21
2921.146318872739
  0
LINE
  5
2A0
100
AcDbEntity
  8
976
  6
CONTINUOUS
 62
           7
100
AcDbLine
 10
5472.217224125426
 20
2351.746318872743
 11
5472.217224125426
 21
2389.746318872743
  0
LINE
  5
29F
100
AcDbEntity
  8
976
  6
CONTINUOUS
 62
           7
100
AcDbLine
 10
5158.217383898314
 20
2351.746318872743
 11
5158.217383898314
 21
2389.746318872743
  0
LINE
  5
29E
100
AcDbEntity
  8
976
  6
CONTINUOUS
 62
           7
100
AcDbLine
 10
4975.439916084153
 20
2351.746318872743
 11
4975.439916084153
 21
2389.746318872743
  0
LINE
  5
29D
100
AcDbEntity
  8
976
  6
CONTINUOUS
 62
           7
100
AcDbLine
 10
5158.217383898314
 20
2351.746318872743
 11
5556.657902091526
 21
2351.746318872742
  0
LINE
  5
29C
100
AcDbEntity
  8
1
  6
CONTINUOUS
 62
           2
100
AcDbLine
 10
4774.703768124516
 20
2816.44631887274
 11
4774.703768124516
 21
2456.44631887274
  0
LINE
  5
29B
100
AcDbEntity
  8
1
  6
CONTINUOUS
 62
           2
100
AcDbLine
 10
4774.703768124516
 20
2456.44631887274
 11
5185.730680126336
 21
2456.44631887274
  0
LINE
  5
29A
100
AcDbEntity
  8
1
  6
CONTINUOUS
 62
           2
100
AcDbLine
 10
5185.730680126336
 20
2456.44631887274
 11
5185.730680126336
 21
2816.44631887274
  0
LINE
  5
299
100
AcDbEntity
  8
1
  6
CONTINUOUS
 62
           2
100
AcDbLine
 10
5185.730680126336
 20
2816.44631887274
 11
4774.703768124516
 21
2816.44631887274
  0
LINE
  5
298
100
AcDbEntity
  8
1
  6
DOT_CENTER
 62
           2
100
AcDbLine
 10
5050.217224125426
 20
2260.31765482841
 11
5050.217224125426
 21
3365.389336239934
  0
LINE
  5
297
100
AcDbEntity
  8
1
  6
DOT_CENTER
 62
           2
100
AcDbLine
 10
4353.988709699846
 20
2636.44631887274
 11
5694.981811887416
 21
2636.44631887274
  0
LINE
  5
296
100
AcDbEntity
  8
1
  6
CONTINUOUS
 62
           4
100
AcDbLine
 10
5605.717224125426
 20
2888.44631887274
 11
5640.217224125426
 21
2888.44631887274
  0
LINE
  5
295
100
AcDbEntity
  8
1
  6
CONTINUOUS
 62
           7
100
AcDbLine
 10
5640.217224125426
 20
2388.94631887274
 11
5600.217224125426
 21
2388.94631887274
  0
LINE
  5
294
100
AcDbEntity
  8
976
  6
CONTINUOUS
 62
           7
100
AcDbLine
 10
5560.217224125426
 20
2883.146318872739
 11
4375.005753793389
 21
2883.146318872739
  0
LINE
  5
293
100
AcDbEntity
  8
1
  6
CONTINUOUS
 62
           7
100
AcDbLine
 10
5640.217224125426
 20
2888.44631887274
 11
5640.217224125426
 21
2384.44631887274
  0
LINE
  5
292
100
AcDbEntity
  8
2
  6
CONTINUOUS
 62
           4
100
AcDbLine
 10
5154.277224125428
 20
2927.146318872739
 11
5154.277224125428
 21
2931.24631887274
  0
LINE
  5
291
100
AcDbEntity
  8
1
  6
CONTINUOUS
 62
           7
100
AcDbLine
 10
5113.717224125426
 20
3110.94631887274
 11
5113.717224125426
 21
3034.94631887274
  0
LINE
  5
290
100
AcDbEntity
  8
1
  6
CONTINUOUS
 62
           7
100
AcDbLine
 10
4986.717224125426
 20
3034.94631887274
 11
4986.717224125426
 21
3110.94631887274
  0
LINE
  5
28F
100
AcDbEntity
  8
1
  6
CONTINUOUS
 62
           7
100
AcDbLine
 10
4998.717224125426
 20
3122.94631887274
 11
5101.717224125426
 21
3122.94631887274
  0
LINE
  5
28E
100
AcDbEntity
  8
1
  6
CONTINUOUS
 62
           7
100
AcDbLine
 10
5101.717224125426
 20
3022.94631887274
 11
4998.717224125426
 21
3022.94631887274
  0
LINE
  5
28D
100
AcDbEntity
  8
7
  6
CONTINUOUS
 62
           7
100
AcDbLine
 10
4956.833806525424
 20
3317.92971487274
 11
4932.239812525425
 21
3299.842056072741
  0
LINE
  5
28C
100
AcDbEntity
  8
7
  6
CONTINUOUS
 62
           7
100
AcDbLine
 10
5050.217224125426
 20
3323.44631887274
 11
4961.697224125429
 21
3323.44631887274
  0
LINE
  5
28B
100
AcDbEntity
  8
7
  6
CONTINUOUS
 62
           7
100
AcDbLine
 10
4925.217224125426
 20
3227.633138072741
 11
4925.217224125426
 21
3260.678184120783
  0
LINE
  5
28A
100
AcDbEntity
  8
7
  6
CONTINUOUS
 62
           7
100
AcDbLine
 10
5175.217224125426
 20
3227.633138072741
 11
4925.217224125426
 21
3227.633138072741
  0
LINE
  5
289
100
AcDbEntity
  8
7
  6
CONTINUOUS
 62
           7
100
AcDbLine
 10
5171.617224125428
 20
3293.806318872741
 11
5175.217224125426
 21
3260.678184120783
  0
LINE
  5
288
100
AcDbEntity
  8
7
  6
CONTINUOUS
 62
           7
100
AcDbLine
 10
4930.026796525427
 20
3297.646318872741
 11
5167.777224125428
 21
3297.646318872741
  0
LINE
  5
287
100
AcDbEntity
  8
7
  6
CONTINUOUS
 62
           7
100
AcDbLine
 10
5140.600640525426
 20
3317.92971487274
 11
5165.348464925428
 21
3298.080354072741
  0
LINE
  5
286
100
AcDbEntity
  8
7
  6
CONTINUOUS
 62
           7
100
AcDbLine
 10
5050.217224125426
 20
3323.44631887274
 11
5135.737224125426
 21
3323.44631887274
  0
LINE
  5
285
100
AcDbEntity
  8
2
  6
CONTINUOUS
 62
           7
100
AcDbLine
 10
5172.713620925427
 20
2963.046318872741
 11
5159.459594525429
 21
2931.24631887274
  0
LINE
  5
284
100
AcDbEntity
  8
2
  6
CONTINUOUS
 62
           4
100
AcDbLine
 10
5159.459594525429
 20
2931.24631887274
 11
4937.974853725423
 21
2931.24631887274
  0
LINE
  5
283
100
AcDbEntity
  8
2
  6
CONTINUOUS
 62
           7
100
AcDbLine
 10
5172.713620925427
 20
3213.833138072741
 11
5166.961873325427
 21
3227.633138072741
  0
LINE
  5
282
100
AcDbEntity
  8
2
  6
CONTINUOUS
 62
           4
100
AcDbLine
 10
4943.157224125428
 20
2931.24631887274
 11
4943.157224125428
 21
2927.146318872739
  0
LINE
  5
281
100
AcDbEntity
  8
2
  6
CONTINUOUS
 62
           7
100
AcDbLine
 10
4930.472574925425
 20
3227.633138072741
 11
4924.720827325425
 21
3213.833138072741
  0
LINE
  5
280
100
AcDbEntity
  8
2
  6
CONTINUOUS
 62
           7
100
AcDbLine
 10
4924.720827325425
 20
3213.833138072741
 11
4924.720827325425
 21
2963.046318872741
  0
LINE
  5
27F
100
AcDbEntity
  8
2
  6
CONTINUOUS
 62
           7
100
AcDbLine
 10
4937.974853725423
 20
2931.24631887274
 11
4924.720827325425
 21
2963.046318872741
  0
LINE
  5
27E
100
AcDbEntity
  8
1
  6
CONTINUOUS
 62
           7
100
AcDbLine
 10
5175.217224125426
 20
3260.678184120783
 11
4925.217224125426
 21
3260.678184120783
  0
LINE
  5
27D
100
AcDbEntity
  8
7
  6
CONTINUOUS
 62
           7
100
AcDbLine
 10
4925.217224125426
 20
3260.678184120783
 11
4928.817224125428
 21
3293.579947272741
  0
LINE
  5
27C
100
AcDbEntity
  8
7
  6
CONTINUOUS
 62
           7
100
AcDbLine
 10
5175.217224125426
 20
3260.678184120783
 11
5175.217224125426
 21
3227.633138072741
  0
LINE
  5
27B
100
AcDbEntity
  8
2
  6
CONTINUOUS
 62
           7
100
AcDbLine
 10
5172.713620925427
 20
2963.046318872741
 11
5172.713620925427
 21
3213.833138072741
  0
LINE
  5
27A
100
AcDbEntity
  8
1
  6
CONTINUOUS
 62
           3
100
AcDbLine
 10
4947.717224125428
 20
2019.44631887274
 11
4800.117222247753
 21
2019.44631887274
  0
LINE
  5
279
100
AcDbEntity
  8
1
  6
CONTINUOUS
 62
           3
100
AcDbLine
 10
4947.717224125428
 20
2027.44631887274
 11
4800.117220936359
 21
2027.44631887274
  0
LINE
  5
278
100
AcDbEntity
  8
0
  6
CONTINUOUS
 62
           3
100
AcDbLine
 10
4420.117220757843
 20
1413.4463164887
 11
4420.117220757843
 21
1463.446313508561
  0
LINE
  5
277
100
AcDbEntity
  8
0
  6
CONTINUOUS
 62
           3
100
AcDbLine
 10
4460.343717979404
 20
1453.89289594497
 11
4461.117220958901
 21
1453.44632304506
  0
LINE
  5
276
100
AcDbEntity
  8
0
  6
CONTINUOUS
 62
           3
100
AcDbLine
 10
4471.117220735296
 20
1453.44632304506
 11
4471.890723714796
 21
1453.89289594497
  0
LINE
  5
275
100
AcDbEntity
  8
0
  6
CONTINUOUS
 62
           3
100
AcDbLine
 10
4461.117220958901
 20
1458.446318276659
 11
4460.343717979404
 21
1457.99973047576
  0
LINE
  5
274
100
AcDbEntity
  8
0
  6
CONTINUOUS
 62
           3
100
AcDbLine
 10
4471.890723714796
 20
1457.99973047576
 11
4471.117220735296
 21
1458.446318276659
  0
LINE
  5
273
100
AcDbEntity
  8
0
  6
CONTINUOUS
 62
           3
100
AcDbLine
 10
4461.117220958901
 20
1463.446313508561
 11
4460.343717979404
 21
1462.99974060866
  0
LINE
  5
272
100
AcDbEntity
  8
0
  6
CONTINUOUS
 62
           3
100
AcDbLine
 10
4471.890723714796
 20
1462.99974060866
 11
4471.117220735296
 21
1463.446313508561
  0
LINE
  5
271
100
AcDbEntity
  8
0
  6
CONTINUOUS
 62
           3
100
AcDbLine
 10
4471.117220735296
 20
1458.446318276659
 11
4471.890723714796
 21
1458.892906077859
  0
LINE
  5
270
100
AcDbEntity
  8
0
  6
CONTINUOUS
 62
           3
100
AcDbLine
 10
4460.343717979404
 20
1458.892906077859
 11
4461.117220958901
 21
1458.446318276659
  0
LINE
  5
26F
100
AcDbEntity
  8
0
  6
CONTINUOUS
 62
           3
100
AcDbLine
 10
4461.117220958901
 20
1476.04631818135
 11
4460.343717979404
 21
1475.599737830949
  0
LINE
  5
26E
100
AcDbEntity
  8
0
  6
CONTINUOUS
 62
           3
100
AcDbLine
 10
4471.890723714796
 20
1475.599737830949
 11
4471.117220735296
 21
1476.04631818135
  0
LINE
  5
26D
100
AcDbEntity
  8
0
  6
CONTINUOUS
 62
           3
100
AcDbLine
 10
4471.117220735296
 20
1471.046322949749
 11
4471.890723714796
 21
1471.492895849649
  0
LINE
  5
26C
100
AcDbEntity
  8
0
  6
CONTINUOUS
 62
           3
100
AcDbLine
 10
4460.343717979404
 20
1471.492895849649
 11
4461.117220958901
 21
1471.046322949749
  0
LINE
  5
26B
100
AcDbEntity
  8
0
  6
CONTINUOUS
 62
           3
100
AcDbLine
 10
4461.117220958901
 20
1471.046322949749
 11
4460.343717979404
 21
1470.59973514885
  0
LINE
  5
26A
100
AcDbEntity
  8
0
  6
CONTINUOUS
 62
           3
100
AcDbLine
 10
4471.890723714796
 20
1470.59973514885
 11
4471.117220735296
 21
1471.046322949749
  0
LINE
  5
269
100
AcDbEntity
  8
0
  6
CONTINUOUS
 62
           3
100
AcDbLine
 10
4471.117220735296
 20
1466.046312816859
 11
4471.890723714796
 21
1466.49290061805
  0
LINE
  5
268
100
AcDbEntity
  8
0
  6
CONTINUOUS
 62
           3
100
AcDbLine
 10
4460.343717979404
 20
1466.49290061805
 11
4461.117220958901
 21
1466.046312816859
  0
LINE
  5
267
100
AcDbEntity
  8
0
  6
CONTINUOUS
 62
           3
100
AcDbLine
 10
4512.11722093636
 20
1739.44631887274
 11
4512.11722093636
 21
1733.44632423694
  0
LINE
  5
266
100
AcDbEntity
  8
0
  6
CONTINUOUS
 62
           3
100
AcDbLine
 10
4512.11722093636
 20
1731.84631205374
 11
4512.11722093636
 21
1648.446319617709
  0
LINE
  5
265
100
AcDbEntity
  8
0
  6
CONTINUOUS
 62
           3
100
AcDbLine
 10
4512.11722093636
 20
1647.246317930811
 11
4512.11722093636
 21
1489.64631743033
  0
LINE
  5
264
100
AcDbEntity
  8
0
  6
CONTINUOUS
 62
           3
100
AcDbLine
 10
4512.11722093636
 20
1488.44631946884
 11
4512.11722093636
 21
1465.04632569145
  0
LINE
  5
263
100
AcDbEntity
  8
0
  6
CONTINUOUS
 62
           3
100
AcDbLine
 10
4512.11722093636
 20
1463.446313508561
 11
4512.11722093636
 21
1413.4463164887
  0
LINE
  5
262
100
AcDbEntity
  8
0
  6
CONTINUOUS
 62
           3
100
AcDbLine
 10
4520.117222247755
 20
1413.4463164887
 11
4520.117222247755
 21
1463.446313508561
  0
LINE
  5
261
100
AcDbEntity
  8
0
  6
CONTINUOUS
 62
           3
100
AcDbLine
 10
4520.117222247755
 20
1465.04632569145
 11
4520.117222247755
 21
1488.44631946884
  0
LINE
  5
260
100
AcDbEntity
  8
0
  6
CONTINUOUS
 62
           3
100
AcDbLine
 10
4520.117222247755
 20
1489.64631743033
 11
4520.117222247755
 21
1647.246317930811
  0
LINE
  5
25F
100
AcDbEntity
  8
0
  6
CONTINUOUS
 62
           3
100
AcDbLine
 10
4520.117222247755
 20
1648.446319617709
 11
4520.117222247755
 21
1731.84631205374
  0
LINE
  5
25E
100
AcDbEntity
  8
0
  6
CONTINUOUS
 62
           3
100
AcDbLine
 10
4520.117222247755
 20
1733.44632423694
 11
4520.117222247755
 21
1739.44631887274
  0
LINE
  5
25D
100
AcDbEntity
  8
0
  6
CONTINUOUS
 62
           3
100
AcDbLine
 10
4412.117219446443
 20
1763.44632542911
 11
4412.117219446443
 21
1733.44632423694
  0
LINE
  5
25C
100
AcDbEntity
  8
0
  6
CONTINUOUS
 62
           3
100
AcDbLine
 10
4412.117219446443
 20
1731.84631205374
 11
4412.117219446443
 21
1648.446319617709
  0
LINE
  5
25B
100
AcDbEntity
  8
0
  6
CONTINUOUS
 62
           3
100
AcDbLine
 10
4412.117219446443
 20
1647.246317930811
 11
4412.117219446443
 21
1489.64631743033
  0
LINE
  5
25A
100
AcDbEntity
  8
0
  6
CONTINUOUS
 62
           3
100
AcDbLine
 10
4412.117219446443
 20
1488.44631946884
 11
4412.117219446443
 21
1465.04632569145
  0
LINE
  5
259
100
AcDbEntity
  8
0
  6
CONTINUOUS
 62
           3
100
AcDbLine
 10
4412.117219446443
 20
1463.446313508561
 11
4412.117219446443
 21
1413.4463164887
  0
LINE
  5
258
100
AcDbEntity
  8
0
  6
CONTINUOUS
 62
           3
100
AcDbLine
 10
4420.117220757843
 20
1465.04632569145
 11
4420.117220757843
 21
1488.44631946884
  0
LINE
  5
257
100
AcDbEntity
  8
0
  6
CONTINUOUS
 62
           3
100
AcDbLine
 10
4420.117220757843
 20
1489.64631743033
 11
4420.117220757843
 21
1647.246317930811
  0
LINE
  5
256
100
AcDbEntity
  8
0
  6
CONTINUOUS
 62
           3
100
AcDbLine
 10
4420.117220757843
 20
1648.446319617709
 11
4420.117220757843
 21
1731.84631205374
  0
LINE
  5
255
100
AcDbEntity
  8
0
  6
CONTINUOUS
 62
           3
100
AcDbLine
 10
4420.117220757843
 20
1733.44632423694
 11
4420.117220757843
 21
1763.44632542911
  0
LINE
  5
254
100
AcDbEntity
  8
0
  6
CONTINUOUS
 62
           3
100
AcDbLine
 10
4469.117220873192
 20
1465.04632569145
 11
4469.117220873192
 21
1466.046312816859
  0
LINE
  5
253
100
AcDbEntity
  8
0
  6
CONTINUOUS
 62
           3
100
AcDbLine
 10
4469.117220873192
 20
1476.04631818135
 11
4469.117220873192
 21
1482.64631814564
  0
LINE
  5
252
100
AcDbEntity
  8
0
  6
CONTINUOUS
 62
           3
100
AcDbLine
 10
4469.117220873192
 20
1488.44631946884
 11
4469.117220873192
 21
1491.40374548034
  0
LINE
  5
251
100
AcDbEntity
  8
0
  6
CONTINUOUS
 62
           3
100
AcDbLine
 10
4469.117220873192
 20
1493.23916620823
 11
4469.117220873192
 21
1731.84631205374
  0
LINE
  5
250
100
AcDbEntity
  8
0
  6
CONTINUOUS
 62
           3
100
AcDbLine
 10
4469.117220873192
 20
1733.44632423694
 11
4469.117220873192
 21
1735.86896992503
  0
LINE
  5
24F
100
AcDbEntity
  8
0
  6
CONTINUOUS
 62
           3
100
AcDbLine
 10
4463.117220821006
 20
1735.86896992503
 11
4463.117220821006
 21
1733.44632423694
  0
LINE
  5
24E
100
AcDbEntity
  8
0
  6
CONTINUOUS
 62
           3
100
AcDbLine
 10
4463.117220821006
 20
1731.84631205374
 11
4463.117220821006
 21
1493.23916620823
  0
LINE
  5
24D
100
AcDbEntity
  8
0
  6
CONTINUOUS
 62
           3
100
AcDbLine
 10
4463.117220821006
 20
1491.40374548034
 11
4463.117220821006
 21
1488.44631946884
  0
LINE
  5
24C
100
AcDbEntity
  8
0
  6
CONTINUOUS
 62
           3
100
AcDbLine
 10
4463.117220821006
 20
1482.64631814564
 11
4463.117220821006
 21
1476.04631818135
  0
LINE
  5
24B
100
AcDbEntity
  8
0
  6
CONTINUOUS
 62
           3
100
AcDbLine
 10
4463.117220821006
 20
1466.046312816859
 11
4463.117220821006
 21
1465.04632569145
  0
LINE
  5
24A
100
AcDbEntity
  8
0
  6
CONTINUOUS
 62
           3
100
AcDbLine
 10
4469.117220873192
 20
1735.86896992503
 11
4468.117220941988
 21
1736.86897195173
  0
LINE
  5
249
100
AcDbEntity
  8
0
  6
CONTINUOUS
 62
           3
100
AcDbLine
 10
4464.117220752205
 20
1736.86897195173
 11
4463.117220821006
 21
1735.86896992503
  0
LINE
  5
248
100
AcDbEntity
  8
0
  6
CONTINUOUS
 62
           3
100
AcDbLine
 10
4462.617220739006
 20
1493.246318765639
 11
4458.117220467205
 21
1493.246318765639
  0
LINE
  5
247
100
AcDbEntity
  8
0
  6
CONTINUOUS
 62
           3
100
AcDbLine
 10
4474.117221226993
 20
1493.246318765639
 11
4469.617220955192
 21
1493.246318765639
  0
LINE
  5
246
100
AcDbEntity
  8
0
  6
CONTINUOUS
 62
           3
100
AcDbLine
 10
4459.643718155302
 20
1487.546318872741
 11
4472.59072353889
 21
1487.546318872741
  0
LINE
  5
245
100
AcDbEntity
  8
0
  6
CONTINUOUS
 62
           3
100
AcDbLine
 10
4409.117220817439
 20
1492.24631673894
 11
4412.117219446443
 21
1492.24631673894
  0
LINE
  5
244
100
AcDbEntity
  8
0
  6
CONTINUOUS
 62
           3
100
AcDbLine
 10
4420.117220757843
 20
1492.24631673894
 11
4458.117220467205
 21
1492.24631673894
  0
LINE
  5
243
100
AcDbEntity
  8
0
  6
CONTINUOUS
 62
           3
100
AcDbLine
 10
4474.117221226993
 20
1492.24631673894
 11
4512.11722093636
 21
1492.24631673894
  0
LINE
  5
242
100
AcDbEntity
  8
0
  6
CONTINUOUS
 62
           3
100
AcDbLine
 10
4520.117222247755
 20
1492.24631673894
 11
4523.117220876754
 21
1492.24631673894
  0
LINE
  5
241
100
AcDbEntity
  8
0
  6
CONTINUOUS
 62
           3
100
AcDbLine
 10
4409.117220817439
 20
1642.24631897411
 11
4409.117220817439
 21
1492.24631673894
  0
LINE
  5
240
100
AcDbEntity
  8
0
  6
CONTINUOUS
 62
           3
100
AcDbLine
 10
4523.117220876754
 20
1642.24631897411
 11
4520.117222247755
 21
1642.24631897411
  0
LINE
  5
23F
100
AcDbEntity
  8
0
  6
CONTINUOUS
 62
           3
100
AcDbLine
 10
4512.11722093636
 20
1642.24631897411
 11
4469.117220873192
 21
1642.24631897411
  0
LINE
  5
23E
100
AcDbEntity
  8
0
  6
CONTINUOUS
 62
           3
100
AcDbLine
 10
4463.117220821006
 20
1642.24631897411
 11
4420.117220757843
 21
1642.24631897411
  0
LINE
  5
23D
100
AcDbEntity
  8
0
  6
CONTINUOUS
 62
           3
100
AcDbLine
 10
4412.117219446443
 20
1642.24631897411
 11
4409.117220817439
 21
1642.24631897411
  0
LINE
  5
23C
100
AcDbEntity
  8
0
  6
CONTINUOUS
 62
           3
100
AcDbLine
 10
4523.117220876754
 20
1492.24631673894
 11
4523.117220876754
 21
1642.24631897411
  0
LINE
  5
23B
100
AcDbEntity
  8
0
  6
CONTINUOUS
 62
           3
100
AcDbLine
 10
4469.003972280792
 20
1453.89289594497
 11
4469.003972280932
 21
1457.999730475811
  0
LINE
  5
23A
100
AcDbEntity
  8
0
  6
CONTINUOUS
 62
           3
100
AcDbLine
 10
4469.003972280792
 20
1453.89289594497
 11
4466.117220847104
 21
1453.44632304506
  0
LINE
  5
239
100
AcDbEntity
  8
0
  6
CONTINUOUS
 62
           3
100
AcDbLine
 10
4463.230469413275
 20
1453.89289594498
 11
4463.230469413401
 21
1457.99973047576
  0
LINE
  5
238
100
AcDbEntity
  8
0
  6
CONTINUOUS
 62
           3
100
AcDbLine
 10
4463.230469413401
 20
1457.99973047576
 11
4466.117220847104
 21
1458.44631827679
  0
LINE
  5
237
100
AcDbEntity
  8
0
  6
CONTINUOUS
 62
           3
100
AcDbLine
 10
4466.117220847104
 20
1453.44632304506
 11
4470.447347881433
 21
1453.44632304516
  0
LINE
  5
236
100
AcDbEntity
  8
0
  6
CONTINUOUS
 62
           3
100
AcDbLine
 10
4461.787093812775
 20
1453.44632304516
 11
4466.117220847104
 21
1453.44632304506
  0
LINE
  5
235
100
AcDbEntity
  8
0
  6
CONTINUOUS
 62
           3
100
AcDbLine
 10
4461.787093812775
 20
1458.44631827679
 11
4466.117220847104
 21
1458.44631827679
  0
LINE
  5
234
100
AcDbEntity
  8
0
  6
CONTINUOUS
 62
           3
100
AcDbLine
 10
4469.003972280932
 20
1457.999730475811
 11
4470.447347881393
 21
1458.446318276659
  0
LINE
  5
233
100
AcDbEntity
  8
0
  6
CONTINUOUS
 62
           3
100
AcDbLine
 10
4466.117220847104
 20
1458.44631827679
 11
4470.447347881393
 21
1458.446318276659
  0
LINE
  5
232
100
AcDbEntity
  8
0
  6
CONTINUOUS
 62
           3
100
AcDbLine
 10
4460.343717979404
 20
1453.89289594497
 11
4460.343717979404
 21
1457.99973047576
  0
LINE
  5
231
100
AcDbEntity
  8
0
  6
CONTINUOUS
 62
           3
100
AcDbLine
 10
4471.890723714796
 20
1453.89289594497
 11
4471.890723714796
 21
1457.99973047576
  0
LINE
  5
230
100
AcDbEntity
  8
0
  6
CONTINUOUS
 62
           3
100
AcDbLine
 10
4471.890723714796
 20
1453.89289594497
 11
4470.447347881433
 21
1453.44632304516
  0
LINE
  5
22F
100
AcDbEntity
  8
0
  6
CONTINUOUS
 62
           3
100
AcDbLine
 10
4461.117220958901
 20
1453.44632304506
 11
4461.787093812775
 21
1453.44632304516
  0
LINE
  5
22E
100
AcDbEntity
  8
0
  6
CONTINUOUS
 62
           3
100
AcDbLine
 10
4471.117220735296
 20
1453.44632304506
 11
4470.447347881433
 21
1453.44632304516
  0
LINE
  5
22D
100
AcDbEntity
  8
0
  6
CONTINUOUS
 62
           3
100
AcDbLine
 10
4461.117220958901
 20
1458.446318276659
 11
4461.787093812775
 21
1458.44631827679
  0
LINE
  5
22C
100
AcDbEntity
  8
0
  6
CONTINUOUS
 62
           3
100
AcDbLine
 10
4469.003972280932
 20
1462.9997406086
 11
4469.003972280792
 21
1458.892906077859
  0
LINE
  5
22B
100
AcDbEntity
  8
0
  6
CONTINUOUS
 62
           3
100
AcDbLine
 10
4463.230469413275
 20
1462.9997406086
 11
4463.230469413275
 21
1458.89290607777
  0
LINE
  5
22A
100
AcDbEntity
  8
0
  6
CONTINUOUS
 62
           3
100
AcDbLine
 10
4471.890723714796
 20
1462.99974060866
 11
4470.447347881433
 21
1463.44631350841
  0
LINE
  5
229
100
AcDbEntity
  8
0
  6
CONTINUOUS
 62
           3
100
AcDbLine
 10
4471.890723714796
 20
1462.99974060866
 11
4471.890723714796
 21
1458.892906077859
  0
LINE
  5
228
100
AcDbEntity
  8
0
  6
CONTINUOUS
 62
           3
100
AcDbLine
 10
4469.003972280792
 20
1458.892906077859
 11
4470.447347881393
 21
1458.446318276659
  0
LINE
  5
227
100
AcDbEntity
  8
0
  6
CONTINUOUS
 62
           3
100
AcDbLine
 10
4463.230469413275
 20
1462.9997406086
 11
4461.787093812775
 21
1463.44631350841
  0
LINE
  5
226
100
AcDbEntity
  8
0
  6
CONTINUOUS
 62
           3
100
AcDbLine
 10
4460.343717979404
 20
1458.892906077859
 11
4461.787093812775
 21
1458.44631827679
  0
LINE
  5
225
100
AcDbEntity
  8
0
  6
CONTINUOUS
 62
           3
100
AcDbLine
 10
4460.343717979404
 20
1462.99974060866
 11
4460.343717979404
 21
1458.892906077859
  0
LINE
  5
224
100
AcDbEntity
  8
0
  6
CONTINUOUS
 62
           3
100
AcDbLine
 10
4469.003972280932
 20
1475.599737831009
 11
4469.003972280792
 21
1471.492895849649
  0
LINE
  5
223
100
AcDbEntity
  8
0
  6
CONTINUOUS
 62
           3
100
AcDbLine
 10
4463.230469413275
 20
1475.599737831009
 11
4463.230469413275
 21
1471.4928958496
  0
LINE
  5
222
100
AcDbEntity
  8
0
  6
CONTINUOUS
 62
           3
100
AcDbLine
 10
4471.890723714796
 20
1475.599737830949
 11
4470.447347881433
 21
1476.04631818141
  0
LINE
  5
221
100
AcDbEntity
  8
0
  6
CONTINUOUS
 62
           3
100
AcDbLine
 10
4471.890723714796
 20
1475.599737830949
 11
4471.890723714796
 21
1471.492895849649
  0
LINE
  5
220
100
AcDbEntity
  8
0
  6
CONTINUOUS
 62
           3
100
AcDbLine
 10
4469.003972280792
 20
1471.492895849649
 11
4470.447347881433
 21
1471.04632294978
  0
LINE
  5
21F
100
AcDbEntity
  8
0
  6
CONTINUOUS
 62
           3
100
AcDbLine
 10
4470.447347881433
 20
1476.04631818141
 11
4466.117220847104
 21
1476.04631818141
  0
LINE
  5
21E
100
AcDbEntity
  8
0
  6
CONTINUOUS
 62
           3
100
AcDbLine
 10
4463.230469413275
 20
1475.599737831009
 11
4461.787093812775
 21
1476.04631818141
  0
LINE
  5
21D
100
AcDbEntity
  8
0
  6
CONTINUOUS
 62
           3
100
AcDbLine
 10
4460.343717979404
 20
1471.492895849649
 11
4461.787093812775
 21
1471.04632294978
  0
LINE
  5
21C
100
AcDbEntity
  8
0
  6
CONTINUOUS
 62
           3
100
AcDbLine
 10
4460.343717979404
 20
1475.599737830949
 11
4460.343717979404
 21
1471.492895849649
  0
LINE
  5
21B
100
AcDbEntity
  8
0
  6
CONTINUOUS
 62
           3
100
AcDbLine
 10
4466.117220847104
 20
1476.04631818141
 11
4461.787093812775
 21
1476.04631818141
  0
LINE
  5
21A
100
AcDbEntity
  8
0
  6
CONTINUOUS
 62
           3
100
AcDbLine
 10
4470.447347881433
 20
1471.04632294978
 11
4466.117220847104
 21
1471.04632294978
  0
LINE
  5
219
100
AcDbEntity
  8
0
  6
CONTINUOUS
 62
           3
100
AcDbLine
 10
4466.117220847104
 20
1471.04632294978
 11
4461.787093812775
 21
1471.04632294978
  0
LINE
  5
218
100
AcDbEntity
  8
0
  6
CONTINUOUS
 62
           3
100
AcDbLine
 10
4461.787093812775
 20
1476.04631818141
 11
4461.117220958901
 21
1476.04631818135
  0
LINE
  5
217
100
AcDbEntity
  8
0
  6
CONTINUOUS
 62
           3
100
AcDbLine
 10
4471.117220735296
 20
1476.04631818135
 11
4470.447347881433
 21
1476.04631818141
  0
LINE
  5
216
100
AcDbEntity
  8
0
  6
CONTINUOUS
 62
           3
100
AcDbLine
 10
4471.117220735296
 20
1471.046322949749
 11
4470.447347881433
 21
1471.04632294978
  0
LINE
  5
215
100
AcDbEntity
  8
0
  6
CONTINUOUS
 62
           3
100
AcDbLine
 10
4469.003972280932
 20
1470.5997351488
 11
4469.003972280792
 21
1466.49290061805
  0
LINE
  5
214
100
AcDbEntity
  8
0
  6
CONTINUOUS
 62
           3
100
AcDbLine
 10
4463.230469413275
 20
1470.5997351488
 11
4463.230469413275
 21
1466.492900617979
  0
LINE
  5
213
100
AcDbEntity
  8
0
  6
CONTINUOUS
 62
           3
100
AcDbLine
 10
4471.890723714796
 20
1470.59973514885
 11
4470.447347881433
 21
1471.04632294978
  0
LINE
  5
212
100
AcDbEntity
  8
0
  6
CONTINUOUS
 62
           3
100
AcDbLine
 10
4471.890723714796
 20
1470.59973514885
 11
4471.890723714796
 21
1466.49290061805
  0
LINE
  5
211
100
AcDbEntity
  8
0
  6
CONTINUOUS
 62
           3
100
AcDbLine
 10
4469.003972280792
 20
1466.49290061805
 11
4470.447347881433
 21
1466.046312817
  0
LINE
  5
210
100
AcDbEntity
  8
0
  6
CONTINUOUS
 62
           3
100
AcDbLine
 10
4463.230469413275
 20
1470.5997351488
 11
4461.787093812775
 21
1471.04632294978
  0
LINE
  5
20F
100
AcDbEntity
  8
0
  6
CONTINUOUS
 62
           3
100
AcDbLine
 10
4460.343717979404
 20
1466.49290061805
 11
4461.787093812775
 21
1466.046312817
  0
LINE
  5
20E
100
AcDbEntity
  8
0
  6
CONTINUOUS
 62
           3
100
AcDbLine
 10
4460.343717979404
 20
1470.59973514885
 11
4460.343717979404
 21
1466.49290061805
  0
LINE
  5
20D
100
AcDbEntity
  8
0
  6
CONTINUOUS
 62
           3
100
AcDbLine
 10
4466.117220847104
 20
1466.046312817
 11
4461.787093812775
 21
1466.046312817
  0
LINE
  5
20C
100
AcDbEntity
  8
0
  6
CONTINUOUS
 62
           3
100
AcDbLine
 10
4470.447347881433
 20
1466.046312817
 11
4466.117220847104
 21
1466.046312817
  0
LINE
  5
20B
100
AcDbEntity
  8
0
  6
CONTINUOUS
 62
           3
100
AcDbLine
 10
4461.787093812775
 20
1471.04632294978
 11
4461.117220958901
 21
1471.046322949749
  0
LINE
  5
20A
100
AcDbEntity
  8
0
  6
CONTINUOUS
 62
           3
100
AcDbLine
 10
4471.117220735296
 20
1466.046312816859
 11
4470.447347881433
 21
1466.046312817
  0
LINE
  5
209
100
AcDbEntity
  8
0
  6
CONTINUOUS
 62
           3
100
AcDbLine
 10
4461.787093812775
 20
1466.046312817
 11
4461.117220958901
 21
1466.046312816859
  0
LINE
  5
208
100
AcDbEntity
  8
0
  6
CONTINUOUS
 62
           3
100
AcDbLine
 10
4416.117220102141
 20
1763.44632542911
 11
4420.117220757843
 21
1763.44632542911
  0
LINE
  5
207
100
AcDbEntity
  8
0
  6
CONTINUOUS
 62
           3
100
AcDbLine
 10
4412.117219446443
 20
1763.44632542911
 11
4416.117220102141
 21
1763.44632542911
  0
LINE
  5
206
100
AcDbEntity
  8
0
  6
CONTINUOUS
 62
           3
100
AcDbLine
 10
4463.117220821006
 20
1735.86896992503
 11
4469.117220873192
 21
1735.86896992503
  0
LINE
  5
205
100
AcDbEntity
  8
0
  6
CONTINUOUS
 62
           3
100
AcDbLine
 10
4468.117220941988
 20
1736.86897195173
 11
4464.117220752205
 21
1736.86897195173
  0
LINE
  5
204
100
AcDbEntity
  8
0
  6
CONTINUOUS
 62
           3
100
AcDbLine
 10
4474.117221226993
 20
1487.64632082774
 11
4469.617220955192
 21
1487.64632082774
  0
LINE
  5
203
100
AcDbEntity
  8
0
  6
CONTINUOUS
 62
           3
100
AcDbLine
 10
4462.617220739006
 20
1493.23916620823
 11
4469.617220955192
 21
1493.23916620823
  0
LINE
  5
202
100
AcDbEntity
  8
0
  6
CONTINUOUS
 62
           3
100
AcDbLine
 10
4462.617220739006
 20
1487.64632082774
 11
4458.117220467205
 21
1487.64632082774
  0
LINE
  5
201
100
AcDbEntity
  8
0
  6
CONTINUOUS
 62
           3
100
AcDbLine
 10
4469.617220955192
 20
1493.246318765639
 11
4469.617220955192
 21
1487.64632082774
  0
LINE
  5
200
100
AcDbEntity
  8
0
  6
CONTINUOUS
 62
           3
100
AcDbLine
 10
4462.617220739006
 20
1487.64632082774
 11
4462.617220739006
 21
1493.246318765639
  0
LINE
  5
1FF
100
AcDbEntity
  8
0
  6
CONTINUOUS
 62
           3
100
AcDbLine
 10
4458.117220467205
 20
1493.246318765639
 11
4458.117220467205
 21
1487.64632082774
  0
LINE
  5
1FE
100
AcDbEntity
  8
0
  6
CONTINUOUS
 62
           3
100
AcDbLine
 10
4474.117221226993
 20
1493.246318765639
 11
4474.117221226993
 21
1487.64632082774
  0
LINE
  5
1FD
100
AcDbEntity
  8
0
  6
CONTINUOUS
 62
           3
100
AcDbLine
 10
4469.617220955192
 20
1490.69278872804
 11
4469.117220873192
 21
1490.69278872804
  0
LINE
  5
1FC
100
AcDbEntity
  8
0
  6
CONTINUOUS
 62
           3
100
AcDbLine
 10
4463.117220821006
 20
1490.69278872804
 11
4462.617220739006
 21
1490.69278872804
  0
LINE
  5
1FB
100
AcDbEntity
  8
0
  6
CONTINUOUS
 62
           3
100
AcDbLine
 10
4469.617220955192
 20
1492.43646300623
 11
4462.617220739006
 21
1492.43646300623
  0
LINE
  5
1FA
100
AcDbEntity
  8
0
  6
CONTINUOUS
 62
           3
100
AcDbLine
 10
4462.617220739006
 20
1488.44631946884
 11
4469.617220955192
 21
1488.44631946884
  0
LINE
  5
1F9
100
AcDbEntity
  8
0
  6
CONTINUOUS
 62
           3
100
AcDbLine
 10
4462.617220739006
 20
1487.64632082774
 11
4469.617220955192
 21
1487.64632082774
  0
LINE
  5
1F8
100
AcDbEntity
  8
0
  6
CONTINUOUS
 62
           3
100
AcDbLine
 10
4466.117220847104
 20
1483.092898496039
 11
4468.617220791191
 21
1482.64631814564
  0
LINE
  5
1F7
100
AcDbEntity
  8
0
  6
CONTINUOUS
 62
           3
100
AcDbLine
 10
4463.617220902985
 20
1482.64631814564
 11
4468.617220791191
 21
1482.64631814564
  0
LINE
  5
1F6
100
AcDbEntity
  8
0
  6
CONTINUOUS
 62
           3
100
AcDbLine
 10
4466.117220847104
 20
1483.092898496039
 11
4466.117220847104
 21
1487.546319134941
  0
LINE
  5
1F5
100
AcDbEntity
  8
0
  6
CONTINUOUS
 62
           3
100
AcDbLine
 10
4461.117220958901
 20
1483.092898496039
 11
4463.617220902985
 21
1482.64631814564
  0
LINE
  5
1F4
100
AcDbEntity
  8
0
  6
CONTINUOUS
 62
           3
100
AcDbLine
 10
4461.117220958901
 20
1483.092898496039
 11
4461.117220958901
 21
1487.546319134941
  0
LINE
  5
1F3
100
AcDbEntity
  8
0
  6
CONTINUOUS
 62
           3
100
AcDbLine
 10
4471.117220735296
 20
1483.092898496039
 11
4471.117220735296
 21
1487.546319134941
  0
LINE
  5
1F2
100
AcDbEntity
  8
0
  6
CONTINUOUS
 62
           3
100
AcDbLine
 10
4461.117220958864
 20
1482.64631814564
 11
4463.617220902985
 21
1482.64631814564
  0
LINE
  5
1F1
100
AcDbEntity
  8
0
  6
CONTINUOUS
 62
           3
100
AcDbLine
 10
4468.617220791191
 20
1482.64631814564
 11
4471.117220735342
 21
1482.64631814564
  0
LINE
  5
1F0
100
AcDbEntity
  8
0
  6
CONTINUOUS
 62
           3
100
AcDbLine
 10
4474.117221226993
 20
1486.72256059254
 11
4471.117220735296
 21
1486.72256059254
  0
LINE
  5
1EF
100
AcDbEntity
  8
0
  6
CONTINUOUS
 62
           3
100
AcDbLine
 10
4461.117220958901
 20
1486.72256059254
 11
4458.117220467205
 21
1486.72256059254
  0
LINE
  5
1EE
100
AcDbEntity
  8
0
  6
CONTINUOUS
 62
           3
100
AcDbLine
 10
4458.117220467205
 20
1487.64632082774
 11
4458.117220467205
 21
1486.72256059254
  0
LINE
  5
1ED
100
AcDbEntity
  8
0
  6
CONTINUOUS
 62
           3
100
AcDbLine
 10
4474.117221226993
 20
1487.64632082774
 11
4474.117221226993
 21
1486.72256059254
  0
LINE
  5
1EC
100
AcDbEntity
  8
0
  6
CONTINUOUS
 62
           3
100
AcDbLine
 10
4436.117221517618
 20
1648.446319617709
 11
4446.117221294016
 21
1648.446319617709
  0
LINE
  5
1EB
100
AcDbEntity
  8
0
  6
CONTINUOUS
 62
           3
100
AcDbLine
 10
4446.117221294016
 20
1647.246317930811
 11
4446.117221294016
 21
1648.446319617709
  0
LINE
  5
1EA
100
AcDbEntity
  8
0
  6
CONTINUOUS
 62
           3
100
AcDbLine
 10
4436.117221517618
 20
1647.246317930811
 11
4446.117221294016
 21
1647.246317930811
  0
LINE
  5
1E9
100
AcDbEntity
  8
0
  6
CONTINUOUS
 62
           3
100
AcDbLine
 10
4436.117221517618
 20
1647.246317930811
 11
4436.117221517618
 21
1648.446319617709
  0
LINE
  5
1E8
100
AcDbEntity
  8
0
  6
CONTINUOUS
 62
           3
100
AcDbLine
 10
4486.117220400181
 20
1647.246317930811
 11
4486.117220400181
 21
1648.446319617709
  0
LINE
  5
1E7
100
AcDbEntity
  8
0
  6
CONTINUOUS
 62
           3
100
AcDbLine
 10
4471.367220776296
 20
1647.246317930811
 11
4486.117220400181
 21
1647.246317930811
  0
LINE
  5
1E6
100
AcDbEntity
  8
0
  6
CONTINUOUS
 62
           3
100
AcDbLine
 10
4471.367220776296
 20
1648.446319617709
 11
4486.117220400181
 21
1648.446319617709
  0
LINE
  5
1E5
100
AcDbEntity
  8
0
  6
CONTINUOUS
 62
           3
100
AcDbLine
 10
4446.117221294016
 20
1647.246317930811
 11
4460.867220917904
 21
1647.246317930811
  0
LINE
  5
1E4
100
AcDbEntity
  8
0
  6
CONTINUOUS
 62
           3
100
AcDbLine
 10
4446.117221294016
 20
1648.446319617709
 11
4460.867220917904
 21
1648.446319617709
  0
LINE
  5
1E3
100
AcDbEntity
  8
0
  6
CONTINUOUS
 62
           3
100
AcDbLine
 10
4446.117221294016
 20
1489.64631743033
 11
4446.117221294016
 21
1488.44631946884
  0
LINE
  5
1E2
100
AcDbEntity
  8
0
  6
CONTINUOUS
 62
           3
100
AcDbLine
 10
4446.117221294016
 20
1488.44631946884
 11
4458.117220467205
 21
1488.44631946884
  0
LINE
  5
1E1
100
AcDbEntity
  8
0
  6
CONTINUOUS
 62
           3
100
AcDbLine
 10
4446.117221294016
 20
1489.64631743033
 11
4458.117220467205
 21
1489.64631743033
  0
LINE
  5
1E0
100
AcDbEntity
  8
0
  6
CONTINUOUS
 62
           3
100
AcDbLine
 10
4469.367220914192
 20
1488.44631946884
 11
4469.367220914192
 21
1489.64631743033
  0
LINE
  5
1DF
100
AcDbEntity
  8
0
  6
CONTINUOUS
 62
           3
100
AcDbLine
 10
4469.367220914192
 20
1489.64631743033
 11
4469.617220955192
 21
1489.64631743033
  0
LINE
  5
1DE
100
AcDbEntity
  8
0
  6
CONTINUOUS
 62
           3
100
AcDbLine
 10
4496.117220176573
 20
1647.246317930811
 11
4496.117220176573
 21
1648.446319617709
  0
LINE
  5
1DD
100
AcDbEntity
  8
0
  6
CONTINUOUS
 62
           3
100
AcDbLine
 10
4496.117220176573
 20
1647.246317930811
 11
4486.117220400181
 21
1647.246317930811
  0
LINE
  5
1DC
100
AcDbEntity
  8
0
  6
CONTINUOUS
 62
           3
100
AcDbLine
 10
4496.117220176573
 20
1648.446319617709
 11
4486.117220400181
 21
1648.446319617709
  0
LINE
  5
1DB
100
AcDbEntity
  8
0
  6
CONTINUOUS
 62
           3
100
AcDbLine
 10
4469.367220914192
 20
1647.246317930811
 11
4469.367220914192
 21
1648.446319617709
  0
LINE
  5
1DA
100
AcDbEntity
  8
0
  6
CONTINUOUS
 62
           3
100
AcDbLine
 10
4471.367220776296
 20
1647.246317930811
 11
4469.367220914192
 21
1647.246317930811
  0
LINE
  5
1D9
100
AcDbEntity
  8
0
  6
CONTINUOUS
 62
           3
100
AcDbLine
 10
4469.367220914192
 20
1648.446319617709
 11
4471.367220776296
 21
1648.446319617709
  0
LINE
  5
1D8
100
AcDbEntity
  8
0
  6
CONTINUOUS
 62
           3
100
AcDbLine
 10
4436.117221517618
 20
1489.64631743033
 11
4436.117221517618
 21
1488.44631946884
  0
LINE
  5
1D7
100
AcDbEntity
  8
0
  6
CONTINUOUS
 62
           3
100
AcDbLine
 10
4436.117221517618
 20
1488.44631946884
 11
4446.117221294016
 21
1488.44631946884
  0
LINE
  5
1D6
100
AcDbEntity
  8
0
  6
CONTINUOUS
 62
           3
100
AcDbLine
 10
4436.117221517618
 20
1489.64631743033
 11
4446.117221294016
 21
1489.64631743033
  0
LINE
  5
1D5
100
AcDbEntity
  8
0
  6
CONTINUOUS
 62
           3
100
AcDbLine
 10
4486.117220400181
 20
1489.64631743033
 11
4486.117220400181
 21
1488.44631946884
  0
LINE
  5
1D4
100
AcDbEntity
  8
0
  6
CONTINUOUS
 62
           3
100
AcDbLine
 10
4474.117221226993
 20
1488.44631946884
 11
4486.117220400181
 21
1488.44631946884
  0
LINE
  5
1D3
100
AcDbEntity
  8
0
  6
CONTINUOUS
 62
           3
100
AcDbLine
 10
4474.117221226993
 20
1489.64631743033
 11
4486.117220400181
 21
1489.64631743033
  0
LINE
  5
1D2
100
AcDbEntity
  8
0
  6
CONTINUOUS
 62
           3
100
AcDbLine
 10
4462.867220780006
 20
1648.446319617709
 11
4462.867220780006
 21
1647.246317930811
  0
LINE
  5
1D1
100
AcDbEntity
  8
0
  6
CONTINUOUS
 62
           3
100
AcDbLine
 10
4462.867220780006
 20
1647.246317930811
 11
4460.867220917904
 21
1647.246317930811
  0
LINE
  5
1D0
100
AcDbEntity
  8
0
  6
CONTINUOUS
 62
           3
100
AcDbLine
 10
4460.867220917904
 20
1648.446319617709
 11
4462.867220780006
 21
1648.446319617709
  0
LINE
  5
1CF
100
AcDbEntity
  8
0
  6
CONTINUOUS
 62
           3
100
AcDbLine
 10
4496.117220176573
 20
1489.64631743033
 11
4496.117220176573
 21
1488.44631946884
  0
LINE
  5
1CE
100
AcDbEntity
  8
0
  6
CONTINUOUS
 62
           3
100
AcDbLine
 10
4496.117220176573
 20
1488.44631946884
 11
4486.117220400181
 21
1488.44631946884
  0
LINE
  5
1CD
100
AcDbEntity
  8
0
  6
CONTINUOUS
 62
           3
100
AcDbLine
 10
4496.117220176573
 20
1489.64631743033
 11
4486.117220400181
 21
1489.64631743033
  0
LINE
  5
1CC
100
AcDbEntity
  8
0
  6
CONTINUOUS
 62
           3
100
AcDbLine
 10
4462.867220780006
 20
1489.64631743033
 11
4462.867220780006
 21
1488.44631946884
  0
LINE
  5
1CB
100
AcDbEntity
  8
0
  6
CONTINUOUS
 62
           3
100
AcDbLine
 10
4462.617220739006
 20
1489.64631743033
 11
4462.867220780006
 21
1489.64631743033
  0
LINE
  5
1CA
100
AcDbEntity
  8
0
  6
CONTINUOUS
 62
           3
100
AcDbLine
 10
4413.117221473142
 20
1488.44631946884
 11
4413.117221473142
 21
1489.64631743033
  0
LINE
  5
1C9
100
AcDbEntity
  8
0
  6
CONTINUOUS
 62
           3
100
AcDbLine
 10
4411.11722114514
 20
1488.44631946884
 11
4413.117221473142
 21
1488.44631946884
  0
LINE
  5
1C8
100
AcDbEntity
  8
0
  6
CONTINUOUS
 62
           3
100
AcDbLine
 10
4413.117221473142
 20
1489.64631743033
 11
4411.11722114514
 21
1489.64631743033
  0
LINE
  5
1C7
100
AcDbEntity
  8
0
  6
CONTINUOUS
 62
           3
100
AcDbLine
 10
4419.117222456534
 20
1489.64631743033
 11
4419.117222456534
 21
1488.44631946884
  0
LINE
  5
1C6
100
AcDbEntity
  8
0
  6
CONTINUOUS
 62
           3
100
AcDbLine
 10
4419.117222456534
 20
1488.44631946884
 11
4421.117219059132
 21
1488.44631946884
  0
LINE
  5
1C5
100
AcDbEntity
  8
0
  6
CONTINUOUS
 62
           3
100
AcDbLine
 10
4421.117219059132
 20
1489.64631743033
 11
4419.117222456534
 21
1489.64631743033
  0
LINE
  5
1C4
100
AcDbEntity
  8
0
  6
CONTINUOUS
 62
           3
100
AcDbLine
 10
4519.117220221348
 20
1648.446319617709
 11
4519.117220221348
 21
1647.246317930811
  0
LINE
  5
1C3
100
AcDbEntity
  8
0
  6
CONTINUOUS
 62
           3
100
AcDbLine
 10
4519.117220221348
 20
1647.246317930811
 11
4521.117220549052
 21
1647.246317930811
  0
LINE
  5
1C2
100
AcDbEntity
  8
0
  6
CONTINUOUS
 62
           3
100
AcDbLine
 10
4521.117220549052
 20
1648.446319617709
 11
4519.117220221348
 21
1648.446319617709
  0
LINE
  5
1C1
100
AcDbEntity
  8
0
  6
CONTINUOUS
 62
           3
100
AcDbLine
 10
4513.117219237663
 20
1647.246317930811
 11
4513.117219237663
 21
1648.446319617709
  0
LINE
  5
1C0
100
AcDbEntity
  8
0
  6
CONTINUOUS
 62
           3
100
AcDbLine
 10
4511.117222635061
 20
1647.246317930811
 11
4513.117219237663
 21
1647.246317930811
  0
LINE
  5
1BF
100
AcDbEntity
  8
0
  6
CONTINUOUS
 62
           3
100
AcDbLine
 10
4513.117219237663
 20
1648.446319617709
 11
4511.117222635061
 21
1648.446319617709
  0
LINE
  5
1BE
100
AcDbEntity
  8
0
  6
CONTINUOUS
 62
           3
100
AcDbLine
 10
4519.117220221348
 20
1488.44631946884
 11
4519.117220221348
 21
1489.64631743033
  0
LINE
  5
1BD
100
AcDbEntity
  8
0
  6
CONTINUOUS
 62
           3
100
AcDbLine
 10
4521.117220549052
 20
1488.44631946884
 11
4519.117220221348
 21
1488.44631946884
  0
LINE
  5
1BC
100
AcDbEntity
  8
0
  6
CONTINUOUS
 62
           3
100
AcDbLine
 10
4519.117220221348
 20
1489.64631743033
 11
4521.117220549052
 21
1489.64631743033
  0
LINE
  5
1BB
100
AcDbEntity
  8
0
  6
CONTINUOUS
 62
           3
100
AcDbLine
 10
4513.117219237663
 20
1489.64631743033
 11
4513.117219237663
 21
1488.44631946884
  0
LINE
  5
1BA
100
AcDbEntity
  8
0
  6
CONTINUOUS
 62
           3
100
AcDbLine
 10
4513.117219237663
 20
1488.44631946884
 11
4511.117222635061
 21
1488.44631946884
  0
LINE
  5
1B9
100
AcDbEntity
  8
0
  6
CONTINUOUS
 62
           3
100
AcDbLine
 10
4511.117222635061
 20
1489.64631743033
 11
4513.117219237663
 21
1489.64631743033
  0
LINE
  5
1B8
100
AcDbEntity
  8
0
  6
CONTINUOUS
 62
           3
100
AcDbLine
 10
4413.117221473142
 20
1648.446319617709
 11
4413.117221473142
 21
1647.246317930811
  0
LINE
  5
1B7
100
AcDbEntity
  8
0
  6
CONTINUOUS
 62
           3
100
AcDbLine
 10
4413.117221473142
 20
1647.246317930811
 11
4411.11722114514
 21
1647.246317930811
  0
LINE
  5
1B6
100
AcDbEntity
  8
0
  6
CONTINUOUS
 62
           3
100
AcDbLine
 10
4411.11722114514
 20
1648.446319617709
 11
4413.117221473142
 21
1648.446319617709
  0
LINE
  5
1B5
100
AcDbEntity
  8
0
  6
CONTINUOUS
 62
           3
100
AcDbLine
 10
4419.117222456534
 20
1647.246317930811
 11
4419.117222456534
 21
1648.446319617709
  0
LINE
  5
1B4
100
AcDbEntity
  8
0
  6
CONTINUOUS
 62
           3
100
AcDbLine
 10
4421.117219059132
 20
1647.246317930811
 11
4419.117222456534
 21
1647.246317930811
  0
LINE
  5
1B3
100
AcDbEntity
  8
0
  6
CONTINUOUS
 62
           3
100
AcDbLine
 10
4419.117222456534
 20
1648.446319617709
 11
4421.117219059132
 21
1648.446319617709
  0
LINE
  5
1B2
100
AcDbEntity
  8
0
  6
CONTINUOUS
 62
           3
100
AcDbLine
 10
4421.117219059132
 20
1488.44631946884
 11
4436.117221517618
 21
1488.44631946884
  0
LINE
  5
1B1
100
AcDbEntity
  8
0
  6
CONTINUOUS
 62
           3
100
AcDbLine
 10
4421.117219059132
 20
1489.64631743033
 11
4436.117221517618
 21
1489.64631743033
  0
LINE
  5
1B0
100
AcDbEntity
  8
0
  6
CONTINUOUS
 62
           3
100
AcDbLine
 10
4526.11721950605
 20
1489.64631743033
 11
4526.11721950605
 21
1488.44631946884
  0
LINE
  5
1AF
100
AcDbEntity
  8
0
  6
CONTINUOUS
 62
           3
100
AcDbLine
 10
4526.11721950605
 20
1488.44631946884
 11
4521.117220549052
 21
1488.44631946884
  0
LINE
  5
1AE
100
AcDbEntity
  8
0
  6
CONTINUOUS
 62
           3
100
AcDbLine
 10
4521.117220549052
 20
1489.64631743033
 11
4526.11721950605
 21
1489.64631743033
  0
LINE
  5
1AD
100
AcDbEntity
  8
0
  6
CONTINUOUS
 62
           3
100
AcDbLine
 10
4421.117219059132
 20
1647.246317930811
 11
4436.117221517618
 21
1647.246317930811
  0
LINE
  5
1AC
100
AcDbEntity
  8
0
  6
CONTINUOUS
 62
           3
100
AcDbLine
 10
4421.117219059132
 20
1648.446319617709
 11
4436.117221517618
 21
1648.446319617709
  0
LINE
  5
1AB
100
AcDbEntity
  8
0
  6
CONTINUOUS
 62
           3
100
AcDbLine
 10
4511.117222635061
 20
1488.44631946884
 11
4496.117220176573
 21
1488.44631946884
  0
LINE
  5
1AA
100
AcDbEntity
  8
0
  6
CONTINUOUS
 62
           3
100
AcDbLine
 10
4511.117222635061
 20
1489.64631743033
 11
4496.117220176573
 21
1489.64631743033
  0
LINE
  5
1A9
100
AcDbEntity
  8
0
  6
CONTINUOUS
 62
           3
100
AcDbLine
 10
4526.11721950605
 20
1647.246317930811
 11
4526.11721950605
 21
1648.446319617709
  0
LINE
  5
1A8
100
AcDbEntity
  8
0
  6
CONTINUOUS
 62
           3
100
AcDbLine
 10
4521.117220549052
 20
1647.246317930811
 11
4526.11721950605
 21
1647.246317930811
  0
LINE
  5
1A7
100
AcDbEntity
  8
0
  6
CONTINUOUS
 62
           3
100
AcDbLine
 10
4526.11721950605
 20
1648.446319617709
 11
4521.117220549052
 21
1648.446319617709
  0
LINE
  5
1A6
100
AcDbEntity
  8
0
  6
CONTINUOUS
 62
           3
100
AcDbLine
 10
4511.117222635061
 20
1647.246317930811
 11
4496.117220176573
 21
1647.246317930811
  0
LINE
  5
1A5
100
AcDbEntity
  8
0
  6
CONTINUOUS
 62
           3
100
AcDbLine
 10
4511.117222635061
 20
1648.446319617709
 11
4496.117220176573
 21
1648.446319617709
  0
LINE
  5
1A4
100
AcDbEntity
  8
0
  6
CONTINUOUS
 62
           3
100
AcDbLine
 10
4406.117222188143
 20
1647.246317930811
 11
4406.117222188143
 21
1648.446319617709
  0
LINE
  5
1A3
100
AcDbEntity
  8
0
  6
CONTINUOUS
 62
           3
100
AcDbLine
 10
4411.11722114514
 20
1647.246317930811
 11
4406.117222188143
 21
1647.246317930811
  0
LINE
  5
1A2
100
AcDbEntity
  8
0
  6
CONTINUOUS
 62
           3
100
AcDbLine
 10
4406.117222188143
 20
1648.446319617709
 11
4411.11722114514
 21
1648.446319617709
  0
LINE
  5
1A1
100
AcDbEntity
  8
0
  6
CONTINUOUS
 62
           3
100
AcDbLine
 10
4406.117222188143
 20
1489.64631743033
 11
4406.117222188143
 21
1488.44631946884
  0
LINE
  5
1A0
100
AcDbEntity
  8
0
  6
CONTINUOUS
 62
           3
100
AcDbLine
 10
4406.117222188143
 20
1488.44631946884
 11
4411.11722114514
 21
1488.44631946884
  0
LINE
  5
19F
100
AcDbEntity
  8
0
  6
CONTINUOUS
 62
           3
100
AcDbLine
 10
4411.11722114514
 20
1489.64631743033
 11
4406.117222188143
 21
1489.64631743033
  0
LINE
  5
19E
100
AcDbEntity
  8
0
  6
CONTINUOUS
 62
           3
100
AcDbLine
 10
4469.367220914192
 20
1489.64631743033
 11
4469.117220873192
 21
1489.64631743033
  0
LINE
  5
19D
100
AcDbEntity
  8
0
  6
CONTINUOUS
 62
           3
100
AcDbLine
 10
4463.117220821006
 20
1489.64631743033
 11
4462.867220780006
 21
1489.64631743033
  0
LINE
  5
19C
100
AcDbEntity
  8
0
  6
CONTINUOUS
 62
           3
100
AcDbLine
 10
4462.867220780006
 20
1647.246317930811
 11
4463.117220821006
 21
1647.246317930811
  0
LINE
  5
19B
100
AcDbEntity
  8
0
  6
CONTINUOUS
 62
           3
100
AcDbLine
 10
4469.117220873192
 20
1647.246317930811
 11
4469.367220914192
 21
1647.246317930811
  0
LINE
  5
19A
100
AcDbEntity
  8
0
  6
CONTINUOUS
 62
           3
100
AcDbLine
 10
4462.867220780006
 20
1648.446319617709
 11
4463.117220821006
 21
1648.446319617709
  0
LINE
  5
199
100
AcDbEntity
  8
0
  6
CONTINUOUS
 62
           3
100
AcDbLine
 10
4469.117220873192
 20
1648.446319617709
 11
4469.367220914192
 21
1648.446319617709
  0
LINE
  5
198
100
AcDbEntity
  8
0
  6
CONTINUOUS
 62
           3
100
AcDbLine
 10
4526.11721950605
 20
1489.64631743033
 11
4526.11721950605
 21
1490.146318443531
  0
LINE
  5
197
100
AcDbEntity
  8
0
  6
CONTINUOUS
 62
           3
100
AcDbLine
 10
4406.117222188143
 20
1489.64631743033
 11
4406.117222188143
 21
1490.146318443531
  0
LINE
  5
196
100
AcDbEntity
  8
0
  6
CONTINUOUS
 62
           3
100
AcDbLine
 10
4406.117222188143
 20
1647.246317930811
 11
4406.117222188143
 21
1646.746320643009
  0
LINE
  5
195
100
AcDbEntity
  8
0
  6
CONTINUOUS
 62
           3
100
AcDbLine
 10
4526.11721950605
 20
1647.246317930811
 11
4526.11721950605
 21
1646.746320643009
  0
LINE
  5
194
100
AcDbEntity
  8
0
  6
CONTINUOUS
 62
           3
100
AcDbLine
 10
4526.11721950605
 20
1628.446318202219
 11
4524.417220531052
 21
1628.446318202219
  0
LINE
  5
193
100
AcDbEntity
  8
0
  6
CONTINUOUS
 62
           3
100
AcDbLine
 10
4526.11721950605
 20
1608.446318649139
 11
4526.11721950605
 21
1628.446318202219
  0
LINE
  5
192
100
AcDbEntity
  8
0
  6
CONTINUOUS
 62
           3
100
AcDbLine
 10
4524.417220531052
 20
1608.446318649139
 11
4526.042028246451
 21
1608.446318649139
  0
LINE
  5
191
100
AcDbEntity
  8
0
  6
CONTINUOUS
 62
           3
100
AcDbLine
 10
4408.117222516145
 20
1630.446320392621
 11
4406.117222188143
 21
1630.446320392621
  0
LINE
  5
190
100
AcDbEntity
  8
0
  6
CONTINUOUS
 62
           3
100
AcDbLine
 10
4406.117222188143
 20
1646.746320643009
 11
4406.117222188143
 21
1630.446320392621
  0
LINE
  5
18F
100
AcDbEntity
  8
0
  6
CONTINUOUS
 62
           3
100
AcDbLine
 10
4526.11721950605
 20
1646.746320643009
 11
4526.11721950605
 21
1630.446320392621
  0
LINE
  5
18E
100
AcDbEntity
  8
0
  6
CONTINUOUS
 62
           3
100
AcDbLine
 10
4524.117219178051
 20
1630.446320392621
 11
4526.11721950605
 21
1630.446320392621
  0
LINE
  5
18D
100
AcDbEntity
  8
0
  6
CONTINUOUS
 62
           3
100
AcDbLine
 10
4524.417220531052
 20
1628.446318202219
 11
4524.117219178051
 21
1628.446318202219
  0
LINE
  5
18C
100
AcDbEntity
  8
0
  6
CONTINUOUS
 62
           3
100
AcDbLine
 10
4524.117219178051
 20
1608.446318649139
 11
4524.417220531052
 21
1608.446318649139
  0
LINE
  5
18B
100
AcDbEntity
  8
0
  6
CONTINUOUS
 62
           3
100
AcDbLine
 10
4526.11721950605
 20
1606.44631925264
 11
4524.117219178051
 21
1606.44631925264
  0
LINE
  5
18A
100
AcDbEntity
  8
0
  6
CONTINUOUS
 62
           3
100
AcDbLine
 10
4526.11721950605
 20
1606.44631925264
 11
4526.11721950605
 21
1530.4463151773
  0
LINE
  5
189
100
AcDbEntity
  8
0
  6
CONTINUOUS
 62
           3
100
AcDbLine
 10
4526.11721950605
 20
1530.4463151773
 11
4524.117219178051
 21
1530.4463151773
  0
LINE
  5
188
100
AcDbEntity
  8
0
  6
CONTINUOUS
 62
           3
100
AcDbLine
 10
4524.117219178051
 20
1528.446318574701
 11
4524.417220531052
 21
1528.446318574701
  0
LINE
  5
187
100
AcDbEntity
  8
0
  6
CONTINUOUS
 62
           3
100
AcDbLine
 10
4524.417220531052
 20
1508.44631529652
 11
4524.117219178051
 21
1508.44631529652
  0
LINE
  5
186
100
AcDbEntity
  8
0
  6
CONTINUOUS
 62
           3
100
AcDbLine
 10
4524.117219178051
 20
1506.446318693919
 11
4526.11721950605
 21
1506.446318693919
  0
LINE
  5
185
100
AcDbEntity
  8
0
  6
CONTINUOUS
 62
           3
100
AcDbLine
 10
4526.11721950605
 20
1490.146318443531
 11
4526.11721950605
 21
1506.446318693919
  0
LINE
  5
184
100
AcDbEntity
  8
0
  6
CONTINUOUS
 62
           3
100
AcDbLine
 10
4406.117222188143
 20
1490.146318443531
 11
4406.117222188143
 21
1506.446318693919
  0
LINE
  5
183
100
AcDbEntity
  8
0
  6
CONTINUOUS
 62
           3
100
AcDbLine
 10
4408.117222516145
 20
1506.446318693919
 11
4406.117222188143
 21
1506.446318693919
  0
LINE
  5
182
100
AcDbEntity
  8
0
  6
CONTINUOUS
 62
           3
100
AcDbLine
 10
4407.817221163145
 20
1508.44631529652
 11
4408.117222516145
 21
1508.44631529652
  0
LINE
  5
181
100
AcDbEntity
  8
0
  6
CONTINUOUS
 62
           3
100
AcDbLine
 10
4408.117222516145
 20
1528.446318574701
 11
4407.817221163145
 21
1528.446318574701
  0
LINE
  5
180
100
AcDbEntity
  8
0
  6
CONTINUOUS
 62
           3
100
AcDbLine
 10
4406.117222188143
 20
1530.4463151773
 11
4408.117222516145
 21
1530.4463151773
  0
LINE
  5
17F
100
AcDbEntity
  8
0
  6
CONTINUOUS
 62
           3
100
AcDbLine
 10
4406.117222188143
 20
1606.44631925264
 11
4406.117222188143
 21
1530.4463151773
  0
LINE
  5
17E
100
AcDbEntity
  8
0
  6
CONTINUOUS
 62
           3
100
AcDbLine
 10
4406.117222188143
 20
1606.44631925264
 11
4408.117222516145
 21
1606.44631925264
  0
LINE
  5
17D
100
AcDbEntity
  8
0
  6
CONTINUOUS
 62
           3
100
AcDbLine
 10
4408.117222516145
 20
1608.446318649139
 11
4407.817221163145
 21
1608.446318649139
  0
LINE
  5
17C
100
AcDbEntity
  8
0
  6
CONTINUOUS
 62
           3
100
AcDbLine
 10
4407.817221163145
 20
1628.446318202219
 11
4408.117222516145
 21
1628.446318202219
  0
LINE
  5
17B
100
AcDbEntity
  8
0
  6
CONTINUOUS
 62
           3
100
AcDbLine
 10
4406.117222188143
 20
1528.446318574701
 11
4406.117222188143
 21
1508.44631529652
  0
LINE
  5
17A
100
AcDbEntity
  8
0
  6
CONTINUOUS
 62
           3
100
AcDbLine
 10
4407.817221163145
 20
1528.446318574701
 11
4406.117222188143
 21
1528.446318574701
  0
LINE
  5
179
100
AcDbEntity
  8
0
  6
CONTINUOUS
 62
           3
100
AcDbLine
 10
4406.192413447751
 20
1508.44631529652
 11
4407.817221163145
 21
1508.44631529652
  0
LINE
  5
178
100
AcDbEntity
  8
0
  6
CONTINUOUS
 62
           3
100
AcDbLine
 10
4407.817221163145
 20
1608.446318649139
 11
4406.192413447751
 21
1608.446318649139
  0
LINE
  5
177
100
AcDbEntity
  8
0
  6
CONTINUOUS
 62
           3
100
AcDbLine
 10
4406.117222188143
 20
1608.446318649139
 11
4406.117222188143
 21
1628.446318202219
  0
LINE
  5
176
100
AcDbEntity
  8
0
  6
CONTINUOUS
 62
           3
100
AcDbLine
 10
4406.117222188143
 20
1628.446318202219
 11
4407.817221163145
 21
1628.446318202219
  0
LINE
  5
175
100
AcDbEntity
  8
0
  6
CONTINUOUS
 62
           3
100
AcDbLine
 10
4526.11721950605
 20
1528.446318574701
 11
4526.11721950605
 21
1508.44631529652
  0
LINE
  5
174
100
AcDbEntity
  8
0
  6
CONTINUOUS
 62
           3
100
AcDbLine
 10
4524.417220531052
 20
1528.446318574701
 11
4526.11721950605
 21
1528.446318574701
  0
LINE
  5
173
100
AcDbEntity
  8
0
  6
CONTINUOUS
 62
           3
100
AcDbLine
 10
4526.042028246451
 20
1508.44631529652
 11
4524.417220531052
 21
1508.44631529652
  0
LINE
  5
172
100
AcDbEntity
  8
0
  6
CONTINUOUS
 62
           3
100
AcDbLine
 10
4413.117221473142
 20
1463.446313508561
 11
4413.117221473142
 21
1465.04632569145
  0
LINE
  5
171
100
AcDbEntity
  8
0
  6
CONTINUOUS
 62
           3
100
AcDbLine
 10
4411.11722114514
 20
1463.446313508561
 11
4413.117221473142
 21
1463.446313508561
  0
LINE
  5
170
100
AcDbEntity
  8
0
  6
CONTINUOUS
 62
           3
100
AcDbLine
 10
4413.117221473142
 20
1465.04632569145
 11
4411.11722114514
 21
1465.04632569145
  0
LINE
  5
16F
100
AcDbEntity
  8
0
  6
CONTINUOUS
 62
           3
100
AcDbLine
 10
4411.11722114514
 20
1733.44632423694
 11
4413.117221473142
 21
1733.44632423694
  0
LINE
  5
16E
100
AcDbEntity
  8
0
  6
CONTINUOUS
 62
           3
100
AcDbLine
 10
4413.117221473142
 20
1733.44632423694
 11
4413.117221473142
 21
1731.84631205374
  0
LINE
  5
16D
100
AcDbEntity
  8
0
  6
CONTINUOUS
 62
           3
100
AcDbLine
 10
4413.117221473142
 20
1731.84631205374
 11
4411.11722114514
 21
1731.84631205374
  0
LINE
  5
16C
100
AcDbEntity
  8
0
  6
CONTINUOUS
 62
           3
100
AcDbLine
 10
4419.117222456534
 20
1731.84631205374
 11
4419.117222456534
 21
1733.44632423694
  0
LINE
  5
16B
100
AcDbEntity
  8
0
  6
CONTINUOUS
 62
           3
100
AcDbLine
 10
4419.117222456534
 20
1733.44632423694
 11
4421.117219059132
 21
1733.44632423694
  0
LINE
  5
16A
100
AcDbEntity
  8
0
  6
CONTINUOUS
 62
           3
100
AcDbLine
 10
4421.117219059132
 20
1731.84631205374
 11
4419.117222456534
 21
1731.84631205374
  0
LINE
  5
169
100
AcDbEntity
  8
0
  6
CONTINUOUS
 62
           3
100
AcDbLine
 10
4419.117222456534
 20
1463.446313508561
 11
4421.117219059132
 21
1463.446313508561
  0
LINE
  5
168
100
AcDbEntity
  8
0
  6
CONTINUOUS
 62
           3
100
AcDbLine
 10
4419.117222456534
 20
1465.04632569145
 11
4419.117222456534
 21
1463.446313508561
  0
LINE
  5
167
100
AcDbEntity
  8
0
  6
CONTINUOUS
 62
           3
100
AcDbLine
 10
4421.117219059132
 20
1465.04632569145
 11
4419.117222456534
 21
1465.04632569145
  0
LINE
  5
166
100
AcDbEntity
  8
0
  6
CONTINUOUS
 62
           3
100
AcDbLine
 10
4421.117219059132
 20
1463.446313508561
 11
4511.117222635061
 21
1463.446313508561
  0
LINE
  5
165
100
AcDbEntity
  8
0
  6
CONTINUOUS
 62
           3
100
AcDbLine
 10
4421.117219059132
 20
1465.04632569145
 11
4511.117222635061
 21
1465.04632569145
  0
LINE
  5
164
100
AcDbEntity
  8
0
  6
CONTINUOUS
 62
           3
100
AcDbLine
 10
4421.117219059132
 20
1733.44632423694
 11
4511.117222635061
 21
1733.44632423694
  0
LINE
  5
163
100
AcDbEntity
  8
0
  6
CONTINUOUS
 62
           3
100
AcDbLine
 10
4421.117219059132
 20
1731.84631205374
 11
4511.117222635061
 21
1731.84631205374
  0
LINE
  5
162
100
AcDbEntity
  8
0
  6
CONTINUOUS
 62
           3
100
AcDbLine
 10
4406.117222188143
 20
1465.04632569145
 11
4406.117222188143
 21
1463.446313508561
  0
LINE
  5
161
100
AcDbEntity
  8
0
  6
CONTINUOUS
 62
           3
100
AcDbLine
 10
4406.117222188143
 20
1463.446313508561
 11
4411.11722114514
 21
1463.446313508561
  0
LINE
  5
160
100
AcDbEntity
  8
0
  6
CONTINUOUS
 62
           3
100
AcDbLine
 10
4411.11722114514
 20
1465.04632569145
 11
4406.117222188143
 21
1465.04632569145
  0
LINE
  5
15F
100
AcDbEntity
  8
0
  6
CONTINUOUS
 62
           3
100
AcDbLine
 10
4406.117222188143
 20
1731.84631205374
 11
4406.117222188143
 21
1733.44632423694
  0
LINE
  5
15E
100
AcDbEntity
  8
0
  6
CONTINUOUS
 62
           3
100
AcDbLine
 10
4406.117222188143
 20
1733.44632423694
 11
4411.11722114514
 21
1733.44632423694
  0
LINE
  5
15D
100
AcDbEntity
  8
0
  6
CONTINUOUS
 62
           3
100
AcDbLine
 10
4411.11722114514
 20
1731.84631205374
 11
4406.117222188143
 21
1731.84631205374
  0
LINE
  5
15C
100
AcDbEntity
  8
0
  6
CONTINUOUS
 62
           3
100
AcDbLine
 10
4519.117220221348
 20
1733.44632423694
 11
4519.117220221348
 21
1731.84631205374
  0
LINE
  5
15B
100
AcDbEntity
  8
0
  6
CONTINUOUS
 62
           3
100
AcDbLine
 10
4521.117220549052
 20
1733.44632423694
 11
4519.117220221348
 21
1733.44632423694
  0
LINE
  5
15A
100
AcDbEntity
  8
0
  6
CONTINUOUS
 62
           3
100
AcDbLine
 10
4519.117220221348
 20
1731.84631205374
 11
4521.117220549052
 21
1731.84631205374
  0
LINE
  5
159
100
AcDbEntity
  8
0
  6
CONTINUOUS
 62
           3
100
AcDbLine
 10
4519.117220221348
 20
1463.446313508561
 11
4519.117220221348
 21
1465.04632569145
  0
LINE
  5
158
100
AcDbEntity
  8
0
  6
CONTINUOUS
 62
           3
100
AcDbLine
 10
4521.117220549052
 20
1463.446313508561
 11
4519.117220221348
 21
1463.446313508561
  0
LINE
  5
157
100
AcDbEntity
  8
0
  6
CONTINUOUS
 62
           3
100
AcDbLine
 10
4519.117220221348
 20
1465.04632569145
 11
4521.117220549052
 21
1465.04632569145
  0
LINE
  5
156
100
AcDbEntity
  8
0
  6
CONTINUOUS
 62
           3
100
AcDbLine
 10
4513.117219237663
 20
1731.84631205374
 11
4513.117219237663
 21
1733.44632423694
  0
LINE
  5
155
100
AcDbEntity
  8
0
  6
CONTINUOUS
 62
           3
100
AcDbLine
 10
4513.117219237663
 20
1733.44632423694
 11
4511.117222635061
 21
1733.44632423694
  0
LINE
  5
154
100
AcDbEntity
  8
0
  6
CONTINUOUS
 62
           3
100
AcDbLine
 10
4511.117222635061
 20
1731.84631205374
 11
4513.117219237663
 21
1731.84631205374
  0
LINE
  5
153
100
AcDbEntity
  8
0
  6
CONTINUOUS
 62
           3
100
AcDbLine
 10
4513.117219237663
 20
1465.04632569145
 11
4513.117219237663
 21
1463.446313508561
  0
LINE
  5
152
100
AcDbEntity
  8
0
  6
CONTINUOUS
 62
           3
100
AcDbLine
 10
4513.117219237663
 20
1463.446313508561
 11
4511.117222635061
 21
1463.446313508561
  0
LINE
  5
151
100
AcDbEntity
  8
0
  6
CONTINUOUS
 62
           3
100
AcDbLine
 10
4511.117222635061
 20
1465.04632569145
 11
4513.117219237663
 21
1465.04632569145
  0
LINE
  5
150
100
AcDbEntity
  8
0
  6
CONTINUOUS
 62
           3
100
AcDbLine
 10
4526.11721950605
 20
1465.04632569145
 11
4526.11721950605
 21
1463.446313508561
  0
LINE
  5
14F
100
AcDbEntity
  8
0
  6
CONTINUOUS
 62
           3
100
AcDbLine
 10
4526.11721950605
 20
1463.446313508561
 11
4521.117220549052
 21
1463.446313508561
  0
LINE
  5
14E
100
AcDbEntity
  8
0
  6
CONTINUOUS
 62
           3
100
AcDbLine
 10
4521.117220549052
 20
1465.04632569145
 11
4526.11721950605
 21
1465.04632569145
  0
LINE
  5
14D
100
AcDbEntity
  8
0
  6
CONTINUOUS
 62
           3
100
AcDbLine
 10
4526.11721950605
 20
1731.84631205374
 11
4526.11721950605
 21
1733.44632423694
  0
LINE
  5
14C
100
AcDbEntity
  8
0
  6
CONTINUOUS
 62
           3
100
AcDbLine
 10
4526.11721950605
 20
1733.44632423694
 11
4521.117220549052
 21
1733.44632423694
  0
LINE
  5
14B
100
AcDbEntity
  8
0
  6
CONTINUOUS
 62
           3
100
AcDbLine
 10
4521.117220549052
 20
1731.84631205374
 11
4526.11721950605
 21
1731.84631205374
  0
LINE
  5
14A
100
AcDbEntity
  8
0
  6
CONTINUOUS
 62
           3
100
AcDbLine
 10
4526.11721950605
 20
1731.84631205374
 11
4526.11721950605
 21
1731.14631510574
  0
LINE
  5
149
100
AcDbEntity
  8
0
  6
CONTINUOUS
 62
           3
100
AcDbLine
 10
4406.117222188143
 20
1731.84631205374
 11
4406.117222188143
 21
1731.14631510574
  0
LINE
  5
148
100
AcDbEntity
  8
0
  6
CONTINUOUS
 62
           3
100
AcDbLine
 10
4526.11721950605
 20
1465.04632569145
 11
4526.11721950605
 21
1465.74632263976
  0
LINE
  5
147
100
AcDbEntity
  8
0
  6
CONTINUOUS
 62
           3
100
AcDbLine
 10
4406.117222188143
 20
1465.04632569145
 11
4406.117222188143
 21
1465.74632263976
  0
LINE
  5
146
100
AcDbEntity
  8
0
  6
CONTINUOUS
 62
           3
100
AcDbLine
 10
4385.717223314664
 20
1463.446313508561
 11
4383.617217568762
 21
1463.446313508561
  0
LINE
  5
145
100
AcDbEntity
  8
0
  6
CONTINUOUS
 62
           3
100
AcDbLine
 10
4383.617217568762
 20
1733.44632423694
 11
4383.617217568762
 21
1463.446313508561
  0
LINE
  5
144
100
AcDbEntity
  8
0
  6
CONTINUOUS
 62
           3
100
AcDbLine
 10
4385.717223314664
 20
1733.44632423694
 11
4383.617217568762
 21
1733.44632423694
  0
LINE
  5
143
100
AcDbEntity
  8
0
  6
CONTINUOUS
 62
           3
100
AcDbLine
 10
4527.617222545655
 20
1588.446319096351
 11
4526.11721950605
 21
1588.446319096351
  0
LINE
  5
142
100
AcDbEntity
  8
0
  6
CONTINUOUS
 62
           3
100
AcDbLine
 10
4524.617220191553
 20
1530.4463151773
 11
4524.617220191553
 21
1528.446318574701
  0
LINE
  5
141
100
AcDbEntity
  8
0
  6
CONTINUOUS
 62
           3
100
AcDbLine
 10
4526.042028246451
 20
1508.44631529652
 11
4527.617222545655
 21
1508.44631529652
  0
LINE
  5
140
100
AcDbEntity
  8
0
  6
CONTINUOUS
 62
           3
100
AcDbLine
 10
4527.617222545655
 20
1508.44631529652
 11
4527.617222545655
 21
1588.446319096351
  0
LINE
  5
13F
100
AcDbEntity
  8
0
  6
CONTINUOUS
 62
           3
100
AcDbLine
 10
4524.617220191553
 20
1688.44632244897
 11
4527.617222545655
 21
1688.44632244897
  0
LINE
  5
13E
100
AcDbEntity
  8
0
  6
CONTINUOUS
 62
           3
100
AcDbLine
 10
4524.617220191553
 20
1628.446318202219
 11
4524.617220191553
 21
1630.446320392621
  0
LINE
  5
13D
100
AcDbEntity
  8
0
  6
CONTINUOUS
 62
           3
100
AcDbLine
 10
4524.617220191553
 20
1648.446319617709
 11
4524.617220191553
 21
1688.44632244897
  0
LINE
  5
13C
100
AcDbEntity
  8
0
  6
CONTINUOUS
 62
           3
100
AcDbLine
 10
4527.617222545655
 20
1608.446318649139
 11
4526.042028246451
 21
1608.446318649139
  0
LINE
  5
13B
100
AcDbEntity
  8
0
  6
CONTINUOUS
 62
           3
100
AcDbLine
 10
4527.617222545655
 20
1688.44632244897
 11
4527.617222545655
 21
1608.446318649139
  0
LINE
  5
13A
100
AcDbEntity
  8
0
  6
CONTINUOUS
 62
           3
100
AcDbLine
 10
4406.192413447751
 20
1508.44631529652
 11
4404.617219148554
 21
1508.44631529652
  0
LINE
  5
139
100
AcDbEntity
  8
0
  6
CONTINUOUS
 62
           3
100
AcDbLine
 10
4407.617221502946
 20
1530.4463151773
 11
4407.617221502946
 21
1528.446318574701
  0
LINE
  5
138
100
AcDbEntity
  8
0
  6
CONTINUOUS
 62
           3
100
AcDbLine
 10
4404.617219148554
 20
1588.446319096351
 11
4406.117222188143
 21
1588.446319096351
  0
LINE
  5
137
100
AcDbEntity
  8
0
  6
CONTINUOUS
 62
           3
100
AcDbLine
 10
4404.617219148554
 20
1508.44631529652
 11
4404.617219148554
 21
1588.446319096351
  0
LINE
  5
136
100
AcDbEntity
  8
0
  6
CONTINUOUS
 62
           3
100
AcDbLine
 10
4406.117222188143
 20
1466.44631958806
 11
4406.117222188143
 21
1465.74632263976
  0
LINE
  5
135
100
AcDbEntity
  8
0
  6
CONTINUOUS
 62
           3
100
AcDbLine
 10
4401.117223231448
 20
1463.446313508561
 11
4401.117223231448
 21
1466.44631958806
  0
LINE
  5
134
100
AcDbEntity
  8
0
  6
CONTINUOUS
 62
           3
100
AcDbLine
 10
4401.117223231448
 20
1733.44632423694
 11
4385.717223314664
 21
1733.44632423694
  0
LINE
  5
133
100
AcDbEntity
  8
0
  6
CONTINUOUS
 62
           3
100
AcDbLine
 10
4401.117223231448
 20
1733.44632423694
 11
4401.117223231448
 21
1730.446318157439
  0
LINE
  5
132
100
AcDbEntity
  8
0
  6
CONTINUOUS
 62
           3
100
AcDbLine
 10
4406.117222188143
 20
1730.446318157439
 11
4406.117222188143
 21
1731.14631510574
  0
LINE
  5
131
100
AcDbEntity
  8
0
  6
CONTINUOUS
 62
           3
100
AcDbLine
 10
4526.11721950605
 20
1730.446318157439
 11
4526.11721950605
 21
1731.14631510574
  0
LINE
  5
130
100
AcDbEntity
  8
0
  6
CONTINUOUS
 62
           3
100
AcDbLine
 10
4531.117218462743
 20
1733.44632423694
 11
4531.117218462743
 21
1730.446318157439
  0
LINE
  5
12F
100
AcDbEntity
  8
0
  6
CONTINUOUS
 62
           3
100
AcDbLine
 10
4531.117218462743
 20
1463.446313508561
 11
4531.117218462743
 21
1466.44631958806
  0
LINE
  5
12E
100
AcDbEntity
  8
0
  6
CONTINUOUS
 62
           3
100
AcDbLine
 10
4526.11721950605
 20
1466.44631958806
 11
4526.11721950605
 21
1465.74632263976
  0
LINE
  5
12D
100
AcDbEntity
  8
0
  6
CONTINUOUS
 62
           3
100
AcDbLine
 10
4404.617219148554
 20
1608.446318649139
 11
4406.192413447751
 21
1608.446318649139
  0
LINE
  5
12C
100
AcDbEntity
  8
0
  6
CONTINUOUS
 62
           3
100
AcDbLine
 10
4407.617221502946
 20
1628.446318202219
 11
4407.617221502946
 21
1630.446320392621
  0
LINE
  5
12B
100
AcDbEntity
  8
0
  6
CONTINUOUS
 62
           3
100
AcDbLine
 10
4407.617221502946
 20
1648.446319617709
 11
4407.617221502946
 21
1688.44632244897
  0
LINE
  5
12A
100
AcDbEntity
  8
0
  6
CONTINUOUS
 62
           3
100
AcDbLine
 10
4407.617221502946
 20
1688.44632244897
 11
4404.617219148554
 21
1688.44632244897
  0
LINE
  5
129
100
AcDbEntity
  8
0
  6
CONTINUOUS
 62
           3
100
AcDbLine
 10
4404.617219148554
 20
1688.44632244897
 11
4404.617219148554
 21
1608.446318649139
  0
LINE
  5
128
100
AcDbEntity
  8
0
  6
CONTINUOUS
 62
           3
100
AcDbLine
 10
4401.117223231448
 20
1463.446313508561
 11
4385.717223314664
 21
1463.446313508561
  0
LINE
  5
127
100
AcDbEntity
  8
FORMAT
  6
DOT_CENTER
 62
           3
100
AcDbLine
 10
4391.217220847063
 20
1723.44631887274
 11
4377.617220847174
 21
1723.44631887274
  0
LINE
  5
126
100
AcDbEntity
  8
FORMAT
  6
DOT_CENTER
 62
           3
100
AcDbLine
 10
4391.217220847063
 20
1473.44631887275
 11
4377.617220847174
 21
1473.44631887275
  0
LINE
  5
125
100
AcDbEntity
  8
FORMAT
  6
CONTINUOUS
 62
           3
100
AcDbLine
 10
4480.117220847184
 20
1491.04316397563
 11
4469.617220847194
 21
1491.04316397563
  0
LINE
  5
124
100
AcDbEntity
  8
FORMAT
  6
CONTINUOUS
 62
           3
100
AcDbLine
 10
4469.617220847194
 20
1491.04316397563
 11
4462.617220847003
 21
1491.04316397563
  0
LINE
  5
123
100
AcDbEntity
  8
FORMAT
  6
DOT_CENTER
 62
           3
100
AcDbLine
 10
4466.117220847104
 20
1348.205716125
 11
4466.117220847104
 21
1823.84070964131
  0
LINE
  5
122
100
AcDbEntity
  8
FORMAT
  6
CONTINUOUS
 62
           3
100
AcDbLine
 10
4462.617220847003
 20
1491.04316397563
 11
4452.117220847013
 21
1491.04316397563
  0
LINE
  5
121
100
AcDbEntity
  8
0
  6
CONTINUOUS
 62
           3
100
AcDbLine
 10
4466.117220847104
 20
1491.57805926413
 11
4467.172494074604
 21
1491.562711067931
  0
LINE
  5
120
100
AcDbEntity
  8
0
  6
CONTINUOUS
 62
           3
100
AcDbLine
 10
4467.172494074604
 20
1491.562711067931
 11
4468.113412065492
 21
1491.51833540993
  0
LINE
  5
11F
100
AcDbEntity
  8
0
  6
CONTINUOUS
 62
           3
100
AcDbLine
 10
4468.113412065492
 20
1491.51833540993
 11
4468.838011995193
 21
1491.44973046373
  0
LINE
  5
11E
100
AcDbEntity
  8
0
  6
CONTINUOUS
 62
           3
100
AcDbLine
 10
4468.838011995193
 20
1491.44973046373
 11
4469.267771728391
 21
1491.36433935953
  0
LINE
  5
11D
100
AcDbEntity
  8
0
  6
CONTINUOUS
 62
           3
100
AcDbLine
 10
4469.267771728391
 20
1491.36433935953
 11
4469.356120480394
 21
1491.27140826773
  0
LINE
  5
11C
100
AcDbEntity
  8
0
  6
CONTINUOUS
 62
           3
100
AcDbLine
 10
4469.356120480394
 20
1491.27140826773
 11
4469.117220873192
 21
1491.185860701529
  0
LINE
  5
11B
100
AcDbEntity
  8
0
  6
CONTINUOUS
 62
           3
100
AcDbLine
 10
4463.117220821006
 20
1491.185860701529
 11
4462.878321213801
 21
1491.27140826773
  0
LINE
  5
11A
100
AcDbEntity
  8
0
  6
CONTINUOUS
 62
           3
100
AcDbLine
 10
4462.878321213801
 20
1491.27140826773
 11
4462.966669965806
 21
1491.36433935953
  0
LINE
  5
119
100
AcDbEntity
  8
0
  6
CONTINUOUS
 62
           3
100
AcDbLine
 10
4462.966669965806
 20
1491.36433935953
 11
4463.396429699003
 21
1491.44973046373
  0
LINE
  5
118
100
AcDbEntity
  8
0
  6
CONTINUOUS
 62
           3
100
AcDbLine
 10
4463.396429699003
 20
1491.44973046373
 11
4464.121029628705
 21
1491.51833540993
  0
LINE
  5
117
100
AcDbEntity
  8
0
  6
CONTINUOUS
 62
           3
100
AcDbLine
 10
4464.121029628705
 20
1491.51833540993
 11
4465.061947619603
 21
1491.562711067931
  0
LINE
  5
116
100
AcDbEntity
  8
0
  6
CONTINUOUS
 62
           3
100
AcDbLine
 10
4465.061947619603
 20
1491.562711067931
 11
4466.117220847104
 21
1491.57805926413
  0
LINE
  5
115
100
AcDbEntity
  8
1
  6
CONTINUOUS
 62
           3
100
AcDbLine
 10
4970.380791816469
 20
2017.574483877679
 11
4965.471554544061
 21
2017.574483877679
  0
LINE
  5
114
100
AcDbEntity
  8
1
  6
DOT_CENTER
 62
           3
100
AcDbLine
 10
4970.380791816469
 20
2037.089874677609
 11
4970.380791816469
 21
2005.954327127871
  0
LINE
  5
113
100
AcDbEntity
  8
1
  6
CONTINUOUS
 62
           3
100
AcDbLine
 10
4965.471554544061
 20
2029.318153867809
 11
4970.380791816469
 21
2029.318153867809
  0
LINE
  5
112
100
AcDbEntity
  8
1
  6
CONTINUOUS
 62
           3
100
AcDbLine
 10
4965.471554544061
 20
2031.140065452781
 11
4959.606438997371
 21
2031.140065452781
  0
LINE
  5
111
100
AcDbEntity
  8
1
  6
CONTINUOUS
 62
           3
100
AcDbLine
 10
4965.471554544061
 20
2015.7525722927
 11
4959.606438997371
 21
2015.7525722927
  0
LINE
  5
110
100
AcDbEntity
  8
1
  6
CONTINUOUS
 62
           3
100
AcDbLine
 10
4965.471554544061
 20
2015.7525722927
 11
4965.471554544061
 21
2031.140065452781
  0
LINE
  5
10F
100
AcDbEntity
  8
1
  6
CONTINUOUS
 62
           3
100
AcDbLine
 10
4959.606438997371
 20
2015.7525722927
 11
4959.606438997371
 21
2031.140065452781
  0
LINE
  5
10E
100
AcDbEntity
  8
1
  6
CONTINUOUS
 62
           3
100
AcDbLine
 10
4959.606438997371
 20
2031.140065452781
 11
4959.606438997371
 21
2031.69631887274
  0
LINE
  5
10D
100
AcDbEntity
  8
1
  6
CONTINUOUS
 62
           3
100
AcDbLine
 10
4949.931828032071
 20
2023.44631887274
 11
4949.931828032071
 21
2031.69631887274
  0
LINE
  5
10C
100
AcDbEntity
  8
1
  6
CONTINUOUS
 62
           3
100
AcDbLine
 10
4949.931828032071
 20
2031.69631887274
 11
4959.606438997371
 21
2031.69631887274
  0
LINE
  5
10B
100
AcDbEntity
  8
1
  6
CONTINUOUS
 62
           3
100
AcDbLine
 10
4949.08602250989
 20
2029.44631887274
 11
4949.931828032071
 21
2029.44631887274
  0
LINE
  5
10A
100
AcDbEntity
  8
1
  6
CONTINUOUS
 62
           3
100
AcDbLine
 10
4949.08602250989
 20
2023.44631887274
 11
4949.08602250989
 21
2031.140065452781
  0
LINE
  5
109
100
AcDbEntity
  8
1
  6
CONTINUOUS
 62
           3
100
AcDbLine
 10
4948.380791816469
 20
2031.140065452781
 11
4949.08602250989
 21
2031.140065452781
  0
LINE
  5
108
100
AcDbEntity
  8
1
  6
CONTINUOUS
 62
           3
100
AcDbLine
 10
4947.880791816469
 20
2030.640065452781
 11
4947.880791816469
 21
2023.44631887274
  0
LINE
  5
107
100
AcDbEntity
  8
1
  6
CONTINUOUS
 62
           3
100
AcDbLine
 10
4947.880791816469
 20
2023.44631887274
 11
4947.880791816469
 21
2016.2525722927
  0
LINE
  5
106
100
AcDbEntity
  8
1
  6
CONTINUOUS
 62
           3
100
AcDbLine
 10
4949.08602250989
 20
2015.7525722927
 11
4948.380791816469
 21
2015.7525722927
  0
LINE
  5
105
100
AcDbEntity
  8
1
  6
CONTINUOUS
 62
           3
100
AcDbLine
 10
4949.08602250989
 20
2015.7525722927
 11
4949.08602250989
 21
2023.44631887274
  0
LINE
  5
104
100
AcDbEntity
  8
1
  6
CONTINUOUS
 62
           3
100
AcDbLine
 10
4949.931828032071
 20
2017.44631887274
 11
4949.08602250989
 21
2017.44631887274
  0
LINE
  5
103
100
AcDbEntity
  8
1
  6
CONTINUOUS
 62
           3
100
AcDbLine
 10
4949.931828032071
 20
2015.19631887274
 11
4949.931828032071
 21
2023.44631887274
  0
LINE
  5
102
100
AcDbEntity
  8
1
  6
CONTINUOUS
 62
           3
100
AcDbLine
 10
4959.606438997371
 20
2015.19631887274
 11
4949.931828032071
 21
2015.19631887274
  0
LINE
  5
101
100
AcDbEntity
  8
1
  6
CONTINUOUS
 62
           3
100
AcDbLine
 10
4959.606438997371
 20
2015.19631887274
 11
4959.606438997371
 21
2015.7525722927
  0
LINE
  5
100
100
AcDbEntity
  8
1
  6
DOT_CENTER
 62
           3
100
AcDbLine
 10
4946.43574368405
 20
2023.44631887274
 11
4987.884919387869
 21
2023.44631887274
  0
LINE
  5
FF
100
AcDbEntity
  8
1
  6
CONTINUOUS
 62
           3
100
AcDbLine
 10
4964.706751793658
 20
2015.7525722927
 11
4970.380791816469
 21
2012.47666375814
  0
LINE
  5
FE
100
AcDbEntity
  8
1
  6
CONTINUOUS
 62
           3
100
AcDbLine
 10
4970.380791816469
 20
2012.47666375814
 11
4979.880791816469
 21
2017.96149131544
  0
LINE
  5
FD
100
AcDbEntity
  8
1
  6
CONTINUOUS
 62
           3
100
AcDbLine
 10
4979.880791816469
 20
2017.96149131544
 11
4979.880791816469
 21
2028.931146430041
  0
LINE
  5
FC
100
AcDbEntity
  8
1
  6
CONTINUOUS
 62
           3
100
AcDbLine
 10
4979.880791816469
 20
2028.931146430041
 11
4970.380791816469
 21
2034.415973987339
  0
LINE
  5
FB
100
AcDbEntity
  8
1
  6
CONTINUOUS
 62
           3
100
AcDbLine
 10
4970.380791816469
 20
2034.415973987339
 11
4964.70675179365
 21
2031.140065452781
  0
LINE
  5
FA
100
AcDbEntity
  8
1
  6
CONTINUOUS
 62
           4
100
AcDbLine
 10
4570.217224125429
 20
1899.277451207319
 11
4570.217224125428
 21
618.44631887274
  0
LINE
  5
F9
100
AcDbEntity
  8
1
  6
CONTINUOUS
 62
           7
100
AcDbLine
 10
4550.217224125429
 20
1882.60354570358
 11
4550.217224125428
 21
2098.44631887274
  0
LINE
  5
F8
100
AcDbEntity
  8
1
  6
CONTINUOUS
 62
           4
100
AcDbLine
 10
4530.217224125429
 20
1836.42858214184
 11
4530.217224125428
 21
2078.44631887274
  0
LINE
  5
F7
100
AcDbEntity
  8
1
  6
CONTINUOUS
 62
           4
100
AcDbLine
 10
4570.217224125428
 20
2078.44631887274
 11
4570.217224125429
 21
1912.910988089079
  0
LINE
  5
F6
100
AcDbEntity
  8
1
  6
CONTINUOUS
 62
           4
100
AcDbLine
 10
4530.217224125428
 20
618.44631887274
 11
4530.217224125429
 21
1809.8712295432
  0
LINE
  5
F5
100
AcDbEntity
  8
1
  6
CONTINUOUS
 62
           7
100
AcDbLine
 10
4550.217224125429
 20
598.44631887274
 11
4550.217224125429
 21
1865.739592400911
  0
LINE
  5
F4
100
AcDbEntity
  8
1
  6
CONTINUOUS
 62
           7
100
AcDbLine
 10
250.0
 20
2098.44631887274
 11
250.0
 21
1862.190888858781
  0
LINE
  5
F3
100
AcDbEntity
  8
1
  6
CONTINUOUS
 62
           7
100
AcDbLine
 10
1750.000000000001
 20
1862.190888858781
 11
-1750.0
 21
1862.190888858781
  0
LINE
  5
F2
100
AcDbEntity
  8
1
  6
CONTINUOUS
 62
           7
100
AcDbLine
 10
-1569.497691536608
 20
1084.95984567111
 11
-424.999999999999
 21
1084.95984567111
  0
LINE
  5
F1
100
AcDbEntity
  8
___S__
  6
DOT_CENTER
 62
           3
100
AcDbLine
 10
-1574.999999999999
 20
1165.509585469201
 11
-1575.0
 21
1080.51387523807
  0
LINE
  5
F0
100
AcDbEntity
  8
____
  6
CONTINUOUS
 62
           3
100
AcDbLine
 10
-1569.595947044879
 20
1158.90582368892
 11
-1569.595947044879
 21
1157.0278929408
  0
LINE
  5
EF
100
AcDbEntity
  8
____
  6
CONTINUOUS
 62
           3
100
AcDbLine
 10
-1579.912775413743
 20
1159.375306375951
 11
-1570.087224586254
 21
1159.375306375951
  0
LINE
  5
EE
100
AcDbEntity
  8
____
  6
CONTINUOUS
 62
           3
100
AcDbLine
 10
-1580.404052955117
 20
1157.0278929408
 11
-1580.404052955117
 21
1158.90582368892
  0
LINE
  5
ED
100
AcDbEntity
  8
____
  6
CONTINUOUS
 62
           3
100
AcDbLine
 10
-1569.497691536607
 20
1121.34720872646
 11
-1580.502308463384
 21
1121.34720872646
  0
LINE
  5
EC
100
AcDbEntity
  8
____
  6
CONTINUOUS
 62
           3
100
AcDbLine
 10
-1569.497691536606
 20
1157.0278929408
 11
-1569.497691536607
 21
1121.34720872646
  0
LINE
  5
EB
100
AcDbEntity
  8
____
  6
CONTINUOUS
 62
           3
100
AcDbLine
 10
-1580.502308463383
 20
1157.0278929408
 11
-1569.497691536606
 21
1157.0278929408
  0
LINE
  5
EA
100
AcDbEntity
  8
____
  6
CONTINUOUS
 62
           3
100
AcDbLine
 10
-1580.502308463384
 20
1121.34720872646
 11
-1580.502308463383
 21
1157.0278929408
  0
LINE
  5
E9
100
AcDbEntity
  8
____
  6
CONTINUOUS
 62
           3
100
AcDbLine
 10
-1580.404052955119
 20
1082.849628389949
 11
-1580.404052955119
 21
1084.727559138069
  0
LINE
  5
E8
100
AcDbEntity
  8
____
  6
CONTINUOUS
 62
           3
100
AcDbLine
 10
-1570.087224586256
 20
1082.38014570292
 11
-1579.912775413745
 21
1082.38014570292
  0
LINE
  5
E7
100
AcDbEntity
  8
____
  6
CONTINUOUS
 62
           3
100
AcDbLine
 10
-1569.595947044881
 20
1084.727559138069
 11
-1569.595947044881
 21
1082.849628389949
  0
LINE
  5
E6
100
AcDbEntity
  8
____
  6
CONTINUOUS
 62
           3
100
AcDbLine
 10
-1580.158414184431
 20
1121.34720872646
 11
-1580.158414184431
 21
1120.4082433524
  0
LINE
  5
E5
100
AcDbEntity
  8
____
  6
CONTINUOUS
 62
           3
100
AcDbLine
 10
-1569.841585815567
 20
1121.34720872646
 11
-1580.158414184431
 21
1121.34720872646
  0
LINE
  5
E4
100
AcDbEntity
  8
____
  6
CONTINUOUS
 62
           3
100
AcDbLine
 10
-1569.841585815567
 20
1120.4082433524
 11
-1569.841585815567
 21
1121.34720872646
  0
LINE
  5
E3
100
AcDbEntity
  8
____
  6
CONTINUOUS
 62
           3
100
AcDbLine
 10
-1580.404052955117
 20
1158.90582368892
 11
-1569.595947044879
 21
1158.90582368892
  0
LINE
  5
E2
100
AcDbEntity
  8
____
  6
CONTINUOUS
 62
           3
100
AcDbLine
 10
-1580.502308463384
 20
1120.4082433524
 11
-1569.497691536607
 21
1120.4082433524
  0
LINE
  5
E1
100
AcDbEntity
  8
____
  6
CONTINUOUS
 62
           3
100
AcDbLine
 10
-1580.502308463384
 20
1084.727559138069
 11
-1580.502308463384
 21
1120.4082433524
  0
LINE
  5
E0
100
AcDbEntity
  8
____
  6
CONTINUOUS
 62
           3
100
AcDbLine
 10
-1569.497691536608
 20
1084.727559138069
 11
-1580.502308463384
 21
1084.727559138069
  0
LINE
  5
DF
100
AcDbEntity
  8
____
  6
CONTINUOUS
 62
           3
100
AcDbLine
 10
-1569.497691536607
 20
1120.4082433524
 11
-1569.497691536608
 21
1084.727559138069
  0
LINE
  5
DE
100
AcDbEntity
  8
____
  6
CONTINUOUS
 62
           3
100
AcDbLine
 10
-1580.404052955117
 20
1158.90582368892
 11
-1579.912775413743
 21
1159.375306375951
  0
LINE
  5
DD
100
AcDbEntity
  8
____
  6
CONTINUOUS
 62
           3
100
AcDbLine
 10
-1570.087224586254
 20
1159.375306375951
 11
-1569.595947044879
 21
1158.90582368892
  0
LINE
  5
DC
100
AcDbEntity
  8
____
  6
CONTINUOUS
 62
           3
100
AcDbLine
 10
-1579.912775413745
 20
1082.38014570292
 11
-1580.404052955119
 21
1082.849628389949
  0
LINE
  5
DB
100
AcDbEntity
  8
____
  6
CONTINUOUS
 62
           3
100
AcDbLine
 10
-1569.595947044881
 20
1082.849628389949
 11
-1570.087224586256
 21
1082.38014570292
  0
LINE
  5
DA
100
AcDbEntity
  8
____
  6
CONTINUOUS
 62
           3
100
AcDbLine
 10
-1580.404052955119
 20
1082.849628389949
 11
-1569.595947044881
 21
1082.849628389949
  0
LINE
  5
D9
100
AcDbEntity
  8
____
  6
CONTINUOUS
 62
           3
100
AcDbLine
 10
-1580.404052955095
 20
1636.839199079999
 11
-1569.595947044857
 21
1636.839199079999
  0
LINE
  5
D8
100
AcDbEntity
  8
____
  6
CONTINUOUS
 62
           3
100
AcDbLine
 10
-1569.595947044857
 20
1636.839199079999
 11
-1570.087224586231
 21
1636.36971639297
  0
LINE
  5
D7
100
AcDbEntity
  8
____
  6
CONTINUOUS
 62
           3
100
AcDbLine
 10
-1579.91277541372
 20
1636.36971639297
 11
-1580.404052955095
 21
1636.839199079999
  0
LINE
  5
D6
100
AcDbEntity
  8
____
  6
CONTINUOUS
 62
           3
100
AcDbLine
 10
-1570.087224586231
 20
1713.364877066
 11
-1569.595947044856
 21
1712.895394378969
  0
LINE
  5
D5
100
AcDbEntity
  8
____
  6
CONTINUOUS
 62
           3
100
AcDbLine
 10
-1580.404052955093
 20
1712.895394378969
 11
-1579.912775413719
 21
1713.364877066
  0
LINE
  5
D4
100
AcDbEntity
  8
____
  6
CONTINUOUS
 62
           3
100
AcDbLine
 10
-1569.497691536591
 20
1674.397814042461
 11
-1569.497691536591
 21
1638.717129828119
  0
LINE
  5
D3
100
AcDbEntity
  8
____
  6
CONTINUOUS
 62
           3
100
AcDbLine
 10
-1569.497691536591
 20
1638.717129828119
 11
-1580.502308463368
 21
1638.717129828119
  0
LINE
  5
D2
100
AcDbEntity
  8
____
  6
CONTINUOUS
 62
           3
100
AcDbLine
 10
-1580.502308463368
 20
1638.717129828119
 11
-1580.502308463368
 21
1674.397814042461
  0
LINE
  5
D1
100
AcDbEntity
  8
____
  6
CONTINUOUS
 62
           3
100
AcDbLine
 10
-1580.502308463368
 20
1674.397814042461
 11
-1569.497691536591
 21
1674.397814042461
  0
LINE
  5
D0
100
AcDbEntity
  8
____
  6
CONTINUOUS
 62
           3
100
AcDbLine
 10
-1580.404052955093
 20
1712.895394378969
 11
-1569.595947044856
 21
1712.895394378969
  0
LINE
  5
CF
100
AcDbEntity
  8
____
  6
CONTINUOUS
 62
           3
100
AcDbLine
 10
-1569.841585815544
 20
1674.397814042461
 11
-1569.841585815544
 21
1675.336779416521
  0
LINE
  5
CE
100
AcDbEntity
  8
____
  6
CONTINUOUS
 62
           3
100
AcDbLine
 10
-1569.841585815544
 20
1675.336779416521
 11
-1580.158414184407
 21
1675.336779416521
  0
LINE
  5
CD
100
AcDbEntity
  8
____
  6
CONTINUOUS
 62
           3
100
AcDbLine
 10
-1580.158414184407
 20
1675.336779416521
 11
-1580.158414184407
 21
1674.397814042461
  0
LINE
  5
CC
100
AcDbEntity
  8
____
  6
CONTINUOUS
 62
           3
100
AcDbLine
 10
-1569.595947044857
 20
1638.717129828119
 11
-1569.595947044857
 21
1636.839199079999
  0
LINE
  5
CB
100
AcDbEntity
  8
____
  6
CONTINUOUS
 62
           3
100
AcDbLine
 10
-1570.087224586231
 20
1636.36971639297
 11
-1579.91277541372
 21
1636.36971639297
  0
LINE
  5
CA
100
AcDbEntity
  8
____
  6
CONTINUOUS
 62
           3
100
AcDbLine
 10
-1580.404052955095
 20
1636.839199079999
 11
-1580.404052955095
 21
1638.717129828119
  0
LINE
  5
C9
100
AcDbEntity
  8
____
  6
CONTINUOUS
 62
           3
100
AcDbLine
 10
-1580.502308463368
 20
1675.336779416521
 11
-1580.502308463367
 21
1711.017463630849
  0
LINE
  5
C8
100
AcDbEntity
  8
____
  6
CONTINUOUS
 62
           3
100
AcDbLine
 10
-1580.502308463367
 20
1711.017463630849
 11
-1569.49769153659
 21
1711.017463630849
  0
LINE
  5
C7
100
AcDbEntity
  8
____
  6
CONTINUOUS
 62
           3
100
AcDbLine
 10
-1569.49769153659
 20
1711.017463630849
 11
-1569.497691536591
 21
1675.336779416521
  0
LINE
  5
C6
100
AcDbEntity
  8
____
  6
CONTINUOUS
 62
           3
100
AcDbLine
 10
-1569.497691536591
 20
1675.336779416521
 11
-1580.502308463368
 21
1675.336779416521
  0
LINE
  5
C5
100
AcDbEntity
  8
____
  6
CONTINUOUS
 62
           3
100
AcDbLine
 10
-1580.404052955093
 20
1711.017463630849
 11
-1580.404052955093
 21
1712.895394378969
  0
LINE
  5
C4
100
AcDbEntity
  8
____
  6
CONTINUOUS
 62
           3
100
AcDbLine
 10
-1579.912775413719
 20
1713.364877066
 11
-1570.087224586231
 21
1713.364877066
  0
LINE
  5
C3
100
AcDbEntity
  8
____
  6
CONTINUOUS
 62
           3
100
AcDbLine
 10
-1569.595947044856
 20
1712.895394378969
 11
-1569.595947044856
 21
1711.017463630849
  0
LINE
  5
C2
100
AcDbEntity
  8
___S__
  6
DOT_CENTER
 62
           3
100
AcDbLine
 10
-1574.999999999975
 20
1719.49915615924
 11
-1574.999999999975
 21
1634.503445928131
  0
LINE
  5
C1
100
AcDbEntity
  8
1
  6
CONTINUOUS
 62
           7
100
AcDbLine
 10
-1574.999999999999
 20
1039.95984567111
 11
-424.999999999999
 21
1039.95984567111
  0
LINE
  5
C0
100
AcDbEntity
  8
1
  6
CONTINUOUS
 62
           7
100
AcDbLine
 10
-424.999999999999
 20
1039.95984567111
 11
-424.999999999999
 21
1744.72931126054
  0
LINE
  5
BF
100
AcDbEntity
  8
1
  6
CONTINUOUS
 62
           7
100
AcDbLine
 10
-1574.999999999999
 20
1039.95984567111
 11
-1574.999999999999
 21
1744.72931126054
  0
LINE
  5
BE
100
AcDbEntity
  8
1
  6
CONTINUOUS
 62
           7
100
AcDbLine
 10
-424.999999999999
 20
1744.72931126054
 11
-1574.999999999999
 21
1744.72931126054
  0
LINE
  5
BD
100
AcDbEntity
  8
1
  6
CONTINUOUS
 62
           3
100
AcDbLine
 10
-485.604203678125
 20
1392.7744281998
 11
-487.992149678106
 21
1365.517304199801
  0
LINE
  5
BC
100
AcDbEntity
  8
1
  6
CONTINUOUS
 62
           3
100
AcDbLine
 10
-487.992149678106
 20
1421.777030199801
 11
-485.604203678125
 21
1394.519906199799
  0
LINE
  5
BB
100
AcDbEntity
  8
1
  6
CONTINUOUS
 62
           3
100
AcDbLine
 10
-497.451285678125
 20
1392.7744281998
 11
-495.063339678115
 21
1365.517304199801
  0
LINE
  5
BA
100
AcDbEntity
  8
1
  6
CONTINUOUS
 62
           3
100
AcDbLine
 10
-495.063339678115
 20
1421.777030199801
 11
-497.451285678125
 21
1394.519906199799
  0
LINE
  5
B9
100
AcDbEntity
  8
1
  6
DOT_CENTER
 62
           3
100
AcDbLine
 10
-446.527744678121
 20
1393.64716719979
 11
-536.525199678126
 21
1393.64716719979
  0
LINE
  5
B8
100
AcDbEntity
  8
1
  6
DOT_CENTER
 62
           3
100
AcDbLine
 10
-491.527744678121
 20
1438.64716719979
 11
-491.527744678121
 21
1348.64859619979
  0
LINE
  5
B7
100
AcDbEntity
  8
1
  6
CONTINUOUS
 62
           7
100
AcDbLine
 10
4100.217224125429
 20
1738.44631887274
 11
4280.217224125429
 21
1738.44631887274
  0
LINE
  5
B6
100
AcDbEntity
  8
1
  6
CONTINUOUS
 62
           7
100
AcDbLine
 10
4280.217224125429
 20
1738.44631887274
 11
4280.217224125429
 21
1851.44631887274
  0
LINE
  5
B5
100
AcDbEntity
  8
1
  6
CONTINUOUS
 62
           7
100
AcDbLine
 10
4280.217224125429
 20
1851.44631887274
 11
4100.217224125429
 21
1851.44631887274
  0
LINE
  5
B4
100
AcDbEntity
  8
1
  6
CONTINUOUS
 62
           7
100
AcDbLine
 10
4100.217224125429
 20
1851.44631887274
 11
4100.217224125429
 21
1738.44631887274
  0
LINE
  5
B3
100
AcDbEntity
  8
1
  6
CONTINUOUS
 62
           7
100
AcDbLine
 10
3935.217224125431
 20
1355.19631887274
 11
3935.217224125431
 21
1368.44631887274
  0
LINE
  5
B2
100
AcDbEntity
  8
1
  6
CONTINUOUS
 62
           7
100
AcDbLine
 10
3912.717224125431
 20
1398.44631887274
 11
3912.717224125431
 21
1368.44631887274
  0
LINE
  5
B1
100
AcDbEntity
  8
1
  6
CONTINUOUS
 62
           7
100
AcDbLine
 10
3937.717224125431
 20
1398.44631887274
 11
3937.717224125431
 21
1368.44631887274
  0
LINE
  5
B0
100
AcDbEntity
  8
1
  6
CONTINUOUS
 62
           7
100
AcDbLine
 10
3912.717224125431
 20
1368.44631887274
 11
3937.717224125431
 21
1368.44631887274
  0
LINE
  5
AF
100
AcDbEntity
  8
1
  6
CONTINUOUS
 62
           7
100
AcDbLine
 10
3915.217224125431
 20
1368.44631887274
 11
3915.217224125431
 21
1355.19631887274
  0
LINE
  5
AE
100
AcDbEntity
  8
1
  6
CONTINUOUS
 62
           7
100
AcDbLine
 10
3952.217224125431
 20
1338.19631887274
 11
4030.217224125428
 21
1338.19631887274
  0
LINE
  5
AD
100
AcDbEntity
  8
1
  6
CONTINUOUS
 62
           7
100
AcDbLine
 10
3952.217224125431
 20
1318.19631887274
 11
4030.217224125428
 21
1318.19631887274
  0
LINE
  5
AC
100
AcDbEntity
  8
1
  6
DOT_CENTER
 62
           2
100
AcDbLine
 10
0.0
 20
6231.187286216631
 11
0.0
 21
4014.945011721453
  0
LINE
  5
AB
100
AcDbEntity
  8
1
  6
CONTINUOUS
 62
           7
100
AcDbLine
 10
4050.217224125429
 20
2598.446318872742
 11
3550.217224125431
 21
2598.446318872742
  0
LINE
  5
AA
100
AcDbEntity
  8
1
  6
CONTINUOUS
 62
           7
100
AcDbLine
 10
4550.217224125428
 20
2148.44631887274
 11
5550.217224125428
 21
2148.44631887274
  0
LINE
  5
A9
100
AcDbEntity
  8
1
  6
CONTINUOUS
 62
           7
100
AcDbLine
 10
4050.217224125428
 20
2648.446318872742
 11
4550.217224125428
 21
2148.44631887274
  0
LINE
  5
A8
100
AcDbEntity
  8
1
  6
CONTINUOUS
 62
           7
100
AcDbLine
 10
1750.000000000001
 20
2098.44631887274
 11
-1749.999999999999
 21
2098.44631887274
  0
LINE
  5
A7
100
AcDbEntity
  8
1
  6
CONTINUOUS
 62
           7
100
AcDbLine
 10
250.000000000001
 20
4598.446318872742
 11
250.0
 21
5049.280376844305
  0
LINE
  5
A6
100
AcDbEntity
  8
1
  6
CONTINUOUS
 62
           4
100
AcDbLine
 10
-1789.999999999999
 20
4598.446318872742
 11
-1789.999999999999
 21
4148.446318872742
  0
LINE
  5
A5
100
AcDbEntity
  8
1
  6
CONTINUOUS
 62
           4
100
AcDbLine
 10
-1752.999999999999
 20
4598.446318872742
 11
-1752.999999999999
 21
4148.446318872742
  0
LINE
  5
A4
100
AcDbEntity
  8
1
  6
CONTINUOUS
 62
           4
100
AcDbLine
 10
1790.000000000001
 20
4598.446318872742
 11
1790.000000000001
 21
4148.446318872742
  0
LINE
  5
A3
100
AcDbEntity
  8
1
  6
CONTINUOUS
 62
           4
100
AcDbLine
 10
1753.000000000001
 20
4598.446318872742
 11
1753.000000000001
 21
4148.446318872742
  0
LINE
  5
A2
100
AcDbEntity
  8
1
  6
CONTINUOUS
 62
           7
100
AcDbLine
 10
-1799.999999999999
 20
4598.446318872742
 11
1800.000000000001
 21
4598.446318872742
  0
LINE
  5
A1
100
AcDbEntity
  8
1
  6
DOT_CENTER
 62
           2
100
AcDbLine
 10
-796.991334790904
 20
5598.446318872742
 11
588.572001138102
 21
5598.446318872742
  0
LINE
  5
A0
100
AcDbEntity
  8
1
  6
CONTINUOUS
 62
           7
100
AcDbLine
 10
1800.000000000001
 20
2748.446318872742
 11
-1799.999999999998
 21
2748.446318872742
  0
LINE
  5
9F
100
AcDbEntity
  8
1
  6
CONTINUOUS
 62
           4
100
AcDbLine
 10
-737.999999999999
 20
6078.446318872742
 11
-1479.999999999999
 21
6078.446318872742
  0
LINE
  5
9E
100
AcDbEntity
  8
1
  6
CONTINUOUS
 62
           7
100
AcDbLine
 10
-729.0
 20
6098.446318872742
 11
-1800.0
 21
6098.446318872742
  0
LINE
  5
9D
100
AcDbEntity
  8
1
  6
CONTINUOUS
 62
           7
100
AcDbLine
 10
322.928563989646
 20
5098.446318872742
 11
1800.000000000001
 21
5098.446318872742
  0
LINE
  5
9C
100
AcDbEntity
  8
1
  6
CONTINUOUS
 62
           7
100
AcDbLine
 10
-250.0
 20
4598.446318872742
 11
-250.0
 21
4148.446318872742
  0
LINE
  5
9B
100
AcDbEntity
  8
1
  6
CONTINUOUS
 62
           4
100
AcDbLine
 10
-270.0
 20
4578.446318872742
 11
-1729.999999999999
 21
4578.446318872742
  0
LINE
  5
9A
100
AcDbEntity
  8
1
  6
CONTINUOUS
 62
           4
100
AcDbLine
 10
-230.0
 20
4578.446318872742
 11
-230.0
 21
4148.446318872742
  0
LINE
  5
99
100
AcDbEntity
  8
1
  6
CONTINUOUS
 62
           4
100
AcDbLine
 10
520.0
 20
5424.043253783633
 11
520.0
 21
5118.446318872742
  0
LINE
  5
98
100
AcDbEntity
  8
1
  6
CONTINUOUS
 62
           7
100
AcDbLine
 10
500.000000000001
 20
5707.611047544435
 11
500.0
 21
6098.446318872742
  0
LINE
  5
97
100
AcDbEntity
  8
1
  6
CONTINUOUS
 62
           7
100
AcDbLine
 10
-500.0
 20
5098.446318872742
 11
-500.0
 21
5126.31742884602
  0
LINE
  5
96
100
AcDbEntity
  8
1
  6
CONTINUOUS
 62
           4
100
AcDbLine
 10
-520.0
 20
5118.446318872742
 11
-520.0
 21
5143.879842046822
  0
LINE
  5
95
100
AcDbEntity
  8
1
  6
CONTINUOUS
 62
           4
100
AcDbLine
 10
520.0
 20
6078.446318872742
 11
520.0
 21
5632.84938396185
  0
LINE
  5
94
100
AcDbEntity
  8
1
  6
CONTINUOUS
 62
           7
100
AcDbLine
 10
-265.0
 20
598.44631887274
 11
-235.0
 21
598.44631887274
  0
LINE
  5
93
100
AcDbEntity
  8
1
  6
CONTINUOUS
 62
           7
100
AcDbLine
 10
-265.0
 20
638.44631887274
 11
-1734.999999999999
 21
638.44631887274
  0
LINE
  5
92
100
AcDbEntity
  8
1
  6
CONTINUOUS
 62
           7
100
AcDbLine
 10
-265.0
 20
573.44631887274
 11
-265.0
 21
638.44631887274
  0
LINE
  5
91
100
AcDbEntity
  8
1
  6
CONTINUOUS
 62
           7
100
AcDbLine
 10
-1734.999999999999
 20
573.44631887274
 11
-1734.999999999999
 21
638.44631887274
  0
LINE
  5
90
100
AcDbEntity
  8
1
  6
CONTINUOUS
 62
           7
100
AcDbLine
 10
-1749.999999999999
 20
573.44631887274
 11
1750.000000000001
 21
573.44631887274
  0
LINE
  5
8F
100
AcDbEntity
  8
1
  6
CONTINUOUS
 62
           4
100
AcDbLine
 10
5530.217224125428
 20
2078.44631887274
 11
4570.217224125428
 21
2078.44631887274
  0
LINE
  5
8E
100
AcDbEntity
  8
1
  6
CONTINUOUS
 62
           4
100
AcDbLine
 10
5530.217224125428
 20
618.44631887274
 11
5530.217224125428
 21
2078.44631887274
  0
LINE
  5
8D
100
AcDbEntity
  8
1
  6
CONTINUOUS
 62
           4
100
AcDbLine
 10
4570.217224125428
 20
618.44631887274
 11
5530.217224125428
 21
618.44631887274
  0
LINE
  5
8C
100
AcDbEntity
  8
1
  6
CONTINUOUS
 62
           4
100
AcDbLine
 10
4070.217224125429
 20
618.44631887274
 11
4530.217224125428
 21
618.44631887274
  0
LINE
  5
8B
100
AcDbEntity
  8
1
  6
CONTINUOUS
 62
           4
100
AcDbLine
 10
4070.217224125429
 20
2078.44631887274
 11
4070.217224125429
 21
618.44631887274
  0
LINE
  5
8A
100
AcDbEntity
  8
1
  6
CONTINUOUS
 62
           4
100
AcDbLine
 10
4530.217224125428
 20
2078.44631887274
 11
4070.217224125429
 21
2078.44631887274
  0
LINE
  5
89
100
AcDbEntity
  8
1
  6
CONTINUOUS
 62
           4
100
AcDbLine
 10
5529.650549429991
 20
118.446318872741
 11
5529.650549429991
 21
577.83138040262
  0
LINE
  5
88
100
AcDbEntity
  8
1
  6
CONTINUOUS
 62
           4
100
AcDbLine
 10
4070.217224125429
 20
118.446318872741
 11
5529.650549429991
 21
118.446318872741
  0
LINE
  5
87
100
AcDbEntity
  8
1
  6
CONTINUOUS
 62
           4
100
AcDbLine
 10
4070.217224125429
 20
577.83138040262
 11
4070.217224125429
 21
118.446318872741
  0
LINE
  5
86
100
AcDbEntity
  8
1
  6
CONTINUOUS
 62
           4
100
AcDbLine
 10
5529.650549429991
 20
577.83138040262
 11
4070.217224125429
 21
577.83138040262
  0
LINE
  5
85
100
AcDbEntity
  8
1
  6
CONTINUOUS
 62
           7
100
AcDbLine
 10
4050.217224125429
 20
598.44631887274
 11
5550.217224125428
 21
598.44631887274
  0
LINE
  5
84
100
AcDbEntity
  8
1
  6
CONTINUOUS
 62
           7
100
AcDbLine
 10
4050.217224125431
 20
98.44631887274
 11
4050.217224125428
 21
2648.446318872742
  0
LINE
  5
83
100
AcDbEntity
  8
1
  6
CONTINUOUS
 62
           4
100
AcDbLine
 10
3570.217224125431
 20
2578.446318872744
 11
3570.217224125431
 21
118.446318872741
  0
LINE
  5
82
100
AcDbEntity
  8
1
  6
CONTINUOUS
 62
           4
100
AcDbLine
 10
4030.217224125429
 20
2578.446318872742
 11
3570.217224125431
 21
2578.446318872744
  0
LINE
  5
81
100
AcDbEntity
  8
1
  6
CONTINUOUS
 62
           4
100
AcDbLine
 10
4030.217224125429
 20
118.446318872741
 11
4030.217224125429
 21
2578.446318872742
  0
LINE
  5
80
100
AcDbEntity
  8
1
  6
CONTINUOUS
 62
           4
100
AcDbLine
 10
3570.217224125431
 20
118.446318872741
 11
4030.217224125429
 21
118.446318872741
  0
LINE
  5
7F
100
AcDbEntity
  8
1
  6
CONTINUOUS
 62
           7
100
AcDbLine
 10
-1799.999999999999
 20
4098.446318872742
 11
1800.000000000001
 21
4098.446318872742
  0
LINE
  5
7E
100
AcDbEntity
  8
1
  6
CONTINUOUS
 62
           7
100
AcDbLine
 10
-1800.0
 20
6098.446318872742
 11
-1799.999999999999
 21
4098.446318872742
  0
LINE
  5
7D
100
AcDbEntity
  8
1
  6
CONTINUOUS
 62
           4
100
AcDbLine
 10
-270.0
 20
4148.446318872742
 11
-270.0
 21
4578.446318872742
  0
LINE
  5
7C
100
AcDbEntity
  8
1
  6
CONTINUOUS
 62
           7
100
AcDbLine
 10
-1799.999999999999
 20
4148.446318872742
 11
1800.000000000001
 21
4148.446318872742
  0
LINE
  5
7B
100
AcDbEntity
  8
1
  6
CONTINUOUS
 62
           4
100
AcDbLine
 10
-1729.999999999999
 20
4578.446318872742
 11
-1729.999999999999
 21
4148.446318872742
  0
LINE
  5
7A
100
AcDbEntity
  8
1
  6
CONTINUOUS
 62
           7
100
AcDbLine
 10
-1749.999999999999
 20
4148.446318872742
 11
-1749.999999999999
 21
5098.446318872742
  0
LINE
  5
79
100
AcDbEntity
  8
1
  6
CONTINUOUS
 62
           7
100
AcDbLine
 10
1750.000000000001
 20
4148.446318872742
 11
1750.000000000001
 21
5098.446318872742
  0
LINE
  5
78
100
AcDbEntity
  8
1
  6
CONTINUOUS
 62
           4
100
AcDbLine
 10
-1479.999999999999
 20
5118.446318872742
 11
-520.0
 21
5118.446318872742
  0
LINE
  5
77
100
AcDbEntity
  8
1
  6
CONTINUOUS
 62
           4
100
AcDbLine
 10
-1479.999999999999
 20
5118.446318872742
 11
-1479.999999999999
 21
6078.446318872742
  0
LINE
  5
76
100
AcDbEntity
  8
1
  6
CONTINUOUS
 62
           7
100
AcDbLine
 10
1800.000000000001
 20
6098.446318872742
 11
0.0
 21
6098.446318872742
  0
LINE
  5
75
100
AcDbEntity
  8
1
  6
CONTINUOUS
 62
           7
100
AcDbLine
 10
1800.000000000001
 20
98.44631887274
 11
1800.000000000001
 21
2748.446318872742
  0
LINE
  5
74
100
AcDbEntity
  8
1
  6
CONTINUOUS
 62
           7
100
AcDbLine
 10
-1799.999999999998
 20
2748.446318872742
 11
-1800.0
 21
98.44631887274
  0
LINE
  5
73
100
AcDbEntity
  8
1
  6
CONTINUOUS
 62
           7
100
AcDbLine
 10
1800.000000000001
 20
2598.446318872742
 11
-1799.999999999998
 21
2598.446318872742
  0
LINE
  5
72
100
AcDbEntity
  8
1
  6
CONTINUOUS
 62
           7
100
AcDbLine
 10
3550.217224125431
 20
98.44631887274
 11
3550.217224125431
 21
2748.446318872742
  0
LINE
  5
71
100
AcDbEntity
  8
1
  6
CONTINUOUS
 62
           7
100
AcDbLine
 10
5550.217224125429
 20
98.44631887274
 11
5550.217224125428
 21
2298.44631887274
  0
LINE
  5
70
100
AcDbEntity
  8
1
  6
CONTINUOUS
 62
           7
100
AcDbLine
 10
5550.217224125428
 20
2098.44631887274
 11
4050.217224125429
 21
2098.44631887274
  0
LINE
  5
6F
100
AcDbEntity
  8
1
  6
CONTINUOUS
 62
           7
100
AcDbLine
 10
3550.217224125431
 20
2748.446318872742
 11
3600.217224125432
 21
2748.446318872742
  0
LINE
  5
6E
100
AcDbEntity
  8
1
  6
CONTINUOUS
 62
           7
100
AcDbLine
 10
3600.217224125431
 20
2728.446318872742
 11
3600.217224125432
 21
2748.446318872742
  0
LINE
  5
6D
100
AcDbEntity
  8
1
  6
CONTINUOUS
 62
           4
100
AcDbLine
 10
3550.217224125431
 20
2601.446318872742
 11
4050.217224125431
 21
2601.446318872744
  0
LINE
  5
6C
100
AcDbEntity
  8
1
  6
CONTINUOUS
 62
           7
100
AcDbLine
 10
3550.217224125431
 20
2648.446318872742
 11
4050.217224125428
 21
2648.446318872742
  0
LINE
  5
6B
100
AcDbEntity
  8
1
  6
CONTINUOUS
 62
           7
100
AcDbLine
 10
4550.217224125428
 20
2098.44631887274
 11
4550.217224125428
 21
2298.44631887274
  0
LINE
  5
6A
100
AcDbEntity
  8
1
  6
CONTINUOUS
 62
           7
100
AcDbLine
 10
4550.217224125428
 20
2298.44631887274
 11
5550.217224125428
 21
2298.44631887274
  0
LINE
  5
69
100
AcDbEntity
  8
1
  6
CONTINUOUS
 62
           7
100
AcDbLine
 10
-1749.999999999999
 20
98.44631887274
 11
-1749.999999999999
 21
2598.446318872742
  0
LINE
  5
68
100
AcDbEntity
  8
1
  6
CONTINUOUS
 62
           7
100
AcDbLine
 10
1750.000000000001
 20
98.44631887274
 11
1750.000000000001
 21
2598.446318872742
  0
LINE
  5
67
100
AcDbEntity
  8
1
  6
CONTINUOUS
 62
           7
100
AcDbLine
 10
1750.000000000001
 20
1998.44631887274
 11
-1749.999999999999
 21
1998.44631887274
  0
LINE
  5
66
100
AcDbEntity
  8
1
  6
CONTINUOUS
 62
           7
100
AcDbLine
 10
1750.000000000001
 20
148.446318872741
 11
-1749.999999999999
 21
148.446318872741
  0
LINE
  5
65
100
AcDbEntity
  8
1
  6
CONTINUOUS
 62
           7
100
AcDbLine
 10
-1749.999999999999
 20
498.446318872741
 11
1750.000000000001
 21
498.446318872741
  0
LINE
  5
64
100
AcDbEntity
  8
1
  6
CONTINUOUS
 62
           7
100
AcDbLine
 10
1735.000000000001
 20
638.44631887274
 11
1735.000000000001
 21
573.44631887274
  0
LINE
  5
63
100
AcDbEntity
  8
1
  6
CONTINUOUS
 62
           7
100
AcDbLine
 10
-235.0
 20
638.44631887274
 11
-235.0
 21
573.44631887274
  0
LINE
  5
62
100
AcDbEntity
  8
1
  6
CONTINUOUS
 62
           7
100
AcDbLine
 10
-1749.999999999999
 20
612.29964154037
 11
-1749.999999999999
 21
671.053404524249
  0
LINE
  5
61
100
AcDbEntity
  8
1
  6
CONTINUOUS
 62
           7
100
AcDbLine
 10
-1749.999999999999
 20
898.44631887274
 11
1750.000000000001
 21
898.44631887274
  0
LINE
  5
60
100
AcDbEntity
  8
1
  6
CONTINUOUS
 62
           7
100
AcDbLine
 10
1735.000000000001
 20
598.44631887274
 11
1750.000000000001
 21
598.44631887274
  0
LINE
  5
5F
100
AcDbEntity
  8
1
  6
CONTINUOUS
 62
           7
100
AcDbLine
 10
-1749.999999999999
 20
598.44631887274
 11
-1734.999999999999
 21
598.44631887274
  0
LINE
  5
5E
100
AcDbEntity
  8
1
  6
CONTINUOUS
 62
           7
100
AcDbLine
 10
1735.000000000001
 20
638.44631887274
 11
-235.0
 21
638.44631887274
  0
LINE
  5
5D
100
AcDbEntity
  8
1
  6
CONTINUOUS
 62
           7
100
AcDbLine
 10
-250.0
 20
1862.190888858781
 11
-250.0
 21
598.44631887274
  0
LINE
  5
5C
100
AcDbEntity
  8
1
  6
DOT_CENTER
 62
           2
100
AcDbLine
 10
0.0
 20
3359.639216848032
 11
0.0
 21
0.0
  0
LINE
  5
5B
100
AcDbEntity
  8
1
  6
DOT_CENTER
 62
           2
100
AcDbLine
 10
4775.217224125428
 20
698.44631887274
 11
4925.217224125428
 21
698.44631887274
  0
LINE
  5
5A
100
AcDbEntity
  8
1
  6
DOT_CENTER
 62
           2
100
AcDbLine
 10
4850.217224125428
 20
773.44631887274
 11
4850.217224125428
 21
623.44631887274
  0
LINE
  5
59
100
AcDbEntity
  8
1
  6
CONTINUOUS
 62
           7
100
AcDbLine
 10
1800.000000000001
 20
4098.446318872742
 11
1800.000000000001
 21
6098.446318872742
  0
LINE
  5
58
100
AcDbEntity
  8
1
  6
CONTINUOUS
 62
           4
100
AcDbLine
 10
1480.000000000001
 20
6078.446318872742
 11
1480.000000000001
 21
5118.446318872743
  0
LINE
  5
57
100
AcDbEntity
  8
1
  6
CONTINUOUS
 62
           4
100
AcDbLine
 10
1730.000000000001
 20
4578.446318872742
 11
1730.000000000001
 21
4148.446318872742
  0
LINE
  5
56
100
AcDbEntity
  8
1
  6
CONTINUOUS
 62
           4
100
AcDbLine
 10
1480.000000000001
 20
6078.446318872742
 11
520.0
 21
6078.446318872742
  0
LINE
  5
55
100
AcDbEntity
  8
1
  6
CONTINUOUS
 62
           4
100
AcDbLine
 10
1480.000000000001
 20
5118.446318872743
 11
520.0
 21
5118.446318872742
  0
LINE
  5
54
100
AcDbEntity
  8
1
  6
CONTINUOUS
 62
           7
100
AcDbLine
 10
6050.217224125429
 20
98.44631887274
 11
3050.217224125431
 21
98.44631887274
  0
LINE
  5
53
100
AcDbEntity
  8
1
  6
CONTINUOUS
 62
           4
100
AcDbLine
 10
1730.000000000001
 20
4578.446318872742
 11
-230.0
 21
4578.446318872742
  0
LINE
  5
52
100
AcDbEntity
  8
1
  6
CONTINUOUS
 62
           7
100
AcDbLine
 10
-250.0
 20
573.44631887274
 11
-250.0
 21
498.446318872741
  0
LINE
  5
51
100
AcDbEntity
  8
1
  6
CONTINUOUS
 62
           4
100
AcDbLine
 10
3550.217224125431
 20
2638.446318872742
 11
4050.217224125431
 21
2638.446318872742
  0
LINE
  5
50
100
AcDbEntity
  8
1
  6
CONTINUOUS
 62
           7
100
AcDbLine
 10
3790.217224125429
 20
1960.44631887274
 11
3790.217224125429
 21
2048.44631887274
  0
LINE
  5
4F
100
AcDbEntity
  8
1
  6
CONTINUOUS
 62
           7
100
AcDbLine
 10
3600.217224125431
 20
1960.44631887274
 11
3790.217224125429
 21
1960.44631887274
  0
LINE
  5
4E
100
AcDbEntity
  8
1
  6
CONTINUOUS
 62
           7
100
AcDbLine
 10
3600.217224125431
 20
2048.44631887274
 11
3600.217224125431
 21
1960.44631887274
  0
LINE
  5
4D
100
AcDbEntity
  8
1
  6
CONTINUOUS
 62
           7
100
AcDbLine
 10
3790.217224125429
 20
2048.44631887274
 11
3600.217224125431
 21
2048.44631887274
  0
LINE
  5
4C
100
AcDbEntity
  8
1
  6
CONTINUOUS
 62
           7
100
AcDbLine
 10
4280.217224125428
 20
1448.44631887274
 11
4100.217224125429
 21
1448.44631887274
  0
LINE
  5
4B
100
AcDbEntity
  8
1
  6
CONTINUOUS
 62
           7
100
AcDbLine
 10
4100.217224125431
 20
1688.44631887274
 11
4280.217224125428
 21
1688.44631887274
  0
LINE
  5
4A
100
AcDbEntity
  8
1
  6
CONTINUOUS
 62
           7
100
AcDbLine
 10
4100.217224125429
 20
1448.44631887274
 11
4100.217224125431
 21
1688.44631887274
  0
LINE
  5
49
100
AcDbEntity
  8
1
  6
CONTINUOUS
 62
           7
100
AcDbLine
 10
4280.217224125428
 20
1688.44631887274
 11
4280.217224125428
 21
1448.44631887274
  0
LINE
  5
48
100
AcDbEntity
  8
1
  6
CONTINUOUS
 62
           7
100
AcDbLine
 10
-1799.999999999999
 20
5098.446318872742
 11
-464.610640301043
 21
5098.446318872742
  0
LINE
  5
47
100
AcDbEntity
  8
1
  6
CONTINUOUS
 62
           7
100
AcDbLine
 10
500.000000000001
 20
5098.446318872742
 11
500.000000000001
 21
5349.281590201052
  0
LINE
  5
46
100
AcDbEntity
  8
1
  6
CONTINUOUS
 62
           7
100
AcDbLine
 10
2076.968978102189
 20
98.44631887274
 11
-2050.000000000001
 21
98.44631887274
  0
LINE
  5
45
100
AcDbEntity
  8
1
  6
CONTINUOUS
 62
           7
100
AcDbLine
 10
250.000000000001
 20
2598.446318872742
 11
250.0
 21
2098.44631887274
  0
LINE
  5
44
100
AcDbEntity
  8
1
  6
CONTINUOUS
 62
           7
100
AcDbLine
 10
1500.000000000001
 20
5098.446318872742
 11
1500.000000000001
 21
6098.446318872742
  0
LINE
  5
43
100
AcDbEntity
  8
1
  6
CONTINUOUS
 62
           7
100
AcDbLine
 10
-1499.999999999999
 20
5098.446318872742
 11
-1499.999999999999
 21
6098.446318872742
  0
LINE
  5
42
100
AcDbEntity
  8
1
  6
CONTINUOUS
 62
           4
100
AcDbLine
 10
1780.000000000001
 20
6078.446318872742
 11
1520.000000000001
 21
6078.446318872742
  0
LINE
  5
41
100
AcDbEntity
  8
1
  6
CONTINUOUS
 62
           4
100
AcDbLine
 10
1520.000000000001
 20
5118.446318872743
 11
1520.000000000001
 21
6078.446318872742
  0
LINE
  5
40
100
AcDbEntity
  8
1
  6
CONTINUOUS
 62
           4
100
AcDbLine
 10
1780.000000000001
 20
5118.446318872743
 11
1520.000000000001
 21
5118.446318872743
  0
LINE
  5
3F
100
AcDbEntity
  8
1
  6
CONTINUOUS
 62
           4
100
AcDbLine
 10
1780.000000000001
 20
5118.446318872743
 11
1780.000000000001
 21
6078.446318872742
  0
LINE
  5
3E
100
AcDbEntity
  8
1
  6
CONTINUOUS
 62
           4
100
AcDbLine
 10
-1519.999999999999
 20
6078.446318872742
 11
-1519.999999999999
 21
5118.446318872743
  0
LINE
  5
3D
100
AcDbEntity
  8
1
  6
CONTINUOUS
 62
           4
100
AcDbLine
 10
-1779.999999999999
 20
6078.446318872742
 11
-1779.999999999999
 21
5118.446318872743
  0
LINE
  5
3C
100
AcDbEntity
  8
1
  6
CONTINUOUS
 62
           4
100
AcDbLine
 10
-1519.999999999999
 20
5118.446318872743
 11
-1779.999999999999
 21
5118.446318872743
  0
LINE
  5
3B
100
AcDbEntity
  8
1
  6
CONTINUOUS
 62
           4
100
AcDbLine
 10
-1519.999999999999
 20
6078.446318872742
 11
-1779.999999999999
 21
6078.446318872742
  0
LINE
  5
3A
100
AcDbEntity
  8
1
  6
CONTINUOUS
 62
           7
100
AcDbLine
 10
3800.217224125431
 20
1798.44631887274
 11
4000.217224125431
 21
1798.44631887274
  0
LINE
  5
39
100
AcDbEntity
  8
1
  6
CONTINUOUS
 62
           7
100
AcDbLine
 10
4000.217224125431
 20
1798.44631887274
 11
4000.217224125431
 21
1398.44631887274
  0
LINE
  5
38
100
AcDbEntity
  8
1
  6
CONTINUOUS
 62
           7
100
AcDbLine
 10
4000.217224125431
 20
1398.44631887274
 11
3800.217224125431
 21
1398.44631887274
  0
LINE
  5
37
100
AcDbEntity
  8
1
  6
CONTINUOUS
 62
           7
100
AcDbLine
 10
3800.217224125431
 20
1398.44631887274
 11
3800.217224125431
 21
1798.44631887274
  0
LINE
  5
36
100
AcDbEntity
  8
1
  6
CONTINUOUS
 62
           4
100
AcDbLine
 10
4000.217224125431
 20
1798.44631887274
 11
4030.217224125431
 21
1798.44631887274
  0
LINE
  5
35
100
AcDbEntity
  8
1
  6
CONTINUOUS
 62
           4
100
AcDbLine
 10
4000.217224125431
 20
1398.44631887274
 11
4030.217224125431
 21
1398.44631887274
  0
LINE
  5
34
100
AcDbEntity
  8
1
  6
CONTINUOUS
 62
           7
100
AcDbLine
 10
1800.000000000001
 20
1798.44631887274
 11
1960.000000000001
 21
1798.44631887274
  0
LINE
  5
33
100
AcDbEntity
  8
1
  6
CONTINUOUS
 62
           7
100
AcDbLine
 10
1960.000000000001
 20
1798.44631887274
 11
1960.000000000001
 21
1398.44631887274
  0
LINE
  5
32
100
AcDbEntity
  8
1
  6
CONTINUOUS
 62
           7
100
AcDbLine
 10
1960.000000000001
 20
1398.44631887274
 11
1800.000000000001
 21
1398.44631887274
  0
LINE
  5
31
100
AcDbEntity
  8
1
  6
CONTINUOUS
 62
           7
100
AcDbLine
 10
1800.000000000001
 20
4548.446318872742
 11
1960.000000000001
 21
4548.446318872742
  0
LINE
  5
30
100
AcDbEntity
  8
1
  6
CONTINUOUS
 62
           7
100
AcDbLine
 10
1960.000000000001
 20
4548.446318872742
 11
1960.000000000001
 21
4348.446318872742
  0
LINE
  5
2F
100
AcDbEntity
  8
1
  6
CONTINUOUS
 62
           7
100
AcDbLine
 10
1960.000000000001
 20
4348.446318872742
 11
1800.000000000001
 21
4348.446318872742
  0
POINT
  5
2E
100
AcDbEntity
  8
0
 62
           3
100
AcDbPoint
 10
4383.617220847163
 20
1463.446318872861
  0
ENDSEC
  0
SECTION
  2
OBJECTS
  0
DICTIONARY
  5
19
100
AcDbDictionary
  3
ACAD_GROUP
350
1A
  3
ACAD_MLINESTYLE
350
1B
  0
DICTIONARY
  5
1A
102
{ACAD_REACTORS
330
19
102
}
100
AcDbDictionary
  0
DICTIONARY
  5
1B
102
{ACAD_REACTORS
330
19
102
}
100
AcDbDictionary
  3
STANDARD
350
1C
  0
MLINESTYLE
  5
1C
102
{ACAD_REACTORS
330
1B
102
}
100
AcDbMlineStyle
  2
STANDARD
 70
           0
  3

 62
           0
 51
90.0
 52
90.0
 71
           2
 49
0.5
 62
         256
  6
BYLAYER
 49
-0.5
 62
         256
  6
BYLAYER
  0
ENDSEC
  0
EOF
