  0
SECTION
  2
HEADER
  9
$ACADVER
  1
AC1014
  9
$ACADMAINTVER
 70
           0
  9
$DWGCODEPAGE
  3
DOS932
  9
$INSBASE
 10
0.0
 20
0.0
 30
0.0
  9
$EXTMIN
 10
1.000000000000E+20
 20
1.000000000000E+20
 30
1.000000000000E+20
  9
$EXTMAX
 10
-1.000000000000E+20
 20
-1.000000000000E+20
 30
-1.000000000000E+20
  9
$LIMMIN
 10
0.0
 20
0.0
  9
$LIMMAX
 10
0.0
 20
0.0
  9
$ORTHOMODE
 70
           0
  9
$REGENMODE
 70
           1
  9
$FILLMODE
 70
           1
  9
$QTEXTMODE
 70
           0
  9
$MIRRTEXT
 70
           1
  9
$DRAGMODE
 70
           2
  9
$LTSCALE
 40
1.0
  9
$OSMODE
 70
           0
  9
$ATTMODE
 70
           1
  9
$TEXTSIZE
 40
0.2
  9
$TRACEWID
 40
0.05
  9
$TEXTSTYLE
  7
STANDARD
  9
$CLAYER
  8
0
  9
$CELTYPE
  6
CONTINUOUS
  9
$CECOLOR
 62
         256
  9
$CELTSCALE
 40
1.0
  9
$DELOBJ
 70
           1
  9
$DISPSILH
 70
           0
  9
$DIMSCALE
 40
1.0
  9
$DIMASZ
 40
0.18
  9
$DIMEXO
 40
0.0625
  9
$DIMDLI
 40
0.38
  9
$DIMRND
 40
0.0
  9
$DIMDLE
 40
0.0
  9
$DIMEXE
 40
0.18
  9
$DIMTP
 40
0.0
  9
$DIMTM
 40
0.0
  9
$DIMTXT
 40
0.18
  9
$DIMCEN
 40
0.09
  9
$DIMTSZ
 40
0.0
  9
$DIMTOL
 70
           0
  9
$DIMLIM
 70
           0
  9
$DIMTIH
 70
           1
  9
$DIMTOH
 70
           1
  9
$DIMSE1
 70
           0
  9
$DIMSE2
 70
           0
  9
$DIMTAD
 70
           0
  9
$DIMZIN
 70
           0
  9
$DIMBLK
  1

  9
$DIMASO
 70
           1
  9
$DIMSHO
 70
           1
  9
$DIMPOST
  1

  9
$DIMAPOST
  1

  9
$DIMALT
 70
           0
  9
$DIMALTD
 70
           2
  9
$DIMALTF
 40
25.4
  9
$DIMLFAC
 40
1.0
  9
$DIMTOFL
 70
           0
  9
$DIMTVP
 40
0.0
  9
$DIMTIX
 70
           0
  9
$DIMSOXD
 70
           0
  9
$DIMSAH
 70
           0
  9
$DIMBLK1
  1

  9
$DIMBLK2
  1

  9
$DIMSTYLE
  2
STANDARD
  9
$DIMCLRD
 70
           0
  9
$DIMCLRE
 70
           0
  9
$DIMCLRT
 70
           0
  9
$DIMTFAC
 40
1.0
  9
$DIMGAP
 40
0.09
  9
$DIMJUST
 70
           0
  9
$DIMSD1
 70
           0
  9
$DIMSD2
 70
           0
  9
$DIMTOLJ
 70
           1
  9
$DIMTZIN
 70
           0
  9
$DIMALTZ
 70
           0
  9
$DIMALTTZ
 70
           0
  9
$DIMFIT
 70
           3
  9
$DIMUPT
 70
           0
  9
$DIMUNIT
 70
           2
  9
$DIMDEC
 70
           4
  9
$DIMTDEC
 70
           4
  9
$DIMALTU
 70
           2
  9
$DIMALTTD
 70
           2
  9
$DIMTXSTY
  7
STANDARD
  9
$DIMAUNIT
 70
           0
  9
$LUNITS
 70
           2
  9
$LUPREC
 70
           4
  9
$SKETCHINC
 40
0.1
  9
$FILLETRAD
 40
0.0
  9
$AUNITS
 70
           0
  9
$AUPREC
 70
           0
  9
$MENU
  1
acad
  9
$ELEVATION
 40
0.0
  9
$PELEVATION
 40
0.0
  9
$THICKNESS
 40
0.0
  9
$LIMCHECK
 70
           0
  9
$BLIPMODE
 70
           1
  9
$CHAMFERA
 40
0.0
  9
$CHAMFERB
 40
0.0
  9
$CHAMFERC
 40
0.0
  9
$CHAMFERD
 40
0.0
  9
$SKPOLY
 70
           0
  9
$TDCREATE
 40
0.000000000
  9
$TDUPDATE
 40
0.000000000
  9
$TDINDWG
 40
0.0000000000
  9
$TDUSRTIMER
 40
0.0000000000
  9
$USRTIMER
 70
           1
  9
$ANGBASE
 50
0.0
  9
$ANGDIR
 70
           0
  9
$PDMODE
 70
           0
  9
$PDSIZE
 40
0.0
  9
$PLINEWID
 40
0.0
  9
$COORDS
 70
           0
  9
$SPLFRAME
 70
           0
  9
$SPLINETYPE
 70
           6
  9
$SPLINESEGS
 70
           8
  9
$ATTDIA
 70
           0
  9
$ATTREQ
 70
           1
  9
$HANDLING
 70
           1
  9
$HANDSEED
  5
39B
  9
$SURFTAB1
 70
           6
  9
$SURFTAB2
 70
           6
  9
$SURFTYPE
 70
           6
  9
$SURFU
 70
           6
  9
$SURFV
 70
           6
  9
$UCSNAME
  2

  9
$UCSORG
 10
0.0
 20
0.0
 30
0.0
  9
$UCSXDIR
 10
1.0
 20
0.0
 30
0.0
  9
$UCSYDIR
 10
0.0
 20
1.0
 30
0.0
  9
$PUCSNAME
  2

  9
$PUCSORG
 10
0.0
 20
0.0
 30
0.0
  9
$PUCSXDIR
 10
1.0
 20
0.0
 30
0.0
  9
$PUCSYDIR
 10
0.0
 20
1.0
 30
0.0
  9
$USERI1
 70
           0
  9
$USERI2
 70
           0
  9
$USERI3
 70
           0
  9
$USERI4
 70
           0
  9
$USERI5
 70
           0
  9
$USERR1
 40
0.0
  9
$USERR2
 40
0.0
  9
$USERR3
 40
0.0
  9
$USERR4
 40
0.0
  9
$USERR5
 40
0.0
  9
$WORLDVIEW
 70
           1
  9
$SHADEDGE
 70
           3
  9
$SHADEDIF
 70
          70
  9
$TILEMODE
 70
           1
  9
$MAXACTVP
 70
          16
  9
$PINSBASE
 10
0.0
 20
0.0
 30
0.0
  9
$PLIMCHECK
 70
           0
  9
$PEXTMIN
 10
1.000000000000E+20
 20
1.000000000000E+20
 30
1.000000000000E+20
  9
$PEXTMAX
 10
-1.000000000000E+20
 20
-1.000000000000E+20
 30
-1.000000000000E+20
  9
$PLIMMIN
 10
0.0
 20
0.0
  9
$PLIMMAX
 10
12.0
 20
9.0
  9
$UNITMODE
 70
           0
  9
$VISRETAIN
 70
           0
  9
$PLINEGEN
 70
           1
  9
$PSLTSCALE
 70
           0
  9
$TREEDEPTH
 70
        3020
  9
$PICKSTYLE
 70
           1
  9
$CMLSTYLE
  2
STANDARD
  9
$CMLJUST
 70
           0
  9
$CMLSCALE
 40
1.0
  9
$PROXYGRAPHICS
 70
           0
  9
$MEASUREMENT
 70
           0
  0
ENDSEC
  0
SECTION
  2
CLASSES
  0
CLASS
  1
LWPOLYLINE
  2
AcDbPolyline
  3
"AutoCAD"
 90
        0
280
           0
281
           1
  0
CLASS
  1
IMAGE
  2
AcDbRasterImage
  3
ISM
 90
      127
280
           0
281
           1
  0
CLASS
  1
OLE2FRAME
  2
AcDbOle2Frame
  3
""
 90
        0
280
           0
281
           1
  0
CLASS
  1
HATCH
  2
AcDbHatch
  3
"ACAD_SEDONA"
 90
        0
280
           0
281
           1
  0
CLASS
  1
DICTIONARYVAR
  2
AcDbDictionaryVar
  3
"AutoCAD"
 90
        0
280
           0
281
           0
  0
CLASS
  1
RASTERVARIABLES
  2
AcDbRasterVariables
  3
ISM
 90
        0
280
           0
281
           0
  0
CLASS
  1
IMAGEDEF
  2
AcDbRasterImageDef
  3
ISM
 90
        0
280
           0
281
           0
  0
CLASS
  1
IMAGEDEF_REACTOR
  2
AcDbRasterImageDefReactor
  3
ISM
 90
        1
280
           0
281
           0
  0
CLASS
  1
IDBUFFER
  2
AcDbIdBuffer
  3
"Acad"
 90
        0
280
           0
281
           0
  0
CLASS
  1
SPATIAL_FILTER
  2
AcDbSpatialFilter
  3
"Acad"
 90
        0
280
           0
281
           0
  0
CLASS
  1
XRECORD
  2
AcDbXrecord
  3
"<Built In>"
 90
        0
280
           0
281
           0
  0
CLASS
  1
SORTENTSTABLE
  2
AcDbSortentsTable
  3
"AutoCAD"
 90
        0
280
           0
281
           0
  0
CLASS
  1
LAYER_INDEX
  2
AcDbLayerIndex
  3
"Acad"
 90
        0
280
           0
281
           0
  0
CLASS
  1
SPATIAL_INDEX
  2
AcDbSpatialIndex
  3
"Acad"
 90
        0
280
           0
281
           0
  0
CLASS
  1
OBJECT_PTR
  2
CAseDLPNTableRecord
  3
"ASE-LPNTableRecord"
 90
        1
280
           0
281
           0
  0
CLASS
  1
LAYOUT
  2
AcDbLayout
  3
"AutoCAD 2000"
 90
        1
280
           0
281
           0
  0
CLASS
  1
PLOTSETTINGS
  2
AcDbPlotSettings
  3
"AutoCAD 2000"
 90
        1
280
           0
281
           0
  0
CLASS
  1
ACDBDICTIONARYWDFLT
  2
AcDbDictionaryWithDefault
  3
"AutoCAD 2000"
 90
        1
280
           0
281
           0
  0
CLASS
  1
ACDBPLACEHOLDER
  2
AcDbPlaceHolder
  3
"AutoCAD 2000"
 90
        1
280
           0
281
           0
  0
CLASS
  1
VBA_PROJECT
  2
AcDbVbaProject
  3
"acadvba"
 90
        1
280
           0
281
           0
  0
CLASS
  1
WIPEOUT
  2
AcDbWipeout
  3
WipeOut|AutoCAD Express Tool|expresstools@autodesk.com
 90
      127
280
           0
281
           1
  0
CLASS
  1
WIPEOUTVARIABLES
  2
AcDbWipeoutVariables
  3
WipeOut|AutoCAD Express Tool|expresstools@autodesk.com
 90
        0
280
           0
281
           0
  0
CLASS
  1
RTEXT
  2
RText
  3
RText|AutoCAD Express Tool|expresstools@autodesk.com
 90
        0
280
           0
281
           1
  0
CLASS
  1
ARCALIGNEDTEXT
  2
AcDbArcAlignedText
  3
ATEXT|AutoCAD Express Tool|expresstools@autodesk.com
 90
        0
280
           0
281
           1
  0
ENDSEC
  0
SECTION
  2
TABLES
  0
TABLE
  2
VPORT
  5
7
100
AcDbSymbolTable
 70
           1
  0
VPORT
  5
15
100
AcDbSymbolTableRecord
100
AcDbViewportTableRecord
  2
*ACTIVE
 70
           0
 10
0.0
 20
0.0
 11
1.0
 21
1.0
 12
6.591288
 22
4.579184
 13
0.0
 23
0.0
 14
1.0
 24
1.0
 15
0.0
 25
0.0
 16
0.0
 26
0.0
 36
1.0
 17
0.0
 27
0.0
 37
0.0
 40
9.158369
 41
0.688564
 42
50.0
 43
0.0
 44
0.0
 50
0.0
 51
0.0
 71
           0
 72
         100
 73
           1
 74
           1
 75
           0
 76
           0
 77
           0
 78
           0
  0
ENDTAB
  0
TABLE
  2
LTYPE
  5
4
100
AcDbSymbolTable
 70
          10
  0
LTYPE
  5
11
100
AcDbSymbolTableRecord
100
AcDbLinetypeTableRecord
  2
BYBLOCK
 70
          64
  3

 72
          65
 73
           0
 40
0.0
  0
LTYPE
  5
12
100
AcDbSymbolTableRecord
100
AcDbLinetypeTableRecord
  2
BYLAYER
 70
          64
  3

 72
          65
 73
           0
 40
0.0
  0
LTYPE
  5
13
100
AcDbSymbolTableRecord
100
AcDbLinetypeTableRecord
  2
CONTINUOUS
 70
          64
  3
Solid line
 72
          65
 73
           0
 40
0.0
  0
LTYPE
  5
1D
100
AcDbSymbolTableRecord
100
AcDbLinetypeTableRecord
  2
DASHED
 70
          64
  3
Dashed
 72
          65
 73
           2
 40
15.0
 49
12.0
 74
           0
 49
-3.0
 74
           0
  0
LTYPE
  5
1E
100
AcDbSymbolTableRecord
100
AcDbLinetypeTableRecord
  2
DOTTED
 70
          64
  3
Dotted
 72
          65
 73
           2
 40
3.5
 49
0.5
 74
           0
 49
-3.0
 74
           0
  0
LTYPE
  5
1F
100
AcDbSymbolTableRecord
100
AcDbLinetypeTableRecord
  2
DOT_CENTER
 70
          64
  3
Dot_Center
 72
          65
 73
           4
 40
2.0
 49
1.25
 74
           0
 49
-0.25
 74
           0
 49
0.25
 74
           0
 49
-0.25
 74
           0
  0
LTYPE
  5
20
100
AcDbSymbolTableRecord
100
AcDbLinetypeTableRecord
  2
LONG_DASHED
 70
          64
  3
Long_Dashed
 72
          65
 73
           2
 40
2.0
 49
1.5
 74
           0
 49
-0.5
 74
           0
  0
LTYPE
  5
21
100
AcDbSymbolTableRecord
100
AcDbLinetypeTableRecord
  2
DASH_CENTER
 70
          64
  3
Dash_Center
 72
          65
 73
           4
 40
36.0
 49
24.0
 74
           0
 49
-3.0
 74
           0
 49
6.0
 74
           0
 49
-3.0
 74
           0
  0
LTYPE
  5
22
100
AcDbSymbolTableRecord
100
AcDbLinetypeTableRecord
  2
PHANTOM
 70
          64
  3
Phantom
 72
          65
 73
           6
 40
2.5
 49
1.25
 74
           0
 49
-0.25
 74
           0
 49
0.25
 74
           0
 49
-0.25
 74
           0
 49
0.25
 74
           0
 49
-0.25
 74
           0
  0
LTYPE
  5
23
100
AcDbSymbolTableRecord
100
AcDbLinetypeTableRecord
  2
CENTER_DASH_DASH
 70
          64
  3
Center_Dash_Dash
 72
          65
 73
           6
 40
22.0
 49
12.0
 74
           0
 49
-3.0
 74
           0
 49
0.5
 74
           0
 49
-3.0
 74
           0
 49
0.5
 74
           0
 49
-3.0
 74
           0
  0
ENDTAB
  0
TABLE
  2
LAYER
  5
2
100
AcDbSymbolTable
 70
           8
  0
LAYER
  5
14
100
AcDbSymbolTableRecord
100
AcDbLayerTableRecord
  2
0
 70
           0
 62
           7
  6
CONTINUOUS
  0
LAYER
  5
24
100
AcDbSymbolTableRecord
100
AcDbLayerTableRecord
  2
___S__
 70
           0
 62
           7
  6
CONTINUOUS
  0
LAYER
  5
25
100
AcDbSymbolTableRecord
100
AcDbLayerTableRecord
  2
976
 70
           0
 62
           7
  6
CONTINUOUS
  0
LAYER
  5
26
100
AcDbSymbolTableRecord
100
AcDbLayerTableRecord
  2
FORMAT
 70
           0
 62
           7
  6
CONTINUOUS
  0
LAYER
  5
27
100
AcDbSymbolTableRecord
100
AcDbLayerTableRecord
  2
1
 70
           0
 62
           7
  6
CONTINUOUS
  0
LAYER
  5
28
100
AcDbSymbolTableRecord
100
AcDbLayerTableRecord
  2
2
 70
           0
 62
           7
  6
CONTINUOUS
  0
LAYER
  5
29
100
AcDbSymbolTableRecord
100
AcDbLayerTableRecord
  2
7
 70
           0
 62
           7
  6
CONTINUOUS
  0
LAYER
  5
2A
100
AcDbSymbolTableRecord
100
AcDbLayerTableRecord
  2
____
 70
           0
 62
           7
  6
CONTINUOUS
  0
ENDTAB
  0
TABLE
  2
STYLE
  5
3
100
AcDbSymbolTable
 70
           1
  0
STYLE
  5
17
100
AcDbSymbolTableRecord
100
AcDbTextStyleTableRecord
  2
STANDARD
 70
           0
 40
0.0
 41
1.0
 50
0.0
 71
           0
 42
0.0
  3
txt
  4

  0
ENDTAB
  0
TABLE
  2
VIEW
  5
5
100
AcDbSymbolTable
 70
           0
  0
ENDTAB
  0
TABLE
  2
UCS
  5
6
100
AcDbSymbolTable
 70
           0
  0
ENDTAB
  0
TABLE
  2
APPID
  5
8
100
AcDbSymbolTable
 70
           1
  0
APPID
  5
16
100
AcDbSymbolTableRecord
100
AcDbRegAppTableRecord
  2
ACAD
 70
           0
  0
ENDTAB
  0
TABLE
  2
DIMSTYLE
  5
9
100
AcDbSymbolTable
 70
           1
  0
DIMSTYLE
105
18
100
AcDbSymbolTableRecord
100
AcDbDimStyleTableRecord
  2
STANDARD
 70
           0
  3

  4

  5

  6

  7

 40
1.0
 41
0.18
 42
0.0625
 43
0.38
 44
0.18
 45
0.0
 46
0.0
 47
0.0
 48
0.0
 71
           0
 72
           0
 73
           1
 74
           1
 75
           0
 76
           0
 77
           0
 78
           0
140
0.18
141
0.09
142
0.0
143
25.4
144
1.0
145
0.0
146
1.0
147
0.09
170
           0
171
           2
172
           0
173
           0
174
           0
175
           0
176
           0
177
           0
178
           0
270
           2
271
           4
272
           4
273
           2
274
           2
275
           0
280
           0
281
           0
282
           0
283
           1
284
           0
285
           0
286
           0
287
           0
288
           0
340
17
  0
ENDTAB
  0
TABLE
  2
BLOCK_RECORD
  5
1
100
AcDbSymbolTable
 70
           0
  0
BLOCK_RECORD
  5
A
100
AcDbSymbolTableRecord
100
AcDbBlockTableRecord
  2
*MODEL_SPACE
  0
BLOCK_RECORD
  5
B
100
AcDbSymbolTableRecord
100
AcDbBlockTableRecord
  2
*PAPER_SPACE
  0
ENDTAB
  0
ENDSEC
  0
SECTION
  2
BLOCKS
  0
BLOCK
  5
D
100
AcDbEntity
  8
0
100
AcDbBlockBegin
  2
*MODEL_SPACE
 70
           0
 10
0.0
 20
0.0
 30
0.0
  3
*MODEL_SPACE
  1

  0
ENDBLK
  5
E
100
AcDbEntity
  8
0
100
AcDbBlockEnd
  0
BLOCK
  5
F
100
AcDbEntity
 67
           1
  8
0
100
AcDbBlockBegin
  2
*PAPER_SPACE
 70
           0
 10
0.0
 20
0.0
 30
0.0
  3
*PAPER_SPACE
  1

  0
ENDBLK
  5
10
100
AcDbEntity
 67
           1
  8
0
100
AcDbBlockEnd
  0
ENDSEC
  0
SECTION
  2
ENTITIES
  0
HATCH
  5
399
100
AcDbEntity
  8
0
  6
CONTINUOUS
 62
           2
100
AcDbHatch
 10
0.0
 20
0.0
 30
0.0
210
0.0
220
0.0
230
1.0
  2
USER
 70
           0
 71
           1
 91
        1
 92
        1
 93
        8
 72
           1
 10
3520.0000000000009
 20
1607.5
 11
3520.0000000000009
 21
1592.5
 72
           1
 10
3520.0000000000009
 20
1592.5
 11
3617.5000000000009
 21
1592.5
 72
           2
 10
3617.5000000000009
 20
1612.5
 40
20.0
 50
-90.0
 51
0.0
 73
           1
 72
           1
 10
3637.5000000000009
 20
1612.5
 11
3637.5000000000009
 21
1680.0
 72
           1
 10
3637.5000000000009
 20
1680.0
 11
3622.5
 21
1680.0
 72
           1
 10
3622.5
 20
1612.5
 11
3622.5
 21
1680.0
 72
           2
 10
3617.5000000000009
 20
1612.5
 40
5.0
 50
-90.0
 51
0.0
 73
           1
 72
           1
 10
3617.5000000000009
 20
1607.5
 11
3520.0000000000009
 21
1607.5
 97
        7
330
37D
330
37F
330
7A
330
37E
330
79
330
380
330
7B
 75
           1
 76
           0
 52
45.0
 41
10.0
 77
           0
 78
           1
 53
45.0
 43
0.0
 44
0.0
 45
-7.0710678118654746
 46
7.0710678118654755
 79
           0
 98
        1
 10
0.0
 20
0.0
  0
ARC
  5
398
100
AcDbEntity
  8
1
  6
CONTINUOUS
 62
           4
100
AcDbCircle
 10
5555.499999999999
 20
3165.999999999998
 40
1.0
100
AcDbArc
 50
179.999999999895
 51
-90.0
  0
ARC
  5
397
100
AcDbEntity
  8
1
  6
CONTINUOUS
 62
           4
100
AcDbCircle
 10
5544.499999999999
 20
3165.999999999998
 40
0.999999999998
100
AcDbArc
 50
-90.0
 51
0.000000000104
  0
ARC
  5
396
100
AcDbEntity
  8
1
  6
CONTINUOUS
 62
           4
100
AcDbCircle
 10
5544.499999999999
 20
2660.0
 40
1.0
100
AcDbArc
 50
0.0
 51
90.0
  0
ARC
  5
395
100
AcDbEntity
  8
1
  6
CONTINUOUS
 62
           4
100
AcDbCircle
 10
5555.499999999999
 20
2660.0
 40
1.0
100
AcDbArc
 50
90.0
 51
180.0
  0
ARC
  5
394
100
AcDbEntity
  8
1
  6
CONTINUOUS
 62
           7
100
AcDbCircle
 10
5051.500000000001
 20
3387.5
 40
12.0
100
AcDbArc
 50
0.0
 51
90.0
  0
ARC
  5
393
100
AcDbEntity
  8
1
  6
CONTINUOUS
 62
           7
100
AcDbCircle
 10
5051.500000000001
 20
3311.5
 40
12.0
100
AcDbArc
 50
-90.0
 51
0.0
  0
ARC
  5
392
100
AcDbEntity
  8
1
  6
CONTINUOUS
 62
           7
100
AcDbCircle
 10
4948.500000000001
 20
3387.5
 40
12.0
100
AcDbArc
 50
90.0
 51
180.0
  0
ARC
  5
391
100
AcDbEntity
  8
1
  6
CONTINUOUS
 62
           7
100
AcDbCircle
 10
4948.500000000001
 20
3311.5
 40
12.0
100
AcDbArc
 50
180.0
 51
-90.0
  0
ARC
  5
390
100
AcDbEntity
  8
1
  6
CONTINUOUS
 62
           7
100
AcDbCircle
 10
134.496396800001
 20
3311.499999999996
 40
12.0
100
AcDbArc
 50
180.0
 51
-90.0
  0
ARC
  5
38F
100
AcDbEntity
  8
1
  6
CONTINUOUS
 62
           7
100
AcDbCircle
 10
134.496396800001
 20
3387.499999999996
 40
12.0
100
AcDbArc
 50
90.0
 51
180.0
  0
ARC
  5
38E
100
AcDbEntity
  8
1
  6
CONTINUOUS
 62
           7
100
AcDbCircle
 10
185.000000000003
 20
3311.499999999996
 40
12.0
100
AcDbArc
 50
-90.0
 51
0.0
  0
ARC
  5
38D
100
AcDbEntity
  8
1
  6
CONTINUOUS
 62
           7
100
AcDbCircle
 10
185.000000000003
 20
3387.499999999996
 40
12.0
100
AcDbArc
 50
0.0
 51
90.0
  0
ARC
  5
38C
100
AcDbEntity
  8
1
  6
CONTINUOUS
 62
           7
100
AcDbCircle
 10
185.000000000002
 20
5849.3044402821
 40
12.0
100
AcDbArc
 50
0.0
 51
90.0
  0
ARC
  5
38B
100
AcDbEntity
  8
1
  6
CONTINUOUS
 62
           7
100
AcDbCircle
 10
185.000000000002
 20
5746.3044402821
 40
12.0
100
AcDbArc
 50
-90.0
 51
0.0
  0
ARC
  5
38A
100
AcDbEntity
  8
1
  6
CONTINUOUS
 62
           7
100
AcDbCircle
 10
144.824966598197
 20
5849.3044402821
 40
12.0
100
AcDbArc
 50
90.0
 51
180.0
  0
ARC
  5
389
100
AcDbEntity
  8
1
  6
CONTINUOUS
 62
           7
100
AcDbCircle
 10
144.824966598197
 20
5746.3044402821
 40
12.0
100
AcDbArc
 50
180.0
 51
-90.0
  0
ARC
  5
388
100
AcDbEntity
  8
1
  6
CONTINUOUS
 62
           4
100
AcDbCircle
 10
117.908702762047
 20
5752.3044402821
 40
11.999999999999
100
AcDbArc
 50
-120.430594205711
 51
-90.0
  0
ARC
  5
387
100
AcDbEntity
  8
1
  6
CONTINUOUS
 62
           4
100
AcDbCircle
 10
117.908702762047
 20
5843.3044402821
 40
12.0
100
AcDbArc
 50
90.0
 51
120.430594205711
  0
ARC
  5
386
100
AcDbEntity
  8
1
  6
CONTINUOUS
 62
           3
100
AcDbCircle
 10
4519.899996810936
 20
2139.1108682961
 40
58.0
100
AcDbArc
 50
90.0
 51
180.0
  0
ARC
  5
385
100
AcDbEntity
  8
1
  6
CONTINUOUS
 62
           3
100
AcDbCircle
 10
4521.989640809794
 20
1879.110868296101
 40
317.999999999999
100
AcDbArc
 50
45.0
 51
90.0
  0
ARC
  5
384
100
AcDbEntity
  8
1
  6
CONTINUOUS
 62
           3
100
AcDbCircle
 10
4521.989640809794
 20
1879.110868296101
 40
310.0
100
AcDbArc
 50
45.0
 51
90.0
  0
ARC
  5
383
100
AcDbEntity
  8
1
  6
CONTINUOUS
 62
           3
100
AcDbCircle
 10
4519.89999812233
 20
2139.110868296101
 40
50.0
100
AcDbArc
 50
90.0
 51
180.0
  0
ARC
  5
382
100
AcDbEntity
  8
1
  6
CONTINUOUS
 62
           3
100
AcDbCircle
 10
4899.520471516058
 20
1935.46960219722
 40
0.499999999998
100
AcDbArc
 50
135.000000000037
 51
-134.999999999871
  0
ARC
  5
381
100
AcDbEntity
  8
1
  6
CONTINUOUS
 62
           3
100
AcDbCircle
 10
4909.693965493827
 20
1945.643096174987
 40
0.5
100
AcDbArc
 50
45.000000000129
 51
135.000000000018
  0
ARC
  5
380
100
AcDbEntity
  8
1
  6
CONTINUOUS
 62
           7
100
AcDbCircle
 10
3617.500000000001
 20
1612.5
 40
5.0
100
AcDbArc
 50
-90.0
 51
0.0
  0
ARC
  5
37F
100
AcDbEntity
  8
1
  6
CONTINUOUS
 62
           7
100
AcDbCircle
 10
3617.500000000001
 20
1612.5
 40
20.0
100
AcDbArc
 50
-90.0
 51
0.0
  0
LWPOLYLINE
  5
37E
100
AcDbEntity
  8
1
  6
CONTINUOUS
 62
           7
 60
           1
100
AcDbPolyline
 90
        2
 70
           0
 10
3637.500000000001
 20
1680.0
 10
3622.5
 20
1680.0
  0
LWPOLYLINE
  5
37D
100
AcDbEntity
  8
1
  6
CONTINUOUS
 62
           7
 60
           1
100
AcDbPolyline
 90
        3
 70
           0
 10
3520.000000000001
 20
1607.5
 10
3520.000000000001
 20
1592.5
 10
3617.500000000001
 20
1592.5
  0
SPLINE
  5
37C
100
AcDbEntity
  8
0
  6
CONTINUOUS
 62
           3
100
AcDbSpline
210
0.0
220
0.0
230
1.0
 70
           0
 71
           3
 72
           8
 73
           5
 74
           7
 42
0.00000000001
 43
0.00000000001
 44
0.00000000001
 40
0.0
 40
0.0
 40
0.0
 40
0.2989651950319967
 40
0.4296296276535259
 40
0.4465803504019732
 40
0.4465803504019732
 40
0.4465803504019732
 10
4420.899996609869
 20
1884.6465796233019
 30
0.0
 10
4420.8999966099154
 20
1884.466936563425
 30
0.0
 10
4420.8999966099154
 20
1884.2282922931149
 30
0.0
 10
4420.8999966099154
 20
1884.2056076981819
 30
0.0
 10
4420.8999966099154
 20
1884.1999992729
 30
0.0
 11
4420.899996609869
 21
1884.6465796233019
 31
0.0
 11
4420.8999966099036
 21
1884.4703311443229
 31
0.0
 11
4420.8999966099154
 21
1884.3008718271399
 31
0.0
 11
4420.8999966099154
 21
1884.2414172487574
 31
0.0
 11
4420.8999966099154
 21
1884.2082125816601
 31
0.0
 11
4420.8999966099154
 21
1884.2048568127307
 31
0.0
 11
4420.8999966099154
 21
1884.1999992729
 31
0.0
  0
SPLINE
  5
37B
100
AcDbEntity
  8
0
  6
CONTINUOUS
 62
           3
100
AcDbSpline
210
0.0
220
0.0
230
1.0
 70
           0
 71
           3
 72
           8
 73
           5
 74
           7
 42
0.00000000001
 43
0.00000000001
 44
0.00000000001
 40
0.0
 40
0.0
 40
0.0
 40
0.0169507227484473
 40
0.1476151553699765
 40
0.4465803504019732
 40
0.4465803504019732
 40
0.4465803504019732
 10
4410.8999968334374
 20
1884.1999992729
 30
0.0
 10
4410.8999968334374
 20
1884.2056076981819
 30
0.0
 10
4410.8999968334374
 20
1884.2282922931149
 30
0.0
 10
4410.8999968334374
 20
1884.466936563425
 30
0.0
 10
4410.8999968334774
 20
1884.6465796233019
 30
0.0
 11
4410.8999968334374
 21
1884.1999992729
 31
0.0
 11
4410.8999968334374
 21
1884.2048568127307
 31
0.0
 11
4410.8999968334374
 21
1884.2082125816603
 31
0.0
 11
4410.8999968334374
 21
1884.2414172487577
 31
0.0
 11
4410.8999968334374
 21
1884.3008718271399
 31
0.0
 11
4410.8999968334465
 21
1884.4703311443232
 31
0.0
 11
4410.8999968334774
 21
1884.6465796233019
 31
0.0
  0
SPLINE
  5
37A
100
AcDbEntity
  8
0
  6
CONTINUOUS
 62
           3
100
AcDbSpline
210
0.0
220
0.0
230
1.0
 70
           0
 71
           3
 72
           8
 73
           5
 74
           7
 42
0.00000000001
 43
0.00000000001
 44
0.00000000001
 40
0.0
 40
0.0
 40
0.0
 40
0.4813883392837732
 40
1.3325653926429504
 40
2.5594910488310831
 40
2.5594910488310831
 40
2.5594910488310831
 10
4418.3999966657657
 20
1884.1999992729
 30
0.0
 10
4418.4592614719486
 20
1884.2004449713099
 30
0.0
 10
4419.3034813132954
 20
1884.2067938900659
 30
0.0
 10
4420.1307773327844
 20
1884.4346858415549
 30
0.0
 10
4420.899996609869
 20
1884.6465796233019
 30
0.0
 11
4418.3999966657657
 21
1884.1999992729
 31
0.0
 11
4418.520688730885
 21
1884.2009069323501
 31
0.0
 11
4418.7642353138781
 21
1884.2027385138804
 31
0.0
 11
4419.2533835507465
 21
1884.2291158030614
 31
0.0
 11
4419.6423362625183
 21
1884.3001369182336
 31
0.0
 11
4420.2009718844884
 21
1884.4540220561612
 31
0.0
 11
4420.899996609869
 21
1884.6465796233019
 31
0.0
  0
SPLINE
  5
379
100
AcDbEntity
  8
0
  6
CONTINUOUS
 62
           3
100
AcDbSpline
210
0.0
220
0.0
230
1.0
 70
           0
 71
           3
 72
           8
 73
           5
 74
           7
 42
0.00000000001
 43
0.00000000001
 44
0.00000000001
 40
0.0
 40
0.0
 40
0.0
 40
0.4813884775051676
 40
1.3325655942388779
 40
2.5594910572531564
 40
2.5594910572531564
 40
2.5594910572531564
 10
4413.399996777558
 20
1884.1999992729
 30
0.0
 10
4413.4592615843994
 20
1884.200444971553
 30
0.0
 10
4414.3034817008347
 20
1884.206793895828
 30
0.0
 10
4415.1307775679643
 20
1884.4346858417259
 30
0.0
 10
4415.8999967216787
 20
1884.6465796232951
 30
0.0
 11
4413.399996777558
 21
1884.1999992729
 31
0.0
 11
4413.5206888783732
 21
1884.2009069331086
 31
0.0
 11
4413.7642355671342
 21
1884.2027385164288
 31
0.0
 11
4414.2533839007119
 21
1884.2291158106425
 31
0.0
 11
4414.6423366340468
 21
1884.3001369344856
 31
0.0
 11
4415.2009721229133
 21
1884.4540220603085
 31
0.0
 11
4415.8999967216787
 21
1884.6465796232951
 31
0.0
  0
SPLINE
  5
378
100
AcDbEntity
  8
0
  6
CONTINUOUS
 62
           3
100
AcDbSpline
210
0.0
220
0.0
230
1.0
 70
           0
 71
           3
 72
           8
 73
           5
 74
           7
 42
0.00000000001
 43
0.00000000001
 44
0.00000000001
 40
0.0
 40
0.0
 40
0.0
 40
0.277945479746656
 40
0.7862825386901917
 40
1.542963890722399
 40
1.542963890722399
 40
1.542963890722399
 10
4411.5698696873496
 20
1867.5999939442549
 30
0.0
 10
4411.6040862319269
 20
1867.600439636512
 30
0.0
 10
4412.0914969500354
 20
1867.606788471174
 30
0.0
 10
4412.5691364171998
 20
1867.834684325677
 30
0.0
 10
4413.0132452878479
 20
1868.046581745235
 30
0.0
 11
4411.5698696873496
 21
1867.5999939442549
 31
0.0
 11
4411.6386061815001
 21
1867.600889280815
 31
0.0
 11
4411.7763825747961
 21
1867.6026839059814
 31
0.0
 11
4412.0607022116119
 21
1867.6286568402284
 31
0.0
 11
4412.2834323715815
 21
1867.6983665125831
 31
0.0
 11
4412.6087376234573
 21
1867.8535792272928
 31
0.0
 11
4413.0132452878479
 21
1868.046581745235
 31
0.0
  0
SPLINE
  5
377
100
AcDbEntity
  8
0
  6
CONTINUOUS
 62
           3
100
AcDbSpline
210
0.0
220
0.0
230
1.0
 70
           0
 71
           3
 72
           8
 73
           5
 74
           7
 42
0.00000000001
 43
0.00000000001
 44
0.00000000001
 40
0.0
 40
0.0
 40
0.0
 40
0.2779464854372303
 40
0.7862840843769809
 40
1.5429642658567382
 40
1.5429642658567382
 40
1.5429642658567382
 10
4411.5698696873496
 20
1872.6000040770409
 30
0.0
 10
4411.5356531379857
 20
1872.599558381668
 30
0.0
 10
4411.0482404188861
 20
1872.59320947744
 30
0.0
 10
4410.5706019393447
 20
1872.3653136934729
 30
0.0
 10
4410.1264938539771
 20
1872.1534162761091
 30
0.0
 11
4411.5698696873496
 21
1872.6000040770409
 31
0.0
 11
4411.5011329415966
 21
1872.599108731069
 31
0.0
 11
4411.3633558030615
 21
1872.5973140838987
 31
0.0
 11
4411.0790354338706
 21
1872.5713410900562
 31
0.0
 11
4410.8563050946486
 21
1872.501631321446
 31
0.0
 11
4410.5310007068292
 21
1872.3464187461252
 31
0.0
 11
4410.1264938539771
 21
1872.1534162761091
 31
0.0
  0
SPLINE
  5
376
100
AcDbEntity
  8
0
  6
CONTINUOUS
 62
           3
100
AcDbSpline
210
0.0
220
0.0
230
1.0
 70
           0
 71
           3
 72
           8
 73
           5
 74
           7
 42
0.00000000001
 43
0.00000000001
 44
0.00000000001
 40
0.0
 40
0.0
 40
0.0
 40
0.2779464854282354
 40
0.7862840843632371
 40
1.5429642658955132
 40
1.5429642658955132
 40
1.5429642658955132
 10
4420.2301237560077
 20
1867.5999939442549
 30
0.0
 10
4420.264340305368
 20
1867.6004396396349
 30
0.0
 10
4420.7517530244568
 20
1867.606788543864
 30
0.0
 10
4421.2293915040036
 20
1867.834684327823
 30
0.0
 10
4421.6734995893694
 20
1868.046581745311
 30
0.0
 11
4420.2301237560077
 21
1867.5999939442549
 31
0.0
 11
4420.2988605017572
 21
1867.6008892902323
 31
0.0
 11
4420.4366376402859
 21
1867.6026839374044
 31
0.0
 11
4420.7209580094723
 21
1867.6286569312456
 31
0.0
 11
4420.9436883486878
 21
1867.6983666998503
 31
0.0
 11
4421.2689927365154
 21
1867.8535792752018
 31
0.0
 11
4421.6734995893694
 21
1868.046581745311
 31
0.0
  0
SPLINE
  5
375
100
AcDbEntity
  8
0
  6
CONTINUOUS
 62
           3
100
AcDbSpline
210
0.0
220
0.0
230
1.0
 70
           0
 71
           3
 72
           8
 73
           5
 74
           7
 42
0.00000000001
 43
0.00000000001
 44
0.00000000001
 40
0.0
 40
0.0
 40
0.0
 40
0.2779454797516296
 40
0.7862825386954071
 40
1.5429638907280854
 40
1.5429638907280854
 40
1.5429638907280854
 10
4420.2301237560077
 20
1872.6000040770409
 30
0.0
 10
4420.1959072114278
 20
1872.599558384783
 30
0.0
 10
4419.7084964933147
 20
1872.5932095501271
 30
0.0
 10
4419.2308570261566
 20
1872.36531369562
 30
0.0
 10
4418.7867481555058
 20
1872.153416276062
 30
0.0
 11
4420.2301237560077
 21
1872.6000040770409
 31
0.0
 11
4420.1613872618545
 21
1872.5991087404805
 31
0.0
 11
4420.0236108685549
 21
1872.5973141153156
 31
0.0
 11
4419.7392912317391
 21
1872.5713411810716
 31
0.0
 11
4419.5165610717713
 21
1872.5016315087164
 31
0.0
 11
4419.1912558198983
 21
1872.3464187940046
 31
0.0
 11
4418.7867481555058
 21
1872.153416276062
 31
0.0
  0
SPLINE
  5
374
100
AcDbEntity
  8
0
  6
CONTINUOUS
 62
           3
100
AcDbSpline
210
0.0
220
0.0
230
1.0
 70
           0
 71
           3
 72
           8
 73
           5
 74
           7
 42
0.00000000001
 43
0.00000000001
 44
0.00000000001
 40
0.0
 40
0.0
 40
0.0
 40
0.709710718913952
 40
1.6878556121190571
 40
2.9354150974118656
 40
2.9354150974118656
 40
2.9354150974118656
 10
4413.0132452878479
 20
1868.046581745235
 30
0.0
 10
4413.2266018694991
 20
1867.986940602696
 30
0.0
 10
4414.1669045504668
 20
1867.7240908429519
 30
0.0
 10
4415.1443418916879
 20
1867.6541020998659
 30
0.0
 10
4415.8999967216787
 20
1867.5999939442549
 30
0.0
 11
4413.0132452878479
 21
1868.046581745235
 31
0.0
 11
4413.2721075078034
 21
1867.9742200752128
 31
0.0
 11
4413.6219810043694
 21
1867.8764173502241
 31
0.0
 11
4414.1380638628589
 21
1867.754482866841
 31
0.0
 11
4414.5964653461324
 21
1867.6933324312361
 31
0.0
 11
4415.1962864627967
 21
1867.6503826438056
 31
0.0
 11
4415.8999967216787
 21
1867.5999939442549
 31
0.0
  0
SPLINE
  5
373
100
AcDbEntity
  8
0
  6
CONTINUOUS
 62
           3
100
AcDbSpline
210
0.0
220
0.0
230
1.0
 70
           0
 71
           3
 72
           8
 73
           5
 74
           7
 42
0.00000000001
 43
0.00000000001
 44
0.00000000001
 40
0.0
 40
0.0
 40
0.0
 40
0.7273681394907159
 40
1.7065914567885365
 40
2.9387223240291283
 40
2.9387223240291283
 40
2.9387223240291283
 10
4415.8999967216787
 20
1867.5999939442549
 30
0.0
 10
4416.1387195010366
 20
1867.6054734833269
 30
0.0
 10
4417.1156271469854
 20
1867.6278969974519
 30
0.0
 10
4418.067488856248
 20
1867.86637762072
 30
0.0
 10
4418.7867481553667
 20
1868.046581745311
 30
0.0
 11
4415.8999967216787
 21
1867.5999939442549
 31
0.0
 11
4416.1831310149773
 21
1867.606492885943
 31
0.0
 11
4416.5550883361566
 21
1867.6150306328634
 31
0.0
 11
4417.0808673755155
 21
1867.6510811733845
 31
0.0
 11
4417.5371268719373
 21
1867.7335000657711
 31
0.0
 11
4418.1147131849502
 21
1867.8782092631304
 31
0.0
 11
4418.7867481553667
 21
1868.046581745311
 31
0.0
  0
SPLINE
  5
372
100
AcDbEntity
  8
0
  6
CONTINUOUS
 62
           3
100
AcDbSpline
210
0.0
220
0.0
230
1.0
 70
           0
 71
           3
 72
           8
 73
           5
 74
           7
 42
0.00000000001
 43
0.00000000001
 44
0.00000000001
 40
0.0
 40
0.0
 40
0.0
 40
1.2321308673578346
 40
2.211354184655832
 40
2.938722324146477
 40
2.938722324146477
 40
2.938722324146477
 10
4418.7867481555058
 20
1872.153416276062
 30
0.0
 10
4418.067488856248
 20
1872.3336204005791
 30
0.0
 10
4417.1156271469854
 20
1872.572101023849
 30
0.0
 10
4416.1387195010366
 20
1872.5945245379701
 30
0.0
 10
4415.8999967216787
 20
1872.6000040770409
 30
0.0
 11
4418.7867481555058
 21
1872.153416276062
 31
0.0
 11
4418.1147131849784
 21
1872.3217887581886
 31
0.0
 11
4417.5371268719146
 21
1872.4664979555346
 31
0.0
 11
4417.08086737551
 21
1872.5489168479169
 31
0.0
 11
4416.5550883361557
 21
1872.5849673884354
 31
0.0
 11
4416.1831310149773
 21
1872.593505135354
 31
0.0
 11
4415.8999967216787
 21
1872.6000040770409
 31
0.0
  0
SPLINE
  5
371
100
AcDbEntity
  8
0
  6
CONTINUOUS
 62
           3
100
AcDbSpline
210
0.0
220
0.0
230
1.0
 70
           0
 71
           3
 72
           8
 73
           5
 74
           7
 42
0.00000000001
 43
0.00000000001
 44
0.00000000001
 40
0.0
 40
0.0
 40
0.0
 40
1.2475616964931251
 40
2.225708462242376
 40
2.9354211178796592
 40
2.9354211178796592
 40
2.9354211178796592
 10
4415.8999967216787
 20
1872.6000040770409
 30
0.0
 10
4415.1443400642574
 20
1872.5459088094719
 30
0.0
 10
4414.1668989125874
 20
1872.475936633469
 30
0.0
 10
4413.2266017037664
 20
1872.21306311116
 30
0.0
 10
4413.0132452878479
 20
1872.153416276062
 30
0.0
 11
4415.8999967216787
 21
1872.6000040770409
 31
0.0
 11
4415.1962845668077
 21
1872.5496273656927
 31
0.0
 11
4414.5964614170371
 21
1872.5066877667869
 31
0.0
 11
4414.1380594916354
 21
1872.445539360308
 31
0.0
 11
4413.6219787243317
 21
1872.3235964075061
 31
0.0
 11
4413.2721068549272
 21
1872.2257847264718
 31
0.0
 11
4413.0132452878479
 21
1872.153416276062
 31
0.0
  0
SPLINE
  5
370
100
AcDbEntity
  8
0
  6
CONTINUOUS
 62
           3
100
AcDbSpline
210
0.0
220
0.0
230
1.0
 70
           0
 71
           3
 72
           8
 73
           5
 74
           7
 42
0.00000000001
 43
0.00000000001
 44
0.00000000001
 40
0.0
 40
0.0
 40
0.0
 40
0.2779452695546022
 40
0.7862805426575715
 40
1.5429573554978033
 40
1.5429573554978033
 40
1.5429573554978033
 10
4411.5698696873496
 20
1872.6000040770409
 30
0.0
 10
4411.6040862308773
 20
1872.6004497818089
 30
0.0
 10
4412.0914965280872
 20
1872.6067987893659
 30
0.0
 10
4412.5691362283678
 20
1872.834686833085
 30
0.0
 10
4413.0132452878479
 20
1873.04657697686
 30
0.0
 11
4411.5698696873496
 21
1872.6000040770409
 31
0.0
 11
4411.6386062202891
 21
1872.6008994392635
 31
0.0
 11
4411.7763827320523
 21
1872.6026941163959
 31
0.0
 11
4412.0607020292282
 21
1872.6286663808407
 31
0.0
 11
4412.2834323286888
 21
1872.6983738282354
 31
0.0
 11
4412.6087375183188
 21
1872.8535811178165
 31
0.0
 11
4413.0132452878479
 21
1873.04657697686
 31
0.0
  0
SPLINE
  5
36F
100
AcDbEntity
  8
0
  6
CONTINUOUS
 62
           3
100
AcDbSpline
210
0.0
220
0.0
230
1.0
 70
           0
 71
           3
 72
           8
 73
           5
 74
           7
 42
0.00000000001
 43
0.00000000001
 44
0.00000000001
 40
0.0
 40
0.0
 40
0.0
 40
0.2779463803328208
 40
0.786283086339877
 40
1.5429609982605341
 40
1.5429609982605341
 40
1.5429609982605341
 10
4411.5698696873496
 20
1877.5999993086659
 30
0.0
 10
4411.5356531385087
 20
1877.599553607037
 30
0.0
 10
4411.0482406298788
 20
1877.593204616358
 30
0.0
 10
4410.5706020337657
 20
1877.3653127377879
 30
0.0
 10
4410.1264938539771
 20
1877.1534189582039
 30
0.0
 11
4411.5698696873496
 21
1877.5999993086659
 31
0.0
 11
4411.5011329222016
 21
1877.599103949862
 31
0.0
 11
4411.3633557244393
 21
1877.5973092767078
 31
0.0
 11
4411.0790355250783
 21
1877.5713366177663
 31
0.0
 11
4410.8563051161154
 21
1877.5016279616409
 31
0.0
 11
4410.5310007594062
 21
1877.3464180988553
 31
0.0
 11
4410.1264938539771
 21
1877.1534189582039
 31
0.0
  0
SPLINE
  5
36E
100
AcDbEntity
  8
0
  6
CONTINUOUS
 62
           3
100
AcDbSpline
210
0.0
220
0.0
230
1.0
 70
           0
 71
           3
 72
           8
 73
           5
 74
           7
 42
0.00000000001
 43
0.00000000001
 44
0.00000000001
 40
0.0
 40
0.0
 40
0.0
 40
0.2779462752406933
 40
0.7862820883286931
 40
1.5429577306520583
 40
1.5429577306520583
 40
1.5429577306520583
 10
4420.2301237560077
 20
1872.6000040770409
 30
0.0
 10
4420.2643403043267
 20
1872.6004497849281
 30
0.0
 10
4420.7517526025094
 20
1872.606798862053
 30
0.0
 10
4421.2293913151689
 20
1872.8346868352339
 30
0.0
 10
4421.6734995893694
 20
1873.046576976911
 30
0.0
 11
4420.2301237560077
 21
1872.6000040770409
 31
0.0
 11
4420.2988605405535
 21
1872.6008994486781
 31
0.0
 11
4420.4366377975512
 21
1872.6026941478153
 31
0.0
 11
4420.7209578270922
 21
1872.6286664718552
 31
0.0
 11
4420.9436883057979
 21
1872.6983740154988
 31
0.0
 11
4421.268992631376
 21
1872.8535811657191
 31
0.0
 11
4421.6734995893694
 21
1873.046576976911
 31
0.0
  0
SPLINE
  5
36D
100
AcDbEntity
  8
0
  6
CONTINUOUS
 62
           3
100
AcDbSpline
210
0.0
220
0.0
230
1.0
 70
           0
 71
           3
 72
           8
 73
           5
 74
           7
 42
0.00000000001
 43
0.00000000001
 44
0.00000000001
 40
0.0
 40
0.0
 40
0.0
 40
0.2779453746517701
 40
0.7862815406658656
 40
1.5429606230904371
 40
1.5429606230904371
 40
1.5429606230904371
 10
4420.2301237560077
 20
1877.5999993086659
 30
0.0
 10
4420.1959072119544
 20
1877.5995536101509
 30
0.0
 10
4419.7084967042947
 20
1877.593204689045
 30
0.0
 10
4419.2308571205776
 20
1877.365312739938
 30
0.0
 10
4418.7867481555058
 20
1877.1534189582669
 30
0.0
 11
4420.2301237560077
 21
1877.5999993086659
 31
0.0
 11
4420.1613872424614
 21
1877.5991039592732
 31
0.0
 11
4420.02361078993
 21
1877.5973093081241
 31
0.0
 11
4419.739291322936
 21
1877.5713367087801
 31
0.0
 11
4419.5165610932236
 21
1877.5016281489065
 31
0.0
 11
4419.1912558724707
 21
1877.3464181467621
 31
0.0
 11
4418.7867481555058
 21
1877.1534189582669
 31
0.0
  0
SPLINE
  5
36C
100
AcDbEntity
  8
0
  6
CONTINUOUS
 62
           3
100
AcDbSpline
210
0.0
220
0.0
230
1.0
 70
           0
 71
           3
 72
           8
 73
           5
 74
           7
 42
0.00000000001
 43
0.00000000001
 44
0.00000000001
 40
0.0
 40
0.0
 40
0.0
 40
0.7097104926820577
 40
1.6878550560193406
 40
2.935414201174956
 40
2.935414201174956
 40
2.935414201174956
 10
4413.0132452878479
 20
1873.04657697686
 30
0.0
 10
4413.226601848959
 20
1872.9869356693489
 30
0.0
 10
4414.1669038516566
 20
1872.7240853468579
 30
0.0
 10
4415.1443416651764
 20
1872.654105412621
 30
0.0
 10
4415.8999967216787
 20
1872.6000040770409
 30
0.0
 11
4413.0132452878479
 21
1873.04657697686
 31
0.0
 11
4413.2721074221572
 21
1872.9742151236569
 31
0.0
 11
4413.6219807028629
 21
1872.8764121790698
 31
0.0
 11
4414.1380633113768
 21
1872.7544784200809
 31
0.0
 11
4414.5964648393328
 21
1872.6933308075386
 31
0.0
 11
4415.1962862228411
 21
1872.6503864274555
 31
0.0
 11
4415.8999967216787
 21
1872.6000040770409
 31
0.0
  0
SPLINE
  5
36B
100
AcDbEntity
  8
0
  6
CONTINUOUS
 62
           3
100
AcDbSpline
210
0.0
220
0.0
230
1.0
 70
           0
 71
           3
 72
           8
 73
           5
 74
           7
 42
0.00000000001
 43
0.00000000001
 44
0.00000000001
 40
0.0
 40
0.0
 40
0.0
 40
0.7273675739554827
 40
1.7065896374626464
 40
2.9387184666011046
 40
2.9387184666011046
 40
2.9387184666011046
 10
4415.8999967216787
 20
1872.6000040770409
 30
0.0
 10
4416.1387194651597
 20
1872.605483801264
 30
0.0
 10
4417.1156260260968
 20
1872.6279080515189
 30
0.0
 10
4418.0674885010567
 20
1872.8663796942849
 30
0.0
 10
4418.7867481553667
 20
1873.046576976911
 30
0.0
 11
4415.8999967216787
 21
1872.6000040770409
 31
0.0
 11
4416.1831309024938
 21
1872.6065032367185
 31
0.0
 11
4416.5550879579787
 21
1872.6150412673048
 31
0.0
 11
4417.0808665470131
 21
1872.6510911338646
 31
0.0
 11
4417.5371261778837
 21
1872.7335071651169
 31
0.0
 11
4418.1147128338407
 21
1872.8782108826495
 31
0.0
 11
4418.7867481553667
 21
1873.046576976911
 31
0.0
  0
SPLINE
  5
36A
100
AcDbEntity
  8
0
  6
CONTINUOUS
 62
           3
100
AcDbSpline
210
0.0
220
0.0
230
1.0
 70
           0
 71
           3
 72
           8
 73
           5
 74
           7
 42
0.00000000001
 43
0.00000000001
 44
0.00000000001
 40
0.0
 40
0.0
 40
0.0
 40
1.2321298483013359
 40
2.2113525386978328
 40
2.9387203954173864
 40
2.9387203954173864
 40
2.9387203954173864
 10
4418.7867481555058
 20
1877.1534189582669
 30
0.0
 10
4418.0674886786483
 20
1877.333619661815
 30
0.0
 10
4417.1156265865366
 20
1877.572095794832
 30
0.0
 10
4416.1387194830959
 20
1877.5945196770219
 30
0.0
 10
4415.8999967216787
 20
1877.5999993086659
 30
0.0
 11
4418.7867481555058
 21
1877.1534189582669
 31
0.0
 11
4418.1147130094214
 21
1877.3217882464442
 31
0.0
 11
4417.5371265248832
 21
1877.4664947038791
 31
0.0
 11
4417.0808669612552
 21
1877.5489121656942
 31
0.0
 11
4416.5550881470645
 21
1877.5849623692334
 31
0.0
 11
4416.1831309587342
 21
1877.5935002579859
 31
0.0
 11
4415.8999967216787
 21
1877.5999993086659
 31
0.0
  0
SPLINE
  5
369
100
AcDbEntity
  8
0
  6
CONTINUOUS
 62
           3
100
AcDbSpline
210
0.0
220
0.0
230
1.0
 70
           0
 71
           3
 72
           8
 73
           5
 74
           7
 42
0.00000000001
 43
0.00000000001
 44
0.00000000001
 40
0.0
 40
0.0
 40
0.0
 40
1.247560420786697
 40
2.2257060852955828
 40
2.9354176594305246
 40
2.9354176594305246
 40
2.9354176594305246
 10
4415.8999967216787
 20
1877.5999993086659
 30
0.0
 10
4415.1443408647256
 20
1877.5459010071049
 30
0.0
 10
4414.1669013821647
 20
1877.4759249520059
 30
0.0
 10
4413.2266017763668
 20
1877.2130630295719
 30
0.0
 10
4413.0132452878479
 20
1877.1534189582669
 30
0.0
 11
4415.8999967216787
 21
1877.5999993086659
 31
0.0
 11
4415.1962853948353
 21
1877.5496197777979
 31
0.0
 11
4414.5964631282113
 21
1877.5066777883155
 31
0.0
 11
4414.1380614015397
 21
1877.4455297788063
 31
0.0
 11
4413.6219797136182
 21
1877.3235914228981
 31
0.0
 11
4413.2721071385495
 21
1877.2257841100773
 31
0.0
 11
4413.0132452878479
 21
1877.1534189582669
 31
0.0
  0
SPLINE
  5
368
100
AcDbEntity
  8
0
  6
CONTINUOUS
 62
           3
100
AcDbSpline
210
0.0
220
0.0
230
1.0
 70
           0
 71
           3
 72
           8
 73
           5
 74
           7
 42
0.00000000001
 43
0.00000000001
 44
0.00000000001
 40
0.0
 40
0.0
 40
0.0
 40
0.2779454797466382
 40
0.7862825386909735
 40
1.5429638907222507
 40
1.5429638907222507
 40
1.5429638907222507
 10
4411.5698696873496
 20
1859.9999994040479
 30
0.0
 10
4411.6040862319269
 20
1860.0004450963061
 30
0.0
 10
4412.0914969500354
 20
1860.0067939309631
 30
0.0
 10
4412.5691364171998
 20
1860.23468978547
 30
0.0
 10
4413.0132452878479
 20
1860.4465872050239
 30
0.0
 11
4411.5698696873496
 21
1859.9999994040479
 31
0.0
 11
4411.6386061814992
 21
1860.0008947406086
 31
0.0
 11
4411.7763825747961
 21
1860.0026893657737
 31
0.0
 11
4412.0607022116119
 21
1860.0286623000184
 31
0.0
 11
4412.2834323715815
 21
1860.0983719723738
 31
0.0
 11
4412.6087376234573
 21
1860.2535846870846
 31
0.0
 11
4413.0132452878479
 21
1860.4465872050239
 31
0.0
  0
SPLINE
  5
367
100
AcDbEntity
  8
0
  6
CONTINUOUS
 62
           3
100
AcDbSpline
210
0.0
220
0.0
230
1.0
 70
           0
 71
           3
 72
           8
 73
           5
 74
           7
 42
0.00000000001
 43
0.00000000001
 44
0.00000000001
 40
0.0
 40
0.0
 40
0.0
 40
0.2779462752374747
 40
0.7862820883292148
 40
1.542957730614025
 40
1.542957730614025
 40
1.542957730614025
 10
4411.5698696873496
 20
1864.9999946356729
 30
0.0
 10
4411.5356531390362
 20
1864.9995489277901
 30
0.0
 10
4411.0482408408488
 20
1864.993199850662
 30
0.0
 10
4410.5706021281858
 20
1864.765311877482
 30
0.0
 10
4410.1264938539771
 20
1864.553421735915
 30
0.0
 11
4411.5698696873496
 21
1864.9999946356729
 31
0.0
 11
4411.5011329028084
 21
1864.9990992640387
 31
0.0
 11
4411.3633556458117
 21
1864.9973045649015
 31
0.0
 11
4411.0790356162661
 21
1864.97133224086
 31
0.0
 11
4410.8563051375522
 21
1864.9016246972133
 31
0.0
 11
4410.5310008119759
 21
1864.7464175470232
 31
0.0
 11
4410.1264938539771
 21
1864.553421735915
 31
0.0
  0
SPLINE
  5
366
100
AcDbEntity
  8
0
  6
CONTINUOUS
 62
           3
100
AcDbSpline
210
0.0
220
0.0
230
1.0
 70
           0
 71
           3
 72
           8
 73
           5
 74
           7
 42
0.00000000001
 43
0.00000000001
 44
0.00000000001
 40
0.0
 40
0.0
 40
0.0
 40
0.2779464854698445
 40
0.7862840844059157
 40
1.5429642659466123
 40
1.5429642659466123
 40
1.5429642659466123
 10
4420.2301237559677
 20
1859.999999403921
 30
0.0
 10
4420.264340305368
 20
1860.000445099424
 30
0.0
 10
4420.7517530244568
 20
1860.006794003652
 30
0.0
 10
4421.2293915040036
 20
1860.2346897876159
 30
0.0
 10
4421.6734995893694
 20
1860.446587205121
 30
0.0
 11
4420.2301237559677
 21
1859.999999403921
 31
0.0
 11
4420.2988605017517
 21
1860.0008947499907
 31
0.0
 11
4420.4366376403013
 21
1860.0026893971933
 31
0.0
 11
4420.7209580094759
 21
1860.0286623910345
 31
0.0
 11
4420.9436883486869
 21
1860.0983721596399
 31
0.0
 11
4421.2689927365154
 21
1860.2535847349977
 31
0.0
 11
4421.6734995893694
 21
1860.446587205121
 31
0.0
  0
SPLINE
  5
365
100
AcDbEntity
  8
0
  6
CONTINUOUS
 62
           3
100
AcDbSpline
210
0.0
220
0.0
230
1.0
 70
           0
 71
           3
 72
           8
 73
           5
 74
           7
 42
0.00000000001
 43
0.00000000001
 44
0.00000000001
 40
0.0
 40
0.0
 40
0.0
 40
0.2779452695527626
 40
0.7862805426557556
 40
1.5429573555005023
 40
1.5429573555005023
 40
1.5429573555005023
 10
4420.2301237560077
 20
1864.9999946356729
 30
0.0
 10
4420.1959072124782
 20
1864.999548930904
 30
0.0
 10
4419.7084969152756
 20
1864.993199923352
 30
0.0
 10
4419.2308572149868
 20
1864.7653118796329
 30
0.0
 10
4418.7867481555058
 20
1864.5534217358579
 30
0.0
 11
4420.2301237560077
 21
1864.9999946356729
 31
0.0
 11
4420.1613872230682
 21
1864.9990992734502
 31
0.0
 11
4420.0236107113069
 21
1864.9973045963188
 31
0.0
 11
4419.7392914141328
 21
1864.9713323318763
 31
0.0
 11
4419.5165611146713
 21
1864.9016248844828
 31
0.0
 11
4419.1912559250377
 21
1864.7464175949015
 31
0.0
 11
4418.7867481555058
 21
1864.5534217358579
 31
0.0
  0
SPLINE
  5
364
100
AcDbEntity
  8
0
  6
CONTINUOUS
 62
           3
100
AcDbSpline
210
0.0
220
0.0
230
1.0
 70
           0
 71
           3
 72
           8
 73
           5
 74
           7
 42
0.00000000001
 43
0.00000000001
 44
0.00000000001
 40
0.0
 40
0.0
 40
0.0
 40
0.7097126556365796
 40
1.6878594213857179
 40
2.935421117878819
 40
2.935421117878819
 40
2.935421117878819
 10
4413.0132452878479
 20
1860.4465872050239
 30
0.0
 10
4413.2266017037664
 20
1860.386940369928
 30
0.0
 10
4414.1668989125874
 20
1860.12406684762
 30
0.0
 10
4415.1443400642574
 20
1860.054094671616
 30
0.0
 10
4415.8999967216787
 20
1859.9999994040479
 30
0.0
 11
4413.0132452878479
 21
1860.4465872050239
 31
0.0
 11
4413.2721068549281
 21
1860.3742187546156
 31
0.0
 11
4413.6219787243317
 21
1860.2764070735825
 31
0.0
 11
4414.1380594916345
 21
1860.1544641207809
 31
0.0
 11
4414.5964614170371
 21
1860.0933157143013
 31
0.0
 11
4415.1962845668077
 21
1860.0503761153952
 31
0.0
 11
4415.8999967216787
 21
1859.9999994040479
 31
0.0
  0
SPLINE
  5
363
100
AcDbEntity
  8
0
  6
CONTINUOUS
 62
           3
100
AcDbSpline
210
0.0
220
0.0
230
1.0
 70
           0
 71
           3
 72
           8
 73
           5
 74
           7
 42
0.00000000001
 43
0.00000000001
 44
0.00000000001
 40
0.0
 40
0.0
 40
0.0
 40
0.7273681394906273
 40
1.7065914567885585
 40
2.9387223240341238
 40
2.9387223240341238
 40
2.9387223240341238
 10
4415.8999967216787
 20
1859.9999994040479
 30
0.0
 10
4416.1387195010366
 20
1860.005478943116
 30
0.0
 10
4417.1156271469854
 20
1860.027902457241
 30
0.0
 10
4418.067488856248
 20
1860.26638308051
 30
0.0
 10
4418.7867481553667
 20
1860.446587205121
 30
0.0
 11
4415.8999967216787
 21
1859.9999994040479
 31
0.0
 11
4416.1831310149764
 21
1860.0064983457328
 31
0.0
 11
4416.5550883361557
 21
1860.0150360926523
 31
0.0
 11
4417.0808673755155
 21
1860.0510866331736
 31
0.0
 11
4417.5371268719355
 21
1860.1335055255604
 31
0.0
 11
4418.1147131849502
 21
1860.2782147229254
 31
0.0
 11
4418.7867481553667
 21
1860.446587205121
 31
0.0
  0
SPLINE
  5
362
100
AcDbEntity
  8
0
  6
CONTINUOUS
 62
           3
100
AcDbSpline
210
0.0
220
0.0
230
1.0
 70
           0
 71
           3
 72
           8
 73
           5
 74
           7
 42
0.00000000001
 43
0.00000000001
 44
0.00000000001
 40
0.0
 40
0.0
 40
0.0
 40
1.2321288292603156
 40
2.2113508927677517
 40
2.9387184667231638
 40
2.9387184667231638
 40
2.9387184667231638
 10
4418.7867481555058
 20
1864.5534217358579
 30
0.0
 10
4418.0674885010567
 20
1864.733619018429
 30
0.0
 10
4417.1156260260968
 20
1864.9720906611969
 30
0.0
 10
4416.1387194651597
 20
1864.994514911454
 30
0.0
 10
4415.8999967216787
 20
1864.9999946356729
 30
0.0
 11
4418.7867481555058
 21
1864.5534217358579
 31
0.0
 11
4418.1147128338698
 21
1864.7217878300798
 31
0.0
 11
4417.5371261778619
 21
1864.8664915476043
 31
0.0
 11
4417.0808665470076
 21
1864.9489075788524
 31
0.0
 11
4416.5550879579787
 21
1864.9849574454122
 31
0.0
 11
4416.1831309024947
 21
1864.9934954759983
 31
0.0
 11
4415.8999967216787
 21
1864.9999946356729
 31
0.0
  0
SPLINE
  5
361
100
AcDbEntity
  8
0
  6
CONTINUOUS
 62
           3
100
AcDbSpline
210
0.0
220
0.0
230
1.0
 70
           0
 71
           3
 72
           8
 73
           5
 74
           7
 42
0.00000000001
 43
0.00000000001
 44
0.00000000001
 40
0.0
 40
0.0
 40
0.0
 40
1.2475591451556076
 40
2.2257037084929703
 40
2.9354142011740789
 40
2.9354142011740789
 40
2.9354142011740789
 10
4415.8999967216787
 20
1864.9999946356729
 30
0.0
 10
4415.1443416651764
 20
1864.9458933000919
 30
0.0
 10
4414.1669038516566
 20
1864.8759133658571
 30
0.0
 10
4413.226601848959
 20
1864.6130630433649
 30
0.0
 10
4413.0132452878479
 20
1864.5534217358579
 30
0.0
 11
4415.8999967216787
 21
1864.9999946356729
 31
0.0
 11
4415.1962862228411
 21
1864.9496122852581
 31
0.0
 11
4414.5964648393328
 21
1864.9066679051757
 31
0.0
 11
4414.1380633113777
 21
1864.8455202926339
 31
0.0
 11
4413.6219807028629
 21
1864.7235865336445
 31
0.0
 11
4413.2721074221572
 21
1864.6257835890581
 31
0.0
 11
4413.0132452878479
 21
1864.5534217358579
 31
0.0
  0
SPLINE
  5
360
100
AcDbEntity
  8
0
  6
CONTINUOUS
 62
           3
100
AcDbSpline
210
0.0
220
0.0
230
1.0
 70
           0
 71
           3
 72
           8
 73
           5
 74
           7
 42
0.00000000001
 43
0.00000000001
 44
0.00000000001
 40
0.0
 40
0.0
 40
0.0
 40
0.2779464854665173
 40
0.7862840844026227
 40
1.5429642659230514
 40
1.5429642659230514
 40
1.5429642659230514
 10
4420.2301237559677
 20
1859.999999403921
 30
0.0
 10
4420.264340305368
 20
1859.9995537086761
 30
0.0
 10
4420.7517530244568
 20
1859.9932048044429
 30
0.0
 10
4421.2293915040036
 20
1859.765309020479
 30
0.0
 10
4421.6734995893694
 20
1859.553411603021
 30
0.0
 11
4420.2301237559677
 21
1859.999999403921
 31
0.0
 11
4420.2988605017508
 21
1859.9991040580446
 31
0.0
 11
4420.4366376403004
 21
1859.9973094109048
 31
0.0
 11
4420.7209580094759
 21
1859.9713364170614
 31
0.0
 11
4420.9436883486896
 21
1859.9016266484537
 31
0.0
 11
4421.2689927365163
 21
1859.7464140731081
 31
0.0
 11
4421.6734995893694
 21
1859.553411603021
 31
0.0
  0
SPLINE
  5
35F
100
AcDbEntity
  8
0
  6
CONTINUOUS
 62
           3
100
AcDbSpline
210
0.0
220
0.0
230
1.0
 70
           0
 71
           3
 72
           8
 73
           5
 74
           7
 42
0.00000000001
 43
0.00000000001
 44
0.00000000001
 40
0.0
 40
0.0
 40
0.0
 40
0.3778155284983235
 40
0.8942062233972833
 40
1.535751417466614
 40
1.535751417466614
 40
1.535751417466614
 10
4410.1264938539771
 20
1859.553411603021
 30
0.0
 10
4410.2210118970379
 20
1859.6064716909059
 30
0.0
 10
4410.690881794907
 20
1859.870245011374
 30
0.0
 10
4411.1795227343073
 20
1859.942377186198
 30
0.0
 10
4411.5698696873496
 20
1859.9999994040479
 30
0.0
 11
4410.1264938539771
 21
1859.553411603021
 31
0.0
 11
4410.24701415441
 21
1859.6210687140278
 31
0.0
 11
4410.4195389695897
 21
1859.7179198712797
 31
0.0
 11
4410.6775244143337
 21
1859.8402057052367
 31
0.0
 11
4410.9087950979283
 21
1859.9024129269183
 31
0.0
 11
4411.2094275634736
 21
1859.9467916758406
 31
0.0
 11
4411.5698696873496
 21
1859.9999994040479
 31
0.0
  0
SPLINE
  5
35E
100
AcDbEntity
  8
0
  6
CONTINUOUS
 62
           3
100
AcDbSpline
210
0.0
220
0.0
230
1.0
 70
           0
 71
           3
 72
           8
 73
           5
 74
           7
 42
0.00000000001
 43
0.00000000001
 44
0.00000000001
 40
0.0
 40
0.0
 40
0.0
 40
0.6415450374770628
 40
1.1579303686104754
 40
1.5357381749056489
 40
1.5357381749056489
 40
1.5357381749056489
 10
4411.5698696873496
 20
1855.0000041724199
 30
0.0
 10
4411.1795237086162
 20
1855.0576336938759
 30
0.0
 10
4410.6908846293636
 20
1855.129774916883
 30
0.0
 10
4410.2210119621177
 20
1855.3935224482559
 30
0.0
 10
4410.1264938539771
 20
1855.4465770722229
 30
0.0
 11
4411.5698696873496
 21
1855.0000041724199
 31
0.0
 11
4411.2094282457074
 21
1855.0532186767991
 31
0.0
 11
4410.9087958782475
 21
1855.0976031470245
 31
0.0
 11
4410.6775260473232
 21
1855.1598096979612
 31
0.0
 11
4410.4195390523173
 21
1855.2820858110542
 31
0.0
 11
4410.2470142076327
 21
1855.3789269449469
 31
0.0
 11
4410.1264938539771
 21
1855.4465770722229
 31
0.0
  0
SPLINE
  5
35D
100
AcDbEntity
  8
0
  6
CONTINUOUS
 62
           3
100
AcDbSpline
210
0.0
220
0.0
230
1.0
 70
           0
 71
           3
 72
           8
 73
           5
 74
           7
 42
0.00000000001
 43
0.00000000001
 44
0.00000000001
 40
0.0
 40
0.0
 40
0.0
 40
0.3539460334951224
 40
0.8643414136598189
 40
1.5431068114000444
 40
1.5431068114000444
 40
1.5431068114000444
 10
4411.5698696873496
 20
1859.9999994040479
 30
0.0
 10
4411.679323842427
 20
1859.9953935078299
 30
0.0
 10
4412.1676816710478
 20
1859.97484311874
 30
0.0
 10
4412.6438213484498
 20
1859.7375336343539
 30
0.0
 10
4413.0132452879743
 20
1859.553411603021
 30
0.0
 11
4411.5698696873496
 21
1859.9999994040479
 31
0.0
 11
4411.7019556855848
 21
1859.9944411463539
 31
0.0
 11
4411.8793053701374
 21
1859.9869781657089
 31
0.0
 11
4412.146678141391
 21
1859.9524131949254
 31
0.0
 11
4412.3720438533319
 21
1859.8729883765131
 31
0.0
 11
4412.6682329595515
 21
1859.7253668120607
 31
0.0
 11
4413.0132452879743
 21
1859.553411603021
 31
0.0
  0
SPLINE
  5
35C
100
AcDbEntity
  8
0
  6
CONTINUOUS
 62
           3
100
AcDbSpline
210
0.0
220
0.0
230
1.0
 70
           0
 71
           3
 72
           8
 73
           5
 74
           7
 42
0.00000000001
 43
0.00000000001
 44
0.00000000001
 40
0.0
 40
0.0
 40
0.0
 40
0.6787700534938047
 40
1.1891668948827512
 40
1.5431123743459971
 40
1.5431123743459971
 40
1.5431123743459971
 10
4413.0132452878479
 20
1855.446577072242
 30
0.0
 10
4412.6438214744066
 20
1855.2624483716049
 30
0.0
 10
4412.1676820506264
 20
1855.0251303367841
 30
0.0
 10
4411.6793238525888
 20
1855.0046045512611
 30
0.0
 10
4411.5698696873496
 20
1855.0000041724199
 30
0.0
 11
4413.0132452878479
 21
1855.446577072242
 31
0.0
 11
4412.6682329736414
 21
1855.2746155830059
 31
0.0
 11
4412.3720436579024
 21
1855.1269885165723
 31
0.0
 11
4412.1466781919507
 21
1855.0475647466087
 31
0.0
 11
4411.879305008647
 21
1855.0130097962931
 31
0.0
 11
4411.7019556002942
 21
1855.0055557678086
 31
0.0
 11
4411.5698696873496
 21
1855.0000041724199
 31
0.0
  0
SPLINE
  5
35B
100
AcDbEntity
  8
0
  6
CONTINUOUS
 62
           3
100
AcDbSpline
210
0.0
220
0.0
230
1.0
 70
           0
 71
           3
 72
           8
 73
           5
 74
           7
 42
0.00000000001
 43
0.00000000001
 44
0.00000000001
 40
0.0
 40
0.0
 40
0.0
 40
0.2779452695527848
 40
0.7862805426566293
 40
1.5429573556195739
 40
1.5429573556195739
 40
1.5429573556195739
 10
4420.2301237560077
 20
1855.0000041724199
 30
0.0
 10
4420.1959072124782
 20
1855.0004498771891
 30
0.0
 10
4419.7084969152756
 20
1855.0067988847441
 30
0.0
 10
4419.2308572149868
 20
1855.234686928467
 30
0.0
 10
4418.7867481553667
 20
1855.4465770722229
 30
0.0
 11
4420.2301237560077
 21
1855.0000041724199
 31
0.0
 11
4420.1613872230682
 21
1855.0008995346432
 31
0.0
 11
4420.0236107113069
 21
1855.0026942117752
 31
0.0
 11
4419.7392914141374
 21
1855.0286664762175
 31
0.0
 11
4419.5165611146886
 21
1855.0983739236067
 31
0.0
 11
4419.1912559250068
 21
1855.2535812131907
 31
0.0
 11
4418.7867481553667
 21
1855.4465770722229
 31
0.0
  0
SPLINE
  5
35A
100
AcDbEntity
  8
0
  6
CONTINUOUS
 62
           3
100
AcDbSpline
210
0.0
220
0.0
230
1.0
 70
           0
 71
           3
 72
           8
 73
           5
 74
           7
 42
0.00000000001
 43
0.00000000001
 44
0.00000000001
 40
0.0
 40
0.0
 40
0.0
 40
0.5558558490687616
 40
1.534319542204817
 40
2.9385037456639185
 40
2.9385037456639185
 40
2.9385037456639185
 10
4415.8999967216787
 20
1855.000004172322
 30
0.0
 10
4415.8315636362959
 20
1855.0004498783021
 30
0.0
 10
4414.8567416872447
 20
1855.0067989106669
 30
0.0
 10
4413.9014629162684
 20
1855.234686929231
 30
0.0
 10
4413.0132452878479
 20
1855.446577072242
 30
0.0
 11
4415.8999967216787
 21
1855.000004172322
 31
0.0
 11
4415.7603818762509
 21
1855.0009134863224
 31
0.0
 11
4415.4784035107314
 21
1855.0027500163624
 31
0.0
 11
4414.9140828960199
 21
1855.0291829422179
 31
0.0
 11
4414.4644446988568
 21
1855.1003839311747
 31
0.0
 11
4413.8201539548099
 21
1855.2540837154697
 31
0.0
 11
4413.0132452878479
 21
1855.446577072242
 31
0.0
  0
SPLINE
  5
359
100
AcDbEntity
  8
0
  6
CONTINUOUS
 62
           3
100
AcDbSpline
210
0.0
220
0.0
230
1.0
 70
           0
 71
           3
 72
           8
 73
           5
 74
           7
 42
0.00000000001
 43
0.00000000001
 44
0.00000000001
 40
0.0
 40
0.0
 40
0.0
 40
0.5558562714156194
 40
1.5343210643712788
 40
2.9385072682926525
 40
2.9385072682926525
 40
2.9385072682926525
 10
4415.8999967216787
 20
1859.9999994040479
 30
0.0
 10
4415.9684298091479
 20
1859.999553710677
 30
0.0
 10
4416.9432526000282
 20
1859.993204851213
 30
0.0
 10
4417.8985309047466
 20
1859.765309021863
 30
0.0
 10
4418.7867481555058
 20
1859.553411603069
 30
0.0
 11
4415.8999967216787
 21
1859.9999994040479
 31
0.0
 11
4416.0396116244101
 21
1859.9990901152978
 31
0.0
 11
4416.3215901576641
 21
1859.9972536357895
 31
0.0
 11
4416.8859111712909
 21
1859.9708199944769
 31
0.0
 11
4417.3355493274412
 21
1859.8996166396903
 31
0.0
 11
4417.9798398231105
 21
1859.7459115716213
 31
0.0
 11
4418.7867481555058
 21
1859.553411603069
 31
0.0
  0
CIRCLE
  5
358
100
AcDbEntity
  8
1
  6
CONTINUOUS
 62
           7
100
AcDbCircle
 10
0.0
 20
5797.804440282098
 40
399.999999999999
  0
CIRCLE
  5
357
100
AcDbEntity
  8
1
  6
CONTINUOUS
 62
           4
100
AcDbCircle
 10
0.0
 20
5797.804440282098
 40
125.0
  0
CIRCLE
  5
356
100
AcDbEntity
  8
1
  6
CONTINUOUS
 62
           4
100
AcDbCircle
 10
0.0
 20
5797.804440282098
 40
100.947599999999
  0
CIRCLE
  5
355
100
AcDbEntity
  8
1
  6
CONTINUOUS
 62
           3
100
AcDbCircle
 10
-491.527744678116
 20
1295.200848327049
 40
40.0
  0
CIRCLE
  5
354
100
AcDbEntity
  8
1
  6
CONTINUOUS
 62
           7
100
AcDbCircle
 10
4799.999999999999
 20
600.0
 40
15.0
  0
CIRCLE
  5
353
100
AcDbEntity
  8
1
  6
CONTINUOUS
 62
           2
100
AcDbCircle
 10
4799.999999999999
 20
600.0
 40
8.350000000001
  0
CIRCLE
  5
352
100
AcDbEntity
  8
1
  6
CONTINUOUS
 62
           7
100
AcDbCircle
 10
4799.999999999999
 20
600.0
 40
7.5
  0
ARC
  5
351
100
AcDbEntity
  8
7
  6
CONTINUOUS
 62
           7
100
AcDbCircle
 10
4886.04
 20
3606.133628400002
 40
7.44
100
AcDbArc
 50
122.681914999992
 51
180.0
  0
ARC
  5
350
100
AcDbEntity
  8
7
  6
CONTINUOUS
 62
           7
100
AcDbCircle
 10
4911.480000000001
 20
3632.160000000001
 40
3.84
100
AcDbArc
 50
90.0
 51
180.0
  0
ARC
  5
34F
100
AcDbEntity
  8
7
  6
CONTINUOUS
 62
           7
100
AcDbCircle
 10
4905.239999999999
 20
3632.4493608
 40
2.399999999999
100
AcDbArc
 50
-54.999999999961
 51
0.0
  0
ARC
  5
34E
100
AcDbEntity
  8
7
  6
CONTINUOUS
 62
           7
100
AcDbCircle
 10
5085.52
 20
3632.160000000001
 40
3.839999999997
100
AcDbArc
 50
0.0
 51
90.0
  0
ARC
  5
34D
100
AcDbEntity
  8
7
  6
CONTINUOUS
 62
           7
100
AcDbCircle
 10
5091.759999999999
 20
3632.4493608
 40
2.400000000001
100
AcDbArc
 50
180.0
 51
-125.000000000039
  0
ARC
  5
34C
100
AcDbEntity
  8
7
  6
CONTINUOUS
 62
           7
100
AcDbCircle
 10
5116.507824400002
 20
3612.600000000001
 40
2.399999999999
100
AcDbArc
 50
-125.000000000039
 51
-90.0
  0
ARC
  5
34B
100
AcDbEntity
  8
7
  6
CONTINUOUS
 62
           7
100
AcDbCircle
 10
5117.56
 20
3606.360000000002
 40
3.840000000002
100
AcDbArc
 50
0.0
 51
90.0
  0
ARC
  5
34A
100
AcDbEntity
  8
7
  6
CONTINUOUS
 62
           7
100
AcDbCircle
 10
117.56
 20
3606.360000000002
 40
3.840000000001
100
AcDbArc
 50
0.0
 51
90.0
  0
ARC
  5
349
100
AcDbEntity
  8
7
  6
CONTINUOUS
 62
           7
100
AcDbCircle
 10
116.507824400001
 20
3612.6
 40
2.399999999997
100
AcDbArc
 50
-125.000000000015
 51
-90.0
  0
ARC
  5
348
100
AcDbEntity
  8
7
  6
CONTINUOUS
 62
           7
100
AcDbCircle
 10
91.760000000001
 20
3632.449360799999
 40
2.400000000001
100
AcDbArc
 50
180.0
 51
-125.000000000021
  0
ARC
  5
347
100
AcDbEntity
  8
7
  6
CONTINUOUS
 62
           7
100
AcDbCircle
 10
85.520000000001
 20
3632.16
 40
3.84
100
AcDbArc
 50
0.0
 51
90.0
  0
ARC
  5
346
100
AcDbEntity
  8
7
  6
CONTINUOUS
 62
           7
100
AcDbCircle
 10
-94.759999999999
 20
3632.449360799999
 40
2.399999999999
100
AcDbArc
 50
-54.999999999961
 51
0.0
  0
ARC
  5
345
100
AcDbEntity
  8
7
  6
CONTINUOUS
 62
           7
100
AcDbCircle
 10
-88.52
 20
3632.16
 40
3.84
100
AcDbArc
 50
90.0
 51
180.0
  0
ARC
  5
344
100
AcDbEntity
  8
7
  6
CONTINUOUS
 62
           7
100
AcDbCircle
 10
-113.959999999999
 20
3606.133628400001
 40
7.44
100
AcDbArc
 50
122.681914999996
 51
180.0
  0
ARC
  5
343
100
AcDbEntity
  8
0
  6
CONTINUOUS
 62
           7
100
AcDbCircle
 10
-68.000000000001
 20
5837.804440282098
 40
670.0
100
AcDbArc
 50
-90.0
 51
-65.560184603745
  0
ARC
  5
342
100
AcDbEntity
  8
0
  6
CONTINUOUS
 62
           7
100
AcDbCircle
 10
44.999999999999
 20
5774.804440282098
 40
469.999999999995
100
AcDbArc
 50
73.766596122265
 51
91.7405042324
  0
ARC
  5
341
100
AcDbEntity
  8
0
  6
CONTINUOUS
 62
           7
100
AcDbCircle
 10
-20.000000000001
 20
5727.804440282098
 40
550.000000000001
100
AcDbArc
 50
19.235892312416
 51
32.0167313156
  0
ARC
  5
340
100
AcDbEntity
  8
0
  6
CONTINUOUS
 62
           7
100
AcDbCircle
 10
-68.000000000001
 20
5837.804440282096
 40
669.999999999998
100
AcDbArc
 50
-176.149739729349
 51
-90.0
  0
ARC
  5
33F
100
AcDbEntity
  8
1
  6
CONTINUOUS
 62
           7
100
AcDbCircle
 10
-736.804904288238
 20
5797.804440282098
 40
5.0
100
AcDbArc
 50
-86.36353044751
 51
93.208888116183
  0
ARC
  5
33E
100
AcDbEntity
  8
0
  6
CONTINUOUS
 62
           7
100
AcDbCircle
 10
-68.000000000001
 20
5837.804440282098
 40
670.0
100
AcDbArc
 50
180.0
 51
-177.004902602006
  0
ARC
  5
33D
100
AcDbEntity
  8
1
  6
CONTINUOUS
 62
           7
100
AcDbCircle
 10
500.919408978728
 20
5904.278147528396
 40
4.999999999999
100
AcDbArc
 50
108.975456054166
 51
-71.545416462333
  0
ARC
  5
33C
100
AcDbEntity
  8
0
  6
CONTINUOUS
 62
           7
100
AcDbCircle
 10
-20.000000000001
 20
5727.804440282098
 40
550.000000000001
100
AcDbArc
 50
0.053742830624
 51
18.194147279427
  0
ARC
  5
33B
100
AcDbEntity
  8
0
  6
CONTINUOUS
 62
           7
100
AcDbCircle
 10
-20.000000000001
 20
5727.804440282098
 40
550.000000000001
100
AcDbArc
 50
-65.3714141245
 51
-0.988002202365
  0
ARC
  5
33A
100
AcDbEntity
  8
1
  6
CONTINUOUS
 62
           7
100
AcDbCircle
 10
529.981720683266
 20
5723.320366880264
 40
4.999999999999
100
AcDbArc
 50
89.793306572368
 51
-90.727565944103
  0
ARC
  5
339
100
AcDbEntity
  8
1
  6
CONTINUOUS
 62
           7
100
AcDbCircle
 10
181.182082628214
 20
6224.642678286647
 40
5.000000000001
100
AcDbArc
 50
163.461829900473
 51
-17.147702543125
  0
ARC
  5
338
100
AcDbEntity
  8
0
  6
CONTINUOUS
 62
           7
100
AcDbCircle
 10
44.999999999999
 20
5774.804440282098
 40
469.999999999995
100
AcDbArc
 50
31.359627184827
 51
72.547531235072
  0
ARC
  5
337
100
AcDbEntity
  8
1
  6
CONTINUOUS
 62
           7
100
AcDbCircle
 10
0.0
 20
5797.804440282098
 40
150.000000000001
100
AcDbArc
 50
23.882765003116
 51
-89.999999999999
  0
ARC
  5
336
100
AcDbEntity
  8
1
  6
CONTINUOUS
 62
           7
100
AcDbCircle
 10
0.0
 20
5797.804440282098
 40
132.839999999999
100
AcDbArc
 50
-75.809724714478
 51
-75.809724714478
  0
ARC
  5
335
100
AcDbEntity
  8
1
  6
CONTINUOUS
 62
           7
100
AcDbCircle
 10
0.0
 20
5797.804440282098
 40
150.0
100
AcDbArc
 50
-89.999999999999
 51
-23.882765003116
  0
ARC
  5
334
100
AcDbEntity
  8
1
  6
CONTINUOUS
 62
           3
100
AcDbCircle
 10
4920.163567691046
 20
1925.0
 40
9.499999999999
100
AcDbArc
 50
-169.797812779176
 51
-45.000000000003
  0
ARC
  5
333
100
AcDbEntity
  8
1
  6
CONTINUOUS
 62
           3
100
AcDbCircle
 10
4920.163567691046
 20
1925.0
 40
9.500000000001
100
AcDbArc
 50
-45.000000000003
 51
80.916957371435
  0
ARC
  5
332
100
AcDbEntity
  8
1
  6
CONTINUOUS
 62
           3
100
AcDbCircle
 10
4920.163567691046
 20
1925.0
 40
5.871834995063
100
AcDbArc
 50
-44.999999999994
 51
-6.400286082085
  0
ARC
  5
331
100
AcDbEntity
  8
1
  6
CONTINUOUS
 62
           3
100
AcDbCircle
 10
4920.163567691046
 20
1925.0
 40
5.871834995068
100
AcDbArc
 50
-6.400286082085
 51
44.999999999995
  0
ARC
  5
330
100
AcDbEntity
  8
1
  6
CONTINUOUS
 62
           3
100
AcDbCircle
 10
4920.163567691046
 20
1925.0
 40
5.871834995065
100
AcDbArc
 50
-134.999999999986
 51
-44.999999999994
  0
ARC
  5
32F
100
AcDbEntity
  8
0
  6
CONTINUOUS
 62
           3
100
AcDbCircle
 10
4478.399996721518
 20
1868.000000000113
 40
2.5
100
AcDbArc
 50
0.0
 51
180.0
  0
ARC
  5
32E
100
AcDbEntity
  8
0
  6
CONTINUOUS
 62
           3
100
AcDbCircle
 10
4478.399996721518
 20
2131.999999999898
 40
2.499999999992
100
AcDbArc
 50
180.0
 51
0.0
  0
ARC
  5
32D
100
AcDbEntity
  8
0
  6
CONTINUOUS
 62
           3
100
AcDbCircle
 10
4353.399996721828
 20
2131.999999999898
 40
2.5
100
AcDbArc
 50
180.0
 51
0.0
  0
ARC
  5
32C
100
AcDbEntity
  8
0
  6
CONTINUOUS
 62
           3
100
AcDbCircle
 10
4353.399996721828
 20
1868.000000000113
 40
2.49999999999
100
AcDbArc
 50
0.0
 51
180.0
  0
ARC
  5
32B
100
AcDbEntity
  8
0
  6
CONTINUOUS
 62
           3
100
AcDbCircle
 10
4357.899996721818
 20
2008.999999999996
 40
0.999999999996
100
AcDbArc
 50
-90.0
 51
90.0
  0
ARC
  5
32A
100
AcDbEntity
  8
0
  6
CONTINUOUS
 62
           3
100
AcDbCircle
 10
4357.899996721818
 20
1931.000000000062
 40
1.0
100
AcDbArc
 50
-90.0
 51
90.0
  0
ARC
  5
329
100
AcDbEntity
  8
0
  6
CONTINUOUS
 62
           3
100
AcDbCircle
 10
4357.899996721818
 20
1909.000000000178
 40
0.999999999996
100
AcDbArc
 50
-90.0
 51
90.0
  0
ARC
  5
328
100
AcDbEntity
  8
0
  6
CONTINUOUS
 62
           3
100
AcDbCircle
 10
4473.899996721526
 20
1909.000000000178
 40
1.0
100
AcDbArc
 50
90.0
 51
-90.0
  0
ARC
  5
327
100
AcDbEntity
  8
0
  6
CONTINUOUS
 62
           3
100
AcDbCircle
 10
4473.899996721526
 20
1931.000000000062
 40
0.999999999996
100
AcDbArc
 50
90.0
 51
-90.0
  0
ARC
  5
326
100
AcDbEntity
  8
0
  6
CONTINUOUS
 62
           3
100
AcDbCircle
 10
4473.899996721526
 20
2008.999999999996
 40
1.0
100
AcDbArc
 50
90.0
 51
-90.0
  0
ARC
  5
325
100
AcDbEntity
  8
0
  6
CONTINUOUS
 62
           3
100
AcDbCircle
 10
4473.899996721526
 20
2030.99999999988
 40
1.0
100
AcDbArc
 50
90.0
 51
-90.0
  0
ARC
  5
324
100
AcDbEntity
  8
0
  6
CONTINUOUS
 62
           3
100
AcDbCircle
 10
4357.899996721818
 20
2030.99999999988
 40
0.999999999997
100
AcDbArc
 50
-90.0
 51
90.0
  0
ARC
  5
323
100
AcDbEntity
  8
0
  6
CONTINUOUS
 62
           3
100
AcDbCircle
 10
4422.373499413466
 20
1889.999999999996
 40
0.900000000001
100
AcDbArc
 50
-90.0
 51
-62.733955549507
  0
ARC
  5
322
100
AcDbEntity
  8
0
  6
CONTINUOUS
 62
           3
100
AcDbCircle
 10
4409.426494029875
 20
1889.999999999996
 40
0.9
100
AcDbArc
 50
-117.266044450441
 51
-90.0
  0
ARC
  5
321
100
AcDbEntity
  8
0
  6
CONTINUOUS
 62
           3
100
AcDbCircle
 10
4415.899996721679
 20
1815.000000000058
 40
53.999999999964
100
AcDbArc
 50
180.0
 51
0.0
  0
ARC
  5
320
100
AcDbEntity
  8
0
  6
CONTINUOUS
 62
           3
100
AcDbCircle
 10
4415.899996721679
 20
1815.000000000058
 40
45.999999999971
100
AcDbArc
 50
180.0
 51
0.0
  0
ARC
  5
31F
100
AcDbEntity
  8
0
  6
CONTINUOUS
 62
           3
100
AcDbCircle
 10
4415.899996721679
 20
1855.000000000222
 40
4.0
100
AcDbArc
 50
180.0
 51
0.0
  0
ARC
  5
31E
100
AcDbEntity
  8
1
  6
CONTINUOUS
 62
           3
100
AcDbCircle
 10
-488.490241678117
 20
1267.114622327059
 40
0.500000000002
100
AcDbArc
 50
-83.827497998178
 51
-5.00679300022
  0
ARC
  5
31D
100
AcDbEntity
  8
1
  6
CONTINUOUS
 62
           3
100
AcDbCircle
 10
-494.565247678116
 20
1267.114622327059
 40
0.499999999996
100
AcDbArc
 50
-174.993206999702
 51
-96.172501999309
  0
ARC
  5
31C
100
AcDbEntity
  8
1
  6
CONTINUOUS
 62
           3
100
AcDbCircle
 10
-488.490241678117
 20
1323.287074327051
 40
0.500000000005
100
AcDbArc
 50
5.006793001258
 51
83.827497998167
  0
ARC
  5
31B
100
AcDbEntity
  8
1
  6
CONTINUOUS
 62
           3
100
AcDbCircle
 10
-494.565247678116
 20
1323.287074327051
 40
0.499999999999
100
AcDbArc
 50
96.17250199932
 51
174.993206998663
  0
ARC
  5
31A
100
AcDbEntity
  8
1
  6
CONTINUOUS
 62
           3
100
AcDbCircle
 10
-495.56604767811
 20
1295.200848327049
 40
9.999999999999
100
AcDbArc
 50
-5.006792999977
 51
5.006793000029
  0
ARC
  5
319
100
AcDbEntity
  8
1
  6
CONTINUOUS
 62
           3
100
AcDbCircle
 10
-487.489442678116
 20
1295.200848327049
 40
10.0
100
AcDbArc
 50
174.993206999971
 51
-174.993207000022
  0
ARC
  5
318
100
AcDbEntity
  8
1
  6
CONTINUOUS
 62
           3
100
AcDbCircle
 10
-491.527744678116
 20
1295.200848327049
 40
10.749999999991
100
AcDbArc
 50
118.773506999969
 51
-118.773506999954
  0
ARC
  5
317
100
AcDbEntity
  8
1
  6
CONTINUOUS
 62
           3
100
AcDbCircle
 10
-491.527744678116
 20
1295.200848327049
 40
10.749999999999
100
AcDbArc
 50
-61.226493000019
 51
0.0
  0
ARC
  5
316
100
AcDbEntity
  8
1
  6
CONTINUOUS
 62
           3
100
AcDbCircle
 10
-491.527744678116
 20
1295.200848327049
 40
10.75
100
AcDbArc
 50
0.0
 51
61.226493000003
  0
ARC
  5
315
100
AcDbEntity
  8
1
  6
CONTINUOUS
 62
           3
100
AcDbCircle
 10
-491.527744678116
 20
1295.200848327049
 40
28.749999999987
100
AcDbArc
 50
-96.172501999994
 51
-83.827497999994
  0
ARC
  5
314
100
AcDbEntity
  8
1
  6
CONTINUOUS
 62
           3
100
AcDbCircle
 10
-491.527744678116
 20
1295.200848327049
 40
28.75000000001
100
AcDbArc
 50
83.827497999999
 51
96.172501999989
  0
LINE
  5
313
100
AcDbEntity
  8
1
  6
CONTINUOUS
 62
           4
100
AcDbLine
 10
5372.499999999999
 20
2581.0
 11
5372.499999999999
 21
2575.0
  0
LINE
  5
312
100
AcDbEntity
  8
1
  6
CONTINUOUS
 62
           4
100
AcDbLine
 10
4627.499999999999
 20
2575.0
 11
4627.499999999999
 21
2581.0
  0
LINE
  5
311
100
AcDbEntity
  8
1
  6
CONTINUOUS
 62
           7
100
AcDbLine
 10
5372.499999999999
 20
2575.0
 11
4627.499999999999
 21
2575.0
  0
LINE
  5
310
100
AcDbEntity
  8
1
  6
CONTINUOUS
 62
           4
100
AcDbLine
 10
4627.499999999999
 20
2581.0
 11
5372.499999999999
 21
2581.0
  0
LINE
  5
30F
100
AcDbEntity
  8
0
  6
CONTINUOUS
 62
           7
100
AcDbLine
 10
5333.2
 20
2581.0
 11
5333.2
 21
2628.300000000001
  0
LINE
  5
30E
100
AcDbEntity
  8
0
  6
CONTINUOUS
 62
           7
100
AcDbLine
 10
4666.8
 20
2628.300000000001
 11
4666.799999999998
 21
2581.0
  0
LINE
  5
30D
100
AcDbEntity
  8
1
  6
CONTINUOUS
 62
           4
100
AcDbLine
 10
4739.999999999999
 20
3198.699999999999
 11
4739.999999999999
 21
3197.699999999999
  0
LINE
  5
30C
100
AcDbEntity
  8
1
  6
CONTINUOUS
 62
           4
100
AcDbLine
 10
5259.999999999999
 20
3198.699999999999
 11
5259.999999999999
 21
3197.699999999999
  0
LINE
  5
30B
100
AcDbEntity
  8
1
  6
CONTINUOUS
 62
           4
100
AcDbLine
 10
5254.999999999999
 20
3203.699999999999
 11
5259.999999999999
 21
3198.699999999999
  0
LINE
  5
30A
100
AcDbEntity
  8
1
  6
CONTINUOUS
 62
           4
100
AcDbLine
 10
5254.999999999999
 20
3203.699999999999
 11
4744.999999999999
 21
3203.699999999999
  0
LINE
  5
309
100
AcDbEntity
  8
1
  6
CONTINUOUS
 62
           4
100
AcDbLine
 10
4739.999999999999
 20
3198.699999999999
 11
4744.999999999999
 21
3203.699999999999
  0
LINE
  5
308
100
AcDbEntity
  8
976
  6
CONTINUOUS
 62
           7
100
AcDbLine
 10
5506.440677966101
 20
3197.699999999999
 11
5108.000159772887
 21
3197.699999999999
  0
LINE
  5
307
100
AcDbEntity
  8
976
  6
CONTINUOUS
 62
           7
100
AcDbLine
 10
5509.999999999999
 20
2666.300000000001
 11
4324.788529667961
 21
2666.300000000001
  0
LINE
  5
306
100
AcDbEntity
  8
976
  6
CONTINUOUS
 62
           7
100
AcDbLine
 10
5509.999999999999
 20
2666.300000000001
 11
5509.999999999999
 21
2633.300000000001
  0
LINE
  5
305
100
AcDbEntity
  8
976
  6
CONTINUOUS
 62
           7
100
AcDbLine
 10
4324.788529667961
 20
2628.300000000001
 11
4925.222691958727
 21
2628.300000000003
  0
LINE
  5
304
100
AcDbEntity
  8
976
  6
CONTINUOUS
 62
           7
100
AcDbLine
 10
4324.788529667961
 20
3159.699999999999
 11
4324.788529667961
 21
3197.699999999999
  0
LINE
  5
303
100
AcDbEntity
  8
976
  6
CONTINUOUS
 62
           7
100
AcDbLine
 10
4324.788529667961
 20
2628.300000000001
 11
4324.788529667961
 21
2666.300000000001
  0
LINE
  5
302
100
AcDbEntity
  8
1
  6
CONTINUOUS
 62
           7
100
AcDbLine
 10
5510.000000000001
 20
3192.699999999999
 11
5506.440677966101
 21
3197.699999999999
  0
LINE
  5
301
100
AcDbEntity
  8
1
  6
CONTINUOUS
 62
           7
100
AcDbLine
 10
5509.999999999999
 20
2633.300000000001
 11
5506.440677966101
 21
2628.300000000001
  0
LINE
  5
300
100
AcDbEntity
  8
1
  6
CONTINUOUS
 62
           7
100
AcDbLine
 10
5589.999999999999
 20
3160.5
 11
5555.499999999999
 21
3160.5
  0
LINE
  5
2FF
100
AcDbEntity
  8
1
  6
CONTINUOUS
 62
           7
100
AcDbLine
 10
5544.499999999999
 20
3160.5
 11
5509.999999999999
 21
3160.5
  0
LINE
  5
2FE
100
AcDbEntity
  8
1
  6
CONTINUOUS
 62
           7
100
AcDbLine
 10
5509.999999999999
 20
2665.5
 11
5544.499999999999
 21
2665.5
  0
LINE
  5
2FD
100
AcDbEntity
  8
1
  6
CONTINUOUS
 62
           7
100
AcDbLine
 10
4369.999999999999
 20
3159.699999999999
 11
4369.999999999999
 21
2666.300000000001
  0
LINE
  5
2FC
100
AcDbEntity
  8
1
  6
CONTINUOUS
 62
           7
100
AcDbLine
 10
5549.999999999999
 20
3160.5
 11
5589.999999999999
 21
3160.5
  0
LINE
  5
2FB
100
AcDbEntity
  8
1
  6
CONTINUOUS
 62
           7
100
AcDbLine
 10
5509.999999999999
 20
2661.0
 11
5509.999999999999
 21
3165.0
  0
LINE
  5
2FA
100
AcDbEntity
  8
1
  6
CONTINUOUS
 62
           7
100
AcDbLine
 10
5509.999999999999
 20
3160.5
 11
5549.999999999999
 21
3160.5
  0
LINE
  5
2F9
100
AcDbEntity
  8
1
  6
CONTINUOUS
 62
           7
100
AcDbLine
 10
5549.999999999999
 20
2665.5
 11
5509.999999999999
 21
2665.5
  0
LINE
  5
2F8
100
AcDbEntity
  8
1
  6
CONTINUOUS
 62
           4
100
AcDbLine
 10
5545.699999999998
 20
3160.5
 11
5545.699999999998
 21
2665.5
  0
LINE
  5
2F7
100
AcDbEntity
  8
1
  6
CONTINUOUS
 62
           4
100
AcDbLine
 10
5554.299999999998
 20
2665.5
 11
5554.299999999998
 21
3160.5
  0
LINE
  5
2F6
100
AcDbEntity
  8
1
  6
CONTINUOUS
 62
           7
100
AcDbLine
 10
5549.999999999999
 20
3200.5
 11
5549.999999999999
 21
2625.5
  0
LINE
  5
2F5
100
AcDbEntity
  8
1
  6
CONTINUOUS
 62
           4
100
AcDbLine
 10
5554.499999999999
 20
3166.0
 11
5554.499999999999
 21
3200.5
  0
LINE
  5
2F4
100
AcDbEntity
  8
1
  6
CONTINUOUS
 62
           4
100
AcDbLine
 10
5554.499999999999
 20
3200.5
 11
5549.999999999999
 21
3200.5
  0
LINE
  5
2F3
100
AcDbEntity
  8
1
  6
CONTINUOUS
 62
           4
100
AcDbLine
 10
5549.999999999999
 20
3200.5
 11
5545.499999999999
 21
3200.5
  0
LINE
  5
2F2
100
AcDbEntity
  8
1
  6
CONTINUOUS
 62
           4
100
AcDbLine
 10
5545.499999999999
 20
3200.5
 11
5545.499999999999
 21
3166.0
  0
LINE
  5
2F1
100
AcDbEntity
  8
1
  6
CONTINUOUS
 62
           4
100
AcDbLine
 10
5509.999999999999
 20
3165.0
 11
5544.499999999999
 21
3165.0
  0
LINE
  5
2F0
100
AcDbEntity
  8
1
  6
CONTINUOUS
 62
           4
100
AcDbLine
 10
5549.999999999999
 20
2625.5
 11
5554.499999999999
 21
2625.5
  0
LINE
  5
2EF
100
AcDbEntity
  8
1
  6
CONTINUOUS
 62
           4
100
AcDbLine
 10
5554.499999999999
 20
2625.5
 11
5554.499999999999
 21
2660.0
  0
LINE
  5
2EE
100
AcDbEntity
  8
1
  6
CONTINUOUS
 62
           4
100
AcDbLine
 10
5589.999999999999
 20
2661.0
 11
5555.499999999999
 21
2661.0
  0
LINE
  5
2ED
100
AcDbEntity
  8
1
  6
CONTINUOUS
 62
           4
100
AcDbLine
 10
5545.499999999999
 20
2660.0
 11
5545.499999999999
 21
2625.5
  0
LINE
  5
2EC
100
AcDbEntity
  8
1
  6
CONTINUOUS
 62
           4
100
AcDbLine
 10
5545.499999999999
 20
2625.5
 11
5549.999999999999
 21
2625.5
  0
LINE
  5
2EB
100
AcDbEntity
  8
1
  6
CONTINUOUS
 62
           7
100
AcDbLine
 10
5555.499999999999
 20
2665.5
 11
5589.999999999999
 21
2665.5
  0
LINE
  5
2EA
100
AcDbEntity
  8
1
  6
CONTINUOUS
 62
           4
100
AcDbLine
 10
5544.499999999999
 20
2661.0
 11
5509.999999999999
 21
2661.0
  0
LINE
  5
2E9
100
AcDbEntity
  8
976
  6
CONTINUOUS
 62
           7
100
AcDbLine
 10
5509.999999999999
 20
3159.699999999999
 11
5510.000000000001
 21
3192.699999999999
  0
LINE
  5
2E8
100
AcDbEntity
  8
976
  6
CONTINUOUS
 62
           7
100
AcDbLine
 10
5421.999999999999
 20
3159.699999999999
 11
5422.000000000001
 21
3197.699999999999
  0
LINE
  5
2E7
100
AcDbEntity
  8
976
  6
CONTINUOUS
 62
           7
100
AcDbLine
 10
5108.000159772887
 20
3159.699999999999
 11
5108.000159772887
 21
3197.699999999999
  0
LINE
  5
2E6
100
AcDbEntity
  8
976
  6
CONTINUOUS
 62
           7
100
AcDbLine
 10
4925.222691958724
 20
3159.699999999999
 11
4925.222691958727
 21
3197.699999999999
  0
LINE
  5
2E5
100
AcDbEntity
  8
976
  6
CONTINUOUS
 62
           7
100
AcDbLine
 10
4925.222691958727
 20
3197.699999999999
 11
4324.788529667961
 21
3197.699999999999
  0
LINE
  5
2E4
100
AcDbEntity
  8
976
  6
CONTINUOUS
 62
           7
100
AcDbLine
 10
5422.000000000001
 20
2628.300000000003
 11
5421.999999999999
 21
2666.300000000003
  0
LINE
  5
2E3
100
AcDbEntity
  8
976
  6
CONTINUOUS
 62
           7
100
AcDbLine
 10
5108.000159772887
 20
2628.300000000003
 11
5108.000159772887
 21
2666.300000000003
  0
LINE
  5
2E2
100
AcDbEntity
  8
976
  6
CONTINUOUS
 62
           7
100
AcDbLine
 10
4925.222691958727
 20
2628.300000000003
 11
4925.222691958724
 21
2666.300000000003
  0
LINE
  5
2E1
100
AcDbEntity
  8
976
  6
CONTINUOUS
 62
           7
100
AcDbLine
 10
5108.000159772887
 20
2628.300000000003
 11
5506.440677966101
 21
2628.300000000001
  0
LINE
  5
2E0
100
AcDbEntity
  8
1
  6
CONTINUOUS
 62
           2
100
AcDbLine
 10
4724.486543999089
 20
3093.0
 11
4724.486543999089
 21
2733.0
  0
LINE
  5
2DF
100
AcDbEntity
  8
1
  6
CONTINUOUS
 62
           2
100
AcDbLine
 10
4724.486543999089
 20
2733.0
 11
5135.513456000907
 21
2733.0
  0
LINE
  5
2DE
100
AcDbEntity
  8
1
  6
CONTINUOUS
 62
           2
100
AcDbLine
 10
5135.513456000907
 20
2733.0
 11
5135.513456000907
 21
3093.0
  0
LINE
  5
2DD
100
AcDbEntity
  8
1
  6
CONTINUOUS
 62
           2
100
AcDbLine
 10
5135.513456000907
 20
3093.0
 11
4724.486543999089
 21
3093.0
  0
LINE
  5
2DC
100
AcDbEntity
  8
1
  6
DOT_CENTER
 62
           2
100
AcDbLine
 10
4999.999999999999
 20
2536.871335955671
 11
4999.999999999999
 21
3677.943017367195
  0
LINE
  5
2DB
100
AcDbEntity
  8
1
  6
DOT_CENTER
 62
           2
100
AcDbLine
 10
4303.771485574418
 20
2913.0
 11
5644.76458776199
 21
2913.0
  0
LINE
  5
2DA
100
AcDbEntity
  8
1
  6
CONTINUOUS
 62
           4
100
AcDbLine
 10
5555.499999999999
 20
3165.0
 11
5589.999999999999
 21
3165.0
  0
LINE
  5
2D9
100
AcDbEntity
  8
1
  6
CONTINUOUS
 62
           7
100
AcDbLine
 10
5589.999999999999
 20
2665.5
 11
5549.999999999999
 21
2665.5
  0
LINE
  5
2D8
100
AcDbEntity
  8
976
  6
CONTINUOUS
 62
           7
100
AcDbLine
 10
5509.999999999999
 20
3159.699999999999
 11
4324.788529667961
 21
3159.699999999999
  0
LINE
  5
2D7
100
AcDbEntity
  8
1
  6
CONTINUOUS
 62
           7
100
AcDbLine
 10
5589.999999999999
 20
3165.0
 11
5589.999999999999
 21
2661.0
  0
LINE
  5
2D6
100
AcDbEntity
  8
2
  6
CONTINUOUS
 62
           4
100
AcDbLine
 10
5104.06
 20
3203.699999999999
 11
5104.06
 21
3207.799999999999
  0
LINE
  5
2D5
100
AcDbEntity
  8
1
  6
CONTINUOUS
 62
           7
100
AcDbLine
 10
5063.500000000001
 20
3387.5
 11
5063.500000000001
 21
3311.5
  0
LINE
  5
2D4
100
AcDbEntity
  8
1
  6
CONTINUOUS
 62
           7
100
AcDbLine
 10
4936.500000000001
 20
3311.5
 11
4936.500000000001
 21
3387.5
  0
LINE
  5
2D3
100
AcDbEntity
  8
1
  6
CONTINUOUS
 62
           7
100
AcDbLine
 10
4948.500000000001
 20
3399.5
 11
5051.500000000001
 21
3399.5
  0
LINE
  5
2D2
100
AcDbEntity
  8
1
  6
CONTINUOUS
 62
           7
100
AcDbLine
 10
5051.500000000001
 20
3299.5
 11
4948.500000000001
 21
3299.5
  0
LINE
  5
2D1
100
AcDbEntity
  8
7
  6
CONTINUOUS
 62
           7
100
AcDbLine
 10
4906.616582399999
 20
3630.483396000001
 11
4882.022588399998
 21
3612.395737200001
  0
LINE
  5
2D0
100
AcDbEntity
  8
7
  6
CONTINUOUS
 62
           7
100
AcDbLine
 10
5000.000000000001
 20
3636.000000000001
 11
4911.480000000001
 21
3636.000000000001
  0
LINE
  5
2CF
100
AcDbEntity
  8
7
  6
CONTINUOUS
 62
           7
100
AcDbLine
 10
4874.999999999999
 20
3540.186819200001
 11
4874.999999999999
 21
3573.231865248044
  0
LINE
  5
2CE
100
AcDbEntity
  8
7
  6
CONTINUOUS
 62
           7
100
AcDbLine
 10
5124.999999999999
 20
3540.186819200001
 11
4874.999999999999
 21
3540.186819200001
  0
LINE
  5
2CD
100
AcDbEntity
  8
7
  6
CONTINUOUS
 62
           7
100
AcDbLine
 10
5121.400000000002
 20
3606.360000000002
 11
5124.999999999999
 21
3573.231865248044
  0
LINE
  5
2CC
100
AcDbEntity
  8
7
  6
CONTINUOUS
 62
           7
100
AcDbLine
 10
4879.8095724
 20
3610.200000000002
 11
5117.56
 21
3610.200000000002
  0
LINE
  5
2CB
100
AcDbEntity
  8
7
  6
CONTINUOUS
 62
           7
100
AcDbLine
 10
5090.383416400001
 20
3630.483396000001
 11
5115.1312408
 21
3610.634035200002
  0
LINE
  5
2CA
100
AcDbEntity
  8
7
  6
CONTINUOUS
 62
           7
100
AcDbLine
 10
5000.000000000001
 20
3636.000000000001
 11
5085.52
 21
3636.000000000001
  0
LINE
  5
2C9
100
AcDbEntity
  8
2
  6
CONTINUOUS
 62
           7
100
AcDbLine
 10
5122.4963968
 20
3239.6
 11
5109.2423704
 21
3207.799999999999
  0
LINE
  5
2C8
100
AcDbEntity
  8
2
  6
CONTINUOUS
 62
           4
100
AcDbLine
 10
5109.2423704
 20
3207.799999999999
 11
4887.757629599998
 21
3207.799999999999
  0
LINE
  5
2C7
100
AcDbEntity
  8
2
  6
CONTINUOUS
 62
           7
100
AcDbLine
 10
5122.4963968
 20
3526.386819200002
 11
5116.744649199999
 21
3540.186819200001
  0
LINE
  5
2C6
100
AcDbEntity
  8
2
  6
CONTINUOUS
 62
           4
100
AcDbLine
 10
4892.940000000001
 20
3207.799999999999
 11
4892.940000000001
 21
3203.699999999999
  0
LINE
  5
2C5
100
AcDbEntity
  8
2
  6
CONTINUOUS
 62
           7
100
AcDbLine
 10
4880.255350799999
 20
3540.186819200001
 11
4874.503603199998
 21
3526.386819200002
  0
LINE
  5
2C4
100
AcDbEntity
  8
2
  6
CONTINUOUS
 62
           7
100
AcDbLine
 10
4874.503603199998
 20
3526.386819200002
 11
4874.503603199998
 21
3239.6
  0
LINE
  5
2C3
100
AcDbEntity
  8
2
  6
CONTINUOUS
 62
           7
100
AcDbLine
 10
4887.757629599998
 20
3207.799999999999
 11
4874.503603199998
 21
3239.6
  0
LINE
  5
2C2
100
AcDbEntity
  8
1
  6
CONTINUOUS
 62
           7
100
AcDbLine
 10
5124.999999999999
 20
3573.231865248044
 11
4874.999999999999
 21
3573.231865248044
  0
LINE
  5
2C1
100
AcDbEntity
  8
7
  6
CONTINUOUS
 62
           7
100
AcDbLine
 10
4874.999999999999
 20
3573.231865248044
 11
4878.600000000001
 21
3606.133628400002
  0
LINE
  5
2C0
100
AcDbEntity
  8
7
  6
CONTINUOUS
 62
           7
100
AcDbLine
 10
5124.999999999999
 20
3573.231865248044
 11
5124.999999999999
 21
3540.186819200001
  0
LINE
  5
2BF
100
AcDbEntity
  8
2
  6
CONTINUOUS
 62
           7
100
AcDbLine
 10
5122.4963968
 20
3239.6
 11
5122.4963968
 21
3526.386819200002
  0
LINE
  5
2BE
100
AcDbEntity
  8
1
  6
CONTINUOUS
 62
           7
100
AcDbLine
 10
-770.999999999998
 20
2650.5
 11
-770.999999999998
 21
3201.30398456691
  0
LINE
  5
2BD
100
AcDbEntity
  8
1
  6
CONTINUOUS
 62
           7
100
AcDbLine
 10
522.58813228582
 20
2665.3
 11
522.58813228582
 21
3160.503984566909
  0
LINE
  5
2BC
100
AcDbEntity
  8
976
  6
CONTINUOUS
 62
           7
100
AcDbLine
 10
530.000000000001
 20
2665.5
 11
530.000000000001
 21
2650.7
  0
LINE
  5
2BB
100
AcDbEntity
  8
976
  6
CONTINUOUS
 62
           7
100
AcDbLine
 10
530.000000000001
 20
3198.503984566909
 11
530.000000000001
 21
3160.503984566909
  0
LINE
  5
2BA
100
AcDbEntity
  8
1
  6
CONTINUOUS
 62
           4
100
AcDbLine
 10
255.000000000001
 20
3204.503984566909
 11
260.000000000001
 21
3199.503984566909
  0
LINE
  5
2B9
100
AcDbEntity
  8
1
  6
CONTINUOUS
 62
           4
100
AcDbLine
 10
255.000000000001
 20
3204.503984566909
 11
-254.999999999999
 21
3204.503984566909
  0
LINE
  5
2B8
100
AcDbEntity
  8
1
  6
CONTINUOUS
 62
           4
100
AcDbLine
 10
-259.999999999999
 20
3199.503984566909
 11
-254.999999999999
 21
3204.503984566909
  0
LINE
  5
2B7
100
AcDbEntity
  8
1
  6
CONTINUOUS
 62
           4
100
AcDbLine
 10
-259.999999999999
 20
3198.503984566909
 11
-259.999999999999
 21
3199.503984566909
  0
LINE
  5
2B6
100
AcDbEntity
  8
1
  6
CONTINUOUS
 62
           4
100
AcDbLine
 10
260.000000000001
 20
3198.503984566909
 11
260.000000000001
 21
3199.503984566909
  0
LINE
  5
2B5
100
AcDbEntity
  8
976
  6
CONTINUOUS
 62
           7
100
AcDbLine
 10
532.58813228582
 20
3160.503984566908
 11
-739.999999999999
 21
3160.503984566908
  0
LINE
  5
2B4
100
AcDbEntity
  8
976
  6
CONTINUOUS
 62
           7
100
AcDbLine
 10
532.58813228582
 20
2665.5
 11
-739.999999999999
 21
2665.5
  0
LINE
  5
2B3
100
AcDbEntity
  8
1
  6
CONTINUOUS
 62
           7
100
AcDbLine
 10
-770.999999999998
 20
3161.30398456691
 11
-749.999999999999
 21
3161.30398456691
  0
LINE
  5
2B2
100
AcDbEntity
  8
1
  6
CONTINUOUS
 62
           7
100
AcDbLine
 10
-770.999999999998
 20
3201.30398456691
 11
-749.999999999999
 21
3201.30398456691
  0
LINE
  5
2B1
100
AcDbEntity
  8
1
  6
CONTINUOUS
 62
           4
100
AcDbLine
 10
-770.999999999998
 20
3165.80398456691
 11
-749.999999999999
 21
3165.80398456691
  0
LINE
  5
2B0
100
AcDbEntity
  8
976
  6
CONTINUOUS
 62
           7
100
AcDbLine
 10
498.58813228582
 20
2665.5
 11
498.58813228582
 21
2650.7
  0
LINE
  5
2AF
100
AcDbEntity
  8
976
  6
CONTINUOUS
 62
           7
100
AcDbLine
 10
498.58813228582
 20
3198.503984566909
 11
498.58813228582
 21
3160.503984566909
  0
LINE
  5
2AE
100
AcDbEntity
  8
976
  6
CONTINUOUS
 62
           7
100
AcDbLine
 10
-63.022294576588
 20
3198.503984566909
 11
-63.022294576588
 21
3160.503984566909
  0
LINE
  5
2AD
100
AcDbEntity
  8
976
  6
CONTINUOUS
 62
           7
100
AcDbLine
 10
-63.022294576588
 20
2665.5
 11
-63.022294576588
 21
2650.7
  0
LINE
  5
2AC
100
AcDbEntity
  8
976
  6
CONTINUOUS
 62
           7
100
AcDbLine
 10
530.000000000001
 20
3198.503984566909
 11
-731.116882454314
 21
3198.503984566909
  0
LINE
  5
2AB
100
AcDbEntity
  8
1
  6
CONTINUOUS
 62
           2
100
AcDbLine
 10
483.681715763562
 20
2733.0
 11
522.58813228582
 21
2733.0
  0
LINE
  5
2AA
100
AcDbEntity
  8
1
  6
CONTINUOUS
 62
           2
100
AcDbLine
 10
483.681715763562
 20
3093.0
 11
483.681715763562
 21
2733.0
  0
LINE
  5
2A9
100
AcDbEntity
  8
1
  6
CONTINUOUS
 62
           2
100
AcDbLine
 10
522.58813228582
 20
3093.0
 11
483.681715763562
 21
3093.0
  0
LINE
  5
2A8
100
AcDbEntity
  8
1
  6
CONTINUOUS
 62
           7
100
AcDbLine
 10
-749.999999999999
 20
2664.699999999999
 11
-770.999999999998
 21
2664.699999999999
  0
LINE
  5
2A7
100
AcDbEntity
  8
1
  6
CONTINUOUS
 62
           4
100
AcDbLine
 10
-749.999999999999
 20
2660.2
 11
-770.999999999998
 21
2660.2
  0
LINE
  5
2A6
100
AcDbEntity
  8
1
  6
CONTINUOUS
 62
           7
100
AcDbLine
 10
-729.999999999999
 20
2665.3
 11
-729.999999999999
 21
3160.503984566909
  0
LINE
  5
2A5
100
AcDbEntity
  8
976
  6
CONTINUOUS
 62
           7
100
AcDbLine
 10
-731.116882454314
 20
3198.503984566909
 11
-731.116882454314
 21
3160.503984566909
  0
LINE
  5
2A4
100
AcDbEntity
  8
976
  6
CONTINUOUS
 62
           7
100
AcDbLine
 10
-731.116882454314
 20
2665.5
 11
-731.116882454314
 21
2650.7
  0
LINE
  5
2A3
100
AcDbEntity
  8
1
  6
CONTINUOUS
 62
           2
100
AcDbLine
 10
-630.593032057172
 20
2733.0
 11
-313.160800656588
 21
2733.0
  0
LINE
  5
2A2
100
AcDbEntity
  8
1
  6
CONTINUOUS
 62
           2
100
AcDbLine
 10
-313.160800656588
 20
2733.0
 11
-313.160800656588
 21
3093.0
  0
LINE
  5
2A1
100
AcDbEntity
  8
1
  6
CONTINUOUS
 62
           2
100
AcDbLine
 10
-313.160800656588
 20
3093.0
 11
-630.593032057172
 21
3093.0
  0
LINE
  5
2A0
100
AcDbEntity
  8
1
  6
CONTINUOUS
 62
           2
100
AcDbLine
 10
-630.593032057172
 20
3093.0
 11
-630.593032057172
 21
2733.0
  0
LINE
  5
29F
100
AcDbEntity
  8
1
  6
DOT_CENTER
 62
           2
100
AcDbLine
 10
-826.409104289506
 20
2913.0
 11
576.013204171225
 21
2913.0
  0
LINE
  5
29E
100
AcDbEntity
  8
2
  6
CONTINUOUS
 62
           4
100
AcDbLine
 10
104.06
 20
3204.503984566908
 11
104.06
 21
3208.603984566908
  0
LINE
  5
29D
100
AcDbEntity
  8
7
  6
CONTINUOUS
 62
           7
100
AcDbLine
 10
125.000000000001
 20
3573.231865248044
 11
125.000000000001
 21
3540.186819199998
  0
LINE
  5
29C
100
AcDbEntity
  8
7
  6
CONTINUOUS
 62
           7
100
AcDbLine
 10
-124.999999999999
 20
3573.231865248044
 11
-121.399999999999
 21
3606.133628400001
  0
LINE
  5
29B
100
AcDbEntity
  8
1
  6
CONTINUOUS
 62
           7
100
AcDbLine
 10
125.000000000001
 20
3573.231865248044
 11
-124.999999999999
 21
3573.231865248044
  0
LINE
  5
29A
100
AcDbEntity
  8
2
  6
CONTINUOUS
 62
           7
100
AcDbLine
 10
-112.242370399999
 20
3208.603984566908
 11
-125.496396799999
 21
3240.403984566909
  0
LINE
  5
299
100
AcDbEntity
  8
2
  6
CONTINUOUS
 62
           7
100
AcDbLine
 10
-119.744649199999
 20
3540.186819199998
 11
-125.496396799999
 21
3526.3868192
  0
LINE
  5
298
100
AcDbEntity
  8
2
  6
CONTINUOUS
 62
           7
100
AcDbLine
 10
-125.496396799999
 20
3240.403984566909
 11
-125.496396799999
 21
3526.3868192
  0
LINE
  5
297
100
AcDbEntity
  8
2
  6
CONTINUOUS
 62
           4
100
AcDbLine
 10
-107.06
 20
3208.603984566908
 11
-107.06
 21
3204.503984566908
  0
LINE
  5
296
100
AcDbEntity
  8
2
  6
CONTINUOUS
 62
           7
100
AcDbLine
 10
122.496396800001
 20
3526.3868192
 11
116.744649200001
 21
3540.186819199998
  0
LINE
  5
295
100
AcDbEntity
  8
2
  6
CONTINUOUS
 62
           4
100
AcDbLine
 10
109.242370400001
 20
3208.603984566908
 11
-112.242370399999
 21
3208.603984566908
  0
LINE
  5
294
100
AcDbEntity
  8
2
  6
CONTINUOUS
 62
           7
100
AcDbLine
 10
122.496396800001
 20
3240.403984566909
 11
122.496396800001
 21
3526.3868192
  0
LINE
  5
293
100
AcDbEntity
  8
2
  6
CONTINUOUS
 62
           7
100
AcDbLine
 10
122.496396800001
 20
3240.403984566909
 11
109.242370400001
 21
3208.603984566908
  0
LINE
  5
292
100
AcDbEntity
  8
7
  6
CONTINUOUS
 62
           7
100
AcDbLine
 10
-88.52
 20
3636.0
 11
85.520000000001
 21
3636.0
  0
LINE
  5
291
100
AcDbEntity
  8
7
  6
CONTINUOUS
 62
           7
100
AcDbLine
 10
90.383416400001
 20
3630.483396000001
 11
115.1312408
 21
3610.634035200003
  0
LINE
  5
290
100
AcDbEntity
  8
7
  6
CONTINUOUS
 62
           7
100
AcDbLine
 10
-120.190427599999
 20
3610.200000000002
 11
117.56
 21
3610.200000000002
  0
LINE
  5
28F
100
AcDbEntity
  8
7
  6
CONTINUOUS
 62
           7
100
AcDbLine
 10
121.400000000001
 20
3606.360000000002
 11
125.000000000001
 21
3573.231865248044
  0
LINE
  5
28E
100
AcDbEntity
  8
7
  6
CONTINUOUS
 62
           7
100
AcDbLine
 10
125.000000000001
 20
3540.186819199998
 11
-124.999999999999
 21
3540.186819199998
  0
LINE
  5
28D
100
AcDbEntity
  8
7
  6
CONTINUOUS
 62
           7
100
AcDbLine
 10
-124.999999999999
 20
3540.186819199998
 11
-124.999999999999
 21
3573.231865248044
  0
LINE
  5
28C
100
AcDbEntity
  8
7
  6
CONTINUOUS
 62
           7
100
AcDbLine
 10
-93.383417599999
 20
3630.483396000001
 11
-117.977411599999
 21
3612.3957372
  0
LINE
  5
28B
100
AcDbEntity
  8
1
  6
CONTINUOUS
 62
           7
100
AcDbLine
 10
185.000000000003
 20
3299.499999999996
 11
134.496396800001
 21
3299.499999999996
  0
LINE
  5
28A
100
AcDbEntity
  8
1
  6
CONTINUOUS
 62
           7
100
AcDbLine
 10
134.496396800001
 20
3399.499999999996
 11
185.000000000003
 21
3399.499999999996
  0
LINE
  5
289
100
AcDbEntity
  8
1
  6
CONTINUOUS
 62
           7
100
AcDbLine
 10
122.496396800001
 20
3311.499999999996
 11
122.496396800001
 21
3387.499999999996
  0
LINE
  5
288
100
AcDbEntity
  8
1
  6
CONTINUOUS
 62
           7
100
AcDbLine
 10
197.000000000003
 20
3387.499999999996
 11
197.000000000003
 21
3311.499999999996
  0
LINE
  5
287
100
AcDbEntity
  8
1
  6
CONTINUOUS
 62
           7
100
AcDbLine
 10
-769.000000000001
 20
6347.804440282098
 11
40.999999999999
 21
6347.804440282098
  0
LINE
  5
286
100
AcDbEntity
  8
1
  6
CONTINUOUS
 62
           7
100
AcDbLine
 10
-764.0
 20
6307.804440282098
 11
-769.000000000001
 21
6312.804440282098
  0
LINE
  5
285
100
AcDbEntity
  8
1
  6
CONTINUOUS
 62
           7
100
AcDbLine
 10
35.999999999999
 20
6307.804440282098
 11
40.999999999999
 21
6312.804440282098
  0
LINE
  5
284
100
AcDbEntity
  8
1
  6
CONTINUOUS
 62
           7
100
AcDbLine
 10
35.999999999999
 20
6307.804440282098
 11
-764.0
 21
6307.804440282098
  0
LINE
  5
283
100
AcDbEntity
  8
1
  6
CONTINUOUS
 62
           7
100
AcDbLine
 10
-769.000000000001
 20
6312.804440282098
 11
-769.000000000001
 21
6347.804440282098
  0
LINE
  5
282
100
AcDbEntity
  8
1
  6
CONTINUOUS
 62
           7
100
AcDbLine
 10
40.999999999999
 20
6347.804440282098
 11
40.999999999999
 21
6312.804440282098
  0
LINE
  5
281
100
AcDbEntity
  8
1
  6
CONTINUOUS
 62
           4
100
AcDbLine
 10
40.999999999999
 20
6343.304440282098
 11
-769.0
 21
6343.304440282098
  0
LINE
  5
280
100
AcDbEntity
  8
1
  6
CONTINUOUS
 62
           4
100
AcDbLine
 10
-769.0
 20
6352.304440282096
 11
40.999999999999
 21
6352.304440282098
  0
LINE
  5
27F
100
AcDbEntity
  8
1
  6
CONTINUOUS
 62
           7
100
AcDbLine
 10
40.999999999999
 20
6382.804440282098
 11
40.999999999999
 21
6347.804440282098
  0
LINE
  5
27E
100
AcDbEntity
  8
1
  6
CONTINUOUS
 62
           7
100
AcDbLine
 10
-769.000000000001
 20
6347.804440282098
 11
-769.000000000001
 21
6382.804440282098
  0
LINE
  5
27D
100
AcDbEntity
  8
1
  6
CONTINUOUS
 62
           7
100
AcDbLine
 10
-764.0
 20
6387.804440282096
 11
35.999999999999
 21
6387.804440282098
  0
LINE
  5
27C
100
AcDbEntity
  8
1
  6
CONTINUOUS
 62
           7
100
AcDbLine
 10
40.999999999999
 20
6382.804440282098
 11
35.999999999999
 21
6387.804440282098
  0
LINE
  5
27B
100
AcDbEntity
  8
1
  6
CONTINUOUS
 62
           7
100
AcDbLine
 10
-769.000000000001
 20
6382.804440282098
 11
-764.0
 21
6387.804440282096
  0
LINE
  5
27A
100
AcDbEntity
  8
1
  6
CONTINUOUS
 62
           7
100
AcDbLine
 10
527.411867714179
 20
5723.027132240823
 11
-63.022294576588
 21
5132.592969950056
  0
LINE
  5
279
100
AcDbEntity
  8
1
  6
CONTINUOUS
 62
           7
100
AcDbLine
 10
-729.116882454315
 20
5798.687557827785
 11
-63.022294576588
 21
5132.592969950056
  0
LINE
  5
278
100
AcDbEntity
  8
1
  6
CONTINUOUS
 62
           7
100
AcDbLine
 10
495.999999999999
 20
5905.804600054986
 11
181.999999999999
 21
6219.804440282098
  0
LINE
  5
277
100
AcDbEntity
  8
1
  6
CONTINUOUS
 62
           7
100
AcDbLine
 10
-729.116882454315
 20
5798.687557827785
 11
-220.000000000001
 21
6307.804440282098
  0
LINE
  5
276
100
AcDbEntity
  8
0
  6
CONTINUOUS
 62
           7
100
AcDbLine
 10
0.0
 20
6297.804440282098
 11
-0.000000000001
 21
6307.804440282098
  0
LINE
  5
275
100
AcDbEntity
  8
1
  6
CONTINUOUS
 62
           7
100
AcDbLine
 10
0.0
 20
6297.804440282098
 11
-0.000000000001
 21
6307.804440282098
  0
LINE
  5
274
100
AcDbEntity
  8
0
  6
CONTINUOUS
 62
           7
100
AcDbLine
 10
-730.0
 20
6307.804440282098
 11
-730.0
 21
6297.804440282098
  0
LINE
  5
273
100
AcDbEntity
  8
0
  6
CONTINUOUS
 62
           7
100
AcDbLine
 10
-738.000000000001
 20
6287.804440282098
 11
-738.000000000001
 21
5837.804440282098
  0
LINE
  5
272
100
AcDbEntity
  8
0
  6
CONTINUOUS
 62
           7
100
AcDbLine
 10
-730.0
 20
6297.804440282098
 11
-738.000000000001
 21
6287.804440282098
  0
LINE
  5
271
100
AcDbEntity
  8
0
  6
CONTINUOUS
 62
           7
100
AcDbLine
 10
30.724756890082
 20
6244.587600297602
 11
0.0
 21
6297.804440282098
  0
LINE
  5
270
100
AcDbEntity
  8
1
  6
CONTINUOUS
 62
           7
100
AcDbLine
 10
-225.999999999999
 20
6023.804440282098
 11
-225.999999999999
 21
5537.804440282098
  0
LINE
  5
26F
100
AcDbEntity
  8
1
  6
CONTINUOUS
 62
           7
100
AcDbLine
 10
226.000000000001
 20
6023.804440282098
 11
-259.999999999999
 21
6023.804440282098
  0
LINE
  5
26E
100
AcDbEntity
  8
1
  6
CONTINUOUS
 62
           7
100
AcDbLine
 10
-225.999999999999
 20
5571.804440282098
 11
260.000000000002
 21
5571.804440282098
  0
LINE
  5
26D
100
AcDbEntity
  8
1
  6
CONTINUOUS
 62
           7
100
AcDbLine
 10
226.000000000001
 20
5571.804440282098
 11
226.000000000001
 21
6057.804440282098
  0
LINE
  5
26C
100
AcDbEntity
  8
1
  6
DOT_CENTER
 62
           2
100
AcDbLine
 10
-365.0
 20
6440.831734113714
 11
-365.0
 21
5994.499846692215
  0
LINE
  5
26B
100
AcDbEntity
  8
1
  6
CONTINUOUS
 62
           7
100
AcDbLine
 10
197.000000000002
 20
5849.3044402821
 11
197.000000000002
 21
5746.3044402821
  0
LINE
  5
26A
100
AcDbEntity
  8
1
  6
CONTINUOUS
 62
           7
100
AcDbLine
 10
132.824966598197
 20
5746.3044402821
 11
132.824966598197
 21
5849.3044402821
  0
LINE
  5
269
100
AcDbEntity
  8
1
  6
CONTINUOUS
 62
           7
100
AcDbLine
 10
144.824966598197
 20
5861.3044402821
 11
185.000000000002
 21
5861.3044402821
  0
LINE
  5
268
100
AcDbEntity
  8
1
  6
CONTINUOUS
 62
           7
100
AcDbLine
 10
185.000000000002
 20
5734.3044402821
 11
144.824966598197
 21
5734.3044402821
  0
LINE
  5
267
100
AcDbEntity
  8
1
  6
CONTINUOUS
 62
           4
100
AcDbLine
 10
134.432661752785
 20
5855.3044402821
 11
117.908702762047
 21
5855.3044402821
  0
LINE
  5
266
100
AcDbEntity
  8
1
  6
CONTINUOUS
 62
           4
100
AcDbLine
 10
134.432661752785
 20
5740.3044402821
 11
117.908702762047
 21
5740.3044402821
  0
LINE
  5
265
100
AcDbEntity
  8
1
  6
CONTINUOUS
 62
           3
100
AcDbLine
 10
4906.966432415577
 20
1943.853989524961
 11
4746.849597227117
 21
2103.970824713421
  0
LINE
  5
264
100
AcDbEntity
  8
1
  6
CONTINUOUS
 62
           3
100
AcDbLine
 10
4741.192742977624
 20
2098.31397046393
 11
4901.309578166085
 21
1938.197135275469
  0
LINE
  5
263
100
AcDbEntity
  8
1
  6
CONTINUOUS
 62
           3
100
AcDbLine
 10
4519.899996810936
 20
2197.1108682961
 11
4521.989640809794
 21
2197.1108682961
  0
LINE
  5
262
100
AcDbEntity
  8
1
  6
CONTINUOUS
 62
           3
100
AcDbLine
 10
4519.89999812233
 20
2189.110868296101
 11
4521.989640809794
 21
2189.110868296101
  0
LINE
  5
261
100
AcDbEntity
  8
1
  6
CONTINUOUS
 62
           3
100
AcDbLine
 10
4927.920285209859
 20
1932.756717518812
 11
4921.591715893665
 21
1934.452452556336
  0
LINE
  5
260
100
AcDbEntity
  8
1
  6
CONTINUOUS
 62
           3
100
AcDbLine
 10
4930.759440871727
 20
1922.160844338134
 11
4927.920285209859
 21
1932.756717518812
  0
LINE
  5
25F
100
AcDbEntity
  8
1
  6
CONTINUOUS
 62
           3
100
AcDbLine
 10
4923.002723352913
 20
1914.404126819321
 11
4930.759440871727
 21
1922.160844338134
  0
LINE
  5
25E
100
AcDbEntity
  8
1
  6
CONTINUOUS
 62
           3
100
AcDbLine
 10
4912.406850172234
 20
1917.243282481186
 11
4923.002723352913
 21
1914.404126819321
  0
LINE
  5
25D
100
AcDbEntity
  8
1
  6
CONTINUOUS
 62
           3
100
AcDbLine
 10
4910.711115134716
 20
1923.571851797376
 11
4912.406850172234
 21
1917.243282481186
  0
LINE
  5
25C
100
AcDbEntity
  8
1
  6
DOT_CENTER
 62
           3
100
AcDbLine
 10
4903.231861780774
 20
1941.931705910272
 11
4932.540854995537
 21
1912.622712695509
  0
LINE
  5
25B
100
AcDbEntity
  8
1
  6
CONTINUOUS
 62
           3
100
AcDbLine
 10
4906.711318804977
 20
1926.784986996492
 11
4907.104649370289
 21
1927.178317561803
  0
LINE
  5
25A
100
AcDbEntity
  8
1
  6
CONTINUOUS
 62
           3
100
AcDbLine
 10
4906.711318804977
 20
1926.784986996492
 11
4899.870335786071
 21
1933.625970015396
  0
LINE
  5
259
100
AcDbEntity
  8
1
  6
CONTINUOUS
 62
           3
100
AcDbLine
 10
4899.870335786071
 20
1933.625970015396
 11
4905.70396673086
 21
1939.459600960185
  0
LINE
  5
258
100
AcDbEntity
  8
1
  6
CONTINUOUS
 62
           3
100
AcDbLine
 10
4901.461326043742
 20
1935.216960273066
 11
4900.863251223442
 21
1935.815035093365
  0
LINE
  5
257
100
AcDbEntity
  8
1
  6
CONTINUOUS
 62
           3
100
AcDbLine
 10
4899.665591531084
 20
1934.617375401007
 11
4905.105891910561
 21
1940.057675780485
  0
LINE
  5
256
100
AcDbEntity
  8
1
  6
CONTINUOUS
 62
           3
100
AcDbLine
 10
4899.665591531084
 20
1934.617375401007
 11
4899.166918125466
 21
1935.116048806626
  0
LINE
  5
255
100
AcDbEntity
  8
1
  6
CONTINUOUS
 62
           3
100
AcDbLine
 10
4904.253665114349
 20
1940.909902576697
 11
4899.166918125466
 21
1935.823155587812
  0
LINE
  5
254
100
AcDbEntity
  8
1
  6
CONTINUOUS
 62
           3
100
AcDbLine
 10
4909.340412103233
 20
1945.996649565581
 11
4904.253665114349
 21
1940.909902576697
  0
LINE
  5
253
100
AcDbEntity
  8
1
  6
CONTINUOUS
 62
           3
100
AcDbLine
 10
4910.047518884419
 20
1945.996649565581
 11
4910.546192290038
 21
1945.497976159963
  0
LINE
  5
252
100
AcDbEntity
  8
1
  6
CONTINUOUS
 62
           3
100
AcDbLine
 10
4905.105891910561
 20
1940.057675780485
 11
4910.546192290038
 21
1945.497976159963
  0
LINE
  5
251
100
AcDbEntity
  8
1
  6
CONTINUOUS
 62
           3
100
AcDbLine
 10
4909.34853259768
 20
1944.300316467604
 11
4909.94660741798
 21
1943.702241647305
  0
LINE
  5
250
100
AcDbEntity
  8
1
  6
CONTINUOUS
 62
           3
100
AcDbLine
 10
4911.53759767565
 20
1945.293231904975
 11
4918.378580694554
 21
1938.45224888607
  0
LINE
  5
24F
100
AcDbEntity
  8
1
  6
CONTINUOUS
 62
           3
100
AcDbLine
 10
4905.70396673086
 20
1939.459600960185
 11
4911.53759767565
 21
1945.293231904975
  0
LINE
  5
24E
100
AcDbEntity
  8
1
  6
CONTINUOUS
 62
           3
100
AcDbLine
 10
4917.985250129243
 20
1938.058918320758
 11
4918.378580694554
 21
1938.45224888607
  0
LINE
  5
24D
100
AcDbEntity
  8
1
  6
CONTINUOUS
 62
           3
100
AcDbLine
 10
4907.104649370289
 20
1927.178317561803
 11
4917.985250129243
 21
1938.058918320758
  0
LINE
  5
24C
100
AcDbEntity
  8
1
  6
CONTINUOUS
 62
           3
100
AcDbLine
 10
4911.251912345797
 20
1923.031054586295
 11
4922.132513104751
 21
1933.91165534525
  0
LINE
  5
24B
100
AcDbEntity
  8
1
  6
CONTINUOUS
 62
           3
100
AcDbLine
 10
4911.251912345797
 20
1923.031054586295
 11
4907.104649370289
 21
1927.178317561803
  0
LINE
  5
24A
100
AcDbEntity
  8
1
  6
CONTINUOUS
 62
           3
100
AcDbLine
 10
4922.132513104751
 20
1933.91165534525
 11
4917.985250129243
 21
1938.058918320758
  0
LINE
  5
249
100
AcDbEntity
  8
1
  6
CONTINUOUS
 62
           3
100
AcDbLine
 10
4920.844227068295
 20
1932.623369308795
 11
4924.315582034068
 21
1929.152014343021
  0
LINE
  5
248
100
AcDbEntity
  8
1
  6
DOT_CENTER
 62
           3
100
AcDbLine
 10
4929.81101852017
 20
1934.647450829124
 11
4907.794861711786
 21
1912.63129402074
  0
LINE
  5
247
100
AcDbEntity
  8
1
  6
CONTINUOUS
 62
           3
100
AcDbLine
 10
4916.011553348028
 20
1920.84798565698
 11
4912.540198382254
 21
1924.319340622753
  0
LINE
  5
246
100
AcDbEntity
  8
0
  6
CONTINUOUS
 62
           3
100
AcDbLine
 10
4414.844723494177
 20
1893.116392195192
 11
4415.899996721679
 21
1893.131740391393
  0
LINE
  5
245
100
AcDbEntity
  8
0
  6
CONTINUOUS
 62
           3
100
AcDbLine
 10
4413.903805503279
 20
1893.072016537193
 11
4414.844723494177
 21
1893.116392195192
  0
LINE
  5
244
100
AcDbEntity
  8
0
  6
CONTINUOUS
 62
           3
100
AcDbLine
 10
4413.179205573577
 20
1893.003411590991
 11
4413.903805503279
 21
1893.072016537193
  0
LINE
  5
243
100
AcDbEntity
  8
0
  6
CONTINUOUS
 62
           3
100
AcDbLine
 10
4412.74944584038
 20
1892.918020486792
 11
4413.179205573577
 21
1893.003411590991
  0
LINE
  5
242
100
AcDbEntity
  8
0
  6
CONTINUOUS
 62
           3
100
AcDbLine
 10
4412.661097088376
 20
1892.825089394992
 11
4412.74944584038
 21
1892.918020486792
  0
LINE
  5
241
100
AcDbEntity
  8
0
  6
CONTINUOUS
 62
           3
100
AcDbLine
 10
4412.89999669558
 20
1892.739541828792
 11
4412.661097088376
 21
1892.825089394992
  0
LINE
  5
240
100
AcDbEntity
  8
0
  6
CONTINUOUS
 62
           3
100
AcDbLine
 10
4419.138896354967
 20
1892.825089394992
 11
4418.899996747767
 21
1892.739541828792
  0
LINE
  5
23F
100
AcDbEntity
  8
0
  6
CONTINUOUS
 62
           3
100
AcDbLine
 10
4419.050547602966
 20
1892.918020486792
 11
4419.138896354967
 21
1892.825089394992
  0
LINE
  5
23E
100
AcDbEntity
  8
0
  6
CONTINUOUS
 62
           3
100
AcDbLine
 10
4418.620787869767
 20
1893.003411590991
 11
4419.050547602966
 21
1892.918020486792
  0
LINE
  5
23D
100
AcDbEntity
  8
0
  6
CONTINUOUS
 62
           3
100
AcDbLine
 10
4417.896187940066
 20
1893.072016537193
 11
4418.620787869767
 21
1893.003411590991
  0
LINE
  5
23C
100
AcDbEntity
  8
0
  6
CONTINUOUS
 62
           3
100
AcDbLine
 10
4416.955269949178
 20
1893.116392195192
 11
4417.896187940066
 21
1893.072016537193
  0
LINE
  5
23B
100
AcDbEntity
  8
0
  6
CONTINUOUS
 62
           3
100
AcDbLine
 10
4415.899996721679
 20
1893.131740391393
 11
4416.955269949178
 21
1893.116392195192
  0
LINE
  5
23A
100
AcDbEntity
  8
FORMAT
  6
CONTINUOUS
 62
           3
100
AcDbLine
 10
4412.399996721577
 20
1892.596845102893
 11
4401.899996721588
 21
1892.596845102893
  0
LINE
  5
239
100
AcDbEntity
  8
FORMAT
  6
DOT_CENTER
 62
           3
100
AcDbLine
 10
4415.899996721679
 20
1749.759397252255
 11
4415.899996721679
 21
2225.394390768569
  0
LINE
  5
238
100
AcDbEntity
  8
FORMAT
  6
CONTINUOUS
 62
           3
100
AcDbLine
 10
4419.399996721768
 20
1892.596845102893
 11
4412.399996721577
 21
1892.596845102893
  0
LINE
  5
237
100
AcDbEntity
  8
FORMAT
  6
CONTINUOUS
 62
           3
100
AcDbLine
 10
4429.899996721759
 20
1892.596845102893
 11
4419.399996721768
 21
1892.596845102893
  0
LINE
  5
236
100
AcDbEntity
  8
FORMAT
  6
DOT_CENTER
 62
           3
100
AcDbLine
 10
4340.999996721636
 20
1875.000000000007
 11
4327.399996721748
 21
1875.000000000007
  0
LINE
  5
235
100
AcDbEntity
  8
FORMAT
  6
DOT_CENTER
 62
           3
100
AcDbLine
 10
4340.999996721636
 20
2125.0
 11
4327.399996721748
 21
2125.0
  0
LINE
  5
234
100
AcDbEntity
  8
0
  6
CONTINUOUS
 62
           3
100
AcDbLine
 10
4350.899999106024
 20
1864.999994635815
 11
4335.499999189237
 21
1864.999994635815
  0
LINE
  5
233
100
AcDbEntity
  8
0
  6
CONTINUOUS
 62
           3
100
AcDbLine
 10
4354.399995023127
 20
2090.000003576231
 11
4354.399995023127
 21
2009.999999776395
  0
LINE
  5
232
100
AcDbEntity
  8
0
  6
CONTINUOUS
 62
           3
100
AcDbLine
 10
4357.39999737752
 20
2090.000003576231
 11
4354.399995023127
 21
2090.000003576231
  0
LINE
  5
231
100
AcDbEntity
  8
0
  6
CONTINUOUS
 62
           3
100
AcDbLine
 10
4357.39999737752
 20
2050.000000744964
 11
4357.39999737752
 21
2090.000003576231
  0
LINE
  5
230
100
AcDbEntity
  8
0
  6
CONTINUOUS
 62
           3
100
AcDbLine
 10
4357.39999737752
 20
2029.999999329481
 11
4357.39999737752
 21
2032.000001519878
  0
LINE
  5
22F
100
AcDbEntity
  8
0
  6
CONTINUOUS
 62
           3
100
AcDbLine
 10
4354.399995023127
 20
2009.999999776395
 11
4355.975189322327
 21
2009.999999776395
  0
LINE
  5
22E
100
AcDbEntity
  8
0
  6
CONTINUOUS
 62
           3
100
AcDbLine
 10
4475.899995380624
 20
1868.000000715314
 11
4475.899995380624
 21
1867.300003767014
  0
LINE
  5
22D
100
AcDbEntity
  8
0
  6
CONTINUOUS
 62
           3
100
AcDbLine
 10
4480.899994337317
 20
1864.999994635815
 11
4480.899994337317
 21
1868.000000715314
  0
LINE
  5
22C
100
AcDbEntity
  8
0
  6
CONTINUOUS
 62
           3
100
AcDbLine
 10
4480.899994337317
 20
2135.000005364196
 11
4480.899994337317
 21
2131.999999284697
  0
LINE
  5
22B
100
AcDbEntity
  8
0
  6
CONTINUOUS
 62
           3
100
AcDbLine
 10
4475.899995380624
 20
2131.999999284697
 11
4475.899995380624
 21
2132.699996232994
  0
LINE
  5
22A
100
AcDbEntity
  8
0
  6
CONTINUOUS
 62
           3
100
AcDbLine
 10
4355.899998062718
 20
2131.999999284697
 11
4355.899998062718
 21
2132.699996232994
  0
LINE
  5
229
100
AcDbEntity
  8
0
  6
CONTINUOUS
 62
           3
100
AcDbLine
 10
4350.899999106024
 20
2135.000005364196
 11
4350.899999106024
 21
2131.999999284697
  0
LINE
  5
228
100
AcDbEntity
  8
0
  6
CONTINUOUS
 62
           3
100
AcDbLine
 10
4350.899999106024
 20
2135.000005364196
 11
4335.499999189237
 21
2135.000005364196
  0
LINE
  5
227
100
AcDbEntity
  8
0
  6
CONTINUOUS
 62
           3
100
AcDbLine
 10
4350.899999106024
 20
1864.999994635815
 11
4350.899999106024
 21
1868.000000715314
  0
LINE
  5
226
100
AcDbEntity
  8
0
  6
CONTINUOUS
 62
           3
100
AcDbLine
 10
4355.899998062718
 20
1868.000000715314
 11
4355.899998062718
 21
1867.300003767014
  0
LINE
  5
225
100
AcDbEntity
  8
0
  6
CONTINUOUS
 62
           3
100
AcDbLine
 10
4354.399995023127
 20
1909.99999642378
 11
4354.399995023127
 21
1990.000000223612
  0
LINE
  5
224
100
AcDbEntity
  8
0
  6
CONTINUOUS
 62
           3
100
AcDbLine
 10
4354.399995023127
 20
1990.000000223612
 11
4355.899998062718
 21
1990.000000223612
  0
LINE
  5
223
100
AcDbEntity
  8
0
  6
CONTINUOUS
 62
           3
100
AcDbLine
 10
4357.39999737752
 20
1931.999996304558
 11
4357.39999737752
 21
1929.999999701962
  0
LINE
  5
222
100
AcDbEntity
  8
0
  6
CONTINUOUS
 62
           3
100
AcDbLine
 10
4355.975189322327
 20
1909.99999642378
 11
4354.399995023127
 21
1909.99999642378
  0
LINE
  5
221
100
AcDbEntity
  8
0
  6
CONTINUOUS
 62
           3
100
AcDbLine
 10
4477.399998420228
 20
2090.000003576231
 11
4477.399998420228
 21
2009.999999776395
  0
LINE
  5
220
100
AcDbEntity
  8
0
  6
CONTINUOUS
 62
           3
100
AcDbLine
 10
4477.399998420228
 20
2009.999999776395
 11
4475.824804121025
 21
2009.999999776395
  0
LINE
  5
21F
100
AcDbEntity
  8
0
  6
CONTINUOUS
 62
           3
100
AcDbLine
 10
4474.399996066129
 20
2050.000000744964
 11
4474.399996066129
 21
2090.000003576231
  0
LINE
  5
21E
100
AcDbEntity
  8
0
  6
CONTINUOUS
 62
           3
100
AcDbLine
 10
4474.399996066129
 20
2029.999999329481
 11
4474.399996066129
 21
2032.000001519878
  0
LINE
  5
21D
100
AcDbEntity
  8
0
  6
CONTINUOUS
 62
           3
100
AcDbLine
 10
4474.399996066129
 20
2090.000003576231
 11
4477.399998420228
 21
2090.000003576231
  0
LINE
  5
21C
100
AcDbEntity
  8
0
  6
CONTINUOUS
 62
           3
100
AcDbLine
 10
4477.399998420228
 20
1909.99999642378
 11
4477.399998420228
 21
1990.000000223612
  0
LINE
  5
21B
100
AcDbEntity
  8
0
  6
CONTINUOUS
 62
           3
100
AcDbLine
 10
4475.824804121025
 20
1909.99999642378
 11
4477.399998420228
 21
1909.99999642378
  0
LINE
  5
21A
100
AcDbEntity
  8
0
  6
CONTINUOUS
 62
           3
100
AcDbLine
 10
4474.399996066129
 20
1931.999996304558
 11
4474.399996066129
 21
1929.999999701962
  0
LINE
  5
219
100
AcDbEntity
  8
0
  6
CONTINUOUS
 62
           3
100
AcDbLine
 10
4477.399998420228
 20
1990.000000223612
 11
4475.899995380624
 21
1990.000000223612
  0
LINE
  5
218
100
AcDbEntity
  8
0
  6
CONTINUOUS
 62
           3
100
AcDbLine
 10
4335.499999189237
 20
2135.000005364196
 11
4333.399993443337
 21
2135.000005364196
  0
LINE
  5
217
100
AcDbEntity
  8
0
  6
CONTINUOUS
 62
           3
100
AcDbLine
 10
4333.399993443337
 20
2135.000005364196
 11
4333.399993443337
 21
1864.999994635815
  0
LINE
  5
216
100
AcDbEntity
  8
0
  6
CONTINUOUS
 62
           3
100
AcDbLine
 10
4335.499999189237
 20
1864.999994635815
 11
4333.399993443337
 21
1864.999994635815
  0
LINE
  5
215
100
AcDbEntity
  8
0
  6
CONTINUOUS
 62
           3
100
AcDbLine
 10
4355.899998062718
 20
1866.600006818713
 11
4355.899998062718
 21
1867.300003767014
  0
LINE
  5
214
100
AcDbEntity
  8
0
  6
CONTINUOUS
 62
           3
100
AcDbLine
 10
4475.899995380624
 20
1866.600006818713
 11
4475.899995380624
 21
1867.300003767014
  0
LINE
  5
213
100
AcDbEntity
  8
0
  6
CONTINUOUS
 62
           3
100
AcDbLine
 10
4355.899998062718
 20
2133.399993180996
 11
4355.899998062718
 21
2132.699996232994
  0
LINE
  5
212
100
AcDbEntity
  8
0
  6
CONTINUOUS
 62
           3
100
AcDbLine
 10
4475.899995380624
 20
2133.399993180996
 11
4475.899995380624
 21
2132.699996232994
  0
LINE
  5
211
100
AcDbEntity
  8
0
  6
CONTINUOUS
 62
           3
100
AcDbLine
 10
4470.899996423626
 20
2133.399993180996
 11
4475.899995380624
 21
2133.399993180996
  0
LINE
  5
210
100
AcDbEntity
  8
0
  6
CONTINUOUS
 62
           3
100
AcDbLine
 10
4475.899995380624
 20
2135.000005364196
 11
4470.899996423626
 21
2135.000005364196
  0
LINE
  5
20F
100
AcDbEntity
  8
0
  6
CONTINUOUS
 62
           3
100
AcDbLine
 10
4475.899995380624
 20
2133.399993180996
 11
4475.899995380624
 21
2135.000005364196
  0
LINE
  5
20E
100
AcDbEntity
  8
0
  6
CONTINUOUS
 62
           3
100
AcDbLine
 10
4470.899996423626
 20
1866.600006818713
 11
4475.899995380624
 21
1866.600006818713
  0
LINE
  5
20D
100
AcDbEntity
  8
0
  6
CONTINUOUS
 62
           3
100
AcDbLine
 10
4475.899995380624
 20
1864.999994635815
 11
4470.899996423626
 21
1864.999994635815
  0
LINE
  5
20C
100
AcDbEntity
  8
0
  6
CONTINUOUS
 62
           3
100
AcDbLine
 10
4475.899995380624
 20
1866.600006818713
 11
4475.899995380624
 21
1864.999994635815
  0
LINE
  5
20B
100
AcDbEntity
  8
0
  6
CONTINUOUS
 62
           3
100
AcDbLine
 10
4460.899998509635
 20
1866.600006818713
 11
4462.899995112237
 21
1866.600006818713
  0
LINE
  5
20A
100
AcDbEntity
  8
0
  6
CONTINUOUS
 62
           3
100
AcDbLine
 10
4462.899995112237
 20
1864.999994635815
 11
4460.899998509635
 21
1864.999994635815
  0
LINE
  5
209
100
AcDbEntity
  8
0
  6
CONTINUOUS
 62
           3
100
AcDbLine
 10
4462.899995112237
 20
1866.600006818713
 11
4462.899995112237
 21
1864.999994635815
  0
LINE
  5
208
100
AcDbEntity
  8
0
  6
CONTINUOUS
 62
           3
100
AcDbLine
 10
4460.899998509635
 20
2133.399993180996
 11
4462.899995112237
 21
2133.399993180996
  0
LINE
  5
207
100
AcDbEntity
  8
0
  6
CONTINUOUS
 62
           3
100
AcDbLine
 10
4462.899995112237
 20
2135.000005364196
 11
4460.899998509635
 21
2135.000005364196
  0
LINE
  5
206
100
AcDbEntity
  8
0
  6
CONTINUOUS
 62
           3
100
AcDbLine
 10
4462.899995112237
 20
2133.399993180996
 11
4462.899995112237
 21
2135.000005364196
  0
LINE
  5
205
100
AcDbEntity
  8
0
  6
CONTINUOUS
 62
           3
100
AcDbLine
 10
4468.899996095924
 20
1866.600006818713
 11
4470.899996423626
 21
1866.600006818713
  0
LINE
  5
204
100
AcDbEntity
  8
0
  6
CONTINUOUS
 62
           3
100
AcDbLine
 10
4470.899996423626
 20
1864.999994635815
 11
4468.899996095924
 21
1864.999994635815
  0
LINE
  5
203
100
AcDbEntity
  8
0
  6
CONTINUOUS
 62
           3
100
AcDbLine
 10
4468.899996095924
 20
1864.999994635815
 11
4468.899996095924
 21
1866.600006818713
  0
LINE
  5
202
100
AcDbEntity
  8
0
  6
CONTINUOUS
 62
           3
100
AcDbLine
 10
4468.899996095924
 20
2133.399993180996
 11
4470.899996423626
 21
2133.399993180996
  0
LINE
  5
201
100
AcDbEntity
  8
0
  6
CONTINUOUS
 62
           3
100
AcDbLine
 10
4470.899996423626
 20
2135.000005364196
 11
4468.899996095924
 21
2135.000005364196
  0
LINE
  5
200
100
AcDbEntity
  8
0
  6
CONTINUOUS
 62
           3
100
AcDbLine
 10
4468.899996095924
 20
2135.000005364196
 11
4468.899996095924
 21
2133.399993180996
  0
LINE
  5
1FF
100
AcDbEntity
  8
0
  6
CONTINUOUS
 62
           3
100
AcDbLine
 10
4360.899997019716
 20
2133.399993180996
 11
4355.899998062718
 21
2133.399993180996
  0
LINE
  5
1FE
100
AcDbEntity
  8
0
  6
CONTINUOUS
 62
           3
100
AcDbLine
 10
4355.899998062718
 20
2135.000005364196
 11
4360.899997019716
 21
2135.000005364196
  0
LINE
  5
1FD
100
AcDbEntity
  8
0
  6
CONTINUOUS
 62
           3
100
AcDbLine
 10
4355.899998062718
 20
2133.399993180996
 11
4355.899998062718
 21
2135.000005364196
  0
LINE
  5
1FC
100
AcDbEntity
  8
0
  6
CONTINUOUS
 62
           3
100
AcDbLine
 10
4360.899997019716
 20
1866.600006818713
 11
4355.899998062718
 21
1866.600006818713
  0
LINE
  5
1FB
100
AcDbEntity
  8
0
  6
CONTINUOUS
 62
           3
100
AcDbLine
 10
4355.899998062718
 20
1864.999994635815
 11
4360.899997019716
 21
1864.999994635815
  0
LINE
  5
1FA
100
AcDbEntity
  8
0
  6
CONTINUOUS
 62
           3
100
AcDbLine
 10
4355.899998062718
 20
1866.600006818713
 11
4355.899998062718
 21
1864.999994635815
  0
LINE
  5
1F9
100
AcDbEntity
  8
0
  6
CONTINUOUS
 62
           3
100
AcDbLine
 10
4370.899994933707
 20
2133.399993180996
 11
4460.899998509635
 21
2133.399993180996
  0
LINE
  5
1F8
100
AcDbEntity
  8
0
  6
CONTINUOUS
 62
           3
100
AcDbLine
 10
4370.899994933707
 20
2135.000005364196
 11
4460.899998509635
 21
2135.000005364196
  0
LINE
  5
1F7
100
AcDbEntity
  8
0
  6
CONTINUOUS
 62
           3
100
AcDbLine
 10
4370.899994933707
 20
1866.600006818713
 11
4460.899998509635
 21
1866.600006818713
  0
LINE
  5
1F6
100
AcDbEntity
  8
0
  6
CONTINUOUS
 62
           3
100
AcDbLine
 10
4370.899994933707
 20
1864.999994635815
 11
4460.899998509635
 21
1864.999994635815
  0
LINE
  5
1F5
100
AcDbEntity
  8
0
  6
CONTINUOUS
 62
           3
100
AcDbLine
 10
4370.899994933707
 20
1866.600006818713
 11
4368.899998331107
 21
1866.600006818713
  0
LINE
  5
1F4
100
AcDbEntity
  8
0
  6
CONTINUOUS
 62
           3
100
AcDbLine
 10
4368.899998331107
 20
1866.600006818713
 11
4368.899998331107
 21
1864.999994635815
  0
LINE
  5
1F3
100
AcDbEntity
  8
0
  6
CONTINUOUS
 62
           3
100
AcDbLine
 10
4368.899998331107
 20
1864.999994635815
 11
4370.899994933707
 21
1864.999994635815
  0
LINE
  5
1F2
100
AcDbEntity
  8
0
  6
CONTINUOUS
 62
           3
100
AcDbLine
 10
4370.899994933707
 20
2133.399993180996
 11
4368.899998331107
 21
2133.399993180996
  0
LINE
  5
1F1
100
AcDbEntity
  8
0
  6
CONTINUOUS
 62
           3
100
AcDbLine
 10
4368.899998331107
 20
2135.000005364196
 11
4370.899994933707
 21
2135.000005364196
  0
LINE
  5
1F0
100
AcDbEntity
  8
0
  6
CONTINUOUS
 62
           3
100
AcDbLine
 10
4368.899998331107
 20
2133.399993180996
 11
4368.899998331107
 21
2135.000005364196
  0
LINE
  5
1EF
100
AcDbEntity
  8
0
  6
CONTINUOUS
 62
           3
100
AcDbLine
 10
4362.899997347717
 20
2133.399993180996
 11
4360.899997019716
 21
2133.399993180996
  0
LINE
  5
1EE
100
AcDbEntity
  8
0
  6
CONTINUOUS
 62
           3
100
AcDbLine
 10
4362.899997347717
 20
2135.000005364196
 11
4362.899997347717
 21
2133.399993180996
  0
LINE
  5
1ED
100
AcDbEntity
  8
0
  6
CONTINUOUS
 62
           3
100
AcDbLine
 10
4360.899997019716
 20
2135.000005364196
 11
4362.899997347717
 21
2135.000005364196
  0
LINE
  5
1EC
100
AcDbEntity
  8
0
  6
CONTINUOUS
 62
           3
100
AcDbLine
 10
4362.899997347717
 20
1866.600006818713
 11
4360.899997019716
 21
1866.600006818713
  0
LINE
  5
1EB
100
AcDbEntity
  8
0
  6
CONTINUOUS
 62
           3
100
AcDbLine
 10
4360.899997019716
 20
1864.999994635815
 11
4362.899997347717
 21
1864.999994635815
  0
LINE
  5
1EA
100
AcDbEntity
  8
0
  6
CONTINUOUS
 62
           3
100
AcDbLine
 10
4362.899997347717
 20
1864.999994635815
 11
4362.899997347717
 21
1866.600006818713
  0
LINE
  5
1E9
100
AcDbEntity
  8
0
  6
CONTINUOUS
 62
           3
100
AcDbLine
 10
4475.824804121025
 20
1909.99999642378
 11
4474.199996405628
 21
1909.99999642378
  0
LINE
  5
1E8
100
AcDbEntity
  8
0
  6
CONTINUOUS
 62
           3
100
AcDbLine
 10
4474.199996405628
 20
1929.999999701962
 11
4475.899995380624
 21
1929.999999701962
  0
LINE
  5
1E7
100
AcDbEntity
  8
0
  6
CONTINUOUS
 62
           3
100
AcDbLine
 10
4475.899995380624
 20
1929.999999701962
 11
4475.899995380624
 21
1909.99999642378
  0
LINE
  5
1E6
100
AcDbEntity
  8
0
  6
CONTINUOUS
 62
           3
100
AcDbLine
 10
4355.899998062718
 20
2029.999999329481
 11
4357.599997037719
 21
2029.999999329481
  0
LINE
  5
1E5
100
AcDbEntity
  8
0
  6
CONTINUOUS
 62
           3
100
AcDbLine
 10
4355.899998062718
 20
2009.999999776395
 11
4355.899998062718
 21
2029.999999329481
  0
LINE
  5
1E4
100
AcDbEntity
  8
0
  6
CONTINUOUS
 62
           3
100
AcDbLine
 10
4357.599997037719
 20
2009.999999776395
 11
4355.975189322327
 21
2009.999999776395
  0
LINE
  5
1E3
100
AcDbEntity
  8
0
  6
CONTINUOUS
 62
           3
100
AcDbLine
 10
4355.975189322327
 20
1909.99999642378
 11
4357.599997037719
 21
1909.99999642378
  0
LINE
  5
1E2
100
AcDbEntity
  8
0
  6
CONTINUOUS
 62
           3
100
AcDbLine
 10
4357.599997037719
 20
1929.999999701962
 11
4355.899998062718
 21
1929.999999701962
  0
LINE
  5
1E1
100
AcDbEntity
  8
0
  6
CONTINUOUS
 62
           3
100
AcDbLine
 10
4355.899998062718
 20
1929.999999701962
 11
4355.899998062718
 21
1909.99999642378
  0
LINE
  5
1E0
100
AcDbEntity
  8
0
  6
CONTINUOUS
 62
           3
100
AcDbLine
 10
4357.599997037719
 20
2029.999999329481
 11
4357.899998390718
 21
2029.999999329481
  0
LINE
  5
1DF
100
AcDbEntity
  8
0
  6
CONTINUOUS
 62
           3
100
AcDbLine
 10
4357.899998390718
 20
2009.999999776395
 11
4357.599997037719
 21
2009.999999776395
  0
LINE
  5
1DE
100
AcDbEntity
  8
0
  6
CONTINUOUS
 62
           3
100
AcDbLine
 10
4355.899998062718
 20
2008.000000379899
 11
4357.899998390718
 21
2008.000000379899
  0
LINE
  5
1DD
100
AcDbEntity
  8
0
  6
CONTINUOUS
 62
           3
100
AcDbLine
 10
4355.899998062718
 20
2008.000000379899
 11
4355.899998062718
 21
1931.999996304558
  0
LINE
  5
1DC
100
AcDbEntity
  8
0
  6
CONTINUOUS
 62
           3
100
AcDbLine
 10
4355.899998062718
 20
1931.999996304558
 11
4357.899998390718
 21
1931.999996304558
  0
LINE
  5
1DB
100
AcDbEntity
  8
0
  6
CONTINUOUS
 62
           3
100
AcDbLine
 10
4357.899998390718
 20
1929.999999701962
 11
4357.599997037719
 21
1929.999999701962
  0
LINE
  5
1DA
100
AcDbEntity
  8
0
  6
CONTINUOUS
 62
           3
100
AcDbLine
 10
4357.599997037719
 20
1909.99999642378
 11
4357.899998390718
 21
1909.99999642378
  0
LINE
  5
1D9
100
AcDbEntity
  8
0
  6
CONTINUOUS
 62
           3
100
AcDbLine
 10
4357.899998390718
 20
1907.999999821182
 11
4355.899998062718
 21
1907.999999821182
  0
LINE
  5
1D8
100
AcDbEntity
  8
0
  6
CONTINUOUS
 62
           3
100
AcDbLine
 10
4355.899998062718
 20
1891.699999570792
 11
4355.899998062718
 21
1907.999999821182
  0
LINE
  5
1D7
100
AcDbEntity
  8
0
  6
CONTINUOUS
 62
           3
100
AcDbLine
 10
4475.899995380624
 20
1891.699999570792
 11
4475.899995380624
 21
1907.999999821182
  0
LINE
  5
1D6
100
AcDbEntity
  8
0
  6
CONTINUOUS
 62
           3
100
AcDbLine
 10
4473.899995052626
 20
1907.999999821182
 11
4475.899995380624
 21
1907.999999821182
  0
LINE
  5
1D5
100
AcDbEntity
  8
0
  6
CONTINUOUS
 62
           3
100
AcDbLine
 10
4474.199996405628
 20
1909.99999642378
 11
4473.899995052626
 21
1909.99999642378
  0
LINE
  5
1D4
100
AcDbEntity
  8
0
  6
CONTINUOUS
 62
           3
100
AcDbLine
 10
4473.899995052626
 20
1929.999999701962
 11
4474.199996405628
 21
1929.999999701962
  0
LINE
  5
1D3
100
AcDbEntity
  8
0
  6
CONTINUOUS
 62
           3
100
AcDbLine
 10
4475.899995380624
 20
1931.999996304558
 11
4473.899995052626
 21
1931.999996304558
  0
LINE
  5
1D2
100
AcDbEntity
  8
0
  6
CONTINUOUS
 62
           3
100
AcDbLine
 10
4475.899995380624
 20
2008.000000379899
 11
4475.899995380624
 21
1931.999996304558
  0
LINE
  5
1D1
100
AcDbEntity
  8
0
  6
CONTINUOUS
 62
           3
100
AcDbLine
 10
4475.899995380624
 20
2008.000000379899
 11
4473.899995052626
 21
2008.000000379899
  0
LINE
  5
1D0
100
AcDbEntity
  8
0
  6
CONTINUOUS
 62
           3
100
AcDbLine
 10
4473.899995052626
 20
2009.999999776395
 11
4474.199996405628
 21
2009.999999776395
  0
LINE
  5
1CF
100
AcDbEntity
  8
0
  6
CONTINUOUS
 62
           3
100
AcDbLine
 10
4474.199996405628
 20
2029.999999329481
 11
4473.899995052626
 21
2029.999999329481
  0
LINE
  5
1CE
100
AcDbEntity
  8
0
  6
CONTINUOUS
 62
           3
100
AcDbLine
 10
4473.899995052626
 20
2032.000001519878
 11
4475.899995380624
 21
2032.000001519878
  0
LINE
  5
1CD
100
AcDbEntity
  8
0
  6
CONTINUOUS
 62
           3
100
AcDbLine
 10
4475.899995380624
 20
2048.300001770265
 11
4475.899995380624
 21
2032.000001519878
  0
LINE
  5
1CC
100
AcDbEntity
  8
0
  6
CONTINUOUS
 62
           3
100
AcDbLine
 10
4355.899998062718
 20
2048.300001770265
 11
4355.899998062718
 21
2032.000001519878
  0
LINE
  5
1CB
100
AcDbEntity
  8
0
  6
CONTINUOUS
 62
           3
100
AcDbLine
 10
4357.899998390718
 20
2032.000001519878
 11
4355.899998062718
 21
2032.000001519878
  0
LINE
  5
1CA
100
AcDbEntity
  8
0
  6
CONTINUOUS
 62
           3
100
AcDbLine
 10
4474.199996405628
 20
2009.999999776395
 11
4475.824804121025
 21
2009.999999776395
  0
LINE
  5
1C9
100
AcDbEntity
  8
0
  6
CONTINUOUS
 62
           3
100
AcDbLine
 10
4475.899995380624
 20
2009.999999776395
 11
4475.899995380624
 21
2029.999999329481
  0
LINE
  5
1C8
100
AcDbEntity
  8
0
  6
CONTINUOUS
 62
           3
100
AcDbLine
 10
4475.899995380624
 20
2029.999999329481
 11
4474.199996405628
 21
2029.999999329481
  0
LINE
  5
1C7
100
AcDbEntity
  8
0
  6
CONTINUOUS
 62
           3
100
AcDbLine
 10
4475.899995380624
 20
2048.799999058065
 11
4475.899995380624
 21
2048.300001770265
  0
LINE
  5
1C6
100
AcDbEntity
  8
0
  6
CONTINUOUS
 62
           3
100
AcDbLine
 10
4355.899998062718
 20
2048.799999058065
 11
4355.899998062718
 21
2048.300001770265
  0
LINE
  5
1C5
100
AcDbEntity
  8
0
  6
CONTINUOUS
 62
           3
100
AcDbLine
 10
4355.899998062718
 20
1891.199998557593
 11
4355.899998062718
 21
1891.699999570792
  0
LINE
  5
1C4
100
AcDbEntity
  8
0
  6
CONTINUOUS
 62
           3
100
AcDbLine
 10
4475.899995380624
 20
1891.199998557593
 11
4475.899995380624
 21
1891.699999570792
  0
LINE
  5
1C3
100
AcDbEntity
  8
0
  6
CONTINUOUS
 62
           3
100
AcDbLine
 10
4418.899996747767
 20
2050.000000744964
 11
4419.149996788767
 21
2050.000000744964
  0
LINE
  5
1C2
100
AcDbEntity
  8
0
  6
CONTINUOUS
 62
           3
100
AcDbLine
 10
4412.64999665458
 20
2050.000000744964
 11
4412.89999669558
 21
2050.000000744964
  0
LINE
  5
1C1
100
AcDbEntity
  8
0
  6
CONTINUOUS
 62
           3
100
AcDbLine
 10
4418.899996747767
 20
2048.799999058065
 11
4419.149996788767
 21
2048.799999058065
  0
LINE
  5
1C0
100
AcDbEntity
  8
0
  6
CONTINUOUS
 62
           3
100
AcDbLine
 10
4412.64999665458
 20
2048.799999058065
 11
4412.89999669558
 21
2048.799999058065
  0
LINE
  5
1BF
100
AcDbEntity
  8
0
  6
CONTINUOUS
 62
           3
100
AcDbLine
 10
4412.89999669558
 20
1891.199998557593
 11
4412.64999665458
 21
1891.199998557593
  0
LINE
  5
1BE
100
AcDbEntity
  8
0
  6
CONTINUOUS
 62
           3
100
AcDbLine
 10
4419.149996788767
 20
1891.199998557593
 11
4418.899996747767
 21
1891.199998557593
  0
LINE
  5
1BD
100
AcDbEntity
  8
0
  6
CONTINUOUS
 62
           3
100
AcDbLine
 10
4360.899997019716
 20
1891.199998557593
 11
4355.899998062718
 21
1891.199998557593
  0
LINE
  5
1BC
100
AcDbEntity
  8
0
  6
CONTINUOUS
 62
           3
100
AcDbLine
 10
4355.899998062718
 20
1890.000000596097
 11
4360.899997019716
 21
1890.000000596097
  0
LINE
  5
1BB
100
AcDbEntity
  8
0
  6
CONTINUOUS
 62
           3
100
AcDbLine
 10
4355.899998062718
 20
1891.199998557593
 11
4355.899998062718
 21
1890.000000596097
  0
LINE
  5
1BA
100
AcDbEntity
  8
0
  6
CONTINUOUS
 62
           3
100
AcDbLine
 10
4355.899998062718
 20
2050.000000744964
 11
4360.899997019716
 21
2050.000000744964
  0
LINE
  5
1B9
100
AcDbEntity
  8
0
  6
CONTINUOUS
 62
           3
100
AcDbLine
 10
4360.899997019716
 20
2048.799999058065
 11
4355.899998062718
 21
2048.799999058065
  0
LINE
  5
1B8
100
AcDbEntity
  8
0
  6
CONTINUOUS
 62
           3
100
AcDbLine
 10
4355.899998062718
 20
2048.799999058065
 11
4355.899998062718
 21
2050.000000744964
  0
LINE
  5
1B7
100
AcDbEntity
  8
0
  6
CONTINUOUS
 62
           3
100
AcDbLine
 10
4460.899998509635
 20
2050.000000744964
 11
4445.899996051147
 21
2050.000000744964
  0
LINE
  5
1B6
100
AcDbEntity
  8
0
  6
CONTINUOUS
 62
           3
100
AcDbLine
 10
4460.899998509635
 20
2048.799999058065
 11
4445.899996051147
 21
2048.799999058065
  0
LINE
  5
1B5
100
AcDbEntity
  8
0
  6
CONTINUOUS
 62
           3
100
AcDbLine
 10
4475.899995380624
 20
2050.000000744964
 11
4470.899996423626
 21
2050.000000744964
  0
LINE
  5
1B4
100
AcDbEntity
  8
0
  6
CONTINUOUS
 62
           3
100
AcDbLine
 10
4470.899996423626
 20
2048.799999058065
 11
4475.899995380624
 21
2048.799999058065
  0
LINE
  5
1B3
100
AcDbEntity
  8
0
  6
CONTINUOUS
 62
           3
100
AcDbLine
 10
4475.899995380624
 20
2048.799999058065
 11
4475.899995380624
 21
2050.000000744964
  0
LINE
  5
1B2
100
AcDbEntity
  8
0
  6
CONTINUOUS
 62
           3
100
AcDbLine
 10
4460.899998509635
 20
1891.199998557593
 11
4445.899996051147
 21
1891.199998557593
  0
LINE
  5
1B1
100
AcDbEntity
  8
0
  6
CONTINUOUS
 62
           3
100
AcDbLine
 10
4460.899998509635
 20
1890.000000596097
 11
4445.899996051147
 21
1890.000000596097
  0
LINE
  5
1B0
100
AcDbEntity
  8
0
  6
CONTINUOUS
 62
           3
100
AcDbLine
 10
4370.899994933707
 20
2050.000000744964
 11
4385.899997392194
 21
2050.000000744964
  0
LINE
  5
1AF
100
AcDbEntity
  8
0
  6
CONTINUOUS
 62
           3
100
AcDbLine
 10
4370.899994933707
 20
2048.799999058065
 11
4385.899997392194
 21
2048.799999058065
  0
LINE
  5
1AE
100
AcDbEntity
  8
0
  6
CONTINUOUS
 62
           3
100
AcDbLine
 10
4470.899996423626
 20
1891.199998557593
 11
4475.899995380624
 21
1891.199998557593
  0
LINE
  5
1AD
100
AcDbEntity
  8
0
  6
CONTINUOUS
 62
           3
100
AcDbLine
 10
4475.899995380624
 20
1890.000000596097
 11
4470.899996423626
 21
1890.000000596097
  0
LINE
  5
1AC
100
AcDbEntity
  8
0
  6
CONTINUOUS
 62
           3
100
AcDbLine
 10
4475.899995380624
 20
1891.199998557593
 11
4475.899995380624
 21
1890.000000596097
  0
LINE
  5
1AB
100
AcDbEntity
  8
0
  6
CONTINUOUS
 62
           3
100
AcDbLine
 10
4370.899994933707
 20
1891.199998557593
 11
4385.899997392194
 21
1891.199998557593
  0
LINE
  5
1AA
100
AcDbEntity
  8
0
  6
CONTINUOUS
 62
           3
100
AcDbLine
 10
4370.899994933707
 20
1890.000000596097
 11
4385.899997392194
 21
1890.000000596097
  0
LINE
  5
1A9
100
AcDbEntity
  8
0
  6
CONTINUOUS
 62
           3
100
AcDbLine
 10
4368.899998331107
 20
2050.000000744964
 11
4370.899994933707
 21
2050.000000744964
  0
LINE
  5
1A8
100
AcDbEntity
  8
0
  6
CONTINUOUS
 62
           3
100
AcDbLine
 10
4370.899994933707
 20
2048.799999058065
 11
4368.899998331107
 21
2048.799999058065
  0
LINE
  5
1A7
100
AcDbEntity
  8
0
  6
CONTINUOUS
 62
           3
100
AcDbLine
 10
4368.899998331107
 20
2048.799999058065
 11
4368.899998331107
 21
2050.000000744964
  0
LINE
  5
1A6
100
AcDbEntity
  8
0
  6
CONTINUOUS
 62
           3
100
AcDbLine
 10
4360.899997019716
 20
2050.000000744964
 11
4362.899997347717
 21
2050.000000744964
  0
LINE
  5
1A5
100
AcDbEntity
  8
0
  6
CONTINUOUS
 62
           3
100
AcDbLine
 10
4362.899997347717
 20
2048.799999058065
 11
4360.899997019716
 21
2048.799999058065
  0
LINE
  5
1A4
100
AcDbEntity
  8
0
  6
CONTINUOUS
 62
           3
100
AcDbLine
 10
4362.899997347717
 20
2050.000000744964
 11
4362.899997347717
 21
2048.799999058065
  0
LINE
  5
1A3
100
AcDbEntity
  8
0
  6
CONTINUOUS
 62
           3
100
AcDbLine
 10
4460.899998509635
 20
1891.199998557593
 11
4462.899995112237
 21
1891.199998557593
  0
LINE
  5
1A2
100
AcDbEntity
  8
0
  6
CONTINUOUS
 62
           3
100
AcDbLine
 10
4462.899995112237
 20
1890.000000596097
 11
4460.899998509635
 21
1890.000000596097
  0
LINE
  5
1A1
100
AcDbEntity
  8
0
  6
CONTINUOUS
 62
           3
100
AcDbLine
 10
4462.899995112237
 20
1891.199998557593
 11
4462.899995112237
 21
1890.000000596097
  0
LINE
  5
1A0
100
AcDbEntity
  8
0
  6
CONTINUOUS
 62
           3
100
AcDbLine
 10
4468.899996095924
 20
1891.199998557593
 11
4470.899996423626
 21
1891.199998557593
  0
LINE
  5
19F
100
AcDbEntity
  8
0
  6
CONTINUOUS
 62
           3
100
AcDbLine
 10
4470.899996423626
 20
1890.000000596097
 11
4468.899996095924
 21
1890.000000596097
  0
LINE
  5
19E
100
AcDbEntity
  8
0
  6
CONTINUOUS
 62
           3
100
AcDbLine
 10
4468.899996095924
 20
1890.000000596097
 11
4468.899996095924
 21
1891.199998557593
  0
LINE
  5
19D
100
AcDbEntity
  8
0
  6
CONTINUOUS
 62
           3
100
AcDbLine
 10
4462.899995112237
 20
2050.000000744964
 11
4460.899998509635
 21
2050.000000744964
  0
LINE
  5
19C
100
AcDbEntity
  8
0
  6
CONTINUOUS
 62
           3
100
AcDbLine
 10
4460.899998509635
 20
2048.799999058065
 11
4462.899995112237
 21
2048.799999058065
  0
LINE
  5
19B
100
AcDbEntity
  8
0
  6
CONTINUOUS
 62
           3
100
AcDbLine
 10
4462.899995112237
 20
2048.799999058065
 11
4462.899995112237
 21
2050.000000744964
  0
LINE
  5
19A
100
AcDbEntity
  8
0
  6
CONTINUOUS
 62
           3
100
AcDbLine
 10
4470.899996423626
 20
2050.000000744964
 11
4468.899996095924
 21
2050.000000744964
  0
LINE
  5
199
100
AcDbEntity
  8
0
  6
CONTINUOUS
 62
           3
100
AcDbLine
 10
4468.899996095924
 20
2048.799999058065
 11
4470.899996423626
 21
2048.799999058065
  0
LINE
  5
198
100
AcDbEntity
  8
0
  6
CONTINUOUS
 62
           3
100
AcDbLine
 10
4468.899996095924
 20
2050.000000744964
 11
4468.899996095924
 21
2048.799999058065
  0
LINE
  5
197
100
AcDbEntity
  8
0
  6
CONTINUOUS
 62
           3
100
AcDbLine
 10
4370.899994933707
 20
1891.199998557593
 11
4368.899998331107
 21
1891.199998557593
  0
LINE
  5
196
100
AcDbEntity
  8
0
  6
CONTINUOUS
 62
           3
100
AcDbLine
 10
4368.899998331107
 20
1890.000000596097
 11
4370.899994933707
 21
1890.000000596097
  0
LINE
  5
195
100
AcDbEntity
  8
0
  6
CONTINUOUS
 62
           3
100
AcDbLine
 10
4368.899998331107
 20
1891.199998557593
 11
4368.899998331107
 21
1890.000000596097
  0
LINE
  5
194
100
AcDbEntity
  8
0
  6
CONTINUOUS
 62
           3
100
AcDbLine
 10
4362.899997347717
 20
1891.199998557593
 11
4360.899997019716
 21
1891.199998557593
  0
LINE
  5
193
100
AcDbEntity
  8
0
  6
CONTINUOUS
 62
           3
100
AcDbLine
 10
4360.899997019716
 20
1890.000000596097
 11
4362.899997347717
 21
1890.000000596097
  0
LINE
  5
192
100
AcDbEntity
  8
0
  6
CONTINUOUS
 62
           3
100
AcDbLine
 10
4362.899997347717
 20
1890.000000596097
 11
4362.899997347717
 21
1891.199998557593
  0
LINE
  5
191
100
AcDbEntity
  8
0
  6
CONTINUOUS
 62
           3
100
AcDbLine
 10
4412.39999661358
 20
1891.199998557593
 11
4412.64999665458
 21
1891.199998557593
  0
LINE
  5
190
100
AcDbEntity
  8
0
  6
CONTINUOUS
 62
           3
100
AcDbLine
 10
4412.64999665458
 20
1891.199998557593
 11
4412.64999665458
 21
1890.000000596097
  0
LINE
  5
18F
100
AcDbEntity
  8
0
  6
CONTINUOUS
 62
           3
100
AcDbLine
 10
4445.899996051147
 20
1891.199998557593
 11
4435.899996274756
 21
1891.199998557593
  0
LINE
  5
18E
100
AcDbEntity
  8
0
  6
CONTINUOUS
 62
           3
100
AcDbLine
 10
4445.899996051147
 20
1890.000000596097
 11
4435.899996274756
 21
1890.000000596097
  0
LINE
  5
18D
100
AcDbEntity
  8
0
  6
CONTINUOUS
 62
           3
100
AcDbLine
 10
4445.899996051147
 20
1891.199998557593
 11
4445.899996051147
 21
1890.000000596097
  0
LINE
  5
18C
100
AcDbEntity
  8
0
  6
CONTINUOUS
 62
           3
100
AcDbLine
 10
4410.649996792477
 20
2050.000000744964
 11
4412.64999665458
 21
2050.000000744964
  0
LINE
  5
18B
100
AcDbEntity
  8
0
  6
CONTINUOUS
 62
           3
100
AcDbLine
 10
4412.64999665458
 20
2048.799999058065
 11
4410.649996792477
 21
2048.799999058065
  0
LINE
  5
18A
100
AcDbEntity
  8
0
  6
CONTINUOUS
 62
           3
100
AcDbLine
 10
4412.64999665458
 20
2050.000000744964
 11
4412.64999665458
 21
2048.799999058065
  0
LINE
  5
189
100
AcDbEntity
  8
0
  6
CONTINUOUS
 62
           3
100
AcDbLine
 10
4423.899997101566
 20
1891.199998557593
 11
4435.899996274756
 21
1891.199998557593
  0
LINE
  5
188
100
AcDbEntity
  8
0
  6
CONTINUOUS
 62
           3
100
AcDbLine
 10
4423.899997101566
 20
1890.000000596097
 11
4435.899996274756
 21
1890.000000596097
  0
LINE
  5
187
100
AcDbEntity
  8
0
  6
CONTINUOUS
 62
           3
100
AcDbLine
 10
4435.899996274756
 20
1891.199998557593
 11
4435.899996274756
 21
1890.000000596097
  0
LINE
  5
186
100
AcDbEntity
  8
0
  6
CONTINUOUS
 62
           3
100
AcDbLine
 10
4385.899997392194
 20
1891.199998557593
 11
4395.89999716859
 21
1891.199998557593
  0
LINE
  5
185
100
AcDbEntity
  8
0
  6
CONTINUOUS
 62
           3
100
AcDbLine
 10
4385.899997392194
 20
1890.000000596097
 11
4395.89999716859
 21
1890.000000596097
  0
LINE
  5
184
100
AcDbEntity
  8
0
  6
CONTINUOUS
 62
           3
100
AcDbLine
 10
4385.899997392194
 20
1891.199998557593
 11
4385.899997392194
 21
1890.000000596097
  0
LINE
  5
183
100
AcDbEntity
  8
0
  6
CONTINUOUS
 62
           3
100
AcDbLine
 10
4419.149996788767
 20
2050.000000744964
 11
4421.149996650869
 21
2050.000000744964
  0
LINE
  5
182
100
AcDbEntity
  8
0
  6
CONTINUOUS
 62
           3
100
AcDbLine
 10
4421.149996650869
 20
2048.799999058065
 11
4419.149996788767
 21
2048.799999058065
  0
LINE
  5
181
100
AcDbEntity
  8
0
  6
CONTINUOUS
 62
           3
100
AcDbLine
 10
4419.149996788767
 20
2048.799999058065
 11
4419.149996788767
 21
2050.000000744964
  0
LINE
  5
180
100
AcDbEntity
  8
0
  6
CONTINUOUS
 62
           3
100
AcDbLine
 10
4445.899996051147
 20
2050.000000744964
 11
4435.899996274756
 21
2050.000000744964
  0
LINE
  5
17F
100
AcDbEntity
  8
0
  6
CONTINUOUS
 62
           3
100
AcDbLine
 10
4445.899996051147
 20
2048.799999058065
 11
4435.899996274756
 21
2048.799999058065
  0
LINE
  5
17E
100
AcDbEntity
  8
0
  6
CONTINUOUS
 62
           3
100
AcDbLine
 10
4445.899996051147
 20
2048.799999058065
 11
4445.899996051147
 21
2050.000000744964
  0
LINE
  5
17D
100
AcDbEntity
  8
0
  6
CONTINUOUS
 62
           3
100
AcDbLine
 10
4419.149996788767
 20
1891.199998557593
 11
4419.399996829767
 21
1891.199998557593
  0
LINE
  5
17C
100
AcDbEntity
  8
0
  6
CONTINUOUS
 62
           3
100
AcDbLine
 10
4419.149996788767
 20
1890.000000596097
 11
4419.149996788767
 21
1891.199998557593
  0
LINE
  5
17B
100
AcDbEntity
  8
0
  6
CONTINUOUS
 62
           3
100
AcDbLine
 10
4395.89999716859
 20
1891.199998557593
 11
4407.899996341778
 21
1891.199998557593
  0
LINE
  5
17A
100
AcDbEntity
  8
0
  6
CONTINUOUS
 62
           3
100
AcDbLine
 10
4395.89999716859
 20
1890.000000596097
 11
4407.899996341778
 21
1890.000000596097
  0
LINE
  5
179
100
AcDbEntity
  8
0
  6
CONTINUOUS
 62
           3
100
AcDbLine
 10
4395.89999716859
 20
1891.199998557593
 11
4395.89999716859
 21
1890.000000596097
  0
LINE
  5
178
100
AcDbEntity
  8
0
  6
CONTINUOUS
 62
           3
100
AcDbLine
 10
4395.89999716859
 20
2050.000000744964
 11
4410.649996792477
 21
2050.000000744964
  0
LINE
  5
177
100
AcDbEntity
  8
0
  6
CONTINUOUS
 62
           3
100
AcDbLine
 10
4395.89999716859
 20
2048.799999058065
 11
4410.649996792477
 21
2048.799999058065
  0
LINE
  5
176
100
AcDbEntity
  8
0
  6
CONTINUOUS
 62
           3
100
AcDbLine
 10
4421.149996650869
 20
2050.000000744964
 11
4435.899996274756
 21
2050.000000744964
  0
LINE
  5
175
100
AcDbEntity
  8
0
  6
CONTINUOUS
 62
           3
100
AcDbLine
 10
4421.149996650869
 20
2048.799999058065
 11
4435.899996274756
 21
2048.799999058065
  0
LINE
  5
174
100
AcDbEntity
  8
0
  6
CONTINUOUS
 62
           3
100
AcDbLine
 10
4435.899996274756
 20
2048.799999058065
 11
4435.899996274756
 21
2050.000000744964
  0
LINE
  5
173
100
AcDbEntity
  8
0
  6
CONTINUOUS
 62
           3
100
AcDbLine
 10
4385.899997392194
 20
2048.799999058065
 11
4385.899997392194
 21
2050.000000744964
  0
LINE
  5
172
100
AcDbEntity
  8
0
  6
CONTINUOUS
 62
           3
100
AcDbLine
 10
4385.899997392194
 20
2048.799999058065
 11
4395.89999716859
 21
2048.799999058065
  0
LINE
  5
171
100
AcDbEntity
  8
0
  6
CONTINUOUS
 62
           3
100
AcDbLine
 10
4395.89999716859
 20
2048.799999058065
 11
4395.89999716859
 21
2050.000000744964
  0
LINE
  5
170
100
AcDbEntity
  8
0
  6
CONTINUOUS
 62
           3
100
AcDbLine
 10
4385.899997392194
 20
2050.000000744964
 11
4395.89999716859
 21
2050.000000744964
  0
LINE
  5
16F
100
AcDbEntity
  8
0
  6
CONTINUOUS
 62
           3
100
AcDbLine
 10
4423.899997101566
 20
1889.200001954996
 11
4423.899997101566
 21
1888.276241719796
  0
LINE
  5
16E
100
AcDbEntity
  8
0
  6
CONTINUOUS
 62
           3
100
AcDbLine
 10
4407.899996341778
 20
1889.200001954996
 11
4407.899996341778
 21
1888.276241719796
  0
LINE
  5
16D
100
AcDbEntity
  8
0
  6
CONTINUOUS
 62
           3
100
AcDbLine
 10
4410.899996833477
 20
1888.276241719796
 11
4407.899996341778
 21
1888.276241719796
  0
LINE
  5
16C
100
AcDbEntity
  8
0
  6
CONTINUOUS
 62
           3
100
AcDbLine
 10
4423.899997101566
 20
1888.276241719796
 11
4420.899996609869
 21
1888.276241719796
  0
LINE
  5
16B
100
AcDbEntity
  8
0
  6
CONTINUOUS
 62
           3
100
AcDbLine
 10
4418.399996665766
 20
1884.1999992729
 11
4420.899996609915
 21
1884.1999992729
  0
LINE
  5
16A
100
AcDbEntity
  8
0
  6
CONTINUOUS
 62
           3
100
AcDbLine
 10
4410.899996833437
 20
1884.1999992729
 11
4413.399996777558
 21
1884.1999992729
  0
LINE
  5
169
100
AcDbEntity
  8
0
  6
CONTINUOUS
 62
           3
100
AcDbLine
 10
4420.899996609869
 20
1884.646579623302
 11
4420.899996609869
 21
1889.100000262195
  0
LINE
  5
168
100
AcDbEntity
  8
0
  6
CONTINUOUS
 62
           3
100
AcDbLine
 10
4410.899996833477
 20
1884.646579623302
 11
4410.899996833477
 21
1889.100000262195
  0
LINE
  5
167
100
AcDbEntity
  8
0
  6
CONTINUOUS
 62
           3
100
AcDbLine
 10
4410.899996833477
 20
1884.646579623302
 11
4413.399996777558
 21
1884.1999992729
  0
LINE
  5
166
100
AcDbEntity
  8
0
  6
CONTINUOUS
 62
           3
100
AcDbLine
 10
4415.899996721679
 20
1884.646579623295
 11
4415.899996721679
 21
1889.100000262195
  0
LINE
  5
165
100
AcDbEntity
  8
0
  6
CONTINUOUS
 62
           3
100
AcDbLine
 10
4413.399996777558
 20
1884.1999992729
 11
4418.399996665766
 21
1884.1999992729
  0
LINE
  5
164
100
AcDbEntity
  8
0
  6
CONTINUOUS
 62
           3
100
AcDbLine
 10
4415.899996721679
 20
1884.646579623295
 11
4418.399996665766
 21
1884.1999992729
  0
LINE
  5
163
100
AcDbEntity
  8
0
  6
CONTINUOUS
 62
           3
100
AcDbLine
 10
4412.39999661358
 20
1889.200001954996
 11
4419.399996829767
 21
1889.200001954996
  0
LINE
  5
162
100
AcDbEntity
  8
0
  6
CONTINUOUS
 62
           3
100
AcDbLine
 10
4412.39999661358
 20
1890.000000596097
 11
4419.399996829767
 21
1890.000000596097
  0
LINE
  5
161
100
AcDbEntity
  8
0
  6
CONTINUOUS
 62
           3
100
AcDbLine
 10
4419.399996829767
 20
1893.990144133491
 11
4412.39999661358
 21
1893.990144133491
  0
LINE
  5
160
100
AcDbEntity
  8
0
  6
CONTINUOUS
 62
           3
100
AcDbLine
 10
4412.89999669558
 20
1892.246469855294
 11
4412.39999661358
 21
1892.246469855294
  0
LINE
  5
15F
100
AcDbEntity
  8
0
  6
CONTINUOUS
 62
           3
100
AcDbLine
 10
4419.399996829767
 20
1892.246469855294
 11
4418.899996747767
 21
1892.246469855294
  0
LINE
  5
15E
100
AcDbEntity
  8
0
  6
CONTINUOUS
 62
           3
100
AcDbLine
 10
4423.899997101566
 20
1894.799999892894
 11
4423.899997101566
 21
1889.200001954996
  0
LINE
  5
15D
100
AcDbEntity
  8
0
  6
CONTINUOUS
 62
           3
100
AcDbLine
 10
4407.899996341778
 20
1894.799999892894
 11
4407.899996341778
 21
1889.200001954996
  0
LINE
  5
15C
100
AcDbEntity
  8
0
  6
CONTINUOUS
 62
           3
100
AcDbLine
 10
4412.39999661358
 20
1889.200001954996
 11
4412.39999661358
 21
1894.799999892894
  0
LINE
  5
15B
100
AcDbEntity
  8
0
  6
CONTINUOUS
 62
           3
100
AcDbLine
 10
4419.399996829767
 20
1894.799999892894
 11
4419.399996829767
 21
1889.200001954996
  0
LINE
  5
15A
100
AcDbEntity
  8
0
  6
CONTINUOUS
 62
           3
100
AcDbLine
 10
4412.39999661358
 20
1889.200001954996
 11
4407.899996341778
 21
1889.200001954996
  0
LINE
  5
159
100
AcDbEntity
  8
0
  6
CONTINUOUS
 62
           3
100
AcDbLine
 10
4412.39999661358
 20
1894.792847335491
 11
4419.399996829767
 21
1894.792847335491
  0
LINE
  5
158
100
AcDbEntity
  8
0
  6
CONTINUOUS
 62
           3
100
AcDbLine
 10
4423.899997101566
 20
1889.200001954996
 11
4419.399996829767
 21
1889.200001954996
  0
LINE
  5
157
100
AcDbEntity
  8
0
  6
CONTINUOUS
 62
           3
100
AcDbLine
 10
4417.899996816565
 20
2138.422653078993
 11
4413.899996626778
 21
2138.422653078993
  0
LINE
  5
156
100
AcDbEntity
  8
0
  6
CONTINUOUS
 62
           3
100
AcDbLine
 10
4412.89999669558
 20
2137.422651052293
 11
4418.899996747767
 21
2137.422651052293
  0
LINE
  5
155
100
AcDbEntity
  8
0
  6
CONTINUOUS
 62
           3
100
AcDbLine
 10
4361.899995321017
 20
2165.000006556369
 11
4365.899995976714
 21
2165.000006556369
  0
LINE
  5
154
100
AcDbEntity
  8
0
  6
CONTINUOUS
 62
           3
100
AcDbLine
 10
4365.899995976714
 20
2165.000006556369
 11
4369.899996632416
 21
2165.000006556369
  0
LINE
  5
153
100
AcDbEntity
  8
0
  6
CONTINUOUS
 62
           3
100
AcDbLine
 10
4411.56986968735
 20
1867.599993944255
 11
4410.899996833477
 21
1867.599993944114
  0
LINE
  5
152
100
AcDbEntity
  8
0
  6
CONTINUOUS
 62
           3
100
AcDbLine
 10
4420.899996609869
 20
1867.599993944114
 11
4420.230123756008
 21
1867.599993944255
  0
LINE
  5
151
100
AcDbEntity
  8
0
  6
CONTINUOUS
 62
           3
100
AcDbLine
 10
4411.56986968735
 20
1872.600004077041
 11
4410.899996833477
 21
1872.600004077009
  0
LINE
  5
150
100
AcDbEntity
  8
0
  6
CONTINUOUS
 62
           3
100
AcDbLine
 10
4420.230123756008
 20
1867.599993944255
 11
4415.899996721679
 21
1867.599993944255
  0
LINE
  5
14F
100
AcDbEntity
  8
0
  6
CONTINUOUS
 62
           3
100
AcDbLine
 10
4415.899996721679
 20
1867.599993944255
 11
4411.56986968735
 21
1867.599993944255
  0
LINE
  5
14E
100
AcDbEntity
  8
0
  6
CONTINUOUS
 62
           3
100
AcDbLine
 10
4410.126493853977
 20
1872.153416276109
 11
4410.126493853977
 21
1868.046581745311
  0
LINE
  5
14D
100
AcDbEntity
  8
0
  6
CONTINUOUS
 62
           3
100
AcDbLine
 10
4410.126493853977
 20
1868.046581745311
 11
4411.56986968735
 21
1867.599993944255
  0
LINE
  5
14C
100
AcDbEntity
  8
0
  6
CONTINUOUS
 62
           3
100
AcDbLine
 10
4413.013245287848
 20
1872.153416276062
 11
4411.56986968735
 21
1872.600004077041
  0
LINE
  5
14B
100
AcDbEntity
  8
0
  6
CONTINUOUS
 62
           3
100
AcDbLine
 10
4418.786748155367
 20
1868.046581745311
 11
4420.230123756008
 21
1867.599993944255
  0
LINE
  5
14A
100
AcDbEntity
  8
0
  6
CONTINUOUS
 62
           3
100
AcDbLine
 10
4421.673499589369
 20
1872.153416276109
 11
4421.673499589369
 21
1868.046581745311
  0
LINE
  5
149
100
AcDbEntity
  8
0
  6
CONTINUOUS
 62
           3
100
AcDbLine
 10
4421.673499589369
 20
1872.153416276109
 11
4420.230123756008
 21
1872.600004077041
  0
LINE
  5
148
100
AcDbEntity
  8
0
  6
CONTINUOUS
 62
           3
100
AcDbLine
 10
4413.013245287848
 20
1872.153416276062
 11
4413.013245287848
 21
1868.046581745235
  0
LINE
  5
147
100
AcDbEntity
  8
0
  6
CONTINUOUS
 62
           3
100
AcDbLine
 10
4418.786748155506
 20
1872.153416276062
 11
4418.786748155367
 21
1868.046581745311
  0
LINE
  5
146
100
AcDbEntity
  8
0
  6
CONTINUOUS
 62
           3
100
AcDbLine
 10
4420.899996609869
 20
1872.600004077009
 11
4420.230123756008
 21
1872.600004077041
  0
LINE
  5
145
100
AcDbEntity
  8
0
  6
CONTINUOUS
 62
           3
100
AcDbLine
 10
4420.899996609869
 20
1877.599999308603
 11
4420.230123756008
 21
1877.599999308666
  0
LINE
  5
144
100
AcDbEntity
  8
0
  6
CONTINUOUS
 62
           3
100
AcDbLine
 10
4411.56986968735
 20
1877.599999308666
 11
4410.899996833477
 21
1877.599999308603
  0
LINE
  5
143
100
AcDbEntity
  8
0
  6
CONTINUOUS
 62
           3
100
AcDbLine
 10
4415.899996721679
 20
1872.600004077041
 11
4411.56986968735
 21
1872.600004077041
  0
LINE
  5
142
100
AcDbEntity
  8
0
  6
CONTINUOUS
 62
           3
100
AcDbLine
 10
4420.230123756008
 20
1872.600004077041
 11
4415.899996721679
 21
1872.600004077041
  0
LINE
  5
141
100
AcDbEntity
  8
0
  6
CONTINUOUS
 62
           3
100
AcDbLine
 10
4415.899996721679
 20
1877.599999308666
 11
4411.56986968735
 21
1877.599999308666
  0
LINE
  5
140
100
AcDbEntity
  8
0
  6
CONTINUOUS
 62
           3
100
AcDbLine
 10
4410.126493853977
 20
1877.153418958204
 11
4410.126493853977
 21
1873.046576976911
  0
LINE
  5
13F
100
AcDbEntity
  8
0
  6
CONTINUOUS
 62
           3
100
AcDbLine
 10
4410.126493853977
 20
1873.046576976911
 11
4411.56986968735
 21
1872.600004077041
  0
LINE
  5
13E
100
AcDbEntity
  8
0
  6
CONTINUOUS
 62
           3
100
AcDbLine
 10
4413.013245287848
 20
1877.153418958267
 11
4411.56986968735
 21
1877.599999308666
  0
LINE
  5
13D
100
AcDbEntity
  8
0
  6
CONTINUOUS
 62
           3
100
AcDbLine
 10
4420.230123756008
 20
1877.599999308666
 11
4415.899996721679
 21
1877.599999308666
  0
LINE
  5
13C
100
AcDbEntity
  8
0
  6
CONTINUOUS
 62
           3
100
AcDbLine
 10
4418.786748155367
 20
1873.046576976911
 11
4420.230123756008
 21
1872.600004077041
  0
LINE
  5
13B
100
AcDbEntity
  8
0
  6
CONTINUOUS
 62
           3
100
AcDbLine
 10
4421.673499589369
 20
1877.153418958204
 11
4421.673499589369
 21
1873.046576976911
  0
LINE
  5
13A
100
AcDbEntity
  8
0
  6
CONTINUOUS
 62
           3
100
AcDbLine
 10
4421.673499589369
 20
1877.153418958204
 11
4420.230123756008
 21
1877.599999308666
  0
LINE
  5
139
100
AcDbEntity
  8
0
  6
CONTINUOUS
 62
           3
100
AcDbLine
 10
4413.013245287848
 20
1877.153418958267
 11
4413.013245287848
 21
1873.04657697686
  0
LINE
  5
138
100
AcDbEntity
  8
0
  6
CONTINUOUS
 62
           3
100
AcDbLine
 10
4418.786748155506
 20
1877.153418958267
 11
4418.786748155367
 21
1873.046576976911
  0
LINE
  5
137
100
AcDbEntity
  8
0
  6
CONTINUOUS
 62
           3
100
AcDbLine
 10
4410.126493853977
 20
1864.553421735915
 11
4410.126493853977
 21
1860.446587205121
  0
LINE
  5
136
100
AcDbEntity
  8
0
  6
CONTINUOUS
 62
           3
100
AcDbLine
 10
4410.126493853977
 20
1860.446587205121
 11
4411.56986968735
 21
1859.999999404048
  0
LINE
  5
135
100
AcDbEntity
  8
0
  6
CONTINUOUS
 62
           3
100
AcDbLine
 10
4413.013245287848
 20
1864.553421735858
 11
4411.56986968735
 21
1864.999994635673
  0
LINE
  5
134
100
AcDbEntity
  8
0
  6
CONTINUOUS
 62
           3
100
AcDbLine
 10
4418.786748155367
 20
1860.446587205121
 11
4420.230123755968
 21
1859.999999403921
  0
LINE
  5
133
100
AcDbEntity
  8
0
  6
CONTINUOUS
 62
           3
100
AcDbLine
 10
4421.673499589369
 20
1864.553421735915
 11
4421.673499589369
 21
1860.446587205121
  0
LINE
  5
132
100
AcDbEntity
  8
0
  6
CONTINUOUS
 62
           3
100
AcDbLine
 10
4421.673499589369
 20
1864.553421735915
 11
4420.230123756008
 21
1864.999994635673
  0
LINE
  5
131
100
AcDbEntity
  8
0
  6
CONTINUOUS
 62
           3
100
AcDbLine
 10
4413.013245287848
 20
1864.553421735858
 11
4413.013245287848
 21
1860.446587205024
  0
LINE
  5
130
100
AcDbEntity
  8
0
  6
CONTINUOUS
 62
           3
100
AcDbLine
 10
4418.786748155506
 20
1864.553421735858
 11
4418.786748155367
 21
1860.446587205121
  0
LINE
  5
12F
100
AcDbEntity
  8
0
  6
CONTINUOUS
 62
           3
100
AcDbLine
 10
4410.899996833477
 20
1859.999999403921
 11
4411.56986968735
 21
1859.999999404048
  0
LINE
  5
12E
100
AcDbEntity
  8
0
  6
CONTINUOUS
 62
           3
100
AcDbLine
 10
4420.899996609869
 20
1855.000004172322
 11
4420.230123756008
 21
1855.00000417242
  0
LINE
  5
12D
100
AcDbEntity
  8
0
  6
CONTINUOUS
 62
           3
100
AcDbLine
 10
4410.899996833477
 20
1855.000004172322
 11
4411.56986968735
 21
1855.00000417242
  0
LINE
  5
12C
100
AcDbEntity
  8
0
  6
CONTINUOUS
 62
           3
100
AcDbLine
 10
4421.673499589369
 20
1855.446577072223
 11
4420.230123756008
 21
1855.00000417242
  0
LINE
  5
12B
100
AcDbEntity
  8
0
  6
CONTINUOUS
 62
           3
100
AcDbLine
 10
4421.673499589369
 20
1855.446577072223
 11
4421.673499589369
 21
1859.553411603021
  0
LINE
  5
12A
100
AcDbEntity
  8
0
  6
CONTINUOUS
 62
           3
100
AcDbLine
 10
4410.126493853977
 20
1855.446577072223
 11
4410.126493853977
 21
1859.553411603021
  0
LINE
  5
129
100
AcDbEntity
  8
0
  6
CONTINUOUS
 62
           3
100
AcDbLine
 10
4415.899996721679
 20
1859.999999404048
 11
4420.230123755968
 21
1859.999999403921
  0
LINE
  5
128
100
AcDbEntity
  8
0
  6
CONTINUOUS
 62
           3
100
AcDbLine
 10
4418.786748155506
 20
1859.553411603069
 11
4420.230123755968
 21
1859.999999403921
  0
LINE
  5
127
100
AcDbEntity
  8
0
  6
CONTINUOUS
 62
           3
100
AcDbLine
 10
4411.56986968735
 20
1859.999999404048
 11
4415.899996721679
 21
1859.999999404048
  0
LINE
  5
126
100
AcDbEntity
  8
0
  6
CONTINUOUS
 62
           3
100
AcDbLine
 10
4411.56986968735
 20
1855.00000417242
 11
4415.899996721679
 21
1855.000004172322
  0
LINE
  5
125
100
AcDbEntity
  8
0
  6
CONTINUOUS
 62
           3
100
AcDbLine
 10
4415.899996721679
 20
1855.000004172322
 11
4420.230123756008
 21
1855.00000417242
  0
LINE
  5
124
100
AcDbEntity
  8
0
  6
CONTINUOUS
 62
           3
100
AcDbLine
 10
4413.013245287974
 20
1859.553411603021
 11
4415.899996721679
 21
1859.999999404048
  0
LINE
  5
123
100
AcDbEntity
  8
0
  6
CONTINUOUS
 62
           3
100
AcDbLine
 10
4413.013245287848
 20
1855.446577072242
 11
4413.013245287974
 21
1859.553411603021
  0
LINE
  5
122
100
AcDbEntity
  8
0
  6
CONTINUOUS
 62
           3
100
AcDbLine
 10
4418.786748155367
 20
1855.446577072223
 11
4415.899996721679
 21
1855.000004172322
  0
LINE
  5
121
100
AcDbEntity
  8
0
  6
CONTINUOUS
 62
           3
100
AcDbLine
 10
4418.786748155367
 20
1855.446577072223
 11
4418.786748155506
 21
1859.553411603069
  0
LINE
  5
120
100
AcDbEntity
  8
0
  6
CONTINUOUS
 62
           3
100
AcDbLine
 10
4472.899996751327
 20
1893.799997866194
 11
4472.899996751327
 21
2043.800000101368
  0
LINE
  5
11F
100
AcDbEntity
  8
0
  6
CONTINUOUS
 62
           3
100
AcDbLine
 10
4361.899995321017
 20
2043.800000101368
 11
4358.899996692014
 21
2043.800000101368
  0
LINE
  5
11E
100
AcDbEntity
  8
0
  6
CONTINUOUS
 62
           3
100
AcDbLine
 10
4412.89999669558
 20
2043.800000101368
 11
4369.899996632416
 21
2043.800000101368
  0
LINE
  5
11D
100
AcDbEntity
  8
0
  6
CONTINUOUS
 62
           3
100
AcDbLine
 10
4461.899996810936
 20
2043.800000101368
 11
4418.899996747767
 21
2043.800000101368
  0
LINE
  5
11C
100
AcDbEntity
  8
0
  6
CONTINUOUS
 62
           3
100
AcDbLine
 10
4472.899996751327
 20
2043.800000101368
 11
4469.89999812233
 21
2043.800000101368
  0
LINE
  5
11B
100
AcDbEntity
  8
0
  6
CONTINUOUS
 62
           3
100
AcDbLine
 10
4358.899996692014
 20
2043.800000101368
 11
4358.899996692014
 21
1893.799997866194
  0
LINE
  5
11A
100
AcDbEntity
  8
0
  6
CONTINUOUS
 62
           3
100
AcDbLine
 10
4469.89999812233
 20
1893.799997866194
 11
4472.899996751327
 21
1893.799997866194
  0
LINE
  5
119
100
AcDbEntity
  8
0
  6
CONTINUOUS
 62
           3
100
AcDbLine
 10
4423.899997101566
 20
1893.799997866194
 11
4461.899996810936
 21
1893.799997866194
  0
LINE
  5
118
100
AcDbEntity
  8
0
  6
CONTINUOUS
 62
           3
100
AcDbLine
 10
4369.899996632416
 20
1893.799997866194
 11
4407.899996341778
 21
1893.799997866194
  0
LINE
  5
117
100
AcDbEntity
  8
0
  6
CONTINUOUS
 62
           3
100
AcDbLine
 10
4358.899996692014
 20
1893.799997866194
 11
4361.899995321017
 21
1893.799997866194
  0
LINE
  5
116
100
AcDbEntity
  8
0
  6
CONTINUOUS
 62
           3
100
AcDbLine
 10
4409.426494029875
 20
1889.099999999995
 11
4422.373499413466
 21
1889.099999999995
  0
LINE
  5
115
100
AcDbEntity
  8
0
  6
CONTINUOUS
 62
           3
100
AcDbLine
 10
4423.899997101566
 20
1894.799999892894
 11
4419.399996829767
 21
1894.799999892894
  0
LINE
  5
114
100
AcDbEntity
  8
0
  6
CONTINUOUS
 62
           3
100
AcDbLine
 10
4412.39999661358
 20
1894.799999892894
 11
4407.899996341778
 21
1894.799999892894
  0
LINE
  5
113
100
AcDbEntity
  8
0
  6
CONTINUOUS
 62
           3
100
AcDbLine
 10
4413.899996626778
 20
2138.422653078993
 11
4412.89999669558
 21
2137.422651052293
  0
LINE
  5
112
100
AcDbEntity
  8
0
  6
CONTINUOUS
 62
           3
100
AcDbLine
 10
4418.899996747767
 20
2137.422651052293
 11
4417.899996816565
 21
2138.422653078993
  0
LINE
  5
111
100
AcDbEntity
  8
0
  6
CONTINUOUS
 62
           3
100
AcDbLine
 10
4412.89999669558
 20
1867.599993944114
 11
4412.89999669558
 21
1866.600006818713
  0
LINE
  5
110
100
AcDbEntity
  8
0
  6
CONTINUOUS
 62
           3
100
AcDbLine
 10
4412.89999669558
 20
1884.1999992729
 11
4412.89999669558
 21
1877.599999308603
  0
LINE
  5
10F
100
AcDbEntity
  8
0
  6
CONTINUOUS
 62
           3
100
AcDbLine
 10
4412.89999669558
 20
1892.957426607594
 11
4412.89999669558
 21
1890.000000596097
  0
LINE
  5
10E
100
AcDbEntity
  8
0
  6
CONTINUOUS
 62
           3
100
AcDbLine
 10
4412.89999669558
 20
2133.399993180996
 11
4412.89999669558
 21
1894.792847335491
  0
LINE
  5
10D
100
AcDbEntity
  8
0
  6
CONTINUOUS
 62
           3
100
AcDbLine
 10
4412.89999669558
 20
2137.422651052293
 11
4412.89999669558
 21
2135.000005364196
  0
LINE
  5
10C
100
AcDbEntity
  8
0
  6
CONTINUOUS
 62
           3
100
AcDbLine
 10
4418.899996747767
 20
2135.000005364196
 11
4418.899996747767
 21
2137.422651052293
  0
LINE
  5
10B
100
AcDbEntity
  8
0
  6
CONTINUOUS
 62
           3
100
AcDbLine
 10
4418.899996747767
 20
1894.792847335491
 11
4418.899996747767
 21
2133.399993180996
  0
LINE
  5
10A
100
AcDbEntity
  8
0
  6
CONTINUOUS
 62
           3
100
AcDbLine
 10
4418.899996747767
 20
1890.000000596097
 11
4418.899996747767
 21
1892.957426607594
  0
LINE
  5
109
100
AcDbEntity
  8
0
  6
CONTINUOUS
 62
           3
100
AcDbLine
 10
4418.899996747767
 20
1877.599999308603
 11
4418.899996747767
 21
1884.1999992729
  0
LINE
  5
108
100
AcDbEntity
  8
0
  6
CONTINUOUS
 62
           3
100
AcDbLine
 10
4418.899996747767
 20
1866.600006818713
 11
4418.899996747767
 21
1867.599993944114
  0
LINE
  5
107
100
AcDbEntity
  8
0
  6
CONTINUOUS
 62
           3
100
AcDbLine
 10
4369.899996632416
 20
2135.000005364196
 11
4369.899996632416
 21
2165.000006556369
  0
LINE
  5
106
100
AcDbEntity
  8
0
  6
CONTINUOUS
 62
           3
100
AcDbLine
 10
4369.899996632416
 20
2050.000000744964
 11
4369.899996632416
 21
2133.399993180996
  0
LINE
  5
105
100
AcDbEntity
  8
0
  6
CONTINUOUS
 62
           3
100
AcDbLine
 10
4369.899996632416
 20
1891.199998557593
 11
4369.899996632416
 21
2048.799999058065
  0
LINE
  5
104
100
AcDbEntity
  8
0
  6
CONTINUOUS
 62
           3
100
AcDbLine
 10
4369.899996632416
 20
1866.600006818713
 11
4369.899996632416
 21
1890.000000596097
  0
LINE
  5
103
100
AcDbEntity
  8
0
  6
CONTINUOUS
 62
           3
100
AcDbLine
 10
4361.899995321017
 20
1864.999994635815
 11
4361.899995321017
 21
1814.999997615956
  0
LINE
  5
102
100
AcDbEntity
  8
0
  6
CONTINUOUS
 62
           3
100
AcDbLine
 10
4361.899995321017
 20
1890.000000596097
 11
4361.899995321017
 21
1866.600006818713
  0
LINE
  5
101
100
AcDbEntity
  8
0
  6
CONTINUOUS
 62
           3
100
AcDbLine
 10
4361.899995321017
 20
2048.799999058065
 11
4361.899995321017
 21
1891.199998557593
  0
LINE
  5
100
100
AcDbEntity
  8
0
  6
CONTINUOUS
 62
           3
100
AcDbLine
 10
4361.899995321017
 20
2133.399993180996
 11
4361.899995321017
 21
2050.000000744964
  0
LINE
  5
FF
100
AcDbEntity
  8
0
  6
CONTINUOUS
 62
           3
100
AcDbLine
 10
4361.899995321017
 20
2165.000006556369
 11
4361.899995321017
 21
2135.000005364196
  0
LINE
  5
FE
100
AcDbEntity
  8
0
  6
CONTINUOUS
 62
           3
100
AcDbLine
 10
4469.89999812233
 20
2050.000000744964
 11
4469.89999812233
 21
2139.110868296101
  0
LINE
  5
FD
100
AcDbEntity
  8
0
  6
CONTINUOUS
 62
           3
100
AcDbLine
 10
4469.89999812233
 20
1891.199998557593
 11
4469.89999812233
 21
2048.799999058065
  0
LINE
  5
FC
100
AcDbEntity
  8
0
  6
CONTINUOUS
 62
           3
100
AcDbLine
 10
4469.89999812233
 20
1866.600006818713
 11
4469.89999812233
 21
1890.000000596097
  0
LINE
  5
FB
100
AcDbEntity
  8
0
  6
CONTINUOUS
 62
           3
100
AcDbLine
 10
4469.89999812233
 20
1814.999997615956
 11
4469.89999812233
 21
1864.999994635815
  0
LINE
  5
FA
100
AcDbEntity
  8
0
  6
CONTINUOUS
 62
           3
100
AcDbLine
 10
4461.899996810936
 20
1864.999994635815
 11
4461.899996810936
 21
1814.999997615956
  0
LINE
  5
F9
100
AcDbEntity
  8
0
  6
CONTINUOUS
 62
           3
100
AcDbLine
 10
4461.899996810936
 20
1890.000000596097
 11
4461.899996810936
 21
1866.600006818713
  0
LINE
  5
F8
100
AcDbEntity
  8
0
  6
CONTINUOUS
 62
           3
100
AcDbLine
 10
4461.899996810936
 20
2048.799999058065
 11
4461.899996810936
 21
1891.199998557593
  0
LINE
  5
F7
100
AcDbEntity
  8
0
  6
CONTINUOUS
 62
           3
100
AcDbLine
 10
4461.899996810936
 20
2139.1108682961
 11
4461.899996810936
 21
2050.000000744964
  0
LINE
  5
F6
100
AcDbEntity
  8
0
  6
CONTINUOUS
 62
           3
100
AcDbLine
 10
4410.126493853977
 20
1868.046581745311
 11
4410.899996833477
 21
1867.599993944114
  0
LINE
  5
F5
100
AcDbEntity
  8
0
  6
CONTINUOUS
 62
           3
100
AcDbLine
 10
4420.899996609869
 20
1867.599993944114
 11
4421.673499589369
 21
1868.046581745311
  0
LINE
  5
F4
100
AcDbEntity
  8
0
  6
CONTINUOUS
 62
           3
100
AcDbLine
 10
4421.673499589369
 20
1872.153416276109
 11
4420.899996609869
 21
1872.600004077009
  0
LINE
  5
F3
100
AcDbEntity
  8
0
  6
CONTINUOUS
 62
           3
100
AcDbLine
 10
4410.899996833477
 20
1872.600004077009
 11
4410.126493853977
 21
1872.153416276109
  0
LINE
  5
F2
100
AcDbEntity
  8
0
  6
CONTINUOUS
 62
           3
100
AcDbLine
 10
4410.126493853977
 20
1873.046576976911
 11
4410.899996833477
 21
1872.600004077009
  0
LINE
  5
F1
100
AcDbEntity
  8
0
  6
CONTINUOUS
 62
           3
100
AcDbLine
 10
4420.899996609869
 20
1872.600004077009
 11
4421.673499589369
 21
1873.046576976911
  0
LINE
  5
F0
100
AcDbEntity
  8
0
  6
CONTINUOUS
 62
           3
100
AcDbLine
 10
4421.673499589369
 20
1877.153418958204
 11
4420.899996609869
 21
1877.599999308603
  0
LINE
  5
EF
100
AcDbEntity
  8
0
  6
CONTINUOUS
 62
           3
100
AcDbLine
 10
4410.899996833477
 20
1877.599999308603
 11
4410.126493853977
 21
1877.153418958204
  0
LINE
  5
EE
100
AcDbEntity
  8
0
  6
CONTINUOUS
 62
           3
100
AcDbLine
 10
4410.126493853977
 20
1860.446587205121
 11
4410.899996833477
 21
1859.999999403921
  0
LINE
  5
ED
100
AcDbEntity
  8
0
  6
CONTINUOUS
 62
           3
100
AcDbLine
 10
4420.899996609869
 20
1859.999999403921
 11
4421.673499589369
 21
1860.446587205121
  0
LINE
  5
EC
100
AcDbEntity
  8
0
  6
CONTINUOUS
 62
           3
100
AcDbLine
 10
4421.673499589369
 20
1864.553421735915
 11
4420.899996609869
 21
1864.999994635815
  0
LINE
  5
EB
100
AcDbEntity
  8
0
  6
CONTINUOUS
 62
           3
100
AcDbLine
 10
4410.899996833477
 20
1864.999994635815
 11
4410.126493853977
 21
1864.553421735915
  0
LINE
  5
EA
100
AcDbEntity
  8
0
  6
CONTINUOUS
 62
           3
100
AcDbLine
 10
4421.673499589369
 20
1859.553411603021
 11
4420.899996609869
 21
1859.999999403921
  0
LINE
  5
E9
100
AcDbEntity
  8
0
  6
CONTINUOUS
 62
           3
100
AcDbLine
 10
4410.899996833477
 20
1859.999999403921
 11
4410.126493853977
 21
1859.553411603021
  0
LINE
  5
E8
100
AcDbEntity
  8
0
  6
CONTINUOUS
 62
           3
100
AcDbLine
 10
4420.899996609869
 20
1855.000004172322
 11
4421.673499589369
 21
1855.446577072223
  0
LINE
  5
E7
100
AcDbEntity
  8
0
  6
CONTINUOUS
 62
           3
100
AcDbLine
 10
4410.126493853977
 20
1855.446577072223
 11
4410.899996833477
 21
1855.000004172322
  0
LINE
  5
E6
100
AcDbEntity
  8
0
  6
CONTINUOUS
 62
           3
100
AcDbLine
 10
4369.899996632416
 20
1814.999997615956
 11
4369.899996632416
 21
1864.999994635815
  0
LINE
  5
E5
100
AcDbEntity
  8
1
  6
CONTINUOUS
 62
           7
100
AcDbLine
 10
4230.0
 20
2140.0
 11
4049.999999999999
 21
2139.999999999999
  0
LINE
  5
E4
100
AcDbEntity
  8
1
  6
CONTINUOUS
 62
           7
100
AcDbLine
 10
4050.0
 20
2253.0
 11
4230.0
 21
2253.0
  0
LINE
  5
E3
100
AcDbEntity
  8
1
  6
CONTINUOUS
 62
           7
100
AcDbLine
 10
4230.0
 20
2253.0
 11
4230.0
 21
2140.0
  0
LINE
  5
E2
100
AcDbEntity
  8
1
  6
CONTINUOUS
 62
           7
100
AcDbLine
 10
4049.999999999999
 20
2139.999999999999
 11
4050.0
 21
2253.0
  0
LINE
  5
E1
100
AcDbEntity
  8
1
  6
CONTINUOUS
 62
           4
100
AcDbLine
 10
4859.506713441554
 20
1980.0
 11
4519.999999999999
 21
1980.0
  0
LINE
  5
E0
100
AcDbEntity
  8
1
  6
CONTINUOUS
 62
           7
100
AcDbLine
 10
4839.506713441554
 20
2000.0
 11
4499.999999999999
 21
2000.0
  0
LINE
  5
DF
100
AcDbEntity
  8
1
  6
CONTINUOUS
 62
           4
100
AcDbLine
 10
4830.820421940538
 20
2020.0
 11
5479.999999999999
 21
2020.0
  0
LINE
  5
DE
100
AcDbEntity
  8
1
  6
CONTINUOUS
 62
           4
100
AcDbLine
 10
4519.999999999999
 20
2189.110868296101
 11
4519.999999999999
 21
2020.0
  0
LINE
  5
DD
100
AcDbEntity
  8
1
  6
CONTINUOUS
 62
           7
100
AcDbLine
 10
4499.999999999999
 20
2193.590131570531
 11
4499.999999999999
 21
2500.0
  0
LINE
  5
DC
100
AcDbEntity
  8
1
  6
CONTINUOUS
 62
           4
100
AcDbLine
 10
4479.999999999999
 20
2181.205882899818
 11
4479.999999999999
 21
2480.0
  0
LINE
  5
DB
100
AcDbEntity
  8
1
  6
CONTINUOUS
 62
           4
100
AcDbLine
 10
4519.999999999999
 20
1980.0
 11
4519.999999999999
 21
520.0
  0
LINE
  5
DA
100
AcDbEntity
  8
1
  6
CONTINUOUS
 62
           7
100
AcDbLine
 10
4499.999999999999
 20
500.0
 11
4499.999999999999
 21
2184.980139870121
  0
LINE
  5
D9
100
AcDbEntity
  8
1
  6
CONTINUOUS
 62
           4
100
AcDbLine
 10
4479.999999999999
 20
520.0
 11
4479.999999999999
 21
2169.243743197743
  0
LINE
  5
D8
100
AcDbEntity
  8
1
  6
CONTINUOUS
 62
           7
100
AcDbLine
 10
1000.000000000004
 20
1763.744569986044
 11
1000.000000000004
 21
2000.0
  0
LINE
  5
D7
100
AcDbEntity
  8
1
  6
CONTINUOUS
 62
           7
100
AcDbLine
 10
-999.999999999995
 20
2000.0
 11
-999.999999999995
 21
1763.744569986044
  0
LINE
  5
D6
100
AcDbEntity
  8
1
  6
CONTINUOUS
 62
           7
100
AcDbLine
 10
2000.000000000005
 20
1763.744569986044
 11
-1999.999999999995
 21
1763.744569986044
  0
LINE
  5
D5
100
AcDbEntity
  8
1
  6
CONTINUOUS
 62
           7
100
AcDbLine
 10
-1569.497691536603
 20
986.513526798368
 11
-424.999999999994
 21
986.513526798368
  0
LINE
  5
D4
100
AcDbEntity
  8
___S__
  6
DOT_CENTER
 62
           3
100
AcDbLine
 10
-1574.999999999994
 20
1067.06326659646
 11
-1574.999999999995
 21
982.067556365335
  0
LINE
  5
D3
100
AcDbEntity
  8
____
  6
CONTINUOUS
 62
           3
100
AcDbLine
 10
-1569.595947044874
 20
1060.459504816177
 11
-1569.595947044874
 21
1058.581574068056
  0
LINE
  5
D2
100
AcDbEntity
  8
____
  6
CONTINUOUS
 62
           3
100
AcDbLine
 10
-1579.912775413738
 20
1060.928987503209
 11
-1570.087224586249
 21
1060.928987503209
  0
LINE
  5
D1
100
AcDbEntity
  8
____
  6
CONTINUOUS
 62
           3
100
AcDbLine
 10
-1580.404052955112
 20
1058.581574068056
 11
-1580.404052955112
 21
1060.459504816177
  0
LINE
  5
D0
100
AcDbEntity
  8
____
  6
CONTINUOUS
 62
           3
100
AcDbLine
 10
-1569.497691536602
 20
1022.900889853722
 11
-1580.502308463379
 21
1022.900889853722
  0
LINE
  5
CF
100
AcDbEntity
  8
____
  6
CONTINUOUS
 62
           3
100
AcDbLine
 10
-1569.497691536601
 20
1058.581574068056
 11
-1569.497691536602
 21
1022.900889853722
  0
LINE
  5
CE
100
AcDbEntity
  8
____
  6
CONTINUOUS
 62
           3
100
AcDbLine
 10
-1580.502308463378
 20
1058.581574068056
 11
-1569.497691536601
 21
1058.581574068056
  0
LINE
  5
CD
100
AcDbEntity
  8
____
  6
CONTINUOUS
 62
           3
100
AcDbLine
 10
-1580.502308463379
 20
1022.900889853722
 11
-1580.502308463378
 21
1058.581574068056
  0
LINE
  5
CC
100
AcDbEntity
  8
____
  6
CONTINUOUS
 62
           3
100
AcDbLine
 10
-1580.404052955114
 20
984.403309517206
 11
-1580.404052955114
 21
986.281240265329
  0
LINE
  5
CB
100
AcDbEntity
  8
____
  6
CONTINUOUS
 62
           3
100
AcDbLine
 10
-1570.087224586251
 20
983.933826830174
 11
-1579.91277541374
 21
983.933826830174
  0
LINE
  5
CA
100
AcDbEntity
  8
____
  6
CONTINUOUS
 62
           3
100
AcDbLine
 10
-1569.595947044876
 20
986.281240265329
 11
-1569.595947044876
 21
984.403309517206
  0
LINE
  5
C9
100
AcDbEntity
  8
____
  6
CONTINUOUS
 62
           3
100
AcDbLine
 10
-1580.158414184426
 20
1022.900889853722
 11
-1580.158414184426
 21
1021.961924479661
  0
LINE
  5
C8
100
AcDbEntity
  8
____
  6
CONTINUOUS
 62
           3
100
AcDbLine
 10
-1569.841585815563
 20
1022.900889853722
 11
-1580.158414184426
 21
1022.900889853722
  0
LINE
  5
C7
100
AcDbEntity
  8
____
  6
CONTINUOUS
 62
           3
100
AcDbLine
 10
-1569.841585815563
 20
1021.961924479661
 11
-1569.841585815563
 21
1022.900889853722
  0
LINE
  5
C6
100
AcDbEntity
  8
____
  6
CONTINUOUS
 62
           3
100
AcDbLine
 10
-1580.404052955112
 20
1060.459504816177
 11
-1569.595947044874
 21
1060.459504816177
  0
LINE
  5
C5
100
AcDbEntity
  8
____
  6
CONTINUOUS
 62
           3
100
AcDbLine
 10
-1580.502308463379
 20
1021.961924479661
 11
-1569.497691536602
 21
1021.961924479661
  0
LINE
  5
C4
100
AcDbEntity
  8
____
  6
CONTINUOUS
 62
           3
100
AcDbLine
 10
-1580.502308463379
 20
986.281240265329
 11
-1580.502308463379
 21
1021.961924479661
  0
LINE
  5
C3
100
AcDbEntity
  8
____
  6
CONTINUOUS
 62
           3
100
AcDbLine
 10
-1569.497691536603
 20
986.281240265329
 11
-1580.502308463379
 21
986.281240265329
  0
LINE
  5
C2
100
AcDbEntity
  8
____
  6
CONTINUOUS
 62
           3
100
AcDbLine
 10
-1569.497691536602
 20
1021.961924479661
 11
-1569.497691536603
 21
986.281240265329
  0
LINE
  5
C1
100
AcDbEntity
  8
____
  6
CONTINUOUS
 62
           3
100
AcDbLine
 10
-1580.404052955112
 20
1060.459504816177
 11
-1579.912775413738
 21
1060.928987503209
  0
LINE
  5
C0
100
AcDbEntity
  8
____
  6
CONTINUOUS
 62
           3
100
AcDbLine
 10
-1570.087224586249
 20
1060.928987503209
 11
-1569.595947044874
 21
1060.459504816177
  0
LINE
  5
BF
100
AcDbEntity
  8
____
  6
CONTINUOUS
 62
           3
100
AcDbLine
 10
-1579.91277541374
 20
983.933826830174
 11
-1580.404052955114
 21
984.403309517206
  0
LINE
  5
BE
100
AcDbEntity
  8
____
  6
CONTINUOUS
 62
           3
100
AcDbLine
 10
-1569.595947044876
 20
984.403309517206
 11
-1570.087224586251
 21
983.933826830174
  0
LINE
  5
BD
100
AcDbEntity
  8
____
  6
CONTINUOUS
 62
           3
100
AcDbLine
 10
-1580.404052955114
 20
984.403309517206
 11
-1569.595947044876
 21
984.403309517206
  0
LINE
  5
BC
100
AcDbEntity
  8
____
  6
CONTINUOUS
 62
           3
100
AcDbLine
 10
-1580.40405295509
 20
1538.392880207259
 11
-1569.595947044852
 21
1538.392880207259
  0
LINE
  5
BB
100
AcDbEntity
  8
____
  6
CONTINUOUS
 62
           3
100
AcDbLine
 10
-1569.595947044852
 20
1538.392880207259
 11
-1570.087224586226
 21
1537.92339752023
  0
LINE
  5
BA
100
AcDbEntity
  8
____
  6
CONTINUOUS
 62
           3
100
AcDbLine
 10
-1579.912775413715
 20
1537.92339752023
 11
-1580.40405295509
 21
1538.392880207259
  0
LINE
  5
B9
100
AcDbEntity
  8
____
  6
CONTINUOUS
 62
           3
100
AcDbLine
 10
-1570.087224586226
 20
1614.918558193263
 11
-1569.595947044851
 21
1614.449075506231
  0
LINE
  5
B8
100
AcDbEntity
  8
____
  6
CONTINUOUS
 62
           3
100
AcDbLine
 10
-1580.404052955089
 20
1614.449075506231
 11
-1579.912775413714
 21
1614.918558193263
  0
LINE
  5
B7
100
AcDbEntity
  8
____
  6
CONTINUOUS
 62
           3
100
AcDbLine
 10
-1569.497691536586
 20
1575.951495169715
 11
-1569.497691536586
 21
1540.270810955382
  0
LINE
  5
B6
100
AcDbEntity
  8
____
  6
CONTINUOUS
 62
           3
100
AcDbLine
 10
-1569.497691536586
 20
1540.270810955382
 11
-1580.502308463363
 21
1540.270810955382
  0
LINE
  5
B5
100
AcDbEntity
  8
____
  6
CONTINUOUS
 62
           3
100
AcDbLine
 10
-1580.502308463363
 20
1540.270810955382
 11
-1580.502308463363
 21
1575.951495169715
  0
LINE
  5
B4
100
AcDbEntity
  8
____
  6
CONTINUOUS
 62
           3
100
AcDbLine
 10
-1580.502308463363
 20
1575.951495169715
 11
-1569.497691536586
 21
1575.951495169715
  0
LINE
  5
B3
100
AcDbEntity
  8
____
  6
CONTINUOUS
 62
           3
100
AcDbLine
 10
-1580.404052955089
 20
1614.449075506231
 11
-1569.595947044851
 21
1614.449075506231
  0
LINE
  5
B2
100
AcDbEntity
  8
____
  6
CONTINUOUS
 62
           3
100
AcDbLine
 10
-1569.841585815539
 20
1575.951495169715
 11
-1569.841585815539
 21
1576.890460543777
  0
LINE
  5
B1
100
AcDbEntity
  8
____
  6
CONTINUOUS
 62
           3
100
AcDbLine
 10
-1569.841585815539
 20
1576.890460543777
 11
-1580.158414184402
 21
1576.890460543777
  0
LINE
  5
B0
100
AcDbEntity
  8
____
  6
CONTINUOUS
 62
           3
100
AcDbLine
 10
-1580.158414184402
 20
1576.890460543777
 11
-1580.158414184402
 21
1575.951495169715
  0
LINE
  5
AF
100
AcDbEntity
  8
____
  6
CONTINUOUS
 62
           3
100
AcDbLine
 10
-1569.595947044852
 20
1540.270810955382
 11
-1569.595947044852
 21
1538.392880207259
  0
LINE
  5
AE
100
AcDbEntity
  8
____
  6
CONTINUOUS
 62
           3
100
AcDbLine
 10
-1570.087224586226
 20
1537.92339752023
 11
-1579.912775413715
 21
1537.92339752023
  0
LINE
  5
AD
100
AcDbEntity
  8
____
  6
CONTINUOUS
 62
           3
100
AcDbLine
 10
-1580.40405295509
 20
1538.392880207259
 11
-1580.40405295509
 21
1540.270810955382
  0
LINE
  5
AC
100
AcDbEntity
  8
____
  6
CONTINUOUS
 62
           3
100
AcDbLine
 10
-1580.502308463363
 20
1576.890460543777
 11
-1580.502308463362
 21
1612.571144758109
  0
LINE
  5
AB
100
AcDbEntity
  8
____
  6
CONTINUOUS
 62
           3
100
AcDbLine
 10
-1580.502308463362
 20
1612.571144758109
 11
-1569.497691536585
 21
1612.571144758108
  0
LINE
  5
AA
100
AcDbEntity
  8
____
  6
CONTINUOUS
 62
           3
100
AcDbLine
 10
-1569.497691536585
 20
1612.571144758108
 11
-1569.497691536586
 21
1576.890460543777
  0
LINE
  5
A9
100
AcDbEntity
  8
____
  6
CONTINUOUS
 62
           3
100
AcDbLine
 10
-1569.497691536586
 20
1576.890460543777
 11
-1580.502308463363
 21
1576.890460543777
  0
LINE
  5
A8
100
AcDbEntity
  8
____
  6
CONTINUOUS
 62
           3
100
AcDbLine
 10
-1580.404052955089
 20
1612.571144758109
 11
-1580.404052955089
 21
1614.449075506231
  0
LINE
  5
A7
100
AcDbEntity
  8
____
  6
CONTINUOUS
 62
           3
100
AcDbLine
 10
-1579.912775413714
 20
1614.918558193263
 11
-1570.087224586226
 21
1614.918558193263
  0
LINE
  5
A6
100
AcDbEntity
  8
____
  6
CONTINUOUS
 62
           3
100
AcDbLine
 10
-1569.595947044851
 20
1614.449075506231
 11
-1569.595947044851
 21
1612.571144758108
  0
LINE
  5
A5
100
AcDbEntity
  8
___S__
  6
DOT_CENTER
 62
           3
100
AcDbLine
 10
-1574.99999999997
 20
1621.052837286497
 11
-1574.999999999971
 21
1536.057127055388
  0
LINE
  5
A4
100
AcDbEntity
  8
1
  6
CONTINUOUS
 62
           7
100
AcDbLine
 10
-1574.999999999994
 20
941.513526798366
 11
-424.999999999994
 21
941.513526798366
  0
LINE
  5
A3
100
AcDbEntity
  8
1
  6
CONTINUOUS
 62
           7
100
AcDbLine
 10
-424.999999999994
 20
941.513526798366
 11
-424.999999999994
 21
1646.282992387802
  0
LINE
  5
A2
100
AcDbEntity
  8
1
  6
CONTINUOUS
 62
           7
100
AcDbLine
 10
-1574.999999999994
 20
941.513526798366
 11
-1574.999999999994
 21
1646.282992387802
  0
LINE
  5
A1
100
AcDbEntity
  8
1
  6
CONTINUOUS
 62
           7
100
AcDbLine
 10
-424.999999999994
 20
1646.282992387802
 11
-1574.999999999994
 21
1646.282992387802
  0
LINE
  5
A0
100
AcDbEntity
  8
1
  6
CONTINUOUS
 62
           3
100
AcDbLine
 10
-485.60420367812
 20
1294.32810932706
 11
-487.992149678101
 21
1267.070985327058
  0
LINE
  5
9F
100
AcDbEntity
  8
1
  6
CONTINUOUS
 62
           3
100
AcDbLine
 10
-487.992149678101
 20
1323.33071132706
 11
-485.60420367812
 21
1296.073587327061
  0
LINE
  5
9E
100
AcDbEntity
  8
1
  6
CONTINUOUS
 62
           3
100
AcDbLine
 10
-497.45128567812
 20
1294.32810932706
 11
-495.06333967811
 21
1267.070985327058
  0
LINE
  5
9D
100
AcDbEntity
  8
1
  6
CONTINUOUS
 62
           3
100
AcDbLine
 10
-495.06333967811
 20
1323.33071132706
 11
-497.45128567812
 21
1296.073587327061
  0
LINE
  5
9C
100
AcDbEntity
  8
1
  6
DOT_CENTER
 62
           3
100
AcDbLine
 10
-446.527744678116
 20
1295.200848327049
 11
-536.525199678121
 21
1295.200848327049
  0
LINE
  5
9B
100
AcDbEntity
  8
1
  6
DOT_CENTER
 62
           3
100
AcDbLine
 10
-491.527744678116
 20
1340.200848327049
 11
-491.527744678116
 21
1250.20227732705
  0
LINE
  5
9A
100
AcDbEntity
  8
1
  6
CONTINUOUS
 62
           7
100
AcDbLine
 10
-999.999999999999
 20
2500.0
 11
-999.999999999999
 21
2000.0
  0
LINE
  5
99
100
AcDbEntity
  8
1
  6
CONTINUOUS
 62
           7
100
AcDbLine
 10
0.000000000001
 20
2500.0
 11
0.000000000001
 21
2000.0
  0
LINE
  5
98
100
AcDbEntity
  8
1
  6
CONTINUOUS
 62
           7
100
AcDbLine
 10
1000.000000000001
 20
2500.0
 11
1000.000000000001
 21
2000.0
  0
LINE
  5
97
100
AcDbEntity
  8
1
  6
CONTINUOUS
 62
           7
100
AcDbLine
 10
-2000.0
 20
500.0
 11
-1999.999999999999
 21
2500.0
  0
LINE
  5
96
100
AcDbEntity
  8
1
  6
LONG_DASHED
 62
           2
100
AcDbLine
 10
-1999.999999999999
 20
50.0
 11
-2000.0
 21
500.0
  0
LINE
  5
95
100
AcDbEntity
  8
1
  6
CONTINUOUS
 62
           7
100
AcDbLine
 10
2000.000000000001
 20
500.0
 11
2000.000000000001
 21
2500.0
  0
LINE
  5
94
100
AcDbEntity
  8
1
  6
CONTINUOUS
 62
           4
100
AcDbLine
 10
4519.999999999999
 20
2020.0
 11
4819.506713441554
 21
2020.0
  0
LINE
  5
93
100
AcDbEntity
  8
1
  6
CONTINUOUS
 62
           4
100
AcDbLine
 10
5479.999999999999
 20
2480.0
 11
4519.999999999999
 21
2480.0
  0
LINE
  5
92
100
AcDbEntity
  8
1
  6
CONTINUOUS
 62
           4
100
AcDbLine
 10
4519.999999999999
 20
2480.0
 11
4519.999999999999
 21
2197.1108682961
  0
LINE
  5
91
100
AcDbEntity
  8
1
  6
CONTINUOUS
 62
           4
100
AcDbLine
 10
5479.999999999999
 20
2020.0
 11
5479.999999999999
 21
2480.0
  0
LINE
  5
90
100
AcDbEntity
  8
1
  6
CONTINUOUS
 62
           7
100
AcDbLine
 10
5499.999999999999
 20
2000.0
 11
4850.820421940538
 21
2000.0
  0
LINE
  5
8F
100
AcDbEntity
  8
1
  6
CONTINUOUS
 62
           7
100
AcDbLine
 10
2211.14781021898
 20
500.0
 11
-2201.63868613139
 21
500.0
  0
LINE
  5
8E
100
AcDbEntity
  8
1
  6
CONTINUOUS
 62
           7
100
AcDbLine
 10
500.000000000001
 20
5297.804440282098
 11
500.000000000001
 21
5548.639711610411
  0
LINE
  5
8D
100
AcDbEntity
  8
1
  6
CONTINUOUS
 62
           7
100
AcDbLine
 10
-2049.999999999999
 20
5297.804440282098
 11
-464.610640301041
 21
5297.804440282098
  0
LINE
  5
8C
100
AcDbEntity
  8
1
  6
CONTINUOUS
 62
           7
100
AcDbLine
 10
4229.999999999999
 20
2089.999999999999
 11
4229.999999999999
 21
1850.0
  0
LINE
  5
8B
100
AcDbEntity
  8
1
  6
CONTINUOUS
 62
           7
100
AcDbLine
 10
4049.999999999999
 20
1850.0
 11
4049.999999999999
 21
2089.999999999999
  0
LINE
  5
8A
100
AcDbEntity
  8
1
  6
CONTINUOUS
 62
           7
100
AcDbLine
 10
4049.999999999999
 20
2089.999999999999
 11
4229.999999999999
 21
2089.999999999999
  0
LINE
  5
89
100
AcDbEntity
  8
1
  6
CONTINUOUS
 62
           7
100
AcDbLine
 10
4229.999999999999
 20
1850.0
 11
4049.999999999999
 21
1850.0
  0
LINE
  5
88
100
AcDbEntity
  8
1
  6
CONTINUOUS
 62
           7
100
AcDbLine
 10
3739.999999999999
 20
2450.0
 11
3550.0
 21
2450.0
  0
LINE
  5
87
100
AcDbEntity
  8
1
  6
CONTINUOUS
 62
           7
100
AcDbLine
 10
3550.0
 20
2450.0
 11
3550.0
 21
2362.0
  0
LINE
  5
86
100
AcDbEntity
  8
1
  6
CONTINUOUS
 62
           7
100
AcDbLine
 10
3550.0
 20
2362.0
 11
3739.999999999999
 21
2362.0
  0
LINE
  5
85
100
AcDbEntity
  8
1
  6
CONTINUOUS
 62
           7
100
AcDbLine
 10
3739.999999999999
 20
2362.0
 11
3739.999999999999
 21
2450.0
  0
LINE
  5
84
100
AcDbEntity
  8
1
  6
CONTINUOUS
 62
           4
100
AcDbLine
 10
-2039.999999999999
 20
6297.804440282098
 11
-2039.999999999999
 21
4347.804440282098
  0
LINE
  5
83
100
AcDbEntity
  8
1
  6
CONTINUOUS
 62
           4
100
AcDbLine
 10
2040.000000000001
 20
6297.804440282098
 11
2040.000000000001
 21
4347.804440282098
  0
LINE
  5
82
100
AcDbEntity
  8
1
  6
CONTINUOUS
 62
           4
100
AcDbLine
 10
3500.0
 20
2540.0
 11
5499.999999999999
 21
2540.0
  0
LINE
  5
81
100
AcDbEntity
  8
1
  6
CONTINUOUS
 62
           4
100
AcDbLine
 10
1980.000000000001
 20
5277.804440282098
 11
296.22776601684
 21
5277.804440282098
  0
LINE
  5
80
100
AcDbEntity
  8
1
  6
CONTINUOUS
 62
           4
100
AcDbLine
 10
-2002.999999999999
 20
6297.804440282098
 11
-2002.999999999999
 21
4347.804440282098
  0
LINE
  5
7F
100
AcDbEntity
  8
1
  6
CONTINUOUS
 62
           4
100
AcDbLine
 10
1980.000000000001
 20
5317.804440282098
 11
520.0
 21
5317.804440282098
  0
LINE
  5
7E
100
AcDbEntity
  8
1
  6
CONTINUOUS
 62
           4
100
AcDbLine
 10
1980.000000000001
 20
6277.804440282098
 11
520.0
 21
6277.804440282098
  0
LINE
  5
7D
100
AcDbEntity
  8
1
  6
CONTINUOUS
 62
           4
100
AcDbLine
 10
2003.000000000001
 20
6297.804440282098
 11
2003.000000000001
 21
4347.804440282098
  0
LINE
  5
7C
100
AcDbEntity
  8
1
  6
CONTINUOUS
 62
           7
100
AcDbLine
 10
3617.500000000001
 20
1592.5
 11
3520.000000000001
 21
1592.5
  0
LINE
  5
7B
100
AcDbEntity
  8
1
  6
CONTINUOUS
 62
           7
100
AcDbLine
 10
3617.500000000001
 20
1607.5
 11
3520.000000000001
 21
1607.5
  0
LINE
  5
7A
100
AcDbEntity
  8
1
  6
CONTINUOUS
 62
           7
100
AcDbLine
 10
3637.500000000001
 20
1612.5
 11
3637.500000000001
 21
1680.0
  0
LINE
  5
79
100
AcDbEntity
  8
1
  6
CONTINUOUS
 62
           7
100
AcDbLine
 10
3622.5
 20
1612.5
 11
3622.5
 21
1680.0
  0
LINE
  5
78
100
AcDbEntity
  8
1
  6
CONTINUOUS
 62
           4
100
AcDbLine
 10
1980.000000000001
 20
5277.804440282098
 11
1980.000000000001
 21
4347.804440282098
  0
LINE
  5
77
100
AcDbEntity
  8
1
  6
CONTINUOUS
 62
           4
100
AcDbLine
 10
1980.000000000001
 20
6277.804440282098
 11
1980.000000000001
 21
5317.804440282098
  0
LINE
  5
76
100
AcDbEntity
  8
1
  6
CONTINUOUS
 62
           7
100
AcDbLine
 10
2050.000000000001
 20
4297.804440282098
 11
2050.000000000001
 21
6297.804440282098
  0
LINE
  5
75
100
AcDbEntity
  8
1
  6
CONTINUOUS
 62
           7
100
AcDbLine
 10
3899.999999999999
 20
1680.0
 11
3899.999999999999
 21
2130.0
  0
LINE
  5
74
100
AcDbEntity
  8
1
  6
CONTINUOUS
 62
           7
100
AcDbLine
 10
3899.999999999999
 20
2130.0
 11
3600.0
 21
2130.0
  0
LINE
  5
73
100
AcDbEntity
  8
1
  6
CONTINUOUS
 62
           7
100
AcDbLine
 10
3600.0
 20
2130.0
 11
3600.0
 21
1680.0
  0
LINE
  5
72
100
AcDbEntity
  8
1
  6
CONTINUOUS
 62
           7
100
AcDbLine
 10
3600.0
 20
1680.0
 11
3899.999999999999
 21
1680.0
  0
LINE
  5
71
100
AcDbEntity
  8
1
  6
DOT_CENTER
 62
           2
100
AcDbLine
 10
4799.999999999999
 20
675.0
 11
4799.999999999999
 21
525.0
  0
LINE
  5
70
100
AcDbEntity
  8
1
  6
DOT_CENTER
 62
           2
100
AcDbLine
 10
4724.999999999999
 20
600.0
 11
4874.999999999999
 21
600.0
  0
LINE
  5
6F
100
AcDbEntity
  8
1
  6
CONTINUOUS
 62
           7
100
AcDbLine
 10
0.0
 20
1763.744569986044
 11
0.0
 21
500.0
  0
LINE
  5
6E
100
AcDbEntity
  8
1
  6
CONTINUOUS
 62
           7
100
AcDbLine
 10
1985.000000000001
 20
540.0
 11
15.0
 21
540.0
  0
LINE
  5
6D
100
AcDbEntity
  8
1
  6
CONTINUOUS
 62
           7
100
AcDbLine
 10
-1999.999999999999
 20
800.0
 11
2000.000000000001
 21
800.0
  0
LINE
  5
6C
100
AcDbEntity
  8
1
  6
CONTINUOUS
 62
           7
100
AcDbLine
 10
15.0
 20
540.0
 11
15.0
 21
500.0
  0
LINE
  5
6B
100
AcDbEntity
  8
1
  6
CONTINUOUS
 62
           7
100
AcDbLine
 10
1985.000000000001
 20
540.0
 11
1985.000000000001
 21
500.0
  0
LINE
  5
6A
100
AcDbEntity
  8
1
  6
LONG_DASHED
 62
           2
100
AcDbLine
 10
2000.000000000001
 20
50.0
 11
-1999.999999999999
 21
50.0
  0
LINE
  5
69
100
AcDbEntity
  8
1
  6
CONTINUOUS
 62
           7
100
AcDbLine
 10
2000.000000000001
 20
1900.0
 11
-1999.999999999999
 21
1900.0
  0
LINE
  5
68
100
AcDbEntity
  8
1
  6
LONG_DASHED
 62
           2
100
AcDbLine
 10
2000.000000000001
 20
50.0
 11
2000.000000000001
 21
500.0
  0
LINE
  5
67
100
AcDbEntity
  8
1
  6
CONTINUOUS
 62
           7
100
AcDbLine
 10
4499.999999999999
 20
2575.0
 11
5499.999999999999
 21
2575.0
  0
LINE
  5
66
100
AcDbEntity
  8
1
  6
CONTINUOUS
 62
           7
100
AcDbLine
 10
4499.999999999999
 20
2500.0
 11
4499.999999999999
 21
2575.0
  0
LINE
  5
65
100
AcDbEntity
  8
1
  6
CONTINUOUS
 62
           7
100
AcDbLine
 10
3500.0
 20
2550.0
 11
5499.999999999999
 21
2550.0
  0
LINE
  5
64
100
AcDbEntity
  8
1
  6
CONTINUOUS
 62
           4
100
AcDbLine
 10
3500.0
 20
2503.0
 11
5499.999999999999
 21
2503.0
  0
LINE
  5
63
100
AcDbEntity
  8
1
  6
CONTINUOUS
 62
           7
100
AcDbLine
 10
3550.0
 20
2630.0
 11
3550.000000000001
 21
2650.0
  0
LINE
  5
62
100
AcDbEntity
  8
1
  6
CONTINUOUS
 62
           7
100
AcDbLine
 10
3500.0
 20
2650.0
 11
3550.000000000001
 21
2650.0
  0
LINE
  5
61
100
AcDbEntity
  8
1
  6
CONTINUOUS
 62
           7
100
AcDbLine
 10
5499.999999999999
 20
2500.0
 11
3500.0
 21
2500.0
  0
LINE
  5
60
100
AcDbEntity
  8
1
  6
CONTINUOUS
 62
           7
100
AcDbLine
 10
5500.0
 20
500.0
 11
5499.999999999999
 21
2575.0
  0
LINE
  5
5F
100
AcDbEntity
  8
1
  6
CONTINUOUS
 62
           7
100
AcDbLine
 10
3500.0
 20
500.0
 11
3500.0
 21
2650.0
  0
LINE
  5
5E
100
AcDbEntity
  8
1
  6
CONTINUOUS
 62
           7
100
AcDbLine
 10
2050.000000000001
 20
2500.0
 11
-2049.999999999999
 21
2500.0
  0
LINE
  5
5D
100
AcDbEntity
  8
1
  6
CONTINUOUS
 62
           7
100
AcDbLine
 10
-2049.999999999999
 20
2650.0
 11
-2049.999999999999
 21
500.0
  0
LINE
  5
5C
100
AcDbEntity
  8
1
  6
CONTINUOUS
 62
           7
100
AcDbLine
 10
2050.000000000001
 20
500.0
 11
2050.000000000001
 21
2650.0
  0
LINE
  5
5B
100
AcDbEntity
  8
1
  6
CONTINUOUS
 62
           7
100
AcDbLine
 10
2050.000000000001
 20
2130.0
 11
2170.000000000001
 21
2130.0
  0
LINE
  5
5A
100
AcDbEntity
  8
1
  6
CONTINUOUS
 62
           7
100
AcDbLine
 10
2050.000000000001
 20
1680.0
 11
2170.000000000001
 21
1680.0
  0
LINE
  5
59
100
AcDbEntity
  8
1
  6
CONTINUOUS
 62
           7
100
AcDbLine
 10
2050.000000000001
 20
6297.804440282098
 11
0.0
 21
6297.804440282098
  0
LINE
  5
58
100
AcDbEntity
  8
1
  6
CONTINUOUS
 62
           7
100
AcDbLine
 10
2050.000000000001
 20
4397.804440282098
 11
2170.000000000001
 21
4397.804440282098
  0
LINE
  5
57
100
AcDbEntity
  8
1
  6
CONTINUOUS
 62
           7
100
AcDbLine
 10
2050.000000000001
 20
4697.804440282098
 11
2170.000000000001
 21
4697.804440282098
  0
LINE
  5
56
100
AcDbEntity
  8
1
  6
CONTINUOUS
 62
           4
100
AcDbLine
 10
-1979.999999999999
 20
5317.804440282098
 11
-1979.999999999999
 21
6277.804440282098
  0
LINE
  5
55
100
AcDbEntity
  8
1
  6
CONTINUOUS
 62
           4
100
AcDbLine
 10
-1979.999999999999
 20
5317.804440282098
 11
-520.0
 21
5317.804440282098
  0
LINE
  5
54
100
AcDbEntity
  8
1
  6
CONTINUOUS
 62
           7
100
AcDbLine
 10
2000.000000000001
 20
4347.804440282098
 11
2000.000000000001
 21
6297.804440282098
  0
LINE
  5
53
100
AcDbEntity
  8
1
  6
CONTINUOUS
 62
           7
100
AcDbLine
 10
-1999.999999999999
 20
4347.804440282098
 11
-1999.999999999999
 21
6297.804440282098
  0
LINE
  5
52
100
AcDbEntity
  8
1
  6
CONTINUOUS
 62
           4
100
AcDbLine
 10
-1979.999999999999
 20
5277.804440282098
 11
-1979.999999999999
 21
4347.804440282098
  0
LINE
  5
51
100
AcDbEntity
  8
1
  6
CONTINUOUS
 62
           7
100
AcDbLine
 10
-2049.999999999999
 20
4347.804440282098
 11
2050.000000000001
 21
4347.804440282098
  0
LINE
  5
50
100
AcDbEntity
  8
1
  6
CONTINUOUS
 62
           4
100
AcDbLine
 10
-20.0
 20
4347.804440282098
 11
-20.0
 21
5169.526055176011
  0
LINE
  5
4F
100
AcDbEntity
  8
1
  6
CONTINUOUS
 62
           7
100
AcDbLine
 10
-2049.999999999999
 20
6297.804440282098
 11
-2049.999999999999
 21
4297.804440282098
  0
LINE
  5
4E
100
AcDbEntity
  8
1
  6
CONTINUOUS
 62
           7
100
AcDbLine
 10
-2049.999999999999
 20
4297.804440282098
 11
2050.000000000001
 21
4297.804440282098
  0
LINE
  5
4D
100
AcDbEntity
  8
1
  6
CONTINUOUS
 62
           7
100
AcDbLine
 10
3273.76289673202
 20
500.0
 11
5787.203902499559
 21
500.0
  0
LINE
  5
4C
100
AcDbEntity
  8
1
  6
CONTINUOUS
 62
           4
100
AcDbLine
 10
4479.999999999999
 20
2480.0
 11
3520.000000000001
 21
2480.0
  0
LINE
  5
4B
100
AcDbEntity
  8
1
  6
CONTINUOUS
 62
           4
100
AcDbLine
 10
3520.000000000001
 20
2480.0
 11
3519.999999999999
 21
520.0
  0
LINE
  5
4A
100
AcDbEntity
  8
1
  6
CONTINUOUS
 62
           4
100
AcDbLine
 10
3519.999999999999
 20
520.0
 11
4479.999999999999
 21
520.0
  0
LINE
  5
49
100
AcDbEntity
  8
1
  6
CONTINUOUS
 62
           4
100
AcDbLine
 10
4519.999999999999
 20
520.0
 11
5479.999999999999
 21
520.0
  0
LINE
  5
48
100
AcDbEntity
  8
1
  6
CONTINUOUS
 62
           4
100
AcDbLine
 10
5479.999999999999
 20
520.0
 11
5479.999999999999
 21
1980.0
  0
LINE
  5
47
100
AcDbEntity
  8
1
  6
CONTINUOUS
 62
           4
100
AcDbLine
 10
5479.999999999999
 20
1980.0
 11
4870.820421940538
 21
1980.0
  0
LINE
  5
46
100
AcDbEntity
  8
1
  6
LONG_DASHED
 62
           2
100
AcDbLine
 10
4050.0
 20
500.0
 11
4050.0
 21
50.0
  0
LINE
  5
45
100
AcDbEntity
  8
1
  6
LONG_DASHED
 62
           2
100
AcDbLine
 10
4050.0
 20
50.0
 11
5449.999999999999
 21
50.0
  0
LINE
  5
44
100
AcDbEntity
  8
1
  6
LONG_DASHED
 62
           2
100
AcDbLine
 10
5449.999999999999
 20
50.0
 11
5449.999999999999
 21
500.0
  0
LINE
  5
43
100
AcDbEntity
  8
1
  6
CONTINUOUS
 62
           7
100
AcDbLine
 10
2170.000000000001
 20
1680.0
 11
2170.000000000001
 21
2130.0
  0
LINE
  5
42
100
AcDbEntity
  8
1
  6
CONTINUOUS
 62
           7
100
AcDbLine
 10
2170.000000000001
 20
4697.804440282098
 11
2170.000000000001
 21
4397.804440282098
  0
LINE
  5
41
100
AcDbEntity
  8
1
  6
CONTINUOUS
 62
           7
100
AcDbLine
 10
-1984.999999999999
 20
500.0
 11
-1984.999999999999
 21
540.0
  0
LINE
  5
40
100
AcDbEntity
  8
1
  6
CONTINUOUS
 62
           7
100
AcDbLine
 10
-15.0
 20
500.0
 11
-15.0
 21
540.0
  0
LINE
  5
3F
100
AcDbEntity
  8
1
  6
CONTINUOUS
 62
           7
100
AcDbLine
 10
-15.0
 20
540.0
 11
-1984.999999999999
 21
540.0
  0
LINE
  5
3E
100
AcDbEntity
  8
1
  6
CONTINUOUS
 62
           4
100
AcDbLine
 10
520.0
 20
6277.804440282098
 11
520.0
 21
5832.207505371194
  0
LINE
  5
3D
100
AcDbEntity
  8
1
  6
CONTINUOUS
 62
           4
100
AcDbLine
 10
-520.0
 20
5317.804440282098
 11
-520.0
 21
5343.23796345618
  0
LINE
  5
3C
100
AcDbEntity
  8
1
  6
CONTINUOUS
 62
           7
100
AcDbLine
 10
-499.999999999999
 20
5297.804440282098
 11
-500.0
 21
5325.675550255377
  0
LINE
  5
3B
100
AcDbEntity
  8
1
  6
CONTINUOUS
 62
           7
100
AcDbLine
 10
500.000000000001
 20
5906.969168953785
 11
500.000000000001
 21
6297.804440282098
  0
LINE
  5
3A
100
AcDbEntity
  8
1
  6
CONTINUOUS
 62
           4
100
AcDbLine
 10
520.0
 20
5623.401375192992
 11
520.0
 21
5317.804440282098
  0
LINE
  5
39
100
AcDbEntity
  8
1
  6
CONTINUOUS
 62
           4
100
AcDbLine
 10
20.0
 20
5173.608686004791
 11
20.0
 21
4347.804440282098
  0
LINE
  5
38
100
AcDbEntity
  8
1
  6
CONTINUOUS
 62
           4
100
AcDbLine
 10
-435.831483154993
 20
5277.804440282098
 11
-1979.999999999999
 21
5277.804440282098
  0
LINE
  5
37
100
AcDbEntity
  8
1
  6
CONTINUOUS
 62
           7
100
AcDbLine
 10
0.0
 20
5171.264118921117
 11
0.0
 21
4347.804440282098
  0
LINE
  5
36
100
AcDbEntity
  8
1
  6
CONTINUOUS
 62
           7
100
AcDbLine
 10
322.928563989647
 20
5297.804440282098
 11
2050.000000000001
 21
5297.804440282098
  0
LINE
  5
35
100
AcDbEntity
  8
1
  6
CONTINUOUS
 62
           7
100
AcDbLine
 10
-730.0
 20
6297.804440282098
 11
-2049.999999999999
 21
6297.804440282098
  0
LINE
  5
34
100
AcDbEntity
  8
1
  6
CONTINUOUS
 62
           4
100
AcDbLine
 10
-738.000000000001
 20
6277.804440282098
 11
-1979.999999999999
 21
6277.804440282098
  0
LINE
  5
33
100
AcDbEntity
  8
1
  6
CONTINUOUS
 62
           7
100
AcDbLine
 10
2050.000000000001
 20
2650.0
 11
-2049.999999999999
 21
2650.0
  0
LINE
  5
32
100
AcDbEntity
  8
1
  6
DOT_CENTER
 62
           2
100
AcDbLine
 10
-795.260127416334
 20
5797.804440282098
 11
662.090607644981
 21
5797.804440282098
  0
LINE
  5
31
100
AcDbEntity
  8
1
  6
DOT_CENTER
 62
           2
100
AcDbLine
 10
0.000000000001
 20
3673.444227580339
 11
0.0
 21
-31.180660609671
  0
LINE
  5
30
100
AcDbEntity
  8
1
  6
CONTINUOUS
 62
           7
100
AcDbLine
 10
2000.000000000001
 20
2000.0
 11
-1999.999999999999
 21
2000.0
  0
LINE
  5
2F
100
AcDbEntity
  8
1
  6
DOT_CENTER
 62
           2
100
AcDbLine
 10
0.0
 20
4180.136959257639
 11
0.0
 21
6447.557272706948
  0
POINT
  5
2E
100
AcDbEntity
  8
0
 62
           3
100
AcDbPoint
 10
4333.399996721737
 20
1865.000000000116
  0
ENDSEC
  0
SECTION
  2
OBJECTS
  0
DICTIONARY
  5
19
100
AcDbDictionary
  3
ACAD_GROUP
350
1A
  3
ACAD_MLINESTYLE
350
1B
  0
DICTIONARY
  5
1A
102
{ACAD_REACTORS
330
19
102
}
100
AcDbDictionary
  0
DICTIONARY
  5
1B
102
{ACAD_REACTORS
330
19
102
}
100
AcDbDictionary
  3
STANDARD
350
1C
  0
MLINESTYLE
  5
1C
102
{ACAD_REACTORS
330
1B
102
}
100
AcDbMlineStyle
  2
STANDARD
 70
           0
  3

 62
           0
 51
90.0
 52
90.0
 71
           2
 49
0.5
 62
         256
  6
BYLAYER
 49
-0.5
 62
         256
  6
BYLAYER
  0
ENDSEC
  0
EOF
