  0
SECTION
  2
HEADER
  9
$ACADVER
  1
AC1009
  9
$INSBASE
 10
0
 20
0
  9
$EXTMIN
 10
-100.044364602527
 20
-31.98670670900577
  9
$EXTMAX
 10
49.0814117720836
 20
62.45668764873892
  9
$LIMMIN
 10
-100.044364602527
 20
-31.98670670900577
  9
$LIMMAX
 10
49.0814117720836
 20
62.45668764873892
  9
$VIEWCTR
 10
10
 20
10
  9
$VIEWSIZE
 40
10
  9
$SNAPMODE
 70
0
  9
$SNAPUNIT
 10
1
 20
1
  9
$SNAPBASE
 10
0
 20
0
  9
$SNAPANG
 50
0
  9
$SNAPSTYLE
 70
0
  9
$SNAPISOPAIR
 70
0
  9
$GRIDMODE
 70
0
  9
$GRIDUNIT
 10
0
 20
0
  9
$ORTHOMODE
 70
0
  9
$REGENMODE
 70
1
  9
$FILLMODE
 70
1
  9
$QTEXTMODE
 70
0
  9
$DRAGMODE
 70
2
  9
$LTSCALE
 40
1
  9
$OSMODE
 70
0
  9
$ATTMODE
 70
1
  9
$TEXTSIZE
 40
3.5
  9
$TRACEWID
 40
0.5
  9
$TEXTSTYLE
  7
STANDARD
  9
$CLAYER
  8
0
  9
$CELTYPE
  6
BYLAYER
  9
$CECOLOR
 62
256
  9
$DIMSCALE
 40
1
  9
$DIMASZ
 40
0.18
  9
$DIMEXO
 40
0.0625
  9
$DIMDLI
 40
0.38
  9
$DIMRND
 40
0
  9
$DIMDLE
 40
0
  9
$DIMEXE
 40
0.18
  9
$DIMTP
 40
0
  9
$DIMTM
 40
0
  9
$DIMTXT
 40
0.18
  9
$DIMCEN
 40
0.09
  9
$DIMTSZ
 40
0
  9
$DIMTOL
 70
0
  9
$DIMLIM
 70
0
  9
$DIMTIH
 70
1
  9
$DIMTOH
 70
1
  9
$DIMSE1
 70
0
  9
$DIMSE2
 70
0
  9
$DIMTAD
 70
0
  9
$DIMZIN
 70
0
  9
$DIMBLK
  1

  9
$DIMASO
 70
1
  9
$DIMSHO
 70
1
  9
$DIMPOST
  1

  9
$DIMAPOST
  1

  9
$DIMALT
 70
0
  9
$DIMALTD
 70
2
  9
$DIMALTF
 40
25.4
  9
$DIMLFAC
 40
1
  9
$DIMTOFL
 70
0
  9
$DIMTVP
 40
0
  9
$DIMTIX
 70
0
  9
$DIMSOXD
 70
0
  9
$DIMSAH
 70
0
  9
$DIMBLK1
  1

  9
$DIMBLK2
  1

  9
$DIMSTYLE
  2
*UNNAMED
  9
$DIMCLRD
 70
0
  9
$DIMCLRE
 70
0
  9
$DIMCLRT
 70
0
  9
$DIMTFAC
 40
1
  9
$DIMGAP
 40
0.09
  9
$LUNITS
 70
2
  9
$LUPREC
 70
4
  9
$AXISMODE
 70
0
  9
$AXISUNIT
 10
0
 20
0
  9
$SKETCHINC
 40
0.1
  9
$FILLETRAD
 40
2
  9
$AUNITS
 70
0
  9
$AUPREC
 70
0
  9
$MENU
  1
ACAD
  9
$ELEVATION
 40
0
  9
$THICKNESS
 40
0
  9
$VIEWDIR
 10
0
 20
0
 30
1
  9
$LIMCHECK
 70
0
  9
$BLIPMODE
 70
1
  9
$CHAMFERA
 40
0
  9
$CHAMFERB
 40
0
  9
$FASTZOOM
 70
1
  9
$SKPOLY
 70
0
  9
$ANGBASE
 50
0
  9
$ANGDIR
 70
0
  9
$PDMODE
 70
0
  9
$PDSIZE
 40
0
  9
$PLINEWID
 40
0
  9
$COORDS
 70
2
  0
ENDSEC
  0
SECTION
  2
TABLES
  0
TABLE
  2
DIMSTYLE
 70
0
  0
ENDTAB
  0
TABLE
  2
LTYPE
 70
9
  0
LTYPE
  2
CONTINUOUS
 70
64
  3
Solid line
 72
65
 73
0
 40
0
  0
LTYPE
  2
BORDER
 70
64
  3
__ __ . __ __ .
 72
65
 73
6
 40
6.867634438304436
 49
1.962181268086982
 49
-0.9810906340434908
 49
1.962181268086982
 49
-0.9810906340434908
 49
0
 49
-0.9810906340434908
  0
LTYPE
  2
CENTER
 70
64
  3
____ _ ____ _
 72
65
 73
4
 40
7.848725072347927
 49
4.905453170217454
 49
-0.9810906340434908
 49
0.9810906340434908
 49
-0.9810906340434908
  0
LTYPE
  2
DASHDOT
 70
64
  3
__ . __ . __ .
 72
65
 73
4
 40
3.924362536173963
 49
1.962181268086982
 49
-0.9810906340434908
 49
0
 49
-0.9810906340434908
  0
LTYPE
  2
DASHED
 70
64
  3
__ __ __ __ __
 72
65
 73
2
 40
2.943271902130473
 49
1.962181268086982
 49
-0.9810906340434908
  0
LTYPE
  2
DIVIDE
 70
64
  3
__ . . __ . . 
 72
65
 73
6
 40
4.905453170217454
 49
1.962181268086982
 49
-0.9810906340434908
 49
0
 49
-0.9810906340434908
 49
0
 49
-0.9810906340434908
  0
LTYPE
  2
DOT
 70
64
  3
..............
 72
65
 73
4
 40
1.962181268086982
 49
0
 49
-0.9810906340434908
 49
0
 49
-0.9810906340434908
  0
LTYPE
  2
HIDDEN
 70
64
  3
_ _ _ _ _ _ _
 72
65
 73
2
 40
1.471635951065236
 49
0.9810906340434908
 49
-0.4905453170217454
  0
LTYPE
  2
PHANTOM
 70
64
  3
_____ _ _ _____ _ _ 
 72
65
 73
6
 40
9.810906340434908
 49
4.905453170217454
 49
-0.9810906340434908
 49
0.9810906340434908
 49
-0.9810906340434908
 49
0.9810906340434908
 49
-0.9810906340434908
  0
ENDTAB
  0
TABLE
  2
LAYER
 70
4
  0
LAYER
  2
976
 70
0
 62
7
  6
CONTINUOUS
  0
LAYER
  2
1
 70
0
 62
7
  6
CONTINUOUS
  0
LAYER
  2
0
 70
0
 62
7
  6
CONTINUOUS
  0
ENDTAB
  0
TABLE
  2
STYLE
 70
4
  0
STYLE
  2
STANDARD
 70
0
 40
0
 41
1
 50
0
 71
0
 42
3.5
  3
txt
  4

  0
STYLE
  2
SIMPLEX
 70
0
 40
0
 41
1
 50
0
 71
0
 42
3.5
  3
simplex
  4

  0
STYLE
  2
COMPLEX
 70
0
 40
0
 41
1
 50
0
 71
0
 42
3.5
  3
complex
  4

  0
STYLE
  2
ITALIC
 70
0
 40
0
 41
1
 50
0
 71
0
 42
3.5
  3
italic
  4

  0
ENDTAB
  0
TABLE
  2
VIEW
 70
0
  0
ENDTAB
  0
ENDSEC
  0
SECTION
  2
BLOCKS
  0
BLOCK
  8
0
  2
03014980E
 70
0
 10
7.599358025209988
 20
-233.864891214614
 30
0
  0
LINE
  8
1
 62
7
 10
15.31518356935408
 20
15.88237319346976
 30
0
 11
15.31518356935408
 21
17.83734702394088
 31
0
  0
LINE
  8
1
 62
7
 10
9.32353930615729
 20
13.83734702394086
 30
0
 11
11.70674438691892
 21
13.83734702394085
 31
0
  0
LINE
  8
1
 62
2
 10
9.32353930615729
 20
13.33734702394088
 30
0
 11
9.706744386918921
 21
13.33734702394088
 31
0
  0
LINE
  8
1
 62
2
  6
DASHDOT
 10
18.70674438691894
 20
20.79822266942088
 30
0
 11
18.70674438691894
 21
-18.44666905668672
 31
0
  0
LINE
  8
1
 62
6
 10
17.39721280073973
 20
-8.162652976059093
 30
0
 11
17.39721280073973
 21
-10.16265297605909
 31
0
  0
LINE
  8
1
 62
6
 10
21.89721280073973
 20
-8.162652976059093
 30
0
 11
17.39721280073973
 21
-8.162652976059093
 31
0
  0
LINE
  8
1
 62
6
 10
21.89721280073973
 20
-10.16265297605909
 30
0
 11
21.89721280073973
 21
-8.162652976059093
 31
0
  0
LINE
  8
1
 62
6
 10
17.39721280073973
 20
-10.16265297605909
 30
0
 11
21.89721280073973
 21
-10.16265297605909
 31
0
  0
LINE
  8
1
 62
2
  6
DASHDOT
 10
3.274125688770248
 20
1.837347023940907
 30
0
 11
42.77179913144453
 21
1.837347023940907
 31
0
  0
LINE
  8
1
 62
7
 10
9.706744386918921
 20
13.83734702394088
 30
0
 11
9.706744386918921
 21
13.33734702394088
 31
0
  0
LINE
  8
1
 62
2
 10
9.706744386918921
 20
13.33734702394088
 30
0
 11
11.70674438691892
 21
13.83734702394085
 31
0
  0
LINE
  8
976
 62
7
 10
11.70674438691892
 20
13.83734702394085
 30
0
 11
11.70674438691892
 21
1.837347023940907
 31
0
  0
LINE
  8
976
 62
7
 10
9.706744386918921
 20
13.33734702394088
 30
0
 11
9.706744386918921
 21
1.837347023940907
 31
0
  0
LINE
  8
976
 62
7
 10
9.706744386918921
 20
1.837347023940907
 30
0
 11
9.706744386918921
 21
-9.662652976059093
 31
0
  0
LINE
  8
976
 62
7
 10
11.70674438691892
 20
1.837347023940907
 30
0
 11
11.70674438691892
 21
-10.16265297605909
 31
0
  0
LINE
  8
1
 62
2
 10
9.706744386918921
 20
-9.662652976059093
 30
0
 11
9.32353930615729
 21
-9.662652976059093
 31
0
  0
LINE
  8
1
 62
7
 10
11.70674438691892
 20
-10.16265297605909
 30
0
 11
9.32353930615729
 21
-10.16265297605909
 31
0
  0
LINE
  8
1
 62
7
 10
28.8669194903397
 20
-14.16265297605906
 30
0
 11
12.70674438691892
 21
-14.16265297605909
 31
0
  0
LINE
  8
1
 62
2
 10
11.70674438691892
 20
-10.16265297605909
 30
0
 11
9.706744386918921
 21
-9.662652976059093
 31
0
  0
LINE
  8
1
 62
7
 10
9.706744386918921
 20
-9.662652976059093
 30
0
 11
9.706744386918921
 21
-10.16265297605909
 31
0
  0
LINE
  8
1
 62
7
 10
11.70674438691892
 20
-13.16265297605909
 30
0
 11
11.70674438691892
 21
-10.16265297605909
 31
0
  0
LINE
  8
1
 62
7
 10
12.70674438691892
 20
-14.16265297605909
 30
0
 11
11.70674438691892
 21
-13.16265297605909
 31
0
  0
LINE
  8
1
 62
7
 10
18.70674438691894
 20
20.79822266942088
 30
0
 11
18.70674438691894
 21
24.23321501009289
 31
0
  0
LINE
  8
976
 62
2
  6
DASHDOT
 10
13.11284711569374
 20
10.33734702394099
 30
0
 11
25.25567705348905
 21
10.33734702394099
 31
0
  0
LINE
  8
1
 62
6
 10
15.10674438691893
 20
-4.162652976059093
 30
0
 11
24.30674438691894
 21
-4.162652976059093
 31
0
  0
LINE
  8
1
 62
6
 10
24.30674438691894
 20
-4.162652976059093
 30
0
 11
24.30674438691894
 21
-2.162652976059093
 31
0
  0
LINE
  8
1
 62
6
 10
24.30674438691894
 20
-2.162652976059093
 30
0
 11
15.10674438691893
 21
-2.162652976059093
 31
0
  0
LINE
  8
1
 62
6
 10
15.10674438691893
 20
-2.162652976059093
 30
0
 11
15.10674438691893
 21
-4.162652976059093
 31
0
  0
LINE
  8
1
 62
7
 10
12.42843222340593
 20
17.83734702394088
 30
0
 11
28.8669194903397
 21
17.83734702394088
 31
0
  0
LINE
  8
1
 62
7
 10
22.16721132937428
 20
17.83734702394088
 30
0
 11
22.16721132937428
 21
15.83963459732114
 31
0
  0
LINE
  8
1
 62
7
 10
11.70674438691892
 20
13.83734702394085
 30
0
 11
11.70674438691892
 21
16.58734702394091
 31
0
  0
LINE
  8
1
 62
7
 10
12.42843222340593
 20
17.83734702394088
 30
0
 11
11.70674438691892
 21
16.58734702394091
 31
0
  0
LINE
  8
1
 62
7
 10
15.31518356935408
 20
-11.76412348479445
 30
0
 11
22.16721132937428
 21
-11.76412348479445
 31
0
  0
LINE
  8
1
 62
7
 10
15.31518356935408
 20
-14.16265297605909
 30
0
 11
15.31518356935408
 21
-11.76412348479445
 31
0
  0
LINE
  8
1
 62
7
 10
22.16721132937428
 20
-14.16265297605909
 30
0
 11
22.16721132937428
 21
-11.76412348479445
 31
0
  0
LINE
  8
1
 62
7
 10
32.70674438691892
 20
12.83734702394088
 30
0
 11
32.70674438691892
 21
13.83734702394088
 31
0
  0
LINE
  8
1
 62
7
 10
32.70674438691895
 20
14.83734702394088
 30
0
 11
32.70674438691892
 21
13.83734702394088
 31
0
  0
LINE
  8
976
 62
7
 10
32.70674438691892
 20
12.83734702394088
 30
0
 11
32.70674438691892
 21
1.837347023940907
 31
0
  0
LINE
  8
976
 62
7
 10
32.70674438691892
 20
1.837347023940907
 30
0
 11
32.70674438691892
 21
-9.162652976059007
 31
0
  0
LINE
  8
1
 62
7
 10
32.70674438691892
 20
-10.16265297605909
 30
0
 11
32.70674438691892
 21
-11.16265297605909
 31
0
  0
LINE
  8
1
 62
7
 10
32.70674438691892
 20
-10.16265297605909
 30
0
 11
32.70674438691892
 21
-9.162652976059007
 31
0
  0
LINE
  8
1
 62
7
 10
32.70674438691895
 20
14.83734702394088
 30
0
 11
28.8669194903397
 21
17.83734702394088
 31
0
  0
LINE
  8
1
 62
7
 10
28.8669194903397
 20
-14.16265297605906
 30
0
 11
32.70674438691892
 21
-11.16265297605909
 31
0
  0
ARC
  8
1
 62
7
 10
10.91328131948279
 20
1.837347023940993
 30
0
 40
17.65363817085692
 50
309.6045389280054
 51
38.69852552900802
  0
ARC
  8
1
 62
7
 10
45.91474783640401
 20
1.837347023940993
 30
0
 40
33.48631561299807
 50
170.4001999007115
 51
203.9650909849874
  0
TEXT
  8
1
 62
7
 10
17.42525093940819
 20
-10.16317282677392
 30
0
 40
2
  1
AIR
 41
0.9450000000000001
  0
TEXT
  8
1
 62
7
 10
15.26105447562379
 20
-4.163172826773916
 30
0
 40
2
  1
TOF-5B
 41
0.9
  0
ENDBLK
  8
0
  0
BLOCK
  8
0
  2
03056980
 70
0
 10
662.4700806593578
 20
30.38928765527851
 30
0
  0
LINE
  8
1
 62
2
  6
DASHDOT
 10
6.785245297973706
 20
1.837347023940879
 30
0
 11
-9.288705041093845
 21
1.837347023940879
 31
0
  0
ENDBLK
  8
0
  0
BLOCK
  8
0
  2
03055980
 70
0
 10
522.0636785912309
 20
104.5025403925048
 30
0
  0
INSERT
  8
0
  2
03056980
 10
662.4700806593578
 20
30.38928765527851
 30
0
  0
ENDBLK
  8
0
  0
BLOCK
  8
0
  2
13608620B
 70
0
 10
547.0411269940637
 20
109.5183419289032
 30
0
  0
INSERT
  8
0
  2
03055980
 10
522.0636785912309
 20
104.5025403925048
 30
0
  0
ENDBLK
  8
0
  0
BLOCK
  8
0
  2
TOF-5R-S3
 70
0
 10
366.3156212014567
 20
56.9038645822319
 30
0
  0
INSERT
  8
0
  2
13608620B
 10
547.0411269940637
 20
109.5183419289032
 30
0
  0
ENDBLK
  8
0
  0
BLOCK
  8
0
  2
03002650
 70
0
 10
-32.47861094036498
 20
4.337347023940993
 30
0
  0
LINE
  8
1
 62
2
  6
DASHDOT
 10
9.606744386918919
 20
10.33734702394099
 30
0
 11
27.80674438691892
 21
10.33734702394099
 31
0
  0
LINE
  8
1
 62
2
  6
DASHDOT
 10
18.70674438691892
 20
1.237347023940998
 30
0
 11
18.70674438691892
 21
19.43734702394099
 31
0
  0
CIRCLE
  8
1
 62
7
 10
18.70674438691892
 20
10.33734702394099
 30
0
 40
6.5
  0
ENDBLK
  8
0
  0
BLOCK
  8
0
  2
03018980
 70
0
 10
238.8727530959613
 20
-102.5175763833541
 30
0
  0
LINE
  8
1
 62
2
  6
DASHDOT
 10
11.85020796882283
 20
10.33734702394088
 30
0
 11
26.24046958704959
 21
10.33734702394088
 31
0
  0
LINE
  8
1
 62
2
  6
DASHDOT
 10
18.70674438691892
 20
18.05998454292222
 30
0
 11
18.70674438691892
 21
2.399993958381174
 31
0
  0
ENDBLK
  8
0
  0
BLOCK
  8
0
  2
03002980__1
 70
0
 10
205.910704088629
 20
36.66324587870952
 30
0
  0
LINE
  8
1
 62
2
  6
DASHDOT
 10
6.131324637747429
 20
1.837347023940879
 30
0
 11
-8.804377615789672
 21
1.837347023940879
 31
0
  0
ENDBLK
  8
0
  0
BLOCK
  8
0
  2
03001980__2
 70
0
 10
-7.894776740653906
 20
-6.511149458723423
 30
0
  0
INSERT
  8
0
  2
03002980__1
 10
205.910704088629
 20
36.66324587870952
 30
0
  0
ENDBLK
  8
0
  0
BLOCK
  8
0
  2
KSGA-5-13A
 70
0
 10
176.2570329760474
 20
-163.7980395281647
 30
0
  0
LINE
  8
1
 62
7
 10
23.64886938691895
 20
-16.66265297605909
 30
0
 11
23.71230688691891
 21
-18.69265297605909
 31
0
  0
LINE
  8
1
 62
2
 10
23.06786938691905
 20
-16.66265297605909
 30
0
 11
23.70556313691897
 21
-18.47685297605909
 31
0
  0
LINE
  8
1
 62
2
 10
22.98974438691905
 20
-14.16265297605912
 30
0
 11
23.06786938691905
 21
-16.66265297605909
 31
0
  0
LINE
  8
1
 62
7
 10
23.57074438691895
 20
-14.16265297605912
 30
0
 11
23.64886938691895
 21
-16.66265297605909
 31
0
  0
LINE
  8
1
 62
7
 10
18.70674438691892
 20
-16.66265297605909
 30
0
 11
23.64886938691895
 21
-16.66265297605909
 31
0
  0
LINE
  8
1
 62
7
 10
22.85674438691901
 20
-24.69265297605909
 30
0
 11
22.85674438691901
 21
-23.19265297605909
 31
0
  0
LINE
  8
1
 62
7
 10
18.70674438691892
 20
-30.19265297605909
 30
0
 11
23.57074438691895
 21
-30.19265297605909
 31
0
  0
LINE
  8
1
 62
2
 10
22.98974438691905
 20
-24.69265297605909
 30
0
 11
22.98974438691905
 21
-30.19265297605909
 31
0
  0
LINE
  8
1
 62
7
 10
23.57074438691895
 20
-30.19265297605909
 30
0
 11
23.57074438691895
 21
-24.69265297605909
 31
0
  0
LINE
  8
1
 62
7
 10
18.70674438691892
 20
-24.69265297605909
 30
0
 11
23.57074438691895
 21
-24.69265297605909
 31
0
  0
LINE
  8
1
 62
7
 10
18.70674438691892
 20
-23.19265297605909
 30
0
 11
24.70674438691892
 21
-23.19265297605909
 31
0
  0
LINE
  8
1
 62
7
 10
22.65289680962544
 20
-22.9039778414641
 30
0
 11
22.65289680962544
 21
-18.98132811065369
 31
0
  0
LINE
  8
1
 62
7
 10
21.20674438691892
 20
-18.98132811065369
 30
0
 11
21.20674438691892
 21
-22.9039778414641
 31
0
  0
LINE
  8
1
 62
7
 10
21.20674438691892
 20
-22.9039778414641
 30
0
 11
22.65289680962544
 21
-22.9039778414641
 31
0
  0
LINE
  8
1
 62
7
 10
18.70674438691892
 20
-18.69265297605909
 30
0
 11
23.95674438691892
 21
-18.69265297605909
 31
0
  0
LINE
  8
1
 62
7
 10
23.95674438691892
 20
-18.69265297605909
 30
0
 11
24.70674438691892
 21
-18.69265297605909
 31
0
  0
LINE
  8
1
 62
7
 10
25.20674438691892
 20
-22.9039778414641
 30
0
 11
24.70674438691892
 21
-23.19265297605909
 31
0
  0
LINE
  8
1
 62
7
 10
24.70674438691892
 20
-18.69265297605909
 30
0
 11
25.20674438691892
 21
-18.98132811065369
 31
0
  0
LINE
  8
1
 62
7
 10
25.20674438691892
 20
-18.98132811065369
 30
0
 11
25.20674438691892
 21
-22.9039778414641
 31
0
  0
LINE
  8
1
 62
7
 10
22.65289680962544
 20
-18.98132811065369
 30
0
 11
21.20674438691892
 21
-18.98132811065369
 31
0
  0
LINE
  8
1
 62
7
 10
16.20674438691892
 20
-18.98132811065369
 30
0
 11
14.7605919642124
 21
-18.98132811065369
 31
0
  0
LINE
  8
1
 62
7
 10
12.20674438691892
 20
-22.9039778414641
 30
0
 11
12.20674438691892
 21
-18.98132811065369
 31
0
  0
LINE
  8
1
 62
7
 10
12.20674438691892
 20
-18.98132811065369
 30
0
 11
12.70674438691892
 21
-18.69265297605909
 31
0
  0
LINE
  8
1
 62
7
 10
12.70674438691892
 20
-23.19265297605909
 30
0
 11
12.20674438691892
 21
-22.9039778414641
 31
0
  0
LINE
  8
1
 62
7
 10
12.70674438691892
 20
-18.69265297605909
 30
0
 11
13.45674438691892
 21
-18.69265297605909
 31
0
  0
LINE
  8
1
 62
7
 10
13.45674438691892
 20
-18.69265297605909
 30
0
 11
18.70674438691892
 21
-18.69265297605909
 31
0
  0
LINE
  8
1
 62
7
 10
14.7605919642124
 20
-22.9039778414641
 30
0
 11
16.20674438691892
 21
-22.9039778414641
 31
0
  0
LINE
  8
1
 62
7
 10
16.20674438691892
 20
-22.9039778414641
 30
0
 11
16.20674438691892
 21
-18.98132811065369
 31
0
  0
LINE
  8
1
 62
7
 10
14.7605919642124
 20
-18.98132811065369
 30
0
 11
14.7605919642124
 21
-22.9039778414641
 31
0
  0
LINE
  8
1
 62
7
 10
12.70674438691892
 20
-23.19265297605909
 30
0
 11
18.70674438691892
 21
-23.19265297605909
 31
0
  0
LINE
  8
1
 62
7
 10
13.84274438691911
 20
-24.69265297605909
 30
0
 11
18.70674438691892
 21
-24.69265297605909
 31
0
  0
LINE
  8
1
 62
7
 10
13.84274438691911
 20
-24.69265297605909
 30
0
 11
13.84274438691911
 21
-30.19265297605909
 31
0
  0
LINE
  8
1
 62
2
 10
14.42374438691902
 20
-30.19265297605909
 30
0
 11
14.42374438691902
 21
-24.69265297605909
 31
0
  0
LINE
  8
1
 62
7
 10
13.84274438691911
 20
-30.19265297605909
 30
0
 11
18.70674438691892
 21
-30.19265297605909
 31
0
  0
LINE
  8
1
 62
7
 10
14.55674438691883
 20
-23.19265297605909
 30
0
 11
14.55674438691883
 21
-24.69265297605909
 31
0
  0
LINE
  8
1
 62
7
 10
13.76461938691911
 20
-16.66265297605909
 30
0
 11
18.70674438691892
 21
-16.66265297605909
 31
0
  0
LINE
  8
1
 62
7
 10
13.76461938691911
 20
-16.66265297605909
 30
0
 11
13.84274438691911
 21
-14.16265297605912
 31
0
  0
LINE
  8
1
 62
2
 10
14.34561938691902
 20
-16.66265297605909
 30
0
 11
14.42374438691902
 21
-14.16265297605912
 31
0
  0
LINE
  8
1
 62
2
 10
13.70792563691909
 20
-18.47685297605909
 30
0
 11
14.34561938691902
 21
-16.66265297605909
 31
0
  0
LINE
  8
1
 62
7
 10
13.70118188691892
 20
-18.69265297605909
 30
0
 11
13.76461938691911
 21
-16.66265297605909
 31
0
  0
LINE
  8
1
 62
2
  6
DASHDOT
 10
18.70674438691892
 20
-31.98670670900572
 30
0
 11
18.70674438691892
 21
-9.196659135272398
 31
0
  0
ARC
  8
1
 62
7
 10
18.70674438691892
 20
-12.22299786145629
 30
0
 40
10.9696551146028
 50
270
 51
283.1735511072592
  0
ARC
  8
1
 62
7
 10
23.92982059827229
 20
-20.22540259726429
 30
0
 40
2.967372524785574
 50
244.5120436441984
 51
295.4879563557978
  0
ARC
  8
1
 62
7
 10
23.92982059827229
 20
-21.6599033548535
 30
0
 40
2.96737252478548
 50
64.51204364420221
 51
115.4879563558016
  0
ARC
  8
1
 62
7
 10
18.70674438691892
 20
-29.6623080906617
 30
0
 40
10.96965511460283
 50
76.82644889274101
 51
90
  0
ARC
  8
1
 62
7
 10
18.70674438691892
 20
-29.6623080906617
 30
0
 40
10.96965511460261
 50
90
 51
103.173551107259
  0
ARC
  8
1
 62
7
 10
13.48366817556577
 20
-21.6599033548535
 30
0
 40
2.96737252478548
 50
64.51204364420221
 51
115.4879563558016
  0
ARC
  8
1
 62
7
 10
13.48366817556577
 20
-20.22540259726429
 30
0
 40
2.967372524785573
 50
244.5120436441984
 51
295.4879563557978
  0
ARC
  8
1
 62
7
 10
18.70674438691892
 20
-12.22299786145629
 30
0
 40
10.96965511460263
 50
256.8264488927408
 51
270
  0
ENDBLK
  8
0
  0
BLOCK
  8
0
  2
100
 70
0
 10
-80.56149188301627
 20
-70.57346767306771
 30
0
  0
LINE
  8
1
 62
2
  6
DASHDOT
 10
18.70674438691892
 20
62.45668764873892
 30
0
 11
18.70674438691892
 21
-16.08758394070421
 31
0
  0
ENDBLK
  8
0
  0
BLOCK
  8
0
  2
KSGA-5-01C
 70
0
 10
55.10056125855705
 20
-132.8769113200375
 30
0
  0
LINE
  8
1
 62
2
  6
DASHDOT
 10
5.831324637747475
 20
1.837347023940879
 30
0
 11
-2.220530389983178
 21
1.837347023940879
 31
0
  0
ENDBLK
  8
0
  0
BLOCK
  8
0
  2
KSGA-5-101A
 70
0
 10
145.8256392384928
 20
-27.3081548613408
 30
0
  0
INSERT
  8
0
  2
KSGA-5-01C
 10
55.10056125855705
 20
-132.8769113200375
 30
0
  0
ENDBLK
  8
0
  0
BLOCK
  8
0
  2
KSGA-5-12
 70
0
 10
221.6061862588379
 20
-67.17941469987412
 30
0
  0
LINE
  8
1
 62
2
  6
DASHDOT
 10
34.05708124903141
 20
1.837347023940879
 30
0
 11
49.0814117720836
 21
1.837347023940879
 31
0
  0
ENDBLK
  8
0
  0
BLOCK
  8
0
  2
KSGA-5-20
 70
0
 10
110.347076121353
 20
-61.94866446169021
 30
0
  0
LINE
  8
1
 62
7
 10
33.20674438691891
 20
16.8373470239406
 30
0
 11
32.70674438691891
 21
16.3373470239406
 31
0
  0
LINE
  8
1
 62
7
 10
35.70674438691891
 20
16.3373470239406
 30
0
 11
35.20674438691891
 21
16.8373470239406
 31
0
  0
LINE
  8
1
 62
7
 10
35.70674438691891
 20
16.3373470239406
 30
0
 11
35.70674438691891
 21
13.29584702394072
 31
0
  0
LINE
  8
1
 62
7
 10
33.20674438691891
 20
16.8373470239406
 30
0
 11
35.20674438691891
 21
16.8373470239406
 31
0
  0
LINE
  8
1
 62
7
 10
33.20674438691891
 20
1.837347023940822
 30
0
 11
33.20674438691891
 21
16.8373470239406
 31
0
  0
LINE
  8
1
 62
7
 10
35.20674438691891
 20
1.837347023940822
 30
0
 11
35.20674438691891
 21
16.8373470239406
 31
0
  0
LINE
  8
1
 62
2
 10
35.20674438691891
 20
2.643281402465618
 30
0
 11
33.20674438691891
 21
2.643281402465618
 31
0
  0
LINE
  8
1
 62
2
 10
33.20674438691891
 20
3.446543006997104
 30
0
 11
35.20674438691891
 21
3.446543006997104
 31
0
  0
LINE
  8
1
 62
2
 10
35.20674438691891
 20
4.244467927440724
 30
0
 11
33.20674438691891
 21
4.244467927440724
 31
0
  0
LINE
  8
1
 62
2
 10
35.20674438691891
 20
5.034409952103999
 30
0
 11
33.20674438691891
 21
5.034409952103999
 31
0
  0
LINE
  8
1
 62
2
 10
35.20674438691891
 20
5.813749343504469
 30
0
 11
33.20674438691891
 21
5.813749343504469
 31
0
  0
LINE
  8
1
 62
2
 10
35.20674438691891
 20
6.579901526380525
 30
0
 11
33.20674438691891
 21
6.579901526380525
 31
0
  0
LINE
  8
1
 62
2
 10
35.20674438691891
 20
7.330325659090477
 30
0
 11
33.20674438691891
 21
7.330325659090477
 31
0
  0
LINE
  8
1
 62
2
 10
35.20674438691891
 20
8.062533059975976
 30
0
 11
33.20674438691891
 21
8.062533059975976
 31
0
  0
LINE
  8
1
 62
2
 10
35.20674438691891
 20
8.774095460742274
 30
0
 11
33.20674438691891
 21
8.774095460742274
 31
0
  0
LINE
  8
1
 62
2
 10
35.20674438691891
 20
9.462653059487479
 30
0
 11
33.20674438691891
 21
9.462653059487479
 31
0
  0
LINE
  8
1
 62
2
 10
35.20674438691891
 20
10.12592234667051
 30
0
 11
33.20674438691891
 21
10.12592234667051
 31
0
  0
LINE
  8
1
 62
2
 10
35.20674438691891
 20
10.7617036780664
 30
0
 11
33.20674438691891
 21
10.7617036780664
 31
0
  0
LINE
  8
1
 62
2
 10
35.20674438691891
 20
11.36788856959367
 30
0
 11
33.20674438691891
 21
11.36788856959367
 31
0
  0
LINE
  8
1
 62
2
 10
35.20674438691891
 20
11.94246668982032
 30
0
 11
33.20674438691891
 21
11.94246668982032
 31
0
  0
LINE
  8
1
 62
2
 10
35.20674438691891
 20
12.48353252696052
 30
0
 11
33.20674438691891
 21
12.48353252696052
 31
0
  0
LINE
  8
1
 62
2
 10
35.20674438691891
 20
12.98929170825051
 30
0
 11
33.20674438691891
 21
12.98929170825051
 31
0
  0
LINE
  8
1
 62
2
 10
35.20674438691891
 20
13.45806695074697
 30
0
 11
33.20674438691891
 21
13.45806695074697
 31
0
  0
LINE
  8
1
 62
2
 10
35.20674438691891
 20
13.88830362381208
 30
0
 11
33.20674438691891
 21
13.88830362381208
 31
0
  0
LINE
  8
1
 62
2
 10
35.20674438691891
 20
14.27857490483927
 30
0
 11
33.20674438691891
 21
14.27857490483927
 31
0
  0
LINE
  8
1
 62
2
 10
35.20674438691891
 20
14.62758651112011
 30
0
 11
33.20674438691891
 21
14.62758651112011
 31
0
  0
LINE
  8
1
 62
2
 10
35.20674438691891
 20
14.93418099216041
 30
0
 11
33.20674438691891
 21
14.93418099216041
 31
0
  0
LINE
  8
1
 62
2
 10
35.20674438691891
 20
15.1973415682109
 30
0
 11
33.20674438691891
 21
15.1973415682109
 31
0
  0
LINE
  8
1
 62
2
 10
35.20674438691891
 20
15.4161955022812
 30
0
 11
33.20674438691891
 21
15.4161955022812
 31
0
  0
LINE
  8
1
 62
2
 10
33.20674438691891
 20
15.5900169944569
 30
0
 11
35.20674438691891
 21
15.5900169944569
 31
0
  0
LINE
  8
1
 62
2
 10
35.20674438691891
 20
15.71822958891687
 30
0
 11
33.20674438691891
 21
15.71822958891687
 31
0
  0
LINE
  8
1
 62
2
 10
35.20674438691891
 20
15.84644218337678
 30
0
 11
33.20674438691891
 21
15.84644218337678
 31
0
  0
LINE
  8
1
 62
2
 10
33.20674438691891
 20
15.9746547778368
 30
0
 11
35.20674438691891
 21
15.9746547778368
 31
0
  0
LINE
  8
1
 62
2
 10
35.20674438691891
 20
16.10286737229671
 30
0
 11
33.20674438691891
 21
16.10286737229671
 31
0
  0
LINE
  8
1
 62
2
 10
33.20674438691891
 20
16.23107996675662
 30
0
 11
35.20674438691891
 21
16.23107996675662
 31
0
  0
LINE
  8
1
 62
2
 10
35.20674438691891
 20
16.35929256121648
 30
0
 11
33.20674438691891
 21
16.35929256121648
 31
0
  0
LINE
  8
1
 62
2
 10
33.20674438691891
 20
16.4875051556765
 30
0
 11
35.20674438691891
 21
16.4875051556765
 31
0
  0
LINE
  8
1
 62
2
 10
35.20674438691891
 20
16.61571775013641
 30
0
 11
33.20674438691891
 21
16.61571775013641
 31
0
  0
LINE
  8
1
 62
2
 10
33.20674438691891
 20
16.74393034459638
 30
0
 11
35.20674438691891
 21
16.74393034459638
 31
0
  0
LINE
  8
1
 62
2
 10
33.20674438691891
 20
1.837347023940822
 30
0
 11
35.20674438691891
 21
1.837347023940822
 31
0
  0
LINE
  8
1
 62
2
 10
35.20674438691891
 20
-13.06923629671468
 30
0
 11
33.20674438691891
 21
-13.06923629671468
 31
0
  0
LINE
  8
1
 62
2
 10
33.20674438691891
 20
-12.94102370225482
 30
0
 11
35.20674438691891
 21
-12.94102370225482
 31
0
  0
LINE
  8
1
 62
2
 10
35.20674438691891
 20
-12.8128111077948
 30
0
 11
33.20674438691891
 21
-12.8128111077948
 31
0
  0
LINE
  8
1
 62
2
 10
33.20674438691891
 20
-12.68459851333489
 30
0
 11
35.20674438691891
 21
-12.68459851333489
 31
0
  0
LINE
  8
1
 62
2
 10
35.20674438691891
 20
-12.55638591887498
 30
0
 11
33.20674438691891
 21
-12.55638591887498
 31
0
  0
LINE
  8
1
 62
2
 10
33.20674438691891
 20
-12.42817332441513
 30
0
 11
35.20674438691891
 21
-12.42817332441513
 31
0
  0
LINE
  8
1
 62
2
 10
35.20674438691891
 20
-12.2999607299551
 30
0
 11
33.20674438691891
 21
-12.2999607299551
 31
0
  0
LINE
  8
1
 62
2
 10
33.20674438691891
 20
-12.17174813549519
 30
0
 11
35.20674438691891
 21
-12.17174813549519
 31
0
  0
LINE
  8
1
 62
2
 10
33.20674438691891
 20
-12.04353554103523
 30
0
 11
35.20674438691891
 21
-12.04353554103523
 31
0
  0
LINE
  8
1
 62
2
 10
35.20674438691891
 20
-11.91532294657532
 30
0
 11
33.20674438691891
 21
-11.91532294657532
 31
0
  0
LINE
  8
1
 62
2
 10
33.20674438691891
 20
-11.7415014543995
 30
0
 11
35.20674438691891
 21
-11.7415014543995
 31
0
  0
LINE
  8
1
 62
2
 10
33.20674438691891
 20
-11.52264752032909
 30
0
 11
35.20674438691891
 21
-11.52264752032909
 31
0
  0
LINE
  8
1
 62
2
 10
33.20674438691891
 20
-11.25948694427871
 30
0
 11
35.20674438691891
 21
-11.25948694427871
 31
0
  0
LINE
  8
1
 62
2
 10
33.20674438691891
 20
-10.95289246323841
 30
0
 11
35.20674438691891
 21
-10.95289246323841
 31
0
  0
LINE
  8
1
 62
2
 10
33.20674438691891
 20
-10.60388085695763
 30
0
 11
35.20674438691891
 21
-10.60388085695763
 31
0
  0
LINE
  8
1
 62
2
 10
33.20674438691891
 20
-10.21360957593038
 30
0
 11
35.20674438691891
 21
-10.21360957593038
 31
0
  0
LINE
  8
1
 62
2
 10
33.20674438691891
 20
-9.783372902865324
 30
0
 11
35.20674438691891
 21
-9.783372902865324
 31
0
  0
LINE
  8
1
 62
2
 10
33.20674438691891
 20
-9.314597660368918
 30
0
 11
35.20674438691891
 21
-9.314597660368918
 31
0
  0
LINE
  8
1
 62
2
 10
33.20674438691891
 20
-8.808838479078929
 30
0
 11
35.20674438691891
 21
-8.808838479078929
 31
0
  0
LINE
  8
1
 62
2
 10
33.20674438691891
 20
-8.267772641938677
 30
0
 11
35.20674438691891
 21
-8.267772641938677
 31
0
  0
LINE
  8
1
 62
2
 10
33.20674438691891
 20
-7.69319452171203
 30
0
 11
35.20674438691891
 21
-7.69319452171203
 31
0
  0
LINE
  8
1
 62
2
 10
33.20674438691891
 20
-7.087009630184696
 30
0
 11
35.20674438691891
 21
-7.087009630184696
 31
0
  0
LINE
  8
1
 62
2
 10
33.20674438691891
 20
-6.451228298788692
 30
0
 11
35.20674438691891
 21
-6.451228298788692
 31
0
  0
LINE
  8
1
 62
2
 10
33.20674438691891
 20
-5.787959011605778
 30
0
 11
35.20674438691891
 21
-5.787959011605778
 31
0
  0
LINE
  8
1
 62
2
 10
33.20674438691891
 20
-5.09940141286063
 30
0
 11
35.20674438691891
 21
-5.09940141286063
 31
0
  0
LINE
  8
1
 62
2
 10
33.20674438691891
 20
-4.387839012094275
 30
0
 11
35.20674438691891
 21
-4.387839012094275
 31
0
  0
LINE
  8
1
 62
2
 10
33.20674438691891
 20
-3.655631611208889
 30
0
 11
35.20674438691891
 21
-3.655631611208889
 31
0
  0
LINE
  8
1
 62
2
 10
33.20674438691891
 20
-2.90520747849888
 30
0
 11
35.20674438691891
 21
-2.90520747849888
 31
0
  0
LINE
  8
1
 62
2
 10
33.20674438691891
 20
-2.139055295622882
 30
0
 11
35.20674438691891
 21
-2.139055295622882
 31
0
  0
LINE
  8
1
 62
2
 10
33.20674438691891
 20
-1.359715904222298
 30
0
 11
35.20674438691891
 21
-1.359715904222298
 31
0
  0
LINE
  8
1
 62
2
 10
33.20674438691891
 20
-0.5697738795590794
 30
0
 11
35.20674438691891
 21
-0.5697738795590794
 31
0
  0
LINE
  8
1
 62
2
 10
35.20674438691891
 20
0.2281510408845975
 30
0
 11
33.20674438691891
 21
0.2281510408845975
 31
0
  0
LINE
  8
1
 62
2
 10
33.20674438691891
 20
1.031412645415969
 30
0
 11
35.20674438691891
 21
1.031412645415969
 31
0
  0
LINE
  8
1
 62
7
 10
35.20674438691891
 20
-13.16265297605901
 30
0
 11
35.20674438691891
 21
1.837347023940822
 31
0
  0
LINE
  8
1
 62
7
 10
33.20674438691891
 20
-13.16265297605901
 30
0
 11
33.20674438691891
 21
1.837347023940822
 31
0
  0
LINE
  8
1
 62
7
 10
35.20674438691891
 20
-13.16265297605901
 30
0
 11
33.20674438691891
 21
-13.16265297605901
 31
0
  0
LINE
  8
1
 62
7
 10
35.70674438691891
 20
-9.621152976059022
 30
0
 11
35.70674438691891
 21
-12.66265297605901
 31
0
  0
LINE
  8
1
 62
7
 10
35.20674438691891
 20
-13.16265297605901
 30
0
 11
35.70674438691891
 21
-12.66265297605901
 31
0
  0
LINE
  8
1
 62
7
 10
32.70674438691891
 20
-12.66265297605901
 30
0
 11
33.20674438691891
 21
-13.16265297605901
 31
0
  0
LINE
  8
1
 62
7
 10
32.70674438691891
 20
16.3373470239406
 30
0
 11
32.70674438691891
 21
-12.66265297605901
 31
0
  0
ENDBLK
  8
0
  0
BLOCK
  8
0
  2
03014980
 70
0
 10
-110.3309726623504
 20
-335.5305319224955
 30
0
  0
INSERT
  8
0
  2
100
 10
-80.56149188301627
 20
-70.57346767306771
 30
0
  0
INSERT
  8
0
  2
KSGA-5-101A
 10
145.8256392384928
 20
-27.3081548613408
 30
0
  0
INSERT
  8
0
  2
KSGA-5-12
 10
221.6061862588379
 20
-67.17941469987412
 30
0
  0
INSERT
  8
0
  2
KSGA-5-20
 10
110.347076121353
 20
-61.94866446169021
 30
0
  0
ENDBLK
  8
0
  0
BLOCK
  8
0
  2
03014980C__3
 70
0
 10
105.9330327911839
 20
-13.8567761159041
 30
0
  0
LINE
  8
976
 62
2
  6
DASHDOT
 10
-97.04583916150862
 20
1.837347023940879
 30
0
 11
-60.00890283849411
 21
1.837347023940879
 31
0
  0
LINE
  8
976
 62
2
  6
DASHDOT
 10
-78.26936460252703
 20
-17.9257410158568
 30
0
 11
-78.26936460252703
 21
19.6681417180302
 31
0
  0
ENDBLK
  8
0
  0
BLOCK
  8
0
  2
TOF-5KAITEI__4
 70
0
 10
59.25402492964237
 20
10.62529783898742
 30
0
  0
LINE
  8
1
 62
2
  6
DASHDOT
 10
-78.26936460252703
 20
-16.26718290361819
 30
0
 11
-78.26936460252703
 21
19.1112266012654
 31
0
  0
LINE
  8
1
 62
2
  6
DASHDOT
 10
-96.19522733317989
 20
1.837347023940879
 30
0
 11
-60.57982654466922
 21
1.837347023940879
 31
0
  0
LINE
  8
1
 62
2
  6
DASHDOT
 10
-82.26936460252703
 20
50.38463483667101
 30
0
 11
-82.26936460252703
 21
17.36747410831208
 31
0
  0
INSERT
  8
0
  2
03018980
 10
238.8727530959613
 20
-102.5175763833541
 30
0
  0
INSERT
  8
0
  2
03001980__2
 10
-7.894776740653906
 20
-6.511149458723423
 30
0
  0
INSERT
  8
0
  2
KSGA-5-13A
 10
176.2570329760474
 20
-163.7980395281647
 30
0
  0
INSERT
  8
0
  2
03014980
 10
-110.3309726623504
 20
-335.5305319224955
 30
0
  0
INSERT
  8
0
  2
03014980C__3
 10
105.9330327911839
 20
-13.8567761159041
 30
0
  0
ENDBLK
  8
0
  0
BLOCK
  8
0
  2
03002680
 70
0
 10
-3.176758809284081
 20
-159.73252782589
 30
0
  0
LINE
  8
1
 62
2
 10
36.23894558056167
 20
-12.1257140377914
 30
0
 11
44.23894558056167
 21
-12.1257140377914
 31
0
  0
LINE
  8
1
 62
2
 10
44.23894558056167
 20
-12.04353554103517
 30
0
 11
36.23894558056167
 21
-12.04353554103517
 31
0
  0
LINE
  8
1
 62
2
 10
36.23894558056167
 20
-11.91532294657523
 30
0
 11
44.23894558056167
 21
-11.91532294657523
 31
0
  0
LINE
  8
1
 62
2
 10
44.23894558056167
 20
-11.74150145439955
 30
0
 11
36.23894558056167
 21
-11.74150145439955
 31
0
  0
LINE
  8
1
 62
2
 10
36.23894558056167
 20
-11.52264752032909
 30
0
 11
44.23894558056167
 21
-11.52264752032909
 31
0
  0
LINE
  8
1
 62
2
 10
44.23894558056167
 20
-11.25948694427862
 30
0
 11
36.23894558056167
 21
-11.25948694427862
 31
0
  0
LINE
  8
1
 62
2
 10
36.23894558056167
 20
-10.95289246323836
 30
0
 11
44.23894558056167
 21
-10.95289246323836
 31
0
  0
LINE
  8
1
 62
2
 10
44.23894558056167
 20
-10.60388085695755
 30
0
 11
36.23894558056167
 21
-10.60388085695755
 31
0
  0
LINE
  8
1
 62
2
 10
36.23894558056167
 20
-10.21360957593038
 30
0
 11
44.23894558056167
 21
-10.21360957593038
 31
0
  0
LINE
  8
1
 62
2
 10
36.23894558056167
 20
-9.783372902865267
 30
0
 11
44.23894558056167
 21
-9.783372902865267
 31
0
  0
LINE
  8
1
 62
2
 10
44.23894558056167
 20
-9.314597660368833
 30
0
 11
36.23894558056167
 21
-9.314597660368833
 31
0
  0
LINE
  8
1
 62
2
 10
36.23894558056167
 20
-8.808838479078787
 30
0
 11
44.23894558056167
 21
-8.808838479078787
 31
0
  0
LINE
  8
1
 62
2
 10
44.23894558056167
 20
-8.26777264193862
 30
0
 11
36.23894558056167
 21
-8.26777264193862
 31
0
  0
LINE
  8
1
 62
2
 10
36.23894558056167
 20
-7.693194521711973
 30
0
 11
44.23894558056167
 21
-7.693194521711973
 31
0
  0
LINE
  8
1
 62
2
 10
44.23894558056167
 20
-7.087009630184724
 30
0
 11
36.23894558056167
 21
-7.087009630184724
 31
0
  0
LINE
  8
1
 62
2
 10
36.23894558056167
 20
-6.451228298788777
 30
0
 11
44.23894558056167
 21
-6.451228298788777
 31
0
  0
LINE
  8
1
 62
2
 10
36.23894558056167
 20
-5.787959011605778
 30
0
 11
44.23894558056167
 21
-5.787959011605778
 31
0
  0
LINE
  8
1
 62
2
 10
36.23894558056167
 20
-5.099401412860573
 30
0
 11
44.23894558056167
 21
-5.099401412860573
 31
0
  0
LINE
  8
1
 62
2
 10
36.23894558056167
 20
-4.387839012094247
 30
0
 11
44.23894558056167
 21
-4.387839012094247
 31
0
  0
LINE
  8
1
 62
2
 10
36.23894558056167
 20
-3.655631611208833
 30
0
 11
44.23894558056167
 21
-3.655631611208833
 31
0
  0
LINE
  8
1
 62
2
 10
44.23894558056167
 20
-2.905207478498824
 30
0
 11
36.23894558056167
 21
-2.905207478498824
 31
0
  0
LINE
  8
1
 62
2
 10
36.23894558056167
 20
-2.139055295622825
 30
0
 11
44.23894558056167
 21
-2.139055295622825
 31
0
  0
LINE
  8
1
 62
2
 10
44.23894558056167
 20
-1.359715904222298
 30
0
 11
36.23894558056167
 21
-1.359715904222298
 31
0
  0
LINE
  8
1
 62
2
 10
36.23894558056167
 20
-0.5697738795590226
 30
0
 11
44.23894558056167
 21
-0.5697738795590226
 31
0
  0
LINE
  8
1
 62
2
 10
36.23894558056167
 20
0.2281510408846543
 30
0
 11
44.23894558056167
 21
0.2281510408846543
 31
0
  0
LINE
  8
1
 62
2
 10
36.23894558056167
 20
1.031412645416111
 30
0
 11
44.23894558056167
 21
1.031412645416111
 31
0
  0
LINE
  8
1
 62
2
 10
45.23894558056167
 20
1.837347023940879
 30
0
 11
45.23894558056167
 21
-10.16265297605915
 31
0
  0
LINE
  8
1
 62
7
 10
45.73894558056167
 20
-9.66265297605915
 30
0
 11
45.23894558056167
 21
-10.16265297605915
 31
0
  0
LINE
  8
1
 62
7
 10
36.23894558056167
 20
1.837347023940879
 30
0
 11
36.23894558056167
 21
-12.16265297605915
 31
0
  0
LINE
  8
1
 62
7
 10
44.23894558056167
 20
1.837347023940879
 30
0
 11
44.23894558056167
 21
-12.16265297605915
 31
0
  0
LINE
  8
1
 62
7
 10
36.23894558056167
 20
-12.16265297605915
 30
0
 11
35.73894558056167
 21
-11.66265297605915
 31
0
  0
LINE
  8
1
 62
7
 10
44.73894558056167
 20
-11.66265297605915
 30
0
 11
44.23894558056167
 21
-12.16265297605915
 31
0
  0
LINE
  8
1
 62
7
 10
44.73894558056167
 20
-10.16265297605915
 30
0
 11
44.73894558056167
 21
1.837347023940879
 31
0
  0
LINE
  8
1
 62
7
 10
35.73894558056167
 20
1.837347023940879
 30
0
 11
35.73894558056167
 21
-11.66265297605915
 31
0
  0
LINE
  8
1
 62
7
 10
36.23894558056167
 20
-12.16265297605915
 30
0
 11
44.23894558056167
 21
-12.16265297605915
 31
0
  0
LINE
  8
1
 62
7
 10
44.73894558056167
 20
-11.66265297605915
 30
0
 11
44.73894558056167
 21
-10.16265297605915
 31
0
  0
LINE
  8
1
 62
7
 10
44.73894558056167
 20
-10.16265297605915
 30
0
 11
45.23894558056167
 21
-10.16265297605915
 31
0
  0
LINE
  8
1
 62
7
 10
45.73894558056167
 20
-9.66265297605915
 30
0
 11
45.73894558056167
 21
1.837347023940879
 31
0
  0
LINE
  8
1
 62
2
  6
DASHDOT
 10
34.38928244267377
 20
1.837347023940879
 30
0
 11
47.9136129657259
 21
1.837347023940879
 31
0
  0
LINE
  8
1
 62
7
 10
45.73894558056167
 20
1.837347023940879
 30
0
 11
45.73894558056167
 21
13.33734702394096
 31
0
  0
LINE
  8
1
 62
7
 10
45.23894558056167
 20
13.83734702394096
 30
0
 11
44.73894558056167
 21
13.83734702394096
 31
0
  0
LINE
  8
1
 62
7
 10
44.73894558056167
 20
13.83734702394096
 30
0
 11
44.73894558056167
 21
15.33734702394096
 31
0
  0
LINE
  8
1
 62
7
 10
44.23894558056167
 20
15.83734702394096
 30
0
 11
36.23894558056167
 21
15.83734702394096
 31
0
  0
LINE
  8
1
 62
7
 10
35.73894558056167
 20
15.33734702394096
 30
0
 11
35.73894558056167
 21
1.837347023940879
 31
0
  0
LINE
  8
1
 62
7
 10
44.73894558056167
 20
1.837347023940879
 30
0
 11
44.73894558056167
 21
13.83734702394096
 31
0
  0
LINE
  8
1
 62
7
 10
44.23894558056167
 20
15.83734702394096
 30
0
 11
44.73894558056167
 21
15.33734702394096
 31
0
  0
LINE
  8
1
 62
7
 10
35.73894558056167
 20
15.33734702394096
 30
0
 11
36.23894558056167
 21
15.83734702394096
 31
0
  0
LINE
  8
1
 62
7
 10
44.23894558056167
 20
15.83734702394096
 30
0
 11
44.23894558056167
 21
1.837347023940879
 31
0
  0
LINE
  8
1
 62
7
 10
36.23894558056167
 20
15.83734702394096
 30
0
 11
36.23894558056167
 21
1.837347023940879
 31
0
  0
LINE
  8
1
 62
7
 10
45.23894558056167
 20
13.83734702394096
 30
0
 11
45.73894558056167
 21
13.33734702394096
 31
0
  0
LINE
  8
1
 62
2
 10
45.23894558056167
 20
13.83734702394096
 30
0
 11
45.23894558056167
 21
1.837347023940879
 31
0
  0
LINE
  8
1
 62
2
 10
44.23894558056167
 20
2.643281402465703
 30
0
 11
36.23894558056167
 21
2.643281402465703
 31
0
  0
LINE
  8
1
 62
2
 10
44.23894558056167
 20
3.44654300699716
 30
0
 11
36.23894558056167
 21
3.44654300699716
 31
0
  0
LINE
  8
1
 62
2
 10
44.23894558056167
 20
4.244467927440837
 30
0
 11
36.23894558056167
 21
4.244467927440837
 31
0
  0
LINE
  8
1
 62
2
 10
36.23894558056167
 20
5.034409952104113
 30
0
 11
44.23894558056167
 21
5.034409952104113
 31
0
  0
LINE
  8
1
 62
2
 10
44.23894558056167
 20
5.81374934350464
 30
0
 11
36.23894558056167
 21
5.81374934350464
 31
0
  0
LINE
  8
1
 62
2
 10
36.23894558056167
 20
6.579901526380638
 30
0
 11
44.23894558056167
 21
6.579901526380638
 31
0
  0
LINE
  8
1
 62
2
 10
44.23894558056167
 20
7.330325659090647
 30
0
 11
36.23894558056167
 21
7.330325659090647
 31
0
  0
LINE
  8
1
 62
2
 10
44.23894558056167
 20
8.062533059976062
 30
0
 11
36.23894558056167
 21
8.062533059976062
 31
0
  0
LINE
  8
1
 62
2
 10
44.23894558056167
 20
8.774095460742387
 30
0
 11
36.23894558056167
 21
8.774095460742387
 31
0
  0
LINE
  8
1
 62
2
 10
44.23894558056167
 20
9.462653059487593
 30
0
 11
36.23894558056167
 21
9.462653059487593
 31
0
  0
LINE
  8
1
 62
2
 10
44.23894558056167
 20
10.12592234667059
 30
0
 11
36.23894558056167
 21
10.12592234667059
 31
0
  0
LINE
  8
1
 62
2
 10
36.23894558056167
 20
10.76170367806654
 30
0
 11
44.23894558056167
 21
10.76170367806654
 31
0
  0
LINE
  8
1
 62
2
 10
44.23894558056167
 20
11.36788856959379
 30
0
 11
36.23894558056167
 21
11.36788856959379
 31
0
  0
LINE
  8
1
 62
2
 10
36.23894558056167
 20
11.94246668982044
 30
0
 11
44.23894558056167
 21
11.94246668982044
 31
0
  0
LINE
  8
1
 62
2
 10
44.23894558056167
 20
12.4835325269606
 30
0
 11
36.23894558056167
 21
12.4835325269606
 31
0
  0
LINE
  8
1
 62
2
 10
36.23894558056167
 20
12.98929170825065
 30
0
 11
44.23894558056167
 21
12.98929170825065
 31
0
  0
LINE
  8
1
 62
2
 10
44.23894558056167
 20
13.45806695074708
 30
0
 11
36.23894558056167
 21
13.45806695074708
 31
0
  0
LINE
  8
1
 62
2
 10
44.23894558056167
 20
13.88830362381219
 30
0
 11
36.23894558056167
 21
13.88830362381219
 31
0
  0
LINE
  8
1
 62
2
 10
36.23894558056167
 20
14.27857490483936
 30
0
 11
44.23894558056167
 21
14.27857490483936
 31
0
  0
LINE
  8
1
 62
2
 10
44.23894558056167
 20
14.62758651112017
 30
0
 11
36.23894558056167
 21
14.62758651112017
 31
0
  0
LINE
  8
1
 62
2
 10
36.23894558056167
 20
14.93418099216044
 30
0
 11
44.23894558056167
 21
14.93418099216044
 31
0
  0
LINE
  8
1
 62
2
 10
44.23894558056167
 20
15.1973415682109
 30
0
 11
36.23894558056167
 21
15.1973415682109
 31
0
  0
LINE
  8
1
 62
2
 10
36.23894558056167
 20
15.41619550228137
 30
0
 11
44.23894558056167
 21
15.41619550228137
 31
0
  0
LINE
  8
1
 62
2
 10
44.23894558056167
 20
15.59001699445705
 30
0
 11
36.23894558056167
 21
15.59001699445705
 31
0
  0
LINE
  8
1
 62
2
 10
36.23894558056167
 20
15.71822958891698
 30
0
 11
44.23894558056167
 21
15.71822958891698
 31
0
  0
LINE
  8
1
 62
2
 10
44.23894558056167
 20
15.80040808567321
 30
0
 11
36.23894558056167
 21
15.80040808567321
 31
0
  0
ENDBLK
  8
0
  0
BLOCK
  8
0
  2
03213981A
 70
0
 10
-777.747387611623
 20
-180.9665235753407
 30
0
  0
LINE
  8
1
 62
2
  6
DASHDOT
 10
18.7067443869189
 20
16.8382716560206
 30
0
 11
18.7067443869189
 21
24.83642239186118
 31
0
  0
LINE
  8
1
 62
7
 10
21.39932679048616
 20
23.54867188934608
 30
0
 11
23.42263101162632
 21
23.54867188934608
 31
0
  0
LINE
  8
1
 62
7
 10
21.39932679048616
 20
18.1260221585357
 30
0
 11
21.39932679048616
 21
23.54867188934608
 31
0
  0
LINE
  8
1
 62
7
 10
23.42263101162632
 20
23.54867188934608
 30
0
 11
23.42263101162632
 21
18.1260221585357
 31
0
  0
LINE
  8
1
 62
7
 10
18.7067443869189
 20
17.83734702394088
 30
0
 11
25.20674438691884
 21
17.83734702394088
 31
0
  0
LINE
  8
1
 62
7
 10
23.42263101162632
 20
18.1260221585357
 30
0
 11
21.39932679048616
 21
18.1260221585357
 31
0
  0
LINE
  8
1
 62
6
 10
11.2067443869189
 20
17.83734702394088
 30
0
 11
12.2067443869189
 21
17.83734702394088
 31
0
  0
LINE
  8
1
 62
7
 10
26.20674438691884
 20
23.25999675475129
 30
0
 11
25.20674438691884
 21
23.83734702394088
 31
0
  0
LINE
  8
1
 62
7
 10
25.20674438691884
 20
17.83734702394088
 30
0
 11
26.20674438691884
 21
18.41469729313053
 31
0
  0
LINE
  8
1
 62
7
 10
25.20674438691884
 20
23.83734702394088
 30
0
 11
18.7067443869189
 21
23.83734702394088
 31
0
  0
LINE
  8
1
 62
7
 10
26.20674438691884
 20
18.41469729313053
 30
0
 11
26.20674438691884
 21
23.25999675475129
 31
0
  0
LINE
  8
1
 62
7
 10
11.2067443869189
 20
23.25999675475129
 30
0
 11
11.2067443869189
 21
18.41469729313053
 31
0
  0
LINE
  8
1
 62
7
 10
18.7067443869189
 20
23.83734702394088
 30
0
 11
12.2067443869189
 21
23.83734702394088
 31
0
  0
LINE
  8
1
 62
7
 10
11.2067443869189
 20
18.41469729313053
 30
0
 11
12.2067443869189
 21
17.83734702394088
 31
0
  0
LINE
  8
1
 62
7
 10
12.2067443869189
 20
23.83734702394088
 30
0
 11
11.2067443869189
 21
23.25999675475129
 31
0
  0
LINE
  8
1
 62
7
 10
16.01416198335153
 20
18.1260221585357
 30
0
 11
13.99085776221148
 21
18.1260221585357
 31
0
  0
LINE
  8
1
 62
7
 10
12.2067443869189
 20
17.83734702394088
 30
0
 11
18.7067443869189
 21
17.83734702394088
 31
0
  0
LINE
  8
1
 62
7
 10
13.99085776221148
 20
18.1260221585357
 30
0
 11
13.99085776221148
 21
23.54867188934608
 31
0
  0
LINE
  8
1
 62
7
 10
16.01416198335153
 20
23.54867188934608
 30
0
 11
16.01416198335153
 21
18.1260221585357
 31
0
  0
LINE
  8
1
 62
7
 10
13.99085776221148
 20
23.54867188934608
 30
0
 11
16.01416198335153
 21
23.54867188934608
 31
0
  0
LINE
  8
1
 62
7
 10
-86.98525122723441
 20
23.54867188934608
 30
0
 11
-84.96194700609436
 21
23.54867188934608
 31
0
  0
LINE
  8
1
 62
7
 10
-84.96194700609436
 20
23.54867188934608
 30
0
 11
-84.96194700609436
 21
18.1260221585357
 31
0
  0
LINE
  8
1
 62
7
 10
-86.98525122723441
 20
18.1260221585357
 30
0
 11
-86.98525122723441
 21
23.54867188934608
 31
0
  0
LINE
  8
1
 62
7
 10
-88.76936460252699
 20
17.83734702394088
 30
0
 11
-82.64399439458862
 21
17.83734702394084
 31
0
  0
LINE
  8
1
 62
7
 10
-84.96194700609436
 20
18.1260221585357
 30
0
 11
-86.98525122723441
 21
18.1260221585357
 31
0
  0
LINE
  8
1
 62
7
 10
-88.76936460252699
 20
23.83734702394088
 30
0
 11
-89.76936460252699
 21
23.25999675475129
 31
0
  0
LINE
  8
1
 62
7
 10
-89.76936460252711
 20
18.41469729313053
 30
0
 11
-88.76936460252699
 21
17.83734702394088
 31
0
  0
LINE
  8
1
 62
7
 10
-82.26936460252699
 20
23.83734702394088
 30
0
 11
-88.76936460252699
 21
23.83734702394088
 31
0
  0
LINE
  8
1
 62
7
 10
-89.76936460252699
 20
23.25999675475129
 30
0
 11
-89.76936460252711
 21
18.41469729313053
 31
0
  0
LINE
  8
1
 62
6
 10
-89.76936460252699
 20
17.83734702394088
 30
0
 11
-88.76936460252699
 21
17.83734702394088
 31
0
  0
LINE
  8
1
 62
2
  6
DASHDOT
 10
-82.26936460252699
 20
16.8382716560206
 30
0
 11
-82.26936460252699
 21
24.83642239186118
 31
0
  0
LINE
  8
1
 62
6
 10
-75.76936460252711
 20
17.83734702394088
 30
0
 11
-74.76936460252711
 21
17.83734702394088
 31
0
  0
LINE
  8
1
 62
7
 10
-74.76936460252699
 20
18.41469729313053
 30
0
 11
-74.76936460252711
 21
23.25999675475129
 31
0
  0
LINE
  8
1
 62
7
 10
-75.76936460252711
 20
23.83734702394088
 30
0
 11
-82.26936460252699
 21
23.83734702394088
 31
0
  0
LINE
  8
1
 62
7
 10
-75.76936460252711
 20
17.83734702394088
 30
0
 11
-74.76936460252699
 21
18.41469729313053
 31
0
  0
LINE
  8
1
 62
7
 10
-74.76936460252711
 20
23.25999675475129
 30
0
 11
-75.76936460252711
 21
23.83734702394088
 31
0
  0
LINE
  8
1
 62
7
 10
-77.55347797781968
 20
18.1260221585357
 30
0
 11
-79.57678219895973
 21
18.1260221585357
 31
0
  0
LINE
  8
1
 62
7
 10
-81.89473481046548
 20
17.83734702394084
 30
0
 11
-75.76936460252711
 21
17.83734702394088
 31
0
  0
LINE
  8
1
 62
7
 10
-77.55347797781968
 20
23.54867188934608
 30
0
 11
-77.55347797781968
 21
18.1260221585357
 31
0
  0
LINE
  8
1
 62
7
 10
-79.57678219895973
 20
18.1260221585357
 30
0
 11
-79.57678219895973
 21
23.54867188934608
 31
0
  0
LINE
  8
1
 62
7
 10
-79.57678219895973
 20
23.54867188934608
 30
0
 11
-77.55347797781968
 21
23.54867188934608
 31
0
  0
ARC
  8
1
 62
7
 10
-82.26936460252699
 20
30.53905294611246
 30
0
 40
12.7017059221716
 50
257.7612442320572
 51
268.3151152375536
  0
ARC
  8
1
 62
7
 10
18.7067443869189
 20
11.1356411017693
 30
0
 40
12.7017059221716
 50
77.76124423205769
 51
90
  0
ARC
  8
1
 62
7
 10
24.76892221340995
 20
20.55366736792492
 30
0
 40
3.283679656015959
 50
90
 51
114.2045008372835
  0
ARC
  8
1
 62
7
 10
18.7067443869189
 20
30.53905294611246
 30
0
 40
12.70170592217158
 50
270
 51
282.2387557679423
  0
ARC
  8
1
 62
7
 10
24.76892221340995
 20
21.12102667995686
 30
0
 40
3.283679656015976
 50
245.7954991627165
 51
270
  0
ARC
  8
1
 62
7
 10
12.64456656042785
 20
21.12102667995686
 30
0
 40
3.28367965601598
 50
270
 51
294.2045008372834
  0
ARC
  8
1
 62
7
 10
18.7067443869189
 20
30.53905294611246
 30
0
 40
12.7017059221716
 50
257.7612442320572
 51
270
  0
ARC
  8
1
 62
7
 10
12.64456656042785
 20
20.55366736792492
 30
0
 40
3.283679656015975
 50
65.79549916271657
 51
90
  0
ARC
  8
1
 62
7
 10
18.7067443869189
 20
11.1356411017693
 30
0
 40
12.70170592217158
 50
90
 51
102.2387557679428
  0
ARC
  8
1
 62
7
 10
-82.26936460252699
 20
11.1356411017693
 30
0
 40
12.70170592217158
 50
90
 51
102.2387557679428
  0
ARC
  8
1
 62
7
 10
-88.33154242901804
 20
20.55366736792492
 30
0
 40
3.283679656015975
 50
65.79549916271661
 51
90
  0
ARC
  8
1
 62
7
 10
-82.26936460252699
 20
30.53905294611246
 30
0
 40
12.70170592217158
 50
268.3151152375536
 51
270
  0
ARC
  8
1
 62
7
 10
-88.33154242901804
 20
21.12102667995686
 30
0
 40
3.28367965601598
 50
270
 51
294.2045008372834
  0
ARC
  8
1
 62
7
 10
-76.20718677603605
 20
21.12102667995686
 30
0
 40
3.283679656015975
 50
245.7954991627166
 51
270
  0
ARC
  8
1
 62
7
 10
-82.26936460252699
 20
30.53905294611246
 30
0
 40
12.70170592217158
 50
270
 51
271.6848847624459
  0
ARC
  8
1
 62
7
 10
-76.20718677603605
 20
20.55366736792492
 30
0
 40
3.283679656015959
 50
90
 51
114.2045008372834
  0
ARC
  8
1
 62
7
 10
-82.26936460252699
 20
11.1356411017693
 30
0
 40
12.7017059221716
 50
77.76124423205771
 51
90
  0
ARC
  8
1
 62
7
 10
-82.26936460252699
 20
30.53905294611246
 30
0
 40
12.70170592217158
 50
271.6848847624459
 51
282.2387557679423
  0
ENDBLK
  8
0
  0
BLOCK
  8
0
  2
03240981A
 70
0
 10
-520.3335525653693
 20
-357.2251767716233
 30
0
  0
INSERT
  8
0
  2
03213981A
 10
-777.747387611623
 20
-180.9665235753407
 30
0
  0
ENDBLK
  8
0
  0
BLOCK
  8
0
  2
03091980A
 70
0
 10
-523.9767009183113
 20
-365.7891497003253
 30
0
  0
INSERT
  8
0
  2
03240981A
 10
-520.3335525653693
 20
-357.2251767716233
 30
0
  0
ENDBLK
  8
0
  0
BLOCK
  8
0
  2
TOF-5KAITEI__5
 70
0
 10
128.365357018006
 20
-177.555615626286
 30
0
  0
LINE
  8
1
 62
3
 10
21.16524438691886
 20
42.59117037244731
 30
0
 11
21.16524438691886
 21
39.69584702394081
 31
0
  0
LINE
  8
1
 62
3
 10
16.24824438691883
 20
42.59117037244718
 30
0
 11
16.24824438691883
 21
39.69584702394081
 31
0
  0
LINE
  8
1
 62
7
 10
15.7067443869189
 20
48.7373470239408
 30
0
 11
15.7067443869189
 21
51.2373470239408
 31
0
  0
LINE
  8
1
 62
7
 10
21.7067443869189
 20
42.23734702394084
 30
0
 11
21.7067443869189
 21
40.2373470239408
 31
0
  0
LINE
  8
1
 62
7
 10
-85.26936460252705
 20
48.73734702394077
 30
0
 11
-85.26936460252705
 21
51.2373470239408
 31
0
  0
LINE
  8
1
 62
7
 10
13.7067443869189
 20
51.2373470239408
 30
0
 11
13.7067443869189
 21
56.83734702394079
 31
0
  0
LINE
  8
1
 62
7
 10
13.7067443869189
 20
56.83734702394079
 30
0
 11
14.39956470994639
 21
57.2373470239408
 31
0
  0
LINE
  8
1
 62
7
 10
14.39956470994639
 20
57.2373470239408
 30
0
 11
23.0139240638913
 21
57.2373470239408
 31
0
  0
LINE
  8
1
 62
7
 10
23.0139240638913
 20
57.2373470239408
 30
0
 11
23.7067443869189
 21
56.83734702394079
 31
0
  0
LINE
  8
1
 62
7
 10
23.7067443869189
 20
56.83734702394079
 30
0
 11
23.7067443869189
 21
51.2373470239408
 31
0
  0
LINE
  8
1
 62
7
 10
13.7067443869189
 20
56.83734702394079
 30
0
 11
23.7067443869189
 21
56.83734702394079
 31
0
  0
LINE
  8
1
 62
7
 10
23.7067443869189
 20
51.2373470239408
 30
0
 11
13.7067443869189
 21
51.2373470239408
 31
0
  0
LINE
  8
1
 62
7
 10
21.7067443869189
 20
51.2373470239408
 30
0
 11
21.7067443869189
 21
48.7373470239408
 31
0
  0
LINE
  8
1
 62
7
 10
21.7067443869189
 20
40.2373470239408
 30
0
 11
20.7067443869189
 21
39.2373470239408
 31
0
  0
LINE
  8
1
 62
7
 10
20.7067443869189
 20
39.2373470239408
 30
0
 11
16.7067443869189
 21
39.2373470239408
 31
0
  0
LINE
  8
1
 62
7
 10
16.7067443869189
 20
39.2373470239408
 30
0
 11
15.7067443869189
 21
40.2373470239408
 31
0
  0
LINE
  8
1
 62
7
 10
15.7067443869189
 20
40.2373470239408
 30
0
 11
15.7067443869189
 21
42.23734702394076
 31
0
  0
LINE
  8
1
 62
7
 10
21.7067443869189
 20
40.2373470239408
 30
0
 11
15.7067443869189
 21
40.2373470239408
 31
0
  0
LINE
  8
1
 62
3
 10
21.7067443869189
 20
51.2373470239408
 30
0
 11
21.25549438691888
 21
48.7373470239408
 31
0
  0
LINE
  8
1
 62
3
 10
15.7067443869189
 20
51.2373470239408
 30
0
 11
16.15799438691886
 21
48.7373470239408
 31
0
  0
LINE
  8
1
 62
2
  6
CENTER
 10
18.7067443869189
 20
60.42137742224503
 30
0
 11
18.7067443869189
 21
36.0533166256366
 31
0
  0
LINE
  8
1
 62
2
  6
CENTER
 10
-82.26936460252705
 20
60.42137742224503
 30
0
 11
-82.26936460252705
 21
36.0533166256366
 31
0
  0
LINE
  8
1
 62
3
 10
-85.26936460252705
 20
51.2373470239408
 30
0
 11
-84.81811460252709
 21
48.73734702394077
 31
0
  0
LINE
  8
1
 62
3
 10
-79.26936460252705
 20
51.2373470239408
 30
0
 11
-79.72061460252706
 21
48.73734702394077
 31
0
  0
LINE
  8
1
 62
7
 10
-79.26936460252705
 20
51.2373470239408
 30
0
 11
-79.26936460252705
 21
48.73734702394077
 31
0
  0
LINE
  8
1
 62
7
 10
-77.26936460252705
 20
51.2373470239408
 30
0
 11
-87.26936460252705
 21
51.2373470239408
 31
0
  0
LINE
  8
1
 62
7
 10
-87.26936460252705
 20
56.83734702394079
 30
0
 11
-77.26936460252705
 21
56.83734702394079
 31
0
  0
LINE
  8
1
 62
7
 10
-77.26936460252705
 20
56.83734702394079
 30
0
 11
-77.26936460252705
 21
51.2373470239408
 31
0
  0
LINE
  8
1
 62
7
 10
-77.96218492555465
 20
57.2373470239408
 30
0
 11
-77.26936460252705
 21
56.83734702394079
 31
0
  0
LINE
  8
1
 62
7
 10
-86.57654427949956
 20
57.2373470239408
 30
0
 11
-77.96218492555465
 21
57.2373470239408
 31
0
  0
LINE
  8
1
 62
7
 10
-87.26936460252705
 20
56.83734702394079
 30
0
 11
-86.57654427949956
 21
57.2373470239408
 31
0
  0
LINE
  8
1
 62
7
 10
-87.26936460252705
 20
51.2373470239408
 30
0
 11
-87.26936460252705
 21
56.83734702394079
 31
0
  0
ENDBLK
  8
0
  0
BLOCK
  8
0
  2
13608520D
 70
0
 10
-254.5385926458052
 20
-166.3706560822792
 30
0
  0
INSERT
  8
0
  2
03091980A
 10
-523.9767009183113
 20
-365.7891497003253
 30
0
  0
INSERT
  8
0
  2
TOF-5KAITEI__5
 10
128.365357018006
 20
-177.555615626286
 30
0
  0
ENDBLK
  8
0
  0
BLOCK
  8
0
  2
03002670A
 70
0
 10
-516.7752113906624
 20
-413.1171544916683
 30
0
  0
LINE
  8
1
 62
7
 10
11.70674438691901
 20
28.7373470239408
 30
0
 11
25.70674438691901
 21
28.7373470239408
 31
0
  0
LINE
  8
1
 62
7
 10
11.70674438691901
 20
47.7373470239408
 30
0
 11
25.70674438691901
 21
47.7373470239408
 31
0
  0
LINE
  8
1
 62
7
 10
-86.76936460252699
 20
24.7373470239408
 30
0
 11
-77.76936460252699
 21
24.7373470239408
 31
0
  0
LINE
  8
1
 62
7
 10
-77.26936460252699
 20
27.7373470239408
 30
0
 11
-87.26936460252699
 21
27.73734702394076
 31
0
  0
LINE
  8
1
 62
7
 10
-89.26936460252699
 20
28.73734702394076
 30
0
 11
-75.26936460252699
 21
28.73734702394076
 31
0
  0
LINE
  8
1
 62
7
 10
-89.26936460252699
 20
47.73734702394077
 30
0
 11
-75.26936460252699
 21
47.73734702394077
 31
0
  0
LINE
  8
1
 62
2
 10
-77.76936460252699
 20
24.7373470239408
 30
0
 11
-77.76936460252699
 21
23.83734702394088
 31
0
  0
LINE
  8
1
 62
2
 10
-86.76936460252699
 20
24.7373470239408
 30
0
 11
-86.76936460252699
 21
23.83734702394088
 31
0
  0
LINE
  8
1
 62
7
 10
-89.26936460252699
 20
44.2373470239408
 30
0
 11
-89.26936460252699
 21
32.23734702394083
 31
0
  0
LINE
  8
1
 62
7
 10
-89.26936460252699
 20
32.23734702394083
 30
0
 11
-89.26936460252699
 21
28.73734702394076
 31
0
  0
LINE
  8
1
 62
7
 10
-75.26936460252699
 20
44.23734702394083
 30
0
 11
-75.26936460252699
 21
47.73734702394077
 31
0
  0
LINE
  8
1
 62
7
 10
-75.26936460252699
 20
32.2373470239408
 30
0
 11
-75.26936460252699
 21
44.23734702394083
 31
0
  0
LINE
  8
1
 62
2
 10
14.20674438691901
 20
24.73734702394082
 30
0
 11
14.20674438691901
 21
23.83734702394088
 31
0
  0
LINE
  8
1
 62
2
 10
23.20674438691901
 20
24.7373470239408
 30
0
 11
23.20674438691901
 21
23.83734702394088
 31
0
  0
LINE
  8
1
 62
2
  6
DASHDOT
 10
-73.12378140514403
 20
38.2373470239408
 30
0
 11
-91.59823395988855
 21
38.2373470239408
 31
0
  0
LINE
  8
1
 62
7
 10
-77.26936460252699
 20
48.73734702394077
 30
0
 11
-87.26936460252699
 21
48.73734702394077
 31
0
  0
LINE
  8
1
 62
2
  6
DASHDOT
 10
-82.26936460252699
 20
49.73734702394077
 30
0
 11
-82.26936460252699
 21
13.15702892054907
 31
0
  0
LINE
  8
1
 62
2
  6
DASHDOT
 10
18.70674438691901
 20
38.2373470239408
 30
0
 11
10.70674438691901
 21
38.2373470239408
 31
0
  0
LINE
  8
1
 62
7
 10
11.70674438691901
 20
28.7373470239408
 30
0
 11
11.70674438691901
 21
38.2373470239408
 31
0
  0
LINE
  8
1
 62
2
  6
DASHDOT
 10
26.70674438691901
 20
38.2373470239408
 30
0
 11
18.70674438691901
 21
38.2373470239408
 31
0
  0
LINE
  8
1
 62
2
  6
DASHDOT
 10
18.70674438691901
 20
49.74811606554009
 30
0
 11
18.70674438691901
 21
13.15702892054907
 31
0
  0
LINE
  8
1
 62
7
 10
23.70674438691901
 20
24.7373470239408
 30
0
 11
13.70674438691901
 21
24.7373470239408
 31
0
  0
LINE
  8
1
 62
2
 10
23.70674438691901
 20
26.7373470239408
 30
0
 11
23.20674438691901
 21
24.7373470239408
 31
0
  0
LINE
  8
1
 62
2
 10
13.70674438691901
 20
26.7373470239408
 30
0
 11
14.20674438691901
 21
24.73734702394082
 31
0
  0
LINE
  8
1
 62
7
 10
-77.26936460252699
 20
27.7373470239408
 30
0
 11
-76.26936460252699
 21
27.73734702394076
 31
0
  0
LINE
  8
1
 62
7
 10
-75.26936460252699
 20
28.73734702394076
 30
0
 11
-75.26936460252699
 21
32.2373470239408
 31
0
  0
LINE
  8
1
 62
7
 10
-76.26936460252699
 20
48.73734702394077
 30
0
 11
-77.26936460252699
 21
48.73734702394077
 31
0
  0
LINE
  8
1
 62
7
 10
-87.26936460252699
 20
48.73734702394077
 30
0
 11
-88.26936460252699
 21
48.73734702394077
 31
0
  0
LINE
  8
1
 62
7
 10
-89.26936460252699
 20
47.73734702394077
 30
0
 11
-89.26936460252699
 21
44.2373470239408
 31
0
  0
LINE
  8
1
 62
7
 10
-88.26936460252699
 20
27.73734702394076
 30
0
 11
-87.26936460252699
 21
27.73734702394076
 31
0
  0
LINE
  8
1
 62
7
 10
25.70674438691901
 20
28.7373470239408
 30
0
 11
24.70674438691901
 21
27.7373470239408
 31
0
  0
LINE
  8
1
 62
7
 10
11.70674438691901
 20
28.7373470239408
 30
0
 11
12.70674438691901
 21
27.7373470239408
 31
0
  0
LINE
  8
1
 62
7
 10
-89.26936460252699
 20
47.73734702394077
 30
0
 11
-88.26936460252699
 21
48.73734702394077
 31
0
  0
LINE
  8
1
 62
7
 10
-88.26936460252699
 20
27.73734702394076
 30
0
 11
-89.26936460252699
 21
28.73734702394076
 31
0
  0
LINE
  8
1
 62
7
 10
-75.26936460252699
 20
28.73734702394076
 30
0
 11
-76.26936460252699
 21
27.73734702394076
 31
0
  0
LINE
  8
1
 62
7
 10
-76.26936460252699
 20
48.73734702394077
 30
0
 11
-75.26936460252699
 21
47.73734702394077
 31
0
  0
LINE
  8
1
 62
7
 10
23.70674438691901
 20
27.7373470239408
 30
0
 11
23.70674438691901
 21
23.83734702394088
 31
0
  0
LINE
  8
1
 62
7
 10
13.70674438691901
 20
27.7373470239408
 30
0
 11
13.70674438691901
 21
23.83734702394088
 31
0
  0
LINE
  8
1
 62
2
 10
-87.26936460252699
 20
26.7373470239408
 30
0
 11
-86.76936460252699
 21
24.7373470239408
 31
0
  0
LINE
  8
1
 62
2
 10
-77.26936460252699
 20
26.7373470239408
 30
0
 11
-77.76936460252699
 21
24.7373470239408
 31
0
  0
LINE
  8
1
 62
7
 10
-77.26936460252699
 20
27.7373470239408
 30
0
 11
-77.26936460252699
 21
23.83734702394088
 31
0
  0
LINE
  8
1
 62
7
 10
-87.26936460252699
 20
27.73734702394076
 30
0
 11
-87.26936460252699
 21
23.83734702394088
 31
0
  0
LINE
  8
1
 62
7
 10
-77.26936460252699
 20
24.7373470239408
 30
0
 11
-77.76936460252699
 21
24.7373470239408
 31
0
  0
LINE
  8
1
 62
7
 10
-86.76936460252699
 20
24.7373470239408
 30
0
 11
-87.26936460252699
 21
24.7373470239408
 31
0
  0
LINE
  8
1
 62
7
 10
24.70674438691901
 20
27.7373470239408
 30
0
 11
18.70674438691901
 21
27.7373470239408
 31
0
  0
LINE
  8
1
 62
7
 10
18.70674438691901
 20
27.7373470239408
 30
0
 11
12.70674438691901
 21
27.7373470239408
 31
0
  0
LINE
  8
1
 62
7
 10
25.70674438691901
 20
38.2373470239408
 30
0
 11
25.70674438691901
 21
28.7373470239408
 31
0
  0
LINE
  8
1
 62
7
 10
25.70674438691901
 20
38.2373470239408
 30
0
 11
25.70674438691901
 21
47.7373470239408
 31
0
  0
LINE
  8
1
 62
7
 10
24.70674438691901
 20
48.7373470239408
 30
0
 11
12.70674438691901
 21
48.7373470239408
 31
0
  0
LINE
  8
1
 62
7
 10
11.70674438691901
 20
47.7373470239408
 30
0
 11
11.70674438691901
 21
38.2373470239408
 31
0
  0
LINE
  8
1
 62
7
 10
11.70674438691901
 20
47.7373470239408
 30
0
 11
12.70674438691901
 21
48.7373470239408
 31
0
  0
LINE
  8
1
 62
7
 10
24.70674438691901
 20
48.7373470239408
 30
0
 11
25.70674438691901
 21
47.7373470239408
 31
0
  0
CIRCLE
  8
1
 62
7
 10
18.70674438691901
 20
38.2373470239408
 30
0
 40
5
  0
POLYLINE
  8
1
 62
7
 66
1
 70
1
  0
VERTEX
  8
1
 10
18.70674438691901
 20
32.2373470239408
 30
0
 42
0.0628318504547325
  0
VERTEX
  8
1
 10
19.7474965101747
 20
32.36877800014439
 30
0
 42
0.03015565157999315
  0
VERTEX
  8
1
 10
20.25312471481008
 20
32.5315318466764
 30
0
 42
0.03022840719691799
  0
VERTEX
  8
1
 10
20.74299829797604
 20
32.75746993371531
 30
0
 42
0.02824606851149933
  0
VERTEX
  8
1
 10
21.20674438691901
 20
33.04119460123417
 30
0
 42
0.01912206556031169
  0
VERTEX
  8
1
 10
21.50542827880141
 20
33.2653353512076
 30
0
 42
0.02674477819733973
  0
VERTEX
  8
1
 10
21.92068243535169
 20
33.64108036522694
 30
0
 42
0.02644178533488819
  0
VERTEX
  8
1
 10
22.30571136650515
 20
34.07222397992283
 30
0
 42
0.02483573412626431
  0
VERTEX
  8
1
 10
22.64802394449961
 20
34.54525831681757
 30
0
 42
0.02446700478070524
  0
VERTEX
  8
1
 10
22.94798755805394
 20
35.05975993537309
 30
0
 42
0.02328338916330199
  0
VERTEX
  8
1
 10
23.20171868264514
 20
35.60958495170458
 30
0
 42
0.02300862621735695
  0
VERTEX
  8
1
 10
23.40520749084851
 20
36.18522616398678
 30
0
 42
0.02965771892145987
  0
VERTEX
  8
1
 10
23.59766732264181
 20
36.99091623654296
 30
0
 42
0.06587897002733853
  0
VERTEX
  8
1
 10
23.67941089886958
 20
38.86390011965597
 30
0
 42
0.04364358391543473
  0
VERTEX
  8
1
 10
23.46234151657197
 20
40.09029342323286
 30
0
 42
0.02345600366853831
  0
VERTEX
  8
1
 10
23.27537896265464
 20
40.67532506839214
 30
0
 42
0.02256279934245132
  0
VERTEX
  8
1
 10
23.03687140584123
 20
41.2373470239408
 30
0
 42
0.02466091498571519
  0
VERTEX
  8
1
 10
22.75355346160417
 20
41.76121157791211
 30
0
 42
0.02403897742919275
  0
VERTEX
  8
1
 10
22.42391371077532
 20
42.25019812572696
 30
0
 42
0.01793607221227423
  0
VERTEX
  8
1
 10
22.18240705138803
 20
42.55063338841657
 30
0
 42
0.02539723639119976
  0
VERTEX
  8
1
 10
21.7867759835462
 20
42.96378430135531
 30
0
 42
0.02850604658772864
  0
VERTEX
  8
1
 10
21.35820009017434
 20
43.32423911652151
 30
0
 42
0.02740782193925979
  0
VERTEX
  8
1
 10
20.90116001298694
 20
43.62858628989454
 30
0
 42
0.02070921846832468
  0
VERTEX
  8
1
 10
20.58149937538397
 20
43.79960865504351
 30
0
 42
0.02882546824821069
  0
VERTEX
  8
1
 10
20.08682238378252
 20
44.00423069207412
 30
0
 42
0.03202226278968307
  0
VERTEX
  8
1
 10
19.5749852752536
 20
44.14619354201406
 30
0
 42
0.2214962878215268
  0
VERTEX
  8
1
 10
16.05528868366367
 20
43.32423911652151
 30
0
 42
0.007843354825434377
  0
VERTEX
  8
1
 10
15.76516635319393
 20
43.08911986549018
 30
0
 42
0.03744860740849905
  0
VERTEX
  8
1
 10
15.35944052672932
 20
42.6944329667615
 30
0
 42
0.01501473020549951
  0
VERTEX
  8
1
 10
14.98957506306264
 20
42.25019812572697
 30
0
 42
0.03557574944337082
  0
VERTEX
  8
1
 10
14.65993531223383
 20
41.7612115779121
 30
0
 42
0.01313026837606549
  0
VERTEX
  8
1
 10
14.3766173679968
 20
41.2373470239408
 30
0
 42
0.03409858182657669
  0
VERTEX
  8
1
 10
14.13810981118331
 20
40.67532506839214
 30
0
 42
0.01192586506504409
  0
VERTEX
  8
1
 10
13.95114725726594
 20
40.09029342323287
 30
0
 42
0.04037081143042509
  0
VERTEX
  8
1
 10
13.78270562185799
 20
39.27923608994236
 30
0
 42
0.1582475456254713
  0
VERTEX
  8
1
 10
14.65993531223383
 20
34.7134824699695
 30
0
 42
0.04474942118066709
  0
VERTEX
  8
1
 10
14.98957506306264
 20
34.22449592215463
 30
0
 42
0.01694101064640327
  0
VERTEX
  8
1
 10
15.23108172244994
 20
33.92406065946501
 30
0
 42
0.02639266248217298
  0
VERTEX
  8
1
 10
15.62671279029178
 20
33.5109097465263
 30
0
 42
0.02751050717862601
  0
VERTEX
  8
1
 10
16.05528868366367
 20
33.15045493136009
 30
0
 42
0.02840335563673701
  0
VERTEX
  8
1
 10
16.51232876085104
 20
32.84610775798706
 30
0
 42
0.01971405304215134
  0
VERTEX
  8
1
 10
16.83198939845396
 20
32.67508539283809
 30
0
 42
0.02982108265307948
  0
VERTEX
  8
1
 10
17.32666639005537
 20
32.47046335580748
 30
0
 42
0.03102651515417361
  0
VERTEX
  8
1
 10
17.83850349858426
 20
32.32850050586754
 30
0
 42
0.05200786377771742
  0
SEQEND
  8
1
  0
ENDBLK
  8
0
  0
BLOCK
  8
0
  2
13608571A
 70
0
 10
-544.5010325585458
 20
-212.2826806473862
 30
0
  0
INSERT
  8
0
  2
03002670A
 10
-516.7752113906624
 20
-413.1171544916683
 30
0
  0
ENDBLK
  8
0
  0
BLOCK
  8
0
  2
13608521A
 70
0
 10
-547.3447065244826
 20
-1.495347922325099
 30
0
  0
INSERT
  8
0
  2
13608520D
 10
-254.5385926458052
 20
-166.3706560822792
 30
0
  0
INSERT
  8
0
  2
13608571A
 10
-544.5010325585458
 20
-212.2826806473862
 30
0
  0
ENDBLK
  8
0
  0
BLOCK
  8
0
  2
03003982__6
 70
0
 10
-301.3658183738176
 20
-149.265590727996
 30
0
  0
LINE
  8
1
 62
7
 10
0.8235393061572722
 20
1.837347023940904
 30
0
 11
0.8235393061572722
 21
15.98734702394085
 31
0
  0
LINE
  8
1
 62
7
 10
8.323539306157272
 20
2.712539852018946
 30
0
 11
1.823539306157272
 21
2.712539852018946
 31
0
  0
LINE
  8
1
 62
7
 10
1.823539306157272
 20
2.487347023940853
 30
0
 11
8.323539306157272
 21
2.487347023940853
 31
0
  0
LINE
  8
1
 62
7
 10
8.323539306157272
 20
6.173953473487526
 30
0
 11
1.823539306157272
 21
6.173953473487526
 31
0
  0
LINE
  8
1
 62
7
 10
1.823539306157272
 20
6.267593916779044
 30
0
 11
8.323539306157272
 21
6.267593916779044
 31
0
  0
LINE
  8
1
 62
7
 10
8.323539306157272
 20
7.503967387962742
 30
0
 11
1.823539306157272
 21
7.503967387962742
 31
0
  0
LINE
  8
1
 62
7
 10
1.823539306157272
 20
7.838669157804443
 30
0
 11
8.323539306157272
 21
7.838669157804443
 31
0
  0
LINE
  8
1
 62
7
 10
8.323539306157272
 20
10.96125549691688
 30
0
 11
1.823539306157272
 21
10.96125549691688
 31
0
  0
LINE
  8
1
 62
7
 10
1.823539306157272
 20
12.37734723945735
 30
0
 11
8.323539306157272
 21
12.37734723945735
 31
0
  0
LINE
  8
1
 62
7
 10
8.323539306157272
 20
11.9658994690885
 30
0
 11
1.823539306157272
 21
11.9658994690885
 31
0
  0
LINE
  8
1
 62
7
 10
8.323539306157272
 20
14.85544578900299
 30
0
 11
1.823539306157272
 21
14.85544578900299
 31
0
  0
LINE
  8
1
 62
7
 10
1.823539306157272
 20
15.43637826710875
 30
0
 11
8.323539306157272
 21
15.43637826710875
 31
0
  0
LINE
  8
1
 62
7
 10
8.323539306157272
 20
15.88429666351587
 30
0
 11
1.823539306157272
 21
15.88429666351587
 31
0
  0
LINE
  8
1
 62
7
 10
1.823539306157272
 20
17.01623278599971
 30
0
 11
8.323539306157272
 21
17.01623278599971
 31
0
  0
LINE
  8
1
 62
7
 10
8.323539306157272
 20
16.57568913702562
 30
0
 11
1.823539306157272
 21
16.57568913702562
 31
0
  0
LINE
  8
1
 62
7
 10
8.323539306157272
 20
16.47533387153728
 30
0
 11
1.823539306157272
 21
16.47533387153728
 31
0
  0
LINE
  8
1
 62
7
 10
8.323539306157272
 20
17.28734702394084
 30
0
 11
8.323539306157272
 21
1.837347023940904
 31
0
  0
LINE
  8
1
 62
7
 10
8.323539306157272
 20
17.28734702394084
 30
0
 11
8.023539306157261
 21
17.5873470239409
 31
0
  0
LINE
  8
1
 62
7
 10
2.123539306157284
 20
17.5873470239409
 30
0
 11
1.823539306157272
 21
17.28734702394091
 31
0
  0
LINE
  8
1
 62
7
 10
1.823539306157272
 20
1.837347023940904
 30
0
 11
1.823539306157272
 21
17.28734702394091
 31
0
  0
LINE
  8
1
 62
7
 10
2.123539306157284
 20
17.5873470239409
 30
0
 11
8.023539306157261
 21
17.5873470239409
 31
0
  0
LINE
  8
1
 62
7
 10
9.323539306157272
 20
15.98734702394092
 30
0
 11
9.323539306157272
 21
1.837347023940904
 31
0
  0
LINE
  8
1
 62
7
 10
9.323539306157272
 20
1.837347023940904
 30
0
 11
9.323539306157272
 21
-12.31265297605911
 31
0
  0
LINE
  8
1
 62
2
  6
DASHDOT
 10
-2.411141829564429
 20
1.837347023940904
 30
0
 11
12.35967725769586
 21
1.837347023940904
 31
0
  0
LINE
  8
1
 62
7
 10
8.023539306157261
 20
-13.91265297605909
 30
0
 11
2.123539306157284
 21
-13.91265297605909
 31
0
  0
LINE
  8
1
 62
7
 10
1.823539306157272
 20
-13.61265297605909
 30
0
 11
1.823539306157272
 21
1.837347023940904
 31
0
  0
LINE
  8
1
 62
7
 10
1.823539306157272
 20
-13.61265297605909
 30
0
 11
2.123539306157284
 21
-13.91265297605909
 31
0
  0
LINE
  8
1
 62
7
 10
8.023539306157261
 20
-13.91265297605909
 30
0
 11
8.323539306157272
 21
-13.61265297605909
 31
0
  0
LINE
  8
1
 62
7
 10
8.323539306157272
 20
1.837347023940904
 30
0
 11
8.323539306157272
 21
-13.61265297605909
 31
0
  0
LINE
  8
1
 62
7
 10
1.823539306157272
 20
-12.80063982365554
 30
0
 11
8.323539306157272
 21
-12.80063982365554
 31
0
  0
LINE
  8
1
 62
7
 10
1.823539306157272
 20
-12.90099508914387
 30
0
 11
8.323539306157272
 21
-12.90099508914387
 31
0
  0
LINE
  8
1
 62
7
 10
8.323539306157272
 20
-13.34153873811796
 30
0
 11
1.823539306157272
 21
-13.34153873811796
 31
0
  0
LINE
  8
1
 62
7
 10
1.823539306157272
 20
-12.20960261563412
 30
0
 11
8.323539306157272
 21
-12.20960261563412
 31
0
  0
LINE
  8
1
 62
7
 10
8.323539306157272
 20
-11.761684219227
 30
0
 11
1.823539306157272
 21
-11.761684219227
 31
0
  0
LINE
  8
1
 62
7
 10
1.823539306157272
 20
-11.18075174112125
 30
0
 11
8.323539306157272
 21
-11.18075174112125
 31
0
  0
LINE
  8
1
 62
7
 10
1.823539306157272
 20
-8.291205421206744
 30
0
 11
8.323539306157272
 21
-8.291205421206744
 31
0
  0
LINE
  8
1
 62
7
 10
8.323539306157272
 20
-8.702653191575596
 30
0
 11
1.823539306157272
 21
-8.702653191575596
 31
0
  0
LINE
  8
1
 62
7
 10
1.823539306157272
 20
-7.286561449035137
 30
0
 11
8.323539306157272
 21
-7.286561449035137
 31
0
  0
LINE
  8
1
 62
7
 10
8.323539306157272
 20
-4.163975109922692
 30
0
 11
1.823539306157272
 21
-4.163975109922692
 31
0
  0
LINE
  8
1
 62
7
 10
1.823539306157272
 20
-3.829273340080992
 30
0
 11
8.323539306157272
 21
-3.829273340080992
 31
0
  0
LINE
  8
1
 62
7
 10
8.323539306157272
 20
-2.592899868897295
 30
0
 11
1.823539306157272
 21
-2.592899868897295
 31
0
  0
LINE
  8
1
 62
7
 10
1.823539306157272
 20
-2.499259425605775
 30
0
 11
8.323539306157272
 21
-2.499259425605775
 31
0
  0
LINE
  8
1
 62
7
 10
8.323539306157272
 20
1.187347023940898
 30
0
 11
1.823539306157272
 21
1.187347023940898
 31
0
  0
LINE
  8
1
 62
7
 10
1.823539306157272
 20
0.962154195862805
 30
0
 11
8.323539306157272
 21
0.962154195862805
 31
0
  0
LINE
  8
1
 62
7
 10
0.8235393061572722
 20
-12.31265297605911
 30
0
 11
0.8235393061572722
 21
1.837347023940904
 31
0
  0
ARC
  8
1
 62
7
 10
1.823539306157272
 20
15.98734702394085
 30
0
 40
1.000000000000009
 50
90
 51
180
  0
ARC
  8
1
 62
7
 10
8.323539306157272
 20
15.98734702394092
 30
0
 40
1
 50
0
 51
90
  0
ARC
  8
1
 62
7
 10
8.323539306157272
 20
-12.31265297605911
 30
0
 40
1
 50
270
 51
0
  0
ARC
  8
1
 62
7
 10
1.823539306157272
 20
-12.31265297605911
 30
0
 40
0.9999999999999998
 50
180
 51
270
  0
ENDBLK
  8
0
  0
BLOCK
  8
0
  2
03014980C__7
 70
0
 10
-179.145282293975
 20
-13.85677611590408
 30
0
  0
LINE
  8
976
 62
7
 10
-70.02315335129157
 20
-14.16265297605887
 30
0
 11
-64.66789409379163
 21
-14.16265297605887
 31
0
  0
LINE
  8
976
 62
2
  6
DASHDOT
 10
-97.0458391615087
 20
1.837347023940904
 30
0
 11
-60.00890283849418
 21
1.837347023940904
 31
0
  0
LINE
  8
976
 62
2
  6
DASHDOT
 10
-78.26936460252711
 20
-17.92574101585678
 30
0
 11
-78.26936460252711
 21
19.66814171803022
 31
0
  0
LINE
  8
1
 62
7
 10
-62.26936460252711
 20
15.43881753267633
 30
0
 11
-62.26936460252711
 21
-11.76412348479458
 31
0
  0
LINE
  8
1
 62
7
 10
-64.66789409379163
 20
-14.16265297605887
 30
0
 11
-91.87083511126258
 21
-14.16265297605887
 31
0
  0
LINE
  8
1
 62
7
 10
-94.26936460252711
 20
-11.76412348479458
 30
0
 11
-94.26936460252711
 21
15.43881753267633
 31
0
  0
LINE
  8
1
 62
7
 10
-91.87083511126281
 20
17.83734702394084
 30
0
 11
-64.66789409379163
 21
17.83734702394084
 31
0
  0
ARC
  8
1
 62
7
 10
-78.26936460252711
 20
1.837347023940904
 30
0
 40
21.00000000000003
 50
220.3675935441856
 51
229.6324064558139
  0
ARC
  8
1
 62
7
 10
-78.26936460252711
 20
1.837347023940904
 30
0
 40
20.99999999999985
 50
310.367593544186
 51
319.6324064558144
  0
ARC
  8
1
 62
7
 10
-78.26936460252711
 20
1.837347023940904
 30
0
 40
21.00000000000012
 50
130.3675935441862
 51
139.6324064558145
  0
ARC
  8
1
 62
7
 10
-78.26936460252711
 20
1.837347023940904
 30
0
 40
20.99999999999998
 50
40.36759354418553
 51
49.63240645581427
  0
ENDBLK
  8
0
  0
BLOCK
  8
0
  2
TOF-5KAITEI__8
 70
0
 10
-225.8242901555166
 20
10.62529783898745
 30
0
  0
LINE
  8
1
 62
7
 10
-91.27492710252705
 20
-18.69265297605919
 30
0
 11
-91.21148960252708
 21
-16.66265297605919
 31
0
  0
LINE
  8
1
 62
2
 10
-91.26818335252733
 20
-18.47685297605919
 30
0
 11
-90.63048960252695
 21
-16.66265297605919
 31
0
  0
LINE
  8
1
 62
7
 10
-91.21148960252708
 20
-16.66265297605919
 30
0
 11
-86.26936460252705
 21
-16.66265297605919
 31
0
  0
LINE
  8
1
 62
7
 10
-90.41936460252714
 20
-23.19265297605919
 30
0
 11
-90.41936460252714
 21
-24.69265297605919
 31
0
  0
LINE
  8
1
 62
7
 10
-91.13336460252731
 20
-30.19265297605919
 30
0
 11
-86.26936460252705
 21
-30.19265297605919
 31
0
  0
LINE
  8
1
 62
2
 10
-90.55236460252741
 20
-30.19265297605919
 30
0
 11
-90.55236460252741
 21
-24.69265297605919
 31
0
  0
LINE
  8
1
 62
7
 10
-91.13336460252731
 20
-24.69265297605919
 30
0
 11
-91.13336460252731
 21
-30.19265297605919
 31
0
  0
LINE
  8
1
 62
7
 10
-91.13336460252731
 20
-24.69265297605919
 30
0
 11
-86.26936460252705
 21
-24.69265297605919
 31
0
  0
LINE
  8
1
 62
7
 10
-92.26936460252705
 20
-23.19265297605919
 30
0
 11
-86.26936460252705
 21
-23.19265297605919
 31
0
  0
LINE
  8
1
 62
7
 10
-90.21551702523379
 20
-18.98132811065378
 30
0
 11
-90.21551702523379
 21
-22.90397784146428
 31
0
  0
LINE
  8
1
 62
7
 10
-88.76936460252705
 20
-22.90397784146428
 30
0
 11
-88.76936460252705
 21
-18.98132811065378
 31
0
  0
LINE
  8
1
 62
7
 10
-90.21551702523379
 20
-22.90397784146428
 30
0
 11
-88.76936460252705
 21
-22.90397784146428
 31
0
  0
LINE
  8
1
 62
7
 10
-91.51936460252705
 20
-18.69265297605919
 30
0
 11
-86.26936460252705
 21
-18.69265297605919
 31
0
  0
LINE
  8
1
 62
7
 10
-92.26936460252705
 20
-18.69265297605919
 30
0
 11
-91.51936460252705
 21
-18.69265297605919
 31
0
  0
LINE
  8
1
 62
7
 10
-92.26936460252705
 20
-23.19265297605919
 30
0
 11
-92.76936460252705
 21
-22.90397784146428
 31
0
  0
LINE
  8
1
 62
7
 10
-92.76936460252705
 20
-18.98132811065378
 30
0
 11
-92.26936460252705
 21
-18.69265297605919
 31
0
  0
LINE
  8
1
 62
7
 10
-92.76936460252705
 20
-22.90397784146428
 30
0
 11
-92.76936460252705
 21
-18.98132811065378
 31
0
  0
LINE
  8
1
 62
7
 10
-88.76936460252705
 20
-18.98132811065378
 30
0
 11
-90.21551702523379
 21
-18.98132811065378
 31
0
  0
LINE
  8
1
 62
7
 10
-72.76936460252705
 20
-18.98132811065378
 30
0
 11
-74.21551702523379
 21
-18.98132811065378
 31
0
  0
LINE
  8
1
 62
7
 10
-76.76936460252705
 20
-22.90397784146428
 30
0
 11
-76.76936460252705
 21
-18.98132811065378
 31
0
  0
LINE
  8
1
 62
7
 10
-76.76936460252705
 20
-18.98132811065378
 30
0
 11
-76.26936460252705
 21
-18.69265297605919
 31
0
  0
LINE
  8
1
 62
7
 10
-76.26936460252705
 20
-23.19265297605919
 30
0
 11
-76.76936460252705
 21
-22.90397784146428
 31
0
  0
LINE
  8
1
 62
7
 10
-76.26936460252705
 20
-18.69265297605919
 30
0
 11
-75.51936460252705
 21
-18.69265297605919
 31
0
  0
LINE
  8
1
 62
7
 10
-75.51936460252705
 20
-18.69265297605919
 30
0
 11
-70.26936460252705
 21
-18.69265297605919
 31
0
  0
LINE
  8
1
 62
7
 10
-74.21551702523379
 20
-22.90397784146428
 30
0
 11
-72.76936460252705
 21
-22.90397784146428
 31
0
  0
LINE
  8
1
 62
7
 10
-72.76936460252705
 20
-22.90397784146428
 30
0
 11
-72.76936460252705
 21
-18.98132811065378
 31
0
  0
LINE
  8
1
 62
7
 10
-74.21551702523379
 20
-18.98132811065378
 30
0
 11
-74.21551702523379
 21
-22.90397784146428
 31
0
  0
LINE
  8
1
 62
7
 10
-76.26936460252705
 20
-23.19265297605919
 30
0
 11
-70.26936460252705
 21
-23.19265297605919
 31
0
  0
LINE
  8
1
 62
7
 10
-75.13336460252731
 20
-24.69265297605919
 30
0
 11
-70.26936460252705
 21
-24.69265297605919
 31
0
  0
LINE
  8
1
 62
7
 10
-75.13336460252731
 20
-24.69265297605919
 30
0
 11
-75.13336460252708
 21
-30.19265297605919
 31
0
  0
LINE
  8
1
 62
2
 10
-74.55236460252718
 20
-30.19265297605919
 30
0
 11
-74.55236460252718
 21
-24.69265297605919
 31
0
  0
LINE
  8
1
 62
7
 10
-75.13336460252708
 20
-30.19265297605919
 30
0
 11
-70.26936460252705
 21
-30.19265297605919
 31
0
  0
LINE
  8
1
 62
7
 10
-74.41936460252714
 20
-23.19265297605919
 30
0
 11
-74.41936460252714
 21
-24.69265297605919
 31
0
  0
LINE
  8
1
 62
7
 10
-65.32723960252702
 20
-16.66265297605919
 30
0
 11
-65.26380210252705
 21
-18.69265297605919
 31
0
  0
LINE
  8
1
 62
2
 10
-65.90823960252692
 20
-16.66265297605919
 30
0
 11
-65.27054585252699
 21
-18.47685297605919
 31
0
  0
LINE
  8
1
 62
2
 10
-65.98636460252692
 20
-14.16265297605916
 30
0
 11
-65.90823960252692
 21
-16.66265297605919
 31
0
  0
LINE
  8
1
 62
7
 10
-65.40536460252702
 20
-14.16265297605916
 30
0
 11
-65.32723960252702
 21
-16.66265297605919
 31
0
  0
LINE
  8
1
 62
7
 10
-70.26936460252705
 20
-16.66265297605919
 30
0
 11
-65.32723960252702
 21
-16.66265297605919
 31
0
  0
LINE
  8
1
 62
7
 10
-66.11936460252719
 20
-24.69265297605919
 30
0
 11
-66.11936460252719
 21
-23.19265297605919
 31
0
  0
LINE
  8
1
 62
7
 10
-70.26936460252705
 20
-30.19265297605919
 30
0
 11
-65.40536460252702
 21
-30.19265297605919
 31
0
  0
LINE
  8
1
 62
2
 10
-65.98636460252692
 20
-24.69265297605919
 30
0
 11
-65.98636460252692
 21
-30.19265297605919
 31
0
  0
LINE
  8
1
 62
7
 10
-65.40536460252702
 20
-30.19265297605919
 30
0
 11
-65.40536460252702
 21
-24.69265297605919
 31
0
  0
LINE
  8
1
 62
7
 10
-70.26936460252705
 20
-24.69265297605919
 30
0
 11
-65.40536460252702
 21
-24.69265297605919
 31
0
  0
LINE
  8
1
 62
7
 10
-70.26936460252705
 20
-23.19265297605919
 30
0
 11
-64.26936460252705
 21
-23.19265297605919
 31
0
  0
LINE
  8
1
 62
7
 10
-66.32321217982053
 20
-22.90397784146428
 30
0
 11
-66.32321217982053
 21
-18.98132811065378
 31
0
  0
LINE
  8
1
 62
7
 10
-67.76936460252705
 20
-18.98132811065378
 30
0
 11
-67.76936460252705
 21
-22.90397784146428
 31
0
  0
LINE
  8
1
 62
7
 10
-67.76936460252705
 20
-22.90397784146428
 30
0
 11
-66.32321217982053
 21
-22.90397784146428
 31
0
  0
LINE
  8
1
 62
7
 10
-70.26936460252705
 20
-18.69265297605919
 30
0
 11
-65.01936460252705
 21
-18.69265297605919
 31
0
  0
LINE
  8
1
 62
7
 10
-65.01936460252705
 20
-18.69265297605919
 30
0
 11
-64.26936460252705
 21
-18.69265297605919
 31
0
  0
LINE
  8
1
 62
7
 10
-63.76936460252705
 20
-22.90397784146428
 30
0
 11
-64.26936460252705
 21
-23.19265297605919
 31
0
  0
LINE
  8
1
 62
7
 10
-64.26936460252705
 20
-18.69265297605919
 30
0
 11
-63.76936460252705
 21
-18.98132811065378
 31
0
  0
LINE
  8
1
 62
7
 10
-63.76936460252705
 20
-18.98132811065378
 30
0
 11
-63.76936460252705
 21
-22.90397784146428
 31
0
  0
LINE
  8
1
 62
7
 10
-66.32321217982053
 20
-18.98132811065378
 30
0
 11
-67.76936460252705
 21
-18.98132811065378
 31
0
  0
LINE
  8
1
 62
2
  6
DASHDOT
 10
-70.26936460252705
 20
-31.98670670900577
 30
0
 11
-70.26936460252705
 21
-9.196659135272487
 31
0
  0
LINE
  8
1
 62
2
  6
DASHDOT
 10
-86.26936460252705
 20
-31.98670670900577
 30
0
 11
-86.26936460252705
 21
-9.196659135272487
 31
0
  0
LINE
  8
1
 62
7
 10
-82.32321217982053
 20
-18.98132811065378
 30
0
 11
-83.76936460252705
 21
-18.98132811065378
 31
0
  0
LINE
  8
1
 62
7
 10
-79.76936460252705
 20
-18.98132811065378
 30
0
 11
-79.76936460252705
 21
-22.90397784146428
 31
0
  0
LINE
  8
1
 62
7
 10
-80.26936460252705
 20
-18.69265297605919
 30
0
 11
-79.76936460252705
 21
-18.98132811065378
 31
0
  0
LINE
  8
1
 62
7
 10
-79.76936460252705
 20
-22.90397784146428
 30
0
 11
-80.26936460252705
 21
-23.19265297605919
 31
0
  0
LINE
  8
1
 62
7
 10
-81.01936460252705
 20
-18.69265297605919
 30
0
 11
-80.26936460252705
 21
-18.69265297605919
 31
0
  0
LINE
  8
1
 62
7
 10
-86.26936460252705
 20
-18.69265297605919
 30
0
 11
-81.01936460252705
 21
-18.69265297605919
 31
0
  0
LINE
  8
1
 62
7
 10
-83.76936460252705
 20
-22.90397784146428
 30
0
 11
-82.32321217982053
 21
-22.90397784146428
 31
0
  0
LINE
  8
1
 62
7
 10
-83.76936460252705
 20
-18.98132811065378
 30
0
 11
-83.76936460252705
 21
-22.90397784146428
 31
0
  0
LINE
  8
1
 62
7
 10
-82.32321217982053
 20
-22.90397784146428
 30
0
 11
-82.32321217982053
 21
-18.98132811065378
 31
0
  0
LINE
  8
1
 62
7
 10
-86.26936460252705
 20
-23.19265297605919
 30
0
 11
-80.26936460252705
 21
-23.19265297605919
 31
0
  0
LINE
  8
1
 62
7
 10
-86.26936460252705
 20
-24.69265297605919
 30
0
 11
-81.40536460252702
 21
-24.69265297605919
 31
0
  0
LINE
  8
1
 62
7
 10
-81.40536460252702
 20
-30.19265297605919
 30
0
 11
-81.40536460252702
 21
-24.69265297605919
 31
0
  0
LINE
  8
1
 62
2
 10
-81.98636460252692
 20
-24.69265297605919
 30
0
 11
-81.98636460252692
 21
-30.19265297605919
 31
0
  0
LINE
  8
1
 62
7
 10
-86.26936460252705
 20
-30.19265297605919
 30
0
 11
-81.40536460252702
 21
-30.19265297605919
 31
0
  0
LINE
  8
1
 62
7
 10
-82.11936460252719
 20
-24.69265297605919
 30
0
 11
-82.11936460252719
 21
-23.19265297605919
 31
0
  0
LINE
  8
1
 62
2
 10
-90.55236460252695
 20
-14.16265297605916
 30
0
 11
-90.63048960252695
 21
-16.66265297605919
 31
0
  0
LINE
  8
1
 62
7
 10
-91.13336460252708
 20
-14.16265297605916
 30
0
 11
-91.21148960252708
 21
-16.66265297605919
 31
0
  0
LINE
  8
1
 62
7
 10
-75.21148960252708
 20
-16.66265297605919
 30
0
 11
-70.26936460252705
 21
-16.66265297605919
 31
0
  0
LINE
  8
1
 62
7
 10
-75.21148960252708
 20
-16.66265297605919
 30
0
 11
-75.13336460252708
 21
-14.16265297605916
 31
0
  0
LINE
  8
1
 62
7
 10
-75.27492710252705
 20
-18.69265297605919
 30
0
 11
-75.21148960252708
 21
-16.66265297605919
 31
0
  0
LINE
  8
1
 62
2
 10
-74.63048960252718
 20
-16.66265297605919
 30
0
 11
-74.55236460252718
 21
-14.16265297605916
 31
0
  0
LINE
  8
1
 62
2
 10
-75.2681833525271
 20
-18.47685297605919
 30
0
 11
-74.63048960252718
 21
-16.66265297605919
 31
0
  0
LINE
  8
1
 62
7
 10
-81.32723960252704
 20
-16.66265297605919
 30
0
 11
-81.40536460252704
 21
-14.16265297605916
 31
0
  0
LINE
  8
1
 62
7
 10
-86.26936460252705
 20
-16.66265297605919
 30
0
 11
-81.32723960252704
 21
-16.66265297605919
 31
0
  0
LINE
  8
1
 62
7
 10
-81.32723960252704
 20
-16.66265297605919
 30
0
 11
-81.26380210252708
 21
-18.69265297605919
 31
0
  0
LINE
  8
1
 62
2
 10
-81.90823960252718
 20
-16.66265297605919
 30
0
 11
-81.98636460252718
 21
-14.16265297605916
 31
0
  0
LINE
  8
1
 62
2
 10
-81.90823960252718
 20
-16.66265297605919
 30
0
 11
-81.98636460252718
 21
-14.16265297605916
 31
0
  0
LINE
  8
1
 62
2
 10
-81.90823960252718
 20
-16.66265297605919
 30
0
 11
-81.27054585252679
 21
-18.47685297605919
 31
0
  0
ARC
  8
1
 62
7
 10
-86.26936460252705
 20
-12.22299786145639
 30
0
 40
10.96965511460271
 50
256.8264488927409
 51
270
  0
ARC
  8
1
 62
7
 10
-91.49244081388042
 20
-20.22540259726447
 30
0
 40
2.967372524785475
 50
244.5120436442022
 51
295.4879563557978
  0
ARC
  8
1
 62
7
 10
-91.49244081388042
 20
-21.65990335485359
 30
0
 40
2.967372524785475
 50
64.51204364420224
 51
115.4879563557978
  0
ARC
  8
1
 62
7
 10
-86.26936460252705
 20
-29.66230809066178
 30
0
 40
10.96965511460259
 50
90
 51
103.173551107259
  0
ARC
  8
1
 62
7
 10
-70.26936460252705
 20
-29.66230809066178
 30
0
 40
10.96965511460259
 50
90
 51
103.173551107259
  0
ARC
  8
1
 62
7
 10
-75.49244081388042
 20
-21.65990335485359
 30
0
 40
2.967372524785475
 50
64.51204364420224
 51
115.4879563557978
  0
ARC
  8
1
 62
7
 10
-75.49244081388042
 20
-20.22540259726447
 30
0
 40
2.967372524785475
 50
244.5120436442022
 51
295.4879563557978
  0
ARC
  8
1
 62
7
 10
-70.26936460252705
 20
-12.22299786145639
 30
0
 40
10.96965511460271
 50
256.8264488927409
 51
270
  0
ARC
  8
1
 62
7
 10
-70.26936460252705
 20
-12.22299786145639
 30
0
 40
10.9696551146028
 50
270
 51
283.1735511072592
  0
ARC
  8
1
 62
7
 10
-65.04628839117368
 20
-20.22540259726447
 30
0
 40
2.967372524785573
 50
244.5120436441983
 51
295.4879563557978
  0
ARC
  8
1
 62
7
 10
-65.04628839117368
 20
-21.65990335485359
 30
0
 40
2.967372524785475
 50
64.51204364420224
 51
115.4879563558017
  0
ARC
  8
1
 62
7
 10
-70.26936460252705
 20
-29.66230809066178
 30
0
 40
10.96965511460282
 50
76.826448892741
 51
90
  0
ARC
  8
1
 62
7
 10
-86.26936460252705
 20
-29.66230809066178
 30
0
 40
10.96965511460282
 50
76.826448892741
 51
90
  0
ARC
  8
1
 62
7
 10
-81.04628839117368
 20
-21.65990335485359
 30
0
 40
2.967372524785475
 50
64.51204364420224
 51
115.4879563558017
  0
ARC
  8
1
 62
7
 10
-81.04628839117368
 20
-20.22540259726447
 30
0
 40
2.967372524785573
 50
244.5120436441983
 51
295.4879563557978
  0
ARC
  8
1
 62
7
 10
-86.26936460252705
 20
-12.22299786145639
 30
0
 40
10.9696551146028
 50
270
 51
283.1735511072592
  0
INSERT
  8
0
  2
03014980C__7
 10
-179.145282293975
 20
-13.85677611590408
 30
0
  0
ENDBLK
  8
0
  0
BLOCK
  8
0
  2
FORMAT_A4AI
 70
0
 10
-281.7444680088539
 20
-0.5390852535429964
 30
0
  0
LINE
  8
1
 62
2
  6
DIVIDE
 10
-61.819364602527
 20
14.93734702394078
 30
0
 11
-54.53998507614301
 21
14.93734702394078
 31
0
  0
LINE
  8
1
 62
2
  6
DIVIDE
 10
-61.819364602527
 20
15.8373470239408
 30
0
 11
-54.53998507614301
 21
15.8373470239408
 31
0
  0
LINE
  8
1
 62
2
 10
-54.53998507614301
 20
15.8373470239408
 30
0
 11
-54.53998507614301
 21
14.93734702394078
 31
0
  0
LINE
  8
1
 62
2
 10
-54.53998507614301
 20
5.737347023940853
 30
0
 11
-54.53998507614301
 21
4.837347023940842
 31
0
  0
LINE
  8
1
 62
2
 10
-62.26936460252705
 20
14.33734702394082
 30
0
 11
-61.03998507614301
 21
14.33734702394082
 31
0
  0
LINE
  8
1
 62
7
 10
-62.26936460252705
 20
14.83734702394082
 30
0
 11
-54.53998507614301
 21
14.83734702394082
 31
0
  0
LINE
  8
1
 62
2
 10
-54.03998507614301
 20
4.09401406525873
 30
0
 11
-49.03998507614301
 21
4.09401406525873
 31
0
  0
LINE
  8
1
 62
2
 10
-54.03998507614301
 20
4.612272453362319
 30
0
 11
-49.03998507614301
 21
4.612272453362319
 31
0
  0
LINE
  8
1
 62
2
 10
-54.03998507614301
 20
4.999115399624341
 30
0
 11
-49.03998507614301
 21
4.999115399624341
 31
0
  0
LINE
  8
1
 62
2
 10
-54.03998507614301
 20
5.612272453362319
 30
0
 11
-49.03998507614301
 21
5.612272453362319
 31
0
  0
LINE
  8
1
 62
2
 10
-54.03998507614301
 20
6.22542950710044
 30
0
 11
-49.03998507614301
 21
6.22542950710044
 31
0
  0
LINE
  8
1
 62
2
 10
-54.03998507614301
 20
6.838586560838419
 30
0
 11
-49.03998507614301
 21
6.838586560838419
 31
0
  0
LINE
  8
1
 62
2
 10
-54.03998507614301
 20
7.451743614576426
 30
0
 11
-49.03998507614301
 21
7.451743614576426
 31
0
  0
LINE
  8
1
 62
2
 10
-54.03998507614301
 20
8.064900668314433
 30
0
 11
-49.03998507614301
 21
8.064900668314433
 31
0
  0
LINE
  8
1
 62
2
 10
-54.03998507614301
 20
8.769559702745422
 30
0
 11
-49.03998507614301
 21
8.769559702745422
 31
0
  0
LINE
  8
1
 62
2
 10
-49.03998507614301
 20
9.537347023940836
 30
0
 11
-54.03998507614301
 21
9.537347023940836
 31
0
  0
LINE
  8
1
 62
2
 10
-49.03998507614301
 20
15.67557864825725
 30
0
 11
-54.03998507614301
 21
15.67557864825725
 31
0
  0
LINE
  8
1
 62
2
 10
-49.03998507614301
 20
15.06242159451923
 30
0
 11
-54.03998507614301
 21
15.06242159451923
 31
0
  0
LINE
  8
1
 62
2
 10
-49.03998507614301
 20
16.06242159451924
 30
0
 11
-54.03998507614301
 21
16.06242159451924
 31
0
  0
LINE
  8
1
 62
2
 10
-49.03998507614301
 20
14.44926454078123
 30
0
 11
-54.03998507614301
 21
14.44926454078123
 31
0
  0
LINE
  8
1
 62
2
 10
-49.03998507614301
 20
13.83610748704322
 30
0
 11
-54.03998507614301
 21
13.83610748704322
 31
0
  0
LINE
  8
1
 62
7
 10
-54.03998507614301
 20
16.83734702394082
 30
0
 11
-54.03998507614301
 21
3.837347023940819
 31
0
  0
LINE
  8
1
 62
7
 10
-49.03998507614301
 20
16.83734702394082
 30
0
 11
-49.03998507614301
 21
3.837347023940819
 31
0
  0
LINE
  8
1
 62
7
 10
-49.03998507614301
 20
16.83734702394082
 30
0
 11
-48.53998507614301
 21
16.33734702394082
 31
0
  0
LINE
  8
1
 62
7
 10
-48.53998507614301
 20
4.337347023940819
 30
0
 11
-49.03998507614301
 21
3.837347023940819
 31
0
  0
LINE
  8
1
 62
7
 10
-54.53998507614301
 20
16.33734702394082
 30
0
 11
-54.03998507614301
 21
16.83734702394082
 31
0
  0
LINE
  8
1
 62
7
 10
-54.03998507614301
 20
3.837347023940819
 30
0
 11
-54.53998507614301
 21
4.337347023940819
 31
0
  0
LINE
  8
1
 62
7
 10
-48.53998507614301
 20
4.337347023940819
 30
0
 11
-48.53998507614301
 21
10.33734702394082
 31
0
  0
LINE
  8
1
 62
7
 10
-54.03998507614301
 20
3.837347023940819
 30
0
 11
-49.03998507614301
 21
3.837347023940819
 31
0
  0
LINE
  8
1
 62
7
 10
-54.53998507614301
 20
10.33734702394082
 30
0
 11
-54.53998507614301
 21
4.337347023940819
 31
0
  0
LINE
  8
1
 62
2
 10
-54.03998507614301
 20
5.951743614576341
 30
0
 11
-49.03998507614301
 21
5.951743614576341
 31
0
  0
LINE
  8
1
 62
2
 10
-54.03998507614301
 20
3.883978777770832
 30
0
 11
-49.03998507614301
 21
3.883978777770832
 31
0
  0
LINE
  8
1
 62
2
 10
-49.03998507614301
 20
16.58067998262294
 30
0
 11
-54.03998507614301
 21
16.58067998262294
 31
0
  0
LINE
  8
1
 62
2
 10
-49.03998507614301
 20
13.22295043330525
 30
0
 11
-54.03998507614301
 21
13.22295043330525
 31
0
  0
LINE
  8
1
 62
2
 10
-49.03998507614301
 20
12.60979337956723
 30
0
 11
-54.03998507614301
 21
12.60979337956723
 31
0
  0
LINE
  8
1
 62
2
 10
-49.03998507614301
 20
11.90513434513622
 30
0
 11
-54.03998507614301
 21
11.90513434513622
 31
0
  0
LINE
  8
1
 62
2
 10
-54.03998507614301
 20
11.13734702394084
 30
0
 11
-49.03998507614301
 21
11.13734702394084
 31
0
  0
LINE
  8
1
 62
7
 10
-54.53998507614301
 20
16.33734702394082
 30
0
 11
-54.53998507614301
 21
10.33734702394082
 31
0
  0
LINE
  8
1
 62
7
 10
-49.03998507614301
 20
16.83734702394082
 30
0
 11
-54.03998507614301
 21
16.83734702394082
 31
0
  0
LINE
  8
1
 62
7
 10
-48.53998507614301
 20
10.33734702394082
 30
0
 11
-48.53998507614301
 21
16.33734702394082
 31
0
  0
LINE
  8
1
 62
2
 10
-61.03998507614301
 20
14.33734702394082
 30
0
 11
-60.1069723742508
 21
14.83734702394082
 31
0
  0
LINE
  8
1
 62
7
 10
-61.03998507614301
 20
14.83734702394082
 30
0
 11
-61.03998507614301
 21
10.33734702394082
 31
0
  0
LINE
  8
1
 62
2
 10
-49.03998507614301
 20
10.33734702394082
 30
0
 11
-54.03998507614301
 21
10.33734702394082
 31
0
  0
LINE
  8
1
 62
7
 10
-61.03998507614301
 20
10.33734702394082
 30
0
 11
-61.03998507614301
 21
5.837347023940822
 31
0
  0
LINE
  8
1
 62
2
 10
-60.1069723742508
 20
5.837347023940822
 30
0
 11
-61.03998507614301
 21
6.337347023940822
 31
0
  0
LINE
  8
1
 62
7
 10
-54.53998507614301
 20
5.837347023940822
 30
0
 11
-62.00398726291388
 21
5.837347023940822
 31
0
  0
LINE
  8
1
 62
2
 10
-61.03998507614301
 20
6.337347023940822
 30
0
 11
-62.26936460252705
 21
6.337347023940822
 31
0
  0
LINE
  8
1
 62
6
 10
-60.26936460252705
 20
1.837347023940904
 30
0
 11
-60.26936460252705
 21
0.8542784765687337
 31
0
  0
LINE
  8
1
 62
2
  6
DIVIDE
 10
-54.53998507614301
 20
4.837347023940842
 30
0
 11
-61.819364602527
 21
4.837347023940843
 31
0
  0
LINE
  8
1
 62
2
  6
DIVIDE
 10
-54.53998507614301
 20
5.737347023940853
 30
0
 11
-61.819364602527
 21
5.737347023940863
 31
0
  0
ARC
  8
1
 62
2
 10
-54.53998507614301
 20
15.38734702394081
 30
0
 40
0.4499999999999886
 50
180
 51
270
  0
ARC
  8
1
 62
2
 10
-54.53998507614301
 20
15.38734702394081
 30
0
 40
0.4499999999999904
 50
90
 51
180
  0
ARC
  8
1
 62
2
 10
-54.53998507614301
 20
5.287347023940832
 30
0
 40
0.4499999999999886
 50
180
 51
270
  0
ARC
  8
1
 62
2
 10
-54.53998507614301
 20
5.287347023940832
 30
0
 40
0.4500000000000206
 50
90
 51
180
  0
CIRCLE
  8
1
 62
2
 10
-61.819364602527
 20
15.38734702394081
 30
0
 40
0.4500000000000455
  0
CIRCLE
  8
1
 62
2
 10
-61.819364602527
 20
5.287347023940834
 30
0
 40
0.4500000000000455
  0
ENDBLK
  8
0
  0
BLOCK
  8
0
  2
TOF-6B_O____
 70
0
 10
-281.744468008854
 20
-1.039085253542939
 30
0
  0
INSERT
  8
0
  2
13608521A
 10
-547.3447065244826
 20
-1.495347922325099
 30
0
  0
INSERT
  8
0
  2
03003982__6
 10
-301.3658183738176
 20
-149.265590727996
 30
0
  0
INSERT
  8
0
  2
TOF-5KAITEI__8
 10
-225.8242901555166
 20
10.62529783898745
 30
0
  0
INSERT
  8
0
  2
FORMAT_A4AI
 10
-281.7444680088539
 20
-0.5390852535429964
 30
0
  0
ENDBLK
  8
0
  0
BLOCK
  8
0
  2
03002980__9
 70
0
 10
435.4339276413739
 20
-324.6847136083578
 30
0
  0
LINE
  8
1
 62
2
  6
DASHDOT
 10
-96.19522733317966
 20
1.837347023940879
 30
0
 11
-60.5798265446691
 21
1.837347023940879
 31
0
  0
LINE
  8
1
 62
2
  6
DASHDOT
 10
-78.26936460252703
 20
19.30693263360422
 30
0
 11
-78.26936460252703
 21
-15.89513661770877
 31
0
  0
LINE
  8
1
 62
7
 10
-76.01936460252703
 20
15.21182180458459
 30
0
 11
-76.01936460252703
 21
16.28336723713449
 31
0
  0
LINE
  8
1
 62
7
 10
-80.51936460252703
 20
16.28336723713449
 30
0
 11
-80.51936460252703
 21
13.93934916845149
 31
0
  0
LINE
  8
1
 62
6
 10
-79.69510053381508
 20
12.90317233584574
 30
0
 11
-79.51936460252703
 21
12.72743640455758
 31
0
  0
LINE
  8
1
 62
7
 10
-79.2708364651031
 20
12.72743640455758
 30
0
 11
-78.26936460252703
 21
12.72743640455758
 31
0
  0
LINE
  8
1
 62
7
 10
-80.34362867123888
 20
13.55170047326953
 30
0
 11
-79.69510053381508
 21
12.90317233584574
 31
0
  0
LINE
  8
1
 62
6
 10
-79.51936460252703
 20
12.72743640455758
 30
0
 11
-79.2708364651031
 21
12.72743640455758
 31
0
  0
LINE
  8
1
 62
7
 10
-79.51936460252703
 20
12.7813285718828
 30
0
 11
-79.51936460252703
 21
12.72743640455758
 31
0
  0
LINE
  8
1
 62
7
 10
-77.01936460252703
 20
12.72743640455758
 30
0
 11
-77.01936460252703
 21
12.7813285718828
 31
0
  0
LINE
  8
1
 62
6
 10
-77.26789273995085
 20
12.72743640455758
 30
0
 11
-77.01936460252703
 21
12.72743640455758
 31
0
  0
LINE
  8
1
 62
7
 10
-76.84362867123888
 20
12.90317233584574
 30
0
 11
-76.19510053381508
 21
13.55170047326953
 31
0
  0
LINE
  8
1
 62
7
 10
-78.26936460252703
 20
12.72743640455758
 30
0
 11
-77.26789273995085
 21
12.72743640455758
 31
0
  0
LINE
  8
1
 62
6
 10
-77.01936460252703
 20
12.72743640455758
 30
0
 11
-76.84362867123888
 21
12.90317233584574
 31
0
  0
LINE
  8
1
 62
6
 10
-80.51936460252703
 20
13.72743640455747
 30
0
 11
-80.34362867123888
 21
13.55170047326953
 31
0
  0
LINE
  8
1
 62
6
 10
-76.19510053381508
 20
13.55170047326953
 30
0
 11
-76.01936460252703
 21
13.72743640455758
 31
0
  0
LINE
  8
1
 62
7
 10
-80.51936460252703
 20
13.93934916845149
 30
0
 11
-80.51936460252703
 21
10.03414517931839
 31
0
  0
LINE
  8
1
 62
7
 10
-79.51936460252703
 20
10.24493288434098
 30
0
 11
-79.51936460252703
 21
12.72743640455758
 31
0
  0
LINE
  8
1
 62
7
 10
-77.01936460252703
 20
12.72743640455758
 30
0
 11
-77.01936460252703
 21
10.24493288434098
 31
0
  0
LINE
  8
1
 62
7
 10
-76.01936460252681
 20
10.03414517931839
 30
0
 11
-76.01936460252703
 21
13.72743640455758
 31
0
  0
LINE
  8
1
 62
7
 10
-76.01936460252703
 20
13.72743640455758
 30
0
 11
-76.01936460252703
 21
15.21182180458459
 31
0
  0
LINE
  8
1
 62
7
 10
-76.01936460252703
 20
-12.60867318925284
 30
0
 11
-76.01936460252703
 21
-11.53712775670277
 31
0
  0
LINE
  8
1
 62
7
 10
-76.01936460252703
 20
-10.05274235667582
 30
0
 11
-76.01936460252681
 21
-6.359451131436572
 31
0
  0
LINE
  8
1
 62
6
 10
-76.84362867123888
 20
-9.228478287963867
 30
0
 11
-77.01936460252703
 21
-9.052742356675822
 31
0
  0
LINE
  8
1
 62
7
 10
-77.01936460252703
 20
-6.570238836459168
 30
0
 11
-77.01936460252703
 21
-9.052742356675822
 31
0
  0
LINE
  8
1
 62
7
 10
-77.26789273995085
 20
-9.052742356675822
 30
0
 11
-78.26936460252703
 21
-9.052742356675822
 31
0
  0
LINE
  8
1
 62
7
 10
-76.01936460252703
 20
-11.53712775670277
 30
0
 11
-76.01936460252703
 21
-10.05274235667582
 31
0
  0
LINE
  8
1
 62
7
 10
-76.19510053381508
 20
-9.877006425387719
 30
0
 11
-76.84362867123888
 21
-9.228478287963867
 31
0
  0
LINE
  8
1
 62
6
 10
-77.01936460252703
 20
-9.052742356675822
 30
0
 11
-77.26789273995085
 21
-9.052742356675822
 31
0
  0
LINE
  8
1
 62
7
 10
-77.01936460252703
 20
-9.106634524001152
 30
0
 11
-77.01936460252703
 21
-9.052742356675822
 31
0
  0
LINE
  8
1
 62
7
 10
-79.51936460252703
 20
-9.052742356675822
 30
0
 11
-79.51936460252703
 21
-9.106634524001152
 31
0
  0
LINE
  8
1
 62
6
 10
-79.2708364651031
 20
-9.052742356675822
 30
0
 11
-79.51936460252703
 21
-9.052742356675822
 31
0
  0
LINE
  8
1
 62
7
 10
-79.69510053381508
 20
-9.228478287963867
 30
0
 11
-80.34362867123888
 21
-9.877006425387719
 31
0
  0
LINE
  8
1
 62
7
 10
-78.26936460252703
 20
-9.052742356675822
 30
0
 11
-79.2708364651031
 21
-9.052742356675822
 31
0
  0
LINE
  8
1
 62
6
 10
-79.51936460252703
 20
-9.052742356675822
 30
0
 11
-79.69510053381508
 21
-9.228478287963867
 31
0
  0
LINE
  8
1
 62
7
 10
-79.51936460252703
 20
-9.052742356675822
 30
0
 11
-79.51936460252703
 21
-6.570238836459168
 31
0
  0
LINE
  8
1
 62
7
 10
-80.51936460252703
 20
-10.26465512056973
 30
0
 11
-80.51936460252703
 21
-12.60867318925284
 31
0
  0
LINE
  8
1
 62
7
 10
-80.51936460252703
 20
-6.359451131436572
 30
0
 11
-80.51936460252703
 21
-10.26465512056973
 31
0
  0
LINE
  8
1
 62
6
 10
-80.34362867123888
 20
-9.877006425387719
 30
0
 11
-80.51936460252703
 21
-10.05274235667571
 31
0
  0
LINE
  8
1
 62
6
 10
-76.01936460252703
 20
-10.05274235667582
 30
0
 11
-76.19510053381508
 21
-9.877006425387719
 31
0
  0
ARC
  8
1
 62
7
 10
-78.26936460252703
 20
1.837347023940879
 30
0
 40
12.49999999999993
 50
100.3697598054775
 51
259.6302401945226
  0
ARC
  8
1
 62
7
 10
-78.26936460252703
 20
1.837347023940879
 30
0
 40
12.49999999999993
 50
280.3697598054775
 51
79.63024019452253
  0
ARC
  8
1
 62
7
 10
-78.26936460252703
 20
1.837347023940879
 30
0
 40
15.50000000000003
 50
85.05457028211619
 51
94.9454297178834
  0
ARC
  8
1
 62
7
 10
-79.91936460252701
 20
13.9759645419814
 30
0
 40
0.6000000000000227
 50
180
 51
225.0000000000004
  0
ARC
  8
1
 62
7
 10
-79.2708364651031
 20
13.32743640455749
 30
0
 40
0.5999999999999084
 50
224.9999999999847
 51
270
  0
ARC
  8
1
 62
7
 10
-77.26789273995085
 20
13.32743640455749
 30
0
 40
0.5999999999999108
 50
270
 51
315.0000000000154
  0
ARC
  8
1
 62
7
 10
-76.61936460252694
 20
13.9759645419814
 30
0
 40
0.5999999999999122
 50
314.9999999999997
 51
0
  0
ARC
  8
1
 62
7
 10
-76.61936460252694
 20
-10.3012704940997
 30
0
 40
0.5999999999999091
 50
0
 51
45.00000000000792
  0
ARC
  8
1
 62
7
 10
-77.26789273995085
 20
-9.652742356675844
 30
0
 40
0.6000000000000691
 50
45
 51
90
  0
ARC
  8
1
 62
7
 10
-79.2708364651031
 20
-9.652742356675844
 30
0
 40
0.6000000000000227
 50
90
 51
135
  0
ARC
  8
1
 62
7
 10
-79.91936460252701
 20
-10.3012704940997
 30
0
 40
0.5999999999999913
 50
134.9999999999921
 51
180
  0
ARC
  8
1
 62
7
 10
-78.26936460252703
 20
1.837347023940879
 30
0
 40
15.00681912217637
 50
81.70576572420387
 51
98.29423427579526
  0
ARC
  8
1
 62
7
 10
-78.26936460252703
 20
1.837347023940879
 30
0
 40
15.50000000000003
 50
265.0545702821166
 51
274.9454297178838
  0
ARC
  8
1
 62
7
 10
-78.26936460252703
 20
1.837347023940879
 30
0
 40
15.00681912217645
 50
261.7057657242048
 51
278.2942342757961
  0
ARC
  8
1
 62
7
 10
-78.26936460252703
 20
1.837347023940879
 30
0
 40
8.500000000000071
 50
74.65052298299041
 51
90
  0
ARC
  8
1
 62
7
 10
-78.26936460252703
 20
1.837347023940879
 30
0
 40
8.500000000000002
 50
90
 51
105.3494770170081
  0
ARC
  8
1
 62
7
 10
-78.26936460252703
 20
1.837347023940879
 30
0
 40
8.499999999999952
 50
254.6505229829918
 51
285.3494770170096
  0
CIRCLE
  8
1
 62
7
 10
-78.26936460252703
 20
1.837347023940879
 30
0
 40
1.099999999999994
  0
CIRCLE
  8
1
 62
7
 10
-78.26936460252703
 20
1.837347023940879
 30
0
 40
0.6500000000000057
  0
CIRCLE
  8
1
 62
7
 10
-78.26936460252703
 20
1.837347023940879
 30
0
 40
3.926392817734326
  0
CIRCLE
  8
1
 62
7
 10
-78.26936460252703
 20
1.837347023940879
 30
0
 40
4.428148006742106
  0
CIRCLE
  8
1
 62
7
 10
-78.26936460252703
 20
1.837347023940879
 30
0
 40
6.5
  0
ARC
  8
1
 62
7
 10
-79.51936460252703
 20
16.28336723713449
 30
0
 40
1.000000000000077
 50
94.94542971788407
 51
180
  0
ARC
  8
1
 62
7
 10
-77.01936460252703
 20
16.28336723713449
 30
0
 40
1
 50
0
 51
85.05457028210944
  0
ARC
  8
1
 62
7
 10
-79.51936460252703
 20
-12.60867318925284
 30
0
 40
1
 50
180
 51
265.0545702821155
  0
ARC
  8
1
 62
7
 10
-77.01936460252703
 20
-12.60867318925284
 30
0
 40
0.9999999999999892
 50
274.9454297178911
 51
0
  0
ENDBLK
  8
0
  0
BLOCK
  8
0
  2
03002980__10
 70
0
 10
394.7051335405213
 20
-99.67118286117955
 30
0
  0
LINE
  8
1
 62
7
 10
-12.72706367069291
 20
12.51816145054647
 30
0
 11
-8.255731474050986
 21
10.33734702394088
 31
0
  0
LINE
  8
1
 62
7
 10
-12.72706367069291
 20
12.51816145054647
 30
0
 11
-13.17646069384271
 21
13.23734702394097
 31
0
  0
LINE
  8
976
 62
7
 10
-2.976863926205379
 20
14.33734702394088
 30
0
 11
-2.976863926205379
 21
1.837347023940879
 31
0
  0
LINE
  8
1
 62
7
 10
-7.237281158819638
 20
9.163698846273974
 30
0
 11
-7.748312687100547
 21
6.265495030682928
 31
0
  0
LINE
  8
1
 62
7
 10
-2.976863926205379
 20
14.83734702394088
 30
0
 11
-6.212287328107191
 21
11.20993700597103
 31
0
  0
LINE
  8
1
 62
7
 10
-8.22208891183173
 20
10.33734702394088
 30
0
 11
-8.255731474050986
 21
10.33734702394088
 31
0
  0
LINE
  8
1
 62
7
 10
-13.17646069384271
 20
13.44765180966448
 30
0
 11
-6.977946859649006
 21
10.55723733960008
 31
0
  0
LINE
  8
1
 62
7
 10
-8.17646069384271
 20
1.837347023940879
 30
0
 11
-8.17646069384271
 21
5.837347023940993
 31
0
  0
LINE
  8
1
 62
7
 10
-8.17646069384271
 20
5.837347023940993
 30
0
 11
-7.748312687100547
 21
6.265495030682928
 31
0
  0
LINE
  8
1
 62
7
 10
-13.17646069384271
 20
15.83734702394088
 30
0
 11
-13.17646069384271
 21
13.23734702394097
 31
0
  0
LINE
  8
1
 62
7
 10
-3.842889329989912
 20
16.83734702394088
 30
0
 11
-12.17646069384271
 21
16.83734702394088
 31
0
  0
LINE
  8
1
 62
7
 10
-13.17646069384271
 20
15.83734702394088
 30
0
 11
-12.17646069384271
 21
16.83734702394088
 31
0
  0
LINE
  8
1
 62
7
 10
-2.976863926205379
 20
15.33734702394088
 30
0
 11
-3.842889329989912
 21
16.83734702394088
 31
0
  0
LINE
  8
1
 62
7
 10
-2.976863926205379
 20
14.33734702394088
 30
0
 11
-2.976863926205379
 21
15.33734702394088
 31
0
  0
LINE
  8
1
 62
6
 10
-2.976863926205379
 20
15.33734702394088
 30
0
 11
-2.976863926205379
 21
15.61104099694046
 31
0
  0
LINE
  8
1
 62
7
 10
-0.4764606938427782
 20
1.837347023940879
 30
0
 11
-0.4764606938427782
 21
14.83734702394088
 31
0
  0
LINE
  8
1
 62
7
 10
-0.4764606938427782
 20
14.83734702394088
 30
0
 11
-2.976863926205379
 21
14.83734702394088
 31
0
  0
LINE
  8
1
 62
7
 10
-0.4764606938427782
 20
14.33734702394088
 30
0
 11
0.82353930615729
 21
14.33734702394094
 31
0
  0
LINE
  8
1
 62
7
 10
-0.4764606938427782
 20
14.33734702394088
 30
0
 11
0.82353930615729
 21
14.33734702394094
 31
0
  0
LINE
  8
1
 62
7
 10
0.82353930615729
 20
-10.66265297605912
 30
0
 11
-0.4764606938427782
 21
-10.66265297605912
 31
0
  0
LINE
  8
1
 62
7
 10
0.82353930615729
 20
-10.66265297605912
 30
0
 11
-0.4764606938427782
 21
-10.66265297605912
 31
0
  0
LINE
  8
1
 62
7
 10
-2.976863926205379
 20
-11.16265297605912
 30
0
 11
-0.4764606938427782
 21
-11.16265297605912
 31
0
  0
LINE
  8
1
 62
7
 10
-0.4764606938427782
 20
-11.16265297605912
 30
0
 11
-0.4764606938427782
 21
1.837347023940879
 31
0
  0
LINE
  8
1
 62
6
 10
-2.976863926205379
 20
-11.9363469490587
 30
0
 11
-2.976863926205379
 21
-11.66265297605912
 31
0
  0
LINE
  8
1
 62
7
 10
-2.976863926205379
 20
-11.66265297605912
 30
0
 11
-2.976863926205379
 21
-10.66265297605912
 31
0
  0
LINE
  8
1
 62
7
 10
-3.842889329989912
 20
-13.16265297605912
 30
0
 11
-2.976863926205379
 21
-11.66265297605912
 31
0
  0
LINE
  8
1
 62
7
 10
-12.17646069384271
 20
-13.16265297605912
 30
0
 11
-13.17646069384271
 21
-12.16265297605912
 31
0
  0
LINE
  8
1
 62
7
 10
-12.17646069384271
 20
-13.16265297605912
 30
0
 11
-3.842889329989912
 21
-13.16265297605912
 31
0
  0
LINE
  8
1
 62
7
 10
-13.17646069384271
 20
-9.562652976059212
 30
0
 11
-13.17646069384271
 21
-12.16265297605912
 31
0
  0
LINE
  8
1
 62
7
 10
-7.748312687100547
 20
-2.59080098280117
 30
0
 11
-8.17646069384271
 21
-2.162652976059235
 31
0
  0
LINE
  8
1
 62
7
 10
-8.17646069384271
 20
-2.162652976059235
 30
0
 11
-8.17646069384271
 21
1.837347023940879
 31
0
  0
LINE
  8
1
 62
7
 10
-6.977946859649006
 20
-6.882543291718321
 30
0
 11
-13.17646069384271
 21
-9.77295776178272
 31
0
  0
LINE
  8
1
 62
7
 10
-8.255731474050986
 20
-6.662652976059121
 30
0
 11
-8.22208891183173
 21
-6.662652976059121
 31
0
  0
LINE
  8
1
 62
7
 10
-6.212287328107191
 20
-7.53524295808927
 30
0
 11
-2.976863926205379
 21
-11.16265297605912
 31
0
  0
LINE
  8
1
 62
7
 10
-7.748312687100547
 20
-2.59080098280117
 30
0
 11
-7.237281158819638
 21
-5.489004798392216
 31
0
  0
LINE
  8
976
 62
7
 10
-2.976863926205379
 20
1.837347023940879
 30
0
 11
-2.976863926205379
 21
-10.66265297605912
 31
0
  0
LINE
  8
1
 62
7
 10
-13.17646069384271
 20
-9.562652976059212
 30
0
 11
-12.72706367069291
 21
-8.843467402664714
 31
0
  0
LINE
  8
1
 62
7
 10
-8.255731474050986
 20
-6.662652976059121
 30
0
 11
-12.72706367069291
 21
-8.843467402664714
 31
0
  0
LINE
  8
1
 62
2
  6
DASHDOT
 10
6.131324637747543
 20
1.837347023940879
 30
0
 11
-8.804377615789559
 21
1.837347023940879
 31
0
  0
POLYLINE
  8
1
 62
7
 66
1
  0
VERTEX
  8
1
 10
-7.030335319237434
 20
1.837347023940879
 30
0
 42
9.330621623725834e-005
  0
VERTEX
  8
1
 10
-7.030680342200474
 20
1.91707936635544
 30
0
 42
0.000279920583296357
  0
VERTEX
  8
1
 10
-7.03108487950355
 20
1.996811024762222
 30
0
 42
0.0004665433559487471
  0
VERTEX
  8
1
 10
-7.031608445486702
 20
2.076541315153444
 30
0
 42
0.0006531721647575352
  0
VERTEX
  8
1
 10
-7.032310554489968
 20
2.15626955352133
 30
0
 42
0.0008398010019652526
  0
VERTEX
  8
1
 10
-7.033250720853385
 20
2.235995055858098
 30
0
 42
0.0009421210779587832
  0
VERTEX
  8
1
 10
-7.034465336866409
 20
2.315086829621512
 30
0
 42
0.0008210856299565568
  0
VERTEX
  8
1
 10
-7.035958867734101
 20
2.394174504393545
 30
0
 42
0.0008538915097698701
  0
VERTEX
  8
1
 10
-7.037717343438132
 20
2.473257347355261
 30
0
 42
0.000732885172301702
  0
VERTEX
  8
1
 10
-7.039726793960171
 20
2.552334625687725
 30
0
 42
0.0007657244337368522
  0
VERTEX
  8
1
 10
-7.041973249281892
 20
2.631405606572002
 30
0
 42
0.0006556946234747401
  0
VERTEX
  8
1
 10
-7.04440525681815
 20
2.709214942369911
 30
0
 42
0.0007770876792217276
  0
VERTEX
  8
1
 10
-7.047060209560209
 20
2.787016633780752
 30
0
 42
0.001461486174184575
  0
VERTEX
  8
1
 10
-7.053066682071234
 20
2.942593741547189
 30
0
 42
0.001650973179362954
  0
VERTEX
  8
1
 10
-7.059957757044161
 20
3.096263306629338
 30
0
 42
0.002366931838641072
  0
VERTEX
  8
1
 10
-7.071998228642695
 20
3.32387794717888
 30
0
 42
0.001727793473015166
  0
VERTEX
  8
1
 10
-7.081117207069851
 20
3.473089097604852
 30
0
 42
0.00162397107322118
  0
VERTEX
  8
1
 10
-7.091069263510077
 20
3.619775047823761
 30
0
 42
0.001860313795072769
  0
VERTEX
  8
1
 10
-7.102043252862909
 20
3.766387986625546
 30
0
 42
0.001717840998587911
  0
VERTEX
  8
1
 10
-7.113568764564133
 20
3.906856586007365
 30
0
 42
0.001985414514044762
  0
VERTEX
  8
1
 10
-7.126134326991203
 20
4.047235917572979
 30
0
 42
0.001876758520297982
  0
VERTEX
  8
1
 10
-7.139436305186072
 20
4.183942324794887
 30
0
 42
0.00110597217656329
  0
VERTEX
  8
1
 10
-7.146310523228609
 20
4.250469960505902
 30
0
 42
0.0009424739661362733
  0
VERTEX
  8
1
 10
-7.153457232856288
 20
4.316968815296922
 30
0
 42
0.001177373876970055
  0
VERTEX
  8
1
 10
-7.160885808241964
 20
4.383436737183971
 30
0
 42
0.001013905698278639
  0
VERTEX
  8
1
 10
-7.168605623558488
 20
4.449871574183078
 30
0
 42
0.001183672767150775
  0
VERTEX
  8
1
 10
-7.176125898441655
 20
4.512198708705821
 30
0
 42
0.001037243536393047
  0
VERTEX
  8
1
 10
-7.18392295132732
 20
4.574491876761266
 30
0
 42
0.001280727474519146
  0
VERTEX
  8
1
 10
-7.192008697581024
 20
4.636748158099509
 30
0
 42
0.001134352558386601
  0
VERTEX
  8
1
 10
-7.200395052568299
 20
4.69896463247064
 30
0
 42
0.001377877412154709
  0
VERTEX
  8
1
 10
-7.209093931654689
 20
4.761138379624754
 30
0
 42
0.001142522827015083
  0
VERTEX
  8
1
 10
-7.217449039307731
 20
4.818737741538077
 30
0
 42
0.001410613743454991
  0
VERTEX
  8
1
 10
-7.226098165122799
 20
4.876293758856601
 30
0
 42
0.001276621948104044
  0
VERTEX
  8
1
 10
-7.23505647566048
 20
4.933802320403903
 30
0
 42
0.001544803252828974
  0
VERTEX
  8
1
 10
-7.244339137481359
 20
4.991259315003561
 30
0
 42
0.001410876688361792
  0
VERTEX
  8
1
 10
-7.253961317146018
 20
5.048660631479152
 30
0
 42
0.001555485661535204
  0
VERTEX
  8
1
 10
-7.263067083358688
 20
5.101072287026534
 30
0
 42
0.001458746976764998
  0
VERTEX
  8
1
 10
-7.27248866050916
 20
5.153428189620762
 30
0
 42
0.001745676639501804
  0
VERTEX
  8
1
 10
-7.28224556335687
 20
5.205722533081145
 30
0
 42
0.00164907075123263
  0
VERTEX
  8
1
 10
-7.292357306661252
 20
5.257949511226999
 30
0
 42
0.001936079544950059
  0
VERTEX
  8
1
 10
-7.302843405181744
 20
5.310103317877633
 30
0
 42
0.001662832588158117
  0
VERTEX
  8
1
 10
-7.312606448921604
 20
5.356914814118617
 30
0
 42
0.002007039334587213
  0
VERTEX
  8
1
 10
-7.322712839547521
 20
5.403653525827798
 30
0
 42
0.001939352630361036
  0
VERTEX
  8
1
 10
-7.333187689475528
 20
5.45031047993502
 30
0
 42
0.002283905482755887
  0
VERTEX
  8
1
 10
-7.344056111121649
 20
5.496876703370123
 30
0
 42
0.002216455336348299
  0
VERTEX
  8
1
 10
-7.355343216901911
 20
5.543343223062948
 30
0
 42
0.002301647963246054
  0
VERTEX
  8
1
 10
-7.365657461050792
 20
5.584191871280092
 30
0
 42
0.002333181217784603
  0
VERTEX
  8
1
 10
-7.376349952989144
 20
5.624943324259941
 30
0
 42
0.002727670386025209
  0
VERTEX
  8
1
 10
-7.387454440499223
 20
5.665584747859612
 30
0
 42
0.002759468379155341
  0
VERTEX
  8
1
 10
-7.399004671363281
 20
5.70610330793622
 30
0
 42
0.003153863951871846
  0
VERTEX
  8
1
 10
-7.411034393363575
 20
5.746486170346884
 30
0
 42
0.002780712439442951
  0
VERTEX
  8
1
 10
-7.42178877668006
 20
5.781081687671454
 30
0
 42
0.003337380465033273
  0
VERTEX
  8
1
 10
-7.432965733041884
 20
5.815543250883693
 30
0
 42
0.003452264024754121
  0
VERTEX
  8
1
 10
-7.44460852421563
 20
5.849846678899608
 30
0
 42
0.004011824186194506
  0
VERTEX
  8
1
 10
-7.456760411967883
 20
5.883967790635202
 30
0
 42
0.004128954261114525
  0
VERTEX
  8
1
 10
-7.469464658065231
 20
5.91788240500648
 30
0
 42
0.004041736240433764
  0
VERTEX
  8
1
 10
-7.48051805596187
 20
5.94598337297546
 30
0
 42
0.004498202735347544
  0
VERTEX
  8
1
 10
-7.492049909714734
 20
5.973891784341632
 30
0
 42
0.005227978421267969
  0
VERTEX
  8
1
 10
-7.504124547708237
 20
6.001575470441956
 30
0
 42
0.005680618095608049
  0
VERTEX
  8
1
 10
-7.516806298326791
 20
6.029002262613398
 30
0
 42
0.006401383963487676
  0
VERTEX
  8
1
 10
-7.530159489954809
 20
6.056139992192925
 30
0
 42
0.00569001637859826
  0
VERTEX
  8
1
 10
-7.541424078900067
 20
6.077700754020215
 30
0
 42
0.007032986163665492
  0
VERTEX
  8
1
 10
-7.55323332240314
 20
6.098967451011694
 30
0
 42
0.007823488128898113
  0
VERTEX
  8
1
 10
-7.565656920146699
 20
6.119853379974834
 30
0
 42
0.009219952160331644
  0
VERTEX
  8
1
 10
-7.578764571813411
 20
6.140271837717107
 30
0
 42
0.01005838374161542
  0
VERTEX
  8
1
 10
-7.592625977085941
 20
6.16013612104598
 30
0
 42
0.009338064877977255
  0
VERTEX
  8
1
 10
-7.603924233070602
 20
6.175058768044043
 30
0
 42
0.01132950676791045
  0
VERTEX
  8
1
 10
-7.615830862873684
 20
6.189503493451399
 30
0
 42
0.01327147992576919
  0
VERTEX
  8
1
 10
-7.628461448938873
 20
6.203375905576213
 30
0
 42
0.01509731767614695
  0
VERTEX
  8
1
 10
-7.641931573709855
 20
6.216581612726656
 30
0
 42
0.01673897735863745
  0
VERTEX
  8
1
 10
-7.656356819630314
 20
6.229026223210894
 30
0
 42
0.0148432471567496
  0
VERTEX
  8
1
 10
-7.668214588278641
 20
6.238015503057
 30
0
 42
0.01950889101993988
  0
VERTEX
  8
1
 10
-7.680651594701794
 20
6.246163175558441
 30
0
 42
0.02353113836181425
  0
VERTEX
  8
1
 10
-7.6936074798116
 20
6.253138668986417
 30
0
 42
0.02974891291467633
  0
VERTEX
  8
1
 10
-7.70702188451989
 20
6.258611411612122
 30
0
 42
0.03514018861904727
  0
VERTEX
  8
1
 10
-7.720834449738486
 20
6.262250831706751
 30
0
 42
0.03345938155154481
  0
VERTEX
  8
1
 10
-7.733451507909481
 20
6.263778402444996
 30
0
 42
0.02104179706896976
  0
VERTEX
  8
1
 10
-7.746283965305999
 20
6.263926165055892
 30
0
 42
0.01880248008139761
  0
VERTEX
  8
1
 10
-7.75927797212166
 20
6.263039071571282
 30
0
 42
0.007012781660369075
  0
VERTEX
  8
1
 10
-7.772379678550081
 20
6.261462074022999
 30
0
 42
0.005626555955882196
  0
VERTEX
  8
1
 10
-7.785535234784884
 20
6.259540124442879
 30
0
  0
SEQEND
  8
1
  0
POLYLINE
  8
1
 62
7
 66
1
  0
VERTEX
  8
1
 10
-7.030335319237434
 20
1.837347023940879
 30
0
 42
-9.330621623725834e-005
  0
VERTEX
  8
1
 10
-7.030680342200474
 20
1.757614681526318
 30
0
 42
-0.0002799214872091503
  0
VERTEX
  8
1
 10
-7.03108487950355
 20
1.677883023119537
 30
0
 42
-0.0004665437139961946
  0
VERTEX
  8
1
 10
-7.031608445486702
 20
1.598152732728313
 30
0
 42
-0.0006531723348482161
  0
VERTEX
  8
1
 10
-7.032310554489968
 20
1.518424494360428
 30
0
 42
-0.0008397989882082256
  0
VERTEX
  8
1
 10
-7.033250720853385
 20
1.43869899202366
 30
0
 42
-0.0009036646535849394
  0
VERTEX
  8
1
 10
-7.034465336866409
 20
1.359607218260245
 30
0
 42
-0.0008595435410213948
  0
VERTEX
  8
1
 10
-7.035958867734101
 20
1.280519543488212
 30
0
 42
-0.0008154356440797465
  0
VERTEX
  8
1
 10
-7.037717343438132
 20
1.201436700526496
 30
0
 42
-0.0007713434937629939
  0
VERTEX
  8
1
 10
-7.039726793960171
 20
1.122359422194032
 30
0
 42
-0.0007272688595819489
  0
VERTEX
  8
1
 10
-7.041973249281892
 20
1.043288441309755
 30
0
 42
-0.0007052181637274189
  0
VERTEX
  8
1
 10
-7.04440525681815
 20
0.9654791055118464
 30
0
 42
-0.0007275647787545991
  0
VERTEX
  8
1
 10
-7.047060209560209
 20
0.8876774141010053
 30
0
 42
-0.00151473562820895
  0
VERTEX
  8
1
 10
-7.053066682071234
 20
0.732100306334569
 30
0
 42
-0.001582112709955292
  0
VERTEX
  8
1
 10
-7.059957757044161
 20
0.5784307412524211
 30
0
 42
-0.002425986001361448
  0
VERTEX
  8
1
 10
-7.071998228642695
 20
0.3508161007028774
 30
0
 42
-0.001647046143849472
  0
VERTEX
  8
1
 10
-7.081117207069851
 20
0.2016049502769068
 30
0
 42
-0.001695056506913317
  0
VERTEX
  8
1
 10
-7.091069263510077
 20
0.05491900005799756
 30
0
 42
-0.001775781982384784
  0
VERTEX
  8
1
 10
-7.102043252862909
 20
-0.09169393874378784
 30
0
 42
-0.001790858133856243
  0
VERTEX
  8
1
 10
-7.113568764564133
 20
-0.2321625381256069
 30
0
 42
-0.00189504689896218
  0
VERTEX
  8
1
 10
-7.126134326991203
 20
-0.3725418696912216
 30
0
 42
-0.001950213639688056
  0
VERTEX
  8
1
 10
-7.139436305186072
 20
-0.5092482769131288
 30
0
 42
-0.001006378296329623
  0
VERTEX
  8
1
 10
-7.146310523228609
 20
-0.5757759126241447
 30
0
 42
-0.001042070265290825
  0
VERTEX
  8
1
 10
-7.153457232856288
 20
-0.6422747674151638
 30
0
 42
-0.001077779270245364
  0
VERTEX
  8
1
 10
-7.160885808241964
 20
-0.7087426893022131
 30
0
 42
-0.001113501187246174
  0
VERTEX
  8
1
 10
-7.168605623558488
 20
-0.7751775263013201
 30
0
 42
-0.001086204528783856
  0
VERTEX
  8
1
 10
-7.176125898441655
 20
-0.8375046608240627
 30
0
 42
-0.001134716305012442
  0
VERTEX
  8
1
 10
-7.18392295132732
 20
-0.8997978288795089
 30
0
 42
-0.001183258184547625
  0
VERTEX
  8
1
 10
-7.192008697581024
 20
-0.9620541102177515
 30
0
 42
-0.001231824089319682
  0
VERTEX
  8
1
 10
-7.200395052568299
 20
-1.024270584588883
 30
0
 42
-0.001280406598774896
  0
VERTEX
  8
1
 10
-7.209093931654689
 20
-1.086444331742996
 30
0
 42
-0.001243060425900838
  0
VERTEX
  8
1
 10
-7.217449039307731
 20
-1.144043693656319
 30
0
 42
-0.001310083881562015
  0
VERTEX
  8
1
 10
-7.226098165122799
 20
-1.201599710974843
 30
0
 42
-0.001377157753599279
  0
VERTEX
  8
1
 10
-7.23505647566048
 20
-1.259108272522146
 30
0
 42
-0.001444271016049637
  0
VERTEX
  8
1
 10
-7.244339137481359
 20
-1.316565267121804
 30
0
 42
-0.00151140965994364
  0
VERTEX
  8
1
 10
-7.253961317146018
 20
-1.373966583597394
 30
0
 42
-0.001459595031653747
  0
VERTEX
  8
1
 10
-7.263067083358688
 20
-1.426378239144777
 30
0
 42
-0.001554649827724741
  0
VERTEX
  8
1
 10
-7.27248866050916
 20
-1.478734141739004
 30
0
 42
-0.001649782168128941
  0
VERTEX
  8
1
 10
-7.28224556335687
 20
-1.531028485199388
 30
0
 42
-0.001744968656684646
  0
VERTEX
  8
1
 10
-7.292357306661252
 20
-1.583255463345241
 30
0
 42
-0.001840178709046677
  0
VERTEX
  8
1
 10
-7.302843405181744
 20
-1.635409269995876
 30
0
 42
-0.001765871641257192
  0
VERTEX
  8
1
 10
-7.312606448921604
 20
-1.682220766236859
 30
0
 42
-0.001904031208071793
  0
VERTEX
  8
1
 10
-7.322712839547521
 20
-1.728959477946041
 30
0
 42
-0.002042384744171756
  0
VERTEX
  8
1
 10
-7.333187689475528
 20
-1.775616432053262
 30
0
 42
-0.002180887011222743
  0
VERTEX
  8
1
 10
-7.344056111121649
 20
-1.822182655488365
 30
0
 42
-0.00231947393256149
  0
VERTEX
  8
1
 10
-7.355343216901911
 20
-1.86864917518119
 30
0
 42
-0.002210983309953339
  0
VERTEX
  8
1
 10
-7.365657461050792
 20
-1.909497823398334
 30
0
 42
-0.002423881192030986
  0
VERTEX
  8
1
 10
-7.376349952989144
 20
-1.950249276378183
 30
0
 42
-0.002636982390629082
  0
VERTEX
  8
1
 10
-7.387454440499223
 20
-1.990890699977853
 30
0
 42
-0.002850135728155048
  0
VERTEX
  8
1
 10
-7.399004671363281
 20
-2.031409260054462
 30
0
 42
-0.003063132432557034
  0
VERTEX
  8
1
 10
-7.411034393363575
 20
-2.071792122465126
 30
0
 42
-0.002891674850094598
  0
VERTEX
  8
1
 10
-7.421788776680061
 20
-2.106387639789696
 30
0
 42
-0.003226664896190851
  0
VERTEX
  8
1
 10
-7.432965733041883
 20
-2.140849203001936
 30
0
 42
-0.003563197364355621
  0
VERTEX
  8
1
 10
-7.44460852421563
 20
-2.17515263101785
 30
0
 42
-0.003901046200190242
  0
VERTEX
  8
1
 10
-7.456760411967882
 20
-2.209273742753445
 30
0
 42
-0.004239790319397999
  0
VERTEX
  8
1
 10
-7.469464658065231
 20
-2.243188357124723
 30
0
 42
-0.003973233821003885
  0
VERTEX
  8
1
 10
-7.48051805596187
 20
-2.271289325093703
 30
0
 42
-0.004566642610460535
  0
VERTEX
  8
1
 10
-7.492049909714734
 20
-2.299197736459874
 30
0
 42
-0.005159154839496374
  0
VERTEX
  8
1
 10
-7.504124547708237
 20
-2.326881422560198
 30
0
 42
-0.005748596334586038
  0
VERTEX
  8
1
 10
-7.516806298326791
 20
-2.354308214731641
 30
0
 42
-0.006331942670689698
  0
VERTEX
  8
1
 10
-7.530159489954809
 20
-2.381445944311167
 30
0
 42
-0.005836834315387551
  0
VERTEX
  8
1
 10
-7.541424078900067
 20
-2.403006706138456
 30
0
 42
-0.006890287861067361
  0
VERTEX
  8
1
 10
-7.55323332240314
 20
-2.424273403129936
 30
0
 42
-0.007970432760697237
  0
VERTEX
  8
1
 10
-7.565656920146699
 20
-2.445159332093076
 30
0
 42
-0.009076663875777545
  0
VERTEX
  8
1
 10
-7.578764571813411
 20
-2.465577789835348
 30
0
 42
-0.01020386948169519
  0
VERTEX
  8
1
 10
-7.592625977085941
 20
-2.485442073164222
 30
0
 42
-0.009335752266179737
  0
VERTEX
  8
1
 10
-7.603924233070602
 20
-2.500364720162286
 30
0
 42
-0.01132572695726591
  0
VERTEX
  8
1
 10
-7.615830862873684
 20
-2.514809445569641
 30
0
 42
-0.01326051164849353
  0
VERTEX
  8
1
 10
-7.628461448938873
 20
-2.528681857694456
 30
0
 42
-0.01508162951079306
  0
VERTEX
  8
1
 10
-7.641931573709855
 20
-2.541887564844898
 30
0
 42
-0.01671370178329356
  0
VERTEX
  8
1
 10
-7.656356819630314
 20
-2.554332175329137
 30
0
 42
-0.01524058944474217
  0
VERTEX
  8
1
 10
-7.668214588278641
 20
-2.563321455175241
 30
0
 42
-0.01922107220733575
  0
VERTEX
  8
1
 10
-7.680651594701794
 20
-2.571469127676684
 30
0
 42
-0.02394458886801847
  0
VERTEX
  8
1
 10
-7.6936074798116
 20
-2.578444621104659
 30
0
 42
-0.02944336418930701
  0
VERTEX
  8
1
 10
-7.707021884519888
 20
-2.583917363730365
 30
0
 42
-0.03546662624411764
  0
VERTEX
  8
1
 10
-7.720834449738486
 20
-2.587556783824994
 30
0
 42
-0.03088626902785739
  0
VERTEX
  8
1
 10
-7.733451507909481
 20
-2.589084354563237
 30
0
 42
-0.02356049080224958
  0
VERTEX
  8
1
 10
-7.746283965305999
 20
-2.589232117174135
 30
0
 42
-0.01633912819733319
  0
VERTEX
  8
1
 10
-7.75927797212166
 20
-2.588345023689525
 30
0
 42
-0.009549492726374365
  0
VERTEX
  8
1
 10
-7.772379678550081
 20
-2.586768026141241
 30
0
 42
-0.003135946648590167
  0
VERTEX
  8
1
 10
-7.785535234784884
 20
-2.584846076561121
 30
0
  0
SEQEND
  8
1
  0
ARC
  8
1
 62
7
 10
-8.22208891183173
 20
9.337347023940879
 30
0
 40
0.999999999999881
 50
350.0000000000003
 51
90
  0
ARC
  8
1
 62
7
 10
-4.67646069384271
 20
8.632877334662794
 30
0
 40
2.999999999999913
 50
120.7932862797798
 51
155.0093714942279
  0
ARC
  8
1
 62
7
 10
-4.67646069384271
 20
-4.958183286781036
 30
0
 40
2.999999999999802
 50
204.9906285057721
 51
239.2067137202201
  0
ARC
  8
1
 62
7
 10
-8.22208891183173
 20
-5.662652976059121
 30
0
 40
1
 50
270
 51
9.999999999999739
  0
ENDBLK
  8
0
  0
BLOCK
  8
0
  2
03001980__11
 70
0
 10
180.8996527112383
 20
-142.8455781986125
 30
0
  0
INSERT
  8
0
  2
03002980__10
 10
394.7051335405213
 20
-99.67118286117955
 30
0
  0
ENDBLK
  8
0
  0
BLOCK
  8
0
  2
TOF-5KAITEI__12
 70
0
 10
248.0484543815346
 20
-125.7091309009016
 30
0
  0
INSERT
  8
0
  2
03002980__9
 10
435.4339276413739
 20
-324.6847136083578
 30
0
  0
INSERT
  8
0
  2
03001980__11
 10
180.8996527112383
 20
-142.8455781986125
 30
0
  0
ENDBLK
  8
0
  0
BLOCK
  8
0
  2
TOF-5_O____
 70
0
 10
152.3273676916517
 20
-150.184805357721
 30
0
  0
INSERT
  8
0
  2
TOF-5KAITEI__12
 10
248.0484543815346
 20
-125.7091309009016
 30
0
  0
ENDBLK
  8
0
  0
BLOCK
  8
0
  2
03003982__13
 70
0
 10
-16.59674162063804
 20
-127.3999543828331
 30
0
  0
LINE
  8
1
 62
7
 10
-77.61936460252701
 20
-13.59897378122511
 30
0
 11
-77.45055842740322
 21
-13.89135465317091
 31
0
  0
LINE
  8
1
 62
7
 10
-74.11746587869902
 20
-13.04432751177839
 30
0
 11
-74.18765943327995
 21
-13.37456222215121
 31
0
  0
LINE
  8
1
 62
7
 10
-72.88109240751531
 20
-12.64260541909098
 30
0
 11
-72.63019753641154
 21
-12.86851217572638
 31
0
  0
LINE
  8
1
 62
7
 10
-68.67026183725128
 20
-10.26883842407187
 30
0
 11
-68.36183760823852
 21
-10.40615773807249
 31
0
  0
LINE
  8
1
 62
7
 10
-69.72198392993872
 20
-11.03295925205208
 30
0
 11
-69.68669382978715
 21
-11.36872212652008
 31
0
  0
LINE
  8
1
 62
7
 10
-66.1631791545143
 20
-7.761755741334866
 30
0
 11
-66.02585984051365
 21
-8.070179970347624
 31
0
  0
LINE
  8
1
 62
7
 10
-65.39905832653406
 20
-6.710033648647453
 30
0
 11
-65.06329545206609
 21
-6.745323748798995
 31
0
  0
LINE
  8
1
 62
7
 10
-63.38769006680776
 20
-2.314551699887119
 30
0
 11
-63.05745535643496
 21
-2.244358145306194
 31
0
  0
LINE
  8
1
 62
7
 10
-63.78941215949519
 20
-3.550925171070816
 30
0
 11
-63.56350540285976
 21
-3.801820042174626
 31
0
  0
LINE
  8
1
 62
7
 10
-62.83304379736106
 20
1.187347023940873
 30
0
 11
-62.54066292541525
 21
1.018540848817082
 31
0
  0
LINE
  8
1
 62
2
  6
DASHDOT
 10
-100.044364602527
 20
1.837347023940879
 30
0
 11
-56.49436460252703
 21
1.837347023940879
 31
0
  0
LINE
  8
1
 62
2
  6
DASHDOT
 10
-78.26936460252703
 20
-19.93765297605913
 30
0
 11
-78.26936460252703
 21
23.61234702394089
 31
0
  0
LINE
  8
1
 62
7
 10
-62.54066292541525
 20
2.656153199064676
 30
0
 11
-62.83304379736106
 21
2.487347023940885
 31
0
  0
LINE
  8
1
 62
7
 10
-63.56350540285976
 20
7.476514090056384
 30
0
 11
-63.78941215949519
 21
7.225619218952573
 31
0
  0
LINE
  8
1
 62
7
 10
-63.05745535643496
 20
5.919052193187952
 30
0
 11
-63.38769006680776
 21
5.989245747768877
 31
0
  0
LINE
  8
1
 62
7
 10
-65.06329545206609
 20
10.42001779668075
 30
0
 11
-65.39905832653406
 21
10.38472769652921
 31
0
  0
LINE
  8
1
 62
7
 10
-66.02585984051365
 20
11.74487401822938
 30
0
 11
-66.1631791545143
 21
11.43644978921662
 31
0
  0
LINE
  8
1
 62
7
 10
-69.68669382978715
 20
15.04341617440184
 30
0
 11
-69.72198392993872
 21
14.70765329993384
 31
0
  0
LINE
  8
1
 62
7
 10
-68.36183760823852
 20
14.08085178595425
 30
0
 11
-68.67026183725128
 21
13.94353247195363
 31
0
  0
LINE
  8
1
 62
7
 10
-72.63019753641154
 20
16.54320622360814
 30
0
 11
-72.88109240751531
 21
16.31729946697274
 31
0
  0
LINE
  8
1
 62
7
 10
-74.18765943327995
 20
17.04925627003297
 30
0
 11
-74.11746587869902
 21
16.71902155966015
 31
0
  0
LINE
  8
1
 62
7
 10
-77.45055842740322
 20
17.56604870105267
 30
0
 11
-77.61936460252701
 21
17.27366782910687
 31
0
  0
LINE
  8
1
 62
7
 10
-78.91936460252703
 20
17.27366782910687
 30
0
 11
-79.08817077765085
 21
17.56604870105267
 31
0
  0
LINE
  8
1
 62
7
 10
-82.42126332635505
 20
16.71902155966015
 30
0
 11
-82.35106977177409
 21
17.04925627003297
 31
0
  0
LINE
  8
1
 62
7
 10
-83.65763679753874
 20
16.31729946697274
 30
0
 11
-83.90853166864252
 21
16.54320622360814
 31
0
  0
LINE
  8
1
 62
7
 10
-87.86846736780278
 20
13.94353247195363
 30
0
 11
-88.17689159681552
 21
14.08085178595425
 31
0
  0
LINE
  8
1
 62
7
 10
-86.81674527511534
 20
14.70765329993384
 30
0
 11
-86.85203537526691
 21
15.04341617440184
 31
0
  0
LINE
  8
1
 62
7
 10
-90.37555005053976
 20
11.43644978921662
 30
0
 11
-90.51286936454042
 21
11.74487401822938
 31
0
  0
LINE
  8
1
 62
7
 10
-91.13967087851999
 20
10.38472769652921
 30
0
 11
-91.47543375298797
 21
10.42001779668075
 31
0
  0
LINE
  8
1
 62
7
 10
-93.15103913824629
 20
5.989245747768877
 30
0
 11
-93.4812738486191
 21
5.919052193187952
 31
0
  0
LINE
  8
1
 62
7
 10
-92.74931704555885
 20
7.225619218952573
 30
0
 11
-92.97522380219429
 21
7.476514090056384
 31
0
  0
LINE
  8
1
 62
7
 10
-93.705685407693
 20
2.487347023940885
 30
0
 11
-93.99806627963881
 21
2.656153199064676
 31
0
  0
LINE
  8
1
 62
7
 10
-93.99806627963881
 20
1.018540848817082
 30
0
 11
-93.705685407693
 21
1.187347023940873
 31
0
  0
LINE
  8
1
 62
7
 10
-92.97522380219429
 20
-3.801820042174626
 30
0
 11
-92.74931704555885
 21
-3.550925171070816
 31
0
  0
LINE
  8
1
 62
7
 10
-93.4812738486191
 20
-2.244358145306194
 30
0
 11
-93.15103913824629
 21
-2.314551699887119
 31
0
  0
LINE
  8
1
 62
7
 10
-91.47543375298797
 20
-6.745323748798995
 30
0
 11
-91.13967087851999
 21
-6.710033648647453
 31
0
  0
LINE
  8
1
 62
7
 10
-90.51286936454042
 20
-8.070179970347624
 30
0
 11
-90.37555005053976
 21
-7.761755741334866
 31
0
  0
LINE
  8
1
 62
7
 10
-86.85203537526691
 20
-11.36872212652008
 30
0
 11
-86.81674527511534
 21
-11.03295925205208
 31
0
  0
LINE
  8
1
 62
7
 10
-88.17689159681552
 20
-10.40615773807249
 30
0
 11
-87.86846736780278
 21
-10.26883842407187
 31
0
  0
LINE
  8
1
 62
7
 10
-83.90853166864252
 20
-12.86851217572638
 30
0
 11
-83.65763679753874
 21
-12.64260541909098
 31
0
  0
LINE
  8
1
 62
7
 10
-82.35106977177409
 20
-13.37456222215121
 30
0
 11
-82.42126332635505
 21
-13.04432751177839
 31
0
  0
LINE
  8
1
 62
7
 10
-79.08817077765085
 20
-13.89135465317091
 30
0
 11
-78.91936460252703
 21
-13.59897378122511
 31
0
  0
ARC
  8
1
 62
7
 10
-78.26936460252703
 20
1.837347023940879
 30
0
 40
15.75
 50
272.9800188221869
 51
285.0199811778131
  0
ARC
  8
1
 62
7
 10
-78.26936460252703
 20
1.837347023940879
 30
0
 40
15.74999999999999
 50
290.980018822187
 51
303.0199811778131
  0
ARC
  8
1
 62
7
 10
-78.26936460252703
 20
1.837347023940879
 30
0
 40
15.74999999999999
 50
308.980018822187
 51
321.0199811778131
  0
ARC
  8
1
 62
7
 10
-78.26936460252703
 20
1.837347023940879
 30
0
 40
15.74999999999999
 50
326.9800188221869
 51
339.019981177813
  0
ARC
  8
1
 62
7
 10
-78.26936460252703
 20
1.837347023940879
 30
0
 40
15.75
 50
344.980018822187
 51
357.0199811778131
  0
ARC
  8
1
 62
2
 10
-78.26936460252703
 20
1.837347023940879
 30
0
 40
15.44999999999999
 50
270
 51
0
  0
ARC
  8
1
 62
7
 10
-78.26936460252703
 20
1.837347023940879
 30
0
 40
15.17888576205886
 50
270
 51
0
  0
ARC
  8
1
 62
7
 10
-78.26936460252703
 20
1.837347023940879
 30
0
 40
15.17888576205885
 50
0
 51
90
  0
ARC
  8
1
 62
2
 10
-78.26936460252703
 20
1.837347023940879
 30
0
 40
15.45
 50
0
 51
90
  0
ARC
  8
1
 62
7
 10
-78.26936460252703
 20
1.837347023940879
 30
0
 40
15.75
 50
2.980018822186905
 51
15.01998117781307
  0
ARC
  8
1
 62
7
 10
-78.26936460252703
 20
1.837347023940879
 30
0
 40
15.75000000000001
 50
20.980018822187
 51
33.01998117781302
  0
ARC
  8
1
 62
7
 10
-78.26936460252703
 20
1.837347023940879
 30
0
 40
15.75
 50
38.98001882218694
 51
51.01998117781298
  0
ARC
  8
1
 62
7
 10
-78.26936460252703
 20
1.837347023940879
 30
0
 40
15.75000000000001
 50
56.98001882218695
 51
69.01998117781304
  0
ARC
  8
1
 62
7
 10
-78.26936460252703
 20
1.837347023940879
 30
0
 40
15.75000000000001
 50
74.98001882218689
 51
87.01998117781305
  0
ARC
  8
1
 62
7
 10
-78.26936460252703
 20
1.837347023940879
 30
0
 40
15.75
 50
92.98001882218695
 51
105.019981177813
  0
ARC
  8
1
 62
7
 10
-78.26936460252703
 20
1.837347023940879
 30
0
 40
15.75
 50
110.980018822187
 51
123.019981177813
  0
ARC
  8
1
 62
7
 10
-78.26936460252703
 20
1.837347023940879
 30
0
 40
15.74999999999998
 50
128.9800188221869
 51
141.0199811778131
  0
ARC
  8
1
 62
7
 10
-78.26936460252703
 20
1.837347023940879
 30
0
 40
15.74999999999997
 50
146.980018822187
 51
159.019981177813
  0
ARC
  8
1
 62
7
 10
-78.26936460252703
 20
1.837347023940879
 30
0
 40
15.74999999999998
 50
164.9800188221869
 51
177.0199811778131
  0
ARC
  8
1
 62
2
 10
-78.26936460252703
 20
1.837347023940879
 30
0
 40
15.44999999999999
 50
90
 51
180
  0
ARC
  8
1
 62
7
 10
-78.26936460252703
 20
1.837347023940879
 30
0
 40
15.17888576205885
 50
90
 51
180
  0
ARC
  8
1
 62
7
 10
-78.26936460252703
 20
1.837347023940879
 30
0
 40
15.17888576205884
 50
180
 51
270
  0
ARC
  8
1
 62
2
 10
-78.26936460252703
 20
1.837347023940879
 30
0
 40
15.44999999999999
 50
180
 51
270
  0
ARC
  8
1
 62
7
 10
-78.26936460252703
 20
1.837347023940879
 30
0
 40
15.74999999999998
 50
182.9800188221869
 51
195.0199811778131
  0
ARC
  8
1
 62
7
 10
-78.26936460252703
 20
1.837347023940879
 30
0
 40
15.75
 50
200.980018822187
 51
213.0199811778131
  0
ARC
  8
1
 62
7
 10
-78.26936460252703
 20
1.837347023940879
 30
0
 40
15.75
 50
218.9800188221869
 51
231.019981177813
  0
ARC
  8
1
 62
7
 10
-78.26936460252703
 20
1.837347023940879
 30
0
 40
15.75
 50
236.980018822187
 51
249.019981177813
  0
ARC
  8
1
 62
7
 10
-78.26936460252703
 20
1.837347023940879
 30
0
 40
15.75000000000001
 50
254.980018822187
 51
267.0199811778131
  0
ENDBLK
  8
0
  0
ENDSEC
  0
SECTION
  2
ENTITIES
  0
INSERT
  8
0
  2
03014980E
 10
7.599358025209988
 20
-233.864891214614
 30
0
  0
INSERT
  8
0
  2
TOF-5R-S3
 10
366.3156212014567
 20
56.9038645822319
 30
0
  0
INSERT
  8
0
  2
03002650
 10
-32.47861094036498
 20
4.337347023940993
 30
0
  0
INSERT
  8
0
  2
TOF-5KAITEI__4
 10
59.25402492964237
 20
10.62529783898742
 30
0
  0
INSERT
  8
0
  2
03002680
 10
-3.176758809284081
 20
-159.73252782589
 30
0
  0
INSERT
  8
0
  2
TOF-6B_O____
 10
-281.744468008854
 20
-1.039085253542939
 30
0
  0
INSERT
  8
0
  2
TOF-5_O____
 10
152.3273676916517
 20
-150.184805357721
 30
0
  0
INSERT
  8
0
  2
03003982__13
 10
-16.59674162063804
 20
-127.3999543828331
 30
0
  0
ENDSEC
  0
EOF
