  0
SECTION
  2
HEADER
  9
$ACADVER
  1
AC1014
  9
$ACADMAINTVER
 70
           0
  9
$DWGCODEPAGE
  3
DOS932
  9
$INSBASE
 10
0.0
 20
0.0
 30
0.0
  9
$EXTMIN
 10
1.000000000000E+20
 20
1.000000000000E+20
 30
1.000000000000E+20
  9
$EXTMAX
 10
-1.000000000000E+20
 20
-1.000000000000E+20
 30
-1.000000000000E+20
  9
$LIMMIN
 10
0.0
 20
0.0
  9
$LIMMAX
 10
0.0
 20
0.0
  9
$ORTHOMODE
 70
           0
  9
$REGENMODE
 70
           1
  9
$FILLMODE
 70
           1
  9
$QTEXTMODE
 70
           0
  9
$MIRRTEXT
 70
           1
  9
$DRAGMODE
 70
           2
  9
$LTSCALE
 40
1.0
  9
$OSMODE
 70
           0
  9
$ATTMODE
 70
           1
  9
$TEXTSIZE
 40
0.2
  9
$TRACEWID
 40
0.05
  9
$TEXTSTYLE
  7
STANDARD
  9
$CLAYER
  8
0
  9
$CELTYPE
  6
CONTINUOUS
  9
$CECOLOR
 62
         256
  9
$CELTSCALE
 40
1.0
  9
$DELOBJ
 70
           1
  9
$DISPSILH
 70
           0
  9
$DIMSCALE
 40
1.0
  9
$DIMASZ
 40
0.18
  9
$DIMEXO
 40
0.0625
  9
$DIMDLI
 40
0.38
  9
$DIMRND
 40
0.0
  9
$DIMDLE
 40
0.0
  9
$DIMEXE
 40
0.18
  9
$DIMTP
 40
0.0
  9
$DIMTM
 40
0.0
  9
$DIMTXT
 40
0.18
  9
$DIMCEN
 40
0.09
  9
$DIMTSZ
 40
0.0
  9
$DIMTOL
 70
           0
  9
$DIMLIM
 70
           0
  9
$DIMTIH
 70
           1
  9
$DIMTOH
 70
           1
  9
$DIMSE1
 70
           0
  9
$DIMSE2
 70
           0
  9
$DIMTAD
 70
           0
  9
$DIMZIN
 70
           0
  9
$DIMBLK
  1

  9
$DIMASO
 70
           1
  9
$DIMSHO
 70
           1
  9
$DIMPOST
  1

  9
$DIMAPOST
  1

  9
$DIMALT
 70
           0
  9
$DIMALTD
 70
           2
  9
$DIMALTF
 40
25.4
  9
$DIMLFAC
 40
1.0
  9
$DIMTOFL
 70
           0
  9
$DIMTVP
 40
0.0
  9
$DIMTIX
 70
           0
  9
$DIMSOXD
 70
           0
  9
$DIMSAH
 70
           0
  9
$DIMBLK1
  1

  9
$DIMBLK2
  1

  9
$DIMSTYLE
  2
STANDARD
  9
$DIMCLRD
 70
           0
  9
$DIMCLRE
 70
           0
  9
$DIMCLRT
 70
           0
  9
$DIMTFAC
 40
1.0
  9
$DIMGAP
 40
0.09
  9
$DIMJUST
 70
           0
  9
$DIMSD1
 70
           0
  9
$DIMSD2
 70
           0
  9
$DIMTOLJ
 70
           1
  9
$DIMTZIN
 70
           0
  9
$DIMALTZ
 70
           0
  9
$DIMALTTZ
 70
           0
  9
$DIMFIT
 70
           3
  9
$DIMUPT
 70
           0
  9
$DIMUNIT
 70
           2
  9
$DIMDEC
 70
           4
  9
$DIMTDEC
 70
           4
  9
$DIMALTU
 70
           2
  9
$DIMALTTD
 70
           2
  9
$DIMTXSTY
  7
STANDARD
  9
$DIMAUNIT
 70
           0
  9
$LUNITS
 70
           2
  9
$LUPREC
 70
           4
  9
$SKETCHINC
 40
0.1
  9
$FILLETRAD
 40
0.0
  9
$AUNITS
 70
           0
  9
$AUPREC
 70
           0
  9
$MENU
  1
acad
  9
$ELEVATION
 40
0.0
  9
$PELEVATION
 40
0.0
  9
$THICKNESS
 40
0.0
  9
$LIMCHECK
 70
           0
  9
$BLIPMODE
 70
           1
  9
$CHAMFERA
 40
0.0
  9
$CHAMFERB
 40
0.0
  9
$CHAMFERC
 40
0.0
  9
$CHAMFERD
 40
0.0
  9
$SKPOLY
 70
           0
  9
$TDCREATE
 40
0.000000000
  9
$TDUPDATE
 40
0.000000000
  9
$TDINDWG
 40
0.0000000000
  9
$TDUSRTIMER
 40
0.0000000000
  9
$USRTIMER
 70
           1
  9
$ANGBASE
 50
0.0
  9
$ANGDIR
 70
           0
  9
$PDMODE
 70
           0
  9
$PDSIZE
 40
0.0
  9
$PLINEWID
 40
0.0
  9
$COORDS
 70
           0
  9
$SPLFRAME
 70
           0
  9
$SPLINETYPE
 70
           6
  9
$SPLINESEGS
 70
           8
  9
$ATTDIA
 70
           0
  9
$ATTREQ
 70
           1
  9
$HANDLING
 70
           1
  9
$HANDSEED
  5
18D
  9
$SURFTAB1
 70
           6
  9
$SURFTAB2
 70
           6
  9
$SURFTYPE
 70
           6
  9
$SURFU
 70
           6
  9
$SURFV
 70
           6
  9
$UCSNAME
  2

  9
$UCSORG
 10
0.0
 20
0.0
 30
0.0
  9
$UCSXDIR
 10
1.0
 20
0.0
 30
0.0
  9
$UCSYDIR
 10
0.0
 20
1.0
 30
0.0
  9
$PUCSNAME
  2

  9
$PUCSORG
 10
0.0
 20
0.0
 30
0.0
  9
$PUCSXDIR
 10
1.0
 20
0.0
 30
0.0
  9
$PUCSYDIR
 10
0.0
 20
1.0
 30
0.0
  9
$USERI1
 70
           0
  9
$USERI2
 70
           0
  9
$USERI3
 70
           0
  9
$USERI4
 70
           0
  9
$USERI5
 70
           0
  9
$USERR1
 40
0.0
  9
$USERR2
 40
0.0
  9
$USERR3
 40
0.0
  9
$USERR4
 40
0.0
  9
$USERR5
 40
0.0
  9
$WORLDVIEW
 70
           1
  9
$SHADEDGE
 70
           3
  9
$SHADEDIF
 70
          70
  9
$TILEMODE
 70
           1
  9
$MAXACTVP
 70
          16
  9
$PINSBASE
 10
0.0
 20
0.0
 30
0.0
  9
$PLIMCHECK
 70
           0
  9
$PEXTMIN
 10
1.000000000000E+20
 20
1.000000000000E+20
 30
1.000000000000E+20
  9
$PEXTMAX
 10
-1.000000000000E+20
 20
-1.000000000000E+20
 30
-1.000000000000E+20
  9
$PLIMMIN
 10
0.0
 20
0.0
  9
$PLIMMAX
 10
12.0
 20
9.0
  9
$UNITMODE
 70
           0
  9
$VISRETAIN
 70
           0
  9
$PLINEGEN
 70
           1
  9
$PSLTSCALE
 70
           0
  9
$TREEDEPTH
 70
        3020
  9
$PICKSTYLE
 70
           1
  9
$CMLSTYLE
  2
STANDARD
  9
$CMLJUST
 70
           0
  9
$CMLSCALE
 40
1.0
  9
$PROXYGRAPHICS
 70
           0
  9
$MEASUREMENT
 70
           0
  0
ENDSEC
  0
SECTION
  2
CLASSES
  0
CLASS
  1
LWPOLYLINE
  2
AcDbPolyline
  3
"AutoCAD"
 90
        0
280
           0
281
           1
  0
CLASS
  1
IMAGE
  2
AcDbRasterImage
  3
ISM
 90
      127
280
           0
281
           1
  0
CLASS
  1
OLE2FRAME
  2
AcDbOle2Frame
  3
""
 90
        0
280
           0
281
           1
  0
CLASS
  1
HATCH
  2
AcDbHatch
  3
"ACAD_SEDONA"
 90
        0
280
           0
281
           1
  0
CLASS
  1
DICTIONARYVAR
  2
AcDbDictionaryVar
  3
"AutoCAD"
 90
        0
280
           0
281
           0
  0
CLASS
  1
RASTERVARIABLES
  2
AcDbRasterVariables
  3
ISM
 90
        0
280
           0
281
           0
  0
CLASS
  1
IMAGEDEF
  2
AcDbRasterImageDef
  3
ISM
 90
        0
280
           0
281
           0
  0
CLASS
  1
IMAGEDEF_REACTOR
  2
AcDbRasterImageDefReactor
  3
ISM
 90
        1
280
           0
281
           0
  0
CLASS
  1
IDBUFFER
  2
AcDbIdBuffer
  3
"Acad"
 90
        0
280
           0
281
           0
  0
CLASS
  1
SPATIAL_FILTER
  2
AcDbSpatialFilter
  3
"Acad"
 90
        0
280
           0
281
           0
  0
CLASS
  1
XRECORD
  2
AcDbXrecord
  3
"<Built In>"
 90
        0
280
           0
281
           0
  0
CLASS
  1
SORTENTSTABLE
  2
AcDbSortentsTable
  3
"AutoCAD"
 90
        0
280
           0
281
           0
  0
CLASS
  1
LAYER_INDEX
  2
AcDbLayerIndex
  3
"Acad"
 90
        0
280
           0
281
           0
  0
CLASS
  1
SPATIAL_INDEX
  2
AcDbSpatialIndex
  3
"Acad"
 90
        0
280
           0
281
           0
  0
CLASS
  1
OBJECT_PTR
  2
CAseDLPNTableRecord
  3
"ASE-LPNTableRecord"
 90
        1
280
           0
281
           0
  0
CLASS
  1
LAYOUT
  2
AcDbLayout
  3
"AutoCAD 2000"
 90
        1
280
           0
281
           0
  0
CLASS
  1
PLOTSETTINGS
  2
AcDbPlotSettings
  3
"AutoCAD 2000"
 90
        1
280
           0
281
           0
  0
CLASS
  1
ACDBDICTIONARYWDFLT
  2
AcDbDictionaryWithDefault
  3
"AutoCAD 2000"
 90
        1
280
           0
281
           0
  0
CLASS
  1
ACDBPLACEHOLDER
  2
AcDbPlaceHolder
  3
"AutoCAD 2000"
 90
        1
280
           0
281
           0
  0
CLASS
  1
VBA_PROJECT
  2
AcDbVbaProject
  3
"acadvba"
 90
        1
280
           0
281
           0
  0
CLASS
  1
WIPEOUT
  2
AcDbWipeout
  3
WipeOut|AutoCAD Express Tool|expresstools@autodesk.com
 90
      127
280
           0
281
           1
  0
CLASS
  1
WIPEOUTVARIABLES
  2
AcDbWipeoutVariables
  3
WipeOut|AutoCAD Express Tool|expresstools@autodesk.com
 90
        0
280
           0
281
           0
  0
CLASS
  1
RTEXT
  2
RText
  3
RText|AutoCAD Express Tool|expresstools@autodesk.com
 90
        0
280
           0
281
           1
  0
CLASS
  1
ARCALIGNEDTEXT
  2
AcDbArcAlignedText
  3
ATEXT|AutoCAD Express Tool|expresstools@autodesk.com
 90
        0
280
           0
281
           1
  0
ENDSEC
  0
SECTION
  2
TABLES
  0
TABLE
  2
VPORT
  5
7
100
AcDbSymbolTable
 70
           1
  0
VPORT
  5
15
100
AcDbSymbolTableRecord
100
AcDbViewportTableRecord
  2
*ACTIVE
 70
           0
 10
0.0
 20
0.0
 11
1.0
 21
1.0
 12
6.591288
 22
4.579184
 13
0.0
 23
0.0
 14
1.0
 24
1.0
 15
0.0
 25
0.0
 16
0.0
 26
0.0
 36
1.0
 17
0.0
 27
0.0
 37
0.0
 40
9.158369
 41
0.688564
 42
50.0
 43
0.0
 44
0.0
 50
0.0
 51
0.0
 71
           0
 72
         100
 73
           1
 74
           1
 75
           0
 76
           0
 77
           0
 78
           0
  0
ENDTAB
  0
TABLE
  2
LTYPE
  5
4
100
AcDbSymbolTable
 70
          10
  0
LTYPE
  5
11
100
AcDbSymbolTableRecord
100
AcDbLinetypeTableRecord
  2
BYBLOCK
 70
          64
  3

 72
          65
 73
           0
 40
0.0
  0
LTYPE
  5
12
100
AcDbSymbolTableRecord
100
AcDbLinetypeTableRecord
  2
BYLAYER
 70
          64
  3

 72
          65
 73
           0
 40
0.0
  0
LTYPE
  5
13
100
AcDbSymbolTableRecord
100
AcDbLinetypeTableRecord
  2
CONTINUOUS
 70
          64
  3
Solid line
 72
          65
 73
           0
 40
0.0
  0
LTYPE
  5
1D
100
AcDbSymbolTableRecord
100
AcDbLinetypeTableRecord
  2
DASHED
 70
          64
  3
Dashed
 72
          65
 73
           2
 40
15.0
 49
12.0
 74
           0
 49
-3.0
 74
           0
  0
LTYPE
  5
1E
100
AcDbSymbolTableRecord
100
AcDbLinetypeTableRecord
  2
DOTTED
 70
          64
  3
Dotted
 72
          65
 73
           2
 40
3.5
 49
0.5
 74
           0
 49
-3.0
 74
           0
  0
LTYPE
  5
1F
100
AcDbSymbolTableRecord
100
AcDbLinetypeTableRecord
  2
DOT_CENTER
 70
          64
  3
Dot_Center
 72
          65
 73
           4
 40
2.0
 49
1.25
 74
           0
 49
-0.25
 74
           0
 49
0.25
 74
           0
 49
-0.25
 74
           0
  0
LTYPE
  5
20
100
AcDbSymbolTableRecord
100
AcDbLinetypeTableRecord
  2
LONG_DASHED
 70
          64
  3
Long_Dashed
 72
          65
 73
           2
 40
2.0
 49
1.5
 74
           0
 49
-0.5
 74
           0
  0
LTYPE
  5
21
100
AcDbSymbolTableRecord
100
AcDbLinetypeTableRecord
  2
DASH_CENTER
 70
          64
  3
Dash_Center
 72
          65
 73
           4
 40
36.0
 49
24.0
 74
           0
 49
-3.0
 74
           0
 49
6.0
 74
           0
 49
-3.0
 74
           0
  0
LTYPE
  5
22
100
AcDbSymbolTableRecord
100
AcDbLinetypeTableRecord
  2
PHANTOM
 70
          64
  3
Phantom
 72
          65
 73
           6
 40
2.5
 49
1.25
 74
           0
 49
-0.25
 74
           0
 49
0.25
 74
           0
 49
-0.25
 74
           0
 49
0.25
 74
           0
 49
-0.25
 74
           0
  0
LTYPE
  5
23
100
AcDbSymbolTableRecord
100
AcDbLinetypeTableRecord
  2
CENTER_DASH_DASH
 70
          64
  3
Center_Dash_Dash
 72
          65
 73
           6
 40
22.0
 49
12.0
 74
           0
 49
-3.0
 74
           0
 49
0.5
 74
           0
 49
-3.0
 74
           0
 49
0.5
 74
           0
 49
-3.0
 74
           0
  0
ENDTAB
  0
TABLE
  2
LAYER
  5
2
100
AcDbSymbolTable
 70
           2
  0
LAYER
  5
14
100
AcDbSymbolTableRecord
100
AcDbLayerTableRecord
  2
0
 70
           0
 62
           7
  6
CONTINUOUS
  0
LAYER
  5
24
100
AcDbSymbolTableRecord
100
AcDbLayerTableRecord
  2
1
 70
           0
 62
           7
  6
CONTINUOUS
  0
ENDTAB
  0
TABLE
  2
STYLE
  5
3
100
AcDbSymbolTable
 70
           1
  0
STYLE
  5
17
100
AcDbSymbolTableRecord
100
AcDbTextStyleTableRecord
  2
STANDARD
 70
           0
 40
0.0
 41
1.0
 50
0.0
 71
           0
 42
0.0
  3
txt
  4

  0
ENDTAB
  0
TABLE
  2
VIEW
  5
5
100
AcDbSymbolTable
 70
           0
  0
ENDTAB
  0
TABLE
  2
UCS
  5
6
100
AcDbSymbolTable
 70
           0
  0
ENDTAB
  0
TABLE
  2
APPID
  5
8
100
AcDbSymbolTable
 70
           1
  0
APPID
  5
16
100
AcDbSymbolTableRecord
100
AcDbRegAppTableRecord
  2
ACAD
 70
           0
  0
ENDTAB
  0
TABLE
  2
DIMSTYLE
  5
9
100
AcDbSymbolTable
 70
           1
  0
DIMSTYLE
105
18
100
AcDbSymbolTableRecord
100
AcDbDimStyleTableRecord
  2
STANDARD
 70
           0
  3

  4

  5

  6

  7

 40
1.0
 41
0.18
 42
0.0625
 43
0.38
 44
0.18
 45
0.0
 46
0.0
 47
0.0
 48
0.0
 71
           0
 72
           0
 73
           1
 74
           1
 75
           0
 76
           0
 77
           0
 78
           0
140
0.18
141
0.09
142
0.0
143
25.4
144
1.0
145
0.0
146
1.0
147
0.09
170
           0
171
           2
172
           0
173
           0
174
           0
175
           0
176
           0
177
           0
178
           0
270
           2
271
           4
272
           4
273
           2
274
           2
275
           0
280
           0
281
           0
282
           0
283
           1
284
           0
285
           0
286
           0
287
           0
288
           0
340
17
  0
ENDTAB
  0
TABLE
  2
BLOCK_RECORD
  5
1
100
AcDbSymbolTable
 70
           0
  0
BLOCK_RECORD
  5
A
100
AcDbSymbolTableRecord
100
AcDbBlockTableRecord
  2
*MODEL_SPACE
  0
BLOCK_RECORD
  5
B
100
AcDbSymbolTableRecord
100
AcDbBlockTableRecord
  2
*PAPER_SPACE
  0
ENDTAB
  0
ENDSEC
  0
SECTION
  2
BLOCKS
  0
BLOCK
  5
D
100
AcDbEntity
  8
0
100
AcDbBlockBegin
  2
*MODEL_SPACE
 70
           0
 10
0.0
 20
0.0
 30
0.0
  3
*MODEL_SPACE
  1

  0
ENDBLK
  5
E
100
AcDbEntity
  8
0
100
AcDbBlockEnd
  0
BLOCK
  5
F
100
AcDbEntity
 67
           1
  8
0
100
AcDbBlockBegin
  2
*PAPER_SPACE
 70
           0
 10
0.0
 20
0.0
 30
0.0
  3
*PAPER_SPACE
  1

  0
ENDBLK
  5
10
100
AcDbEntity
 67
           1
  8
0
100
AcDbBlockEnd
  0
ENDSEC
  0
SECTION
  2
ENTITIES
  0
SPLINE
  5
18B
100
AcDbEntity
  8
0
  6
CONTINUOUS
 62
           7
100
AcDbSpline
210
0.0
220
0.0
230
1.0
 70
           0
 71
           3
 72
          73
 73
          70
 74
         137
 42
0.00000000001
 43
0.00000000001
 44
0.00000000001
 40
0.0
 40
0.0
 40
0.0
 40
2.917938624534445
 40
5.3494711687746364
 40
7.2942921952125657
 40
8.7523584767834972
 40
10.210152832805191
 40
12.153445991450042
 40
14.582785733191447
 40
17.500013103478661
 40
20.420279477782216
 40
23.340552385427443
 40
26.257226724929087
 40
29.169124568289394
 40
32.079325404132028
 40
34.502867996768657
 40
36.441432665636469
 40
37.895827408127992
 40
39.351170555015827
 40
40.565580470732264
 40
41.53663085077352
 40
42.261618825712517
 40
42.985025191077426
 40
43.585454584330463
 40
44.06503058923127
 40
44.424546131529539
 40
44.784267335321893
 40
45.080900616478829
 40
45.316058726621776
 40
45.491130287236736
 40
45.666337827907626
 40
45.839043765320376
 40
46.009085093631782
 40
46.176172954359117
 40
46.342152236229936
 40
46.477562267658918
 40
46.585462709532301
 40
46.666236357163953
 40
46.746145635938966
 40
46.852729129827082
 40
46.98866499957515
 40
47.209034592944896
 40
47.487731398795717
 40
47.832216830443457
 40
48.179420320232765
 40
48.531119538364848
 40
48.883265646398741
 40
49.353212466299908
 40
49.941907553255781
 40
50.651971569619604
 40
51.363941336599559
 40
52.318471149467911
 40
53.515436752655113
 40
54.955990278436516
 40
56.396830521946455
 40
58.321833145958053
 40
60.732725210311763
 40
63.63427808699555
 40
66.537925936538329
 40
69.44760990795578
 40
72.36134269362671
 40
75.280037208626652
 40
78.199759644790305
 40
80.636198647196892
 40
82.586811765466308
 40
84.050511687006249
 40
85.514051522171002
 40
87.465416067164881
 40
89.904668072246508
 40
92.831756612657045
 40
92.831756612657045
 40
92.831756612657045
 10
271.31307014457281
 20
203.95949217829701
 30
0.0
 10
269.36797345581891
 20
203.961246022789
 30
0.0
 10
267.42246625907478
 20
203.98734816207701
 30
0.0
 10
264.50509310015877
 20
203.99484773190301
 30
0.0
 10
263.53283758065078
 20
203.99215276192501
 30
0.0
 10
261.5891429865689
 20
203.965794371323
 30
0.0
 10
260.61773657362892
 20
203.941291183309
 30
0.0
 10
257.70499402183879
 20
203.829921208565
 30
0.0
 10
255.76504392724479
 20
203.70750639758899
 30
0.0
 10
251.88856347884479
 20
203.37580327660899
 30
0.0
 10
249.94996748761881
 20
203.166272255883
 30
0.0
 10
246.09132019522281
 20
202.66820561773699
 30
0.0
 10
244.17014222546879
 20
202.37990460445701
 30
0.0
 10
240.3449100736768
 20
201.72371509496699
 30
0.0
 10
238.44064436704679
 20
201.356783399319
 30
0.0
 10
235.6013038171908
 20
200.72957807093101
 30
0.0
 10
234.65773365026081
 20
200.50755429031301
 30
0.0
 10
232.77877019446481
 20
200.026968949013
 30
0.0
 10
231.84242676864679
 20
199.76897455069499
 30
0.0
 10
230.45117901945281
 20
199.334257175793
 30
0.0
 10
229.99128764761679
 20
199.18175486146501
 30
0.0
 10
229.08349839017879
 20
198.85307715110099
 30
0.0
 10
228.6353375773428
 20
198.67742507268099
 30
0.0
 10
227.9797006471108
 20
198.38106850743699
 30
0.0
 10
227.76396393316281
 20
198.27672049146301
 30
0.0
 10
227.3414968475368
 20
198.05015845818701
 30
0.0
 10
227.1347776733968
 20
197.928112010815
 30
0.0
 10
226.84510442054079
 20
197.72600995600101
 30
0.0
 10
226.7517555284268
 20
197.65529688371299
 30
0.0
 10
226.57449407685681
 20
197.50402360434299
 30
0.0
 10
226.48985887690679
 20
197.422690900487
 30
0.0
 10
226.3408434506388
 20
197.25008493472899
 30
0.0
 10
226.27593784091081
 20
197.15874656312499
 30
0.0
 10
226.17680354323281
 20
196.95997090144701
 30
0.0
 10
226.14473104055881
 20
196.85492406907099
 30
0.0
 10
226.13296227425479
 20
196.69436864120701
 30
0.0
 10
226.1351656847628
 20
196.639598238373
 30
0.0
 10
226.1512469484168
 20
196.534084075951
 30
0.0
 10
226.1649455377688
 20
196.48279598057101
 30
0.0
 10
226.22070396938881
 20
196.33273955799501
 30
0.0
 10
226.27841794873279
 20
196.23699896174099
 30
0.0
 10
226.48077709693879
 20
195.97765774133899
 30
0.0
 10
226.65658657940679
 20
195.83178721537499
 30
0.0
 10
227.03542538396681
 20
195.56993783696299
 30
0.0
 10
227.23900933513079
 20
195.45481173475699
 30
0.0
 10
227.65803156148479
 20
195.242994004103
 30
0.0
 10
227.8723727347888
 20
195.14719639689901
 30
0.0
 10
228.5241836049928
 20
194.87824504975299
 30
0.0
 10
228.9702757975468
 20
194.723189585847
 30
0.0
 10
229.8740897298068
 20
194.43761605920099
 30
0.0
 10
230.3321088839368
 20
194.307717827799
 30
0.0
 10
231.7178023560588
 20
193.94264880562301
 30
0.0
 10
232.65539977151479
 20
193.732066421995
 30
0.0
 10
234.53682176287879
 20
193.34835232680101
 30
0.0
 10
235.48269704927881
 20
193.17556281289299
 30
0.0
 10
238.33117545637279
 20
192.69653145726099
 30
0.0
 10
240.2458663190948
 20
192.42888476005501
 30
0.0
 10
244.0876618325928
 20
191.96418073805299
 30
0.0
 10
246.01519967465879
 20
191.76798649777899
 30
0.0
 10
249.88289051969281
 20
191.436489634797
 30
0.0
 10
251.8237890881928
 20
191.30139377450499
 30
0.0
 10
255.7098346552888
 20
191.089936588185
 30
0.0
 10
257.65598469872691
 20
191.01350327847101
 30
0.0
 10
260.58038653664278
 20
190.94400156808101
 30
0.0
 10
261.5562656392089
 20
190.928727827335
 30
0.0
 10
263.50759740079081
 20
190.91226325318101
 30
0.0
 10
264.48327433230082
 20
190.91054235656901
 30
0.0
 10
267.41032154181892
 20
190.91502423011499
 30
0.0
 10
269.36170858723091
 20
190.93111309926499
 30
0.0
 10
271.31307014457281
 20
190.932192249601
 30
0.0
 11
271.31307014457281
 21
203.95949217829701
 31
0.0
 11
269.58894707704707
 21
203.96436699950615
 31
0.0
 11
268.30677125197758
 21
203.97548377414955
 31
0.0
 11
267.23831429247309
 21
203.98542376841078
 31
0.0
 11
265.80155339976534
 21
203.9915149753395
 31
0.0
 11
264.69029210127803
 21
203.993629484883
 31
0.0
 11
263.94942880502941
 21
203.99330750038655
 31
0.0
 11
263.39400090449993
 21
203.98914634045084
 31
0.0
 11
262.56089965166859
 21
203.97897233756669
 31
0.0
 11
261.7279896544826
 21
203.96646318734358
 31
0.0
 11
261.172772993124
 21
203.95529166916162
 31
0.0
 11
260.43287414413561
 21
203.93241749504878
 31
0.0
 11
259.32325043616066
 21
203.89179594441543
 31
0.0
 11
257.88919252619257
 21
203.83148437338559
 31
0.0
 11
256.82353162493189
 21
203.77429913199688
 31
0.0
 11
255.54535805797792
 21
203.68276327668298
 31
0.0
 11
253.82781275249027
 21
203.54174117955699
 31
0.0
 11
252.13105156942183
 21
203.39109640405343
 31
0.0
 11
250.91926656750752
 21
203.27103788343874
 31
0.0
 11
249.70966398158376
 21
203.13016694978165
 31
0.0
 11
248.01945438358985
 21
202.91708540392185
 31
0.0
 11
246.33300969620009
 21
202.69435840490419
 31
0.0
 11
245.12994401076492
 21
202.52393698022087
 31
0.0
 11
243.93179928194769
 21
202.3338651016978
 31
0.0
 11
242.2569686660882
 21
202.05171421765627
 31
0.0
 11
240.56317302368004
 21
201.75566349326169
 31
0.0
 11
239.30590328127823
 21
201.52350956545646
 31
0.0
 11
238.26258188609037
 21
201.31134770963055
 31
0.0
 11
236.86313552898969
 21
201.00831447442772
 31
0.0
 11
235.78198472849803
 21
200.76754889406058
 31
0.0
 11
235.06219575062084
 21
200.60272495995258
 31
0.0
 11
234.52405529740241
 21
200.4712933704001
 31
0.0
 11
233.7185581384671
 21
200.26733994102182
 31
0.0
 11
232.88611165329274
 21
200.05190204266489
 31
0.0
 11
232.26834808577419
 21
199.8863303316117
 31
0.0
 11
231.75563602076485
 21
199.73792288946476
 31
0.0
 11
231.0693424599915
 21
199.52741212485728
 31
0.0
 11
230.53989328874309
 21
199.36071748125352
 31
0.0
 11
230.18787265607503
 21
199.24694344857065
 31
0.0
 11
229.92683633222023
 21
199.15692243098925
 31
0.0
 11
229.53689737757247
 21
199.01723655245644
 31
0.0
 11
229.13562407985052
 21
198.87012085410973
 31
0.0
 11
228.83860216147201
 21
198.75709256178058
 31
0.0
 11
228.5950283260191
 21
198.65615205994231
 31
0.0
 11
228.27083598791887
 21
198.51266553262667
 31
0.0
 11
228.02165883768237
 21
198.39905794704424
 31
0.0
 11
227.85639806858887
 21
198.3214292406762
 31
0.0
 11
227.73427918156165
 21
198.25958552261602
 31
0.0
 11
227.55279079133217
 21
198.16347186686181
 31
0.0
 11
227.36599674010978
 21
198.06176463660131
 31
0.0
 11
227.2282024740332
 21
197.98326976316935
 31
0.0
 11
227.11773893257725
 21
197.9137183132658
 31
0.0
 11
226.97319790948217
 21
197.81537946826387
 31
0.0
 11
226.86375007377001
 21
197.73821852755111
 31
0.0
 11
226.79159354451639
 21
197.68547472993868
 31
0.0
 11
226.73956595272298
 21
197.64393952597629
 31
0.0
 11
226.66315920952195
 21
197.57968960654051
 31
0.0
 11
226.58600489093988
 21
197.51270041606426
 31
0.0
 11
226.53187220052388
 21
197.46306484903056
 31
0.0
 11
226.48159046879502
 21
197.41104090627351
 31
0.0
 11
226.41477192084255
 21
197.33571697508955
 31
0.0
 11
226.35114129013562
 21
197.25997562554042
 31
0.0
 11
226.30810633842231
 21
197.20401565761409
 31
0.0
 11
226.27154693332213
 21
197.14513417855932
 31
0.0
 11
226.22620571304461
 21
197.05902793037319
 31
0.0
 11
226.18473839248867
 21
196.97027247119166
 31
0.0
 11
226.15914077044451
 21
196.90212015149942
 31
0.0
 11
226.14669604966588
 21
196.8443845367604
 31
0.0
 11
226.13818134710141
 21
196.76556985740029
 31
0.0
 11
226.13458206845655
 21
196.70433831164411
 31
0.0
 11
226.13422237821538
 21
196.66304610676215
 31
0.0
 11
226.13695082941535
 21
196.63219998553558
 31
0.0
 11
226.14324956992041
 21
196.58655735863414
 31
0.0
 11
226.15071501239484
 21
196.54170835702308
 31
0.0
 11
226.15711658282527
 21
196.51210791755602
 31
0.0
 11
226.16911454021906
 21
196.47363709799691
 31
0.0
 11
226.18945050251338
 21
196.41684851328961
 31
0.0
 11
226.2183952895123
 21
196.34463517902918
 31
0.0
 11
226.24272271675827
 21
196.29621308683707
 31
0.0
 11
226.29183275303325
 21
196.22317357741719
 31
0.0
 11
226.36777239790919
 21
196.12248329934965
 31
0.0
 11
226.47218210710363
 21
195.99755523786953
 31
0.0
 11
226.55940183662776
 21
195.91242216945054
 31
0.0
 11
226.67945915884226
 21
195.81934340188195
 31
0.0
 11
226.84526163992768
 21
195.70137700732721
 31
0.0
 11
227.01316874629646
 21
195.58849943611497
 31
0.0
 11
227.13656257732447
 21
195.51274506320675
 31
0.0
 11
227.26574216794501
 21
195.44283466161838
 31
0.0
 11
227.44838742419395
 21
195.34897011375296
 31
0.0
 11
227.6285739571837
 21
195.25922922944167
 31
0.0
 11
227.7498452815712
 21
195.20195879580777
 31
0.0
 11
227.91407799597505
 21
195.13103912515032
 31
0.0
 11
228.16172123275143
 21
195.02780491099548
 31
0.0
 11
228.4841186262486
 21
194.89806432208948
 31
0.0
 11
228.72638606225735
 21
194.80796227785649
 31
0.0
 11
229.02212869852013
 21
194.70873390724111
 31
0.0
 11
229.42157713672952
 21
194.58059417941394
 31
0.0
 11
229.8098808543626
 21
194.4594866563321
 31
0.0
 11
230.06976682110735
 21
194.38212032751241
 31
0.0
 11
230.42021713405936
 21
194.28582693426756
 31
0.0
 11
230.94688394725648
 21
194.14575175395976
 31
0.0
 11
231.63144846158409
 21
193.96953278519618
 31
0.0
 11
232.14330518696221
 21
193.84708177557894
 31
0.0
 11
232.76253047255639
 21
193.71286077125285
 31
0.0
 11
233.59601716023383
 21
193.54022846544257
 31
0.0
 11
234.40284749888664
 21
193.3778295530872
 31
0.0
 11
234.94172930955528
 21
193.27438509330432
 31
0.0
 11
235.6636141081774
 21
193.14709962067269
 31
0.0
 11
236.74733302459666
 21
192.96288776360043
 31
0.0
 11
238.15244594719121
 21
192.73275469921103
 31
0.0
 11
239.20009985142269
 21
192.57506811872173
 31
0.0
 11
240.46447583862849
 21
192.40736355969003
 31
0.0
 11
242.16607086490157
 21
192.19661659992838
 31
0.0
 11
243.84795614483107
 21
191.9977908876358
 31
0.0
 11
245.05043004923706
 21
191.86618547450888
 31
0.0
 11
246.25713249047192
 21
191.75112794383392
 31
0.0
 11
247.947700563333
 21
191.60235330526882
 31
0.0
 11
249.64149895789359
 21
191.46108293587602
 31
0.0
 11
250.85251422885585
 21
191.36899916864132
 31
0.0
 11
252.06664054630943
 21
191.29186762843602
 31
0.0
 11
253.76646977999616
 21
191.19568379609268
 31
0.0
 11
255.48921219485894
 21
191.10595715962995
 31
0.0
 11
256.7707096888621
 21
191.04827166605713
 31
0.0
 11
257.84069751943412
 21
191.01254557675162
 31
0.0
 11
259.28011099142066
 21
190.97490408400733
 31
0.0
 11
260.39469873205968
 21
190.94954570705886
 31
0.0
 11
261.13791086353251
 21
190.93527560806598
 31
0.0
 11
261.69560675491539
 21
190.92830658819565
 31
0.0
 11
262.5319848777113
 21
190.9204950900465
 31
0.0
 11
263.3682317545705
 21
190.91413682943499
 31
0.0
 11
263.92574733898903
 21
190.91152572133137
 31
0.0
 11
264.66911662033738
 21
190.91128617845507
 31
0.0
 11
265.78417047775872
 21
190.91253427935095
 31
0.0
 11
267.22553287665107
 21
190.91623002773315
 31
0.0
 11
268.29731794520779
 21
190.92233737135172
 31
0.0
 11
269.58345131606063
 21
190.92918895487068
 31
0.0
 11
271.31307014457281
 21
190.932192249601
 31
0.0
  0
SPLINE
  5
18A
100
AcDbEntity
  8
0
  6
CONTINUOUS
 62
           7
100
AcDbSpline
210
0.0
220
0.0
230
1.0
 70
           0
 71
           3
 72
          13
 73
          10
 74
          17
 42
0.00000000001
 43
0.00000000001
 44
0.00000000001
 40
0.0
 40
0.0
 40
0.0
 40
0.4557770935869211
 40
0.9101681856456394
 40
1.3649847955688241
 40
1.8155406785715626
 40
2.2582196804255785
 40
2.6812382985740939
 40
3.095328532710206
 40
3.486448134677099
 40
3.486448134677099
 40
3.486448134677099
 10
271.31307014457281
 20
203.95949217829701
 30
0.0
 10
271.31308414153278
 20
203.65540486268901
 30
0.0
 10
271.31309784676682
 20
203.35202530768501
 30
0.0
 10
271.31312470721679
 20
202.74662267947701
 30
0.0
 10
271.31313795637283
 20
202.44239208872301
 30
0.0
 10
271.31316346264879
 20
201.84551091430501
 30
0.0
 10
271.31317554556881
 20
201.557034085813
 30
0.0
 10
271.31319843812082
 20
200.99947367873099
 30
0.0
 10
271.31320930713281
 20
200.72885361822901
 30
0.0
 10
271.31321934063078
 20
200.47304404681901
 30
0.0
 11
271.31307014457281
 21
203.95949217829701
 31
0.0
 11
271.31308235805585
 21
203.69344649902493
 31
0.0
 11
271.31309100458498
 21
203.50348409242463
 31
0.0
 11
271.31309949220622
 21
203.31425009211844
 31
0.0
 11
271.31311127070632
 21
203.04946566067915
 31
0.0
 11
271.31312301202757
 21
202.78412563544143
 31
0.0
 11
271.31313136297035
 21
202.59379152213259
 31
0.0
 11
271.31313952442218
 21
202.40497385993874
 31
0.0
 11
271.31315082197278
 21
202.14131974017639
 31
0.0
 11
271.31316184714581
 21
201.88258458733799
 31
0.0
 11
271.31316964131304
 21
201.69799678056569
 31
0.0
 11
271.31317696159465
 21
201.52183635943697
 31
0.0
 11
271.31318711392777
 21
201.27528048555604
 31
0.0
 11
271.31319700445727
 21
201.03363285829246
 31
0.0
 11
271.31320402765971
 21
200.86030359015191
 31
0.0
 11
271.31321049563905
 21
200.69776371835724
 31
0.0
 11
271.31321934063078
 21
200.47304404681901
 31
0.0
  0
SPLINE
  5
189
100
AcDbEntity
  8
0
  6
CONTINUOUS
 62
           7
100
AcDbSpline
210
0.0
220
0.0
230
1.0
 70
           0
 71
           3
 72
          13
 73
          10
 74
          17
 42
0.00000000001
 43
0.00000000001
 44
0.00000000001
 40
0.0
 40
0.0
 40
0.0
 40
0.4067643622609865
 40
0.8374181822049849
 40
1.2773575218499928
 40
1.7377436613680004
 40
2.2063217579549956
 40
2.6793310113899906
 40
3.1518977263899899
 40
3.6259058834939992
 40
3.6259058834939992
 40
3.6259058834939992
 10
271.51307014457291
 20
200.362254172337
 30
0.0
 10
271.51307014457291
 20
200.62829611100099
 30
0.0
 10
271.51307014457291
 20
200.90974095819499
 30
0.0
 10
271.51307014457291
 20
201.48960375088899
 30
0.0
 10
271.51307014457291
 20
201.789619637485
 30
0.0
 10
271.51307014457291
 20
202.410376029925
 30
0.0
 10
271.51307014457291
 20
202.72677583065899
 30
0.0
 10
271.51307014457291
 20
203.35639453679499
 30
0.0
 10
271.51307014457291
 20
203.67190926065899
 30
0.0
 10
271.51307014457291
 20
203.988160055831
 30
0.0
 11
271.51307014457291
 21
200.362254172337
 31
0.0
 11
271.51307014457291
 21
200.59596261705875
 31
0.0
 11
271.51307014457291
 21
200.76500407389602
 31
0.0
 11
271.51307014457291
 21
200.94526650303285
 31
0.0
 11
271.51307014457291
 21
201.19658002184553
 31
0.0
 11
271.51307014457291
 21
201.45299811734975
 31
0.0
 11
271.51307014457291
 21
201.63620494577549
 31
0.0
 11
271.51307014457291
 21
201.8281762556079
 31
0.0
 11
271.51307014457291
 21
202.09726080168616
 31
0.0
 11
271.51307014457291
 21
202.3714610738094
 31
0.0
 11
271.51307014457291
 21
202.56783143370137
 31
0.0
 11
271.51307014457285
 21
202.76577890312012
 31
0.0
 11
271.51307014457291
 21
203.04173251746118
 31
0.0
 11
271.51307014457291
 21
203.31710831430479
 31
0.0
 11
271.51307014457291
 21
203.5139116661681
 31
0.0
 11
271.51307014457291
 21
203.71147256082926
 31
0.0
 11
271.51307014457291
 21
203.988160055831
 31
0.0
  0
SPLINE
  5
188
100
AcDbEntity
  8
0
  6
CONTINUOUS
 62
           7
100
AcDbSpline
210
0.0
220
0.0
230
1.0
 70
           0
 71
           3
 72
          19
 73
          16
 74
          29
 42
0.00000000001
 43
0.00000000001
 44
0.00000000001
 40
0.0
 40
0.0
 40
0.0
 40
3.9475223346166297
 40
7.234828855120881
 40
9.8664204833978957
 40
11.840818569047943
 40
13.813367655155908
 40
15.784195289473306
 40
17.755054451750922
 40
19.727887102101825
 40
21.702610326206624
 40
23.675575370686026
 40
25.645985988738097
 40
27.615488318932478
 40
29.585800514759462
 40
31.561245066574909
 40
31.561245066574909
 40
31.561245066574909
 10
271.98693764975081
 20
191.31986115996901
 30
0.0
 10
274.61387311449278
 20
191.49660039250699
 30
0.0
 10
277.22849398896687
 20
191.774010334873
 30
0.0
 10
281.12798619202488
 20
192.37358135247899
 30
0.0
 10
282.42548528382281
 20
192.60438005075099
 30
0.0
 10
285.00308539377488
 20
193.131417968563
 30
0.0
 10
286.28341502052081
 20
193.42771970108899
 30
0.0
 10
288.82673294815078
 20
194.087432510859
 30
0.0
 10
290.08973100485878
 20
194.45080603046301
 30
0.0
 10
292.59759725588083
 20
195.24770676061499
 30
0.0
 10
293.84226074975481
 20
195.68126194317901
 30
0.0
 10
296.29747951830092
 20
196.618198940441
 30
0.0
 10
297.50978170876891
 20
197.12222249488701
 30
0.0
 10
299.90099101249689
 20
198.20782089296901
 30
0.0
 10
301.08013056517092
 20
198.78885616376701
 30
0.0
 10
302.23880760572888
 20
199.417404805769
 30
0.0
 11
271.98693764975081
 21
191.31986115996901
 31
0.0
 11
274.31379157917883
 21
191.49025621492729
 31
0.0
 11
276.04048243797882
 21
191.64796291472607
 31
0.0
 11
277.47292743884327
 21
191.82574766178442
 31
0.0
 11
279.39423933946046
 21
192.10700706266556
 31
0.0
 11
280.87987814653951
 21
192.33990398055542
 31
0.0
 11
281.86930086264783
 21
192.50544615459813
 31
0.0
 11
282.60879013112577
 21
192.64555717867361
 31
0.0
 11
283.71488909420975
 21
192.8680224585944
 31
0.0
 11
284.84114738702436
 21
193.10262297617643
 31
0.0
 11
285.64352966633788
 21
193.27963350898526
 31
0.0
 11
286.44135588005724
 21
193.47316159468727
 31
0.0
 11
287.55506381284954
 21
193.75757346758587
 31
0.0
 11
288.66661141829582
 21
194.05036671023251
 31
0.0
 11
289.45791596403217
 21
194.2690283516261
 31
0.0
 11
290.24511039179924
 21
194.50492649530082
 31
0.0
 11
291.34306359344731
 21
194.8490655686511
 31
0.0
 11
292.43961606888865
 21
195.20226499697191
 31
0.0
 11
293.22020617034559
 21
195.4645808980066
 31
0.0
 11
293.99384825512499
 21
195.74428467227492
 31
0.0
 11
295.07066535064479
 21
196.1500339047351
 31
0.0
 11
296.14234868495703
 21
196.56417515020445
 31
0.0
 11
296.90377035258166
 21
196.87026881520075
 31
0.0
 11
297.65711859076544
 21
197.1949059803658
 31
0.0
 11
298.7051405929422
 21
197.66491011648856
 31
0.0
 11
299.74922913422444
 21
198.14462813659833
 31
0.0
 11
300.48979391896182
 21
198.49796064396682
 31
0.0
 11
301.22221566375816
 21
198.87326944431743
 31
0.0
 11
302.23880760572888
 21
199.417404805769
 31
0.0
  0
SPLINE
  5
187
100
AcDbEntity
  8
0
  6
CONTINUOUS
 62
           7
100
AcDbSpline
210
0.0
220
0.0
230
1.0
 70
           0
 71
           3
 72
          33
 73
          30
 74
          57
 42
0.00000000001
 43
0.00000000001
 44
0.00000000001
 40
0.0
 40
0.0
 40
0.0
 40
0.5336587506639383
 40
0.9770612024687424
 40
1.3317593313403289
 40
1.5957820447270183
 40
1.8590563710898405
 40
2.0748452149102894
 40
2.2454137826315383
 40
2.3709354790599213
 40
2.4954626354332392
 40
2.6575772518727092
 40
2.8608738839792838
 40
3.103813565818125
 40
3.3454601702307718
 40
3.5900022494212167
 40
3.8345030261306206
 40
4.1622690030398104
 40
4.5769760180061123
 40
5.0802018974986165
 40
5.5824378319422117
 40
6.253548603542507
 40
7.0950030289144834
 40
8.1115386711736424
 40
9.1317885581014551
 40
10.156440305610996
 40
11.181325413250152
 40
12.549425715912394
 40
14.261391333053872
 40
16.321108651918035
 40
16.321108651918035
 40
16.321108651918035
 10
302.23880760572888
 20
199.417404805769
 30
0.0
 10
302.55194948658288
 20
199.58727518126901
 30
0.0
 10
302.85524207624093
 20
199.771420838339
 30
0.0
 10
303.27830642394878
 20
200.093951947221
 30
0.0
 10
303.41331317159279
 20
200.20904912113301
 30
0.0
 10
303.65742442694489
 20
200.46075360664301
 30
0.0
 10
303.76740879233893
 20
200.59804445395301
 30
0.0
 10
303.88709815609292
 20
200.82396248296101
 30
0.0
 10
303.91928580045078
 20
200.90314248324299
 30
0.0
 10
303.96032546485878
 20
201.063546745217
 30
0.0
 10
303.96930004993487
 20
201.14654618850901
 30
0.0
 10
303.95642968305083
 20
201.38694791159901
 30
0.0
 10
303.89324371677287
 20
201.540286914755
 30
0.0
 10
303.70797189943278
 20
201.80123690252501
 30
0.0
 10
303.58831017319278
 20
201.912301128363
 30
0.0
 10
303.32802703832681
 20
202.10829435953701
 30
0.0
 10
303.18824832273287
 20
202.19249136733501
 30
0.0
 10
302.7525424657648
 20
202.42177791702099
 30
0.0
 10
302.43855856342282
 20
202.54435012592899
 30
0.0
 10
301.80352610319278
 20
202.75605350219499
 30
0.0
 10
301.48049991236093
 20
202.845121742901
 30
0.0
 10
300.50185062494279
 20
203.08298359869499
 30
0.0
 10
299.83679623728688
 20
203.20283789906699
 30
0.0
 10
298.49435997997892
 20
203.40318034874699
 30
0.0
 10
297.8157985755148
 20
203.48262759835899
 30
0.0
 10
296.4559347868589
 20
203.613083810029
 30
0.0
 10
295.77416668426679
 20
203.66395266593901
 30
0.0
 10
293.72511620863679
 20
203.78354322996501
 30
0.0
 10
292.35420061603878
 20
203.81975790276701
 30
0.0
 10
290.98018320312678
 20
203.82262241442101
 30
0.0
 11
302.23880760572888
 21
199.417404805769
 31
0.0
 11
302.51507768218517
 21
199.56995210777919
 31
0.0
 11
302.71760414984612
 21
199.68785326280971
 31
0.0
 11
302.87959328646065
 21
199.79532626948193
 31
0.0
 11
303.0902848435145
 21
199.95061013843997
 31
0.0
 11
303.25065007832416
 21
200.07461212174329
 31
0.0
 11
303.35570262188446
 21
200.15993445409111
 31
0.0
 11
303.42946774914498
 21
200.22827817024529
 31
0.0
 11
303.53554203150998
 21
200.33507998462414
 31
0.0
 11
303.64206460131595
 21
200.44819761719896
 31
0.0
 11
303.71786751986406
 21
200.53620327088561
 31
0.0
 11
303.77173573898506
 21
200.61412916600892
 31
0.0
 11
303.83425785139804
 21
200.72422448524395
 31
0.0
 11
303.87852365989363
 21
200.81043127914418
 31
0.0
 11
303.90564047599054
 21
200.86957566541079
 31
0.0
 11
303.92102483119464
 21
200.91488106017968
 31
0.0
 11
303.93988724788642
 21
200.98366360882196
 31
0.0
 11
303.95619062859578
 21
201.05259042240237
 31
0.0
 11
303.9642243367789
 21
201.09960459035347
 31
0.0
 11
303.96660363781831
 21
201.16147433127023
 31
0.0
 11
303.96359011462459
 21
201.25320035770932
 31
0.0
 11
303.95102321497137
 21
201.37097559399297
 31
0.0
 11
303.92764337915924
 21
201.45680619506447
 31
0.0
 11
303.87862285743455
 21
201.5521225236688
 31
0.0
 11
303.80036061703333
 21
201.67111007010072
 31
0.0
 11
303.71620044305467
 21
201.7825055429002
 31
0.0
 11
303.64849735631969
 21
201.85643829645005
 31
0.0
 11
303.57081882931533
 21
201.92283664337592
 31
0.0
 11
303.45815761455617
 21
202.01030602032768
 31
0.0
 11
303.34562958015732
 21
202.09279056050266
 31
0.0
 11
303.2683066294195
 21
202.1442675026089
 31
0.0
 11
303.16017712476463
 21
202.20574013640052
 31
0.0
 11
302.99590522417321
 21
202.29371030832317
 31
0.0
 11
302.77791996201319
 21
202.40360504287432
 31
0.0
 11
302.61068969234992
 21
202.47715402913212
 31
0.0
 11
302.40213413408372
 21
202.55404007829668
 31
0.0
 11
302.12072971713917
 21
202.65030603219651
 31
0.0
 11
301.84826020729128
 21
202.73914776280733
 31
0.0
 11
301.66525890564026
 21
202.79417801464285
 31
0.0
 11
301.41813531873902
 21
202.85877007081677
 31
0.0
 11
301.04628254459396
 21
202.95065878282213
 31
0.0
 11
300.56266044162061
 21
203.06347242575183
 31
0.0
 11
300.20065797200272
 21
203.13726372279513
 31
0.0
 11
299.76026314406408
 21
203.21144149360774
 31
0.0
 11
299.16680212967987
 21
203.30282645350184
 31
0.0
 11
298.57783292597685
 21
203.38800140384268
 31
0.0
 11
298.15580961426974
 21
203.4428184643748
 31
0.0
 11
297.73083771587153
 21
203.48898048460475
 31
0.0
 11
297.135944098187
 21
203.54784827732624
 31
0.0
 11
296.5529389705942
 21
203.6022215472799
 31
0.0
 11
296.16394221047204
 21
203.63487029173524
 31
0.0
 11
295.64407431749828
 21
203.66996197378461
 31
0.0
 11
294.86402169098744
 21
203.71707227152524
 31
0.0
 11
293.85427804753181
 21
203.77103494730866
 31
0.0
 11
293.10285808186632
 21
203.79998105777952
 31
0.0
 11
292.19786062926767
 21
203.81552981943366
 31
0.0
 11
290.98018320312678
 21
203.82262241442101
 31
0.0
  0
SPLINE
  5
186
100
AcDbEntity
  8
0
  6
CONTINUOUS
 62
           7
100
AcDbSpline
210
0.0
220
0.0
230
1.0
 70
           0
 71
           3
 72
           9
 73
           6
 74
           9
 42
0.00000000001
 43
0.00000000001
 44
0.00000000001
 40
0.0
 40
0.0
 40
0.0
 40
4.7535505148122912
 40
9.5148001135567455
 40
14.279839822074589
 40
19.054391099653824
 40
19.054391099653824
 40
19.054391099653824
 10
290.98018320312678
 20
203.82262241442101
 30
0.0
 10
287.81244815131078
 20
203.82922641658499
 30
0.0
 10
284.6408329091069
 20
203.82574023639299
 30
0.0
 10
278.28998488591287
 20
203.804954097549
 30
0.0
 10
275.11083390050891
 20
203.78777915882301
 30
0.0
 10
271.92595538726681
 20
203.76605709005901
 30
0.0
 11
290.98018320312678
 21
203.82262241442101
 31
0.0
 11
288.20825080569102
 21
203.82713999613372
 31
0.0
 11
286.22792371701564
 21
203.82748473694392
 31
0.0
 11
284.24406545009327
 21
203.8235791279165
 31
0.0
 11
281.46667226514364
 21
203.81535130193612
 31
0.0
 11
278.68715908409973
 21
203.80540867186608
 31
0.0
 11
276.70199429942954
 21
203.79637519043024
 31
0.0
 11
274.71240437192853
 21
203.78449764953379
 31
0.0
 11
271.92595538726681
 21
203.76605709005901
 31
0.0
  0
SPLINE
  5
185
100
AcDbEntity
  8
0
  6
CONTINUOUS
 62
           7
100
AcDbSpline
210
0.0
220
0.0
230
1.0
 70
           0
 71
           3
 72
          37
 73
          34
 74
          65
 42
0.00000000001
 43
0.00000000001
 44
0.00000000001
 40
0.0
 40
0.0
 40
0.0
 40
0.1401772536506293
 40
0.281296360752388
 40
0.5148978774117512
 40
0.794073821014772
 40
1.2102977270913975
 40
1.6705311086726486
 40
2.216834481451361
 40
2.7600029509355961
 40
3.296833017816557
 40
3.8310976865797919
 40
4.5248152274313913
 40
5.3673554280802822
 40
6.3107294596011183
 40
7.2202905215720588
 40
8.0369771158414949
 40
8.7962362823316891
 40
9.3424072721243387
 40
9.7504240083391842
 40
10.022833408820279
 40
10.356889552298139
 40
10.640509758816103
 40
10.87382221569127
 40
11.027815159085566
 40
11.147053585082491
 40
11.248032520561631
 40
11.303188033948652
 40
11.337756097396513
 40
11.351654557670409
 40
11.360369006338271
 40
11.364465266020138
 40
11.367410723340797
 40
11.368072253044877
 40
11.368072253044877
 40
11.368072253044877
 10
306.03221665437678
 20
206.542671773385
 30
0.0
 10
306.0347800090189
 20
206.45008685266299
 30
0.0
 10
306.03742408170888
 20
206.35500990207501
 30
0.0
 10
306.04265093471491
 20
206.16795841069299
 30
0.0
 10
306.05051123581092
 20
205.88799020246501
 30
0.0
 10
306.05843706498291
 20
205.609829738755
 30
0.0
 10
306.07438840193078
 20
205.05588490453701
 30
0.0
 10
306.08515615856879
 20
204.68975089655299
 30
0.0
 10
306.10700745029681
 20
203.96376523532501
 30
0.0
 10
306.11809089221077
 20
203.60391337650299
 30
0.0
 10
306.14060296480892
 20
202.89063091211699
 30
0.0
 10
306.15207645772279
 20
202.53592471989299
 30
0.0
 10
306.18628756709688
 20
201.50394825687701
 30
0.0
 10
306.20903279719278
 20
200.85180776139299
 30
0.0
 10
306.25404957114881
 20
199.61841797221501
 30
0.0
 10
306.27646830520092
 20
199.03393668006299
 30
0.0
 10
306.31828499033878
 20
197.98630881591299
 30
0.0
 10
306.33790750830281
 20
197.51666233379899
 30
0.0
 10
306.36475911040492
 20
196.894956178981
 30
0.0
 10
306.37328720299888
 20
196.701396233297
 30
0.0
 10
306.38899259052693
 20
196.35067662849701
 30
0.0
 10
306.40344891263283
 20
196.03396517589499
 30
0.0
 10
306.41525470861689
 20
195.78404466074701
 30
0.0
 10
306.42562839268078
 20
195.56786770693299
 30
0.0
 10
306.43011104835279
 20
195.476417329887
 30
0.0
 10
306.4374466048269
 20
195.32968389960701
 30
0.0
 10
306.44028275477677
 20
195.274715824353
 30
0.0
 10
306.44325042682487
 20
195.21952572260699
 30
0.0
 10
306.44402495917279
 20
195.20568107692699
 30
0.0
 10
306.44485733488278
 20
195.19177534064301
 30
0.0
 10
306.44507987174092
 20
195.188284155009
 30
0.0
 10
306.44541364865478
 20
195.183601787985
 30
0.0
 10
306.44552567758888
 20
195.18241037721299
 30
0.0
 10
306.44557967560678
 20
195.182377543971
 30
0.0
 11
306.03221665437678
 21
206.542671773385
 31
0.0
 11
306.03446857281415
 21
206.46138825681797
 31
0.0
 11
306.03609761884201
 21
206.4027075485609
 31
0.0
 11
306.03758457183204
 21
206.3493235006186
 31
0.0
 11
306.03939250506858
 21
206.28456664976363
 31
0.0
 11
306.04273153935907
 21
206.16522480702633
 31
0.0
 11
306.04623178293798
 21
206.04041575695584
 31
0.0
 11
306.05023685048894
 21
205.89817894415228
 31
0.0
 11
306.05369314739596
 21
205.77631961472321
 31
0.0
 11
306.05914488231338
 21
205.58568600159643
 31
0.0
 11
306.06601225189172
 21
205.34676491415263
 31
0.0
 11
306.07352523876023
 21
205.08675171780587
 31
0.0
 11
306.07931189928752
 21
204.88847214799685
 31
0.0
 11
306.08643436472079
 21
204.64842187811863
 31
0.0
 11
306.09611324245799
 21
204.32571357137161
 31
0.0
 11
306.10567745952682
 21
204.00900684519573
 31
0.0
 11
306.11258169505578
 21
203.78278333876131
 31
0.0
 11
306.11953434188013
 21
203.55925700957422
 31
0.0
 11
306.12937388804323
 21
203.24641794652962
 31
0.0
 11
306.13904365382149
 21
202.94099669926692
 31
0.0
 11
306.14559479762471
 21
202.73630702630413
 31
0.0
 11
306.15431816264459
 21
202.46951963472515
 31
0.0
 11
306.16752493750823
 21
202.0699220728105
 31
0.0
 11
306.18427953722789
 21
201.56852668128909
 31
0.0
 11
306.19701807720958
 21
201.19628813859191
 31
0.0
 11
306.21175889905527
 21
200.78094071918423
 31
0.0
 11
306.23195192462583
 21
200.22385921535903
 31
0.0
 11
306.25147827106593
 21
199.69278738559558
 31
0.0
 11
306.26586201734028
 21
199.31045438259326
 31
0.0
 11
306.27923429376028
 21
198.96734068072567
 31
0.0
 11
306.29813854729889
 21
198.49103498018343
 31
0.0
 11
306.31610157255932
 21
198.04420187083701
 31
0.0
 11
306.32969776226082
 21
197.71315487133867
 31
0.0
 11
306.33969749338763
 21
197.47682030528094
 31
0.0
 11
306.3532771946841
 21
197.16080168218707
 31
0.0
 11
306.36316709665948
 21
196.93240055608101
 31
0.0
 11
306.36987297114405
 21
196.77888818417497
 31
0.0
 11
306.3741972634482
 21
196.68138556672972
 31
0.0
 11
306.38034167665114
 21
196.54386161614983
 31
0.0
 11
306.38878445494942
 21
196.35615133689242
 31
0.0
 11
306.39681096209256
 21
196.17939047442582
 31
0.0
 11
306.40340876661236
 21
196.03604116135642
 31
0.0
 11
306.40992627909122
 21
195.89684381920981
 31
0.0
 11
306.41548487593786
 21
195.77968824524717
 31
0.0
 11
306.42150380742652
 21
195.65381984028477
 31
0.0
 11
306.42522885149981
 21
195.57647040359893
 31
0.0
 11
306.42815481321105
 21
195.51632636024496
 31
0.0
 11
306.43061496328426
 21
195.46653209440325
 31
0.0
 11
306.43408294322029
 21
195.39696735759395
 31
0.0
 11
306.43706425479132
 21
195.33761720315098
 31
0.0
 11
306.43928086629114
 21
195.294133655796
 31
0.0
 11
306.44048835975667
 21
195.27108856953834
 31
0.0
 11
306.44210706318211
 21
195.24078897365149
 31
0.0
 11
306.44310269197837
 21
195.2223729108747
 31
0.0
 11
306.44380285108167
 21
195.20965122463338
 31
0.0
 11
306.44409733189048
 21
195.2045369103912
 31
0.0
 11
306.44453655813459
 21
195.19713426307743
 31
0.0
 11
306.4448149857152
 21
195.19252135392611
 31
0.0
 11
306.44500871496064
 21
195.18940047134092
 31
0.0
 11
306.44511062315439
 21
195.18788228542388
 31
0.0
 11
306.44527403417521
 21
195.18556036033658
 31
0.0
 11
306.44540161567744
 21
195.18384820524784
 31
0.0
 11
306.4455051312251
 21
195.18262888468473
 31
0.0
 11
306.44553404050242
 21
195.18245679577043
 31
0.0
 11
306.44557967560678
 21
195.182377543971
 31
0.0
  0
SPLINE
  5
184
100
AcDbEntity
  8
0
  6
CONTINUOUS
 62
           7
100
AcDbSpline
210
0.0
220
0.0
230
1.0
 70
           0
 71
           3
 72
          12
 73
           9
 74
          15
 42
0.00000000001
 43
0.00000000001
 44
0.00000000001
 40
0.0
 40
0.0
 40
0.0
 40
3.9318269459340658
 40
8.9821341097564602
 40
15.149726557563726
 40
21.396862433851513
 40
27.364859787488538
 40
32.014876583597179
 40
35.344946105421158
 40
35.344946105421158
 40
35.344946105421158
 10
272.00686175219681
 20
188.33134845618301
 30
0.0
 10
273.93225760136681
 20
188.35525752526701
 30
0.0
 10
277.94196868507481
 20
188.50657632355299
 30
0.0
 10
284.00114633481093
 20
189.09878158412701
 30
0.0
 10
290.16073570029079
 20
190.14097422729901
 30
0.0
 10
296.23220599376282
 20
191.61201302089901
 30
0.0
 10
301.65354715634891
 20
193.336012672219
 30
0.0
 10
305.03111973432681
 20
194.61373980922301
 30
0.0
 10
306.44557967560678
 20
195.182377543971
 30
0.0
 11
272.00686175219681
 21
188.33134845618301
 31
0.0
 11
273.88970998326738
 21
188.36583977829642
 31
0.0
 11
275.68746297813902
 21
188.4214956064688
 31
0.0
 11
278.06030388553376
 21
188.55195896195445
 31
0.0
 11
280.66981519384649
 21
188.77318759424307
 31
0.0
 11
283.93332901870406
 21
189.146822477261
 31
0.0
 11
287.06120821134795
 21
189.61653914654684
 31
0.0
 11
290.16213066389111
 21
190.19794730300515
 31
0.0
 11
293.26584304363473
 21
190.89330161087565
 31
0.0
 11
296.25239964583466
 21
191.67458445370315
 31
0.0
 11
299.27934355217837
 21
192.58101016213897
 31
0.0
 11
301.55202630961719
 21
193.33339576591456
 31
0.0
 11
303.62166737359257
 21
194.08054755708119
 31
0.0
 11
305.03237162946323
 21
194.62260117987455
 31
0.0
 11
306.44557967560678
 21
195.182377543971
 31
0.0
  0
SPLINE
  5
183
100
AcDbEntity
  8
0
  6
CONTINUOUS
 62
           7
100
AcDbSpline
210
0.0
220
0.0
230
1.0
 70
           0
 71
           3
 72
          19
 73
          16
 74
          29
 42
0.00000000001
 43
0.00000000001
 44
0.00000000001
 40
0.0
 40
0.0
 40
0.0
 40
0.0000300000000034
 40
0.0000500000000009
 40
0.7553881744566211
 40
2.2660445387102031
 40
3.7767008813637259
 40
5.2874405897354961
 40
6.7982636909728118
 40
8.3090867795507748
 40
10.49102279705906
 40
13.344071849818764
 40
16.197120967738957
 40
17.623655507550886
 40
17.623675507550935
 40
17.623705507551989
 40
17.623705507551989
 40
17.623705507551989
 10
306.02680177811283
 20
224.166375944941
 30
0.0
 10
306.02680177857678
 20
224.16635594494099
 30
0.0
 10
306.02680177904091
 20
224.16633594494101
 30
0.0
 10
306.02680177950691
 20
224.166315944941
 30
0.0
 10
306.0268368552928
 20
222.65565959643499
 30
0.0
 10
306.02718394558281
 20
221.145003256715
 30
0.0
 10
306.02768821047289
 20
219.63434703516501
 30
0.0
 10
306.02819253104281
 20
218.12352400830699
 30
0.0
 10
306.02885443373088
 20
216.61270106185501
 30
0.0
 10
306.02951794025478
 20
215.10187812183901
 30
0.0
 10
306.03077091064688
 20
212.24882944766699
 30
0.0
 10
306.03203134514291
 20
209.39578056987301
 30
0.0
 10
306.03221460737478
 20
206.542731496133
 30
0.0
 10
306.03221460865882
 20
206.54271149613501
 30
0.0
 10
306.0322146099428
 20
206.54269149613299
 30
0.0
 10
306.03221461122678
 20
206.54267149613301
 30
0.0
 11
306.02680177811283
 21
224.166375944941
 31
0.0
 11
306.0268017785304
 21
224.16635794494101
 31
0.0
 11
306.02680177885526
 21
224.16634394494099
 31
0.0
 11
306.02680177899447
 21
224.16633794480865
 31
0.0
 11
306.02680177904091
 21
224.16633594441146
 31
0.0
 11
306.02680470239835
 21
224.0404318055125
 31
0.0
 11
306.02681347153867
 21
223.66275938775647
 31
0.0
 11
306.02687439564079
 21
222.71860250045037
 31
0.0
 11
306.02701040043905
 21
221.900331421175
 31
0.0
 11
306.02720359066893
 21
221.14500848034947
 31
0.0
 11
306.02743607107107
 21
220.38969598679284
 31
0.0
 11
306.02768821395381
 21
219.6343366069124
 31
0.0
 11
306.02794036379839
 21
218.87895637052674
 31
0.0
 11
306.02821222706808
 21
218.12352922976424
 31
0.0
 11
306.02852348238821
 21
217.36811253191615
 31
0.0
 11
306.02883956120587
 21
216.6470227160583
 31
0.0
 11
306.0291258949735
 21
215.9945762086071
 31
0.0
 11
306.02955567418445
 21
215.01595690764492
 31
0.0
 11
306.03006092125457
 21
213.86549517829457
 31
0.0
 11
306.03075096760904
 21
212.29636477467216
 31
0.0
 11
306.0314011278877
 21
210.82230502506013
 31
0.0
 11
306.03190433446315
 21
209.27690461369403
 31
0.0
 11
306.03215351967924
 21
207.49375228997008
 31
0.0
 11
306.03219933577191
 21
206.78048169466291
 31
0.0
 11
306.03221460865882
 21
206.54271149641539
 31
0.0
 11
306.03221460878723
 21
206.54270949620496
 31
0.0
 11
306.0322146091724
 21
206.54270349613435
 31
0.0
 11
306.03221461007115
 21
206.54268949613333
 31
0.0
 11
306.03221461122678
 21
206.54267149613301
 31
0.0
  0
SPLINE
  5
182
100
AcDbEntity
  8
0
  6
CONTINUOUS
 62
           7
100
AcDbSpline
210
0.0
220
0.0
230
1.0
 70
           0
 71
           3
 72
           7
 73
           4
 74
           5
 42
0.00000000001
 43
0.00000000001
 44
0.00000000001
 40
0.0
 40
0.0
 40
0.0
 40
8.81050828228976
 40
17.627461973738743
 40
17.627461973738743
 40
17.627461973738743
 10
271.91846832235882
 20
241.39591902089899
 30
0.0
 10
277.79011954038481
 20
241.38496029883501
 30
0.0
 10
283.66780421517677
 20
241.37467410195501
 30
0.0
 10
289.54590074431491
 20
241.363656929981
 30
0.0
 11
271.91846832235882
 21
241.39591902089899
 31
0.0
 11
277.05664867631606
 21
241.38641467487921
 31
0.0
 11
280.72788730213585
 21
241.37981908094787
 31
0.0
 11
284.40234911920106
 21
241.37320605370974
 31
0.0
 11
289.54590074431491
 21
241.363656929981
 31
0.0
  0
SPLINE
  5
181
100
AcDbEntity
  8
0
  6
CONTINUOUS
 62
           7
100
AcDbSpline
210
0.0
220
0.0
230
1.0
 70
           0
 71
           3
 72
          13
 73
          10
 74
          17
 42
0.00000000001
 43
0.00000000001
 44
0.00000000001
 40
0.0
 40
0.0
 40
0.0
 40
2.0663399162939413
 40
4.1315407511889237
 40
6.1969244124306222
 40
8.2628628528563119
 40
10.328028183518708
 40
12.39115503376553
 40
14.454325136613789
 40
16.523816029593284
 40
16.523816029593284
 40
16.523816029593284
 10
289.54590074431491
 20
241.363656929981
 30
0.0
 10
290.92372915048281
 20
241.36107450003499
 30
0.0
 10
292.30057010260492
 20
241.38316659831301
 30
0.0
 10
295.05223948392688
 20
241.480306998511
 30
0.0
 10
296.42758283325492
 20
241.55525294050099
 30
0.0
 10
299.17378166830491
 20
241.768850483389
 30
0.0
 10
300.54268362083093
 20
241.90682360530499
 30
0.0
 10
303.26880659775088
 20
242.27157306417101
 30
0.0
 10
304.6264297465508
 20
242.49523925640901
 30
0.0
 10
305.97314791444887
 20
242.803414684957
 30
0.0
 11
289.54590074431491
 21
241.363656929981
 31
0.0
 11
290.75142461798788
 21
241.36448238116566
 31
0.0
 11
291.61233942667081
 21
241.37212359461151
 31
0.0
 11
292.47245588211979
 21
241.39254785996351
 31
0.0
 11
293.6763438965985
 21
241.43173464861644
 31
0.0
 11
294.88016041957189
 21
241.47753089576119
 31
0.0
 11
295.73981881383509
 21
241.51777493740639
 31
0.0
 11
296.59898092448418
 21
241.57258812926585
 31
0.0
 11
297.8009392175918
 21
241.66207169865498
 31
0.0
 11
299.00176829225308
 21
241.75941094354241
 31
0.0
 11
299.85857061481067
 21
241.83787110873664
 31
0.0
 11
300.71241716947577
 21
241.93517868559982
 31
0.0
 11
301.90573082143038
 21
242.08919642305264
 31
0.0
 11
303.09748099141166
 21
242.25389441651808
 31
0.0
 11
303.94657994871443
 21
242.38323511467775
 31
0.0
 11
304.79314683906625
 21
242.54428207811321
 31
0.0
 11
305.97314791444887
 21
242.803414684957
 31
0.0
  0
SPLINE
  5
180
100
AcDbEntity
  8
0
  6
CONTINUOUS
 62
           7
100
AcDbSpline
210
0.0
220
0.0
230
1.0
 70
           0
 71
           3
 72
          19
 73
          16
 74
          29
 42
0.00000000001
 43
0.00000000001
 44
0.00000000001
 40
0.0
 40
0.0
 40
0.0
 40
0.9089310996216641
 40
1.5148857342653597
 40
2.7522259673261837
 40
4.6209540409110659
 40
6.4896847613034714
 40
8.3584026656046788
 40
10.22710908303771
 40
12.095817096468835
 40
13.964654821275312
 40
15.833623892929616
 40
17.702593694974603
 40
18.63708813291116
 40
18.637108132911237
 40
18.637138132911367
 40
18.637138132911367
 40
18.637138132911367
 10
305.97314791444887
 20
242.803414684957
 30
0.0
 10
305.9764868476168
 20
242.197470022331
 30
0.0
 10
305.97962296149677
 20
241.59152366222699
 30
0.0
 10
305.98258978652478
 20
240.98557613157101
 30
0.0
 10
305.99173928439882
 20
239.11687285774499
 30
0.0
 10
305.99933774539892
 20
237.24815783118501
 30
0.0
 10
306.00571541851679
 20
235.379437748117
 30
0.0
 10
306.01209300247888
 20
233.51074378844899
 30
0.0
 10
306.01722421256892
 20
231.64204284091301
 30
0.0
 10
306.02086512773678
 20
229.773338353301
 30
0.0
 10
306.02450654827283
 20
227.90437448561099
 30
0.0
 10
306.02662630103492
 20
226.03540495948701
 30
0.0
 10
306.02680352934487
 20
224.16643609201699
 30
0.0
 10
306.02680353124077
 20
224.16641609201699
 30
0.0
 10
306.02680353313679
 20
224.16639609201701
 30
0.0
 10
306.02680353503291
 20
224.166376092017
 30
0.0
 11
305.97314791444887
 21
242.803414684957
 31
0.0
 11
305.97612253123037
 21
242.25806426806523
 31
0.0
 11
305.97836851523897
 21
241.83390234264184
 31
0.0
 11
305.97955317437504
 21
241.60231936622586
 31
0.0
 11
305.98059825926782
 21
241.39232779780781
 31
0.0
 11
305.98300310825744
 21
240.90115885692992
 31
0.0
 11
305.98623460071246
 21
240.24115536676999
 31
0.0
 11
305.99131292042966
 21
239.16435427210547
 31
0.0
 11
305.99553851220833
 21
238.18251600616179
 31
0.0
 11
305.99918514897473
 21
237.24815656354181
 31
0.0
 11
306.00252659289265
 21
236.31379458563546
 31
0.0
 11
306.00571541255613
 21
235.37943949461584
 31
0.0
 11
306.00890422029852
 21
234.44508789659392
 31
0.0
 11
306.01193720792116
 21
233.51074229679276
 31
0.0
 11
306.01465860642827
 21
232.57639371367918
 31
0.0
 11
306.01703790963506
 21
231.6420506048174
 31
0.0
 11
306.01904460697392
 21
230.70772302376426
 31
0.0
 11
306.02086515911805
 21
229.77332224689914
 31
0.0
 11
306.02268577402492
 21
228.83888925723039
 31
0.0
 11
306.02431632375431
 21
227.90438203339977
 31
0.0
 11
306.02556642444677
 21
226.96988990514666
 31
0.0
 11
306.02639086983908
 21
225.95753244430992
 31
0.0
 11
306.02674445283964
 21
224.78942995311894
 31
0.0
 11
306.02678876069251
 21
224.32217955739944
 31
0.0
 11
306.02680353124072
 21
224.16641609244505
 31
0.0
 11
306.02680353143035
 21
224.166414092124
 31
0.0
 11
306.02680353199918
 21
224.16640809201698
 31
0.0
 11
306.02680353332642
 21
224.16639409201701
 31
0.0
 11
306.02680353503291
 21
224.166376092017
 31
0.0
  0
SPLINE
  5
17F
100
AcDbEntity
  8
0
  6
CONTINUOUS
 62
           7
100
AcDbSpline
210
0.0
220
0.0
230
1.0
 70
           0
 71
           3
 72
           8
 73
           5
 74
           7
 42
0.00000000001
 43
0.00000000001
 44
0.00000000001
 40
0.0
 40
0.0
 40
0.0
 40
0.1584607299409981
 40
0.3151778083339991
 40
0.4535783082320108
 40
0.4535783082320108
 40
0.4535783082320108
 10
271.51307068096082
 20
191.091132410889
 30
0.0
 10
271.51307068101482
 20
191.15053517118901
 30
0.0
 10
271.51307068101482
 20
191.348651110471
 30
0.0
 10
271.51307068101482
 20
191.46396932797501
 30
0.0
 10
271.51307068101482
 20
191.54471071912101
 30
0.0
 11
271.51307068096082
 21
191.091132410889
 31
0.0
 11
271.5130706810013
 21
191.1605859776038
 31
0.0
 11
271.51307068101482
 21
191.25014115714822
 31
0.0
 11
271.51307068101482
 21
191.33933305765188
 31
0.0
 11
271.51307068101482
 21
191.4098888525173
 31
0.0
 11
271.51307068101482
 21
191.47063455689707
 31
0.0
 11
271.51307068101482
 21
191.54471071912101
 31
0.0
  0
SPLINE
  5
17E
100
AcDbEntity
  8
0
  6
CONTINUOUS
 62
           7
100
AcDbSpline
210
0.0
220
0.0
230
1.0
 70
           0
 71
           3
 72
          17
 73
          14
 74
          25
 42
0.00000000001
 43
0.00000000001
 44
0.00000000001
 40
0.0
 40
0.0
 40
0.0
 40
0.3728515449412959
 40
0.6821315607652226
 40
0.9309074105308713
 40
1.1168416894166964
 40
1.301714884515405
 40
1.4868327003747004
 40
1.6732088433047363
 40
1.859745279410181
 40
2.0450400855537407
 40
2.2914542045747845
 40
2.6024011306593096
 40
2.9782369285179837
 40
2.9782369285179837
 40
2.9782369285179837
 10
306.44557967560678
 20
195.182377543971
 30
0.0
 10
306.67728999216291
 20
195.27552916013099
 30
0.0
 10
306.88956425876279
 20
195.400315790089
 30
0.0
 10
307.17934983558882
 20
195.63408844855499
 30
0.0
 10
307.27065670149682
 20
195.71979127214701
 30
0.0
 10
307.4375189319868
 20
195.901419533123
 30
0.0
 10
307.51389496412293
 20
195.99796804795901
 30
0.0
 10
307.65245272905679
 20
196.20260222988099
 30
0.0
 10
307.71495588056678
 20
196.31157117274699
 30
0.0
 10
307.82173263678078
 20
196.534799045037
 30
0.0
 10
307.86648113010278
 20
196.64951918046501
 30
0.0
 10
307.97511719746478
 20
197.00288664691101
 30
0.0
 10
308.01307014457279
 20
197.25221892548299
 30
0.0
 10
308.01307014457279
 20
197.501952570969
 30
0.0
 11
306.44557967560678
 21
195.182377543971
 31
0.0
 11
306.64836956970942
 21
195.26929327744728
 31
0.0
 11
306.793318618905
 21
195.34373724555616
 31
0.0
 11
306.90565334864652
 21
195.41856092708059
 31
0.0
 11
307.05016625815512
 21
195.52987488258805
 31
0.0
 11
307.16011721124556
 21
195.62029655694624
 31
0.0
 11
307.23160291564966
 21
195.68313444808703
 31
0.0
 11
307.28181071940412
 21
195.73339556602696
 31
0.0
 11
307.35432655897318
 21
195.81086527172684
 31
0.0
 11
307.42626153071768
 21
195.89084155295791
 31
0.0
 11
307.47568169992383
 21
195.94966187385864
 31
0.0
 11
307.52160270320479
 21
196.01138413487337
 31
0.0
 11
307.58293918464938
 21
196.09993856971664
 31
0.0
 11
307.64288387859034
 21
196.19055157778106
 31
0.0
 11
307.68369087159823
 21
196.25706328164563
 31
0.0
 11
307.72053129186708
 21
196.32594086015311
 31
0.0
 11
307.76852253473658
 21
196.42355781347283
 31
0.0
 11
307.81323176286412
 21
196.51929856213206
 31
0.0
 11
307.84093924315835
 21
196.58403834498148
 31
0.0
 11
307.87210289365339
 21
196.67220567177961
 31
0.0
 11
307.91451007124965
 21
196.80574598120688
 31
0.0
 11
307.96426129866529
 21
196.98182332667182
 31
0.0
 11
307.99230072848218
 21
197.11577403165836
 31
0.0
 11
308.00787779055008
 21
197.28054111339833
 31
0.0
 11
308.01307014457279
 21
197.501952570969
 31
0.0
  0
SPLINE
  5
17D
100
AcDbEntity
  8
0
  6
CONTINUOUS
 62
           7
100
AcDbSpline
210
0.0
220
0.0
230
1.0
 70
           0
 71
           3
 72
          19
 73
          16
 74
          29
 42
0.00000000001
 43
0.00000000001
 44
0.00000000001
 40
0.0
 40
0.0
 40
0.0
 40
0.2364907338739093
 40
0.4639550009765089
 40
0.6881830153104795
 40
0.9029943932764917
 40
1.1134378279409338
 40
1.3167886164395308
 40
1.5166731443536636
 40
1.7843839306994127
 40
2.126226194707074
 40
2.4924631518743743
 40
2.7963795740360529
 40
3.030732984681253
 40
3.2667905349585666
 40
3.5083482499839378
 40
3.5083482499839378
 40
3.5083482499839378
 10
305.97314791444887
 20
242.803414684957
 30
0.0
 10
306.13106758922078
 20
242.825253378707
 30
0.0
 10
306.28168930627891
 20
242.85798123907901
 30
0.0
 10
306.56906512349877
 20
242.94681297640099
 30
0.0
 10
306.70550727242693
 20
243.003276690907
 30
0.0
 10
306.95302739292691
 20
243.13831230664101
 30
0.0
 10
307.06657697698478
 20
243.218358977577
 30
0.0
 10
307.26475876944278
 20
243.39843309583301
 30
0.0
 10
307.35052342793688
 20
243.49876862667099
 30
0.0
 10
307.5732474613468
 20
243.83514141374101
 30
0.0
 10
307.66949551805891
 20
244.098354403657
 30
0.0
 10
307.76006403438282
 20
244.541407698619
 30
0.0
 10
307.7809345555828
 20
244.695619152007
 30
0.0
 10
307.80765138618091
 20
245.007566656113
 30
0.0
 10
307.81378968296679
 20
245.166473746191
 30
0.0
 10
307.81313302816892
 20
245.32851732992901
 30
0.0
 11
305.97314791444887
 21
242.803414684957
 31
0.0
 11
306.11078168736651
 21
242.82396427984099
 31
0.0
 11
306.20784365657528
 21
242.84193567699285
 31
0.0
 11
306.29940724223536
 21
242.86515337263782
 31
0.0
 11
306.42640669980847
 21
242.90271533540036
 31
0.0
 11
306.55082159223497
 21
242.94299791160347
 31
0.0
 11
306.63874942213391
 21
242.97565035821151
 31
0.0
 11
306.72007562080591
 21
243.0134229345494
 31
0.0
 11
306.83053851623583
 21
243.07148799817213
 31
0.0
 11
306.93684215905762
 21
243.13178356853814
 31
0.0
 11
307.01077533414076
 21
243.17902166269835
 31
0.0
 11
307.07761223972676
 21
243.23122740605959
 31
0.0
 11
307.16651967079673
 21
243.30917000638598
 31
0.0
 11
307.24936452090611
 21
243.38684001444085
 31
0.0
 11
307.30142087394211
 21
243.44132385971139
 31
0.0
 11
307.36270243948371
 21
243.52134048910892
 31
0.0
 11
307.44834202811893
 21
243.64650084338228
 31
0.0
 11
307.55363761875901
 21
243.81974937057379
 31
0.0
 11
307.61971352422347
 21
243.9622138114309
 31
0.0
 11
307.66942388014337
 21
244.12485110383659
 31
0.0
 11
307.71899096023191
 21
244.34048179660141
 31
0.0
 11
307.75274172981386
 21
244.51294383403828
 31
0.0
 11
307.77184789025802
 21
244.62847814231384
 31
0.0
 11
307.78199039482246
 21
244.71768607757406
 31
0.0
 11
307.79424457786632
 21
244.8510278639684
 31
0.0
 11
307.80505813520682
 21
244.98806659976995
 31
0.0
 11
307.81068519059932
 21
245.08610522288544
 31
0.0
 11
307.81284939617547
 21
245.18689251129908
 31
0.0
 11
307.81313302816892
 21
245.32851732992901
 31
0.0
  0
SPLINE
  5
17C
100
AcDbEntity
  8
0
  6
CONTINUOUS
 62
           7
100
AcDbSpline
210
0.0
220
0.0
230
1.0
 70
           0
 71
           3
 72
           7
 73
           4
 74
           5
 42
0.00000000001
 43
0.00000000001
 44
0.00000000001
 40
0.0
 40
0.0
 40
0.0
 40
0.1535945954874552
 40
0.3071891533443729
 40
0.3071891533443729
 40
0.3071891533443729
 10
307.81313302816892
 20
245.32851732992901
 30
0.0
 10
307.81271808710278
 20
245.43091289207899
 30
0.0
 10
307.81229732964078
 20
245.53330841280899
 30
0.0
 10
307.8118704586268
 20
245.63570388828899
 30
0.0
 11
307.81313302816892
 21
245.32851732992901
 31
0.0
 11
307.81276922768012
 21
245.4181134432007
 31
0.0
 11
307.812507708346
 21
245.48211065871567
 31
0.0
 11
307.81224320656361
 21
245.54610784315565
 31
0.0
 11
307.8118704586268
 21
245.63570388828899
 31
0.0
  0
SPLINE
  5
17B
100
AcDbEntity
  8
0
  6
CONTINUOUS
 62
           7
100
AcDbSpline
210
0.0
220
0.0
230
1.0
 70
           0
 71
           3
 72
           7
 73
           4
 74
           5
 42
0.00000000001
 43
0.00000000001
 44
0.00000000001
 40
0.0
 40
0.0
 40
0.0
 40
5.428084120175015
 40
10.856136923614002
 40
10.856136923614002
 40
10.856136923614002
 10
308.01307014457279
 20
234.77363848315699
 30
0.0
 10
308.01307014457279
 20
238.392364185947
 30
0.0
 10
308.01307014457279
 20
242.011081020717
 30
0.0
 10
308.01307014457279
 20
245.62977540677099
 30
0.0
 11
308.01307014457279
 21
234.77363848315699
 31
0.0
 11
308.01307014457279
 21
237.9400236694614
 31
0.0
 11
308.01307014457279
 21
240.20172782279454
 31
0.0
 11
308.01307014457279
 21
242.46341631774987
 31
0.0
 11
308.01307014457279
 21
245.62977540677099
 31
0.0
  0
SPLINE
  5
17A
100
AcDbEntity
  8
0
  6
CONTINUOUS
 62
           7
100
AcDbSpline
210
0.0
220
0.0
230
1.0
 70
           0
 71
           3
 72
          19
 73
          16
 74
          29
 42
0.00000000001
 43
0.00000000001
 44
0.00000000001
 40
0.0
 40
0.0
 40
0.0
 40
0.6115511615647999
 40
1.2451904293118323
 40
1.8904495665965819
 40
2.5515463864932384
 40
3.2171598383453111
 40
3.8933092247638088
 40
4.5760271235271253
 40
5.2641876761155491
 40
5.9505206433260867
 40
6.6352842218023778
 40
7.3208066608012476
 40
8.2317353366911377
 40
9.3559420004205265
 40
10.655446471944526
 40
10.655446471944526
 40
10.655446471944526
 10
308.01307014457279
 20
234.77363848315699
 30
0.0
 10
308.01307014457279
 20
234.36961201502899
 30
0.0
 10
307.98412930209491
 20
233.955572860865
 30
0.0
 10
307.90111223165081
 20
233.107396766075
 30
0.0
 10
307.84651569058087
 20
232.672521409647
 30
0.0
 10
307.73699428246289
 20
231.795428341177
 30
0.0
 10
307.6818290778748
 20
231.351520557203
 30
0.0
 10
307.59096579934487
 20
230.45111724847899
 30
0.0
 10
307.5554169643089
 20
229.992032122631
 30
0.0
 10
307.51979537613079
 20
229.07686342844701
 30
0.0
 10
307.51963424679292
 20
228.62005921307099
 30
0.0
 10
307.55431593283481
 20
227.70799545605701
 30
0.0
 10
307.58920400080888
 20
227.25100328307499
 30
0.0
 10
307.72517949040082
 20
225.894264760857
 30
0.0
 10
307.8566719047908
 20
225.01921121131099
 30
0.0
 10
307.94075280118682
 20
224.166279985291
 30
0.0
 11
308.01307014457279
 21
234.77363848315699
 31
0.0
 11
308.00951671101404
 21
234.41978180427509
 31
0.0
 11
307.99885641033791
 21
234.16626470388542
 31
0.0
 11
307.97752823035398
 21
233.90318710907721
 31
0.0
 11
307.94299790688808
 21
233.53533801069335
 31
0.0
 11
307.90484182087005
 21
233.16068168726838
 31
0.0
 11
307.87414491329025
 21
232.89259520623017
 31
0.0
 11
307.83977942686727
 21
232.6182764704958
 31
0.0
 11
307.7919414130169
 21
232.23546785645891
 31
0.0
 11
307.74388956129746
 21
231.85038545956039
 31
0.0
 11
307.70962826724713
 21
231.57521729942854
 31
0.0
 11
307.67747586743042
 21
231.2954383769866
 31
0.0
 11
307.63661704672506
 21
230.90349509411192
 31
0.0
 11
307.59795264878323
 21
230.50705390130045
 31
0.0
 11
307.57326194971813
 21
230.22248601413185
 31
0.0
 11
307.55541959164054
 21
229.93509740280294
 31
0.0
 11
307.53758248822618
 21
229.53383935181796
 31
0.0
 11
307.52422198993338
 21
229.13394152378743
 31
0.0
 11
307.51971471924571
 21
228.84819988643784
 31
0.0
 11
307.52398717483391
 21
228.56314954907722
 31
0.0
 11
307.53696548650407
 21
228.16427988372908
 31
0.0
 11
307.55372358993378
 21
227.77300800018782
 31
0.0
 11
307.56929700756143
 21
227.51176120490808
 31
0.0
 11
307.5994429448242
 21
227.1643733732557
 31
0.0
 11
307.65006677011769
 21
226.64372572196496
 31
0.0
 11
307.72164906885388
 21
225.98015946931079
 31
0.0
 11
307.78617052449596
 21
225.48838263356427
 31
0.0
 11
307.86006678381608
 21
224.92327126036929
 31
0.0
 11
307.94075280118682
 21
224.166279985291
 31
0.0
  0
SPLINE
  5
179
100
AcDbEntity
  8
0
  6
CONTINUOUS
 62
           7
100
AcDbSpline
210
0.0
220
0.0
230
1.0
 70
           0
 71
           3
 72
           7
 73
           4
 74
           5
 42
0.00000000001
 43
0.00000000001
 44
0.00000000001
 40
0.0
 40
0.0
 40
0.0
 40
0.6451409637993436
 40
1.2659280127490207
 40
1.2659280127490207
 40
1.2659280127490207
 10
307.94075280118682
 20
224.166279985291
 30
0.0
 10
307.98334356688088
 20
223.734235288289
 30
0.0
 10
308.01307014457279
 20
223.31327947502501
 30
0.0
 10
308.01307014457279
 20
222.90349447946701
 30
0.0
 11
307.94075280118682
 21
224.166279985291
 31
0.0
 11
307.97648318263236
 21
223.78861469273289
 31
0.0
 11
307.99849279558066
 21
223.51970820906251
 31
0.0
 11
308.00942580732476
 21
223.26244040964491
 31
0.0
 11
308.01307014457279
 21
222.90349447946701
 31
0.0
  0
SPLINE
  5
178
100
AcDbEntity
  8
0
  6
CONTINUOUS
 62
           7
100
AcDbSpline
210
0.0
220
0.0
230
1.0
 70
           0
 71
           3
 72
           9
 73
           6
 74
           9
 42
0.00000000001
 43
0.00000000001
 44
0.00000000001
 40
0.0
 40
0.0
 40
0.0
 40
2.9884027094470014
 40
6.5329178041079956
 40
9.8780996837219988
 40
12.268502730876008
 40
12.268502730876008
 40
12.268502730876008
 10
308.01307014457279
 20
210.634992052895
 30
0.0
 10
308.01307014457279
 20
212.12363002461501
 30
0.0
 10
308.01307014457279
 20
215.12315950006899
 30
0.0
 10
308.01307014457279
 20
219.212660213937
 30
0.0
 10
308.01307014457279
 20
221.813523259297
 30
0.0
 10
308.01307014457279
 20
222.90349478377101
 30
0.0
 11
308.01307014457279
 21
210.634992052895
 31
0.0
 11
308.01307014457279
 21
212.09449497651565
 31
0.0
 11
308.01307014457279
 21
213.49572780393748
 31
0.0
 11
308.01307014457279
 21
215.24227888186155
 31
0.0
 11
308.01307014457279
 21
217.22706872337085
 31
0.0
 11
308.01307014457279
 21
219.095489571028
 31
0.0
 11
308.01307014457279
 21
220.7295691328672
 31
0.0
 11
308.01307014457279
 21
221.81502760880807
 31
0.0
 11
308.01307014457279
 21
222.90349478377101
 31
0.0
  0
SPLINE
  5
177
100
AcDbEntity
  8
0
  6
CONTINUOUS
 62
           7
100
AcDbSpline
210
0.0
220
0.0
230
1.0
 70
           0
 71
           3
 72
           9
 73
           6
 74
           9
 42
0.00000000001
 43
0.00000000001
 44
0.00000000001
 40
0.0
 40
0.0
 40
0.0
 40
0.7504288785690108
 40
1.5079325627900033
 40
2.268524766110005
 40
3.0384580607679936
 40
3.0384580607679936
 40
3.0384580607679936
 10
308.01307014457279
 20
224.247118242185
 30
0.0
 10
308.01307014457279
 20
224.74607218525301
 30
0.0
 10
308.01307014457279
 20
225.249022056255
 30
0.0
 10
308.01307014457279
 20
226.261079553695
 30
0.0
 10
308.01307014457279
 20
226.770206462895
 30
0.0
 10
308.01307014457279
 20
227.28557630295299
 30
0.0
 11
308.01307014457279
 21
224.247118242185
 31
0.0
 11
308.01307014457279
 21
224.68390747051961
 31
0.0
 11
308.01307014457279
 21
224.99636726938735
 31
0.0
 11
308.01307014457279
 21
225.31210817176111
 31
0.0
 11
308.01307014457279
 21
225.75402130514703
 31
0.0
 11
308.01307014457274
 21
226.19756744278303
 31
0.0
 11
308.01307014457279
 21
226.51408935859502
 31
0.0
 11
308.01307014457279
 21
226.83501964683452
 31
0.0
 11
308.01307014457279
 21
227.28557630295299
 31
0.0
  0
SPLINE
  5
176
100
AcDbEntity
  8
0
  6
CONTINUOUS
 62
           7
100
AcDbSpline
210
0.0
220
0.0
230
1.0
 70
           0
 71
           3
 72
           9
 73
           6
 74
           9
 42
0.00000000001
 43
0.00000000001
 44
0.00000000001
 40
0.0
 40
0.0
 40
0.0
 40
1.1168079181219923
 40
2.2152539727669875
 40
3.3073294964569868
 40
4.3780983975579773
 40
4.3780983975579773
 40
4.3780983975579773
 10
308.01307014457279
 20
230.39554008559901
 30
0.0
 10
308.01307014457279
 20
231.143691189229
 30
0.0
 10
308.01307014457279
 20
231.881004818213
 30
0.0
 10
308.01307014457279
 20
233.34058329851899
 30
0.0
 10
308.01307014457279
 20
234.065155865593
 30
0.0
 10
308.01307014457279
 20
234.77363848315699
 30
0.0
 11
308.01307014457279
 21
230.39554008559901
 31
0.0
 11
308.01307014457285
 21
231.04958155035584
 31
0.0
 11
308.01307014457279
 21
231.51540373736634
 31
0.0
 11
308.01307014457279
 21
231.97258245597925
 31
0.0
 11
308.01307014457279
 21
232.61291645012466
 31
0.0
 11
308.01307014457279
 21
233.25013039636542
 31
0.0
 11
308.01307014457279
 21
233.70643853829898
 31
0.0
 11
308.01307014457279
 21
234.15259718816051
 31
0.0
 11
308.01307014457279
 21
234.77363848315699
 31
0.0
  0
SPLINE
  5
175
100
AcDbEntity
  8
0
  6
CONTINUOUS
 62
           7
100
AcDbSpline
210
0.0
220
0.0
230
1.0
 70
           0
 71
           3
 72
          11
 73
           8
 74
          13
 42
0.00000000001
 43
0.00000000001
 44
0.00000000001
 40
0.0
 40
0.0
 40
0.0
 40
0.7776778091637022
 40
1.4258053747988289
 40
1.9448089480295079
 40
2.335337464537016
 40
2.7271561898422023
 40
3.1172140321610038
 40
3.1172140321610038
 40
3.1172140321610038
 10
308.01307014457279
 20
227.28557630295299
 30
0.0
 10
307.95817668964293
 20
227.80127530314101
 30
0.0
 10
307.92632206240478
 20
228.318426122517
 30
0.0
 10
307.92611039477288
 20
229.09655026929499
 30
0.0
 10
307.93373479116087
 20
229.35632137457901
 30
0.0
 10
307.96344452739288
 20
229.87664793992101
 30
0.0
 10
307.98565841157881
 20
230.13816959035699
 30
0.0
 10
308.01307014457279
 20
230.39554008559901
 30
0.0
 11
308.01307014457279
 21
227.28557630295299
 31
0.0
 11
307.96755643166517
 21
227.74286801700038
 31
0.0
 11
307.94080220280193
 21
228.08334515876649
 31
0.0
 11
307.9299127118544
 21
228.36768224044752
 31
0.0
 11
307.92620451980616
 21
228.75053155798952
 31
0.0
 11
307.92722159765208
 21
229.04710369348217
 31
0.0
 11
307.93046108125634
 21
229.24478267734924
 31
0.0
 11
307.93662395623329
 21
229.39337025879973
 31
0.0
 11
307.94856516135508
 21
229.61605560869179
 31
0.0
 11
307.9625076749594
 21
229.84426368581651
 31
0.0
 11
307.97457648369675
 21
230.00770325473232
 31
0.0
 11
307.98974086285676
 21
230.16989563026129
 31
0.0
 11
308.01307014457279
 21
230.39554008559901
 31
0.0
  0
SPLINE
  5
174
100
AcDbEntity
  8
0
  6
CONTINUOUS
 62
           7
100
AcDbSpline
210
0.0
220
0.0
230
1.0
 70
           0
 71
           3
 72
          10
 73
           7
 74
          11
 42
0.00000000001
 43
0.00000000001
 44
0.00000000001
 40
0.0
 40
0.0
 40
0.0
 40
0.3780679208810455
 40
0.6301050322361735
 40
0.8768197154219133
 40
1.1182200492807119
 40
1.4802900835896493
 40
1.4802900835896493
 40
1.4802900835896493
 10
307.81187106564482
 20
245.635703896357
 30
0.0
 10
307.81076299982487
 20
245.887745599635
 30
0.0
 10
307.8085192800628
 20
246.13978317644899
 30
0.0
 10
307.80506280709483
 20
246.391786132005
 30
0.0
 10
307.80175203855879
 20
246.63316613525501
 30
0.0
 10
307.79732522872479
 20
246.874523502209
 30
0.0
 10
307.79169828943492
 20
247.11582895872499
 30
0.0
 11
307.81187106564482
 21
245.635703896357
 31
0.0
 11
307.81070345395216
 21
245.86254130048292
 31
0.0
 11
307.80941675051389
 21
246.03897010630459
 31
0.0
 11
307.80830697783711
 21
246.1464164344485
 31
0.0
 11
307.80677260070877
 21
246.26712927859137
 31
0.0
 11
307.80507190368473
 21
246.39112292197544
 31
0.0
 11
307.80338939984051
 21
246.51379014530042
 31
0.0
 11
307.80171867554691
 21
246.62745909296552
 31
0.0
 11
307.79998122522937
 21
246.72971395605168
 31
0.0
 11
307.7965824930285
 21
246.89864747979868
 31
0.0
 11
307.79169828943492
 21
247.11582895872499
 31
0.0
  0
SPLINE
  5
173
100
AcDbEntity
  8
0
  6
CONTINUOUS
 62
           7
100
AcDbSpline
210
0.0
220
0.0
230
1.0
 70
           0
 71
           3
 72
           7
 73
           4
 74
           5
 42
0.00000000001
 43
0.00000000001
 44
0.00000000001
 40
0.0
 40
0.0
 40
0.0
 40
0.1124666242424934
 40
0.2756076834968695
 40
0.2756076834968695
 40
0.2756076834968695
 10
307.79169828943492
 20
247.11582895872499
 30
0.0
 10
307.85870425089479
 20
247.127595025961
 30
0.0
 10
307.90788464507489
 20
247.05357253270299
 30
0.0
 10
307.93695332894879
 20
246.938481131027
 30
0.0
 11
307.79169828943492
 21
247.11582895872499
 31
0.0
 11
307.84696999448545
 21
247.11710195994522
 31
0.0
 11
307.87877318671752
 21
247.09738882913399
 31
0.0
 11
307.90787395145406
 21
247.03575375639178
 31
0.0
 11
307.93695332894879
 21
246.938481131027
 31
0.0
  0
SPLINE
  5
172
100
AcDbEntity
  8
0
  6
CONTINUOUS
 62
           7
100
AcDbSpline
210
0.0
220
0.0
230
1.0
 70
           0
 71
           3
 72
           9
 73
           6
 74
           9
 42
0.00000000001
 43
0.00000000001
 44
0.00000000001
 40
0.0
 40
0.0
 40
0.0
 40
0.2003697849003211
 40
0.3991499372581921
 40
0.598110556607149
 40
0.7986608085045432
 40
0.7986608085045432
 40
0.7986608085045432
 10
271.51307014457291
 20
187.831386998439
 30
0.0
 10
271.51307014457291
 20
187.96239443165501
 30
0.0
 10
271.56629487954478
 20
188.09050247555501
 30
0.0
 10
271.7481145271588
 20
188.274723767121
 30
0.0
 10
271.87586441850078
 20
188.329721765079
 30
0.0
 10
272.00686175219681
 20
188.33134845618301
 30
0.0
 11
271.51307014457291
 21
187.831386998439
 31
0.0
 11
271.51974973268148
 21
187.94571985334295
 31
0.0
 11
271.53978849700695
 21
188.02670355162275
 31
0.0
 11
271.58238542772949
 21
188.09756995767276
 31
0.0
 11
271.65716345482127
 21
188.18257132795833
 31
0.0
 11
271.74128195673768
 21
188.2585330528108
 31
0.0
 11
271.81173531781178
 21
188.30211334904288
 31
0.0
 11
271.89258147675258
 21
188.32322633384598
 31
0.0
 11
272.00686175219681
 21
188.33134845618301
 31
0.0
  0
SPLINE
  5
171
100
AcDbEntity
  8
0
  6
CONTINUOUS
 62
           7
100
AcDbSpline
210
0.0
220
0.0
230
1.0
 70
           0
 71
           3
 72
           9
 73
           6
 74
           9
 42
0.00000000001
 43
0.00000000001
 44
0.00000000001
 40
0.0
 40
0.0
 40
0.0
 40
0.1552115452080512
 40
0.309977020781504
 40
0.4651291641718037
 40
0.6188840717674075
 40
0.6188840717674075
 40
0.6188840717674075
 10
307.93695332894879
 20
246.938481131027
 30
0.0
 10
307.96232620860877
 20
246.83802249691101
 30
0.0
 10
307.98132639580291
 20
246.736590253283
 30
0.0
 10
308.00674091742491
 20
246.531826905201
 30
0.0
 10
308.01307014457279
 20
246.428049946893
 30
0.0
 10
308.01307014457279
 20
246.326279931795
 30
0.0
 11
307.93695332894879
 21
246.938481131027
 31
0.0
 11
307.95836142984899
 21
246.85043987934216
 31
0.0
 11
307.97183997322981
 21
246.78723339251957
 31
0.0
 11
307.98212764181812
 21
246.72368755363144
 31
0.0
 11
307.99401780243687
 21
246.63433631544015
 31
0.0
 11
308.00435487058422
 21
246.54442346300829
 31
0.0
 11
308.00991984505015
 21
246.47970372619096
 31
0.0
 11
308.01228256969216
 21
246.41552088794299
 31
0.0
 11
308.01307014457279
 21
246.326279931795
 31
0.0
  0
SPLINE
  5
170
100
AcDbEntity
  8
0
  6
CONTINUOUS
 62
           7
100
AcDbSpline
210
0.0
220
0.0
230
1.0
 70
           0
 71
           3
 72
          10
 73
           7
 74
          11
 42
0.00000000001
 43
0.00000000001
 44
0.00000000001
 40
0.0
 40
0.0
 40
0.0
 40
0.1213704185440179
 40
0.2022824876530223
 40
0.3183694423430126
 40
0.469629763681013
 40
0.696504525024011
 40
0.696504525024011
 40
0.696504525024011
 10
308.01307014457279
 20
245.62977540677099
 30
0.0
 10
308.01307014457279
 20
245.710689308447
 30
0.0
 10
308.01307014457279
 20
245.79160234218301
 30
0.0
 10
308.01307014457279
 20
245.87251344666501
 30
0.0
 10
308.01307014457279
 20
246.02377625156299
 30
0.0
 10
308.01307014457279
 20
246.17503408934101
 30
0.0
 10
308.01307014457279
 20
246.326279931795
 30
0.0
 11
308.01307014457279
 21
245.62977540677099
 31
0.0
 11
308.01307014457279
 21
245.70259788068367
 31
0.0
 11
308.01307014457279
 21
245.75923749906968
 31
0.0
 11
308.01307014457274
 21
245.79181914830659
 31
0.0
 11
308.01307014457279
 21
245.8248344097907
 31
0.0
 11
308.01307014457279
 21
245.87701393926216
 31
0.0
 11
308.01307014457279
 21
245.93819445392776
 31
0.0
 11
308.01307014457279
 21
246.01750721477435
 31
0.0
 11
308.01307014457279
 21
246.0842819020437
 31
0.0
 11
308.01307014457279
 21
246.19015750313019
 31
0.0
 11
308.01307014457279
 21
246.326279931795
 31
0.0
  0
SPLINE
  5
16F
100
AcDbEntity
  8
0
  6
CONTINUOUS
 62
           7
100
AcDbSpline
210
0.0
220
0.0
230
1.0
 70
           0
 71
           3
 72
           7
 73
           4
 74
           5
 42
0.00000000001
 43
0.00000000001
 44
0.00000000001
 40
0.0
 40
0.0
 40
0.0
 40
0.6767153125660173
 40
1.3436240784899951
 40
1.3436240784899951
 40
1.3436240784899951
 10
308.01307014457279
 20
224.24711855795701
 30
0.0
 10
308.01307014457279
 20
223.79491174244299
 30
0.0
 10
308.01307014457279
 20
223.34589474833899
 30
0.0
 10
308.01307014457279
 20
222.90349447946701
 30
0.0
 11
308.01307014457279
 21
224.24711855795701
 31
0.0
 11
308.01307014457274
 21
223.85142667380137
 31
0.0
 11
308.01307014457279
 21
223.56876465236252
 31
0.0
 11
308.01307014457279
 21
223.29101215712686
 31
0.0
 11
308.01307014457279
 21
222.90349447946701
 31
0.0
  0
SPLINE
  5
16E
100
AcDbEntity
  8
0
  6
CONTINUOUS
 62
           7
100
AcDbSpline
210
0.0
220
0.0
230
1.0
 70
           0
 71
           3
 72
           8
 73
           5
 74
           7
 42
0.00000000001
 43
0.00000000001
 44
0.00000000001
 40
0.0
 40
0.0
 40
0.0
 40
0.4152343527610936
 40
1.0142681041670492
 40
1.7976187461705584
 40
1.7976187461705584
 40
1.7976187461705584
 10
324.01307090453088
 20
207.72210357487299
 30
0.0
 10
324.02471722926089
 20
207.60654850750501
 30
0.0
 10
324.08470224875089
 20
207.01137594200699
 30
0.0
 10
324.04503588752289
 20
206.41280907307501
 30
0.0
 10
324.01307090453088
 20
205.930456288719
 30
0.0
 11
324.01307090453088
 21
207.72210357487299
 31
0.0
 11
324.02794501119178
 21
207.5745223905011
 31
0.0
 11
324.04927468171451
 21
207.36288897212143
 31
0.0
 11
324.07154816416971
 21
207.03440939973297
 31
0.0
 11
324.0675134774624
 21
206.75199674279651
 31
0.0
 11
324.04266403925982
 21
206.37701779441642
 31
0.0
 11
324.01307090453088
 21
205.930456288719
 31
0.0
  0
SPLINE
  5
16D
100
AcDbEntity
  8
0
  6
CONTINUOUS
 62
           7
100
AcDbSpline
210
0.0
220
0.0
230
1.0
 70
           0
 71
           3
 72
          10
 73
           7
 74
          11
 42
0.00000000001
 43
0.00000000001
 44
0.00000000001
 40
0.0
 40
0.0
 40
0.0
 40
1.9686491019045371
 40
4.418395324196382
 40
7.3349001187225946
 40
9.7125957619640992
 40
11.56006526547241
 40
11.56006526547241
 40
11.56006526547241
 10
144.7141950511128
 20
203.55361822536301
 30
0.0
 10
145.65672075811079
 20
203.26699038633299
 30
0.0
 10
147.53863321559081
 20
202.69468928417101
 30
0.0
 10
150.21672022860281
 20
201.49998801337301
 30
0.0
 10
152.72248504799481
 20
200.03910041203699
 30
0.0
 10
154.12132724686879
 20
198.821000876993
 30
0.0
 10
154.8151706837788
 20
198.216808089149
 30
0.0
 11
144.7141950511128
 21
203.55361822536301
 31
0.0
 11
145.63071437605751
 21
203.27489908636483
 31
0.0
 11
146.49522093689569
 21
203.01199734743034
 31
0.0
 11
147.58342339306174
 21
202.63766808799707
 31
0.0
 11
148.76120620416955
 21
202.14929643621585
 31
0.0
 11
150.19793987261258
 21
201.46111921879415
 31
0.0
 11
151.59711282907512
 21
200.69520441221474
 31
0.0
 11
152.63794027725643
 21
200.03175619003596
 31
0.0
 11
153.509678183961
 21
199.35361952385526
 31
0.0
 11
154.14187584036932
 21
198.80310734174756
 31
0.0
 11
154.8151706837788
 21
198.216808089149
 31
0.0
  0
SPLINE
  5
16C
100
AcDbEntity
  8
0
  6
CONTINUOUS
 62
           7
100
AcDbSpline
210
0.0
220
0.0
230
1.0
 70
           0
 71
           3
 72
          10
 73
           7
 74
          11
 42
0.00000000001
 43
0.00000000001
 44
0.00000000001
 40
0.0
 40
0.0
 40
0.0
 40
4.284178013715378
 40
9.6556798359689253
 40
16.109500019880109
 40
21.482083543619655
 40
25.771714663681482
 40
25.771714663681482
 40
25.771714663681482
 10
119.3119322442188
 20
203.55361822536301
 30
0.0
 10
121.3917974875568
 20
204.04701733424699
 30
0.0
 10
125.5690461427928
 20
205.037971325461
 30
0.0
 10
132.00773670501081
 20
205.416767370153
 30
0.0
 10
138.45442196126879
 20
205.03775749233901
 30
0.0
 10
142.62612438262681
 20
204.04868212413899
 30
0.0
 10
144.7141950511128
 20
203.55361822536301
 30
0.0
 11
119.3119322442188
 21
203.55361822536301
 31
0.0
 11
121.33518738650254
 21
204.03358791928645
 31
0.0
 11
123.24522232667776
 21
204.48669878328877
 31
0.0
 11
125.71926347245669
 21
204.94316900892198
 31
0.0
 11
128.49373927756332
 21
205.21003460147705
 31
0.0
 11
132.00874705487502
 21
205.31337654014658
 31
0.0
 11
135.52577553191512
 21
205.20993681880327
 31
0.0
 11
138.30216932203922
 21
204.94331081132509
 31
0.0
 11
140.77405783370421
 21
204.48779144181901
 31
0.0
 11
142.68512541251764
 21
204.03469347886499
 31
0.0
 11
144.7141950511128
 21
203.55361822536301
 31
0.0
  0
SPLINE
  5
16B
100
AcDbEntity
  8
0
  6
CONTINUOUS
 62
           7
100
AcDbSpline
210
0.0
220
0.0
230
1.0
 70
           0
 71
           3
 72
          10
 73
           7
 74
          11
 42
0.00000000001
 43
0.00000000001
 44
0.00000000001
 40
0.0
 40
0.0
 40
0.0
 40
1.8482548562637309
 40
4.2230750397925307
 40
7.1368917330089126
 40
9.5869046294477087
 40
11.560067974657192
 40
11.560067974657192
 40
11.560067974657192
 10
109.21098641387481
 20
198.21646349979699
 30
0.0
 10
109.90637952086681
 20
198.82202919998701
 30
0.0
 10
111.30326032017081
 20
200.03846791761299
 30
0.0
 10
113.8059380100388
 20
201.498334649291
 30
0.0
 10
116.48234952150879
 20
202.69140339082301
 30
0.0
 10
118.3665530513088
 20
203.26554749399699
 30
0.0
 10
119.3119322442188
 20
203.55361822536301
 30
0.0
 11
109.21098641387481
 21
198.21646349979699
 31
0.0
 11
109.88536961998284
 21
198.8037332531168
 31
0.0
 11
110.51773302432291
 21
199.35441111269625
 31
0.0
 11
111.38783035721198
 21
200.03133909273168
 31
0.0
 11
112.42706776418339
 21
200.69400942300462
 31
0.0
 11
113.82470014203308
 21
201.45928233511765
 31
0.0
 11
115.25985678387127
 21
202.14645061888393
 31
0.0
 11
116.43764307969147
 21
202.63467030798657
 31
0.0
 11
117.52601649187696
 21
203.00942383141626
 31
0.0
 11
118.39276370967833
 21
203.27353426119333
 31
0.0
 11
119.3119322442188
 21
203.55361822536301
 31
0.0
  0
SPLINE
  5
16A
100
AcDbEntity
  8
0
  6
CONTINUOUS
 62
           7
100
AcDbSpline
210
0.0
220
0.0
230
1.0
 70
           0
 71
           3
 72
           8
 73
           5
 74
           7
 42
0.00000000001
 43
0.00000000001
 44
0.00000000001
 40
0.0
 40
0.0
 40
0.0
 40
0.0404684505189707
 40
0.0803906412768808
 40
0.1197680372793271
 40
0.1197680372793271
 40
0.1197680372793271
 10
154.81563261977681
 20
198.217686326337
 30
0.0
 10
154.8157560924428
 20
198.19742197986099
 30
0.0
 10
154.81600229449279
 20
198.15701527415899
 30
0.0
 10
154.81542744064279
 20
198.11758253831701
 30
0.0
 10
154.81514088145681
 20
198.09792569382299
 30
0.0
 11
154.81563261977681
 21
198.217686326337
 31
0.0
 11
154.81575620865246
 21
198.19740290748524
 31
0.0
 11
154.81588002994744
 21
198.17708134388192
 31
0.0
 11
154.81589937796349
 21
198.15706883633766
 31
0.0
 11
154.81571289292091
 21
198.13716345315081
 31
0.0
 11
154.81542716391584
 21
198.11756355590197
 31
0.0
 11
154.81514088145681
 21
198.09792569382299
 31
0.0
  0
SPLINE
  5
169
100
AcDbEntity
  8
0
  6
CONTINUOUS
 62
           7
100
AcDbSpline
210
0.0
220
0.0
230
1.0
 70
           0
 71
           3
 72
          14
 73
          11
 74
          19
 42
0.00000000001
 43
0.00000000001
 44
0.00000000001
 40
0.0
 40
0.0
 40
0.0
 40
4.834728478711666
 40
9.7105160500204786
 40
15.287809276804792
 40
20.871856781099677
 40
26.455722791261401
 40
31.805146251788521
 40
37.416361897696
 40
42.792297924566029
 40
47.473509695026927
 40
47.473509695026927
 40
47.473509695026927
 10
154.81514088145681
 20
191.26479799402901
 30
0.0
 10
152.3173320272748
 20
192.41740991047499
 30
0.0
 10
148.53317741044279
 20
194.16360505976499
 30
0.0
 10
143.14135326845681
 20
195.615786661615
 30
0.0
 10
137.66605454532879
 20
196.641941256141
 30
0.0
 10
132.07768044830681
 20
196.96087518742499
 30
0.0
 10
126.5203148168868
 20
196.582018242023
 30
0.0
 10
121.4532090819708
 20
195.790312314977
 30
0.0
 10
115.5615730019648
 20
194.23351528613301
 30
0.0
 10
111.3418529584368
 20
192.26091705645899
 30
0.0
 10
109.21098641387481
 20
191.26479799402901
 30
0.0
 11
154.81514088145681
 21
191.26479799402901
 31
0.0
 11
152.4707649870648
 21
192.34660839276299
 31
0.0
 11
150.4332550122528
 21
193.28681575607294
 31
0.0
 11
148.37944941943312
 21
194.11374845602586
 31
0.0
 11
146.01818784459402
 21
194.84096794850063
 31
0.0
 11
143.17656374374761
 21
195.55027368556057
 31
0.0
 11
140.40536059348273
 21
196.12855347051163
 31
0.0
 11
137.65232294288271
 21
196.55346169903416
 31
0.0
 11
134.87182208739057
 21
196.80141081334307
 31
0.0
 11
132.06664932875188
 21
196.87263649694242
 31
0.0
 11
129.2394143310033
 21
196.76738479957646
 31
0.0
 11
126.58182980125933
 21
196.53176035334434
 31
0.0
 11
124.04727524026046
 21
196.1956201297549
 31
0.0
 11
121.34950062418487
 21
195.69287247028012
 31
0.0
 11
118.44430909253747
 21
194.9952451214117
 31
0.0
 11
115.71835596979479
 21
194.16034015701757
 31
0.0
 11
113.30596878271209
 21
193.17908493439262
 31
0.0
 11
111.30016527836514
 21
192.24142926033491
 31
0.0
 11
109.21098641387481
 21
191.26479799402901
 31
0.0
  0
SPLINE
  5
168
100
AcDbEntity
  8
0
  6
CONTINUOUS
 62
           7
100
AcDbSpline
210
0.0
220
0.0
230
1.0
 70
           0
 71
           3
 72
          10
 73
           7
 74
          11
 42
0.00000000001
 43
0.00000000001
 44
0.00000000001
 40
0.0
 40
0.0
 40
0.0
 40
0.2319188715840818
 40
0.5314780428077331
 40
0.8949617591082771
 40
1.1945201753793175
 40
1.426436094494608
 40
1.426436094494608
 40
1.426436094494608
 10
157.4438845299868
 20
187.66246276451301
 30
0.0
 10
157.47361040911079
 20
187.55230146651701
 30
0.0
 10
157.53499835484479
 20
187.32480354273699
 30
0.0
 10
157.77093937845481
 20
187.048303852793
 30
0.0
 10
158.0823502734988
 20
186.86083696686899
 30
0.0
 10
158.31683007899881
 20
186.837554395773
 30
0.0
 10
158.43037120331479
 20
186.826280378891
 30
0.0
 11
157.4438845299868
 21
187.66246276451301
 31
0.0
 11
157.47287584021598
 21
187.55502370940152
 31
0.0
 11
157.50039801265558
 21
187.45302914005916
 31
0.0
 11
157.55299748717621
 21
187.32562967796181
 31
0.0
 11
157.64159522635967
 21
187.19988248631407
 31
0.0
 11
157.78128267552395
 21
187.06050589036096
 31
0.0
 11
157.94165671882661
 21
186.94553336954382
 31
0.0
 11
158.08021723810205
 21
186.87873033991838
 31
0.0
 11
158.21451168658388
 21
186.84771405639174
 31
0.0
 11
158.3196357619741
 21
186.83727580670717
 31
0.0
 11
158.43037120331479
 21
186.826280378891
 31
0.0
  0
SPLINE
  5
167
100
AcDbEntity
  8
0
  6
CONTINUOUS
 62
           7
100
AcDbSpline
210
0.0
220
0.0
230
1.0
 70
           0
 71
           3
 72
          15
 73
          12
 74
          21
 42
0.00000000001
 43
0.00000000001
 44
0.00000000001
 40
0.0
 40
0.0
 40
0.0
 40
0.4374366608257603
 40
1.0135857152732139
 40
1.9546342338832934
 40
3.6205463782345317
 40
5.77614660192231
 40
7.7553378492544081
 40
9.2507499418203807
 40
10.261364103348793
 40
10.748739413955061
 40
10.870545130395948
 40
10.870545130395948
 40
10.870545130395948
 10
154.81514088145681
 20
198.09792569382299
 30
0.0
 10
154.96005023579681
 20
197.926767867271
 30
0.0
 10
155.23553897057681
 20
197.60137787916301
 30
0.0
 10
155.5249028554108
 20
196.935591139173
 30
0.0
 10
155.9002721936088
 20
195.84207672668899
 30
0.0
 10
156.4816941433308
 20
193.74552714836699
 30
0.0
 10
156.88340562455679
 20
191.648127069027
 30
0.0
 10
157.18645164488879
 20
189.85063458522299
 30
0.0
 10
157.34487797042081
 20
188.69346432410299
 30
0.0
 10
157.43095239917679
 20
187.84455341572701
 30
0.0
 10
157.4395587748688
 20
187.723371486969
 30
0.0
 10
157.4438845299868
 20
187.66246276451301
 30
0.0
 11
154.81514088145681
 21
198.09792569382299
 31
0.0
 11
154.95354630156265
 21
197.93444990582896
 31
0.0
 11
155.07894385320026
 21
197.78633819495096
 31
0.0
 11
155.22386135444813
 21
197.58441056714116
 31
0.0
 11
155.34542362343871
 21
197.34854831528764
 31
0.0
 11
155.51390781628771
 21
196.94014749826454
 31
0.0
 11
155.66040193089037
 21
196.54085939942439
 31
0.0
 11
155.90366945536866
 21
195.78828514510155
 31
0.0
 11
156.15373150336666
 21
194.92812772760374
 31
0.0
 11
156.45205977294091
 21
193.76781670704531
 31
0.0
 11
156.69111930173548
 21
192.65208480384342
 31
0.0
 11
156.8784890440275
 21
191.64314617726694
 31
0.0
 11
157.05602562526099
 21
190.62424576717041
 31
0.0
 11
157.17747943377609
 21
189.87140886187356
 31
0.0
 11
157.28098882006577
 21
189.16012050987788
 31
0.0
 11
157.3434231474512
 21
188.66694956291161
 31
0.0
 11
157.4029478288974
 21
188.12074909356261
 31
0.0
 11
157.4256726394307
 21
187.88936443317237
 31
0.0
 11
157.43783793047186
 21
187.74760180767288
 31
0.0
 11
157.44021000254907
 21
187.71420188653099
 31
0.0
 11
157.4438845299868
 21
187.66246276451301
 31
0.0
  0
SPLINE
  5
166
100
AcDbEntity
  8
0
  6
CONTINUOUS
 62
           7
100
AcDbSpline
210
0.0
220
0.0
230
1.0
 70
           0
 71
           3
 72
          13
 73
          10
 74
          17
 42
0.00000000001
 43
0.00000000001
 44
0.00000000001
 40
0.0
 40
0.0
 40
0.0
 40
0.1305178364435374
 40
0.6405321284088446
 40
1.6770397272864632
 40
3.0764399627946797
 40
4.938014756181655
 40
7.2045061862513382
 40
9.3237613301032205
 40
10.969376031458241
 40
10.969376031458241
 40
10.969376031458241
 10
106.5830027245668
 20
187.659598016275
 30
0.0
 10
106.5880761107388
 20
187.724968067139
 30
0.0
 10
106.5981276435388
 20
187.85448101724501
 30
0.0
 10
106.69130960293479
 20
188.739716419915
 30
0.0
 10
106.8597189403648
 20
189.910555755947
 30
0.0
 10
107.1307326076508
 20
191.503578473765
 30
0.0
 10
107.5725958791748
 20
193.56396907979899
 30
0.0
 10
108.05511042180279
 20
195.941240023277
 30
0.0
 10
108.87616616923481
 20
197.55740414892699
 30
0.0
 10
109.21098641387481
 20
198.21646349979699
 30
0.0
 11
106.5830027245668
 21
187.659598016275
 31
0.0
 11
106.58731980108504
 21
187.71522309625172
 31
0.0
 11
106.59012425829583
 21
187.75135823445387
 31
0.0
 11
106.60380921855791
 21
187.90168388385382
 31
0.0
 11
106.62885732885829
 21
188.14641526647137
 31
0.0
 11
106.69361157573046
 21
188.71594262850843
 31
0.0
 11
106.76296976819394
 21
189.23792240773224
 31
0.0
 11
106.86460704551322
 21
189.91330307952634
 31
0.0
 11
106.97602053312936
 21
190.59417839847907
 31
0.0
 11
107.14186977389554
 21
191.50851465198474
 31
0.0
 11
107.3299933471512
 21
192.43272326192988
 31
0.0
 11
107.5742844088016
 21
193.58829257542121
 31
0.0
 11
107.82195252970567
 21
194.79250888015702
 31
0.0
 11
108.11236455902774
 21
195.8814929973914
 31
0.0
 11
108.51728486279967
 21
196.85098306285462
 31
0.0
 11
108.87015090378603
 21
197.54556371512641
 31
0.0
 11
109.21098641387481
 21
198.21646349979699
 31
0.0
  0
SPLINE
  5
165
100
AcDbEntity
  8
0
  6
CONTINUOUS
 62
           7
100
AcDbSpline
210
0.0
220
0.0
230
1.0
 70
           0
 71
           3
 72
          10
 73
           7
 74
          11
 42
0.00000000001
 43
0.00000000001
 44
0.00000000001
 40
0.0
 40
0.0
 40
0.0
 40
0.2314522859064276
 40
0.5303658578611284
 40
0.8930489934960287
 40
1.1919641343101566
 40
1.4234165240307624
 40
1.4234165240307624
 40
1.4234165240307624
 10
105.5969928883148
 20
186.826280378891
 30
0.0
 10
105.71031792554081
 20
186.83750991163501
 30
0.0
 10
105.9443163707908
 20
186.860697137361
 30
0.0
 10
106.2552394432208
 20
187.04742037640901
 30
0.0
 10
106.49118128772881
 20
187.32286698609701
 30
0.0
 10
106.5530435079028
 20
187.54973044898301
 30
0.0
 10
106.5830027245668
 20
187.659598016275
 30
0.0
 11
105.5969928883148
 21
186.826280378891
 31
0.0
 11
105.70751596560798
 21
186.83723226161271
 31
0.0
 11
105.81243512303553
 21
186.84762884428983
 31
0.0
 11
105.94646531092692
 21
186.87852074883759
 31
0.0
 11
106.0847933790906
 21
186.94505987633855
 31
0.0
 11
106.24496330767506
 21
187.05957968471739
 31
0.0
 11
106.38458096516814
 21
187.19841810971303
 31
0.0
 11
106.47324759392878
 21
187.32371982898633
 31
0.0
 11
106.5260468350894
 21
187.45072723403823
 31
0.0
 11
106.55378414386544
 21
187.55244653706981
 31
0.0
 11
106.5830027245668
 21
187.659598016275
 31
0.0
  0
SPLINE
  5
164
100
AcDbEntity
  8
0
  6
CONTINUOUS
 62
           7
100
AcDbSpline
210
0.0
220
0.0
230
1.0
 70
           0
 71
           3
 72
          10
 73
           7
 74
          11
 42
0.00000000001
 43
0.00000000001
 44
0.00000000001
 40
0.0
 40
0.0
 40
0.0
 40
2.5064538812242039
 40
5.6422030903065217
 40
10.255152274994202
 40
15.089462615194531
 40
20.14620160163652
 40
20.14620160163652
 40
20.14620160163652
 10
256.51307008491477
 20
251.826281719891
 30
0.0
 10
255.2633958891908
 20
251.73986421116101
 30
0.0
 10
252.76177957239281
 20
251.56687236197499
 30
0.0
 10
249.0876666939848
 20
250.74962271720301
 30
0.0
 10
243.6692772509588
 20
250.06085853361299
 30
0.0
 10
239.4649052596688
 20
249.92304123894101
 30
0.0
 10
236.51306680671479
 20
249.826281392091
 30
0.0
 11
256.51307008491477
 21
251.826281719891
 31
0.0
 11
255.29798918855994
 21
251.74225640806247
 31
0.0
 11
254.15209489094343
 21
251.66301549003691
 31
0.0
 11
252.73764769762977
 21
251.50822684072546
 31
0.0
 11
251.27493675479002
 21
251.23614714891505
 31
0.0
 11
248.97305548751078
 21
250.7871756284126
 31
0.0
 11
246.44195180728349
 21
250.41330993032938
 31
0.0
 11
243.84871781326268
 21
250.13213162315969
 31
0.0
 11
241.61436494384955
 21
249.99349949508343
 31
0.0
 11
239.26431056747546
 21
249.91646584126411
 31
0.0
 11
236.51306680671479
 21
249.826281392091
 31
0.0
  0
SPLINE
  5
163
100
AcDbEntity
  8
0
  6
CONTINUOUS
 62
           7
100
AcDbSpline
210
0.0
220
0.0
230
1.0
 70
           0
 71
           3
 72
           9
 73
           6
 74
           9
 42
0.00000000001
 43
0.00000000001
 44
0.00000000001
 40
0.0
 40
0.0
 40
0.0
 40
1.1271152140438669
 40
2.4859072855282149
 40
3.7700557412195828
 40
4.6758050721797515
 40
4.6758050721797515
 40
4.6758050721797515
 10
109.21098641387481
 20
191.26479799402901
 30
0.0
 10
108.7391144871748
 20
190.95668814698701
 30
0.0
 10
107.7953635514928
 20
190.34046382850701
 30
0.0
 10
106.9190954732268
 20
189.01316121939499
 30
0.0
 10
106.6834530696288
 20
188.06414673492301
 30
0.0
 10
106.5830027245668
 20
187.659598016275
 30
0.0
 11
109.21098641387481
 21
191.26479799402901
 31
0.0
 11
108.75010783990169
 21
190.96386628163606
 31
0.0
 11
108.3112159713823
 21
190.67729083854113
 31
0.0
 11
107.81169963128244
 21
190.25407193878564
 31
0.0
 11
107.34485545076191
 21
189.65806925958753
 31
0.0
 11
106.99099049586349
 21
189.03526353009738
 31
0.0
 11
106.78091558623834
 21
188.4566624220119
 31
0.0
 11
106.68270611251569
 21
188.06113847703324
 31
0.0
 11
106.5830027245668
 21
187.659598016275
 31
0.0
  0
SPLINE
  5
162
100
AcDbEntity
  8
0
  6
CONTINUOUS
 62
           7
100
AcDbSpline
210
0.0
220
0.0
230
1.0
 70
           0
 71
           3
 72
           9
 73
           6
 74
           9
 42
0.00000000001
 43
0.00000000001
 44
0.00000000001
 40
0.0
 40
0.0
 40
0.0
 40
0.8713287435703808
 40
2.1449253829321915
 40
3.5153094491466987
 40
4.673615757257517
 40
4.673615757257517
 40
4.673615757257517
 10
157.4438845299868
 20
187.66246276451301
 30
0.0
 10
157.35002263795479
 20
188.04371586783699
 30
0.0
 10
157.1211554261948
 20
188.97334058392701
 30
0.0
 10
156.26372815353679
 20
190.312114284215
 30
0.0
 10
155.30209639149879
 20
190.94454488207501
 30
0.0
 10
154.81514088145681
 20
191.26479799402901
 30
0.0
 11
157.4438845299868
 21
187.66246276451301
 31
0.0
 11
157.35024504366848
 21
188.04281248876839
 31
0.0
 11
157.25705036877747
 21
188.42135545488657
 31
0.0
 11
157.05187420137014
 21
188.99656500213919
 31
0.0
 11
156.70813558431348
 21
189.61822338581609
 31
0.0
 11
156.2445447005378
 21
190.22432551909617
 31
0.0
 11
155.74258691076432
 21
190.65485012213864
 31
0.0
 11
155.2904801438047
 21
190.95218447007943
 31
0.0
 11
154.81514088145681
 21
191.26479799402901
 31
0.0
  0
SPLINE
  5
161
100
AcDbEntity
  8
0
  6
CONTINUOUS
 62
           7
100
AcDbSpline
210
0.0
220
0.0
230
1.0
 70
           0
 71
           3
 72
          12
 73
           9
 74
          15
 42
0.00000000001
 43
0.00000000001
 44
0.00000000001
 40
0.0
 40
0.0
 40
0.0
 40
0.043761773954019
 40
0.2832917012520095
 40
0.8266931020039987
 40
1.5419732448460035
 40
2.2307312225870088
 40
2.7311061472160088
 40
3.0000209807999987
 40
3.0000209807999987
 40
3.0000209807999987
 10
-26.986938200085199
 20
204.82627983689099
 30
0.0
 10
-26.966730678187179
 20
204.82627983680101
 30
0.0
 10
-26.91962217407518
 20
204.82627983680101
 30
0.0
 10
-26.487670823591198
 20
204.82627983680101
 30
0.0
 10
-25.832819372571201
 20
204.82627983680101
 30
0.0
 10
-25.057110537907189
 20
204.82627983680101
 30
0.0
 10
-24.455303417089191
 20
204.82627983680101
 30
0.0
 10
-24.056360688649189
 20
204.82627983680101
 30
0.0
 10
-23.9869172192852
 20
204.82627983689099
 30
0.0
 11
-26.986938200085199
 21
204.82627983689099
 31
0.0
 11
-26.969963275128887
 21
204.82627983682349
 31
0.0
 11
-26.959453544055997
 21
204.82627983680101
 31
0.0
 11
-26.896542229004968
 21
204.82627983680101
 31
0.0
 11
-26.787471023813517
 21
204.82627983680101
 31
0.0
 11
-26.491942313692554
 21
204.82627983680101
 31
0.0
 11
-26.204956583774297
 21
204.82627983680101
 31
0.0
 11
-25.827058436494866
 21
204.82627983680101
 31
0.0
 11
-25.437638417062757
 21
204.82627983680101
 31
0.0
 11
-25.065099292943
 21
204.82627983680104
 31
0.0
 11
-24.70853767889486
 21
204.82627983680101
 31
0.0
 11
-24.453740152536604
 21
204.82627983680104
 31
0.0
 11
-24.195816097073184
 21
204.82627983680101
 31
0.0
 11
-24.073863673414191
 21
204.82627983682352
 31
0.0
 11
-23.9869172192852
 21
204.82627983689099
 31
0.0
  0
SPLINE
  5
160
100
AcDbEntity
  8
0
  6
CONTINUOUS
 62
           7
100
AcDbSpline
210
0.0
220
0.0
230
1.0
 70
           0
 71
           3
 72
          12
 73
           9
 74
          15
 42
0.00000000001
 43
0.00000000001
 44
0.00000000001
 40
0.0
 40
0.0
 40
0.0
 40
0.4133560179069948
 40
0.9655265640320916
 40
1.684693627794301
 40
2.3643667432144317
 40
2.8211679033154429
 40
2.9784796429904397
 40
3.0000209808004574
 40
3.0000209808004574
 40
3.0000209808004574
 10
-23.9869172192852
 20
208.82628002669099
 30
0.0
 10
-24.199861223711189
 20
208.82627999409701
 30
0.0
 10
-24.600685250673191
 20
208.826279932559
 30
0.0
 10
-25.304202315961181
 20
208.82628045853301
 30
0.0
 10
-26.039019378197189
 20
208.826279884559
 30
0.0
 10
-26.663548546801191
 20
208.82628006621101
 30
0.0
 10
-26.952621698399181
 20
208.82628002214901
 30
0.0
 10
-26.978172026151181
 20
208.826280025605
 30
0.0
 10
-26.986938200085199
 20
208.82628002669099
 30
0.0
 11
-23.9869172192852
 21
208.82628002669099
 31
0.0
 11
-24.189524877010509
 21
208.82627999565915
 31
0.0
 11
-24.371459841334467
 21
208.8262799677517
 31
0.0
 11
-24.619767223345036
 21
208.82627999846775
 31
0.0
 11
-24.906238550699317
 21
208.82628016100136
 31
0.0
 11
-25.299156801098853
 21
208.82628031037768
 31
0.0
 11
-25.681984021773737
 21
208.82628016344341
 31
0.0
 11
-26.043136098670356
 21
208.82627998143957
 31
0.0
 11
-26.412521616513295
 21
208.82627999319672
 31
0.0
 11
-26.654547789332568
 21
208.82628003976367
 31
0.0
 11
-26.878572447214587
 21
208.82628003343598
 31
0.0
 11
-26.939727637416826
 21
208.82628002573068
 31
0.0
 11
-26.975094705654371
 21
208.82628002518877
 31
0.0
 11
-26.979594239510483
 21
208.82628002577246
 31
0.0
 11
-26.986938200085199
 21
208.82628002669099
 31
0.0
  0
SPLINE
  5
15F
100
AcDbEntity
  8
0
  6
CONTINUOUS
 62
           7
100
AcDbSpline
210
0.0
220
0.0
230
1.0
 70
           0
 71
           3
 72
           9
 73
           6
 74
           9
 42
0.00000000001
 43
0.00000000001
 44
0.00000000001
 40
0.0
 40
0.0
 40
0.0
 40
0.0258607700615435
 40
0.2858391382619551
 40
0.724839891823301
 40
0.9731147806347713
 40
0.9731147806347713
 40
0.9731147806347713
 10
271.31320513121091
 20
191.905307644141
 30
0.0
 10
271.31318978884281
 20
191.893377438675
 30
0.0
 10
271.31315395919478
 20
191.865516352253
 30
0.0
 10
271.31310034948291
 20
191.37342072823299
 30
0.0
 10
271.31307469804881
 20
190.987514848903
 30
0.0
 10
271.31307102070679
 20
190.93219290030501
 30
0.0
 11
271.31320513121091
 21
191.905307644141
 31
0.0
 11
271.31319281402949
 21
191.8957298199098
 31
0.0
 11
271.31318654722133
 21
191.89085675814817
 31
0.0
 11
271.31315712130095
 21
191.8260939291641
 31
0.0
 11
271.31313401959289
 21
191.68248625400224
 31
0.0
 11
271.31310467076497
 21
191.38906228210075
 31
0.0
 11
271.31308396450112
 21
191.12692141793485
 31
0.0
 11
271.31307609532638
 21
191.00853600401149
 31
0.0
 11
271.31307102070679
 21
190.93219290030501
 31
0.0
  0
SPLINE
  5
15E
100
AcDbEntity
  8
0
  6
CONTINUOUS
 62
           7
100
AcDbSpline
210
0.0
220
0.0
230
1.0
 70
           0
 71
           3
 72
          10
 73
           7
 74
          11
 42
0.00000000001
 43
0.00000000001
 44
0.00000000001
 40
0.0
 40
0.0
 40
0.0
 40
1.3872999545189941
 40
4.0547623887359947
 40
7.8608374367239975
 40
11.270702963689004
 40
13.817200437186017
 40
13.817200437186017
 40
13.817200437186017
 10
-96.985702987060606
 20
210.459034019245
 30
0.0
 10
-96.985702987060606
 20
210.84832929310099
 30
0.0
 10
-96.985702987060606
 20
212.84433865442699
 30
0.0
 10
-96.985702987060606
 20
216.18325416153499
 30
0.0
 10
-96.985702987060606
 20
220.456488750403
 30
0.0
 10
-96.985702987060606
 20
223.002985215465
 30
0.0
 10
-96.985702987060606
 20
224.27623445643101
 30
0.0
 11
-96.985702987060606
 21
210.459034019245
 31
0.0
 11
-96.985702987060606
 21
210.92173457234435
 31
0.0
 11
-96.985702987060606
 21
211.53124568393056
 31
0.0
 11
-96.985702987060606
 21
212.86002077279051
 31
0.0
 11
-96.985702987060606
 21
214.22016009837753
 31
0.0
 11
-96.985702987060591
 21
216.25596406741289
 31
0.0
 11
-96.985702987060606
 21
218.43718784820419
 31
0.0
 11
-96.985702987060606
 21
220.31611455436911
 31
0.0
 11
-96.985702987060591
 21
221.91429286846625
 31
0.0
 11
-96.985702987060606
 21
223.04912443895682
 31
0.0
 11
-96.985702987060606
 21
224.27623445643101
 31
0.0
  0
SPLINE
  5
15D
100
AcDbEntity
  8
0
  6
CONTINUOUS
 62
           7
100
AcDbSpline
210
0.0
220
0.0
230
1.0
 70
           0
 71
           3
 72
          10
 73
           7
 74
          11
 42
0.00000000001
 43
0.00000000001
 44
0.00000000001
 40
0.0
 40
0.0
 40
0.0
 40
1.0503886582580009
 40
3.4950972862529994
 40
7.1947701441680039
 40
10.606877348453011
 40
13.152679428458015
 40
13.152679428458015
 40
13.152679428458015
 10
-56.985703881130213
 20
211.123555027973
 30
0.0
 10
-56.985703881130213
 20
211.289701247789
 30
0.0
 10
-56.985703881130213
 20
213.058186124673
 30
0.0
 10
-56.985703881130213
 20
216.17911850377899
 30
0.0
 10
-56.985703881130213
 20
220.45753184050301
 30
0.0
 10
-56.985703881130213
 20
223.00333291234901
 30
0.0
 10
-56.985703881130213
 20
224.27623445643101
 30
0.0
 11
-56.985703881130213
 21
211.123555027973
 31
0.0
 11
-56.985703881130206
 21
211.38103627728887
 31
0.0
 11
-56.98570388113022
 21
211.82118758560455
 31
0.0
 11
-56.98570388113022
 21
213.05937336349868
 31
0.0
 11
-56.985703881130213
 21
214.29993361904417
 31
0.0
 11
-56.985703881130213
 21
216.26574871727061
 31
0.0
 11
-56.985703881130206
 21
218.40482424248017
 31
0.0
 11
-56.985703881130206
 21
220.30885135087163
 31
0.0
 11
-56.985703881130206
 21
221.91551748000026
 31
0.0
 11
-56.985703881130213
 21
223.04960444028231
 31
0.0
 11
-56.985703881130213
 21
224.27623445643101
 31
0.0
  0
SPLINE
  5
15C
100
AcDbEntity
  8
0
  6
CONTINUOUS
 62
           7
100
AcDbSpline
210
0.0
220
0.0
230
1.0
 70
           0
 71
           3
 72
           8
 73
           5
 74
           7
 42
0.00000000001
 43
0.00000000001
 44
0.00000000001
 40
0.0
 40
0.0
 40
0.0
 40
3.8762500418877397
 40
7.3133506766371639
 40
10.307153274791698
 40
10.307153274791698
 40
10.307153274791698
 10
-96.795884545192806
 20
225.67858459903101
 30
0.0
 10
-96.3764824987488
 20
227.56173106284899
 30
0.0
 10
-95.529991135880806
 20
231.36254040594699
 30
0.0
 10
-94.882119318511798
 20
234.271538942299
 30
0.0
 10
-94.555241639957401
 20
235.73924700273301
 30
0.0
 11
-96.795884545192806
 21
225.67858459903101
 31
0.0
 11
-96.369167864523959
 21
227.59457431597951
 31
0.0
 11
-95.927821915405431
 21
229.57625053918912
 31
0.0
 11
-95.542882428109451
 21
231.30465831266505
 31
0.0
 11
-95.183725525270802
 21
232.91730189957713
 31
0.0
 11
-94.875801450562946
 21
234.29990669672702
 31
0.0
 11
-94.555241639957401
 21
235.73924700273301
 31
0.0
  0
SPLINE
  5
15B
100
AcDbEntity
  8
0
  6
CONTINUOUS
 62
           7
100
AcDbSpline
210
0.0
220
0.0
230
1.0
 70
           0
 71
           3
 72
           8
 73
           5
 74
           7
 42
0.00000000001
 43
0.00000000001
 44
0.00000000001
 40
0.0
 40
0.0
 40
0.0
 40
3.8762500418877353
 40
7.3133506766371585
 40
10.307153274791697
 40
10.307153274791697
 40
10.307153274791697
 10
-57.175522322998013
 20
225.67858459903101
 30
0.0
 10
-57.594924369441998
 20
227.56173106284899
 30
0.0
 10
-58.441415732309991
 20
231.36254040594699
 30
0.0
 10
-59.089287549679
 20
234.271538942299
 30
0.0
 10
-59.41616522823341
 20
235.73924700273301
 30
0.0
 11
-57.175522322998013
 21
225.67858459903101
 31
0.0
 11
-57.602239003666838
 21
227.59457431597951
 31
0.0
 11
-58.043584952785373
 21
229.57625053918915
 31
0.0
 11
-58.428524440081347
 21
231.30465831266511
 31
0.0
 11
-58.787681342919988
 21
232.91730189957713
 31
0.0
 11
-59.095605417627844
 21
234.29990669672702
 31
0.0
 11
-59.41616522823341
 21
235.73924700273301
 31
0.0
  0
SPLINE
  5
15A
100
AcDbEntity
  8
0
  6
CONTINUOUS
 62
           7
100
AcDbSpline
210
0.0
220
0.0
230
1.0
 70
           0
 71
           3
 72
          22
 73
          19
 74
          35
 42
0.00000000001
 43
0.00000000001
 44
0.00000000001
 40
0.0
 40
0.0
 40
0.0
 40
2.4342835363308097
 40
5.4058214792601227
 40
8.783508848391568
 40
11.895185311664305
 40
14.932511592744701
 40
17.935450492688311
 40
20.716851809473877
 40
23.349990613299418
 40
26.110432622521834
 40
29.078729086035882
 40
32.029650125754813
 40
34.932350291963523
 40
37.939103624623542
 40
41.088285600557299
 40
44.260576085686751
 40
46.827150748679628
 40
48.832556757664037
 40
48.832556757664037
 40
48.832556757664037
 10
-94.555241639957401
 20
235.73924700273301
 30
0.0
 10
-94.222189071102605
 20
236.910384940353
 30
0.0
 10
-93.556557595755606
 20
239.25099524080099
 30
0.0
 10
-91.771234456928809
 20
242.27263745558099
 30
0.0
 10
-89.647434961486198
 20
244.727052217649
 30
0.0
 10
-87.364653043763596
 20
246.63891647152701
 30
0.0
 10
-84.685119126071797
 20
248.191851572225
 30
0.0
 10
-81.957745379862999
 20
249.203240795959
 30
0.0
 10
-79.354514602718808
 20
249.71956687207299
 30
0.0
 10
-76.748087871650796
 20
249.895185740447
 30
0.0
 10
-73.8503960256146
 20
249.644127388491
 30
0.0
 10
-70.924870828891798
 20
248.862870919729
 30
0.0
 10
-68.309655130566796
 20
247.67150455110499
 30
0.0
 10
-65.8494910102022
 20
246.07717307101501
 30
0.0
 10
-63.585398830434002
 20
243.98623730690099
 30
0.0
 10
-61.649302841415192
 20
241.41774480661701
 30
0.0
 10
-60.209565184881001
 20
238.64064380169299
 30
0.0
 10
-59.680698112685207
 20
236.706621474759
 30
0.0
 10
-59.41616522823341
 20
235.73924700273301
 30
0.0
 11
-94.555241639957401
 21
235.73924700273301
 31
0.0
 11
-94.23051745326562
 21
236.88109922025268
 31
0.0
 11
-93.922450030899853
 21
237.96437999757171
 31
0.0
 11
-93.439140832680621
 21
239.28288552592142
 31
0.0
 11
-92.720998108311363
 21
240.66517162451188
 31
0.0
 11
-91.732318129080682
 21
242.19014921247975
 31
0.0
 11
-90.665805494153787
 21
243.5501503142452
 31
0.0
 11
-89.613229595226059
 21
244.67469941803111
 31
0.0
 11
-88.492242963778068
 21
245.69454292258126
 31
0.0
 11
-87.309701952332802
 21
246.5980450841864
 31
0.0
 11
-86.017258758025989
 21
247.4198044711103
 31
0.0
 11
-84.664175169993513
 21
248.13010541796524
 31
0.0
 11
-83.269203669804511
 21
248.71691405630068
 31
0.0
 11
-81.951295802385616
 21
249.14796714441403
 31
0.0
 11
-80.620488780011939
 21
249.46847292943741
 31
0.0
 11
-79.352894652371702
 21
249.67822760947612
 31
0.0
 11
-78.082060624037254
 21
249.80530376432105
 31
0.0
 11
-76.732511611925389
 21
249.84247158872353
 31
0.0
 11
-75.351810080362696
 21
249.77421110967904
 31
0.0
 11
-73.858985431942415
 21
249.57870459514311
 31
0.0
 11
-72.383339596177677
 21
249.25235249391125
 31
0.0
 11
-70.959893110310816
 21
248.81009373968263
 31
0.0
 11
-69.606491187281989
 21
248.26228062536114
 31
0.0
 11
-68.331758425390561
 21
247.62341624169505
 31
0.0
 11
-67.101232253146733
 21
246.88837523920924
 31
0.0
 11
-65.88596277942483
 21
246.02465383783988
 31
0.0
 11
-64.74363684414817
 21
245.05589397012011
 31
0.0
 11
-63.63383102413168
 21
243.93376356933209
 31
0.0
 11
-62.62088959151054
 21
242.70668569340631
 31
0.0
 11
-61.693237454076524
 21
241.35620332042959
 31
0.0
 11
-60.853454541965199
 21
239.88263797507798
 31
0.0
 11
-60.296314942902484
 21
238.67971661852664
 31
0.0
 11
-59.91267485988277
 21
237.55494089564272
 31
0.0
 11
-59.672559078371648
 21
236.67685771197344
 31
0.0
 11
-59.41616522823341
 21
235.73924700273301
 31
0.0
  0
SPLINE
  5
159
100
AcDbEntity
  8
0
  6
CONTINUOUS
 62
           7
100
AcDbSpline
210
0.0
220
0.0
230
1.0
 70
           0
 71
           3
 72
           9
 73
           6
 74
           9
 42
0.00000000001
 43
0.00000000001
 44
0.00000000001
 40
0.0
 40
0.0
 40
0.0
 40
0.2706687916550616
 40
0.709413429767218
 40
1.1130738691333342
 40
1.3359079235996874
 40
1.3359079235996874
 40
1.3359079235996874
 10
-56.997839014277389
 20
226.69422353161701
 30
0.0
 10
-57.007866246013613
 20
226.559266665715
 30
0.0
 10
-57.027922349454798
 20
226.28933086151301
 30
0.0
 10
-57.063752688082388
 20
225.683580206089
 30
0.0
 10
-57.089522544679603
 20
225.48473161948101
 30
0.0
 10
-57.105276386485201
 20
225.36316985739501
 30
0.0
 11
-56.997839014277389
 21
226.69422353161701
 31
0.0
 11
-57.007272483793088
 21
226.56725813240104
 31
0.0
 11
-57.015518428867715
 21
226.45627566655705
 31
0.0
 11
-57.029486692848586
 21
226.25219471881337
 31
0.0
 11
-57.046583643617055
 21
225.97384148567048
 31
0.0
 11
-57.063611409831367
 21
225.72411519346443
 31
0.0
 11
-57.080356619543622
 21
225.55545887600917
 31
0.0
 11
-57.091169523847
 21
225.47202299309154
 31
0.0
 11
-57.105276386485201
 21
225.36316985739501
 31
0.0
  0
SPLINE
  5
158
100
AcDbEntity
  8
0
  6
CONTINUOUS
 62
           7
100
AcDbSpline
210
0.0
220
0.0
230
1.0
 70
           0
 71
           3
 72
           9
 73
           6
 74
           9
 42
0.00000000001
 43
0.00000000001
 44
0.00000000001
 40
0.0
 40
0.0
 40
0.0
 40
0.2706687916550608
 40
0.709413429767218
 40
1.1130738691333337
 40
1.3359079235996874
 40
1.3359079235996874
 40
1.3359079235996874
 10
-96.973567853913408
 20
226.69422353161701
 30
0.0
 10
-96.963540622177206
 20
226.559266665715
 30
0.0
 10
-96.943484518736
 20
226.28933086151301
 30
0.0
 10
-96.907654180108409
 20
225.683580206089
 30
0.0
 10
-96.881884323511201
 20
225.48473161948101
 30
0.0
 10
-96.866130481705596
 20
225.36316985739501
 30
0.0
 11
-96.973567853913408
 21
226.69422353161701
 31
0.0
 11
-96.964134384397738
 21
226.56725813240101
 31
0.0
 11
-96.955888439323104
 21
226.45627566655708
 31
0.0
 11
-96.94192017534219
 21
226.25219471881334
 31
0.0
 11
-96.924823224573743
 21
225.97384148567045
 31
0.0
 11
-96.907795458359431
 21
225.7241151934644
 31
0.0
 11
-96.891050248647176
 21
225.55545887600914
 31
0.0
 11
-96.880237344343783
 21
225.47202299309154
 31
0.0
 11
-96.866130481705596
 21
225.36316985739501
 31
0.0
  0
SPLINE
  5
157
100
AcDbEntity
  8
0
  6
CONTINUOUS
 62
           7
100
AcDbSpline
210
0.0
220
0.0
230
1.0
 70
           0
 71
           3
 72
          10
 73
           7
 74
          11
 42
0.00000000001
 43
0.00000000001
 44
0.00000000001
 40
0.0
 40
0.0
 40
0.0
 40
2.1405756058543903
 40
4.8296451794683488
 40
9.141821914298573
 40
13.993593343016633
 40
19.384537092014796
 40
19.384537092014796
 40
19.384537092014796
 10
-96.975305701837598
 20
226.52194189382899
 30
0.0
 10
-96.961300662368799
 20
227.59057621072901
 30
0.0
 10
-96.933208721768608
 20
229.73409118053701
 30
0.0
 10
-96.835609976244001
 20
232.96705843660499
 30
0.0
 10
-96.613914375839201
 20
238.35241052699499
 30
0.0
 10
-96.275565905185204
 20
242.652750015317
 30
0.0
 10
-96.021890293107006
 20
245.876914882195
 30
0.0
 11
-96.975305701837598
 21
226.52194189382899
 31
0.0
 11
-96.961689223448843
 21
227.56092761850368
 31
0.0
 11
-96.948849867220218
 21
228.5406161587278
 31
0.0
 11
-96.927747468927961
 21
229.74615550720242
 31
0.0
 11
-96.895722564954411
 21
230.97582350900791
 31
0.0
 11
-96.824557917782656
 21
233.10278095069808
 31
0.0
 11
-96.731289153688238
 21
235.50118342057448
 31
0.0
 11
-96.603190827036684
 21
238.14885017336519
 31
0.0
 11
-96.453645402780097
 21
240.38939621889637
 31
0.0
 11
-96.256666876564381
 21
242.89295278293133
 31
0.0
 11
-96.021890293107006
 21
245.876914882195
 31
0.0
  0
SPLINE
  5
156
100
AcDbEntity
  8
0
  6
CONTINUOUS
 62
           7
100
AcDbSpline
210
0.0
220
0.0
230
1.0
 70
           0
 71
           3
 72
          10
 73
           7
 74
          11
 42
0.00000000001
 43
0.00000000001
 44
0.00000000001
 40
0.0
 40
0.0
 40
0.0
 40
2.1405756058543903
 40
4.8296451794683488
 40
9.141821914298573
 40
13.993593343016633
 40
19.384537092014796
 40
19.384537092014796
 40
19.384537092014796
 10
-56.996101166353213
 20
226.52194189382899
 30
0.0
 10
-57.010106205822012
 20
227.59057621072901
 30
0.0
 10
-57.038198146422189
 20
229.73409118053701
 30
0.0
 10
-57.135796891946796
 20
232.96705843660499
 30
0.0
 10
-57.357492492351611
 20
238.35241052699499
 30
0.0
 10
-57.695840963005587
 20
242.652750015317
 30
0.0
 10
-57.949516575083813
 20
245.876914882195
 30
0.0
 11
-56.996101166353213
 21
226.52194189382899
 31
0.0
 11
-57.009717644741947
 21
227.56092761850368
 31
0.0
 11
-57.022557000970579
 21
228.5406161587278
 31
0.0
 11
-57.043659399262829
 21
229.74615550720242
 31
0.0
 11
-57.075684303236386
 21
230.97582350900791
 31
0.0
 11
-57.146848950408135
 21
233.10278095069808
 31
0.0
 11
-57.240117714502574
 21
235.50118342057448
 31
0.0
 11
-57.368216041154128
 21
238.14885017336519
 31
0.0
 11
-57.517761465410707
 21
240.38939621889637
 31
0.0
 11
-57.714739991626423
 21
242.89295278293133
 31
0.0
 11
-57.949516575083813
 21
245.876914882195
 31
0.0
  0
SPLINE
  5
155
100
AcDbEntity
  8
0
  6
CONTINUOUS
 62
           7
100
AcDbSpline
210
0.0
220
0.0
230
1.0
 70
           0
 71
           3
 72
          14
 73
          11
 74
          19
 42
0.00000000001
 43
0.00000000001
 44
0.00000000001
 40
0.0
 40
0.0
 40
0.0
 40
4.9595432062455096
 40
9.1188108448874079
 40
12.138017484210739
 40
13.353235915802614
 40
13.937736904549215
 40
14.212276432811635
 40
14.416748198417134
 40
14.599790648845335
 40
14.775623290300198
 40
14.775623290300198
 40
14.775623290300198
 10
-91.709108676061604
 20
250.78495132280699
 30
0.0
 10
-88.715167131709208
 20
251.14067094237501
 30
0.0
 10
-84.853242887487198
 20
251.599518318853
 30
0.0
 10
-80.427318253954596
 20
251.776155799777
 30
0.0
 10
-78.818759176285809
 20
251.812307337623
 30
0.0
 10
-77.997341521815002
 20
251.821720910019
 30
0.0
 10
-77.649820308927602
 20
251.82424570817699
 30
0.0
 10
-77.448274390825404
 20
251.82529935493699
 30
0.0
 10
-77.240881006713408
 20
251.82608150640499
 30
0.0
 10
-77.082191013689396
 20
251.826206015319
 30
0.0
 10
-76.985703422868198
 20
251.826281719935
 30
0.0
 11
-91.709108676061604
 21
250.78495132280699
 31
0.0
 11
-88.938546216266644
 21
251.11413057015957
 31
0.0
 11
-86.614741925586557
 21
251.39022907308134
 31
0.0
 11
-84.652513270702357
 21
251.5727823134178
 31
0.0
 11
-82.288825382248433
 21
251.70186354288387
 31
0.0
 11
-80.605963533775281
 21
251.76402687857541
 31
0.0
 11
-79.280392244943471
 21
251.80193237186376
 31
0.0
 11
-78.795506680213009
 21
251.81130266981231
 31
0.0
 11
-78.264116123336947
 21
251.81866363213948
 31
0.0
 11
-78.004920820624989
 21
251.82138606593196
 31
0.0
 11
-77.760884115533003
 21
251.82343881155043
 31
0.0
 11
-77.648707859387088
 21
251.82419495524388
 31
0.0
 11
-77.534306704160173
 21
251.82484959307106
 31
0.0
 11
-77.442424704159976
 21
251.82529008997028
 31
0.0
 11
-77.338843330828894
 21
251.82571205693606
 31
0.0
 11
-77.245136827906251
 21
251.8260050203254
 31
0.0
 11
-77.159941967369292
 21
251.8261450115555
 31
0.0
 11
-77.077506854404078
 21
251.8262096905321
 31
0.0
 11
-76.985703422868198
 21
251.826281719935
 31
0.0
  0
SPLINE
  5
154
100
AcDbEntity
  8
0
  6
CONTINUOUS
 62
           7
100
AcDbSpline
210
0.0
220
0.0
230
1.0
 70
           0
 71
           3
 72
          14
 73
          11
 74
          19
 42
0.00000000001
 43
0.00000000001
 44
0.00000000001
 40
0.0
 40
0.0
 40
0.0
 40
4.9595432062455025
 40
9.1188108448872942
 40
12.138017484210632
 40
13.353235915802507
 40
13.937736904549102
 40
14.212276432811628
 40
14.416748198417134
 40
14.599790648845328
 40
14.775623267845789
 40
14.775623267845789
 40
14.775623267845789
 10
-62.262298192129208
 20
250.78495132280699
 30
0.0
 10
-65.256239736481604
 20
251.14067094237501
 30
0.0
 10
-69.118163980703599
 20
251.599518318853
 30
0.0
 10
-73.544088614236003
 20
251.776155799777
 30
0.0
 10
-75.152647691905003
 20
251.812307337623
 30
0.0
 10
-75.974065346375596
 20
251.821720910019
 30
0.0
 10
-76.321586559263196
 20
251.82424570817699
 30
0.0
 10
-76.523132477365408
 20
251.82529935493699
 30
0.0
 10
-76.730525861477403
 20
251.82608150640499
 30
0.0
 10
-76.889215854501401
 20
251.826206015319
 30
0.0
 10
-76.985703422868198
 20
251.826281719935
 30
0.0
 11
-62.262298192129208
 21
250.78495132280699
 31
0.0
 11
-65.032860651924167
 21
251.11413057015957
 31
0.0
 11
-67.356664942604269
 21
251.39022907308134
 31
0.0
 11
-69.318893597488426
 21
251.57278231341783
 31
0.0
 11
-71.682581485942208
 21
251.70186354288387
 31
0.0
 11
-73.365443334415374
 21
251.76402687857541
 31
0.0
 11
-74.691014623247284
 21
251.80193237186376
 31
0.0
 11
-75.17590018797776
 21
251.81130266981233
 31
0.0
 11
-75.707290744853722
 21
251.8186636321395
 31
0.0
 11
-75.966486047565652
 21
251.82138606593199
 31
0.0
 11
-76.21052275265771
 21
251.82343881155043
 31
0.0
 11
-76.322699008803696
 21
251.82419495524385
 31
0.0
 11
-76.437100164030653
 21
251.82484959307101
 31
0.0
 11
-76.52898216403085
 21
251.82529008997028
 31
0.0
 11
-76.632563537361904
 21
251.82571205693606
 31
0.0
 11
-76.72627004155062
 21
251.82600502032636
 31
0.0
 11
-76.811464905885785
 21
251.82614501155945
 31
0.0
 11
-76.893900009439193
 21
251.82620969053312
 31
0.0
 11
-76.985703422868198
 21
251.826281719935
 31
0.0
  0
SPLINE
  5
153
100
AcDbEntity
  8
0
  6
CONTINUOUS
 62
           7
100
AcDbSpline
210
0.0
220
0.0
230
1.0
 70
           0
 71
           3
 72
          12
 73
           9
 74
          15
 42
0.00000000001
 43
0.00000000001
 44
0.00000000001
 40
0.0
 40
0.0
 40
0.0
 40
0.5913307026057098
 40
1.366921346758204
 40
2.1581440891810004
 40
2.7097621041756099
 40
3.0034188361664178
 40
3.0837904844972144
 40
3.0897548422217938
 40
3.0897548422217938
 40
3.0897548422217938
 10
-70.277499619171607
 20
204.82627983680101
 30
0.0
 10
-70.004445603308596
 20
204.82627983680101
 30
0.0
 10
-69.367892229823198
 20
204.82627983680101
 30
0.0
 10
-68.453264315003608
 20
204.82627983680101
 30
0.0
 10
-67.785446744977605
 20
204.82627983680101
 30
0.0
 10
-67.350028285014389
 20
204.82627983680101
 30
0.0
 10
-67.198133280995989
 20
204.82627983680101
 30
0.0
 10
-67.189284988352796
 20
204.82627983680101
 30
0.0
 10
-67.187744776949813
 20
204.82627983680101
 30
0.0
 11
-70.277499619171607
 21
204.82627983680101
 31
0.0
 11
-70.003865798461831
 21
204.82627983680098
 31
0.0
 11
-69.729072368058553
 21
204.82627983680101
 31
0.0
 11
-69.344999430449022
 21
204.82627983680098
 31
0.0
 11
-68.915140894091167
 21
204.82627983680101
 31
0.0
 11
-68.470361324755871
 21
204.82627983680101
 31
0.0
 11
-68.0597757749251
 21
204.82627983680101
 31
0.0
 11
-67.782991547650667
 21
204.82627983680101
 31
0.0
 11
-67.501296925722372
 21
204.82627983680101
 31
0.0
 11
-67.358031537455687
 21
204.82627983680101
 31
0.0
 11
-67.230772654071572
 21
204.82627983680101
 31
0.0
 11
-67.204233867944325
 21
204.82627983680098
 31
0.0
 11
-67.189896255713748
 21
204.82627983680101
 31
0.0
 11
-67.189052752342292
 21
204.82627983680101
 31
0.0
 11
-67.187744776949813
 21
204.82627983680101
 31
0.0
  0
SPLINE
  5
152
100
AcDbEntity
  8
0
  6
CONTINUOUS
 62
           7
100
AcDbSpline
210
0.0
220
0.0
230
1.0
 70
           0
 71
           3
 72
          12
 73
           9
 74
          15
 42
0.00000000001
 43
0.00000000001
 44
0.00000000001
 40
0.0
 40
0.0
 40
0.0
 40
0.5913307026056955
 40
1.3669213467581969
 40
2.1581440891810004
 40
2.7097621041756028
 40
3.0034188361664036
 40
3.0837904844972002
 40
3.0897548422215948
 40
3.0897548422215948
 40
3.0897548422215948
 10
-83.693907249019205
 20
204.82627983680101
 30
0.0
 10
-83.966961264882201
 20
204.82627983680101
 30
0.0
 10
-84.603514638367599
 20
204.82627983680101
 30
0.0
 10
-85.518142553187204
 20
204.82627983680101
 30
0.0
 10
-86.185960123213206
 20
204.82627983680101
 30
0.0
 10
-86.621378583176408
 20
204.82627983680101
 30
0.0
 10
-86.773273587194808
 20
204.82627983680101
 30
0.0
 10
-86.782121879838002
 20
204.82627983680101
 30
0.0
 10
-86.783662091240799
 20
204.82627983680101
 30
0.0
 11
-83.693907249019205
 21
204.82627983680101
 31
0.0
 11
-83.967541069728966
 21
204.82627983680101
 31
0.0
 11
-84.242334500132245
 21
204.82627983680101
 31
0.0
 11
-84.626407437741761
 21
204.82627983680098
 31
0.0
 11
-85.056265974099631
 21
204.82627983680101
 31
0.0
 11
-85.501045543434941
 21
204.82627983680101
 31
0.0
 11
-85.911631093265711
 21
204.82627983680101
 31
0.0
 11
-86.18841532054013
 21
204.82627983680098
 31
0.0
 11
-86.470109942468426
 21
204.82627983680101
 31
0.0
 11
-86.613375330735124
 21
204.82627983680101
 31
0.0
 11
-86.740634214119225
 21
204.82627983680101
 31
0.0
 11
-86.767173000246487
 21
204.82627983680101
 31
0.0
 11
-86.781510612477092
 21
204.82627983680104
 31
0.0
 11
-86.782354115848463
 21
204.82627983680101
 31
0.0
 11
-86.783662091240799
 21
204.82627983680101
 31
0.0
  0
SPLINE
  5
151
100
AcDbEntity
  8
0
  6
CONTINUOUS
 62
           7
100
AcDbSpline
210
0.0
220
0.0
230
1.0
 70
           0
 71
           3
 72
          12
 73
           9
 74
          15
 42
0.00000000001
 43
0.00000000001
 44
0.00000000001
 40
0.0
 40
0.0
 40
0.0
 40
0.0259559137663737
 40
0.1560989735378059
 40
0.5116034929118766
 40
1.1584289531926553
 40
1.9798184180706617
 40
2.6519625752620666
 40
3.0897548422226659
 40
3.0897548422226659
 40
3.0897548422226659
 10
-86.783662091240799
 20
208.82628002679101
 30
0.0
 10
-86.7702906729548
 20
208.82627999409701
 30
0.0
 10
-86.745121681994206
 20
208.826279932559
 30
0.0
 10
-86.5100045534126
 20
208.82628045853301
 30
0.0
 10
-86.034112643246999
 20
208.826279884559
 30
0.0
 10
-85.216353632851408
 20
208.82628006621101
 30
0.0
 10
-84.391333713491008
 20
208.82628002214901
 30
0.0
 10
-83.8720653184686
 20
208.826280025605
 30
0.0
 10
-83.693907249019205
 20
208.82628002679101
 30
0.0
 11
-86.783662091240799
 21
208.82628002679101
 31
0.0
 11
-86.772587261583368
 21
208.82627999971237
 31
0.0
 11
-86.766105609183057
 21
208.82627998386454
 31
0.0
 11
-86.734616085984655
 21
208.82627998062279
 31
0.0
 11
-86.682115370767207
 21
208.82628007350866
 31
0.0
 11
-86.510835144966165
 21
208.8262803113829
 31
0.0
 11
-86.341216102272298
 21
208.826280254957
 31
0.0
 11
-86.020822105047927
 21
208.8262799971653
 31
0.0
 11
-85.673847031425439
 21
208.82627996458621
 31
0.0
 11
-85.217294204674658
 21
208.82628003474667
 31
0.0
 11
-84.762622521570378
 21
208.82628004197852
 31
0.0
 11
-84.405542580067987
 21
208.82628002762959
 31
0.0
 11
-84.07688037171954
 21
208.82628002424184
 31
0.0
 11
-83.87872956441899
 21
208.82628002556072
 31
0.0
 11
-83.693907249019205
 21
208.82628002679101
 31
0.0
  0
SPLINE
  5
150
100
AcDbEntity
  8
0
  6
CONTINUOUS
 62
           7
100
AcDbSpline
210
0.0
220
0.0
230
1.0
 70
           0
 71
           3
 72
          12
 73
           9
 74
          15
 42
0.00000000001
 43
0.00000000001
 44
0.00000000001
 40
0.0
 40
0.0
 40
0.0
 40
0.0259559137665727
 40
0.1560989735379977
 40
0.5116034929120613
 40
1.1584289531928471
 40
1.9798184180708607
 40
2.6519625752622584
 40
3.0897548422228649
 40
3.0897548422228649
 40
3.0897548422228649
 10
-67.187744776949813
 20
208.82628002679101
 30
0.0
 10
-67.201116195236011
 20
208.82627999409701
 30
0.0
 10
-67.226285186196606
 20
208.826279932559
 30
0.0
 10
-67.461402314778198
 20
208.82628045853301
 30
0.0
 10
-67.937294224943798
 20
208.826279884559
 30
0.0
 10
-68.755053235339403
 20
208.82628006621101
 30
0.0
 10
-69.580073154699804
 20
208.82628002214901
 30
0.0
 10
-70.099341549722197
 20
208.826280025605
 30
0.0
 10
-70.277499619171607
 20
208.82628002679101
 30
0.0
 11
-67.187744776949813
 21
208.82628002679101
 31
0.0
 11
-67.198819606607415
 21
208.82627999971237
 31
0.0
 11
-67.205301259007783
 21
208.82627998386457
 31
0.0
 11
-67.236790782206143
 21
208.82627998062279
 31
0.0
 11
-67.289291497423605
 21
208.82628007350866
 31
0.0
 11
-67.460571723224632
 21
208.82628031138293
 31
0.0
 11
-67.630190765918485
 21
208.826280254957
 31
0.0
 11
-67.950584763142857
 21
208.8262799971653
 31
0.0
 11
-68.297559836765373
 21
208.82627996458621
 31
0.0
 11
-68.754112663516153
 21
208.82628003474667
 31
0.0
 11
-69.208784346620433
 21
208.82628004197852
 31
0.0
 11
-69.565864288122825
 21
208.82628002762962
 31
0.0
 11
-69.894526496471258
 21
208.82628002424187
 31
0.0
 11
-70.092677303771808
 21
208.82628002556069
 31
0.0
 11
-70.277499619171607
 21
208.82628002679101
 31
0.0
  0
CIRCLE
  5
14F
100
AcDbEntity
  8
0
  6
CONTINUOUS
 62
           7
100
AcDbCircle
 10
-76.985703434024
 20
206.826279931891
 40
0.225
  0
CIRCLE
  5
14E
100
AcDbEntity
  8
0
  6
CONTINUOUS
 62
           7
100
AcDbCircle
 10
-76.985703434024
 20
206.826279931891
 40
1.0
  0
CIRCLE
  5
14D
100
AcDbEntity
  8
0
  6
CONTINUOUS
 62
           7
100
AcDbCircle
 10
-76.985703434024
 20
206.826279931891
 40
2.0
  0
CIRCLE
  5
14C
100
AcDbEntity
  8
0
  6
CONTINUOUS
 62
           7
100
AcDbCircle
 10
-76.985703434024
 20
206.826279931891
 40
0.5
  0
CIRCLE
  5
14B
100
AcDbEntity
  8
0
  6
CONTINUOUS
 62
           7
100
AcDbCircle
 10
-76.985703434024
 20
206.826279931891
 40
20.5
  0
CIRCLE
  5
14A
100
AcDbEntity
  8
0
  6
CONTINUOUS
 62
           7
100
AcDbCircle
 10
-76.985703434024
 20
206.826279931891
 40
13.0
  0
ARC
  5
149
100
AcDbEntity
  8
0
  6
CONTINUOUS
 62
           7
100
AcDbCircle
 10
271.313070144515
 20
192.126204564091
 40
0.200000000001
100
AcDbArc
 50
-89.957258473793
 51
0.0
  0
ARC
  5
148
100
AcDbEntity
  8
0
  6
CONTINUOUS
 62
           7
100
AcDbCircle
 10
271.313070144515
 20
251.626279931891
 40
0.2
100
AcDbArc
 50
0.0
 51
90.0
  0
ARC
  5
147
100
AcDbEntity
  8
0
  6
CONTINUOUS
 62
           7
100
AcDbCircle
 10
271.313070144515
 20
187.026279931891
 40
0.2
100
AcDbArc
 50
-90.0
 51
0.0
  0
ARC
  5
146
100
AcDbEntity
  8
0
  6
CONTINUOUS
 62
           7
100
AcDbCircle
 10
272.513070144515
 20
243.864862164891
 40
1.0
100
AcDbArc
 50
-90.0
 51
0.0
  0
ARC
  5
145
100
AcDbEntity
  8
0
  6
CONTINUOUS
 62
           7
100
AcDbCircle
 10
272.513070144515
 20
247.364862164891
 40
1.0
100
AcDbArc
 50
0.0
 51
90.0
  0
ARC
  5
144
100
AcDbEntity
  8
0
  6
CONTINUOUS
 62
           7
100
AcDbCircle
 10
310.513070144515
 20
238.326279931891
 40
0.5
100
AcDbArc
 50
0.0
 51
90.0
  0
ARC
  5
143
100
AcDbEntity
  8
0
  6
CONTINUOUS
 62
           7
100
AcDbCircle
 10
310.513070144515
 20
219.326279931891
 40
0.5
100
AcDbArc
 50
-90.0
 51
0.0
  0
ARC
  5
142
100
AcDbEntity
  8
0
  6
CONTINUOUS
 62
           7
100
AcDbCircle
 10
154.461720164915
 20
240.371425841491
 40
9.454144860865
100
AcDbArc
 50
89.643135637995
 51
108.275523299602
  0
ARC
  5
141
100
AcDbEntity
  8
0
  6
CONTINUOUS
 62
           7
100
AcDbCircle
 10
179.357435930115
 20
159.058839083491
 40
94.501848801019
100
AcDbArc
 50
106.9827689813
 51
132.0980775152
  0
ARC
  5
140
100
AcDbEntity
  8
0
  6
CONTINUOUS
 62
           7
100
AcDbCircle
 10
109.569781521915
 20
236.123826350491
 40
9.275365116684
100
AcDbArc
 50
-91.579580689202
 51
-47.135589038103
  0
ARC
  5
13F
100
AcDbEntity
  8
0
  6
CONTINUOUS
 62
           7
100
AcDbCircle
 10
19.084137956515
 20
222.326279931891
 40
5.0
100
AcDbArc
 50
90.0
 51
135.0
  0
ARC
  5
13E
100
AcDbEntity
  8
0
  6
CONTINUOUS
 62
           7
100
AcDbCircle
 10
19.084137956515
 20
191.326279931891
 40
4.999999999999
100
AcDbArc
 50
-135.0
 51
-90.0
  0
ARC
  5
13D
100
AcDbEntity
  8
0
  6
CONTINUOUS
 62
           7
100
AcDbCircle
 10
11.513070144515
 20
196.068920618891
 40
3.0
100
AcDbArc
 50
180.0
 51
-135.0
  0
ARC
  5
13C
100
AcDbEntity
  8
0
  6
CONTINUOUS
 62
           7
100
AcDbCircle
 10
11.513070144515
 20
217.583639244691
 40
3.000000000001
100
AcDbArc
 50
135.0
 51
180.0
  0
ARC
  5
13B
100
AcDbEntity
  8
0
  6
CONTINUOUS
 62
           7
100
AcDbCircle
 10
-23.986929855485
 20
199.826279931891
 40
3.0
100
AcDbArc
 50
180.0
 51
-90.0
  0
ARC
  5
13A
100
AcDbEntity
  8
0
  6
CONTINUOUS
 62
           7
100
AcDbCircle
 10
-23.986929855485
 20
213.826279931891
 40
3.0
100
AcDbArc
 50
90.0
 51
180.0
  0
ARC
  5
139
100
AcDbEntity
  8
0
  6
CONTINUOUS
 62
           7
100
AcDbCircle
 10
271.362041624115
 20
204.329827134291
 40
0.373558778148
100
AcDbArc
 50
-97.532704925367
 51
-66.152857974214
  0
ARC
  5
138
100
AcDbEntity
  8
0
  6
CONTINUOUS
 62
           7
100
AcDbCircle
 10
173.013070144515
 20
215.176775997891
 40
3.000000000001
100
AcDbArc
 50
107.457603123679
 51
180.0
  0
ARC
  5
137
100
AcDbEntity
  8
0
  6
CONTINUOUS
 62
           7
100
AcDbCircle
 10
187.013070144515
 20
170.659613265091
 40
49.666666666666
100
AcDbArc
 50
90.0
 51
107.457603123716
  0
ARC
  5
136
100
AcDbEntity
  8
0
  6
CONTINUOUS
 62
           7
100
AcDbCircle
 10
271.362640283515
 20
245.736793126691
 40
0.559906703261
100
AcDbArc
 50
74.414832579597
 51
95.07911891678
  0
ARC
  5
135
100
AcDbEntity
  8
0
  6
CONTINUOUS
 62
           7
100
AcDbCircle
 10
271.838988463115
 20
203.110239817291
 40
0.66155847582
100
AcDbArc
 50
82.446133032341
 51
119.515007117779
  0
ARC
  5
134
100
AcDbEntity
  8
0
  6
CONTINUOUS
 62
           7
100
AcDbCircle
 10
271.314059193315
 20
250.585973278691
 40
0.199014024992
100
AcDbArc
 50
0.289322143286
 51
90.284494281382
  0
ARC
  5
133
100
AcDbEntity
  8
0
  6
CONTINUOUS
 62
           7
100
AcDbCircle
 10
271.830286618315
 20
242.746604272291
 40
1.353560087615
100
AcDbArc
 50
-103.553708181533
 51
-86.26466619758
  0
ARC
  5
132
100
AcDbEntity
  8
0
  6
CONTINUOUS
 62
           7
100
AcDbCircle
 10
271.331492648915
 20
191.114315624691
 40
0.183052022998
100
AcDbArc
 50
-95.775796867443
 51
-7.27594867033
  0
ARC
  5
131
100
AcDbEntity
  8
0
  6
CONTINUOUS
 62
           7
100
AcDbCircle
 10
271.971108192115
 20
190.860225360091
 40
0.459908684206
100
AcDbArc
 50
88.027423122346
 51
174.829814156811
  0
ARC
  5
130
100
AcDbEntity
  8
0
  6
CONTINUOUS
 62
           7
100
AcDbCircle
 10
272.013070144515
 20
249.326279931891
 40
0.5
100
AcDbArc
 50
180.0
 51
-90.0
  0
ARC
  5
12F
100
AcDbEntity
  8
0
  6
CONTINUOUS
 62
           7
100
AcDbCircle
 10
305.513070144515
 20
246.326279931891
 40
2.500000000001
100
AcDbArc
 50
14.174770560207
 51
90.0
  0
ARC
  5
12E
100
AcDbEntity
  8
0
  6
CONTINUOUS
 62
           7
100
AcDbCircle
 10
187.013070144515
 20
170.659613265091
 40
49.666666666666
100
AcDbArc
 50
90.0
 51
108.341817579599
  0
ARC
  5
12D
100
AcDbEntity
  8
0
  6
CONTINUOUS
 62
           7
100
AcDbCircle
 10
172.013070144515
 20
215.904625267691
 40
1.999999999954
100
AcDbArc
 50
108.341817579609
 51
180.0
  0
ARC
  5
12C
100
AcDbEntity
  8
0
  6
CONTINUOUS
 62
           7
100
AcDbCircle
 10
-92.985703434024
 20
197.426279931891
 40
5.500075311981
100
AcDbArc
 50
180.0
 51
-85.493137270798
  0
ARC
  5
12B
100
AcDbEntity
  8
0
  6
CONTINUOUS
 62
           7
100
AcDbCircle
 10
-60.985703434024
 20
197.426279931891
 40
5.500075311981
100
AcDbArc
 50
0.0
 51
33.638391222296
  0
ARC
  5
12A
100
AcDbEntity
  8
0
  6
CONTINUOUS
 62
           7
100
AcDbCircle
 10
-52.955838837624
 20
202.959615428891
 40
4.224359664513
100
AcDbArc
 50
-172.417419032992
 51
-144.435427601909
  0
ARC
  5
129
100
AcDbEntity
  8
0
  6
CONTINUOUS
 62
           7
100
AcDbCircle
 10
-92.062441900224
 20
187.710277234691
 40
4.232353626493
100
AcDbArc
 50
68.320446085096
 51
96.406340723601
  0
ARC
  5
128
100
AcDbEntity
  8
0
  6
CONTINUOUS
 62
           7
100
AcDbCircle
 10
-76.985703434024
 20
147.218159712091
 40
104.608120219659
100
AcDbArc
 50
81.9089946454
 51
91.4386036515
  0
ARC
  5
127
100
AcDbEntity
  8
0
  6
CONTINUOUS
 62
           7
100
AcDbCircle
 10
-92.785703434024
 20
197.426279931891
 40
3.5
100
AcDbArc
 50
-145.103701297895
 51
-104.340816876903
  0
ARC
  5
126
100
AcDbEntity
  8
0
  6
CONTINUOUS
 62
           7
100
AcDbCircle
 10
-92.785703434024
 20
197.426279931891
 40
3.5
100
AcDbArc
 50
-169.850951530292
 51
-145.103701297895
  0
ARC
  5
125
100
AcDbEntity
  8
0
  6
CONTINUOUS
 62
           7
100
AcDbCircle
 10
-61.185703434024
 20
197.426279931891
 40
3.0
100
AcDbArc
 50
-67.782770180799
 51
8.045161400017
  0
ARC
  5
124
100
AcDbEntity
  8
0
  6
CONTINUOUS
 62
           7
100
AcDbCircle
 10
-61.185703434024
 20
197.426279931891
 40
3.499999999999
100
AcDbArc
 50
-74.912081227097
 51
10.149048469708
  0
ARC
  5
123
100
AcDbEntity
  8
0
  6
CONTINUOUS
 62
           7
100
AcDbCircle
 10
-61.985703434024
 20
224.276235209691
 40
5.0
100
AcDbArc
 50
0.0
 51
12.555609678197
  0
ARC
  5
122
100
AcDbEntity
  8
0
  6
CONTINUOUS
 62
           7
100
AcDbCircle
 10
-91.985703434024
 20
224.276235209691
 40
5.0
100
AcDbArc
 50
167.444390321803
 51
180.0
  0
ARC
  5
121
100
AcDbEntity
  8
0
  6
CONTINUOUS
 62
           7
100
AcDbCircle
 10
-299.521376833024
 20
224.276235209691
 40
242.535673398959
100
AcDbArc
 50
0.0000085738
 51
0.5305256492
  0
ARC
  5
120
100
AcDbEntity
  8
0
  6
CONTINUOUS
 62
           7
100
AcDbCircle
 10
145.549969964776
 20
224.276235209691
 40
242.535673398959
100
AcDbArc
 50
179.4694743508
 51
179.9999914262
  0
ARC
  5
11F
100
AcDbEntity
  8
0
  6
CONTINUOUS
 62
           7
100
AcDbCircle
 10
-62.966039280424
 20
245.834723385291
 40
5.0
100
AcDbArc
 50
5.20727038889
 51
81.908856035201
  0
ARC
  5
11E
100
AcDbEntity
  8
0
  6
CONTINUOUS
 62
           7
100
AcDbCircle
 10
-91.005367587824
 20
245.834723385291
 40
5.000000000001
100
AcDbArc
 50
98.091143964798
 51
174.792729611109
  0
ARC
  5
11D
100
AcDbEntity
  8
0
  6
CONTINUOUS
 62
           7
100
AcDbCircle
 10
-76.985703434024
 20
206.826279931891
 40
2.500000000001
100
AcDbArc
 50
-53.130102354213
 51
11.51213052102
  0
ARC
  5
11C
100
AcDbEntity
  8
0
  6
CONTINUOUS
 62
           7
100
AcDbCircle
 10
-76.985703434024
 20
206.826279931891
 40
2.500000000001
100
AcDbArc
 50
126.869897645787
 51
-126.869897645787
  0
ARC
  5
11B
100
AcDbEntity
  8
0
  6
CONTINUOUS
 62
           7
100
AcDbCircle
 10
-76.985703434024
 20
206.826279931891
 40
10.0
100
AcDbArc
 50
-168.463040967196
 51
-11.536959032804
  0
ARC
  5
11A
100
AcDbEntity
  8
0
  6
CONTINUOUS
 62
           7
100
AcDbCircle
 10
-76.985703434024
 20
206.826279931891
 40
10.0
100
AcDbArc
 50
11.536959032804
 51
168.463040967196
  0
ARC
  5
119
100
AcDbEntity
  8
0
  6
CONTINUOUS
 62
           7
100
AcDbCircle
 10
-76.985703434024
 20
206.826279931891
 40
7.5
100
AcDbArc
 50
-15.466009953404
 51
15.466009953404
  0
ARC
  5
118
100
AcDbEntity
  8
0
  6
CONTINUOUS
 62
           7
100
AcDbCircle
 10
-76.985703434024
 20
206.826279931891
 40
10.0
100
AcDbArc
 50
-11.536959032804
 51
11.536959032804
  0
ARC
  5
117
100
AcDbEntity
  8
0
  6
CONTINUOUS
 62
           7
100
AcDbCircle
 10
-76.985703434024
 20
206.826279931891
 40
7.5
100
AcDbArc
 50
164.533990046595
 51
-164.533990046595
  0
ARC
  5
116
100
AcDbEntity
  8
0
  6
CONTINUOUS
 62
           7
100
AcDbCircle
 10
-76.985703434024
 20
206.826279931891
 40
10.0
100
AcDbArc
 50
168.463040967196
 51
-168.463040967196
  0
ARC
  5
115
100
AcDbEntity
  8
0
  6
CONTINUOUS
 62
           7
100
AcDbCircle
 10
-60.985703434024
 20
197.426279931891
 40
5.500075311981
100
AcDbArc
 50
-94.506862729199
 51
0.0
  0
ARC
  5
114
100
AcDbEntity
  8
0
  6
CONTINUOUS
 62
           7
100
AcDbCircle
 10
-92.985703434024
 20
197.426279931891
 40
5.500075311981
100
AcDbArc
 50
146.361608777704
 51
180.0
  0
LINE
  5
113
100
AcDbEntity
  8
0
  6
CONTINUOUS
 62
           7
100
AcDbLine
 10
312.013070144515
 20
212.399654134291
 11
323.513070144515
 21
201.252905729491
  0
LINE
  5
112
100
AcDbEntity
  8
0
  6
CONTINUOUS
 62
           7
100
AcDbLine
 10
323.513070144515
 20
212.399654134291
 11
312.013070144515
 21
201.252905729491
  0
LINE
  5
111
100
AcDbEntity
  8
0
  6
CONTINUOUS
 62
           7
100
AcDbLine
 10
170.013073601715
 20
186.826280378891
 11
271.313071020715
 21
186.826280378891
  0
LINE
  5
110
100
AcDbEntity
  8
0
  6
CONTINUOUS
 62
           7
100
AcDbLine
 10
271.313071020715
 20
251.826281719891
 11
266.513071724115
 21
251.826281719891
  0
LINE
  5
10F
100
AcDbEntity
  8
0
  6
CONTINUOUS
 62
           7
100
AcDbLine
 10
8.513081588715
 20
216.576280132891
 11
7.513064660915
 21
216.576280132891
  0
LINE
  5
10E
100
AcDbEntity
  8
0
  6
CONTINUOUS
 62
           7
100
AcDbLine
 10
7.513064660915
 20
197.076279730691
 11
8.513081588715
 21
197.076279730691
  0
LINE
  5
10D
100
AcDbEntity
  8
0
  6
CONTINUOUS
 62
           7
100
AcDbLine
 10
275.013070323315
 20
193.926279493691
 11
275.513071336715
 21
194.426279575691
  0
LINE
  5
10C
100
AcDbEntity
  8
0
  6
CONTINUOUS
 62
           7
100
AcDbLine
 10
275.513071336715
 20
200.426280093491
 11
275.013070323315
 21
200.926279709691
  0
LINE
  5
10B
100
AcDbEntity
  8
0
  6
CONTINUOUS
 62
           7
100
AcDbLine
 10
271.513070680915
 20
193.926279493691
 11
275.013070323315
 21
193.926279493691
  0
LINE
  5
10A
100
AcDbEntity
  8
0
  6
CONTINUOUS
 62
           7
100
AcDbLine
 10
275.013070323315
 20
200.926279709691
 11
271.513070680915
 21
200.926279709691
  0
LINE
  5
109
100
AcDbEntity
  8
0
  6
CONTINUOUS
 62
           7
100
AcDbLine
 10
271.513070680915
 20
242.864861213691
 11
272.513068982315
 21
242.864861213691
  0
LINE
  5
108
100
AcDbEntity
  8
0
  6
CONTINUOUS
 62
           7
100
AcDbLine
 10
272.513068982315
 20
248.364861183891
 11
271.513070680915
 21
248.364861183891
  0
LINE
  5
107
100
AcDbEntity
  8
0
  6
CONTINUOUS
 62
           7
100
AcDbLine
 10
312.013070334515
 20
216.576280132891
 11
308.013070144515
 21
216.576280132891
  0
LINE
  5
106
100
AcDbEntity
  8
0
  6
CONTINUOUS
 62
           7
100
AcDbLine
 10
308.013070144515
 20
197.076279730691
 11
312.013070334515
 21
197.076279730691
  0
LINE
  5
105
100
AcDbEntity
  8
0
  6
CONTINUOUS
 62
           7
100
AcDbLine
 10
324.063069888315
 20
198.826279551891
 11
324.813069545515
 21
199.576280140491
  0
LINE
  5
104
100
AcDbEntity
  8
0
  6
CONTINUOUS
 62
           7
100
AcDbLine
 10
324.813069545515
 20
214.076279723091
 11
324.063069888315
 21
214.826280311691
  0
LINE
  5
103
100
AcDbEntity
  8
0
  6
CONTINUOUS
 62
           7
100
AcDbLine
 10
330.263070531915
 20
199.326280099491
 11
331.013070189315
 21
200.076279756691
  0
LINE
  5
102
100
AcDbEntity
  8
0
  6
CONTINUOUS
 62
           7
100
AcDbLine
 10
331.013070189315
 20
213.576280106891
 11
330.263070531915
 21
214.326279764091
  0
LINE
  5
101
100
AcDbEntity
  8
0
  6
CONTINUOUS
 62
           7
100
AcDbLine
 10
330.263070531915
 20
214.326279764091
 11
330.013070025315
 21
214.326279764091
  0
LINE
  5
100
100
AcDbEntity
  8
0
  6
CONTINUOUS
 62
           7
100
AcDbLine
 10
330.013070025315
 20
199.326280099491
 11
330.263070531915
 21
199.326280099491
  0
LINE
  5
FF
100
AcDbEntity
  8
0
  6
CONTINUOUS
 62
           7
100
AcDbLine
 10
324.813069545515
 20
199.576280140491
 11
330.013070025315
 21
199.576280140491
  0
LINE
  5
FE
100
AcDbEntity
  8
0
  6
CONTINUOUS
 62
           7
100
AcDbLine
 10
330.013070025315
 20
214.076279723091
 11
324.813069545515
 21
214.076279723091
  0
LINE
  5
FD
100
AcDbEntity
  8
0
  6
CONTINUOUS
 62
           7
100
AcDbLine
 10
335.263069488915
 20
199.826279715691
 11
336.013071008915
 21
200.576279838691
  0
LINE
  5
FC
100
AcDbEntity
  8
0
  6
CONTINUOUS
 62
           7
100
AcDbLine
 10
336.013071008915
 20
213.076280024891
 11
335.263069488915
 21
213.826280147891
  0
LINE
  5
FB
100
AcDbEntity
  8
0
  6
CONTINUOUS
 62
           7
100
AcDbLine
 10
335.263069488915
 20
213.826280147891
 11
335.013070844915
 21
213.826280147891
  0
LINE
  5
FA
100
AcDbEntity
  8
0
  6
CONTINUOUS
 62
           7
100
AcDbLine
 10
335.013070844915
 20
199.826279715691
 11
335.263069488915
 21
199.826279715691
  0
LINE
  5
F9
100
AcDbEntity
  8
0
  6
CONTINUOUS
 62
           7
100
AcDbLine
 10
331.013070189315
 20
200.076279756691
 11
335.013070844915
 21
200.076279756691
  0
LINE
  5
F8
100
AcDbEntity
  8
0
  6
CONTINUOUS
 62
           7
100
AcDbLine
 10
335.013070844915
 20
213.576280106891
 11
331.013070189315
 21
213.576280106891
  0
LINE
  5
F7
100
AcDbEntity
  8
0
  6
CONTINUOUS
 62
           7
100
AcDbLine
 10
340.513068952515
 20
200.326279797691
 11
341.013069965715
 21
200.826279879691
  0
LINE
  5
F6
100
AcDbEntity
  8
0
  6
CONTINUOUS
 62
           7
100
AcDbLine
 10
341.013069965715
 20
212.826279983891
 11
340.513068952515
 21
213.326280065891
  0
LINE
  5
F5
100
AcDbEntity
  8
0
  6
CONTINUOUS
 62
           7
100
AcDbLine
 10
340.513068952515
 20
213.326280065891
 11
340.013071664515
 21
213.326280065891
  0
LINE
  5
F4
100
AcDbEntity
  8
0
  6
CONTINUOUS
 62
           7
100
AcDbLine
 10
340.013071664515
 20
200.326279797691
 11
340.513068952515
 21
200.326279797691
  0
LINE
  5
F3
100
AcDbEntity
  8
0
  6
CONTINUOUS
 62
           7
100
AcDbLine
 10
336.013071008915
 20
200.576279838691
 11
340.013071664515
 21
200.576279838691
  0
LINE
  5
F2
100
AcDbEntity
  8
0
  6
CONTINUOUS
 62
           7
100
AcDbLine
 10
340.013071664515
 20
213.076280024891
 11
336.013071008915
 21
213.076280024891
  0
LINE
  5
F1
100
AcDbEntity
  8
0
  6
CONTINUOUS
 62
           7
100
AcDbLine
 10
345.513071634715
 20
200.826279879691
 11
346.013068922715
 21
201.326279961691
  0
LINE
  5
F0
100
AcDbEntity
  8
0
  6
CONTINUOUS
 62
           7
100
AcDbLine
 10
346.013068922715
 20
212.326279902091
 11
345.513071634715
 21
212.826279983891
  0
LINE
  5
EF
100
AcDbEntity
  8
0
  6
CONTINUOUS
 62
           7
100
AcDbLine
 10
345.513071634715
 20
212.826279983891
 11
341.013069965715
 21
212.826279983891
  0
LINE
  5
EE
100
AcDbEntity
  8
0
  6
CONTINUOUS
 62
           7
100
AcDbLine
 10
341.013069965715
 20
200.826279879691
 11
345.513071634715
 21
200.826279879691
  0
LINE
  5
ED
100
AcDbEntity
  8
0
  6
CONTINUOUS
 62
           7
100
AcDbLine
 10
309.513070157515
 20
218.826280036091
 11
310.513070144515
 21
218.826279931891
  0
LINE
  5
EC
100
AcDbEntity
  8
0
  6
CONTINUOUS
 62
           7
100
AcDbLine
 10
310.513070088715
 20
238.826281451691
 11
309.513070157515
 21
238.826281451691
  0
LINE
  5
EB
100
AcDbEntity
  8
0
  6
CONTINUOUS
 62
           7
100
AcDbLine
 10
308.013070144515
 20
219.826280200091
 11
309.513070157515
 21
219.826280200091
  0
LINE
  5
EA
100
AcDbEntity
  8
0
  6
CONTINUOUS
 62
           7
100
AcDbLine
 10
309.513070157515
 20
237.826279425091
 11
308.013070144515
 21
237.826279425091
  0
LINE
  5
E9
100
AcDbEntity
  8
0
  6
CONTINUOUS
 62
           7
100
AcDbLine
 10
314.013070196715
 20
236.576280617291
 11
311.013070170715
 21
236.576280617291
  0
LINE
  5
E8
100
AcDbEntity
  8
0
  6
CONTINUOUS
 62
           7
100
AcDbLine
 10
311.013070170715
 20
221.076279939291
 11
314.013070196715
 21
221.076279939291
  0
LINE
  5
E7
100
AcDbEntity
  8
0
  6
CONTINUOUS
 62
           7
100
AcDbLine
 10
319.013070084915
 20
235.576280453291
 11
314.013070196715
 21
235.576280453291
  0
LINE
  5
E6
100
AcDbEntity
  8
0
  6
CONTINUOUS
 62
           7
100
AcDbLine
 10
314.013070196715
 20
222.076280103091
 11
319.013070084915
 21
222.076280103091
  0
LINE
  5
E5
100
AcDbEntity
  8
0
  6
CONTINUOUS
 62
           7
100
AcDbLine
 10
302.513070174315
 20
248.826279365491
 11
302.513070174315
 21
252.826280021291
  0
LINE
  5
E4
100
AcDbEntity
  8
0
  6
CONTINUOUS
 62
           7
100
AcDbLine
 10
271.513070680915
 20
252.826280021291
 11
271.513070680915
 21
251.626278334491
  0
LINE
  5
E3
100
AcDbEntity
  8
0
  6
CONTINUOUS
 62
           7
100
AcDbLine
 10
272.013071694315
 20
265.826280289491
 11
272.013071694315
 21
252.826280021291
  0
LINE
  5
E2
100
AcDbEntity
  8
0
  6
CONTINUOUS
 62
           7
100
AcDbLine
 10
302.013070092515
 20
252.826280021291
 11
302.013070092515
 21
265.826280289491
  0
LINE
  5
E1
100
AcDbEntity
  8
0
  6
CONTINUOUS
 62
           7
100
AcDbLine
 10
302.013070092515
 20
265.826280289491
 11
300.013069764515
 21
267.826280617291
  0
LINE
  5
E0
100
AcDbEntity
  8
0
  6
CONTINUOUS
 62
           7
100
AcDbLine
 10
274.013068296915
 20
267.826280617291
 11
272.013071694315
 21
265.826280289491
  0
LINE
  5
DF
100
AcDbEntity
  8
0
  6
CONTINUOUS
 62
           7
100
AcDbLine
 10
158.430371203315
 20
186.826280378891
 11
170.013073601715
 21
186.826280378891
  0
LINE
  5
DE
100
AcDbEntity
  8
0
  6
CONTINUOUS
 62
           7
100
AcDbLine
 10
109.315473356115
 20
226.826279484691
 11
103.513065495315
 21
226.826279484691
  0
LINE
  5
DD
100
AcDbEntity
  8
0
  6
CONTINUOUS
 62
           7
100
AcDbLine
 10
103.513065495315
 20
186.826280378891
 11
105.596992888315
 21
186.826280378891
  0
LINE
  5
DC
100
AcDbEntity
  8
0
  6
CONTINUOUS
 62
           7
100
AcDbLine
 10
102.013069906115
 20
187.826280542691
 11
103.513065495315
 21
187.826280542691
  0
LINE
  5
DB
100
AcDbEntity
  8
0
  6
CONTINUOUS
 62
           7
100
AcDbLine
 10
103.513065495315
 20
225.826279320891
 11
102.013069906115
 21
225.826279320891
  0
LINE
  5
DA
100
AcDbEntity
  8
0
  6
CONTINUOUS
 62
           7
100
AcDbLine
 10
236.513066806715
 20
249.826281392091
 11
154.520619430515
 21
249.826281392091
  0
LINE
  5
D9
100
AcDbEntity
  8
0
  6
CONTINUOUS
 62
           7
100
AcDbLine
 10
266.513071724115
 20
251.826281719891
 11
256.513070084915
 21
251.826281719891
  0
LINE
  5
D8
100
AcDbEntity
  8
0
  6
CONTINUOUS
 62
           7
100
AcDbLine
 10
102.013069906115
 20
227.326280498091
 11
19.084144153515
 21
227.326280498091
  0
LINE
  5
D7
100
AcDbEntity
  8
0
  6
CONTINUOUS
 62
           7
100
AcDbLine
 10
19.084144153515
 20
186.326279365491
 11
102.013069906115
 21
186.326279365491
  0
LINE
  5
D6
100
AcDbEntity
  8
0
  6
CONTINUOUS
 62
           7
100
AcDbLine
 10
15.548605241715
 20
225.861813002291
 11
9.391743459715
 21
219.704959602091
  0
LINE
  5
D5
100
AcDbEntity
  8
0
  6
CONTINUOUS
 62
           7
100
AcDbLine
 10
9.391743459715
 20
193.947600261491
 11
15.548605241715
 21
187.790746861291
  0
LINE
  5
D4
100
AcDbEntity
  8
0
  6
CONTINUOUS
 62
           7
100
AcDbLine
 10
7.013071098315
 20
193.826279663491
 11
7.513064660915
 21
194.326279745491
  0
LINE
  5
D3
100
AcDbEntity
  8
0
  6
CONTINUOUS
 62
           7
100
AcDbLine
 10
7.513064660915
 20
219.326280118091
 11
7.013071098315
 21
219.826280200091
  0
LINE
  5
D2
100
AcDbEntity
  8
0
  6
CONTINUOUS
 62
           7
100
AcDbLine
 10
7.013071098315
 20
219.826280200091
 11
-6.986927471285
 21
219.826280200091
  0
LINE
  5
D1
100
AcDbEntity
  8
0
  6
CONTINUOUS
 62
           7
100
AcDbLine
 10
-6.986927471285
 20
193.826279663491
 11
7.013071098315
 21
193.826279663491
  0
LINE
  5
D0
100
AcDbEntity
  8
0
  6
CONTINUOUS
 62
           7
100
AcDbLine
 10
-6.986927471285
 20
219.826280200091
 11
-18.183093748085
 21
216.826279708291
  0
LINE
  5
CF
100
AcDbEntity
  8
0
  6
CONTINUOUS
 62
           7
100
AcDbLine
 10
-18.183093748085
 20
196.826280155291
 11
-6.986927471285
 21
193.826279663491
  0
LINE
  5
CE
100
AcDbEntity
  8
0
  6
CONTINUOUS
 62
           7
100
AcDbLine
 10
-18.183093748085
 20
216.826279708291
 11
-23.986917219285
 21
216.826279708291
  0
LINE
  5
CD
100
AcDbEntity
  8
0
  6
CONTINUOUS
 62
           7
100
AcDbLine
 10
-23.986917219285
 20
196.826280155291
 11
-18.183093748085
 21
196.826280155291
  0
LINE
  5
CC
100
AcDbEntity
  8
0
  6
CONTINUOUS
 62
           7
100
AcDbLine
 10
271.513070680915
 20
192.126204320291
 11
271.513070680915
 21
200.362253994691
  0
LINE
  5
CB
100
AcDbEntity
  8
0
  6
CONTINUOUS
 62
           7
100
AcDbLine
 10
271.313071020715
 20
224.551257738091
 11
271.313071020715
 21
206.826279931891
  0
LINE
  5
CA
100
AcDbEntity
  8
0
  6
CONTINUOUS
 62
           7
100
AcDbLine
 10
170.013073601715
 20
215.176776112091
 11
170.013073601715
 21
206.826279931891
  0
LINE
  5
C9
100
AcDbEntity
  8
0
  6
CONTINUOUS
 62
           7
100
AcDbLine
 10
266.513071724115
 20
220.326280281891
 11
266.513071724115
 21
224.551257738091
  0
LINE
  5
C8
100
AcDbEntity
  8
0
  6
CONTINUOUS
 62
           7
100
AcDbLine
 10
187.013070800315
 20
220.326280281891
 11
266.513071724115
 21
220.326280281891
  0
LINE
  5
C7
100
AcDbEntity
  8
0
  6
CONTINUOUS
 62
           7
100
AcDbLine
 10
170.013073601715
 20
186.826280378891
 11
170.013073601715
 21
206.826279931891
  0
LINE
  5
C6
100
AcDbEntity
  8
0
  6
CONTINUOUS
 62
           7
100
AcDbLine
 10
271.313071020715
 20
206.826279931891
 11
271.313071020831
 21
203.959492095785
  0
LINE
  5
C5
100
AcDbEntity
  8
0
  6
CONTINUOUS
 62
           7
100
AcDbLine
 10
271.313071020715
 20
206.826279931891
 11
271.513070680915
 21
206.826279931891
  0
LINE
  5
C4
100
AcDbEntity
  8
0
  6
CONTINUOUS
 62
           7
100
AcDbLine
 10
271.513070680915
 20
206.826279931891
 11
271.513070680915
 21
224.551257738091
  0
LINE
  5
C3
100
AcDbEntity
  8
0
  6
CONTINUOUS
 62
           7
100
AcDbLine
 10
271.313071020715
 20
246.294501298291
 11
271.313071020715
 21
224.551257738091
  0
LINE
  5
C2
100
AcDbEntity
  8
0
  6
CONTINUOUS
 62
           7
100
AcDbLine
 10
266.513071724115
 20
224.551257738091
 11
266.513071724115
 21
246.090053641291
  0
LINE
  5
C1
100
AcDbEntity
  8
0
  6
CONTINUOUS
 62
           7
100
AcDbLine
 10
271.513070681085
 20
203.988160067277
 11
271.513070680915
 21
206.826279931891
  0
LINE
  5
C0
100
AcDbEntity
  8
0
  6
CONTINUOUS
 62
           7
100
AcDbLine
 10
271.513070680915
 20
224.551257738091
 11
271.513070680991
 21
246.276113265265
  0
LINE
  5
BF
100
AcDbEntity
  8
0
  6
CONTINUOUS
 62
           7
100
AcDbLine
 10
271.313071020715
 20
250.784984850491
 11
271.313071020715
 21
246.294501298291
  0
LINE
  5
BE
100
AcDbEntity
  8
0
  6
CONTINUOUS
 62
           7
100
AcDbLine
 10
271.513070680991
 20
246.276113265265
 11
271.513070681013
 21
250.586978220417
  0
LINE
  5
BD
100
AcDbEntity
  8
0
  6
CONTINUOUS
 62
           7
100
AcDbLine
 10
271.513070680915
 20
251.626278334491
 11
271.513070681013
 21
250.586978220417
  0
LINE
  5
BC
100
AcDbEntity
  8
0
  6
CONTINUOUS
 62
           7
100
AcDbLine
 10
266.513071724115
 20
251.826281719891
 11
266.513071724115
 21
250.784984850491
  0
LINE
  5
BB
100
AcDbEntity
  8
0
  6
CONTINUOUS
 62
           7
100
AcDbLine
 10
271.513070680961
 20
191.091132410889
 11
271.513070680915
 21
187.026280039091
  0
LINE
  5
BA
100
AcDbEntity
  8
0
  6
CONTINUOUS
 62
           7
100
AcDbLine
 10
305.513070200515
 20
248.826279365491
 11
299.260519214715
 21
248.826279365491
  0
LINE
  5
B9
100
AcDbEntity
  8
0
  6
CONTINUOUS
 62
           7
100
AcDbLine
 10
274.765621640515
 20
248.826279365491
 11
272.013071694315
 21
248.826279365491
  0
LINE
  5
B8
100
AcDbEntity
  8
0
  6
CONTINUOUS
 62
           7
100
AcDbLine
 10
308.013070144515
 20
230.395539724291
 11
308.013070144573
 21
227.285576302953
  0
LINE
  5
B7
100
AcDbEntity
  8
0
  6
CONTINUOUS
 62
           7
100
AcDbLine
 10
305.513070200515
 20
248.826279365491
 11
301.684471082715
 21
248.826279365491
  0
LINE
  5
B6
100
AcDbEntity
  8
0
  6
CONTINUOUS
 62
           7
100
AcDbLine
 10
303.429646187315
 20
236.826279261291
 11
274.053647884115
 21
236.826279261291
  0
LINE
  5
B5
100
AcDbEntity
  8
0
  6
CONTINUOUS
 62
           7
100
AcDbLine
 10
303.429646187315
 20
206.826279931891
 11
303.429646187315
 21
236.826279261291
  0
LINE
  5
B4
100
AcDbEntity
  8
0
  6
CONTINUOUS
 62
           7
100
AcDbLine
 10
274.053647884115
 20
206.826279931891
 11
303.429646187315
 21
206.826279931891
  0
LINE
  5
B3
100
AcDbEntity
  8
0
  6
CONTINUOUS
 62
           7
100
AcDbLine
 10
274.053647884115
 20
236.826279261291
 11
274.053647884115
 21
206.826279931891
  0
LINE
  5
B2
100
AcDbEntity
  8
0
  6
CONTINUOUS
 62
           7
100
AcDbLine
 10
274.053647884115
 20
236.826279261291
 11
274.013068296915
 21
236.826279261291
  0
LINE
  5
B1
100
AcDbEntity
  8
0
  6
CONTINUOUS
 62
           7
100
AcDbLine
 10
274.013068296915
 20
236.826279261291
 11
274.013068296915
 21
206.826279931891
  0
LINE
  5
B0
100
AcDbEntity
  8
0
  6
CONTINUOUS
 62
           7
100
AcDbLine
 10
274.053647884115
 20
206.826279931891
 11
274.013068296915
 21
206.826279931891
  0
LINE
  5
AF
100
AcDbEntity
  8
0
  6
CONTINUOUS
 62
           7
100
AcDbLine
 10
275.013070323315
 20
194.863277548091
 11
275.013070323315
 21
200.926279709691
  0
LINE
  5
AE
100
AcDbEntity
  8
0
  6
CONTINUOUS
 62
           7
100
AcDbLine
 10
275.013070323315
 20
193.926279493691
 11
275.013070323315
 21
194.863277548091
  0
LINE
  5
AD
100
AcDbEntity
  8
0
  6
CONTINUOUS
 62
           7
100
AcDbLine
 10
275.513071336715
 20
195.229420499091
 11
275.513071336715
 21
194.426279575691
  0
LINE
  5
AC
100
AcDbEntity
  8
0
  6
CONTINUOUS
 62
           7
100
AcDbLine
 10
275.513071336715
 20
200.426280093491
 11
275.513071336715
 21
195.229420499091
  0
LINE
  5
AB
100
AcDbEntity
  8
0
  6
CONTINUOUS
 62
           7
100
AcDbLine
 10
271.513070680915
 20
200.362253994691
 11
271.513070680915
 21
200.926279709691
  0
LINE
  5
AA
100
AcDbEntity
  8
0
  6
CONTINUOUS
 62
           7
100
AcDbLine
 10
273.513071008915
 20
243.864863240291
 11
273.513071008915
 21
247.364862882691
  0
LINE
  5
A9
100
AcDbEntity
  8
0
  6
CONTINUOUS
 62
           7
100
AcDbLine
 10
273.513071008915
 20
245.993173741891
 11
273.513071008915
 21
246.620333814091
  0
LINE
  5
A8
100
AcDbEntity
  8
0
  6
CONTINUOUS
 62
           7
100
AcDbLine
 10
273.513071008915
 20
245.236552381091
 11
273.513071008915
 21
243.942207717491
  0
LINE
  5
A7
100
AcDbEntity
  8
0
  6
CONTINUOUS
 62
           7
100
AcDbLine
 10
273.513071008915
 20
245.993173741891
 11
273.513071008915
 21
245.746216797291
  0
LINE
  5
A6
100
AcDbEntity
  8
0
  6
CONTINUOUS
 62
           7
100
AcDbLine
 10
273.513071008915
 20
245.746216797291
 11
273.513071008915
 21
245.236552381091
  0
LINE
  5
A5
100
AcDbEntity
  8
0
  6
CONTINUOUS
 62
           7
100
AcDbLine
 10
312.013070334515
 20
216.576280132891
 11
312.013070334515
 21
214.826280311691
  0
LINE
  5
A4
100
AcDbEntity
  8
0
  6
CONTINUOUS
 62
           7
100
AcDbLine
 10
323.513069891315
 20
214.826280311691
 11
312.013070334515
 21
214.826280311691
  0
LINE
  5
A3
100
AcDbEntity
  8
0
  6
CONTINUOUS
 62
           7
100
AcDbLine
 10
323.513069891315
 20
214.826280311691
 11
323.513069891315
 21
212.399654151091
  0
LINE
  5
A2
100
AcDbEntity
  8
0
  6
CONTINUOUS
 62
           7
100
AcDbLine
 10
323.513069891315
 20
212.399654151091
 11
312.013070144515
 21
212.399654134291
  0
LINE
  5
A1
100
AcDbEntity
  8
0
  6
CONTINUOUS
 62
           7
100
AcDbLine
 10
312.013070144515
 20
212.399654134291
 11
312.013070144515
 21
201.252905729491
  0
LINE
  5
A0
100
AcDbEntity
  8
0
  6
CONTINUOUS
 62
           7
100
AcDbLine
 10
312.013070144515
 20
201.252905729491
 11
323.513069891315
 21
201.252905712491
  0
LINE
  5
9F
100
AcDbEntity
  8
0
  6
CONTINUOUS
 62
           7
100
AcDbLine
 10
323.513069891315
 20
201.252905712491
 11
323.513069891315
 21
198.826279551891
  0
LINE
  5
9E
100
AcDbEntity
  8
0
  6
CONTINUOUS
 62
           7
100
AcDbLine
 10
312.013070334515
 20
198.826279551891
 11
323.513069891315
 21
198.826279551891
  0
LINE
  5
9D
100
AcDbEntity
  8
0
  6
CONTINUOUS
 62
           7
100
AcDbLine
 10
312.013070334515
 20
198.826279551891
 11
312.013070334515
 21
197.076279730691
  0
LINE
  5
9C
100
AcDbEntity
  8
0
  6
CONTINUOUS
 62
           7
100
AcDbLine
 10
308.013070144515
 20
216.576280132891
 11
308.013070144515
 21
197.076279730691
  0
LINE
  5
9B
100
AcDbEntity
  8
0
  6
CONTINUOUS
 62
           7
100
AcDbLine
 10
324.813069545515
 20
206.826279931891
 11
324.813069545515
 21
214.076279723091
  0
LINE
  5
9A
100
AcDbEntity
  8
0
  6
CONTINUOUS
 62
           7
100
AcDbLine
 10
324.813069545515
 20
199.576280140491
 11
324.813069545515
 21
206.826279931891
  0
LINE
  5
99
100
AcDbEntity
  8
0
  6
CONTINUOUS
 62
           7
100
AcDbLine
 10
324.013070904515
 20
198.826279551891
 11
324.013070904515
 21
202.182735842691
  0
LINE
  5
98
100
AcDbEntity
  8
0
  6
CONTINUOUS
 62
           7
100
AcDbLine
 10
324.013070904515
 20
211.469824020891
 11
324.013070904531
 21
207.722103574873
  0
LINE
  5
97
100
AcDbEntity
  8
0
  6
CONTINUOUS
 62
           7
100
AcDbLine
 10
324.013070904531
 20
205.930456288719
 11
324.013070904515
 21
202.182735842691
  0
LINE
  5
96
100
AcDbEntity
  8
0
  6
CONTINUOUS
 62
           7
100
AcDbLine
 10
324.013070904515
 20
211.469824020891
 11
324.013070904515
 21
214.826280311691
  0
LINE
  5
95
100
AcDbEntity
  8
0
  6
CONTINUOUS
 62
           7
100
AcDbLine
 10
331.013070189315
 20
206.826279931891
 11
331.013070189315
 21
213.576280106891
  0
LINE
  5
94
100
AcDbEntity
  8
0
  6
CONTINUOUS
 62
           7
100
AcDbLine
 10
331.013070189315
 20
200.076279756691
 11
331.013070189315
 21
206.826279931891
  0
LINE
  5
93
100
AcDbEntity
  8
0
  6
CONTINUOUS
 62
           7
100
AcDbLine
 10
330.263070531915
 20
206.826279931891
 11
330.263070531915
 21
199.326280099491
  0
LINE
  5
92
100
AcDbEntity
  8
0
  6
CONTINUOUS
 62
           7
100
AcDbLine
 10
330.263070531915
 20
214.326279764091
 11
330.263070531915
 21
206.826279931891
  0
LINE
  5
91
100
AcDbEntity
  8
0
  6
CONTINUOUS
 62
           7
100
AcDbLine
 10
330.013070025315
 20
206.826279931891
 11
330.013070025315
 21
214.326279764091
  0
LINE
  5
90
100
AcDbEntity
  8
0
  6
CONTINUOUS
 62
           7
100
AcDbLine
 10
330.013070025315
 20
199.326280099491
 11
330.013070025315
 21
206.826279931891
  0
LINE
  5
8F
100
AcDbEntity
  8
0
  6
CONTINUOUS
 62
           7
100
AcDbLine
 10
336.013071008915
 20
206.826279931891
 11
336.013071008915
 21
213.076280024891
  0
LINE
  5
8E
100
AcDbEntity
  8
0
  6
CONTINUOUS
 62
           7
100
AcDbLine
 10
336.013071008915
 20
200.576279838691
 11
336.013071008915
 21
206.826279931891
  0
LINE
  5
8D
100
AcDbEntity
  8
0
  6
CONTINUOUS
 62
           7
100
AcDbLine
 10
335.263069488915
 20
206.826279931891
 11
335.263069488915
 21
199.826279715691
  0
LINE
  5
8C
100
AcDbEntity
  8
0
  6
CONTINUOUS
 62
           7
100
AcDbLine
 10
335.263069488915
 20
213.826280147891
 11
335.263069488915
 21
206.826279931891
  0
LINE
  5
8B
100
AcDbEntity
  8
0
  6
CONTINUOUS
 62
           7
100
AcDbLine
 10
335.013070844915
 20
206.826279931891
 11
335.013070844915
 21
213.826280147891
  0
LINE
  5
8A
100
AcDbEntity
  8
0
  6
CONTINUOUS
 62
           7
100
AcDbLine
 10
335.013070844915
 20
199.826279715691
 11
335.013070844915
 21
206.826279931891
  0
LINE
  5
89
100
AcDbEntity
  8
0
  6
CONTINUOUS
 62
           7
100
AcDbLine
 10
340.513068952515
 20
200.326279797691
 11
340.513068952515
 21
213.326280065891
  0
LINE
  5
88
100
AcDbEntity
  8
0
  6
CONTINUOUS
 62
           7
100
AcDbLine
 10
341.013069965715
 20
212.826279983891
 11
341.013069965715
 21
200.826279879691
  0
LINE
  5
87
100
AcDbEntity
  8
0
  6
CONTINUOUS
 62
           7
100
AcDbLine
 10
340.013071664515
 20
206.826279931891
 11
340.013071664515
 21
213.326280065891
  0
LINE
  5
86
100
AcDbEntity
  8
0
  6
CONTINUOUS
 62
           7
100
AcDbLine
 10
340.013071664515
 20
200.326279797691
 11
340.013071664515
 21
206.826279931891
  0
LINE
  5
85
100
AcDbEntity
  8
0
  6
CONTINUOUS
 62
           7
100
AcDbLine
 10
345.513071634715
 20
200.826279879691
 11
345.513071634715
 21
212.826279983891
  0
LINE
  5
84
100
AcDbEntity
  8
0
  6
CONTINUOUS
 62
           7
100
AcDbLine
 10
346.013068922715
 20
206.826279931891
 11
346.013068922715
 21
201.326279961691
  0
LINE
  5
83
100
AcDbEntity
  8
0
  6
CONTINUOUS
 62
           7
100
AcDbLine
 10
346.013068922715
 20
212.326279902091
 11
346.013068922715
 21
206.826279931891
  0
LINE
  5
82
100
AcDbEntity
  8
0
  6
CONTINUOUS
 62
           7
100
AcDbLine
 10
271.513070680915
 20
200.926279709691
 11
271.513070680915
 21
200.362253994691
  0
LINE
  5
81
100
AcDbEntity
  8
0
  6
CONTINUOUS
 62
           7
100
AcDbLine
 10
311.013070170715
 20
238.326280438491
 11
311.013070144515
 21
219.326279931891
  0
LINE
  5
80
100
AcDbEntity
  8
0
  6
CONTINUOUS
 62
           7
100
AcDbLine
 10
309.513070157515
 20
237.486534812491
 11
309.513070157515
 21
218.826280036091
  0
LINE
  5
7F
100
AcDbEntity
  8
0
  6
CONTINUOUS
 62
           7
100
AcDbLine
 10
309.513070157515
 20
238.826281451691
 11
309.513070157515
 21
237.486534812491
  0
LINE
  5
7E
100
AcDbEntity
  8
0
  6
CONTINUOUS
 62
           7
100
AcDbLine
 10
314.013070196715
 20
221.076279939291
 11
314.013070196715
 21
236.576280617291
  0
LINE
  5
7D
100
AcDbEntity
  8
0
  6
CONTINUOUS
 62
           7
100
AcDbLine
 10
319.013070084915
 20
235.576280453291
 11
319.013070084915
 21
222.076280103091
  0
LINE
  5
7C
100
AcDbEntity
  8
0
  6
CONTINUOUS
 62
           7
100
AcDbLine
 10
271.513070680915
 20
252.826280021291
 11
302.513070174315
 21
252.826280021291
  0
LINE
  5
7B
100
AcDbEntity
  8
0
  6
CONTINUOUS
 62
           7
100
AcDbLine
 10
274.765621640515
 20
248.826279365491
 11
299.260519214715
 21
248.826279365491
  0
LINE
  5
7A
100
AcDbEntity
  8
0
  6
CONTINUOUS
 62
           7
100
AcDbLine
 10
302.013070092515
 20
265.826280289491
 11
272.013071694315
 21
265.826280289491
  0
LINE
  5
79
100
AcDbEntity
  8
0
  6
CONTINUOUS
 62
           7
100
AcDbLine
 10
274.013068296915
 20
267.826280617291
 11
300.013069764515
 21
267.826280617291
  0
LINE
  5
78
100
AcDbEntity
  8
0
  6
CONTINUOUS
 62
           7
100
AcDbLine
 10
170.013073601715
 20
206.826279931891
 11
170.013073601715
 21
215.904625193291
  0
LINE
  5
77
100
AcDbEntity
  8
0
  6
CONTINUOUS
 62
           7
100
AcDbLine
 10
266.513071724115
 20
224.276234456491
 11
266.513071724115
 21
220.326280281891
  0
LINE
  5
76
100
AcDbEntity
  8
0
  6
CONTINUOUS
 62
           7
100
AcDbLine
 10
187.013070800315
 20
220.326280281891
 11
266.513071724115
 21
220.326280281891
  0
LINE
  5
75
100
AcDbEntity
  8
0
  6
CONTINUOUS
 62
           7
100
AcDbLine
 10
170.013073601715
 20
206.826279931891
 11
170.013073601715
 21
186.826280378891
  0
LINE
  5
74
100
AcDbEntity
  8
0
  6
CONTINUOUS
 62
           7
100
AcDbLine
 10
103.513065495315
 20
206.826279931891
 11
103.513065495315
 21
226.826279484691
  0
LINE
  5
73
100
AcDbEntity
  8
0
  6
CONTINUOUS
 62
           7
100
AcDbLine
 10
103.513065495315
 20
186.826280378891
 11
103.513065495315
 21
206.826279931891
  0
LINE
  5
72
100
AcDbEntity
  8
0
  6
CONTINUOUS
 62
           7
100
AcDbLine
 10
266.513071724115
 20
246.090053641291
 11
266.513071724115
 21
246.288518481891
  0
LINE
  5
71
100
AcDbEntity
  8
0
  6
CONTINUOUS
 62
           7
100
AcDbLine
 10
266.513071724115
 20
246.288518481891
 11
266.513071724115
 21
250.784951322891
  0
LINE
  5
70
100
AcDbEntity
  8
0
  6
CONTINUOUS
 62
           7
100
AcDbLine
 10
266.513071724115
 20
251.826281719891
 11
266.513071724115
 21
250.784951322891
  0
LINE
  5
6F
100
AcDbEntity
  8
0
  6
CONTINUOUS
 62
           7
100
AcDbLine
 10
102.013069906115
 20
186.705368631691
 11
102.013069906115
 21
227.326280498091
  0
LINE
  5
6E
100
AcDbEntity
  8
0
  6
CONTINUOUS
 62
           7
100
AcDbLine
 10
102.013069906115
 20
186.326279365491
 11
102.013069906115
 21
186.705368631691
  0
LINE
  5
6D
100
AcDbEntity
  8
0
  6
CONTINUOUS
 62
           7
100
AcDbLine
 10
8.513081588715
 20
196.267847032291
 11
8.513081588715
 21
217.583639607891
  0
LINE
  5
6C
100
AcDbEntity
  8
0
  6
CONTINUOUS
 62
           7
100
AcDbLine
 10
8.513081588715
 20
196.068920255691
 11
8.513081588715
 21
196.267847032291
  0
LINE
  5
6B
100
AcDbEntity
  8
0
  6
CONTINUOUS
 62
           7
100
AcDbLine
 10
7.013071098315
 20
206.826279931891
 11
7.013071098315
 21
219.826280200091
  0
LINE
  5
6A
100
AcDbEntity
  8
0
  6
CONTINUOUS
 62
           7
100
AcDbLine
 10
7.013071098315
 20
193.826279663491
 11
7.013071098315
 21
206.826279931891
  0
LINE
  5
69
100
AcDbEntity
  8
0
  6
CONTINUOUS
 62
           7
100
AcDbLine
 10
7.513064660915
 20
206.826279931891
 11
7.513064660915
 21
194.326279745491
  0
LINE
  5
68
100
AcDbEntity
  8
0
  6
CONTINUOUS
 62
           7
100
AcDbLine
 10
7.513064660915
 20
219.326280118091
 11
7.513064660915
 21
206.826279931891
  0
LINE
  5
67
100
AcDbEntity
  8
0
  6
CONTINUOUS
 62
           7
100
AcDbLine
 10
-6.986927471285
 20
219.826280200091
 11
-6.986927471285
 21
193.826279663491
  0
LINE
  5
66
100
AcDbEntity
  8
0
  6
CONTINUOUS
 62
           7
100
AcDbLine
 10
-18.183093748085
 20
216.826279708291
 11
-18.183093748085
 21
196.826280155291
  0
LINE
  5
65
100
AcDbEntity
  8
0
  6
CONTINUOUS
 62
           7
100
AcDbLine
 10
-21.986942968485
 20
204.826279836891
 11
-23.986917219285
 21
204.826279836891
  0
LINE
  5
64
100
AcDbEntity
  8
0
  6
CONTINUOUS
 62
           7
100
AcDbLine
 10
-21.986942968485
 20
208.826280026691
 11
-21.986942968485
 21
204.826279836891
  0
LINE
  5
63
100
AcDbEntity
  8
0
  6
CONTINUOUS
 62
           7
100
AcDbLine
 10
-21.986942968485
 20
208.826280026691
 11
-23.986917219285
 21
208.826280026691
  0
LINE
  5
62
100
AcDbEntity
  8
0
  6
CONTINUOUS
 62
           7
100
AcDbLine
 10
-26.986938200085
 20
199.826279715691
 11
-26.986938200085
 21
204.826279836891
  0
LINE
  5
61
100
AcDbEntity
  8
0
  6
CONTINUOUS
 62
           7
100
AcDbLine
 10
-26.986938200085
 20
208.826280026691
 11
-26.986938200085
 21
213.826280147891
  0
LINE
  5
60
100
AcDbEntity
  8
0
  6
CONTINUOUS
 62
           7
100
AcDbLine
 10
271.313220032315
 20
200.473044128291
 11
271.313220032315
 21
191.926204660091
  0
LINE
  5
5F
100
AcDbEntity
  8
0
  6
CONTINUOUS
 62
           7
100
AcDbLine
 10
271.313071020715
 20
186.826280378891
 11
271.313071020707
 21
190.932192900305
  0
LINE
  5
5E
100
AcDbEntity
  8
0
  6
CONTINUOUS
 62
           7
100
AcDbLine
 10
271.313071020715
 20
250.784984850491
 11
271.313071020715
 21
251.826281719891
  0
LINE
  5
5D
100
AcDbEntity
  8
0
  6
CONTINUOUS
 62
           7
100
AcDbLine
 10
272.513068982315
 20
246.813996755691
 11
272.513068982315
 21
248.364861183891
  0
LINE
  5
5C
100
AcDbEntity
  8
0
  6
CONTINUOUS
 62
           7
100
AcDbLine
 10
272.513068982315
 20
242.864861213691
 11
272.513068982315
 21
246.813996755691
  0
LINE
  5
5B
100
AcDbEntity
  8
0
  6
CONTINUOUS
 62
           7
100
AcDbLine
 10
310.513070144515
 20
218.826279931891
 11
310.513070088715
 21
238.826281451691
  0
LINE
  5
5A
100
AcDbEntity
  8
0
  6
CONTINUOUS
 62
           7
100
AcDbLine
 10
-61.485703687424
 20
250.610559308091
 11
-61.485703687424
 21
252.826280021291
  0
LINE
  5
59
100
AcDbEntity
  8
0
  6
CONTINUOUS
 62
           7
100
AcDbLine
 10
-92.485703180824
 20
252.826280021291
 11
-92.485703180824
 21
250.610559308091
  0
LINE
  5
58
100
AcDbEntity
  8
0
  6
CONTINUOUS
 62
           7
100
AcDbLine
 10
-61.985703769424
 20
265.826280289491
 11
-63.985703165824
 21
267.826280617291
  0
LINE
  5
57
100
AcDbEntity
  8
0
  6
CONTINUOUS
 62
           7
100
AcDbLine
 10
-89.985703702224
 20
267.826280617291
 11
-91.985703098824
 21
265.826280289491
  0
LINE
  5
56
100
AcDbEntity
  8
0
  6
CONTINUOUS
 62
           7
100
AcDbLine
 10
-91.985703098824
 20
265.826280289491
 11
-91.985703098824
 21
252.826280021291
  0
LINE
  5
55
100
AcDbEntity
  8
0
  6
CONTINUOUS
 62
           7
100
AcDbLine
 10
-61.985703769424
 20
252.826280021291
 11
-61.985703769424
 21
265.826280289491
  0
LINE
  5
54
100
AcDbEntity
  8
0
  6
CONTINUOUS
 62
           7
100
AcDbLine
 10
-96.980694334224
 20
226.090465732891
 11
-96.976754839824
 21
226.608439409291
  0
LINE
  5
53
100
AcDbEntity
  8
0
  6
CONTINUOUS
 62
           7
100
AcDbLine
 10
-56.990712534024
 20
226.090465732891
 11
-56.994652028424
 21
226.608439409291
  0
LINE
  5
52
100
AcDbEntity
  8
0
  6
CONTINUOUS
 62
           7
100
AcDbLine
 10
-95.744430671624
 20
197.922200956491
 11
-95.756178374624
 21
197.006419361691
  0
LINE
  5
51
100
AcDbEntity
  8
0
  6
CONTINUOUS
 62
           7
100
AcDbLine
 10
-94.367790620024
 20
195.958296829091
 11
-95.181604500224
 21
195.620827437491
  0
LINE
  5
50
100
AcDbEntity
  8
0
  6
CONTINUOUS
 62
           7
100
AcDbLine
 10
-95.121791239224
 20
197.269484461291
 11
-95.756178374624
 21
197.006419361691
  0
LINE
  5
4F
100
AcDbEntity
  8
0
  6
CONTINUOUS
 62
           7
100
AcDbLine
 10
-58.215228493624
 20
197.846140773091
 11
-58.645236890024
 21
197.667826959091
  0
LINE
  5
4E
100
AcDbEntity
  8
0
  6
CONTINUOUS
 62
           7
100
AcDbLine
 10
-76.985703434024
 20
252.826280021291
 11
-61.485703687424
 21
252.826280021291
  0
LINE
  5
4D
100
AcDbEntity
  8
0
  6
CONTINUOUS
 62
           7
100
AcDbLine
 10
-92.485703180824
 20
252.826280021291
 11
-76.985703434024
 21
252.826280021291
  0
LINE
  5
4C
100
AcDbEntity
  8
0
  6
CONTINUOUS
 62
           7
100
AcDbLine
 10
-82.709708835224
 20
267.826280617291
 11
-63.985703165824
 21
267.826280617291
  0
LINE
  5
4B
100
AcDbEntity
  8
0
  6
CONTINUOUS
 62
           7
100
AcDbLine
 10
-89.985703702224
 20
267.826280617291
 11
-82.709708835224
 21
267.826280617291
  0
LINE
  5
4A
100
AcDbEntity
  8
0
  6
CONTINUOUS
 62
           7
100
AcDbLine
 10
-83.590324621024
 20
265.826280289491
 11
-91.985703098824
 21
265.826280289491
  0
LINE
  5
49
100
AcDbEntity
  8
0
  6
CONTINUOUS
 62
           7
100
AcDbLine
 10
-61.985703769424
 20
265.826280289491
 11
-83.590324621024
 21
265.826280289491
  0
LINE
  5
48
100
AcDbEntity
  8
0
  6
CONTINUOUS
 62
           7
100
AcDbLine
 10
-69.485703601824
 20
206.826279931891
 11
-74.485703490024
 21
206.826279931891
  0
LINE
  5
47
100
AcDbEntity
  8
0
  6
CONTINUOUS
 62
           7
100
AcDbLine
 10
-79.485703378224
 20
206.826279931891
 11
-84.485703266424
 21
206.826279931891
  0
LINE
  5
46
100
AcDbEntity
  8
0
  6
CONTINUOUS
 62
           7
100
AcDbLine
 10
-83.693907249019
 20
204.826279836801
 11
-70.277499619172
 21
204.826279836801
  0
LINE
  5
45
100
AcDbEntity
  8
0
  6
CONTINUOUS
 62
           7
100
AcDbLine
 10
-70.277499619172
 20
208.826280026791
 11
-83.693907249019
 21
208.826280026791
  0
LINE
  5
44
100
AcDbEntity
  8
0
  6
CONTINUOUS
 62
           7
100
AcDbLine
 10
271.313220032315
 20
200.473044128291
 11
271.352216371315
 21
200.470901155091
  0
LINE
  5
43
100
AcDbEntity
  8
0
  6
CONTINUOUS
 62
           7
100
AcDbLine
 10
271.352216371315
 20
200.470901155091
 11
271.389711418115
 21
200.464586787891
  0
LINE
  5
42
100
AcDbEntity
  8
0
  6
CONTINUOUS
 62
           7
100
AcDbLine
 10
271.389711418115
 20
200.464586787891
 11
271.424263485515
 21
200.454344102291
  0
LINE
  5
41
100
AcDbEntity
  8
0
  6
CONTINUOUS
 62
           7
100
AcDbLine
 10
271.424263485515
 20
200.454344102291
 11
271.454542645115
 21
200.440565184691
  0
LINE
  5
40
100
AcDbEntity
  8
0
  6
CONTINUOUS
 62
           7
100
AcDbLine
 10
271.454542645115
 20
200.440565184691
 11
271.479394056715
 21
200.423779958091
  0
LINE
  5
3F
100
AcDbEntity
  8
0
  6
CONTINUOUS
 62
           7
100
AcDbLine
 10
271.479394056715
 20
200.423779958091
 11
271.497860320715
 21
200.404632431491
  0
LINE
  5
3E
100
AcDbEntity
  8
0
  6
CONTINUOUS
 62
           7
100
AcDbLine
 10
271.497860320715
 20
200.404632431491
 11
271.509229906715
 21
200.383857884491
  0
LINE
  5
3D
100
AcDbEntity
  8
0
  6
CONTINUOUS
 62
           7
100
AcDbLine
 10
271.509229906715
 20
200.383857884491
 11
271.513070680915
 21
200.362253994691
  0
LINE
  5
3C
100
AcDbEntity
  8
0
  6
CONTINUOUS
 62
           7
100
AcDbLine
 10
307.936953328949
 20
246.938481131027
 11
307.965033344715
 21
246.814004206291
  0
LINE
  5
3B
100
AcDbEntity
  8
0
  6
CONTINUOUS
 62
           7
100
AcDbLine
 10
307.965033344715
 20
246.814004206291
 11
308.013070144515
 21
246.326281749691
  0
LINE
  5
3A
100
AcDbEntity
  8
0
  6
CONTINUOUS
 62
           7
100
AcDbLine
 10
-63.181028354224
 20
191.744987913491
 11
-62.350708644224
 21
191.907190778291
  0
LINE
  5
39
100
AcDbEntity
  8
0
  6
CONTINUOUS
 62
           7
100
AcDbLine
 10
-62.350708644224
 20
191.907190778291
 11
-61.436723570624
 21
191.916202255691
  0
LINE
  5
38
100
AcDbEntity
  8
0
  6
CONTINUOUS
 62
           7
100
AcDbLine
 10
-96.865737463624
 20
202.152166576291
 11
-97.142146553224
 21
201.305398778091
  0
LINE
  5
37
100
AcDbEntity
  8
0
  6
CONTINUOUS
 62
           7
100
AcDbLine
 10
-97.142146553224
 20
201.305398778091
 11
-97.579218100024
 21
200.502642956691
  0
LINE
  5
36
100
AcDbEntity
  8
0
  6
CONTINUOUS
 62
           7
100
AcDbLine
 10
-96.230938683424
 20
196.809547082691
 11
-96.240115936224
 21
197.989333481691
  0
LINE
  5
35
100
AcDbEntity
  8
0
  6
CONTINUOUS
 62
           7
100
AcDbLine
 10
-96.240115936224
 20
197.989333481691
 11
-96.169108177824
 21
198.322140672291
  0
LINE
  5
34
100
AcDbEntity
  8
0
  6
CONTINUOUS
 62
           7
100
AcDbLine
 10
-95.181604500224
 20
195.620827437491
 11
-94.468451689224
 21
194.942662553091
  0
LINE
  5
33
100
AcDbEntity
  8
0
  6
CONTINUOUS
 62
           7
100
AcDbLine
 10
-94.468451689224
 20
194.942662553091
 11
-93.919049601224
 21
194.648595587491
  0
LINE
  5
32
100
AcDbEntity
  8
0
  6
CONTINUOUS
 62
           7
100
AcDbLine
 10
-57.801399032824
 20
198.318735757091
 11
-57.778769756824
 21
198.228032388891
  0
LINE
  5
31
100
AcDbEntity
  8
0
  6
CONTINUOUS
 62
           7
100
AcDbLine
 10
-57.778769756824
 20
198.228032388891
 11
-57.740468184624
 21
198.043013052091
  0
LINE
  5
30
100
AcDbEntity
  8
0
  6
CONTINUOUS
 62
           7
100
AcDbLine
 10
-75.485703421024
 20
208.826280026691
 11
-74.913405466224
 21
208.224700940891
  0
LINE
  5
2F
100
AcDbEntity
  8
0
  6
CONTINUOUS
 62
           7
100
AcDbLine
 10
-74.913405466224
 20
208.224700940891
 11
-74.535997251594
 21
207.325218424859
  0
LINE
  5
2E
100
AcDbEntity
  8
1
  6
DOT_CENTER
 62
           2
100
AcDbLine
 10
354.349740632032
 20
206.826279931791
 11
-34.664857908115
 21
206.826279931791
  0
LINE
  5
2D
100
AcDbEntity
  8
1
  6
DOT_CENTER
 62
           2
100
AcDbLine
 10
-52.821832861264
 20
206.826279931791
 11
-103.430095027427
 21
206.826279931791
  0
LINE
  5
2C
100
AcDbEntity
  8
1
  6
DOT_CENTER
 62
           2
100
AcDbLine
 10
-76.985703434024
 20
271.840372912187
 11
-76.985703434024
 21
180.474428542381
  0
POINT
  5
2B
100
AcDbEntity
  8
0
 62
           7
100
AcDbPoint
 10
-26.986929855485
 20
199.826279931891
  0
POINT
  5
2A
100
AcDbEntity
  8
0
 62
           7
100
AcDbPoint
 10
346.013070144515
 20
201.326279931891
  0
POINT
  5
29
100
AcDbEntity
  8
0
 62
           7
100
AcDbPoint
 10
271.313070144515
 20
186.826279931891
  0
POINT
  5
28
100
AcDbEntity
  8
0
 62
           7
100
AcDbPoint
 10
300.013070144515
 20
267.826279931891
  0
ENDSEC
  0
SECTION
  2
OBJECTS
  0
DICTIONARY
  5
19
100
AcDbDictionary
  3
ACAD_GROUP
350
1A
  3
ACAD_MLINESTYLE
350
1B
  0
DICTIONARY
  5
1A
102
{ACAD_REACTORS
330
19
102
}
100
AcDbDictionary
  0
DICTIONARY
  5
1B
102
{ACAD_REACTORS
330
19
102
}
100
AcDbDictionary
  3
STANDARD
350
1C
  0
MLINESTYLE
  5
1C
102
{ACAD_REACTORS
330
1B
102
}
100
AcDbMlineStyle
  2
STANDARD
 70
           0
  3

 62
           0
 51
90.0
 52
90.0
 71
           2
 49
0.5
 62
         256
  6
BYLAYER
 49
-0.5
 62
         256
  6
BYLAYER
  0
ENDSEC
  0
EOF
