  0
SECTION
  2
HEADER
  9
$ACADVER
  1
AC1014
  9
$ACADMAINTVER
 70
           0
  9
$DWGCODEPAGE
  3
DOS932
  9
$INSBASE
 10
0.0
 20
0.0
 30
0.0
  9
$EXTMIN
 10
1.000000000000E+20
 20
1.000000000000E+20
 30
1.000000000000E+20
  9
$EXTMAX
 10
-1.000000000000E+20
 20
-1.000000000000E+20
 30
-1.000000000000E+20
  9
$LIMMIN
 10
0.0
 20
0.0
  9
$LIMMAX
 10
0.0
 20
0.0
  9
$ORTHOMODE
 70
           0
  9
$REGENMODE
 70
           1
  9
$FILLMODE
 70
           1
  9
$QTEXTMODE
 70
           0
  9
$MIRRTEXT
 70
           1
  9
$DRAGMODE
 70
           2
  9
$LTSCALE
 40
1.0
  9
$OSMODE
 70
           0
  9
$ATTMODE
 70
           1
  9
$TEXTSIZE
 40
0.2
  9
$TRACEWID
 40
0.05
  9
$TEXTSTYLE
  7
STANDARD
  9
$CLAYER
  8
0
  9
$CELTYPE
  6
CONTINUOUS
  9
$CECOLOR
 62
         256
  9
$CELTSCALE
 40
1.0
  9
$DELOBJ
 70
           1
  9
$DISPSILH
 70
           0
  9
$DIMSCALE
 40
1.0
  9
$DIMASZ
 40
0.18
  9
$DIMEXO
 40
0.0625
  9
$DIMDLI
 40
0.38
  9
$DIMRND
 40
0.0
  9
$DIMDLE
 40
0.0
  9
$DIMEXE
 40
0.18
  9
$DIMTP
 40
0.0
  9
$DIMTM
 40
0.0
  9
$DIMTXT
 40
0.18
  9
$DIMCEN
 40
0.09
  9
$DIMTSZ
 40
0.0
  9
$DIMTOL
 70
           0
  9
$DIMLIM
 70
           0
  9
$DIMTIH
 70
           1
  9
$DIMTOH
 70
           1
  9
$DIMSE1
 70
           0
  9
$DIMSE2
 70
           0
  9
$DIMTAD
 70
           0
  9
$DIMZIN
 70
           0
  9
$DIMBLK
  1

  9
$DIMASO
 70
           1
  9
$DIMSHO
 70
           1
  9
$DIMPOST
  1

  9
$DIMAPOST
  1

  9
$DIMALT
 70
           0
  9
$DIMALTD
 70
           2
  9
$DIMALTF
 40
25.4
  9
$DIMLFAC
 40
1.0
  9
$DIMTOFL
 70
           0
  9
$DIMTVP
 40
0.0
  9
$DIMTIX
 70
           0
  9
$DIMSOXD
 70
           0
  9
$DIMSAH
 70
           0
  9
$DIMBLK1
  1

  9
$DIMBLK2
  1

  9
$DIMSTYLE
  2
STANDARD
  9
$DIMCLRD
 70
           0
  9
$DIMCLRE
 70
           0
  9
$DIMCLRT
 70
           0
  9
$DIMTFAC
 40
1.0
  9
$DIMGAP
 40
0.09
  9
$DIMJUST
 70
           0
  9
$DIMSD1
 70
           0
  9
$DIMSD2
 70
           0
  9
$DIMTOLJ
 70
           1
  9
$DIMTZIN
 70
           0
  9
$DIMALTZ
 70
           0
  9
$DIMALTTZ
 70
           0
  9
$DIMFIT
 70
           3
  9
$DIMUPT
 70
           0
  9
$DIMUNIT
 70
           2
  9
$DIMDEC
 70
           4
  9
$DIMTDEC
 70
           4
  9
$DIMALTU
 70
           2
  9
$DIMALTTD
 70
           2
  9
$DIMTXSTY
  7
STANDARD
  9
$DIMAUNIT
 70
           0
  9
$LUNITS
 70
           2
  9
$LUPREC
 70
           4
  9
$SKETCHINC
 40
0.1
  9
$FILLETRAD
 40
0.0
  9
$AUNITS
 70
           0
  9
$AUPREC
 70
           0
  9
$MENU
  1
acad
  9
$ELEVATION
 40
0.0
  9
$PELEVATION
 40
0.0
  9
$THICKNESS
 40
0.0
  9
$LIMCHECK
 70
           0
  9
$BLIPMODE
 70
           1
  9
$CHAMFERA
 40
0.0
  9
$CHAMFERB
 40
0.0
  9
$CHAMFERC
 40
0.0
  9
$CHAMFERD
 40
0.0
  9
$SKPOLY
 70
           0
  9
$TDCREATE
 40
0.000000000
  9
$TDUPDATE
 40
0.000000000
  9
$TDINDWG
 40
0.0000000000
  9
$TDUSRTIMER
 40
0.0000000000
  9
$USRTIMER
 70
           1
  9
$ANGBASE
 50
0.0
  9
$ANGDIR
 70
           0
  9
$PDMODE
 70
           0
  9
$PDSIZE
 40
0.0
  9
$PLINEWID
 40
0.0
  9
$COORDS
 70
           0
  9
$SPLFRAME
 70
           0
  9
$SPLINETYPE
 70
           6
  9
$SPLINESEGS
 70
           8
  9
$ATTDIA
 70
           0
  9
$ATTREQ
 70
           1
  9
$HANDLING
 70
           1
  9
$HANDSEED
  5
169
  9
$SURFTAB1
 70
           6
  9
$SURFTAB2
 70
           6
  9
$SURFTYPE
 70
           6
  9
$SURFU
 70
           6
  9
$SURFV
 70
           6
  9
$UCSNAME
  2

  9
$UCSORG
 10
0.0
 20
0.0
 30
0.0
  9
$UCSXDIR
 10
1.0
 20
0.0
 30
0.0
  9
$UCSYDIR
 10
0.0
 20
1.0
 30
0.0
  9
$PUCSNAME
  2

  9
$PUCSORG
 10
0.0
 20
0.0
 30
0.0
  9
$PUCSXDIR
 10
1.0
 20
0.0
 30
0.0
  9
$PUCSYDIR
 10
0.0
 20
1.0
 30
0.0
  9
$USERI1
 70
           0
  9
$USERI2
 70
           0
  9
$USERI3
 70
           0
  9
$USERI4
 70
           0
  9
$USERI5
 70
           0
  9
$USERR1
 40
0.0
  9
$USERR2
 40
0.0
  9
$USERR3
 40
0.0
  9
$USERR4
 40
0.0
  9
$USERR5
 40
0.0
  9
$WORLDVIEW
 70
           1
  9
$SHADEDGE
 70
           3
  9
$SHADEDIF
 70
          70
  9
$TILEMODE
 70
           1
  9
$MAXACTVP
 70
          16
  9
$PINSBASE
 10
0.0
 20
0.0
 30
0.0
  9
$PLIMCHECK
 70
           0
  9
$PEXTMIN
 10
1.000000000000E+20
 20
1.000000000000E+20
 30
1.000000000000E+20
  9
$PEXTMAX
 10
-1.000000000000E+20
 20
-1.000000000000E+20
 30
-1.000000000000E+20
  9
$PLIMMIN
 10
0.0
 20
0.0
  9
$PLIMMAX
 10
12.0
 20
9.0
  9
$UNITMODE
 70
           0
  9
$VISRETAIN
 70
           0
  9
$PLINEGEN
 70
           1
  9
$PSLTSCALE
 70
           0
  9
$TREEDEPTH
 70
        3020
  9
$PICKSTYLE
 70
           1
  9
$CMLSTYLE
  2
STANDARD
  9
$CMLJUST
 70
           0
  9
$CMLSCALE
 40
1.0
  9
$PROXYGRAPHICS
 70
           0
  9
$MEASUREMENT
 70
           0
  0
ENDSEC
  0
SECTION
  2
CLASSES
  0
CLASS
  1
LWPOLYLINE
  2
AcDbPolyline
  3
"AutoCAD"
 90
        0
280
           0
281
           1
  0
CLASS
  1
IMAGE
  2
AcDbRasterImage
  3
ISM
 90
      127
280
           0
281
           1
  0
CLASS
  1
OLE2FRAME
  2
AcDbOle2Frame
  3
""
 90
        0
280
           0
281
           1
  0
CLASS
  1
HATCH
  2
AcDbHatch
  3
"ACAD_SEDONA"
 90
        0
280
           0
281
           1
  0
CLASS
  1
DICTIONARYVAR
  2
AcDbDictionaryVar
  3
"AutoCAD"
 90
        0
280
           0
281
           0
  0
CLASS
  1
RASTERVARIABLES
  2
AcDbRasterVariables
  3
ISM
 90
        0
280
           0
281
           0
  0
CLASS
  1
IMAGEDEF
  2
AcDbRasterImageDef
  3
ISM
 90
        0
280
           0
281
           0
  0
CLASS
  1
IMAGEDEF_REACTOR
  2
AcDbRasterImageDefReactor
  3
ISM
 90
        1
280
           0
281
           0
  0
CLASS
  1
IDBUFFER
  2
AcDbIdBuffer
  3
"Acad"
 90
        0
280
           0
281
           0
  0
CLASS
  1
SPATIAL_FILTER
  2
AcDbSpatialFilter
  3
"Acad"
 90
        0
280
           0
281
           0
  0
CLASS
  1
XRECORD
  2
AcDbXrecord
  3
"<Built In>"
 90
        0
280
           0
281
           0
  0
CLASS
  1
SORTENTSTABLE
  2
AcDbSortentsTable
  3
"AutoCAD"
 90
        0
280
           0
281
           0
  0
CLASS
  1
LAYER_INDEX
  2
AcDbLayerIndex
  3
"Acad"
 90
        0
280
           0
281
           0
  0
CLASS
  1
SPATIAL_INDEX
  2
AcDbSpatialIndex
  3
"Acad"
 90
        0
280
           0
281
           0
  0
CLASS
  1
OBJECT_PTR
  2
CAseDLPNTableRecord
  3
"ASE-LPNTableRecord"
 90
        1
280
           0
281
           0
  0
CLASS
  1
LAYOUT
  2
AcDbLayout
  3
"AutoCAD 2000"
 90
        1
280
           0
281
           0
  0
CLASS
  1
PLOTSETTINGS
  2
AcDbPlotSettings
  3
"AutoCAD 2000"
 90
        1
280
           0
281
           0
  0
CLASS
  1
ACDBDICTIONARYWDFLT
  2
AcDbDictionaryWithDefault
  3
"AutoCAD 2000"
 90
        1
280
           0
281
           0
  0
CLASS
  1
ACDBPLACEHOLDER
  2
AcDbPlaceHolder
  3
"AutoCAD 2000"
 90
        1
280
           0
281
           0
  0
CLASS
  1
VBA_PROJECT
  2
AcDbVbaProject
  3
"acadvba"
 90
        1
280
           0
281
           0
  0
CLASS
  1
WIPEOUT
  2
AcDbWipeout
  3
WipeOut|AutoCAD Express Tool|expresstools@autodesk.com
 90
      127
280
           0
281
           1
  0
CLASS
  1
WIPEOUTVARIABLES
  2
AcDbWipeoutVariables
  3
WipeOut|AutoCAD Express Tool|expresstools@autodesk.com
 90
        0
280
           0
281
           0
  0
CLASS
  1
RTEXT
  2
RText
  3
RText|AutoCAD Express Tool|expresstools@autodesk.com
 90
        0
280
           0
281
           1
  0
CLASS
  1
ARCALIGNEDTEXT
  2
AcDbArcAlignedText
  3
ATEXT|AutoCAD Express Tool|expresstools@autodesk.com
 90
        0
280
           0
281
           1
  0
ENDSEC
  0
SECTION
  2
TABLES
  0
TABLE
  2
VPORT
  5
7
100
AcDbSymbolTable
 70
           1
  0
VPORT
  5
15
100
AcDbSymbolTableRecord
100
AcDbViewportTableRecord
  2
*ACTIVE
 70
           0
 10
0.0
 20
0.0
 11
1.0
 21
1.0
 12
6.591288
 22
4.579184
 13
0.0
 23
0.0
 14
1.0
 24
1.0
 15
0.0
 25
0.0
 16
0.0
 26
0.0
 36
1.0
 17
0.0
 27
0.0
 37
0.0
 40
9.158369
 41
0.688564
 42
50.0
 43
0.0
 44
0.0
 50
0.0
 51
0.0
 71
           0
 72
         100
 73
           1
 74
           1
 75
           0
 76
           0
 77
           0
 78
           0
  0
ENDTAB
  0
TABLE
  2
LTYPE
  5
4
100
AcDbSymbolTable
 70
          10
  0
LTYPE
  5
11
100
AcDbSymbolTableRecord
100
AcDbLinetypeTableRecord
  2
BYBLOCK
 70
          64
  3

 72
          65
 73
           0
 40
0.0
  0
LTYPE
  5
12
100
AcDbSymbolTableRecord
100
AcDbLinetypeTableRecord
  2
BYLAYER
 70
          64
  3

 72
          65
 73
           0
 40
0.0
  0
LTYPE
  5
13
100
AcDbSymbolTableRecord
100
AcDbLinetypeTableRecord
  2
CONTINUOUS
 70
          64
  3
Solid line
 72
          65
 73
           0
 40
0.0
  0
LTYPE
  5
1D
100
AcDbSymbolTableRecord
100
AcDbLinetypeTableRecord
  2
DASHED
 70
          64
  3
Dashed
 72
          65
 73
           2
 40
15.0
 49
12.0
 74
           0
 49
-3.0
 74
           0
  0
LTYPE
  5
1E
100
AcDbSymbolTableRecord
100
AcDbLinetypeTableRecord
  2
DOTTED
 70
          64
  3
Dotted
 72
          65
 73
           2
 40
3.5
 49
0.5
 74
           0
 49
-3.0
 74
           0
  0
LTYPE
  5
1F
100
AcDbSymbolTableRecord
100
AcDbLinetypeTableRecord
  2
DOT_CENTER
 70
          64
  3
Dot_Center
 72
          65
 73
           4
 40
2.0
 49
1.25
 74
           0
 49
-0.25
 74
           0
 49
0.25
 74
           0
 49
-0.25
 74
           0
  0
LTYPE
  5
20
100
AcDbSymbolTableRecord
100
AcDbLinetypeTableRecord
  2
LONG_DASHED
 70
          64
  3
Long_Dashed
 72
          65
 73
           2
 40
2.0
 49
1.5
 74
           0
 49
-0.5
 74
           0
  0
LTYPE
  5
21
100
AcDbSymbolTableRecord
100
AcDbLinetypeTableRecord
  2
DASH_CENTER
 70
          64
  3
Dash_Center
 72
          65
 73
           4
 40
36.0
 49
24.0
 74
           0
 49
-3.0
 74
           0
 49
6.0
 74
           0
 49
-3.0
 74
           0
  0
LTYPE
  5
22
100
AcDbSymbolTableRecord
100
AcDbLinetypeTableRecord
  2
PHANTOM
 70
          64
  3
Phantom
 72
          65
 73
           6
 40
2.5
 49
1.25
 74
           0
 49
-0.25
 74
           0
 49
0.25
 74
           0
 49
-0.25
 74
           0
 49
0.25
 74
           0
 49
-0.25
 74
           0
  0
LTYPE
  5
23
100
AcDbSymbolTableRecord
100
AcDbLinetypeTableRecord
  2
CENTER_DASH_DASH
 70
          64
  3
Center_Dash_Dash
 72
          65
 73
           6
 40
22.0
 49
12.0
 74
           0
 49
-3.0
 74
           0
 49
0.5
 74
           0
 49
-3.0
 74
           0
 49
0.5
 74
           0
 49
-3.0
 74
           0
  0
ENDTAB
  0
TABLE
  2
LAYER
  5
2
100
AcDbSymbolTable
 70
           3
  0
LAYER
  5
14
100
AcDbSymbolTableRecord
100
AcDbLayerTableRecord
  2
0
 70
           0
 62
           7
  6
CONTINUOUS
  0
LAYER
  5
24
100
AcDbSymbolTableRecord
100
AcDbLayerTableRecord
  2
976
 70
           0
 62
           7
  6
CONTINUOUS
  0
LAYER
  5
25
100
AcDbSymbolTableRecord
100
AcDbLayerTableRecord
  2
1
 70
           0
 62
           7
  6
CONTINUOUS
  0
ENDTAB
  0
TABLE
  2
STYLE
  5
3
100
AcDbSymbolTable
 70
           1
  0
STYLE
  5
17
100
AcDbSymbolTableRecord
100
AcDbTextStyleTableRecord
  2
STANDARD
 70
           0
 40
0.0
 41
1.0
 50
0.0
 71
           0
 42
0.0
  3
txt
  4

  0
ENDTAB
  0
TABLE
  2
VIEW
  5
5
100
AcDbSymbolTable
 70
           0
  0
ENDTAB
  0
TABLE
  2
UCS
  5
6
100
AcDbSymbolTable
 70
           0
  0
ENDTAB
  0
TABLE
  2
APPID
  5
8
100
AcDbSymbolTable
 70
           1
  0
APPID
  5
16
100
AcDbSymbolTableRecord
100
AcDbRegAppTableRecord
  2
ACAD
 70
           0
  0
ENDTAB
  0
TABLE
  2
DIMSTYLE
  5
9
100
AcDbSymbolTable
 70
           1
  0
DIMSTYLE
105
18
100
AcDbSymbolTableRecord
100
AcDbDimStyleTableRecord
  2
STANDARD
 70
           0
  3

  4

  5

  6

  7

 40
1.0
 41
0.18
 42
0.0625
 43
0.38
 44
0.18
 45
0.0
 46
0.0
 47
0.0
 48
0.0
 71
           0
 72
           0
 73
           1
 74
           1
 75
           0
 76
           0
 77
           0
 78
           0
140
0.18
141
0.09
142
0.0
143
25.4
144
1.0
145
0.0
146
1.0
147
0.09
170
           0
171
           2
172
           0
173
           0
174
           0
175
           0
176
           0
177
           0
178
           0
270
           2
271
           4
272
           4
273
           2
274
           2
275
           0
280
           0
281
           0
282
           0
283
           1
284
           0
285
           0
286
           0
287
           0
288
           0
340
17
  0
ENDTAB
  0
TABLE
  2
BLOCK_RECORD
  5
1
100
AcDbSymbolTable
 70
           0
  0
BLOCK_RECORD
  5
A
100
AcDbSymbolTableRecord
100
AcDbBlockTableRecord
  2
*MODEL_SPACE
  0
BLOCK_RECORD
  5
B
100
AcDbSymbolTableRecord
100
AcDbBlockTableRecord
  2
*PAPER_SPACE
  0
ENDTAB
  0
ENDSEC
  0
SECTION
  2
BLOCKS
  0
BLOCK
  5
D
100
AcDbEntity
  8
0
100
AcDbBlockBegin
  2
*MODEL_SPACE
 70
           0
 10
0.0
 20
0.0
 30
0.0
  3
*MODEL_SPACE
  1

  0
ENDBLK
  5
E
100
AcDbEntity
  8
0
100
AcDbBlockEnd
  0
BLOCK
  5
F
100
AcDbEntity
 67
           1
  8
0
100
AcDbBlockBegin
  2
*PAPER_SPACE
 70
           0
 10
0.0
 20
0.0
 30
0.0
  3
*PAPER_SPACE
  1

  0
ENDBLK
  5
10
100
AcDbEntity
 67
           1
  8
0
100
AcDbBlockEnd
  0
ENDSEC
  0
SECTION
  2
ENTITIES
  0
ARC
  5
167
100
AcDbEntity
  8
1
  6
CONTINUOUS
 62
           7
100
AcDbCircle
 10
851.582218904412
 20
-1362.547771852279
 40
1.0
100
AcDbArc
 50
0.0
 51
90.0
  0
ARC
  5
166
100
AcDbEntity
  8
1
  6
CONTINUOUS
 62
           7
100
AcDbCircle
 10
841.366332279685
 20
-1362.547771852279
 40
1.0
100
AcDbArc
 50
90.0
 51
180.0
  0
ARC
  5
165
100
AcDbEntity
  8
1
  6
CONTINUOUS
 62
           7
100
AcDbCircle
 10
887.474275592045
 20
-1400.577771852278
 40
1.0
100
AcDbArc
 50
0.0
 51
90.0
  0
ARC
  5
164
100
AcDbEntity
  8
1
  6
CONTINUOUS
 62
           7
100
AcDbCircle
 10
805.474275592045
 20
-1400.577771852278
 40
1.0
100
AcDbArc
 50
90.0
 51
180.0
  0
ARC
  5
163
100
AcDbEntity
  8
1
  6
CONTINUOUS
 62
           7
100
AcDbCircle
 10
804.974275592045
 20
-1431.077771852278
 40
0.5
100
AcDbArc
 50
180.0
 51
-90.0
  0
ARC
  5
162
100
AcDbEntity
  8
1
  6
CONTINUOUS
 62
           7
100
AcDbCircle
 10
887.974275592044
 20
-1431.077771852278
 40
0.5
100
AcDbArc
 50
-90.0
 51
0.000000000104
  0
LWPOLYLINE
  5
161
100
AcDbEntity
  8
1
  6
CONTINUOUS
 62
           7
 60
           1
100
AcDbPolyline
 90
        2
 70
           0
 10
880.649275592045
 20
-1408.577771852278
 10
880.774275592045
 20
-1400.077771852278
  0
LWPOLYLINE
  5
160
100
AcDbEntity
  8
1
  6
CONTINUOUS
 62
           7
 60
           1
100
AcDbPolyline
 90
        4
 70
           0
 10
838.474275592045
 20
-1431.89187973248
 10
837.286275592045
 20
-1432.577771852277
 10
837.286275592045
 20
-1443.577771852277
 10
832.974275592045
 20
-1443.577771852277
  0
LWPOLYLINE
  5
15F
100
AcDbEntity
  8
1
  6
CONTINUOUS
 62
           7
 60
           1
100
AcDbPolyline
 90
        4
 70
           0
 10
804.474275592045
 20
-1377.851207492923
 10
805.586533656561
 20
-1376.738949428407
 10
816.547875592045
 20
-1376.396407492923
 10
816.547875592045
 20
-1376.317927004088
  0
CIRCLE
  5
15E
100
AcDbEntity
  8
1
  6
CONTINUOUS
 62
           2
100
AcDbCircle
 10
836.474275592045
 20
-1246.733297457009
 40
2.5
  0
CIRCLE
  5
15D
100
AcDbEntity
  8
1
  6
CONTINUOUS
 62
           7
100
AcDbCircle
 10
836.474275592045
 20
-1246.733297457009
 40
2.067
  0
CIRCLE
  5
15C
100
AcDbEntity
  8
1
  6
CONTINUOUS
 62
           7
100
AcDbCircle
 10
856.474275592045
 20
-1246.733297457009
 40
2.067
  0
CIRCLE
  5
15B
100
AcDbEntity
  8
1
  6
CONTINUOUS
 62
           2
100
AcDbCircle
 10
856.474275592045
 20
-1246.733297457009
 40
2.5
  0
CIRCLE
  5
15A
100
AcDbEntity
  8
1
  6
CONTINUOUS
 62
           7
100
AcDbCircle
 10
846.474275592045
 20
-1191.733297457002
 40
3.730384757729
  0
CIRCLE
  5
159
100
AcDbEntity
  8
1
  6
CONTINUOUS
 62
           7
100
AcDbCircle
 10
846.474275592045
 20
-1191.733297457002
 40
4.25
  0
CIRCLE
  5
158
100
AcDbEntity
  8
1
  6
CONTINUOUS
 62
           7
100
AcDbCircle
 10
814.43133565203
 20
-1210.233297457002
 40
3.730384757729
  0
CIRCLE
  5
157
100
AcDbEntity
  8
1
  6
CONTINUOUS
 62
           7
100
AcDbCircle
 10
814.43133565203
 20
-1210.233297457002
 40
4.25
  0
CIRCLE
  5
156
100
AcDbEntity
  8
1
  6
CONTINUOUS
 62
           7
100
AcDbCircle
 10
814.43133565203
 20
-1247.233297457002
 40
3.730384757729
  0
CIRCLE
  5
155
100
AcDbEntity
  8
1
  6
CONTINUOUS
 62
           7
100
AcDbCircle
 10
814.43133565203
 20
-1247.233297457002
 40
4.25
  0
CIRCLE
  5
154
100
AcDbEntity
  8
1
  6
CONTINUOUS
 62
           7
100
AcDbCircle
 10
846.474275592054
 20
-1265.733297457002
 40
3.730384757729
  0
CIRCLE
  5
153
100
AcDbEntity
  8
1
  6
CONTINUOUS
 62
           7
100
AcDbCircle
 10
846.474275592054
 20
-1265.733297457002
 40
4.25
  0
CIRCLE
  5
152
100
AcDbEntity
  8
1
  6
CONTINUOUS
 62
           7
100
AcDbCircle
 10
878.51721553206
 20
-1247.233297457002
 40
3.730384757729
  0
CIRCLE
  5
151
100
AcDbEntity
  8
1
  6
CONTINUOUS
 62
           7
100
AcDbCircle
 10
878.51721553206
 20
-1247.233297457002
 40
4.25
  0
CIRCLE
  5
150
100
AcDbEntity
  8
1
  6
CONTINUOUS
 62
           7
100
AcDbCircle
 10
878.51721553206
 20
-1210.233297457002
 40
3.730384757729
  0
CIRCLE
  5
14F
100
AcDbEntity
  8
1
  6
CONTINUOUS
 62
           7
100
AcDbCircle
 10
878.51721553206
 20
-1210.233297457002
 40
4.25
  0
CIRCLE
  5
14E
100
AcDbEntity
  8
1
  6
CONTINUOUS
 62
           7
100
AcDbCircle
 10
846.474275592045
 20
-1228.733297457009
 40
6.107943312367
  0
CIRCLE
  5
14D
100
AcDbEntity
  8
1
  6
CONTINUOUS
 62
           7
100
AcDbCircle
 10
846.474275592045
 20
-1228.733297457009
 40
3.0
  0
ARC
  5
14C
100
AcDbEntity
  8
1
  6
CONTINUOUS
 62
           7
100
AcDbCircle
 10
846.474275592045
 20
-1228.733297457009
 40
29.0
100
AcDbArc
 50
90.0
 51
-90.0
  0
ARC
  5
14B
100
AcDbEntity
  8
1
  6
CONTINUOUS
 62
           7
100
AcDbCircle
 10
846.474275592045
 20
-1228.733297457009
 40
28.0
100
AcDbArc
 50
90.0
 51
-90.0
  0
ARC
  5
14A
100
AcDbEntity
  8
1
  6
CONTINUOUS
 62
           6
100
AcDbCircle
 10
846.474275592045
 20
-1228.733297457009
 40
4.283
100
AcDbArc
 50
90.0
 51
-90.0
  0
ARC
  5
149
100
AcDbEntity
  8
1
  6
CONTINUOUS
 62
           6
100
AcDbCircle
 10
846.474275592045
 20
-1228.733297457009
 40
4.864
100
AcDbArc
 50
90.0
 51
-90.0
  0
ARC
  5
148
100
AcDbEntity
  8
1
  6
CONTINUOUS
 62
           7
100
AcDbCircle
 10
846.474275592045
 20
-1228.733297457009
 40
42.0
100
AcDbArc
 50
90.0
 51
-90.0
  0
ARC
  5
147
100
AcDbEntity
  8
1
  6
DOT_CENTER
 62
           2
100
AcDbCircle
 10
846.474275592054
 20
-1228.733297457002
 40
37.0
100
AcDbArc
 50
-96.019067906384
 51
-83.993947208733
  0
ARC
  5
146
100
AcDbEntity
  8
1
  6
DOT_CENTER
 62
           2
100
AcDbCircle
 10
846.474275592054
 20
-1228.733297457002
 40
37.0
100
AcDbArc
 50
-156.019067906383
 51
-143.993947208732
  0
ARC
  5
145
100
AcDbEntity
  8
1
  6
DOT_CENTER
 62
           2
100
AcDbCircle
 10
846.474275592054
 20
-1228.733297457002
 40
37.0
100
AcDbArc
 50
-156.019067906383
 51
-143.993947208732
  0
ARC
  5
144
100
AcDbEntity
  8
1
  6
DOT_CENTER
 62
           2
100
AcDbCircle
 10
846.474275592054
 20
-1228.733297457002
 40
37.0
100
AcDbArc
 50
143.980932093616
 51
156.006052791267
  0
ARC
  5
143
100
AcDbEntity
  8
1
  6
DOT_CENTER
 62
           2
100
AcDbCircle
 10
846.474275592036
 20
-1228.733297457002
 40
37.0
100
AcDbArc
 50
23.993947208733
 51
36.019067906384
  0
ARC
  5
142
100
AcDbEntity
  8
1
  6
DOT_CENTER
 62
           2
100
AcDbCircle
 10
846.474275592036
 20
-1228.733297457002
 40
37.0
100
AcDbArc
 50
-36.006052791268
 51
-23.980932093616
  0
ARC
  5
141
100
AcDbEntity
  8
1
  6
DOT_CENTER
 62
           2
100
AcDbCircle
 10
846.474275592036
 20
-1228.733297457002
 40
37.0
100
AcDbArc
 50
-36.006052791268
 51
-23.980932093616
  0
ARC
  5
140
100
AcDbEntity
  8
1
  6
CONTINUOUS
 62
           7
100
AcDbCircle
 10
846.474275592045
 20
-1228.733297457009
 40
42.0
100
AcDbArc
 50
-90.0
 51
90.0
  0
ARC
  5
13F
100
AcDbEntity
  8
1
  6
CONTINUOUS
 62
           6
100
AcDbCircle
 10
846.474275592045
 20
-1228.733297457009
 40
4.864
100
AcDbArc
 50
-90.0
 51
90.0
  0
ARC
  5
13E
100
AcDbEntity
  8
1
  6
CONTINUOUS
 62
           6
100
AcDbCircle
 10
846.474275592045
 20
-1228.733297457009
 40
4.283
100
AcDbArc
 50
-90.0
 51
90.0
  0
ARC
  5
13D
100
AcDbEntity
  8
1
  6
CONTINUOUS
 62
           7
100
AcDbCircle
 10
846.474275592045
 20
-1228.733297457009
 40
28.0
100
AcDbArc
 50
-90.0
 51
90.0
  0
ARC
  5
13C
100
AcDbEntity
  8
1
  6
CONTINUOUS
 62
           7
100
AcDbCircle
 10
846.474275592045
 20
-1228.733297457009
 40
29.0
100
AcDbArc
 50
-90.0
 51
90.0
  0
ARC
  5
13B
100
AcDbEntity
  8
1
  6
CONTINUOUS
 62
           7
100
AcDbCircle
 10
846.474275592045
 20
-1228.733297457009
 40
41.0
100
AcDbArc
 50
32.112766131405
 51
87.887233868564
  0
ARC
  5
13A
100
AcDbEntity
  8
1
  6
CONTINUOUS
 62
           7
100
AcDbCircle
 10
846.474275592045
 20
-1228.733297457009
 40
40.999999999999
100
AcDbArc
 50
92.112766131435
 51
147.887233868594
  0
ARC
  5
139
100
AcDbEntity
  8
1
  6
CONTINUOUS
 62
           7
100
AcDbCircle
 10
846.474275592045
 20
-1228.733297457009
 40
41.0
100
AcDbArc
 50
152.112766131372
 51
-152.112766131362
  0
ARC
  5
138
100
AcDbEntity
  8
1
  6
CONTINUOUS
 62
           7
100
AcDbCircle
 10
846.474275592045
 20
-1228.733297457009
 40
41.0
100
AcDbArc
 50
-147.887233868642
 51
-92.112766131364
  0
ARC
  5
137
100
AcDbEntity
  8
1
  6
CONTINUOUS
 62
           7
100
AcDbCircle
 10
846.474275592045
 20
-1228.733297457009
 40
41.0
100
AcDbArc
 50
-87.887233868606
 51
-32.112766131357
  0
ARC
  5
136
100
AcDbEntity
  8
1
  6
CONTINUOUS
 62
           7
100
AcDbCircle
 10
846.474275592045
 20
-1228.733297457009
 40
41.0
100
AcDbArc
 50
-27.887233868638
 51
27.887233868628
  0
ARC
  5
135
100
AcDbEntity
  8
1
  6
CONTINUOUS
 62
           7
100
AcDbCircle
 10
841.251199380691
 20
-1375.232504671277
 40
1.315267181004
100
AcDbArc
 50
-166.131271193438
 51
-13.868728806562
  0
ARC
  5
134
100
AcDbEntity
  8
1
  6
CONTINUOUS
 62
           7
100
AcDbCircle
 10
846.474275592045
 20
-1372.922771852279
 40
3.625
100
AcDbArc
 50
-133.602818972703
 51
-46.397181027296
  0
ARC
  5
133
100
AcDbEntity
  8
1
  6
CONTINUOUS
 62
           7
100
AcDbCircle
 10
851.697351803399
 20
-1375.232504671277
 40
1.315267181011
100
AcDbArc
 50
-166.131271193514
 51
-13.868728806562
  0
ARC
  5
132
100
AcDbEntity
  8
1
  6
CONTINUOUS
 62
           7
100
AcDbCircle
 10
841.251199380691
 20
-1365.863039033288
 40
1.315267181006
100
AcDbArc
 50
13.86872880685
 51
166.13127119315
  0
ARC
  5
131
100
AcDbEntity
  8
1
  6
CONTINUOUS
 62
           7
100
AcDbCircle
 10
846.474275592045
 20
-1368.172771852279
 40
3.625
100
AcDbArc
 50
46.397181027296
 51
133.602818972703
  0
ARC
  5
130
100
AcDbEntity
  8
1
  6
CONTINUOUS
 62
           7
100
AcDbCircle
 10
851.697351803399
 20
-1365.863039033288
 40
1.315267181006
100
AcDbArc
 50
13.86872880685
 51
166.131271193226
  0
ARC
  5
12F
100
AcDbEntity
  8
1
  6
CONTINUOUS
 62
           7
100
AcDbCircle
 10
846.474275592045
 20
-1435.702771852278
 40
18.875
100
AcDbArc
 50
-108.733997833354
 51
-71.266002166645
  0
ARC
  5
12E
100
AcDbEntity
  8
1
  6
CONTINUOUS
 62
           7
100
AcDbCircle
 10
846.474275592045
 20
-1466.452771852278
 40
18.875
100
AcDbArc
 50
71.266002166645
 51
108.733997833354
  0
ARC
  5
12D
100
AcDbEntity
  8
1
  6
CONTINUOUS
 62
           7
100
AcDbCircle
 10
827.271422933704
 20
-1424.389745862086
 40
8.87340934591
100
AcDbArc
 50
-54.102146557358
 51
-4.447061084938
  0
ARC
  5
12C
100
AcDbEntity
  8
1
  6
CONTINUOUS
 62
           7
100
AcDbCircle
 10
837.831973847347
 20
-1382.817431428579
 40
42.295078609462
100
AcDbArc
 50
-123.521901478727
 51
-92.322341098709
  0
ARC
  5
12B
100
AcDbEntity
  8
1
  6
CONTINUOUS
 62
           7
100
AcDbCircle
 10
855.116577336743
 20
-1382.817431428579
 40
42.295078609461
100
AcDbArc
 50
-87.677658901291
 51
-56.478098521273
  0
ARC
  5
12A
100
AcDbEntity
  8
1
  6
CONTINUOUS
 62
           7
100
AcDbCircle
 10
865.677128250386
 20
-1424.389745862086
 40
8.87340934591
100
AcDbArc
 50
-175.552938915061
 51
-125.897853442642
  0
ARC
  5
129
100
AcDbEntity
  8
1
  6
CONTINUOUS
 62
           7
100
AcDbCircle
 10
836.081970746631
 20
-1439.077771852276
 40
6.5
100
AcDbArc
 50
-90.0
 51
-57.795772496028
  0
ARC
  5
128
100
AcDbEntity
  8
1
  6
CONTINUOUS
 62
           7
100
AcDbCircle
 10
836.081970746631
 20
-1447.077771852276
 40
6.5
100
AcDbArc
 50
90.0
 51
122.204227503967
  0
ARC
  5
127
100
AcDbEntity
  8
1
  6
CONTINUOUS
 62
           7
100
AcDbCircle
 10
856.866580437458
 20
-1439.077771852276
 40
6.500000000001
100
AcDbArc
 50
-90.0
 51
-57.795772496028
  0
ARC
  5
126
100
AcDbEntity
  8
1
  6
CONTINUOUS
 62
           7
100
AcDbCircle
 10
856.866580437458
 20
-1447.077771852276
 40
6.499999999999
100
AcDbArc
 50
90.0
 51
122.204227503975
  0
ARC
  5
125
100
AcDbEntity
  8
1
  6
CONTINUOUS
 62
           7
100
AcDbCircle
 10
846.474275592045
 20
-1421.077771852276
 40
24.5
100
AcDbArc
 50
-90.0
 51
-73.573578596525
  0
ARC
  5
124
100
AcDbEntity
  8
1
  6
CONTINUOUS
 62
           7
100
AcDbCircle
 10
846.474275592045
 20
-1465.077771852276
 40
24.499999999999
100
AcDbArc
 50
90.0
 51
106.426421403477
  0
ARC
  5
123
100
AcDbEntity
  8
1
  6
CONTINUOUS
 62
           7
100
AcDbCircle
 10
836.081970746631
 20
-1447.077771852276
 40
6.5
100
AcDbArc
 50
57.795772496028
 51
90.0
  0
ARC
  5
122
100
AcDbEntity
  8
1
  6
CONTINUOUS
 62
           7
100
AcDbCircle
 10
836.081970746631
 20
-1439.077771852276
 40
6.5
100
AcDbArc
 50
-122.204227503967
 51
-90.0
  0
ARC
  5
121
100
AcDbEntity
  8
1
  6
CONTINUOUS
 62
           7
100
AcDbCircle
 10
856.866580437458
 20
-1447.077771852276
 40
6.5
100
AcDbArc
 50
57.795772496028
 51
90.0
  0
ARC
  5
120
100
AcDbEntity
  8
1
  6
CONTINUOUS
 62
           7
100
AcDbCircle
 10
856.866580437458
 20
-1439.077771852276
 40
6.5
100
AcDbArc
 50
-122.204227503975
 51
-90.0
  0
ARC
  5
11F
100
AcDbEntity
  8
1
  6
CONTINUOUS
 62
           7
100
AcDbCircle
 10
846.474275592045
 20
-1465.077771852276
 40
24.5
100
AcDbArc
 50
73.573578596525
 51
90.0
  0
ARC
  5
11E
100
AcDbEntity
  8
1
  6
CONTINUOUS
 62
           7
100
AcDbCircle
 10
846.474275592045
 20
-1421.077771852276
 40
24.5
100
AcDbArc
 50
-106.426421403477
 51
-90.0
  0
LINE
  5
11D
100
AcDbEntity
  8
1
  6
CONTINUOUS
 62
           7
100
AcDbLine
 10
801.473787668464
 20
-1413.405819136444
 11
804.464275592045
 21
-1413.499271852278
  0
LINE
  5
11C
100
AcDbEntity
  8
1
  6
CONTINUOUS
 62
           7
100
AcDbLine
 10
800.474275592045
 20
-1425.780959309879
 11
800.474275592045
 21
-1414.374584394677
  0
LINE
  5
11B
100
AcDbEntity
  8
1
  6
CONTINUOUS
 62
           7
100
AcDbLine
 10
800.474275592045
 20
-1414.374584394677
 11
801.473787668464
 21
-1413.405819136444
  0
LINE
  5
11A
100
AcDbEntity
  8
1
  6
CONTINUOUS
 62
           7
100
AcDbLine
 10
800.474275592045
 20
-1425.780959309879
 11
801.473787668464
 21
-1426.749724568112
  0
LINE
  5
119
100
AcDbEntity
  8
1
  6
CONTINUOUS
 62
           2
100
AcDbLine
 10
800.618205331049
 20
-1425.920461507065
 11
804.464275592045
 21
-1425.800271852278
  0
LINE
  5
118
100
AcDbEntity
  8
1
  6
CONTINUOUS
 62
           2
100
AcDbLine
 10
804.464275592045
 20
-1414.355271852278
 11
800.618205331049
 21
-1414.235082197491
  0
LINE
  5
117
100
AcDbEntity
  8
1
  6
CONTINUOUS
 62
           7
100
AcDbLine
 10
804.464275592045
 20
-1426.656271852278
 11
801.473787668464
 21
-1426.749724568112
  0
LINE
  5
116
100
AcDbEntity
  8
1
  6
CONTINUOUS
 62
           2
100
AcDbLine
 10
801.473787668464
 20
-1413.405819136444
 11
801.473787668464
 21
-1426.749724568112
  0
LINE
  5
115
100
AcDbEntity
  8
1
  6
DOT_CENTER
 62
           2
100
AcDbLine
 10
836.474275592045
 20
-1250.733297457009
 11
836.474275592045
 21
-1242.733297457009
  0
LINE
  5
114
100
AcDbEntity
  8
1
  6
DOT_CENTER
 62
           2
100
AcDbLine
 10
832.474275592045
 20
-1246.733297457009
 11
840.474275592045
 21
-1246.733297457009
  0
LINE
  5
113
100
AcDbEntity
  8
1
  6
DOT_CENTER
 62
           2
100
AcDbLine
 10
810.732876730308
 20
-1249.368603711045
 11
818.237364062034
 21
-1245.035885929943
  0
LINE
  5
112
100
AcDbEntity
  8
1
  6
DOT_CENTER
 62
           2
100
AcDbLine
 10
810.73287673031
 20
-1208.097991202962
 11
818.237364062037
 21
-1212.430708984061
  0
LINE
  5
111
100
AcDbEntity
  8
1
  6
DOT_CENTER
 62
           2
100
AcDbLine
 10
842.694275592045
 20
-1191.733297457002
 11
850.254275592045
 21
-1191.733297457002
  0
LINE
  5
110
100
AcDbEntity
  8
1
  6
DOT_CENTER
 62
           2
100
AcDbLine
 10
800.40675734387
 20
-1228.733297457009
 11
892.852417149304
 21
-1228.733297457009
  0
LINE
  5
10F
100
AcDbEntity
  8
1
  6
DOT_CENTER
 62
           2
100
AcDbLine
 10
874.711187122053
 20
-1212.430708984061
 11
882.21567445378
 21
-1208.097991202962
  0
LINE
  5
10E
100
AcDbEntity
  8
1
  6
DOT_CENTER
 62
           2
100
AcDbLine
 10
874.711187122056
 20
-1245.035885929943
 11
882.215674453782
 21
-1249.368603711045
  0
LINE
  5
10D
100
AcDbEntity
  8
1
  6
DOT_CENTER
 62
           2
100
AcDbLine
 10
852.474275592045
 20
-1246.733297457009
 11
860.474275592045
 21
-1246.733297457009
  0
LINE
  5
10C
100
AcDbEntity
  8
1
  6
DOT_CENTER
 62
           2
100
AcDbLine
 10
856.474275592045
 20
-1242.733297457009
 11
856.474275592045
 21
-1250.733297457009
  0
LINE
  5
10B
100
AcDbEntity
  8
1
  6
CONTINUOUS
 62
           7
100
AcDbLine
 10
844.474275592045
 20
-1192.887997995382
 11
846.474275592045
 21
-1194.042698533761
  0
LINE
  5
10A
100
AcDbEntity
  8
1
  6
CONTINUOUS
 62
           7
100
AcDbLine
 10
844.474275592045
 20
-1190.578596918623
 11
844.474275592045
 21
-1192.887997995382
  0
LINE
  5
109
100
AcDbEntity
  8
1
  6
CONTINUOUS
 62
           7
100
AcDbLine
 10
846.474275592045
 20
-1189.423896380244
 11
844.474275592045
 21
-1190.578596918623
  0
LINE
  5
108
100
AcDbEntity
  8
1
  6
CONTINUOUS
 62
           7
100
AcDbLine
 10
848.474275592045
 20
-1190.578596918623
 11
846.474275592045
 21
-1189.423896380244
  0
LINE
  5
107
100
AcDbEntity
  8
1
  6
CONTINUOUS
 62
           7
100
AcDbLine
 10
848.474275592045
 20
-1192.887997995382
 11
848.474275592045
 21
-1190.578596918623
  0
LINE
  5
106
100
AcDbEntity
  8
1
  6
CONTINUOUS
 62
           7
100
AcDbLine
 10
846.474275592045
 20
-1194.042698533761
 11
848.474275592045
 21
-1192.887997995382
  0
LINE
  5
105
100
AcDbEntity
  8
1
  6
CONTINUOUS
 62
           7
100
AcDbLine
 10
812.43133565203
 20
-1211.387997995382
 11
814.43133565203
 21
-1212.542698533761
  0
LINE
  5
104
100
AcDbEntity
  8
1
  6
CONTINUOUS
 62
           7
100
AcDbLine
 10
812.43133565203
 20
-1209.078596918623
 11
812.43133565203
 21
-1211.387997995382
  0
LINE
  5
103
100
AcDbEntity
  8
1
  6
CONTINUOUS
 62
           7
100
AcDbLine
 10
814.43133565203
 20
-1207.923896380244
 11
812.43133565203
 21
-1209.078596918623
  0
LINE
  5
102
100
AcDbEntity
  8
1
  6
CONTINUOUS
 62
           7
100
AcDbLine
 10
816.43133565203
 20
-1209.078596918623
 11
814.43133565203
 21
-1207.923896380244
  0
LINE
  5
101
100
AcDbEntity
  8
1
  6
CONTINUOUS
 62
           7
100
AcDbLine
 10
816.43133565203
 20
-1211.387997995382
 11
816.43133565203
 21
-1209.078596918623
  0
LINE
  5
100
100
AcDbEntity
  8
1
  6
CONTINUOUS
 62
           7
100
AcDbLine
 10
814.43133565203
 20
-1212.542698533761
 11
816.43133565203
 21
-1211.387997995382
  0
LINE
  5
FF
100
AcDbEntity
  8
1
  6
CONTINUOUS
 62
           7
100
AcDbLine
 10
812.43133565203
 20
-1248.387997995381
 11
814.43133565203
 21
-1249.54269853376
  0
LINE
  5
FE
100
AcDbEntity
  8
1
  6
CONTINUOUS
 62
           7
100
AcDbLine
 10
812.43133565203
 20
-1246.078596918623
 11
812.43133565203
 21
-1248.387997995381
  0
LINE
  5
FD
100
AcDbEntity
  8
1
  6
CONTINUOUS
 62
           7
100
AcDbLine
 10
814.43133565203
 20
-1244.923896380244
 11
812.43133565203
 21
-1246.078596918623
  0
LINE
  5
FC
100
AcDbEntity
  8
1
  6
CONTINUOUS
 62
           7
100
AcDbLine
 10
816.43133565203
 20
-1246.078596918623
 11
814.43133565203
 21
-1244.923896380244
  0
LINE
  5
FB
100
AcDbEntity
  8
1
  6
CONTINUOUS
 62
           7
100
AcDbLine
 10
816.43133565203
 20
-1248.387997995381
 11
816.43133565203
 21
-1246.078596918623
  0
LINE
  5
FA
100
AcDbEntity
  8
1
  6
CONTINUOUS
 62
           7
100
AcDbLine
 10
814.43133565203
 20
-1249.54269853376
 11
816.43133565203
 21
-1248.387997995381
  0
LINE
  5
F9
100
AcDbEntity
  8
1
  6
CONTINUOUS
 62
           7
100
AcDbLine
 10
844.474275592054
 20
-1266.887997995382
 11
846.474275592054
 21
-1268.042698533761
  0
LINE
  5
F8
100
AcDbEntity
  8
1
  6
CONTINUOUS
 62
           7
100
AcDbLine
 10
844.474275592054
 20
-1264.578596918623
 11
844.474275592054
 21
-1266.887997995382
  0
LINE
  5
F7
100
AcDbEntity
  8
1
  6
CONTINUOUS
 62
           7
100
AcDbLine
 10
846.474275592054
 20
-1263.423896380244
 11
844.474275592054
 21
-1264.578596918623
  0
LINE
  5
F6
100
AcDbEntity
  8
1
  6
CONTINUOUS
 62
           7
100
AcDbLine
 10
848.474275592054
 20
-1264.578596918623
 11
846.474275592054
 21
-1263.423896380244
  0
LINE
  5
F5
100
AcDbEntity
  8
1
  6
CONTINUOUS
 62
           7
100
AcDbLine
 10
848.474275592054
 20
-1266.887997995382
 11
848.474275592054
 21
-1264.578596918623
  0
LINE
  5
F4
100
AcDbEntity
  8
1
  6
CONTINUOUS
 62
           7
100
AcDbLine
 10
846.474275592054
 20
-1268.042698533761
 11
848.474275592054
 21
-1266.887997995382
  0
LINE
  5
F3
100
AcDbEntity
  8
1
  6
CONTINUOUS
 62
           7
100
AcDbLine
 10
876.51721553206
 20
-1248.387997995381
 11
878.51721553206
 21
-1249.54269853376
  0
LINE
  5
F2
100
AcDbEntity
  8
1
  6
CONTINUOUS
 62
           7
100
AcDbLine
 10
876.51721553206
 20
-1246.078596918623
 11
876.51721553206
 21
-1248.387997995381
  0
LINE
  5
F1
100
AcDbEntity
  8
1
  6
CONTINUOUS
 62
           7
100
AcDbLine
 10
878.51721553206
 20
-1244.923896380244
 11
876.51721553206
 21
-1246.078596918623
  0
LINE
  5
F0
100
AcDbEntity
  8
1
  6
CONTINUOUS
 62
           7
100
AcDbLine
 10
880.51721553206
 20
-1246.078596918623
 11
878.51721553206
 21
-1244.923896380244
  0
LINE
  5
EF
100
AcDbEntity
  8
1
  6
CONTINUOUS
 62
           7
100
AcDbLine
 10
880.51721553206
 20
-1248.387997995381
 11
880.51721553206
 21
-1246.078596918623
  0
LINE
  5
EE
100
AcDbEntity
  8
1
  6
CONTINUOUS
 62
           7
100
AcDbLine
 10
878.51721553206
 20
-1249.54269853376
 11
880.51721553206
 21
-1248.387997995381
  0
LINE
  5
ED
100
AcDbEntity
  8
1
  6
CONTINUOUS
 62
           7
100
AcDbLine
 10
876.51721553206
 20
-1211.387997995382
 11
878.51721553206
 21
-1212.542698533761
  0
LINE
  5
EC
100
AcDbEntity
  8
1
  6
CONTINUOUS
 62
           7
100
AcDbLine
 10
876.51721553206
 20
-1209.078596918623
 11
876.51721553206
 21
-1211.387997995382
  0
LINE
  5
EB
100
AcDbEntity
  8
1
  6
CONTINUOUS
 62
           7
100
AcDbLine
 10
878.51721553206
 20
-1207.923896380244
 11
876.51721553206
 21
-1209.078596918623
  0
LINE
  5
EA
100
AcDbEntity
  8
1
  6
CONTINUOUS
 62
           7
100
AcDbLine
 10
880.51721553206
 20
-1209.078596918623
 11
878.51721553206
 21
-1207.923896380244
  0
LINE
  5
E9
100
AcDbEntity
  8
1
  6
CONTINUOUS
 62
           7
100
AcDbLine
 10
880.51721553206
 20
-1211.387997995382
 11
880.51721553206
 21
-1209.078596918623
  0
LINE
  5
E8
100
AcDbEntity
  8
1
  6
CONTINUOUS
 62
           7
100
AcDbLine
 10
878.51721553206
 20
-1212.542698533761
 11
880.51721553206
 21
-1211.387997995382
  0
LINE
  5
E7
100
AcDbEntity
  8
1
  6
DOT_CENTER
 62
           2
100
AcDbLine
 10
846.474275592045
 20
-1183.32073382591
 11
846.474275592045
 21
-1275.96763163613
  0
LINE
  5
E6
100
AcDbEntity
  8
1
  6
CONTINUOUS
 62
           7
100
AcDbLine
 10
801.473787668463
 20
-1222.061344741175
 11
801.473787668463
 21
-1235.405250172843
  0
LINE
  5
E5
100
AcDbEntity
  8
1
  6
CONTINUOUS
 62
           7
100
AcDbLine
 10
804.464275592045
 20
-1235.311797457009
 11
801.473787668463
 21
-1235.405250172843
  0
LINE
  5
E4
100
AcDbEntity
  8
1
  6
CONTINUOUS
 62
           2
100
AcDbLine
 10
804.464275592045
 20
-1234.455797457009
 11
804.864230125528
 21
-1234.443298882088
  0
LINE
  5
E3
100
AcDbEntity
  8
1
  6
CONTINUOUS
 62
           2
100
AcDbLine
 10
804.464275592045
 20
-1223.010797457009
 11
800.618205331049
 21
-1222.890607802222
  0
LINE
  5
E2
100
AcDbEntity
  8
1
  6
CONTINUOUS
 62
           7
100
AcDbLine
 10
804.464275592045
 20
-1222.154797457009
 11
804.99007074659
 21
-1222.171228550002
  0
LINE
  5
E1
100
AcDbEntity
  8
1
  6
CONTINUOUS
 62
           2
100
AcDbLine
 10
800.618205331049
 20
-1234.575987111796
 11
804.464275592045
 21
-1234.455797457009
  0
LINE
  5
E0
100
AcDbEntity
  8
1
  6
CONTINUOUS
 62
           7
100
AcDbLine
 10
800.474275592045
 20
-1234.43648491461
 11
801.473787668463
 21
-1235.405250172843
  0
LINE
  5
DF
100
AcDbEntity
  8
1
  6
CONTINUOUS
 62
           7
100
AcDbLine
 10
800.474275592045
 20
-1223.030109999408
 11
801.473787668463
 21
-1222.061344741175
  0
LINE
  5
DE
100
AcDbEntity
  8
1
  6
CONTINUOUS
 62
           7
100
AcDbLine
 10
800.474275592045
 20
-1234.43648491461
 11
800.474275592045
 21
-1223.030109999408
  0
LINE
  5
DD
100
AcDbEntity
  8
1
  6
CONTINUOUS
 62
           7
100
AcDbLine
 10
801.473787668463
 20
-1222.061344741175
 11
804.464275592045
 21
-1222.154797457009
  0
LINE
  5
DC
100
AcDbEntity
  8
1
  6
CONTINUOUS
 62
           2
100
AcDbLine
 10
804.864230125528
 20
-1223.023296031931
 11
804.464275592045
 21
-1223.010797457009
  0
LINE
  5
DB
100
AcDbEntity
  8
1
  6
CONTINUOUS
 62
           7
100
AcDbLine
 10
804.99007074659
 20
-1235.295366364017
 11
804.464275592045
 21
-1235.311797457009
  0
LINE
  5
DA
100
AcDbEntity
  8
1
  6
CONTINUOUS
 62
           7
100
AcDbLine
 10
839.974275592045
 20
-1365.547771852279
 11
839.974275592045
 21
-1375.547771852279
  0
LINE
  5
D9
100
AcDbEntity
  8
1
  6
CONTINUOUS
 62
           7
100
AcDbLine
 10
842.528123169337
 20
-1375.547771852279
 11
842.528123169337
 21
-1365.547771852279
  0
LINE
  5
D8
100
AcDbEntity
  8
1
  6
CONTINUOUS
 62
           7
100
AcDbLine
 10
843.974275592045
 20
-1365.547771852279
 11
843.974275592045
 21
-1375.547771852279
  0
LINE
  5
D7
100
AcDbEntity
  8
1
  6
CONTINUOUS
 62
           7
100
AcDbLine
 10
848.974275592045
 20
-1375.547771852279
 11
848.974275592045
 21
-1365.547771852279
  0
LINE
  5
D6
100
AcDbEntity
  8
1
  6
CONTINUOUS
 62
           7
100
AcDbLine
 10
850.420428014746
 20
-1365.547771852279
 11
850.420428014746
 21
-1375.547771852279
  0
LINE
  5
D5
100
AcDbEntity
  8
1
  6
CONTINUOUS
 62
           7
100
AcDbLine
 10
852.974275592045
 20
-1365.547771852279
 11
852.974275592045
 21
-1375.547771852279
  0
LINE
  5
D4
100
AcDbEntity
  8
1
  6
CONTINUOUS
 62
           7
100
AcDbLine
 10
848.974275592045
 20
-1365.547771852279
 11
850.420428014746
 21
-1365.547771852279
  0
LINE
  5
D3
100
AcDbEntity
  8
1
  6
CONTINUOUS
 62
           7
100
AcDbLine
 10
842.528123169337
 20
-1365.547771852279
 11
843.974275592045
 21
-1365.547771852279
  0
LINE
  5
D2
100
AcDbEntity
  8
1
  6
CONTINUOUS
 62
           7
100
AcDbLine
 10
842.528123169337
 20
-1375.547771852279
 11
843.974275592045
 21
-1375.547771852279
  0
LINE
  5
D1
100
AcDbEntity
  8
1
  6
CONTINUOUS
 62
           7
100
AcDbLine
 10
848.974275592045
 20
-1375.547771852279
 11
850.420428014746
 21
-1375.547771852279
  0
LINE
  5
D0
100
AcDbEntity
  8
1
  6
CONTINUOUS
 62
           7
100
AcDbLine
 10
852.582218904412
 20
-1363.547771852279
 11
852.582218904412
 21
-1362.547771852279
  0
LINE
  5
CF
100
AcDbEntity
  8
1
  6
CONTINUOUS
 62
           7
100
AcDbLine
 10
840.366332279685
 20
-1363.547771852279
 11
840.366332279685
 21
-1362.547771852279
  0
LINE
  5
CE
100
AcDbEntity
  8
1
  6
CONTINUOUS
 62
           7
100
AcDbLine
 10
851.582218904412
 20
-1361.547771852279
 11
841.366332279685
 21
-1361.547771852279
  0
LINE
  5
CD
100
AcDbEntity
  8
1
  6
CONTINUOUS
 62
           7
100
AcDbLine
 10
852.582218904412
 20
-1363.547771852279
 11
840.366332279685
 21
-1363.547771852279
  0
LINE
  5
CC
100
AcDbEntity
  8
1
  6
CONTINUOUS
 62
           7
100
AcDbLine
 10
851.190162216735
 20
-1363.547771852279
 11
851.190162216735
 21
-1364.547771852279
  0
LINE
  5
CB
100
AcDbEntity
  8
1
  6
CONTINUOUS
 62
           7
100
AcDbLine
 10
841.758388967348
 20
-1363.547771852279
 11
841.758388967348
 21
-1364.547771852279
  0
LINE
  5
CA
100
AcDbEntity
  8
1
  6
CONTINUOUS
 62
           2
100
AcDbLine
 10
851.479006293106
 20
-1376.547771852279
 11
850.844577515781
 21
-1378.077771852278
  0
LINE
  5
C9
100
AcDbEntity
  8
1
  6
CONTINUOUS
 62
           2
100
AcDbLine
 10
841.469544890999
 20
-1376.547771852279
 11
842.103973668316
 21
-1378.077771852278
  0
LINE
  5
C8
100
AcDbEntity
  8
1
  6
CONTINUOUS
 62
           7
100
AcDbLine
 10
851.479006293106
 20
-1376.547771852279
 11
851.338275592061
 21
-1380.577771852292
  0
LINE
  5
C7
100
AcDbEntity
  8
1
  6
CONTINUOUS
 62
           2
100
AcDbLine
 10
850.844577515781
 20
-1378.077771852278
 11
850.757275592055
 21
-1380.577771852212
  0
LINE
  5
C6
100
AcDbEntity
  8
1
  6
CONTINUOUS
 62
           2
100
AcDbLine
 10
842.103973668316
 20
-1378.077771852278
 11
842.191275592049
 21
-1380.577771852278
  0
LINE
  5
C5
100
AcDbEntity
  8
1
  6
CONTINUOUS
 62
           7
100
AcDbLine
 10
841.469544890999
 20
-1376.547771852279
 11
841.610275592051
 21
-1380.577771852198
  0
LINE
  5
C4
100
AcDbEntity
  8
1
  6
CONTINUOUS
 62
           7
100
AcDbLine
 10
851.425577515787
 20
-1378.077771852278
 11
841.522973668325
 21
-1378.077771852278
  0
LINE
  5
C3
100
AcDbEntity
  8
1
  6
CONTINUOUS
 62
           7
100
AcDbLine
 10
851.703122222396
 20
-1364.547771852279
 11
841.245428961702
 21
-1364.547771852279
  0
LINE
  5
C2
100
AcDbEntity
  8
1
  6
CONTINUOUS
 62
           7
100
AcDbLine
 10
851.703122222396
 20
-1376.547771852279
 11
841.245428961702
 21
-1376.547771852279
  0
LINE
  5
C1
100
AcDbEntity
  8
1
  6
CONTINUOUS
 62
           7
100
AcDbLine
 10
875.474275592045
 20
-1394.577771852278
 11
875.474275592045
 21
-1381.577771852278
  0
LINE
  5
C0
100
AcDbEntity
  8
1
  6
CONTINUOUS
 62
           7
100
AcDbLine
 10
886.174275592038
 20
-1399.577771852278
 11
880.774275592038
 21
-1399.577771852278
  0
LINE
  5
BF
100
AcDbEntity
  8
1
  6
CONTINUOUS
 62
           7
100
AcDbLine
 10
887.474275592045
 20
-1399.577771852278
 11
886.174275592038
 21
-1399.577771852278
  0
LINE
  5
BE
100
AcDbEntity
  8
1
  6
CONTINUOUS
 62
           7
100
AcDbLine
 10
812.174275592038
 20
-1399.577771852278
 11
806.774275592038
 21
-1399.577771852278
  0
LINE
  5
BD
100
AcDbEntity
  8
1
  6
CONTINUOUS
 62
           7
100
AcDbLine
 10
817.474275592045
 20
-1399.577771852278
 11
812.174275592038
 21
-1399.577771852278
  0
LINE
  5
BC
100
AcDbEntity
  8
1
  6
CONTINUOUS
 62
           7
100
AcDbLine
 10
804.474275592045
 20
-1408.077771852278
 11
804.974275592045
 21
-1408.577771852278
  0
LINE
  5
BB
100
AcDbEntity
  8
1
  6
CONTINUOUS
 62
           7
100
AcDbLine
 10
888.474275592045
 20
-1408.077771852278
 11
887.974275592045
 21
-1408.577771852278
  0
LINE
  5
BA
100
AcDbEntity
  8
1
  6
CONTINUOUS
 62
           7
100
AcDbLine
 10
887.474275592045
 20
-1399.577771852278
 11
888.474275592045
 21
-1400.577771852278
  0
LINE
  5
B9
100
AcDbEntity
  8
1
  6
CONTINUOUS
 62
           7
100
AcDbLine
 10
805.474275592045
 20
-1399.577771852278
 11
804.474275592045
 21
-1400.577771852278
  0
LINE
  5
B8
100
AcDbEntity
  8
1
  6
CONTINUOUS
 62
           7
100
AcDbLine
 10
875.474275592045
 20
-1381.577771852278
 11
874.474275592045
 21
-1380.577771852278
  0
LINE
  5
B7
100
AcDbEntity
  8
1
  6
CONTINUOUS
 62
           7
100
AcDbLine
 10
817.474275592045
 20
-1381.577771852278
 11
818.474275592045
 21
-1380.577771852278
  0
LINE
  5
B6
100
AcDbEntity
  8
1
  6
CONTINUOUS
 62
           7
100
AcDbLine
 10
874.474275592045
 20
-1380.577771852278
 11
851.257275592045
 21
-1380.577771852278
  0
LINE
  5
B5
100
AcDbEntity
  8
1
  6
CONTINUOUS
 62
           7
100
AcDbLine
 10
851.257275592045
 20
-1380.577771852278
 11
818.474275592045
 21
-1380.577771852278
  0
LINE
  5
B4
100
AcDbEntity
  8
1
  6
CONTINUOUS
 62
           7
100
AcDbLine
 10
817.474275592045
 20
-1381.577771852278
 11
817.474275592045
 21
-1394.577771852278
  0
LINE
  5
B3
100
AcDbEntity
  8
1
  6
CONTINUOUS
 62
           7
100
AcDbLine
 10
804.474275592045
 20
-1400.577771852278
 11
804.474275592045
 21
-1408.077771852278
  0
LINE
  5
B2
100
AcDbEntity
  8
1
  6
CONTINUOUS
 62
           7
100
AcDbLine
 10
888.474275592045
 20
-1408.077771852278
 11
888.474275592045
 21
-1400.577771852278
  0
LINE
  5
B1
100
AcDbEntity
  8
1
  6
CONTINUOUS
 62
           7
100
AcDbLine
 10
806.774275592038
 20
-1399.577771852278
 11
805.474275592045
 21
-1399.577771852278
  0
LINE
  5
B0
100
AcDbEntity
  8
1
  6
CONTINUOUS
 62
           7
100
AcDbLine
 10
880.774275592038
 20
-1399.577771852278
 11
875.474275592045
 21
-1399.577771852278
  0
LINE
  5
AF
100
AcDbEntity
  8
1
  6
CONTINUOUS
 62
           7
100
AcDbLine
 10
875.474275592045
 20
-1399.577771852278
 11
817.474275592045
 21
-1399.577771852278
  0
LINE
  5
AE
100
AcDbEntity
  8
1
  6
CONTINUOUS
 62
           7
100
AcDbLine
 10
887.974275592045
 20
-1408.577771852278
 11
804.974275592045
 21
-1408.577771852278
  0
LINE
  5
AD
100
AcDbEntity
  8
1
  6
CONTINUOUS
 62
           7
100
AcDbLine
 10
874.224275592045
 20
-1395.077771852278
 11
875.474275592045
 21
-1395.077771852278
  0
LINE
  5
AC
100
AcDbEntity
  8
1
  6
CONTINUOUS
 62
           7
100
AcDbLine
 10
874.724275592045
 20
-1394.577771852278
 11
875.474275592045
 21
-1394.577771852278
  0
LINE
  5
AB
100
AcDbEntity
  8
1
  6
CONTINUOUS
 62
           7
100
AcDbLine
 10
810.224275592045
 20
-1395.077771852278
 11
817.474275592045
 21
-1395.077771852278
  0
LINE
  5
AA
100
AcDbEntity
  8
1
  6
CONTINUOUS
 62
           7
100
AcDbLine
 10
810.724275592045
 20
-1394.577771852278
 11
817.474275592045
 21
-1394.577771852278
  0
LINE
  5
A9
100
AcDbEntity
  8
1
  6
CONTINUOUS
 62
           7
100
AcDbLine
 10
818.724275592045
 20
-1395.077771852278
 11
818.724275592045
 21
-1399.577771852278
  0
LINE
  5
A8
100
AcDbEntity
  8
1
  6
CONTINUOUS
 62
           7
100
AcDbLine
 10
817.474275592045
 20
-1394.577771852278
 11
818.224275592045
 21
-1394.577771852278
  0
LINE
  5
A7
100
AcDbEntity
  8
1
  6
CONTINUOUS
 62
           7
100
AcDbLine
 10
810.224275592045
 20
-1399.577771852278
 11
810.224275592045
 21
-1395.077771852278
  0
LINE
  5
A6
100
AcDbEntity
  8
1
  6
CONTINUOUS
 62
           7
100
AcDbLine
 10
818.724275592045
 20
-1395.077771852278
 11
818.224275592045
 21
-1394.577771852278
  0
LINE
  5
A5
100
AcDbEntity
  8
1
  6
CONTINUOUS
 62
           7
100
AcDbLine
 10
810.724275592045
 20
-1394.577771852278
 11
810.224275592045
 21
-1395.077771852278
  0
LINE
  5
A4
100
AcDbEntity
  8
1
  6
CONTINUOUS
 62
           7
100
AcDbLine
 10
817.474275592045
 20
-1395.077771852278
 11
818.724275592045
 21
-1395.077771852278
  0
LINE
  5
A3
100
AcDbEntity
  8
1
  6
CONTINUOUS
 62
           7
100
AcDbLine
 10
882.724275592045
 20
-1395.077771852278
 11
882.724275592045
 21
-1399.577771852278
  0
LINE
  5
A2
100
AcDbEntity
  8
1
  6
CONTINUOUS
 62
           7
100
AcDbLine
 10
875.474275592045
 20
-1394.577771852278
 11
882.224275592045
 21
-1394.577771852278
  0
LINE
  5
A1
100
AcDbEntity
  8
1
  6
CONTINUOUS
 62
           7
100
AcDbLine
 10
874.224275592045
 20
-1399.577771852278
 11
874.224275592045
 21
-1395.077771852278
  0
LINE
  5
A0
100
AcDbEntity
  8
1
  6
CONTINUOUS
 62
           7
100
AcDbLine
 10
882.724275592045
 20
-1395.077771852278
 11
882.224275592045
 21
-1394.577771852278
  0
LINE
  5
9F
100
AcDbEntity
  8
1
  6
CONTINUOUS
 62
           7
100
AcDbLine
 10
874.724275592045
 20
-1394.577771852278
 11
874.224275592045
 21
-1395.077771852278
  0
LINE
  5
9E
100
AcDbEntity
  8
1
  6
CONTINUOUS
 62
           7
100
AcDbLine
 10
875.474275592045
 20
-1395.077771852278
 11
882.724275592045
 21
-1395.077771852278
  0
LINE
  5
9D
100
AcDbEntity
  8
1
  6
CONTINUOUS
 62
           7
100
AcDbLine
 10
874.224275592045
 20
-1395.170024041239
 11
875.474275592045
 21
-1395.170024041239
  0
LINE
  5
9C
100
AcDbEntity
  8
1
  6
CONTINUOUS
 62
           7
100
AcDbLine
 10
874.724275592045
 20
-1394.670024041239
 11
875.474275592045
 21
-1394.670024041239
  0
LINE
  5
9B
100
AcDbEntity
  8
1
  6
CONTINUOUS
 62
           7
100
AcDbLine
 10
810.224275592045
 20
-1395.170024041239
 11
817.474275592045
 21
-1395.170024041239
  0
LINE
  5
9A
100
AcDbEntity
  8
1
  6
CONTINUOUS
 62
           7
100
AcDbLine
 10
810.724275592045
 20
-1394.670024041239
 11
817.474275592045
 21
-1394.670024041239
  0
LINE
  5
99
100
AcDbEntity
  8
1
  6
CONTINUOUS
 62
           7
100
AcDbLine
 10
818.724275592045
 20
-1395.170024041239
 11
818.724275592045
 21
-1399.670024041239
  0
LINE
  5
98
100
AcDbEntity
  8
1
  6
CONTINUOUS
 62
           7
100
AcDbLine
 10
817.474275592045
 20
-1394.670024041239
 11
818.224275592045
 21
-1394.670024041239
  0
LINE
  5
97
100
AcDbEntity
  8
1
  6
CONTINUOUS
 62
           7
100
AcDbLine
 10
810.224275592045
 20
-1399.670024041239
 11
810.224275592045
 21
-1395.170024041239
  0
LINE
  5
96
100
AcDbEntity
  8
1
  6
CONTINUOUS
 62
           7
100
AcDbLine
 10
818.724275592045
 20
-1395.170024041239
 11
818.224275592045
 21
-1394.670024041239
  0
LINE
  5
95
100
AcDbEntity
  8
1
  6
CONTINUOUS
 62
           7
100
AcDbLine
 10
810.724275592045
 20
-1394.670024041239
 11
810.224275592045
 21
-1395.170024041239
  0
LINE
  5
94
100
AcDbEntity
  8
1
  6
CONTINUOUS
 62
           7
100
AcDbLine
 10
817.474275592045
 20
-1395.170024041239
 11
818.724275592045
 21
-1395.170024041239
  0
LINE
  5
93
100
AcDbEntity
  8
1
  6
CONTINUOUS
 62
           7
100
AcDbLine
 10
882.724275592045
 20
-1395.170024041239
 11
882.724275592045
 21
-1399.670024041239
  0
LINE
  5
92
100
AcDbEntity
  8
1
  6
CONTINUOUS
 62
           7
100
AcDbLine
 10
875.474275592045
 20
-1394.670024041239
 11
882.224275592045
 21
-1394.670024041239
  0
LINE
  5
91
100
AcDbEntity
  8
1
  6
CONTINUOUS
 62
           7
100
AcDbLine
 10
874.224275592045
 20
-1399.670024041239
 11
874.224275592045
 21
-1395.170024041239
  0
LINE
  5
90
100
AcDbEntity
  8
1
  6
CONTINUOUS
 62
           7
100
AcDbLine
 10
882.724275592045
 20
-1395.170024041239
 11
882.224275592045
 21
-1394.670024041239
  0
LINE
  5
8F
100
AcDbEntity
  8
1
  6
CONTINUOUS
 62
           7
100
AcDbLine
 10
874.724275592045
 20
-1394.670024041239
 11
874.224275592045
 21
-1395.170024041239
  0
LINE
  5
8E
100
AcDbEntity
  8
1
  6
CONTINUOUS
 62
           7
100
AcDbLine
 10
875.474275592045
 20
-1395.170024041239
 11
882.724275592045
 21
-1395.170024041239
  0
LINE
  5
8D
100
AcDbEntity
  8
1
  6
CONTINUOUS
 62
           7
100
AcDbLine
 10
842.724275592045
 20
-1394.670024041239
 11
842.224275592045
 21
-1395.170024041239
  0
LINE
  5
8C
100
AcDbEntity
  8
1
  6
CONTINUOUS
 62
           7
100
AcDbLine
 10
850.724275592045
 20
-1395.170024041239
 11
850.224275592045
 21
-1394.670024041239
  0
LINE
  5
8B
100
AcDbEntity
  8
1
  6
CONTINUOUS
 62
           7
100
AcDbLine
 10
842.224275592045
 20
-1399.670024041239
 11
842.224275592045
 21
-1395.170024041239
  0
LINE
  5
8A
100
AcDbEntity
  8
1
  6
CONTINUOUS
 62
           7
100
AcDbLine
 10
842.724275592045
 20
-1394.670024041239
 11
850.224275592045
 21
-1394.670024041239
  0
LINE
  5
89
100
AcDbEntity
  8
1
  6
CONTINUOUS
 62
           7
100
AcDbLine
 10
850.724275592045
 20
-1395.170024041239
 11
850.724275592045
 21
-1399.670024041239
  0
LINE
  5
88
100
AcDbEntity
  8
1
  6
CONTINUOUS
 62
           7
100
AcDbLine
 10
842.224275592045
 20
-1395.170024041239
 11
850.724275592045
 21
-1395.170024041239
  0
LINE
  5
87
100
AcDbEntity
  8
1
  6
DOT_CENTER
 62
           2
100
AcDbLine
 10
846.474275592045
 20
-1359.013782831045
 11
846.474275592045
 21
-1473.686746676075
  0
LINE
  5
86
100
AcDbEntity
  8
1
  6
CONTINUOUS
 62
           7
100
AcDbLine
 10
867.474275592045
 20
-1398.577771852278
 11
850.724275592045
 21
-1398.577771852278
  0
LINE
  5
85
100
AcDbEntity
  8
1
  6
CONTINUOUS
 62
           7
100
AcDbLine
 10
867.474275592045
 20
-1382.577771852278
 11
867.474275592045
 21
-1392.177771852278
  0
LINE
  5
84
100
AcDbEntity
  8
1
  6
CONTINUOUS
 62
           7
100
AcDbLine
 10
825.474275592045
 20
-1382.577771852278
 11
867.474275592045
 21
-1382.577771852278
  0
LINE
  5
83
100
AcDbEntity
  8
1
  6
CONTINUOUS
 62
           7
100
AcDbLine
 10
825.474275592045
 20
-1398.577771852278
 11
825.474275592045
 21
-1392.177771852278
  0
LINE
  5
82
100
AcDbEntity
  8
1
  6
CONTINUOUS
 62
           7
100
AcDbLine
 10
867.474275592045
 20
-1392.177771852278
 11
867.474275592045
 21
-1398.577771852278
  0
LINE
  5
81
100
AcDbEntity
  8
1
  6
CONTINUOUS
 62
           7
100
AcDbLine
 10
825.474275592045
 20
-1392.177771852278
 11
825.474275592045
 21
-1382.577771852278
  0
LINE
  5
80
100
AcDbEntity
  8
1
  6
CONTINUOUS
 62
           7
100
AcDbLine
 10
842.224275592045
 20
-1398.577771852278
 11
825.474275592045
 21
-1398.577771852278
  0
LINE
  5
7F
100
AcDbEntity
  8
1
  6
CONTINUOUS
 62
           7
100
AcDbLine
 10
856.587524246097
 20
-1454.577771852278
 11
853.949275592045
 21
-1454.577771852278
  0
LINE
  5
7E
100
AcDbEntity
  8
1
  6
CONTINUOUS
 62
           7
100
AcDbLine
 10
836.361026937993
 20
-1447.577771852278
 11
855.662275592045
 21
-1447.577771852278
  0
LINE
  5
7D
100
AcDbEntity
  8
1
  6
CONTINUOUS
 62
           7
100
AcDbLine
 10
853.949275592045
 20
-1454.577771852278
 11
836.361026937993
 21
-1454.577771852278
  0
LINE
  5
7C
100
AcDbEntity
  8
1
  6
CONTINUOUS
 62
           7
100
AcDbLine
 10
855.662275592045
 20
-1447.577771852278
 11
856.587524246097
 21
-1447.577771852278
  0
LINE
  5
7B
100
AcDbEntity
  8
1
  6
CONTINUOUS
 62
           7
100
AcDbLine
 10
837.286275592045
 20
-1447.577771852278
 11
837.286275592045
 21
-1445.577771852278
  0
LINE
  5
7A
100
AcDbEntity
  8
1
  6
CONTINUOUS
 62
           7
100
AcDbLine
 10
856.587524246097
 20
-1447.577771852278
 11
858.598631245027
 21
-1448.577771852278
  0
LINE
  5
79
100
AcDbEntity
  8
1
  6
CONTINUOUS
 62
           7
100
AcDbLine
 10
856.587524246097
 20
-1454.577771852278
 11
858.598631245027
 21
-1453.577771852278
  0
LINE
  5
78
100
AcDbEntity
  8
1
  6
CONTINUOUS
 62
           7
100
AcDbLine
 10
858.598631245027
 20
-1448.577771852278
 11
858.598631245027
 21
-1453.577771852278
  0
LINE
  5
77
100
AcDbEntity
  8
1
  6
CONTINUOUS
 62
           7
100
AcDbLine
 10
836.361026937993
 20
-1447.577771852278
 11
834.349919939063
 21
-1448.577771852278
  0
LINE
  5
76
100
AcDbEntity
  8
1
  6
CONTINUOUS
 62
           7
100
AcDbLine
 10
836.361026937993
 20
-1454.577771852278
 11
834.349919939063
 21
-1453.577771852278
  0
LINE
  5
75
100
AcDbEntity
  8
1
  6
CONTINUOUS
 62
           7
100
AcDbLine
 10
834.349919939063
 20
-1453.577771852278
 11
834.349919939063
 21
-1448.577771852278
  0
LINE
  5
74
100
AcDbEntity
  8
1
  6
CONTINUOUS
 62
           7
100
AcDbLine
 10
855.662275592045
 20
-1445.577771852278
 11
855.662275592045
 21
-1447.577771852278
  0
LINE
  5
73
100
AcDbEntity
  8
1
  6
CONTINUOUS
 62
           7
100
AcDbLine
 10
836.361026937993
 20
-1454.577771852278
 11
840.412097765554
 21
-1453.577771852278
  0
LINE
  5
72
100
AcDbEntity
  8
1
  6
CONTINUOUS
 62
           7
100
AcDbLine
 10
852.536453418536
 20
-1453.577771852278
 11
856.587524246097
 21
-1454.577771852278
  0
LINE
  5
71
100
AcDbEntity
  8
1
  6
CONTINUOUS
 62
           7
100
AcDbLine
 10
856.587524246097
 20
-1447.577771852278
 11
852.536453418536
 21
-1448.577771852278
  0
LINE
  5
70
100
AcDbEntity
  8
1
  6
CONTINUOUS
 62
           7
100
AcDbLine
 10
836.361026937993
 20
-1447.577771852278
 11
840.412097765554
 21
-1448.577771852278
  0
LINE
  5
6F
100
AcDbEntity
  8
1
  6
CONTINUOUS
 62
           7
100
AcDbLine
 10
852.536453418536
 20
-1448.577771852278
 11
852.536453418536
 21
-1453.577771852278
  0
LINE
  5
6E
100
AcDbEntity
  8
1
  6
CONTINUOUS
 62
           7
100
AcDbLine
 10
840.412097765554
 20
-1448.577771852278
 11
840.412097765554
 21
-1453.577771852278
  0
LINE
  5
6D
100
AcDbEntity
  8
1
  6
CONTINUOUS
 62
           7
100
AcDbLine
 10
804.474275592045
 20
-1408.077771852278
 11
804.474275592045
 21
-1409.077771852278
  0
LINE
  5
6C
100
AcDbEntity
  8
1
  6
CONTINUOUS
 62
           7
100
AcDbLine
 10
804.474275592045
 20
-1409.077771852278
 11
888.474275592045
 21
-1409.077771852278
  0
LINE
  5
6B
100
AcDbEntity
  8
1
  6
CONTINUOUS
 62
           7
100
AcDbLine
 10
888.474275592045
 20
-1408.077771852278
 11
888.474275592045
 21
-1409.077771852278
  0
LINE
  5
6A
100
AcDbEntity
  8
1
  6
CONTINUOUS
 62
           7
100
AcDbLine
 10
840.574275592045
 20
-1408.077771852278
 11
866.474275592045
 21
-1408.077771852278
  0
LINE
  5
69
100
AcDbEntity
  8
1
  6
CONTINUOUS
 62
           7
100
AcDbLine
 10
840.574275592045
 20
-1408.077771852278
 11
826.474275592045
 21
-1408.077771852278
  0
LINE
  5
68
100
AcDbEntity
  8
1
  6
CONTINUOUS
 62
           7
100
AcDbLine
 10
826.474275592045
 20
-1408.077771852278
 11
804.474275592045
 21
-1408.077771852278
  0
LINE
  5
67
100
AcDbEntity
  8
1
  6
CONTINUOUS
 62
           7
100
AcDbLine
 10
866.474275592045
 20
-1408.077771852278
 11
888.474275592045
 21
-1408.077771852278
  0
LINE
  5
66
100
AcDbEntity
  8
1
  6
CONTINUOUS
 62
           7
100
AcDbLine
 10
874.224275592045
 20
-1399.577771852278
 11
874.224275592045
 21
-1395.077771852278
  0
LINE
  5
65
100
AcDbEntity
  8
1
  6
CONTINUOUS
 62
           7
100
AcDbLine
 10
874.724275592045
 20
-1394.577771852278
 11
882.224275592045
 21
-1394.577771852278
  0
LINE
  5
64
100
AcDbEntity
  8
1
  6
CONTINUOUS
 62
           7
100
AcDbLine
 10
882.724275592045
 20
-1395.077771852278
 11
882.724275592045
 21
-1399.577771852278
  0
LINE
  5
63
100
AcDbEntity
  8
1
  6
CONTINUOUS
 62
           7
100
AcDbLine
 10
874.724275592045
 20
-1394.577771852278
 11
874.224275592045
 21
-1395.077771852278
  0
LINE
  5
62
100
AcDbEntity
  8
1
  6
CONTINUOUS
 62
           7
100
AcDbLine
 10
882.724275592045
 20
-1395.077771852278
 11
882.224275592045
 21
-1394.577771852278
  0
LINE
  5
61
100
AcDbEntity
  8
1
  6
CONTINUOUS
 62
           7
100
AcDbLine
 10
874.224275592045
 20
-1395.077771852278
 11
882.724275592045
 21
-1395.077771852278
  0
LINE
  5
60
100
AcDbEntity
  8
1
  6
CONTINUOUS
 62
           7
100
AcDbLine
 10
810.224275592045
 20
-1399.577771852278
 11
810.224275592045
 21
-1395.077771852278
  0
LINE
  5
5F
100
AcDbEntity
  8
1
  6
CONTINUOUS
 62
           7
100
AcDbLine
 10
810.724275592045
 20
-1394.577771852278
 11
818.224275592045
 21
-1394.577771852278
  0
LINE
  5
5E
100
AcDbEntity
  8
1
  6
CONTINUOUS
 62
           7
100
AcDbLine
 10
818.724275592045
 20
-1395.077771852278
 11
818.724275592045
 21
-1399.577771852278
  0
LINE
  5
5D
100
AcDbEntity
  8
1
  6
CONTINUOUS
 62
           7
100
AcDbLine
 10
810.724275592045
 20
-1394.577771852278
 11
810.224275592045
 21
-1395.077771852278
  0
LINE
  5
5C
100
AcDbEntity
  8
1
  6
CONTINUOUS
 62
           7
100
AcDbLine
 10
818.724275592045
 20
-1395.077771852278
 11
818.224275592045
 21
-1394.577771852278
  0
LINE
  5
5B
100
AcDbEntity
  8
1
  6
CONTINUOUS
 62
           7
100
AcDbLine
 10
810.224275592045
 20
-1395.077771852278
 11
818.724275592045
 21
-1395.077771852278
  0
LINE
  5
5A
100
AcDbEntity
  8
1
  6
CONTINUOUS
 62
           7
100
AcDbLine
 10
804.474275592045
 20
-1407.077771852278
 11
804.474275592045
 21
-1407.577771852278
  0
LINE
  5
59
100
AcDbEntity
  8
1
  6
CONTINUOUS
 62
           7
100
AcDbLine
 10
888.474275592045
 20
-1407.577771852278
 11
888.474275592045
 21
-1400.577771852278
  0
LINE
  5
58
100
AcDbEntity
  8
1
  6
CONTINUOUS
 62
           7
100
AcDbLine
 10
812.474275592045
 20
-1408.077771852278
 11
812.474275592045
 21
-1407.577771852278
  0
LINE
  5
57
100
AcDbEntity
  8
1
  6
CONTINUOUS
 62
           7
100
AcDbLine
 10
888.474275592045
 20
-1407.577771852278
 11
804.474275592045
 21
-1407.577771852278
  0
LINE
  5
56
100
AcDbEntity
  8
1
  6
CONTINUOUS
 62
           7
100
AcDbLine
 10
880.474275592045
 20
-1407.577771852278
 11
880.474275592045
 21
-1408.077771852278
  0
LINE
  5
55
100
AcDbEntity
  8
1
  6
CONTINUOUS
 62
           7
100
AcDbLine
 10
874.224275592045
 20
-1399.577771852278
 11
805.474275592045
 21
-1399.577771852278
  0
LINE
  5
54
100
AcDbEntity
  8
1
  6
CONTINUOUS
 62
           7
100
AcDbLine
 10
880.774275592045
 20
-1399.577771852278
 11
873.875941796006
 21
-1399.577771852278
  0
LINE
  5
53
100
AcDbEntity
  8
1
  6
CONTINUOUS
 62
           7
100
AcDbLine
 10
886.174275592045
 20
-1399.577771852278
 11
880.774275592045
 21
-1399.577771852278
  0
LINE
  5
52
100
AcDbEntity
  8
1
  6
CONTINUOUS
 62
           7
100
AcDbLine
 10
887.474275592045
 20
-1399.577771852278
 11
886.174275592045
 21
-1399.577771852278
  0
LINE
  5
51
100
AcDbEntity
  8
1
  6
CONTINUOUS
 62
           7
100
AcDbLine
 10
804.474275592045
 20
-1400.577771852278
 11
804.474275592045
 21
-1407.077771852278
  0
LINE
  5
50
100
AcDbEntity
  8
1
  6
CONTINUOUS
 62
           7
100
AcDbLine
 10
805.682119483304
 20
-1409.577771852277
 11
805.682119483304
 21
-1418.077771852274
  0
LINE
  5
4F
100
AcDbEntity
  8
976
  6
CONTINUOUS
 62
           7
100
AcDbLine
 10
836.118118003441
 20
-1425.077771852277
 11
846.474275592045
 21
-1425.077771852277
  0
LINE
  5
4E
100
AcDbEntity
  8
1
  6
CONTINUOUS
 62
           7
100
AcDbLine
 10
804.474275592045
 20
-1409.577771852277
 11
805.682119483304
 21
-1409.577771852277
  0
LINE
  5
4D
100
AcDbEntity
  8
1
  6
CONTINUOUS
 62
           7
100
AcDbLine
 10
846.474275592045
 20
-1418.077771852274
 11
805.682119483304
 21
-1418.077771852274
  0
LINE
  5
4C
100
AcDbEntity
  8
1
  6
CONTINUOUS
 62
           7
100
AcDbLine
 10
804.974275592045
 20
-1431.577771852278
 11
832.474275592045
 21
-1431.577771852278
  0
LINE
  5
4B
100
AcDbEntity
  8
1
  6
CONTINUOUS
 62
           7
100
AcDbLine
 10
832.474275592045
 20
-1440.577771852277
 11
832.474275592045
 21
-1431.577771852278
  0
LINE
  5
4A
100
AcDbEntity
  8
1
  6
CONTINUOUS
 62
           7
100
AcDbLine
 10
804.474275592045
 20
-1431.077771852278
 11
804.474275592045
 21
-1409.077771852278
  0
LINE
  5
49
100
AcDbEntity
  8
1
  6
CONTINUOUS
 62
           7
100
AcDbLine
 10
888.474275592044
 20
-1409.077771852277
 11
888.474275592044
 21
-1426.077771852277
  0
LINE
  5
48
100
AcDbEntity
  8
1
  6
CONTINUOUS
 62
           7
100
AcDbLine
 10
888.474275592044
 20
-1426.077771852277
 11
888.474275592044
 21
-1431.077771852277
  0
LINE
  5
47
100
AcDbEntity
  8
1
  6
CONTINUOUS
 62
           7
100
AcDbLine
 10
860.474275592045
 20
-1431.577771852278
 11
860.474275592045
 21
-1440.577771852277
  0
LINE
  5
46
100
AcDbEntity
  8
1
  6
CONTINUOUS
 62
           7
100
AcDbLine
 10
860.474275592045
 20
-1431.577771852278
 11
887.974275592044
 21
-1431.577771852278
  0
LINE
  5
45
100
AcDbEntity
  8
1
  6
CONTINUOUS
 62
           7
100
AcDbLine
 10
887.266431700786
 20
-1418.077771852274
 11
846.474275592045
 21
-1418.077771852274
  0
LINE
  5
44
100
AcDbEntity
  8
1
  6
CONTINUOUS
 62
           7
100
AcDbLine
 10
887.266431700786
 20
-1409.577771852277
 11
888.474275592044
 21
-1409.577771852277
  0
LINE
  5
43
100
AcDbEntity
  8
1
  6
CONTINUOUS
 62
           7
100
AcDbLine
 10
887.266431700786
 20
-1418.077771852274
 11
887.266431700786
 21
-1409.577771852277
  0
LINE
  5
42
100
AcDbEntity
  8
976
  6
CONTINUOUS
 62
           7
100
AcDbLine
 10
846.474275592045
 20
-1425.077771852277
 11
856.830433180649
 21
-1425.077771852277
  0
LINE
  5
41
100
AcDbEntity
  8
1
  6
CONTINUOUS
 62
           7
100
AcDbLine
 10
832.474275592045
 20
-1440.577771852277
 11
860.474275592045
 21
-1440.577771852277
  0
LINE
  5
40
100
AcDbEntity
  8
1
  6
CONTINUOUS
 62
           7
100
AcDbLine
 10
804.474275592045
 20
-1409.077771852278
 11
888.474275592044
 21
-1409.077771852277
  0
LINE
  5
3F
100
AcDbEntity
  8
1
  6
CONTINUOUS
 62
           7
100
AcDbLine
 10
839.546072361769
 20
-1444.577771852276
 11
839.546072361769
 21
-1441.577771852276
  0
LINE
  5
3E
100
AcDbEntity
  8
1
  6
CONTINUOUS
 62
           7
100
AcDbLine
 10
853.40247882232
 20
-1444.577771852276
 11
853.40247882232
 21
-1441.577771852276
  0
LINE
  5
3D
100
AcDbEntity
  8
1
  6
CONTINUOUS
 62
           7
100
AcDbLine
 10
836.081970746631
 20
-1445.577771852276
 11
837.286275592045
 21
-1445.577771852278
  0
LINE
  5
3C
100
AcDbEntity
  8
1
  6
CONTINUOUS
 62
           7
100
AcDbLine
 10
832.617869131494
 20
-1441.577771852276
 11
832.617869131494
 21
-1444.577771852276
  0
LINE
  5
3B
100
AcDbEntity
  8
1
  6
CONTINUOUS
 62
           7
100
AcDbLine
 10
860.330682052596
 20
-1444.577771852276
 11
860.330682052596
 21
-1441.577771852276
  0
LINE
  5
3A
100
AcDbEntity
  8
1
  6
CONTINUOUS
 62
           7
100
AcDbLine
 10
838.786275592043
 20
-1440.577771852277
 11
837.581970746629
 21
-1440.577771852276
  0
LINE
  5
39
100
AcDbEntity
  8
1
  6
CONTINUOUS
 62
           7
100
AcDbLine
 10
838.786275592043
 20
-1440.577771852277
 11
858.366580437456
 21
-1440.577771852277
  0
LINE
  5
38
100
AcDbEntity
  8
1
  6
CONTINUOUS
 62
           7
100
AcDbLine
 10
837.286275592045
 20
-1445.577771852278
 11
856.866580437446
 21
-1445.577771852315
  0
LINE
  5
37
100
AcDbEntity
  8
1
  6
CONTINUOUS
 62
           7
100
AcDbLine
 10
852.224275592045
 20
-1466.577771852278
 11
840.724275592045
 21
-1466.577771852278
  0
LINE
  5
36
100
AcDbEntity
  8
1
  6
CONTINUOUS
 62
           7
100
AcDbLine
 10
840.724275592045
 20
-1466.577771852278
 11
838.943275592045
 21
-1466.577771852278
  0
LINE
  5
35
100
AcDbEntity
  8
1
  6
CONTINUOUS
 62
           7
100
AcDbLine
 10
854.005275592045
 20
-1466.577771852278
 11
854.805275592045
 21
-1465.777771852278
  0
LINE
  5
34
100
AcDbEntity
  8
1
  6
CONTINUOUS
 62
           7
100
AcDbLine
 10
838.943275592045
 20
-1466.577771852278
 11
838.143275592045
 21
-1465.777771852278
  0
LINE
  5
33
100
AcDbEntity
  8
1
  6
CONTINUOUS
 62
           2
100
AcDbLine
 10
853.949275592045
 20
-1457.577771852278
 11
853.949275592045
 21
-1466.577771852278
  0
LINE
  5
32
100
AcDbEntity
  8
1
  6
CONTINUOUS
 62
           7
100
AcDbLine
 10
854.005275592045
 20
-1466.577771852278
 11
852.224275592045
 21
-1466.577771852278
  0
LINE
  5
31
100
AcDbEntity
  8
1
  6
CONTINUOUS
 62
           7
100
AcDbLine
 10
854.805275592045
 20
-1457.577771852278
 11
854.805275592045
 21
-1465.777771852278
  0
LINE
  5
30
100
AcDbEntity
  8
1
  6
CONTINUOUS
 62
           7
100
AcDbLine
 10
853.949275592045
 20
-1457.577771852278
 11
854.805275592045
 21
-1457.577771852278
  0
LINE
  5
2F
100
AcDbEntity
  8
1
  6
CONTINUOUS
 62
           7
100
AcDbLine
 10
853.949275592045
 20
-1454.577771852278
 11
853.949275592045
 21
-1457.577771852278
  0
LINE
  5
2E
100
AcDbEntity
  8
1
  6
CONTINUOUS
 62
           7
100
AcDbLine
 10
838.999275592045
 20
-1457.577771852278
 11
838.999275592045
 21
-1454.577771852278
  0
LINE
  5
2D
100
AcDbEntity
  8
1
  6
CONTINUOUS
 62
           7
100
AcDbLine
 10
838.143275592045
 20
-1457.577771852278
 11
838.999275592045
 21
-1457.577771852278
  0
LINE
  5
2C
100
AcDbEntity
  8
1
  6
CONTINUOUS
 62
           7
100
AcDbLine
 10
838.143275592045
 20
-1465.777771852278
 11
838.143275592045
 21
-1457.577771852278
  0
LINE
  5
2B
100
AcDbEntity
  8
1
  6
CONTINUOUS
 62
           2
100
AcDbLine
 10
838.999275592045
 20
-1466.577771852278
 11
838.999275592045
 21
-1457.577771852278
  0
LINE
  5
2A
100
AcDbEntity
  8
1
  6
CONTINUOUS
 62
           7
100
AcDbLine
 10
838.999275592045
 20
-1457.577771852278
 11
853.949275592045
 21
-1457.577771852278
  0
LINE
  5
29
100
AcDbEntity
  8
1
  6
DOT_CENTER
 62
           2
100
AcDbLine
 10
790.877052626118
 20
-1420.077771852278
 11
893.556044260012
 21
-1420.077771852278
  0
ENDSEC
  0
SECTION
  2
OBJECTS
  0
DICTIONARY
  5
19
100
AcDbDictionary
  3
ACAD_GROUP
350
1A
  3
ACAD_MLINESTYLE
350
1B
  0
DICTIONARY
  5
1A
102
{ACAD_REACTORS
330
19
102
}
100
AcDbDictionary
  0
DICTIONARY
  5
1B
102
{ACAD_REACTORS
330
19
102
}
100
AcDbDictionary
  3
STANDARD
350
1C
  0
MLINESTYLE
  5
1C
102
{ACAD_REACTORS
330
1B
102
}
100
AcDbMlineStyle
  2
STANDARD
 70
           0
  3

 62
           0
 51
90.0
 52
90.0
 71
           2
 49
0.5
 62
         256
  6
BYLAYER
 49
-0.5
 62
         256
  6
BYLAYER
  0
ENDSEC
  0
EOF
