  0
SECTION
  2
HEADER
  9
$ACADVER
  1
AC1014
  9
$ACADMAINTVER
 70
           0
  9
$DWGCODEPAGE
  3
DOS932
  9
$INSBASE
 10
0.0
 20
0.0
 30
0.0
  9
$EXTMIN
 10
1.000000000000E+20
 20
1.000000000000E+20
 30
1.000000000000E+20
  9
$EXTMAX
 10
-1.000000000000E+20
 20
-1.000000000000E+20
 30
-1.000000000000E+20
  9
$LIMMIN
 10
0.0
 20
0.0
  9
$LIMMAX
 10
0.0
 20
0.0
  9
$ORTHOMODE
 70
           0
  9
$REGENMODE
 70
           1
  9
$FILLMODE
 70
           1
  9
$QTEXTMODE
 70
           0
  9
$MIRRTEXT
 70
           1
  9
$DRAGMODE
 70
           2
  9
$LTSCALE
 40
1.0
  9
$OSMODE
 70
           0
  9
$ATTMODE
 70
           1
  9
$TEXTSIZE
 40
0.2
  9
$TRACEWID
 40
0.05
  9
$TEXTSTYLE
  7
STANDARD
  9
$CLAYER
  8
0
  9
$CELTYPE
  6
CONTINUOUS
  9
$CECOLOR
 62
         256
  9
$CELTSCALE
 40
1.0
  9
$DELOBJ
 70
           1
  9
$DISPSILH
 70
           0
  9
$DIMSCALE
 40
1.0
  9
$DIMASZ
 40
0.18
  9
$DIMEXO
 40
0.0625
  9
$DIMDLI
 40
0.38
  9
$DIMRND
 40
0.0
  9
$DIMDLE
 40
0.0
  9
$DIMEXE
 40
0.18
  9
$DIMTP
 40
0.0
  9
$DIMTM
 40
0.0
  9
$DIMTXT
 40
0.18
  9
$DIMCEN
 40
0.09
  9
$DIMTSZ
 40
0.0
  9
$DIMTOL
 70
           0
  9
$DIMLIM
 70
           0
  9
$DIMTIH
 70
           1
  9
$DIMTOH
 70
           1
  9
$DIMSE1
 70
           0
  9
$DIMSE2
 70
           0
  9
$DIMTAD
 70
           0
  9
$DIMZIN
 70
           0
  9
$DIMBLK
  1

  9
$DIMASO
 70
           1
  9
$DIMSHO
 70
           1
  9
$DIMPOST
  1

  9
$DIMAPOST
  1

  9
$DIMALT
 70
           0
  9
$DIMALTD
 70
           2
  9
$DIMALTF
 40
25.4
  9
$DIMLFAC
 40
1.0
  9
$DIMTOFL
 70
           0
  9
$DIMTVP
 40
0.0
  9
$DIMTIX
 70
           0
  9
$DIMSOXD
 70
           0
  9
$DIMSAH
 70
           0
  9
$DIMBLK1
  1

  9
$DIMBLK2
  1

  9
$DIMSTYLE
  2
STANDARD
  9
$DIMCLRD
 70
           0
  9
$DIMCLRE
 70
           0
  9
$DIMCLRT
 70
           0
  9
$DIMTFAC
 40
1.0
  9
$DIMGAP
 40
0.09
  9
$DIMJUST
 70
           0
  9
$DIMSD1
 70
           0
  9
$DIMSD2
 70
           0
  9
$DIMTOLJ
 70
           1
  9
$DIMTZIN
 70
           0
  9
$DIMALTZ
 70
           0
  9
$DIMALTTZ
 70
           0
  9
$DIMFIT
 70
           3
  9
$DIMUPT
 70
           0
  9
$DIMUNIT
 70
           2
  9
$DIMDEC
 70
           4
  9
$DIMTDEC
 70
           4
  9
$DIMALTU
 70
           2
  9
$DIMALTTD
 70
           2
  9
$DIMTXSTY
  7
STANDARD
  9
$DIMAUNIT
 70
           0
  9
$LUNITS
 70
           2
  9
$LUPREC
 70
           4
  9
$SKETCHINC
 40
0.1
  9
$FILLETRAD
 40
0.0
  9
$AUNITS
 70
           0
  9
$AUPREC
 70
           0
  9
$MENU
  1
acad
  9
$ELEVATION
 40
0.0
  9
$PELEVATION
 40
0.0
  9
$THICKNESS
 40
0.0
  9
$LIMCHECK
 70
           0
  9
$BLIPMODE
 70
           1
  9
$CHAMFERA
 40
0.0
  9
$CHAMFERB
 40
0.0
  9
$CHAMFERC
 40
0.0
  9
$CHAMFERD
 40
0.0
  9
$SKPOLY
 70
           0
  9
$TDCREATE
 40
0.000000000
  9
$TDUPDATE
 40
0.000000000
  9
$TDINDWG
 40
0.0000000000
  9
$TDUSRTIMER
 40
0.0000000000
  9
$USRTIMER
 70
           1
  9
$ANGBASE
 50
0.0
  9
$ANGDIR
 70
           0
  9
$PDMODE
 70
           0
  9
$PDSIZE
 40
0.0
  9
$PLINEWID
 40
0.0
  9
$COORDS
 70
           0
  9
$SPLFRAME
 70
           0
  9
$SPLINETYPE
 70
           6
  9
$SPLINESEGS
 70
           8
  9
$ATTDIA
 70
           0
  9
$ATTREQ
 70
           1
  9
$HANDLING
 70
           1
  9
$HANDSEED
  5
3C7
  9
$SURFTAB1
 70
           6
  9
$SURFTAB2
 70
           6
  9
$SURFTYPE
 70
           6
  9
$SURFU
 70
           6
  9
$SURFV
 70
           6
  9
$UCSNAME
  2

  9
$UCSORG
 10
0.0
 20
0.0
 30
0.0
  9
$UCSXDIR
 10
1.0
 20
0.0
 30
0.0
  9
$UCSYDIR
 10
0.0
 20
1.0
 30
0.0
  9
$PUCSNAME
  2

  9
$PUCSORG
 10
0.0
 20
0.0
 30
0.0
  9
$PUCSXDIR
 10
1.0
 20
0.0
 30
0.0
  9
$PUCSYDIR
 10
0.0
 20
1.0
 30
0.0
  9
$USERI1
 70
           0
  9
$USERI2
 70
           0
  9
$USERI3
 70
           0
  9
$USERI4
 70
           0
  9
$USERI5
 70
           0
  9
$USERR1
 40
0.0
  9
$USERR2
 40
0.0
  9
$USERR3
 40
0.0
  9
$USERR4
 40
0.0
  9
$USERR5
 40
0.0
  9
$WORLDVIEW
 70
           1
  9
$SHADEDGE
 70
           3
  9
$SHADEDIF
 70
          70
  9
$TILEMODE
 70
           1
  9
$MAXACTVP
 70
          16
  9
$PINSBASE
 10
0.0
 20
0.0
 30
0.0
  9
$PLIMCHECK
 70
           0
  9
$PEXTMIN
 10
1.000000000000E+20
 20
1.000000000000E+20
 30
1.000000000000E+20
  9
$PEXTMAX
 10
-1.000000000000E+20
 20
-1.000000000000E+20
 30
-1.000000000000E+20
  9
$PLIMMIN
 10
0.0
 20
0.0
  9
$PLIMMAX
 10
12.0
 20
9.0
  9
$UNITMODE
 70
           0
  9
$VISRETAIN
 70
           0
  9
$PLINEGEN
 70
           1
  9
$PSLTSCALE
 70
           0
  9
$TREEDEPTH
 70
        3020
  9
$PICKSTYLE
 70
           1
  9
$CMLSTYLE
  2
STANDARD
  9
$CMLJUST
 70
           0
  9
$CMLSCALE
 40
1.0
  9
$PROXYGRAPHICS
 70
           0
  9
$MEASUREMENT
 70
           0
  0
ENDSEC
  0
SECTION
  2
CLASSES
  0
CLASS
  1
LWPOLYLINE
  2
AcDbPolyline
  3
"AutoCAD"
 90
        0
280
           0
281
           1
  0
CLASS
  1
IMAGE
  2
AcDbRasterImage
  3
ISM
 90
      127
280
           0
281
           1
  0
CLASS
  1
OLE2FRAME
  2
AcDbOle2Frame
  3
""
 90
        0
280
           0
281
           1
  0
CLASS
  1
HATCH
  2
AcDbHatch
  3
"ACAD_SEDONA"
 90
        0
280
           0
281
           1
  0
CLASS
  1
DICTIONARYVAR
  2
AcDbDictionaryVar
  3
"AutoCAD"
 90
        0
280
           0
281
           0
  0
CLASS
  1
RASTERVARIABLES
  2
AcDbRasterVariables
  3
ISM
 90
        0
280
           0
281
           0
  0
CLASS
  1
IMAGEDEF
  2
AcDbRasterImageDef
  3
ISM
 90
        0
280
           0
281
           0
  0
CLASS
  1
IMAGEDEF_REACTOR
  2
AcDbRasterImageDefReactor
  3
ISM
 90
        1
280
           0
281
           0
  0
CLASS
  1
IDBUFFER
  2
AcDbIdBuffer
  3
"Acad"
 90
        0
280
           0
281
           0
  0
CLASS
  1
SPATIAL_FILTER
  2
AcDbSpatialFilter
  3
"Acad"
 90
        0
280
           0
281
           0
  0
CLASS
  1
XRECORD
  2
AcDbXrecord
  3
"<Built In>"
 90
        0
280
           0
281
           0
  0
CLASS
  1
SORTENTSTABLE
  2
AcDbSortentsTable
  3
"AutoCAD"
 90
        0
280
           0
281
           0
  0
CLASS
  1
LAYER_INDEX
  2
AcDbLayerIndex
  3
"Acad"
 90
        0
280
           0
281
           0
  0
CLASS
  1
SPATIAL_INDEX
  2
AcDbSpatialIndex
  3
"Acad"
 90
        0
280
           0
281
           0
  0
CLASS
  1
OBJECT_PTR
  2
CAseDLPNTableRecord
  3
"ASE-LPNTableRecord"
 90
        1
280
           0
281
           0
  0
CLASS
  1
LAYOUT
  2
AcDbLayout
  3
"AutoCAD 2000"
 90
        1
280
           0
281
           0
  0
CLASS
  1
PLOTSETTINGS
  2
AcDbPlotSettings
  3
"AutoCAD 2000"
 90
        1
280
           0
281
           0
  0
CLASS
  1
ACDBDICTIONARYWDFLT
  2
AcDbDictionaryWithDefault
  3
"AutoCAD 2000"
 90
        1
280
           0
281
           0
  0
CLASS
  1
ACDBPLACEHOLDER
  2
AcDbPlaceHolder
  3
"AutoCAD 2000"
 90
        1
280
           0
281
           0
  0
CLASS
  1
VBA_PROJECT
  2
AcDbVbaProject
  3
"acadvba"
 90
        1
280
           0
281
           0
  0
CLASS
  1
WIPEOUT
  2
AcDbWipeout
  3
WipeOut|AutoCAD Express Tool|expresstools@autodesk.com
 90
      127
280
           0
281
           1
  0
CLASS
  1
WIPEOUTVARIABLES
  2
AcDbWipeoutVariables
  3
WipeOut|AutoCAD Express Tool|expresstools@autodesk.com
 90
        0
280
           0
281
           0
  0
CLASS
  1
RTEXT
  2
RText
  3
RText|AutoCAD Express Tool|expresstools@autodesk.com
 90
        0
280
           0
281
           1
  0
CLASS
  1
ARCALIGNEDTEXT
  2
AcDbArcAlignedText
  3
ATEXT|AutoCAD Express Tool|expresstools@autodesk.com
 90
        0
280
           0
281
           1
  0
ENDSEC
  0
SECTION
  2
TABLES
  0
TABLE
  2
VPORT
  5
7
100
AcDbSymbolTable
 70
           1
  0
VPORT
  5
15
100
AcDbSymbolTableRecord
100
AcDbViewportTableRecord
  2
*ACTIVE
 70
           0
 10
0.0
 20
0.0
 11
1.0
 21
1.0
 12
6.591288
 22
4.579184
 13
0.0
 23
0.0
 14
1.0
 24
1.0
 15
0.0
 25
0.0
 16
0.0
 26
0.0
 36
1.0
 17
0.0
 27
0.0
 37
0.0
 40
9.158369
 41
0.688564
 42
50.0
 43
0.0
 44
0.0
 50
0.0
 51
0.0
 71
           0
 72
         100
 73
           1
 74
           1
 75
           0
 76
           0
 77
           0
 78
           0
  0
ENDTAB
  0
TABLE
  2
LTYPE
  5
4
100
AcDbSymbolTable
 70
          10
  0
LTYPE
  5
11
100
AcDbSymbolTableRecord
100
AcDbLinetypeTableRecord
  2
BYBLOCK
 70
          64
  3

 72
          65
 73
           0
 40
0.0
  0
LTYPE
  5
12
100
AcDbSymbolTableRecord
100
AcDbLinetypeTableRecord
  2
BYLAYER
 70
          64
  3

 72
          65
 73
           0
 40
0.0
  0
LTYPE
  5
13
100
AcDbSymbolTableRecord
100
AcDbLinetypeTableRecord
  2
CONTINUOUS
 70
          64
  3
Solid line
 72
          65
 73
           0
 40
0.0
  0
LTYPE
  5
1D
100
AcDbSymbolTableRecord
100
AcDbLinetypeTableRecord
  2
DASHED
 70
          64
  3
Dashed
 72
          65
 73
           2
 40
15.0
 49
12.0
 74
           0
 49
-3.0
 74
           0
  0
LTYPE
  5
1E
100
AcDbSymbolTableRecord
100
AcDbLinetypeTableRecord
  2
DOTTED
 70
          64
  3
Dotted
 72
          65
 73
           2
 40
3.5
 49
0.5
 74
           0
 49
-3.0
 74
           0
  0
LTYPE
  5
1F
100
AcDbSymbolTableRecord
100
AcDbLinetypeTableRecord
  2
DOT_CENTER
 70
          64
  3
Dot_Center
 72
          65
 73
           4
 40
2.0
 49
1.25
 74
           0
 49
-0.25
 74
           0
 49
0.25
 74
           0
 49
-0.25
 74
           0
  0
LTYPE
  5
20
100
AcDbSymbolTableRecord
100
AcDbLinetypeTableRecord
  2
LONG_DASHED
 70
          64
  3
Long_Dashed
 72
          65
 73
           2
 40
2.0
 49
1.5
 74
           0
 49
-0.5
 74
           0
  0
LTYPE
  5
21
100
AcDbSymbolTableRecord
100
AcDbLinetypeTableRecord
  2
DASH_CENTER
 70
          64
  3
Dash_Center
 72
          65
 73
           4
 40
36.0
 49
24.0
 74
           0
 49
-3.0
 74
           0
 49
6.0
 74
           0
 49
-3.0
 74
           0
  0
LTYPE
  5
22
100
AcDbSymbolTableRecord
100
AcDbLinetypeTableRecord
  2
PHANTOM
 70
          64
  3
Phantom
 72
          65
 73
           6
 40
2.5
 49
1.25
 74
           0
 49
-0.25
 74
           0
 49
0.25
 74
           0
 49
-0.25
 74
           0
 49
0.25
 74
           0
 49
-0.25
 74
           0
  0
LTYPE
  5
23
100
AcDbSymbolTableRecord
100
AcDbLinetypeTableRecord
  2
CENTER_DASH_DASH
 70
          64
  3
Center_Dash_Dash
 72
          65
 73
           6
 40
22.0
 49
12.0
 74
           0
 49
-3.0
 74
           0
 49
0.5
 74
           0
 49
-3.0
 74
           0
 49
0.5
 74
           0
 49
-3.0
 74
           0
  0
ENDTAB
  0
TABLE
  2
LAYER
  5
2
100
AcDbSymbolTable
 70
           3
  0
LAYER
  5
14
100
AcDbSymbolTableRecord
100
AcDbLayerTableRecord
  2
0
 70
           0
 62
           7
  6
CONTINUOUS
  0
LAYER
  5
24
100
AcDbSymbolTableRecord
100
AcDbLayerTableRecord
  2
976
 70
           0
 62
           7
  6
CONTINUOUS
  0
LAYER
  5
25
100
AcDbSymbolTableRecord
100
AcDbLayerTableRecord
  2
1
 70
           0
 62
           7
  6
CONTINUOUS
  0
ENDTAB
  0
TABLE
  2
STYLE
  5
3
100
AcDbSymbolTable
 70
           2
  0
STYLE
  5
17
100
AcDbSymbolTableRecord
100
AcDbTextStyleTableRecord
  2
STANDARD
 70
           0
 40
0.0
 41
1.0
 50
0.0
 71
           0
 42
0.0
  3
txt
  4

  0
STYLE
  5
3BF
100
AcDbSymbolTableRecord
100
AcDbTextStyleTableRecord
  2
CONVERTER_1
 70
           0
 40
0.0
 41
0.9
 50
0.0
 71
           0
 42
0.0
  3
txt.shx
  4

  0
ENDTAB
  0
TABLE
  2
VIEW
  5
5
100
AcDbSymbolTable
 70
           0
  0
ENDTAB
  0
TABLE
  2
UCS
  5
6
100
AcDbSymbolTable
 70
           0
  0
ENDTAB
  0
TABLE
  2
APPID
  5
8
100
AcDbSymbolTable
 70
           1
  0
APPID
  5
16
100
AcDbSymbolTableRecord
100
AcDbRegAppTableRecord
  2
ACAD
 70
           0
  0
ENDTAB
  0
TABLE
  2
DIMSTYLE
  5
9
100
AcDbSymbolTable
 70
           1
  0
DIMSTYLE
105
18
100
AcDbSymbolTableRecord
100
AcDbDimStyleTableRecord
  2
STANDARD
 70
           0
  3

  4

  5

  6

  7

 40
1.0
 41
0.18
 42
0.0625
 43
0.38
 44
0.18
 45
0.0
 46
0.0
 47
0.0
 48
0.0
 71
           0
 72
           0
 73
           1
 74
           1
 75
           0
 76
           0
 77
           0
 78
           0
140
0.18
141
0.09
142
0.0
143
25.4
144
1.0
145
0.0
146
1.0
147
0.09
170
           0
171
           2
172
           0
173
           0
174
           0
175
           0
176
           0
177
           0
178
           0
270
           2
271
           4
272
           4
273
           2
274
           2
275
           0
280
           0
281
           0
282
           0
283
           1
284
           0
285
           0
286
           0
287
           0
288
           0
340
17
  0
ENDTAB
  0
TABLE
  2
BLOCK_RECORD
  5
1
100
AcDbSymbolTable
 70
           0
  0
BLOCK_RECORD
  5
A
100
AcDbSymbolTableRecord
100
AcDbBlockTableRecord
  2
*MODEL_SPACE
  0
BLOCK_RECORD
  5
B
100
AcDbSymbolTableRecord
100
AcDbBlockTableRecord
  2
*PAPER_SPACE
  0
ENDTAB
  0
ENDSEC
  0
SECTION
  2
BLOCKS
  0
BLOCK
  5
D
100
AcDbEntity
  8
0
100
AcDbBlockBegin
  2
*MODEL_SPACE
 70
           0
 10
0.0
 20
0.0
 30
0.0
  3
*MODEL_SPACE
  1

  0
ENDBLK
  5
E
100
AcDbEntity
  8
0
100
AcDbBlockEnd
  0
BLOCK
  5
F
100
AcDbEntity
 67
           1
  8
0
100
AcDbBlockBegin
  2
*PAPER_SPACE
 70
           0
 10
0.0
 20
0.0
 30
0.0
  3
*PAPER_SPACE
  1

  0
ENDBLK
  5
10
100
AcDbEntity
 67
           1
  8
0
100
AcDbBlockEnd
  0
ENDSEC
  0
SECTION
  2
ENTITIES
  0
MTEXT
  5
3C5
100
AcDbEntity
  8
1
 62
           7
100
AcDbMText
 10
274.205503920925
 20
245.953225352688
 30
0.0
 40
3.0
 41
0.0
 71
           5
 72
           1
  1
WRA-200
  7
CONVERTER_1
 11
0.0
 21
1.0
 31
0.0
  0
MTEXT
  5
3C4
100
AcDbEntity
  8
1
 62
           7
100
AcDbMText
 10
257.223368057932
 20
169.092683905269
 30
0.0
 40
3.0
 41
0.0
 71
           5
 72
           1
  1
CYL
  7
CONVERTER_1
 11
0.0
 21
1.0
 31
0.0
  0
MTEXT
  5
3C3
100
AcDbEntity
  8
1
 62
           7
100
AcDbMText
 10
97.223368057932
 20
166.092683905269
 30
0.0
 40
3.0
 41
0.0
 71
           5
 72
           1
  1
CAP
  7
CONVERTER_1
 11
0.0
 21
-1.0
 31
0.0
  0
MTEXT
  5
3C2
100
AcDbEntity
  8
1
 62
           7
100
AcDbMText
 10
97.223368057932
 20
143.592683905269
 30
0.0
 40
3.0
 41
0.0
 71
           5
 72
           1
  1
FAN
  7
CONVERTER_1
 11
0.0
 21
-1.0
 31
0.0
  0
MTEXT
  5
3C1
100
AcDbEntity
  8
1
 62
           7
100
AcDbMText
 10
259.760777368212
 20
256.986740403183
 30
0.0
 40
3.0
 41
0.0
 71
           5
 72
           1
  1
FLU
  7
CONVERTER_1
 11
0.0
 21
1.0
 31
0.0
  0
MTEXT
  5
3C0
100
AcDbEntity
  8
1
 62
           7
100
AcDbMText
 10
259.760777368212
 20
76.986740403183
 30
0.0
 40
3.0
 41
0.0
 71
           5
 72
           1
  1
FLU
  7
CONVERTER_1
 11
0.0
 21
1.0
 31
0.0
  0
ARC
  5
3BE
100
AcDbEntity
  8
1
  6
CONTINUOUS
 62
           7
100
AcDbCircle
 10
174.323368057932
 20
141.681577077547
 40
0.5
100
AcDbArc
 50
180.0
 51
-101.377882109338
  0
ARC
  5
3BD
100
AcDbEntity
  8
1
  6
CONTINUOUS
 62
           7
100
AcDbCircle
 10
180.123368057932
 20
141.681577077547
 40
0.5
100
AcDbArc
 50
-78.622117890652
 51
0.0
  0
ARC
  5
3BC
100
AcDbEntity
  8
1
  6
CONTINUOUS
 62
           7
100
AcDbCircle
 10
174.323368057932
 20
170.50379073299
 40
0.5
100
AcDbArc
 50
101.377882109333
 51
180.0
  0
ARC
  5
3BB
100
AcDbEntity
  8
1
  6
CONTINUOUS
 62
           7
100
AcDbCircle
 10
180.123368057932
 20
170.50379073299
 40
0.5
100
AcDbArc
 50
0.0
 51
78.622117890657
  0
ARC
  5
3BA
100
AcDbEntity
  8
1
  6
CONTINUOUS
 62
           7
100
AcDbCircle
 10
240.723368057932
 20
84.640787640929
 40
0.3
100
AcDbArc
 50
0.0
 51
90.0
  0
ARC
  5
3B9
100
AcDbEntity
  8
1
  6
CONTINUOUS
 62
           7
100
AcDbCircle
 10
234.623368057932
 20
84.64078764093
 40
0.299999999999
100
AcDbArc
 50
90.0
 51
180.0
  0
ARC
  5
3B8
100
AcDbEntity
  8
1
  6
CONTINUOUS
 62
           7
100
AcDbCircle
 10
242.323368057932
 20
83.89078764093
 40
0.499999999999
100
AcDbArc
 50
-0.000000000052
 51
90.0
  0
ARC
  5
3B7
100
AcDbEntity
  8
1
  6
CONTINUOUS
 62
           7
100
AcDbCircle
 10
231.823368057932
 20
83.39078764093
 40
1.0
100
AcDbArc
 50
90.0
 51
180.0
  0
ARC
  5
3B6
100
AcDbEntity
  8
1
  6
CONTINUOUS
 62
           7
100
AcDbCircle
 10
240.723368057932
 20
47.740787640929
 40
0.3
100
AcDbArc
 50
-90.0
 51
0.0
  0
ARC
  5
3B5
100
AcDbEntity
  8
1
  6
CONTINUOUS
 62
           7
100
AcDbCircle
 10
234.623368057932
 20
47.740787640929
 40
0.3
100
AcDbArc
 50
180.0
 51
-90.0
  0
ARC
  5
3B4
100
AcDbEntity
  8
1
  6
CONTINUOUS
 62
           7
100
AcDbCircle
 10
231.823368057932
 20
48.990787640929
 40
1.0
100
AcDbArc
 50
180.0
 51
-90.0
  0
ARC
  5
3B3
100
AcDbEntity
  8
1
  6
CONTINUOUS
 62
           7
100
AcDbCircle
 10
215.121111159502
 20
63.190787640929
 40
0.5
100
AcDbArc
 50
180.0
 51
-90.0
  0
ARC
  5
3B2
100
AcDbEntity
  8
1
  6
CONTINUOUS
 62
           7
100
AcDbCircle
 10
215.121111159502
 20
69.190787640929
 40
0.5
100
AcDbArc
 50
89.999999999954
 51
180.0
  0
ARC
  5
3B1
100
AcDbEntity
  8
1
  6
CONTINUOUS
 62
           7
100
AcDbCircle
 10
224.820987937927
 20
59.690787640929
 40
3.0
100
AcDbArc
 50
0.0
 51
90.0
  0
ARC
  5
3B0
100
AcDbEntity
  8
1
  6
CONTINUOUS
 62
           7
100
AcDbCircle
 10
224.820987937927
 20
72.690787640929
 40
3.0
100
AcDbArc
 50
-90.0
 51
0.0
  0
ARC
  5
3AF
100
AcDbEntity
  8
1
  6
CONTINUOUS
 62
           7
100
AcDbCircle
 10
240.723368057932
 20
84.738891376589
 40
0.3
100
AcDbArc
 50
0.0
 51
90.0
  0
ARC
  5
3AE
100
AcDbEntity
  8
1
  6
CONTINUOUS
 62
           7
100
AcDbCircle
 10
234.623368057932
 20
84.73889137659
 40
0.3
100
AcDbArc
 50
90.0
 51
180.0
  0
ARC
  5
3AD
100
AcDbEntity
  8
1
  6
CONTINUOUS
 62
           7
100
AcDbCircle
 10
242.323368057932
 20
83.98889137659
 40
0.499999999999
100
AcDbArc
 50
-0.000000000052
 51
90.0
  0
ARC
  5
3AC
100
AcDbEntity
  8
1
  6
CONTINUOUS
 62
           7
100
AcDbCircle
 10
231.823368057932
 20
83.48889137659
 40
1.0
100
AcDbArc
 50
90.0
 51
180.0
  0
ARC
  5
3AB
100
AcDbEntity
  8
1
  6
CONTINUOUS
 62
           7
100
AcDbCircle
 10
240.723368057932
 20
47.83889137659
 40
0.3
100
AcDbArc
 50
-90.0
 51
0.0
  0
ARC
  5
3AA
100
AcDbEntity
  8
1
  6
CONTINUOUS
 62
           7
100
AcDbCircle
 10
234.623368057932
 20
47.83889137659
 40
0.3
100
AcDbArc
 50
180.0
 51
-90.0
  0
ARC
  5
3A9
100
AcDbEntity
  8
1
  6
CONTINUOUS
 62
           7
100
AcDbCircle
 10
242.323368057932
 20
48.58889137659
 40
0.5
100
AcDbArc
 50
-90.0
 51
0.0
  0
ARC
  5
3A8
100
AcDbEntity
  8
1
  6
CONTINUOUS
 62
           7
100
AcDbCircle
 10
231.823368057932
 20
49.08889137659
 40
1.0
100
AcDbArc
 50
180.0
 51
-90.0
  0
ARC
  5
3A7
100
AcDbEntity
  8
1
  6
CONTINUOUS
 62
           7
100
AcDbCircle
 10
215.121111159502
 20
63.288891376589
 40
0.5
100
AcDbArc
 50
180.0
 51
-90.0
  0
ARC
  5
3A6
100
AcDbEntity
  8
1
  6
CONTINUOUS
 62
           7
100
AcDbCircle
 10
215.121111159502
 20
69.288891376589
 40
0.5
100
AcDbArc
 50
89.999999999954
 51
180.0
  0
ARC
  5
3A5
100
AcDbEntity
  8
1
  6
CONTINUOUS
 62
           7
100
AcDbCircle
 10
224.820987937927
 20
59.788891376589
 40
3.0
100
AcDbArc
 50
0.0
 51
90.0
  0
ARC
  5
3A4
100
AcDbEntity
  8
1
  6
CONTINUOUS
 62
           7
100
AcDbCircle
 10
224.820987937927
 20
72.788891376589
 40
3.0
100
AcDbArc
 50
-90.0
 51
0.0
  0
ARC
  5
3A3
100
AcDbEntity
  8
1
  6
CONTINUOUS
 62
           7
100
AcDbCircle
 10
240.723368057932
 20
264.444580169608
 40
0.3
100
AcDbArc
 50
0.0
 51
90.0
  0
ARC
  5
3A2
100
AcDbEntity
  8
1
  6
CONTINUOUS
 62
           7
100
AcDbCircle
 10
234.623368057931
 20
264.444580169609
 40
0.3
100
AcDbArc
 50
89.999999999902
 51
180.0
  0
ARC
  5
3A1
100
AcDbEntity
  8
1
  6
CONTINUOUS
 62
           7
100
AcDbCircle
 10
242.323368057932
 20
263.694580169609
 40
0.5
100
AcDbArc
 50
-0.000000000072
 51
90.0
  0
ARC
  5
3A0
100
AcDbEntity
  8
1
  6
CONTINUOUS
 62
           7
100
AcDbCircle
 10
231.823368057931
 20
263.194580169609
 40
0.999999999999
100
AcDbArc
 50
89.99999999997
 51
180.0
  0
ARC
  5
39F
100
AcDbEntity
  8
1
  6
CONTINUOUS
 62
           7
100
AcDbCircle
 10
240.723368057932
 20
227.544580169609
 40
0.3
100
AcDbArc
 50
-90.0
 51
0.0
  0
ARC
  5
39E
100
AcDbEntity
  8
1
  6
CONTINUOUS
 62
           7
100
AcDbCircle
 10
234.623368057931
 20
227.544580169609
 40
0.3
100
AcDbArc
 50
180.0
 51
-89.999999999902
  0
ARC
  5
39D
100
AcDbEntity
  8
1
  6
CONTINUOUS
 62
           7
100
AcDbCircle
 10
242.323368057932
 20
228.294580169609
 40
0.5
100
AcDbArc
 50
-90.0
 51
0.0
  0
ARC
  5
39C
100
AcDbEntity
  8
1
  6
CONTINUOUS
 62
           7
100
AcDbCircle
 10
231.823368057931
 20
228.794580169609
 40
0.999999999999
100
AcDbArc
 50
180.0
 51
-89.99999999997
  0
ARC
  5
39B
100
AcDbEntity
  8
1
  6
CONTINUOUS
 62
           7
100
AcDbCircle
 10
215.121111159502
 20
242.994580169609
 40
0.5
100
AcDbArc
 50
180.0
 51
-90.0
  0
ARC
  5
39A
100
AcDbEntity
  8
1
  6
CONTINUOUS
 62
           7
100
AcDbCircle
 10
215.121111159502
 20
248.994580169609
 40
0.5
100
AcDbArc
 50
90.0
 51
180.0
  0
ARC
  5
399
100
AcDbEntity
  8
1
  6
CONTINUOUS
 62
           7
100
AcDbCircle
 10
224.820987937927
 20
239.494580169609
 40
3.0
100
AcDbArc
 50
0.0
 51
90.0
  0
ARC
  5
398
100
AcDbEntity
  8
1
  6
CONTINUOUS
 62
           7
100
AcDbCircle
 10
224.820987937927
 20
252.494580169609
 40
3.0
100
AcDbArc
 50
-90.0
 51
0.0
  0
ARC
  5
397
100
AcDbEntity
  8
1
  6
CONTINUOUS
 62
           7
100
AcDbCircle
 10
240.723368057932
 20
264.542683905269
 40
0.3
100
AcDbArc
 50
0.0
 51
90.0
  0
ARC
  5
396
100
AcDbEntity
  8
1
  6
CONTINUOUS
 62
           7
100
AcDbCircle
 10
234.623368057931
 20
264.542683905269
 40
0.3
100
AcDbArc
 50
89.999999999902
 51
180.0
  0
ARC
  5
395
100
AcDbEntity
  8
1
  6
CONTINUOUS
 62
           7
100
AcDbCircle
 10
242.323368057932
 20
263.792683905269
 40
0.5
100
AcDbArc
 50
-0.00000000002
 51
90.0
  0
ARC
  5
394
100
AcDbEntity
  8
1
  6
CONTINUOUS
 62
           7
100
AcDbCircle
 10
231.823368057931
 20
263.292683905269
 40
1.0
100
AcDbArc
 50
89.99999999997
 51
180.0
  0
ARC
  5
393
100
AcDbEntity
  8
1
  6
CONTINUOUS
 62
           7
100
AcDbCircle
 10
240.723368057932
 20
227.642683905269
 40
0.3
100
AcDbArc
 50
-90.0
 51
0.0
  0
ARC
  5
392
100
AcDbEntity
  8
1
  6
CONTINUOUS
 62
           7
100
AcDbCircle
 10
234.623368057931
 20
227.642683905269
 40
0.3
100
AcDbArc
 50
180.0
 51
-89.999999999902
  0
ARC
  5
391
100
AcDbEntity
  8
1
  6
CONTINUOUS
 62
           7
100
AcDbCircle
 10
242.323368057932
 20
228.392683905269
 40
0.5
100
AcDbArc
 50
-90.0
 51
0.0
  0
ARC
  5
390
100
AcDbEntity
  8
1
  6
CONTINUOUS
 62
           7
100
AcDbCircle
 10
231.823368057931
 20
228.892683905269
 40
0.999999999999
100
AcDbArc
 50
180.0
 51
-89.99999999997
  0
ARC
  5
38F
100
AcDbEntity
  8
1
  6
CONTINUOUS
 62
           7
100
AcDbCircle
 10
130.320553988179
 20
162.942683905288
 40
1.5
100
AcDbArc
 50
90.0
 51
180.0
  0
ARC
  5
38E
100
AcDbEntity
  8
1
  6
CONTINUOUS
 62
           7
100
AcDbCircle
 10
130.320553988179
 20
149.24268390525
 40
1.5
100
AcDbArc
 50
180.0
 51
-90.0
  0
ARC
  5
38D
100
AcDbEntity
  8
1
  6
CONTINUOUS
 62
           7
100
AcDbCircle
 10
113.618173868174
 20
174.542683905269
 40
0.3
100
AcDbArc
 50
90.0
 51
180.0
  0
ARC
  5
38C
100
AcDbEntity
  8
1
  6
CONTINUOUS
 62
           7
100
AcDbCircle
 10
119.718173868174
 20
174.542683905269
 40
0.3
100
AcDbArc
 50
0.0
 51
90.000000000095
  0
ARC
  5
38B
100
AcDbEntity
  8
1
  6
CONTINUOUS
 62
           7
100
AcDbCircle
 10
112.018173868174
 20
173.792683905269
 40
0.5
100
AcDbArc
 50
90.0
 51
-179.999999999977
  0
ARC
  5
38A
100
AcDbEntity
  8
1
  6
CONTINUOUS
 62
           7
100
AcDbCircle
 10
122.518173868174
 20
173.292683905269
 40
1.0
100
AcDbArc
 50
0.000000000011
 51
90.0
  0
ARC
  5
389
100
AcDbEntity
  8
1
  6
CONTINUOUS
 62
           7
100
AcDbCircle
 10
113.618173868174
 20
137.642683905269
 40
0.3
100
AcDbArc
 50
180.0
 51
-90.0
  0
ARC
  5
388
100
AcDbEntity
  8
1
  6
CONTINUOUS
 62
           7
100
AcDbCircle
 10
119.718173868174
 20
137.642683905269
 40
0.3
100
AcDbArc
 50
-90.000000000095
 51
0.0
  0
ARC
  5
387
100
AcDbEntity
  8
1
  6
CONTINUOUS
 62
           7
100
AcDbCircle
 10
112.018173868174
 20
138.392683905269
 40
0.5
100
AcDbArc
 50
180.0
 51
-90.0
  0
ARC
  5
386
100
AcDbEntity
  8
1
  6
CONTINUOUS
 62
           7
100
AcDbCircle
 10
122.518173868174
 20
138.892683905269
 40
1.0
100
AcDbArc
 50
-90.0
 51
0.0
  0
ARC
  5
385
100
AcDbEntity
  8
1
  6
CONTINUOUS
 62
           7
100
AcDbCircle
 10
224.020987937926
 20
162.942683905288
 40
1.5
100
AcDbArc
 50
0.0
 51
90.0
  0
ARC
  5
384
100
AcDbEntity
  8
1
  6
CONTINUOUS
 62
           7
100
AcDbCircle
 10
224.020987937926
 20
149.24268390525
 40
1.5
100
AcDbArc
 50
-90.0
 51
0.0
  0
ARC
  5
383
100
AcDbEntity
  8
1
  6
CONTINUOUS
 62
           7
100
AcDbCircle
 10
240.723368057932
 20
174.542683905269
 40
0.3
100
AcDbArc
 50
0.0
 51
90.0
  0
ARC
  5
382
100
AcDbEntity
  8
1
  6
CONTINUOUS
 62
           7
100
AcDbCircle
 10
234.623368057931
 20
174.542683905269
 40
0.3
100
AcDbArc
 50
89.999999999902
 51
180.0
  0
ARC
  5
381
100
AcDbEntity
  8
1
  6
CONTINUOUS
 62
           7
100
AcDbCircle
 10
242.323368057932
 20
173.792683905269
 40
0.5
100
AcDbArc
 50
-0.000000000023
 51
90.0
  0
ARC
  5
380
100
AcDbEntity
  8
1
  6
CONTINUOUS
 62
           7
100
AcDbCircle
 10
231.823368057931
 20
173.292683905269
 40
1.0
100
AcDbArc
 50
89.99999999997
 51
180.0
  0
ARC
  5
37F
100
AcDbEntity
  8
1
  6
CONTINUOUS
 62
           7
100
AcDbCircle
 10
240.723368057932
 20
137.642683905269
 40
0.3
100
AcDbArc
 50
-90.0
 51
0.0
  0
ARC
  5
37E
100
AcDbEntity
  8
1
  6
CONTINUOUS
 62
           7
100
AcDbCircle
 10
234.623368057931
 20
137.642683905269
 40
0.3
100
AcDbArc
 50
180.0
 51
-89.999999999902
  0
ARC
  5
37D
100
AcDbEntity
  8
1
  6
CONTINUOUS
 62
           7
100
AcDbCircle
 10
242.323368057932
 20
138.392683905269
 40
0.5
100
AcDbArc
 50
-90.0
 51
0.0
  0
ARC
  5
37C
100
AcDbEntity
  8
1
  6
CONTINUOUS
 62
           7
100
AcDbCircle
 10
231.823368057931
 20
138.892683905269
 40
0.999999999999
100
AcDbArc
 50
180.0
 51
-89.99999999997
  0
ARC
  5
37B
100
AcDbEntity
  8
1
  6
CONTINUOUS
 62
           7
100
AcDbCircle
 10
215.121111159502
 20
243.092683905269
 40
0.5
100
AcDbArc
 50
180.0
 51
-90.0
  0
ARC
  5
37A
100
AcDbEntity
  8
1
  6
CONTINUOUS
 62
           7
100
AcDbCircle
 10
215.121111159502
 20
249.092683905269
 40
0.5
100
AcDbArc
 50
90.0
 51
180.0
  0
ARC
  5
379
100
AcDbEntity
  8
1
  6
CONTINUOUS
 62
           7
100
AcDbCircle
 10
224.820987937927
 20
239.592683905269
 40
3.0
100
AcDbArc
 50
0.0
 51
90.0
  0
ARC
  5
378
100
AcDbEntity
  8
1
  6
CONTINUOUS
 62
           7
100
AcDbCircle
 10
224.820987937927
 20
252.592683905269
 40
3.0
100
AcDbArc
 50
-90.0
 51
0.0
  0
SPLINE
  5
377
100
AcDbEntity
  8
1
  6
CONTINUOUS
 62
           2
100
AcDbSpline
210
0.0
220
0.0
230
1.0
 70
           0
 71
           4
 72
          10
 73
           6
 74
           7
 42
0.00000000001
 43
0.00000000001
 44
0.00000000001
 40
0.0
 40
0.0
 40
0.0
 40
0.0
 40
0.132013460679002
 40
0.2631673425046249
 40
0.3949929665372496
 40
0.3949929665372496
 40
0.3949929665372496
 40
0.3949929665372496
 10
266.3557297038497
 20
252.55139594914189
 30
0.0
 10
266.38532002383232
 20
252.49279983951931
 30
0.0
 10
266.42719183736841
 20
252.4413051731847
 30
0.0
 10
266.52976357098709
 20
252.35957158045571
 30
0.0
 10
266.58925335170812
 20
252.33029694543299
 30
0.0
 10
266.65287310305757
 20
252.31461923965159
 30
0.0
 11
266.3557297038497
 21
252.55139594914189
 31
0.0
 11
266.39558143461966
 21
252.4838865714276
 31
0.0
 11
266.43398876205947
 21
252.44039187884709
 31
0.0
 11
266.47905018754699
 21
252.40110869893979
 31
0.0
 11
266.52740018104583
 21
252.36596405557779
 31
0.0
 11
266.57829134831456
 21
252.33829863586772
 31
0.0
 11
266.65287310305757
 21
252.31461923965159
 31
0.0
  0
SPLINE
  5
376
100
AcDbEntity
  8
1
  6
CONTINUOUS
 62
           2
100
AcDbSpline
210
0.0
220
0.0
230
1.0
 70
           0
 71
           4
 72
           8
 73
           4
 74
           3
 42
0.00000000001
 43
0.00000000001
 44
0.00000000001
 40
0.0
 40
0.0
 40
0.0
 40
0.0
 40
0.3044547321445218
 40
0.3044547321445218
 40
0.3044547321445218
 40
0.3044547321445218
 10
266.65287310305757
 20
252.31461923965159
 30
0.0
 10
266.75032068681003
 20
252.28729567265319
 30
0.0
 10
266.85199085379548
 20
252.27839468768821
 30
0.0
 10
266.95268775759632
 20
252.2883711689397
 30
0.0
 11
266.65287310305757
 21
252.31461923965159
 31
0.0
 11
266.80156193530877
 21
252.28750768620193
 31
0.0
 11
266.95268775759632
 21
252.2883711689397
 31
0.0
  0
SPLINE
  5
375
100
AcDbEntity
  8
1
  6
CONTINUOUS
 62
           2
100
AcDbSpline
210
0.0
220
0.0
230
1.0
 70
           0
 71
           4
 72
          12
 73
           8
 74
          11
 42
0.00000000001
 43
0.00000000001
 44
0.00000000001
 40
0.0
 40
0.0
 40
0.0
 40
0.0
 40
0.1210382537522781
 40
0.2416332342998564
 40
0.3024393084184444
 40
0.4231332764114154
 40
0.5443889263381168
 40
0.5443889263381168
 40
0.5443889263381168
 40
0.5443889263381168
 10
266.95268775759632
 20
252.2883711689397
 30
0.0
 10
267.0128197322706
 20
252.29248251899779
 30
0.0
 10
267.0717219870121
 20
252.3074163072213
 30
0.0
 10
267.18142578514562
 20
252.35749849974869
 30
0.0
 10
267.23133126932231
 20
252.39223783334629
 30
0.0
 10
267.31646978806378
 20
252.47778586977259
 30
0.0
 10
267.35100741230048
 20
252.5278958173374
 30
0.0
 10
267.37585950788429
 20
252.5829420932578
 30
0.0
 11
266.95268775759632
 21
252.2883711689397
 31
0.0
 11
267.02464554866719
 21
252.29743057561708
 31
0.0
 11
267.07904277280983
 21
252.31373654589785
 31
0.0
 11
267.13641334545827
 21
252.33771822958931
 31
0.0
 11
267.18727662612207
 21
252.36334257277673
 31
0.0
 11
267.20616249875695
 21
252.37516025853475
 31
0.0
 11
267.22380125810429
 21
252.38876464531813
 31
0.0
 11
267.26552278796964
 21
252.42758465501558
 31
0.0
 11
267.30797530288902
 21
252.47308421332423
 31
0.0
 11
267.34224407255726
 21
252.51850772439616
 31
0.0
 11
267.37585950788429
 21
252.5829420932578
 31
0.0
  0
SPLINE
  5
374
100
AcDbEntity
  8
1
  6
CONTINUOUS
 62
           2
100
AcDbSpline
210
0.0
220
0.0
230
1.0
 70
           0
 71
           4
 72
          12
 73
           8
 74
          11
 42
0.00000000001
 43
0.00000000001
 44
0.00000000001
 40
0.0
 40
0.0
 40
0.0
 40
0.0
 40
0.0049272003343395
 40
0.0098327435212263
 40
0.0123128049164615
 40
0.0172233137970532
 40
0.0221609767155377
 40
0.0221609767155377
 40
0.0221609767155377
 40
0.0221609767155377
 10
268.48500230861009
 20
246.8841729780934
 30
0.0
 10
268.48722977732001
 20
246.88519326989729
 30
0.0
 10
268.48922328423578
 20
246.88666375900289
 30
0.0
 10
268.49249271173272
 20
246.89032097075511
 30
0.0
 10
268.49373346185712
 20
246.8924683514044
 30
0.0
 10
268.49527164583651
 20
246.897131728669
 30
0.0
 10
268.49555253287099
 20
246.8995975595879
 30
0.0
 10
268.49532762608942
 20
246.90204312497079
 30
0.0
 11
268.48500230861009
 21
246.8841729780934
 31
0.0
 11
268.48759506523328
 21
246.88557178830953
 31
0.0
 11
268.48938270275266
 21
246.88703111709398
 31
0.0
 11
268.49113505253058
 21
246.88885106536659
 31
0.0
 11
268.49260035816604
 21
246.8906426317148
 31
0.0
 11
268.49309818138744
 21
246.89140267059685
 31
0.0
 11
268.49350807536706
 21
246.89221336819233
 31
0.0
 11
268.49432951210019
 21
246.894379131021
 31
0.0
 11
268.49503259739288
 21
246.89680833648268
 31
0.0
 11
268.49540661605448
 21
246.89909098427148
 31
0.0
 11
268.49532762608942
 21
246.90204312497079
 31
0.0
  0
SPLINE
  5
373
100
AcDbEntity
  8
1
  6
CONTINUOUS
 62
           2
100
AcDbSpline
210
0.0
220
0.0
230
1.0
 70
           0
 71
           4
 72
          12
 73
           8
 74
          11
 42
0.00000000001
 43
0.00000000001
 44
0.00000000001
 40
0.0
 40
0.0
 40
0.0
 40
0.0
 40
0.0888648808876199
 40
0.1773979232883647
 40
0.2220905998020738
 40
0.3107114250159085
 40
0.3997678139565479
 40
0.3997678139565479
 40
0.3997678139565479
 40
0.3997678139565479
 10
266.42743696833799
 20
248.60704277559131
 30
0.0
 10
266.38716237660537
 20
248.58878234268369
 30
0.0
 10
266.3507442169203
 20
248.56295978394269
 30
0.0
 10
266.28955233250139
 20
248.498978123461
 30
0.0
 10
266.26534366618671
 20
248.46140984150369
 30
0.0
 10
266.23231436411203
 20
248.37917410799301
 30
0.0
 10
266.22379872770529
 20
248.33526603807951
 30
0.0
 10
266.22338039473289
 20
248.29093784204591
 30
0.0
 11
266.42743696833799
 21
248.60704277559131
 31
0.0
 11
266.38040391343338
 21
248.58218717887496
 31
0.0
 11
266.34754950410201
 21
248.55656689248406
 31
0.0
 11
266.31489880884698
 21
248.52469231447418
 31
0.0
 11
266.28726318014861
 21
248.49333436132
 31
0.0
 11
266.27769083715543
 21
248.48004849745183
 31
0.0
 11
266.26954678353326
 21
248.46584512704047
 31
0.0
 11
266.25238941602578
 21
248.42769681127643
 31
0.0
 11
266.23682600687306
 21
248.3847584083301
 31
0.0
 11
266.22697544196393
 21
248.34416450502977
 31
0.0
 11
266.22338039473289
 21
248.29093784204591
 31
0.0
  0
SPLINE
  5
372
100
AcDbEntity
  8
1
  6
CONTINUOUS
 62
           2
100
AcDbSpline
210
0.0
220
0.0
230
1.0
 70
           0
 71
           4
 72
          12
 73
           8
 74
          11
 42
0.00000000001
 43
0.00000000001
 44
0.00000000001
 40
0.0
 40
0.0
 40
0.0
 40
0.0
 40
0.0881486783687157
 40
0.1759690220571946
 40
0.2203013375780441
 40
0.3082077102346557
 40
0.3965422036208355
 40
0.3965422036208355
 40
0.3965422036208355
 40
0.3965422036208355
 10
268.29713783976598
 20
248.87856758578531
 30
0.0
 10
268.33685776377843
 20
248.8971801113542
 30
0.0
 10
268.37266144940298
 20
248.92324120110121
 30
0.0
 10
268.43257511537331
 20
248.98744996526591
 30
0.0
 10
268.45613242901442
 20
249.02500535334079
 30
0.0
 10
268.48790749225918
 20
249.1069680015986
 30
0.0
 10
268.4958321364557
 20
249.15061920678201
 30
0.0
 10
268.49536657880981
 20
249.1945865230831
 30
0.0
 11
268.29713783976598
 21
248.87856758578531
 31
0.0
 11
268.34348037287145
 21
248.90380410879084
 31
0.0
 11
268.37575282475842
 21
248.92962004202917
 31
0.0
 11
268.40774870952544
 21
248.96163508700818
 31
0.0
 11
268.43477795618207
 21
248.99307516092347
 31
0.0
 11
268.44411134875992
 21
249.00636903661658
 31
0.0
 11
268.45201782893059
 21
249.02055522143348
 31
0.0
 11
268.46857776855114
 21
249.05859987054592
 31
0.0
 11
268.48350099239747
 21
249.10137590198141
 31
0.0
 11
268.49274306850873
 21
249.14175522538139
 31
0.0
 11
268.49536657880981
 21
249.1945865230831
 31
0.0
  0
SPLINE
  5
371
100
AcDbEntity
  8
1
  6
CONTINUOUS
 62
           2
100
AcDbSpline
210
0.0
220
0.0
230
1.0
 70
           0
 71
           4
 72
          14
 73
          10
 74
          15
 42
0.00000000001
 43
0.00000000001
 44
0.00000000001
 40
0.0
 40
0.0
 40
0.0
 40
0.0
 40
0.0099725951734982
 40
0.0199012138004198
 40
0.0249156445543735
 40
0.0348545758869393
 40
0.0398746310643587
 40
0.0502459422909367
 40
0.0602466735081484
 40
0.0602466735081484
 40
0.0602466735081484
 40
0.0602466735081484
 10
268.01238163599101
 20
250.80992532449159
 30
0.0
 10
268.01734379009582
 20
250.80991899482299
 30
0.0
 10
268.02225865031602
 20
250.81089297031761
 30
0.0
 10
268.03143241026191
 20
250.81469028467041
 30
0.0
 10
268.03560154686329
 20
250.817476467684
 30
0.0
 10
268.0426281367545
 20
250.82450564903991
 30
0.0
 10
268.04541683648313
 20
250.82867986846489
 30
0.0
 10
268.05022215650342
 20
250.83787078768231
 30
0.0
 10
268.0512058651052
 20
250.84279755645119
 30
0.0
 10
268.05121226036141
 20
250.84777426792289
 30
0.0
 11
268.01238163599101
 21
250.80992532449159
 31
0.0
 11
268.01833853661026
 21
250.81028945768477
 31
0.0
 11
268.02287533512674
 21
250.81141217645472
 31
0.0
 11
268.02766792539182
 21
250.8132001798183
 31
0.0
 11
268.03191820554144
 21
250.81517252279275
 31
0.0
 11
268.03351263925134
 21
250.81612473026422
 31
0.0
 11
268.03508622097422
 21
250.81732852658206
 31
0.0
 11
268.03906647722471
 21
250.82103373947538
 31
0.0
 11
268.0427624819377
 21
250.82500097720597
 31
0.0
 11
268.04396398639381
 21
250.82655807885175
 31
0.0
 11
268.04495729607504
 21
250.82812085877305
 31
0.0
 11
268.0473243260538
 21
250.83246688794435
 31
0.0
 11
268.04954803309766
 21
250.83737069022715
 31
0.0
 11
268.05081834532331
 21
250.84183432189315
 31
0.0
 11
268.05121226036141
 21
250.84777426792289
 31
0.0
  0
SPLINE
  5
370
100
AcDbEntity
  8
1
  6
CONTINUOUS
 62
           2
100
AcDbSpline
210
0.0
220
0.0
230
1.0
 70
           0
 71
           4
 72
          14
 73
          10
 74
          15
 42
0.00000000001
 43
0.00000000001
 44
0.00000000001
 40
0.0
 40
0.0
 40
0.0
 40
0.0
 40
0.0906075259972406
 40
0.1808164412067698
 40
0.2263765429729401
 40
0.3166798257140739
 40
0.3622910162520017
 40
0.4526869343064265
 40
0.543549767864749
 40
0.543549767864749
 40
0.543549767864749
 40
0.543549767864749
 10
268.1547164613412
 20
250.1800580388165
 30
0.0
 10
268.19979920892729
 20
250.17967818647369
 30
0.0
 10
268.24437286603728
 20
250.18892744827369
 30
0.0
 10
268.32741082315852
 20
250.22417437807491
 30
0.0
 10
268.36506261592331
 20
250.24982716300249
 30
0.0
 10
268.42833126207461
 20
250.31426132543211
 30
0.0
 10
268.45332904635961
 20
250.3524122295253
 30
0.0
 10
268.48719630369618
 20
250.43622410745081
 30
0.0
 10
268.49573439345022
 20
250.4810650014002
 30
0.0
 10
268.4953893362499
 20
250.52627999878189
 30
0.0
 11
268.1547164613412
 21
250.1800580388165
 31
0.0
 11
268.20880659841333
 21
250.18321578981693
 31
0.0
 11
268.2499331924476
 21
250.19369468310782
 31
0.0
 11
268.29333018053478
 21
250.21032962546008
 31
0.0
 11
268.33178518310797
 21
250.22859512874089
 31
0.0
 11
268.34619388178055
 21
250.2373760856419
 31
0.0
 11
268.36039270394065
 21
250.24844105726569
 31
0.0
 11
268.39626788429587
 21
250.28244914276462
 31
0.0
 11
268.42962217065167
 21
250.31894103811615
 31
0.0
 11
268.44044355622168
 21
250.33335619832238
 31
0.0
 11
268.4489760507426
 21
250.3479347323576
 31
0.0
 11
268.46660086082898
 21
250.38678025446191
 31
0.0
 11
268.48252034877356
 21
250.43054982607816
 31
0.0
 11
268.49243449005155
 21
250.47197315371693
 31
0.0
 11
268.4953893362499
 21
250.52627999878189
 31
0.0
  0
SPLINE
  5
36F
100
AcDbEntity
  8
1
  6
CONTINUOUS
 62
           2
100
AcDbSpline
210
0.0
220
0.0
230
1.0
 70
           0
 71
           4
 72
          14
 73
          10
 74
          15
 42
0.00000000001
 43
0.00000000001
 44
0.00000000001
 40
0.0
 40
0.0
 40
0.0
 40
0.0
 40
0.0736749086054134
 40
0.1470088165539272
 40
0.1840421221499231
 40
0.2574408456748702
 40
0.294514185010275
 40
0.3679946169850935
 40
0.4418697343143208
 40
0.4418697343143208
 40
0.4418697343143208
 40
0.4418697343143208
 10
269.25386568145501
 20
246.83258284290361
 30
0.0
 10
269.21756018133601
 20
246.8376832351581
 30
0.0
 10
269.18060813535612
 20
246.8355617746229
 30
0.0
 10
269.10963159475517
 20
246.81711746007011
 30
0.0
 10
269.07630158920301
 20
246.8009750794136
 30
0.0
 10
269.01776504314103
 20
246.7566936454912
 30
0.0
 10
268.99313126922522
 20
246.72898787583679
 30
0.0
 10
268.9559463762053
 20
246.66561076944731
 30
0.0
 10
268.9437591026981
 20
246.63055956307181
 30
0.0
 10
268.93867301414957
 20
246.59414746861009
 30
0.0
 11
269.25386568145501
 21
246.83258284290361
 31
0.0
 11
269.20990425158942
 21
246.83598525352193
 31
0.0
 11
269.1755638827882
 21
246.8323893465143
 31
0.0
 11
269.13868453980831
 21
246.82418664301093
 31
0.0
 11
269.1055861637692
 21
246.81408252674976
 31
0.0
 11
269.09295528532266
 21
246.80873867483982
 31
0.0
 11
269.08022129973438
 21
246.80153217291416
 31
0.0
 11
269.04733008229113
 21
246.77845725546166
 31
0.0
 11
269.0161718001749
 21
246.75308364141674
 31
0.0
 11
269.0057573099653
 21
246.74277958238019
 31
0.0
 11
268.99716491678703
 21
246.73207153440003
 31
0.0
 11
268.97838015052622
 21
246.70292864964529
 31
0.0
 11
268.96038322386363
 21
246.66962206003205
 31
0.0
 11
268.94749259113462
 21
246.63748056766343
 31
0.0
 11
268.93867301414957
 21
246.59414746861009
 31
0.0
  0
SPLINE
  5
36E
100
AcDbEntity
  8
1
  6
CONTINUOUS
 62
           2
100
AcDbSpline
210
0.0
220
0.0
230
1.0
 70
           0
 71
           4
 72
          14
 73
          10
 74
          15
 42
0.00000000001
 43
0.00000000001
 44
0.00000000001
 40
0.0
 40
0.0
 40
0.0
 40
0.0
 40
0.0800888851496766
 40
0.1598592848786761
 40
0.2000246397096616
 40
0.2797274613459609
 40
0.3198538686007659
 40
0.3994787057275159
 40
0.4793561467616064
 40
0.4793561467616064
 40
0.4793561467616064
 40
0.4793561467616064
 10
271.22340008367291
 20
248.21696514960311
 30
0.0
 10
271.2235724473444
 20
248.25686316981401
 30
0.0
 10
271.21687332077448
 20
248.2964914097536
 30
0.0
 10
271.19032285568852
 20
248.37171367691329
 30
0.0
 10
271.17067083379328
 20
248.40674300411391
 30
0.0
 10
271.12034624262202
 20
248.46854895285861
 30
0.0
 10
271.09005146437312
 20
248.49486159183741
 30
0.0
 10
271.02186851496663
 20
248.53598579514511
 30
0.0
 10
270.98449219906621
 20
248.5504886365475
 30
0.0
 10
270.9454790740765
 20
248.55829274460629
 30
0.0
 11
271.22340008367291
 21
248.21696514960311
 31
0.0
 11
271.22099769576153
 21
248.26492725704782
 31
0.0
 11
271.21321550807215
 21
248.30171310180259
 31
0.0
 11
271.2007239659921
 21
248.34091681592622
 31
0.0
 11
271.18688555634867
 21
248.37596463770348
 31
0.0
 11
271.18018763414926
 21
248.38925167841396
 31
0.0
 11
271.17165440515686
 21
248.40264317401605
 31
0.0
 11
271.14514867999128
 21
248.43736451974186
 31
0.0
 11
271.11652055716274
 21
248.47035197662541
 31
0.0
 11
271.10514735818964
 21
248.48140766954285
 31
0.0
 11
271.09350072221844
 21
248.49064688170759
 31
0.0
 11
271.06202600717631
 21
248.51124774680306
 31
0.0
 11
271.02621663667014
 21
248.5313594852899
 31
0.0
 11
270.99185027104431
 21
248.54634941685404
 31
0.0
 11
270.9454790740765
 21
248.55829274460629
 31
0.0
  0
SPLINE
  5
36D
100
AcDbEntity
  8
1
  6
CONTINUOUS
 62
           2
100
AcDbSpline
210
0.0
220
0.0
230
1.0
 70
           0
 71
           4
 72
          12
 73
           8
 74
          11
 42
0.00000000001
 43
0.00000000001
 44
0.00000000001
 40
0.0
 40
0.0
 40
0.0
 40
0.0
 40
0.0718762353306569
 40
0.1434100471932484
 40
0.179599518209131
 40
0.2512155719398038
 40
0.3232631923957282
 40
0.3232631923957282
 40
0.3232631923957282
 40
0.3232631923957282
 10
269.11659827490712
 20
247.70753622208011
 30
0.0
 10
269.08245265179812
 20
247.6970142733374
 30
0.0
 10
269.05092823112591
 20
247.6793292762282
 30
0.0
 10
268.99730702435772
 20
247.63198107220401
 30
0.0
 10
268.97582283027077
 20
247.60285879178431
 30
0.0
 10
268.94635953474648
 20
247.53758419206281
 30
0.0
 10
268.93871703482409
 20
247.50217759820481
 30
0.0
 10
268.93867099765703
 20
247.4663520267876
 30
0.0
 11
269.11659827490712
 21
247.70753622208011
 31
0.0
 11
269.07649138673906
 21
247.69215792480659
 31
0.0
 11
269.04801644660171
 21
247.67423237232362
 31
0.0
 11
269.01950057249212
 21
247.6509264297884
 31
0.0
 11
268.99524627281164
 21
247.62747255404742
 31
0.0
 11
268.98677467405571
 21
247.61727593236111
 31
0.0
 11
268.97953199892692
 21
247.60617524797846
 31
0.0
 11
268.96426015788188
 21
247.57605570406298
 31
0.0
 11
268.9503794705231
 21
247.54189914074914
 31
0.0
 11
268.94160635802467
 21
247.50932327375654
 31
0.0
 11
268.93867099765703
 21
247.4663520267876
 31
0.0
  0
SPLINE
  5
36C
100
AcDbEntity
  8
1
  6
CONTINUOUS
 62
           2
100
AcDbSpline
210
0.0
220
0.0
230
1.0
 70
           0
 71
           4
 72
          12
 73
           8
 74
          11
 42
0.00000000001
 43
0.00000000001
 44
0.00000000001
 40
0.0
 40
0.0
 40
0.0
 40
0.0
 40
0.0966941468919175
 40
0.1928307574995971
 40
0.2413922518837633
 40
0.3374215230828894
 40
0.4338904138236734
 40
0.4338904138236734
 40
0.4338904138236734
 40
0.4338904138236734
 10
271.22342462144928
 20
249.6689854789141
 30
0.0
 10
271.22383202885788
 20
249.71707441270891
 30
0.0
 10
271.21422823680632
 20
249.7647196240284
 30
0.0
 10
271.17622698310561
 20
249.85302677332169
 30
0.0
 10
271.14824741573278
 20
249.8927176103808
 30
0.0
 10
271.07791016455172
 20
249.95809568027681
 30
0.0
 10
271.03632596929401
 20
249.98306395995999
 30
0.0
 10
270.99098638900568
 20
249.99871423730929
 30
0.0
 11
271.22342462144928
 21
249.6689854789141
 31
0.0
 11
271.22011896453461
 21
249.72671514758133
 31
0.0
 11
271.20898226127622
 21
249.77061477185717
 31
0.0
 11
271.19112309759379
 21
249.81678427920167
 31
0.0
 11
271.17136875512824
 21
249.85759598933572
 31
0.0
 11
271.16195698279967
 21
249.87268845686611
 31
0.0
 11
271.15090133869774
 21
249.88662542051247
 31
0.0
 11
271.11912219527841
 21
249.91891048834572
 31
0.0
 11
271.08166770683141
 21
249.95119767641737
 31
0.0
 11
271.04414108211887
 21
249.9763447152045
 31
0.0
 11
270.99098638900568
 21
249.99871423730929
 31
0.0
  0
SPLINE
  5
36B
100
AcDbEntity
  8
1
  6
CONTINUOUS
 62
           2
100
AcDbSpline
210
0.0
220
0.0
230
1.0
 70
           0
 71
           4
 72
          14
 73
          10
 74
          15
 42
0.00000000001
 43
0.00000000001
 44
0.00000000001
 40
0.0
 40
0.0
 40
0.0
 40
0.0
 40
0.0726738501262404
 40
0.1451188713341139
 40
0.1785713237006179
 40
0.2510872168441823
 40
0.2876298558780776
 40
0.3602070568705183
 40
0.4366621994100352
 40
0.4366621994100352
 40
0.4366621994100352
 40
0.4366621994100352
 10
269.20443754612643
 20
249.2877994300523
 30
0.0
 10
269.16891918673582
 20
249.28081574512129
 30
0.0
 10
269.13486698147062
 20
249.26774271103591
 30
0.0
 10
269.07268783842392
 20
249.2305669761032
 30
0.0
 10
269.04502610316791
 20
249.2117548796767
 30
0.0
 10
268.99898958383892
 20
249.15572637223201
 30
0.0
 10
268.98095922893617
 20
249.12394161535639
 30
0.0
 10
268.95645907527393
 20
249.05562476110779
 30
0.0
 10
268.93871420391503
 20
249.01960378607859
 30
0.0
 10
268.93866755641881
 20
248.98330326355489
 30
0.0
 11
269.20443754612643
 21
249.2877994300523
 31
0.0
 11
269.16218430384663
 21
249.27705967446909
 31
0.0
 11
269.1306806143354
 21
249.26342396718212
 31
0.0
 11
269.09763219132503
 21
249.24517481120901
 31
0.0
 11
269.06868352939244
 21
249.22754129147671
 31
0.0
 11
269.05889585456907
 21
249.2209205884399
 31
0.0
 11
269.04930851780233
 21
249.21283543026445
 31
0.0
 11
269.02281361709259
 21
249.18387831703333
 31
0.0
 11
268.9981586111187
 21
249.15210260919321
 31
0.0
 11
268.99026983796529
 21
249.13987781266664
 31
0.0
 11
268.98413539681974
 21
249.12788374426918
 31
0.0
 11
268.97120342118671
 21
249.09652297288244
 31
0.0
 11
268.95742896260424
 21
249.06152120673005
 31
0.0
 11
268.94446145666342
 21
249.02723557393122
 31
0.0
 11
268.93866755641881
 21
248.98330326355489
 31
0.0
  0
SPLINE
  5
36A
100
AcDbEntity
  8
1
  6
CONTINUOUS
 62
           2
100
AcDbSpline
210
0.0
220
0.0
230
1.0
 70
           0
 71
           4
 72
          12
 73
           8
 74
          11
 42
0.00000000001
 43
0.00000000001
 44
0.00000000001
 40
0.0
 40
0.0
 40
0.0
 40
0.0
 40
0.0859322644895189
 40
0.1714949286241315
 40
0.2147402378712855
 40
0.3066878368858284
 40
0.3928162210224488
 40
0.3928162210224488
 40
0.3928162210224488
 40
0.3928162210224488
 10
269.15854343233968
 20
251.04254511273351
 30
0.0
 10
269.11845056559332
 20
251.02774641515421
 30
0.0
 10
269.08177912041452
 20
251.00491994227909
 30
0.0
 10
269.01974422600318
 20
250.94599082070761
 30
0.0
 10
268.99502903582152
 20
250.910503976016
 30
0.0
 10
268.9474781237459
 20
250.83180663346039
 30
0.0
 10
268.93873017411761
 20
250.7894185157275
 30
0.0
 10
268.93867511421831
 20
250.7465715619042
 30
0.0
 11
269.15854343233968
 21
251.04254511273351
 31
0.0
 11
269.1115737078199
 21
251.02168698666819
 31
0.0
 11
269.07846855410702
 21
250.9987857913199
 31
0.0
 11
269.04545240068313
 21
250.96965176717623
 31
0.0
 11
269.01757527301453
 21
250.94083858281539
 31
0.0
 11
269.00788723081035
 21
250.92862999921869
 31
0.0
 11
268.99905826844969
 21
250.91563785238699
 31
0.0
 11
268.97603948951996
 21
250.87795409774299
 31
0.0
 11
268.95409586425183
 21
250.83531805783093
 31
0.0
 11
268.94223064323023
 21
250.7974881419037
 31
0.0
 11
268.93867511421831
 21
250.7465715619042
 31
0.0
  0
SPLINE
  5
369
100
AcDbEntity
  8
1
  6
CONTINUOUS
 62
           2
100
AcDbSpline
210
0.0
220
0.0
230
1.0
 70
           0
 71
           4
 72
          14
 73
          10
 74
          15
 42
0.00000000001
 43
0.00000000001
 44
0.00000000001
 40
0.0
 40
0.0
 40
0.0
 40
0.0
 40
0.0766013956549447
 40
0.1476680744765543
 40
0.1836448229156479
 40
0.2548731578656824
 40
0.29080959758411
 40
0.3601897482023683
 40
0.4316598834374006
 40
0.4316598834374006
 40
0.4316598834374006
 40
0.4316598834374006
 10
269.3780452746405
 20
253.27595246301061
 30
0.0
 10
269.37791697108969
 20
253.31161889522579
 30
0.0
 10
269.37095782820103
 20
253.35195774335881
 30
0.0
 10
269.34444946070607
 20
253.41789543585321
 30
0.0
 10
269.32454072905881
 20
253.44786156393889
 30
0.0
 10
269.27431313586521
 20
253.49836566854171
 30
0.0
 10
269.24448573972768
 20
253.51840947405091
 30
0.0
 10
269.17881061737722
 20
253.54077872982899
 30
0.0
 10
269.14360550742458
 20
253.54784872507031
 30
0.0
 10
269.1080434030082
 20
253.54789408769719
 30
0.0
 11
269.3780452746405
 21
253.27595246301061
 31
0.0
 11
269.3751938769289
 21
253.32066551693333
 31
0.0
 11
269.36683387989768
 21
253.35688213075358
 31
0.0
 11
269.35454869041439
 21
253.39146066520632
 31
0.0
 11
269.34092577401998
 21
253.42148480201834
 31
0.0
 11
269.33419247847087
 21
253.43285508542368
 31
0.0
 11
269.32558932497477
 21
253.44416640149376
 31
0.0
 11
269.29908145147829
 21
253.47279744652445
 31
0.0
 11
269.27054312442129
 21
253.49948880732094
 31
0.0
 11
269.25920692828271
 21
253.50815195098815
 31
0.0
 11
269.24765243140456
 21
253.5147718789724
 31
0.0
 11
269.21761050500538
 21
253.52709417753536
 31
0.0
 11
269.18374092481974
 21
253.5379054252775
 31
0.0
 11
269.1508760769326
 21
253.54526618875383
 31
0.0
 11
269.1080434030082
 21
253.54789408769719
 31
0.0
  0
SPLINE
  5
368
100
AcDbEntity
  8
1
  6
CONTINUOUS
 62
           2
100
AcDbSpline
210
0.0
220
0.0
230
1.0
 70
           0
 71
           4
 72
          10
 73
           6
 74
           7
 42
0.00000000001
 43
0.00000000001
 44
0.00000000001
 40
0.0
 40
0.0
 40
0.0
 40
0.0
 40
0.0995425485769264
 40
0.1988450000716915
 40
0.2983295755802565
 40
0.2983295755802565
 40
0.2983295755802565
 40
0.2983295755802565
 10
268.33546834728492
 20
241.05340849470579
 30
0.0
 10
268.3354675080509
 20
241.00374690981141
 30
0.0
 10
268.34210279207451
 20
240.9543092364932
 30
0.0
 10
268.36829120460328
 20
240.8585222649256
 30
0.0
 10
268.38772625615411
 20
240.81260484600131
 30
0.0
 10
268.41298312307657
 20
240.76988975844731
 30
0.0
 11
268.33546834728492
 21
241.05340849470579
 31
0.0
 11
268.33788258572491
 21
240.99403537337056
 31
0.0
 11
268.34482234642894
 21
240.95063908427437
 31
0.0
 11
268.35559876499292
 21
240.90651593163395
 31
0.0
 11
268.36877051624555
 21
240.86304970611786
 31
0.0
 11
268.38486648625155
 21
240.82218847145668
 31
0.0
 11
268.41298312307657
 21
240.76988975844731
 31
0.0
  0
SPLINE
  5
367
100
AcDbEntity
  8
1
  6
CONTINUOUS
 62
           2
100
AcDbSpline
210
0.0
220
0.0
230
1.0
 70
           0
 71
           4
 72
           8
 73
           4
 74
           3
 42
0.00000000001
 43
0.00000000001
 44
0.00000000001
 40
0.0
 40
0.0
 40
0.0
 40
0.0
 40
0.076830349261837
 40
0.076830349261837
 40
0.076830349261837
 40
0.076830349261837
 10
266.2233983768474
 20
240.42601032357231
 30
0.0
 10
266.22335359216601
 20
240.40039170624621
 30
0.0
 10
266.22542526868352
 20
240.37481529840571
 30
0.0
 10
266.22912290429298
 20
240.34953274214021
 30
0.0
 11
266.2233983768474
 21
240.42601032357231
 31
0.0
 11
266.22485723296114
 21
240.38764550995853
 31
0.0
 11
266.22912290429298
 21
240.34953274214021
 31
0.0
  0
SPLINE
  5
366
100
AcDbEntity
  8
1
  6
CONTINUOUS
 62
           2
100
AcDbSpline
210
0.0
220
0.0
230
1.0
 70
           0
 71
           4
 72
          12
 73
           8
 74
          11
 42
0.00000000001
 43
0.00000000001
 44
0.00000000001
 40
0.0
 40
0.0
 40
0.0
 40
0.0
 40
0.085809378945301
 40
0.1712508952797343
 40
0.2144336988251192
 40
0.2999675269594312
 40
0.3861545188671287
 40
0.3861545188671287
 40
0.3861545188671287
 40
0.3861545188671287
 10
269.14637357983071
 20
254.8516981139442
 30
0.0
 10
269.10636294560481
 20
254.83685156771341
 30
0.0
 10
269.06977711233691
 20
254.8140056697458
 30
0.0
 10
269.00789739299398
 20
254.75508917759319
 30
0.0
 10
268.98324829396512
 20
254.71963249360971
 30
0.0
 10
268.94952457372528
 20
254.64102749091589
 30
0.0
 10
268.94004215050251
 20
254.59869823680521
 30
0.0
 10
268.93865475194389
 20
254.55591209298001
 30
0.0
 11
269.14637357983071
 21
254.8516981139442
 31
0.0
 11
269.09950390219007
 21
254.83079301766514
 31
0.0
 11
269.06647659854497
 21
254.80787908067049
 31
0.0
 11
269.03351825165669
 21
254.77871298488816
 31
0.0
 11
269.00554850129322
 21
254.7496757081982
 31
0.0
 11
268.99581678391951
 21
254.73720379967142
 31
0.0
 11
268.98751683457215
 21
254.72374382528477
 31
0.0
 11
268.97000510573491
 21
254.68740753209161
 31
0.0
 11
268.95396013000516
 21
254.64634772945996
 31
0.0
 11
268.94339319016888
 21
254.60727307901911
 31
0.0
 11
268.93865475194389
 21
254.55591209298001
 31
0.0
  0
SPLINE
  5
365
100
AcDbEntity
  8
1
  6
CONTINUOUS
 62
           2
100
AcDbSpline
210
0.0
220
0.0
230
1.0
 70
           0
 71
           4
 72
          14
 73
          10
 74
          15
 42
0.00000000001
 43
0.00000000001
 44
0.00000000001
 40
0.0
 40
0.0
 40
0.0
 40
0.0
 40
0.0517195102073351
 40
0.1031418487413718
 40
0.1290955576060401
 40
0.1804823310159553
 40
0.2064285692915251
 40
0.2578236388546433
 40
0.3095061818437604
 40
0.3095061818437604
 40
0.3095061818437604
 40
0.3095061818437604
 10
267.99063181093061
 20
253.4664367096623
 30
0.0
 10
267.97520437408178
 20
253.4870413354929
 30
0.0
 10
267.95583069558461
 20
253.50434990668779
 30
0.0
 10
267.91146285140081
 20
253.53034512360921
 30
0.0
 10
267.88691474806592
 20
253.53877042042839
 30
0.0
 10
267.83596899179469
 20
253.5454883367299
 30
0.0
 10
267.81008353376552
 20
253.54371341609141
 30
0.0
 10
267.76052310548448
 20
253.5301039662863
 30
0.0
 10
267.73734640242537
 20
253.51840626286159
 30
0.0
 10
267.71713220324767
 20
253.50250148928939
 30
0.0
 11
267.99063181093061
 21
253.4664367096623
 31
0.0
 11
267.97055586380105
 21
253.48999903458244
 31
0.0
 11
267.95173310172135
 21
253.50526989322105
 31
0.0
 11
267.92937345203654
 21
253.519468520853
 31
0.0
 11
267.90793961484752
 21
253.53082825683498
 31
0.0
 11
267.89902250525614
 21
253.53441059118899
 31
0.0
 11
267.88912796983675
 21
253.53710285919954
 31
0.0
 11
267.86139559007722
 21
253.54179148902287
 31
0.0
 11
267.83339658571219
 21
253.54445132381539
 31
0.0
 11
267.82314586686556
 21
253.54441538910157
 31
0.0
 11
267.81360776780269
 21
253.543266187368
 31
0.0
 11
267.78997500486008
 21
253.53784893883315
 31
0.0
 11
267.76471499286788
 21
253.52992917151101
 31
0.0
 11
267.74259845270115
 21
253.52005796609268
 31
0.0
 11
267.71713220324767
 21
253.50250148928939
 31
0.0
  0
SPLINE
  5
364
100
AcDbEntity
  8
1
  6
CONTINUOUS
 62
           2
100
AcDbSpline
210
0.0
220
0.0
230
1.0
 70
           0
 71
           4
 72
          14
 73
          10
 74
          15
 42
0.00000000001
 43
0.00000000001
 44
0.00000000001
 40
0.0
 40
0.0
 40
0.0
 40
0.0
 40
0.0063280227327786
 40
0.0126378615436188
 40
0.0158163372822422
 40
0.0221322421232365
 40
0.0253135651189738
 40
0.0316340881814913
 40
0.0379778110511628
 40
0.0379778110511628
 40
0.0379778110511628
 40
0.0379778110511628
 10
268.02914098040952
 20
246.16598352611791
 30
0.0
 10
268.03215285785558
 20
246.16691447144089
 30
0.0
 10
268.0349878661882
 20
246.16834515836851
 30
0.0
 10
268.04006843674512
 20
246.17208706545381
 30
0.0
 10
268.0422780841032
 20
246.17437183383899
 30
0.0
 10
268.04585238877507
 20
246.17957904039079
 30
0.0
 10
268.04719177910829
 20
246.182464668492
 30
0.0
 10
268.04886367636072
 20
246.18856005784471
 30
0.0
 10
268.04918436453409
 20
246.19172673041169
 30
0.0
 10
268.04897646094918
 20
246.19488073933871
 30
0.0
 11
268.02914098040952
 21
246.16598352611791
 31
0.0
 11
268.03270196580007
 21
246.16729470282462
 31
0.0
 11
268.03529896765303
 21
246.16873814963736
 31
0.0
 11
268.03797701066037
 21
246.17058900100255
 31
0.0
 11
268.04031308847829
 21
246.17244178082922
 31
0.0
 11
268.04116760137572
 21
246.17325217581657
 31
0.0
 11
268.04199070432639
 21
246.17420155866802
 31
0.0
 11
268.04403590861023
 21
246.17699477329114
 31
0.0
 11
268.04590755453575
 21
246.17990751395024
 31
0.0
 11
268.04649838009766
 21
246.18101793972068
 31
0.0
 11
268.04694815575914
 21
246.18210740466969
 31
0.0
 11
268.04784022268746
 21
246.18495731952348
 31
0.0
 11
268.04860827249075
 21
246.18812645810408
 31
0.0
 11
268.04902612589683
 21
246.1910761086819
 31
0.0
 11
268.04897646094918
 21
246.19488073933871
 31
0.0
  0
SPLINE
  5
363
100
AcDbEntity
  8
1
  6
CONTINUOUS
 62
           2
100
AcDbSpline
210
0.0
220
0.0
230
1.0
 70
           0
 71
           4
 72
          12
 73
           8
 74
          11
 42
0.00000000001
 43
0.00000000001
 44
0.00000000001
 40
0.0
 40
0.0
 40
0.0
 40
0.0
 40
0.0937642110930476
 40
0.187119502896656
 40
0.2343116816342629
 40
0.3277651391647686
 40
0.4092316755161538
 40
0.4092316755161538
 40
0.4092316755161538
 40
0.4092316755161538
 10
266.43396507162288
 20
246.76376825655601
 30
0.0
 10
266.39087689615138
 20
246.74595019412689
 30
0.0
 10
266.3518945914912
 20
246.71944925943171
 30
0.0
 10
266.28697191712757
 20
246.65236530560361
 30
0.0
 10
266.26172230173319
 20
246.61249603602869
 30
0.0
 10
266.22877512697869
 20
246.52504300634931
 30
0.0
 10
266.22142811391222
 20
246.47838971557019
 30
0.0
 10
266.22376331520172
 20
246.44423116329941
 30
0.0
 11
266.43396507162288
 21
246.76376825655601
 31
0.0
 11
266.383650553336
 21
246.73902811671468
 31
0.0
 11
266.34857921939289
 21
246.71259378467724
 31
0.0
 11
266.31389223858127
 21
246.67929666593588
 31
0.0
 11
266.28467145725597
 21
246.64633687598888
 31
0.0
 11
266.27460746676218
 21
246.63222654891359
 31
0.0
 11
266.26607384286137
 21
246.61684131375222
 31
0.0
 11
266.24814057698933
 21
246.57457609063698
 31
0.0
 11
266.23230614973284
 21
246.52666538356308
 31
0.0
 11
266.22436293169983
 21
246.48830239873138
 31
0.0
 11
266.22376331520172
 21
246.44423116329941
 31
0.0
  0
SPLINE
  5
362
100
AcDbEntity
  8
1
  6
CONTINUOUS
 62
           2
100
AcDbSpline
210
0.0
220
0.0
230
1.0
 70
           0
 71
           4
 72
          10
 73
           6
 74
           7
 42
0.00000000001
 43
0.00000000001
 44
0.00000000001
 40
0.0
 40
0.0
 40
0.0
 40
0.0
 40
0.0524675629963222
 40
0.1147113167572141
 40
0.1770605295349789
 40
0.1770605295349789
 40
0.1770605295349789
 40
0.1770605295349789
 10
266.6566017859268
 20
253.13823412230079
 30
0.0
 10
266.65642292170378
 20
253.1071070077094
 30
0.0
 10
266.66024014247893
 20
253.0861112550333
 30
0.0
 10
266.67567850797968
 20
253.025812484292
 30
0.0
 10
266.68723544930162
 20
252.99678517060281
 30
0.0
 10
266.70234518837418
 20
252.96959565838171
 30
0.0
 11
266.6566017859268
 21
253.13823412230079
 31
0.0
 11
266.65769823292334
 21
253.10452336448049
 31
0.0
 11
266.66120869598217
 21
253.08412035406315
 31
0.0
 11
266.66777777331976
 21
253.05739760884541
 31
0.0
 11
266.67584235900421
 21
253.02919357604208
 31
0.0
 11
266.68553126975263
 21
253.00288476036064
 31
0.0
 11
266.70234518837418
 21
252.96959565838171
 31
0.0
  0
SPLINE
  5
361
100
AcDbEntity
  8
1
  6
CONTINUOUS
 62
           2
100
AcDbSpline
210
0.0
220
0.0
230
1.0
 70
           0
 71
           4
 72
          14
 73
          10
 74
          15
 42
0.00000000001
 43
0.00000000001
 44
0.00000000001
 40
0.0
 40
0.0
 40
0.0
 40
0.0
 40
0.0376759567427066
 40
0.0751465119042569
 40
0.0940466047481273
 40
0.1314849145631717
 40
0.1503748648947128
 40
0.1878081943488607
 40
0.2254328570449474
 40
0.2254328570449474
 40
0.2254328570449474
 40
0.2254328570449474
 10
266.70234518837418
 20
252.96959565838171
 30
0.0
 10
266.71200191056232
 20
252.95351678555741
 30
0.0
 10
266.72467244327709
 20
252.93946589555779
 30
0.0
 10
266.75464087490218
 20
252.9169728830862
 30
0.0
 10
266.77165531065879
 20
252.90874351583281
 30
0.0
 10
266.80786431072192
 20
252.8992285089366
 30
0.0
 10
266.82671638405549
 20
252.89803286912709
 30
0.0
 10
266.86383228368408
 20
252.9028974501762
 30
0.0
 10
266.88174504089278
 20
252.90891165830021
 30
0.0
 10
266.89802281185888
 20
252.91817546081671
 30
0.0
 11
266.70234518837418
 21
252.96959565838171
 31
0.0
 11
266.71511946614481
 21
252.95100051220541
 31
0.0
 11
266.72754132887223
 21
252.93844166987833
 31
0.0
 11
266.74257118515402
 21
252.92632370990248
 31
0.0
 11
266.75713912262859
 21
252.91630347524551
 31
0.0
 11
266.76328000222099
 21
252.91294602800221
 31
0.0
 11
266.770194793126
 21
252.91012403815961
 31
0.0
 11
266.78982332949329
 21
252.90421858811519
 31
0.0
 11
266.80981833325933
 21
252.89971244097853
 31
0.0
 11
266.81722256232052
 21
252.8987718187004
 31
0.0
 11
266.8242170768599
 21
252.89867816496073
 31
0.0
 11
266.84181189254235
 21
252.90024695851878
 31
0.0
 11
266.86083656049686
 21
252.90341676952715
 31
0.0
 11
266.87779899859282
 21
252.90825223392278
 31
0.0
 11
266.89802281185888
 21
252.91817546081671
 31
0.0
  0
SPLINE
  5
360
100
AcDbEntity
  8
1
  6
CONTINUOUS
 62
           2
100
AcDbSpline
210
0.0
220
0.0
230
1.0
 70
           0
 71
           4
 72
          10
 73
           6
 74
           7
 42
0.00000000001
 43
0.00000000001
 44
0.00000000001
 40
0.0
 40
0.0
 40
0.0
 40
0.0
 40
0.048633162039662
 40
0.0970917069266688
 40
0.1457991797615977
 40
0.1457991797615977
 40
0.1457991797615977
 40
0.1457991797615977
 10
266.89802281185888
 20
252.91817546081671
 30
0.0
 10
266.91974840964122
 20
252.92884523144639
 30
0.0
 10
266.93927736247588
 20
252.94352146595841
 30
0.0
 10
266.97190122558283
 20
252.97935321345341
 30
0.0
 10
266.98470477280631
 20
253.0001887138387
 30
0.0
 10
266.99333095786642
 20
253.022855198185
 30
0.0
 11
266.89802281185888
 21
252.91817546081671
 31
0.0
 11
266.9232153611274
 21
252.93239415009333
 31
0.0
 11
266.93986350651733
 21
252.94585240718965
 31
0.0
 11
266.95537147433117
 21
252.96161956997827
 31
0.0
 11
266.96962240706029
 21
252.97853490247985
 31
0.0
 11
266.98149093489354
 21
252.99639863324433
 31
0.0
 11
266.99333095786642
 21
253.022855198185
 31
0.0
  0
SPLINE
  5
35F
100
AcDbEntity
  8
1
  6
CONTINUOUS
 62
           2
100
AcDbSpline
210
0.0
220
0.0
230
1.0
 70
           0
 71
           4
 72
           8
 73
           4
 74
           3
 42
0.00000000001
 43
0.00000000001
 44
0.00000000001
 40
0.0
 40
0.0
 40
0.0
 40
0.0
 40
0.4722138145662186
 40
0.4722138145662186
 40
0.4722138145662186
 40
0.4722138145662186
 10
266.99333095786642
 20
253.022855198185
 30
0.0
 10
267.04496396851482
 20
253.16479631375731
 30
0.0
 10
267.08778700561379
 20
253.31963110301089
 30
0.0
 10
267.12158539219951
 20
253.47655842564521
 30
0.0
 11
266.99333095786642
 21
253.022855198185
 31
0.0
 11
267.06414615905646
 21
253.24408698426686
 31
0.0
 11
267.12158539219951
 21
253.47655842564521
 31
0.0
  0
SPLINE
  5
35E
100
AcDbEntity
  8
1
  6
CONTINUOUS
 62
           2
100
AcDbSpline
210
0.0
220
0.0
230
1.0
 70
           0
 71
           4
 72
           8
 73
           4
 74
           3
 42
0.00000000001
 43
0.00000000001
 44
0.00000000001
 40
0.0
 40
0.0
 40
0.0
 40
0.0
 40
0.507626027678907
 40
0.507626027678907
 40
0.507626027678907
 40
0.507626027678907
 10
267.30840779939439
 20
253.94147990408729
 30
0.0
 10
267.21603186496441
 20
253.80045293134711
 30
0.0
 10
267.15252692715239
 20
253.6424161625296
 30
0.0
 10
267.12158539219951
 20
253.47655842564521
 30
0.0
 11
267.30840779939439
 21
253.94147990408729
 31
0.0
 11
267.19195869599304
 21
253.71833070142031
 31
0.0
 11
267.12158539219951
 21
253.47655842564521
 31
0.0
  0
SPLINE
  5
35D
100
AcDbEntity
  8
1
  6
CONTINUOUS
 62
           2
100
AcDbSpline
210
0.0
220
0.0
230
1.0
 70
           0
 71
           4
 72
          10
 73
           6
 74
           7
 42
0.00000000001
 43
0.00000000001
 44
0.00000000001
 40
0.0
 40
0.0
 40
0.0
 40
0.0
 40
0.1559730615178019
 40
0.311290505017964
 40
0.4674798071735684
 40
0.4674798071735684
 40
0.4674798071735684
 40
0.4674798071735684
 10
267.69990892249461
 20
254.16872345705411
 30
0.0
 10
267.6229919594025
 20
254.15841137051439
 30
0.0
 10
267.54884401854628
 20
254.13304183369661
 30
0.0
 10
267.41451533998952
 20
254.05507187555489
 30
0.0
 10
267.3556426018045
 20
254.0032306716119
 30
0.0
 10
267.30840779939439
 20
253.94147990408729
 30
0.0
 11
267.69990892249461
 21
254.16872345705411
 31
0.0
 11
267.60890639642503
 21
254.15092251952757
 31
0.0
 11
267.5448466514888
 21
254.12632292858962
 31
0.0
 11
267.48218669912694
 21
254.09325224645409
 31
0.0
 11
267.42238245795937
 21
254.05524571634703
 31
0.0
 11
267.36915026735454
 21
254.01176113739396
 31
0.0
 11
267.30840779939439
 21
253.94147990408729
 31
0.0
  0
SPLINE
  5
35C
100
AcDbEntity
  8
1
  6
CONTINUOUS
 62
           2
100
AcDbSpline
210
0.0
220
0.0
230
1.0
 70
           0
 71
           4
 72
          10
 73
           6
 74
           7
 42
0.00000000001
 43
0.00000000001
 44
0.00000000001
 40
0.0
 40
0.0
 40
0.0
 40
0.0
 40
0.1141619279866656
 40
0.2281194006131699
 40
0.3422684299824291
 40
0.3422684299824291
 40
0.3422684299824291
 40
0.3422684299824291
 10
268.03779801256269
 20
254.1482178320756
 30
0.0
 10
267.98319638943389
 20
254.16454890753519
 30
0.0
 10
267.92690554955021
 20
254.17453834934341
 30
0.0
 10
267.81315734977761
 20
254.1814414367623
 30
0.0
 10
267.75607601144662
 20
254.17833226258529
 30
0.0
 10
267.69990892249461
 20
254.16872345705411
 30
0.0
 11
268.03779801256269
 21
254.1482178320756
 31
0.0
 11
267.9718037978227
 21
254.165463326283
 31
0.0
 11
267.9219659704786
 21
254.1731977404896
 31
0.0
 11
267.87000457985744
 21
254.17758140570305
 31
0.0
 11
267.81789483043053
 21
254.17951336637486
 31
0.0
 11
267.76749421647486
 21
254.17786225958594
 31
0.0
 11
267.69990892249461
 21
254.16872345705411
 31
0.0
  0
SPLINE
  5
35B
100
AcDbEntity
  8
1
  6
CONTINUOUS
 62
           2
100
AcDbSpline
210
0.0
220
0.0
230
1.0
 70
           0
 71
           4
 72
          10
 73
           6
 74
           7
 42
0.00000000001
 43
0.00000000001
 44
0.00000000001
 40
0.0
 40
0.0
 40
0.0
 40
0.0
 40
0.1042404787534343
 40
0.2081904695483479
 40
0.3123199402239541
 40
0.3123199402239541
 40
0.3123199402239541
 40
0.3123199402239541
 10
268.28835588475249
 20
253.96958838638849
 30
0.0
 10
268.25545440085631
 20
254.00987553419151
 30
0.0
 10
268.2173382742958
 20
254.04557791260689
 30
0.0
 10
268.1326963236188
 20
254.10592143563841
 30
0.0
 10
268.08654904156077
 20
254.13029270744099
 30
0.0
 10
268.03779801256269
 20
254.1482178320756
 30
0.0
 11
268.28835588475249
 21
253.96958838638849
 31
0.0
 11
268.24706552778258
 21
254.01615391555129
 31
0.0
 11
268.2126958973023
 21
254.04676144200937
 31
0.0
 11
268.17475138625866
 21
254.07540743029008
 31
0.0
 11
268.13530165205282
 21
254.10193561176351
 31
0.0
 11
268.0952093179859
 21
254.12441515605687
 31
0.0
 11
268.03779801256269
 21
254.1482178320756
 31
0.0
  0
SPLINE
  5
35A
100
AcDbEntity
  8
1
  6
CONTINUOUS
 62
           2
100
AcDbSpline
210
0.0
220
0.0
230
1.0
 70
           0
 71
           4
 72
           8
 73
           4
 74
           3
 42
0.00000000001
 43
0.00000000001
 44
0.00000000001
 40
0.0
 40
0.0
 40
0.0
 40
0.0
 40
0.3727073403647251
 40
0.3727073403647251
 40
0.3727073403647251
 40
0.3727073403647251
 10
268.44570158991519
 20
253.63756606105349
 30
0.0
 10
268.41679453396142
 20
253.7579919223308
 30
0.0
 10
268.36320909267221
 20
253.87106499796781
 30
0.0
 10
268.28835588475249
 20
253.96958838638849
 30
0.0
 11
268.44570158991519
 21
253.63756606105349
 31
0.0
 11
268.38425854432109
 21
253.81179065104223
 31
0.0
 11
268.28835588475249
 21
253.96958838638849
 31
0.0
  0
SPLINE
  5
359
100
AcDbEntity
  8
1
  6
CONTINUOUS
 62
           2
100
AcDbSpline
210
0.0
220
0.0
230
1.0
 70
           0
 71
           4
 72
           8
 73
           4
 74
           3
 42
0.00000000001
 43
0.00000000001
 44
0.00000000001
 40
0.0
 40
0.0
 40
0.0
 40
0.0
 40
0.3239944216019098
 40
0.3239944216019098
 40
0.3239944216019098
 40
0.3239944216019098
 10
268.4951423033699
 20
253.31827972362979
 30
0.0
 10
268.48844011211582
 20
253.42600194159201
 30
0.0
 10
268.47189040468538
 20
253.5328793529732
 30
0.0
 10
268.44570158991519
 20
253.63756606105349
 30
0.0
 11
268.4951423033699
 21
253.31827972362979
 31
0.0
 11
268.47772943046107
 21
253.47906120854739
 31
0.0
 11
268.44570158991519
 21
253.63756606105349
 31
0.0
  0
SPLINE
  5
358
100
AcDbEntity
  8
1
  6
CONTINUOUS
 62
           2
100
AcDbSpline
210
0.0
220
0.0
230
1.0
 70
           0
 71
           4
 72
           8
 73
           4
 74
           3
 42
0.00000000001
 43
0.00000000001
 44
0.00000000001
 40
0.0
 40
0.0
 40
0.0
 40
0.0
 40
0.2270056762408222
 40
0.2270056762408222
 40
0.2270056762408222
 40
0.2270056762408222
 10
268.05064214791901
 20
253.25109825754521
 30
0.0
 10
268.04703435632518
 20
253.32780633739901
 30
0.0
 10
268.02565544352319
 20
253.39734878967971
 30
0.0
 10
267.99063181093061
 20
253.4664367096623
 30
0.0
 11
268.05064214791901
 21
253.25109825754521
 31
0.0
 11
268.03241791979934
 21
253.36162504355545
 31
0.0
 11
267.99063181093061
 21
253.4664367096623
 31
0.0
  0
SPLINE
  5
357
100
AcDbEntity
  8
1
  6
CONTINUOUS
 62
           2
100
AcDbSpline
210
0.0
220
0.0
230
1.0
 70
           0
 71
           4
 72
          10
 73
           6
 74
           7
 42
0.00000000001
 43
0.00000000001
 44
0.00000000001
 40
0.0
 40
0.0
 40
0.0
 40
0.0
 40
0.0605084027251693
 40
0.1261968932363283
 40
0.1867706075432417
 40
0.1867706075432417
 40
0.1867706075432417
 40
0.1867706075432417
 10
267.71713220324767
 20
253.50250148928939
 30
0.0
 10
267.69408156179628
 20
253.48302633463541
 30
0.0
 10
267.6738247259832
 20
253.46044996654379
 30
0.0
 10
267.64004832848508
 20
253.40411052425259
 30
0.0
 10
267.62669071783557
 20
253.37685312951911
 30
0.0
 10
267.61724274623521
 20
253.34814875586349
 30
0.0
 11
267.71713220324767
 21
253.50250148928939
 31
0.0
 11
267.69081875802135
 21
253.47825004281086
 31
0.0
 11
267.67406650015187
 21
253.45781533673409
 31
0.0
 11
267.65717616480379
 21
253.43213184629718
 31
0.0
 11
267.64168822119444
 21
253.40549885744542
 31
0.0
 11
267.6297875039977
 21
253.38174952764561
 31
0.0
 11
267.61724274623521
 21
253.34814875586349
 31
0.0
  0
SPLINE
  5
356
100
AcDbEntity
  8
1
  6
CONTINUOUS
 62
           2
100
AcDbSpline
210
0.0
220
0.0
230
1.0
 70
           0
 71
           4
 72
           8
 73
           4
 74
           3
 42
0.00000000001
 43
0.00000000001
 44
0.00000000001
 40
0.0
 40
0.0
 40
0.0
 40
0.0
 40
0.3414981059825281
 40
0.3414981059825281
 40
0.3414981059825281
 40
0.3414981059825281
 10
267.61724274623521
 20
253.34814875586349
 30
0.0
 10
267.58002514295907
 20
253.23948381917791
 30
0.0
 10
267.5510228096914
 20
253.13304698298529
 30
0.0
 10
267.53050593499569
 20
253.0185517712371
 30
0.0
 11
267.61724274623521
 21
253.34814875586349
 31
0.0
 11
267.56761156739776
 21
253.18553661669876
 31
0.0
 11
267.53050593499569
 21
253.0185517712371
 31
0.0
  0
SPLINE
  5
355
100
AcDbEntity
  8
1
  6
CONTINUOUS
 62
           2
100
AcDbSpline
210
0.0
220
0.0
230
1.0
 70
           0
 71
           4
 72
           8
 73
           4
 74
           3
 42
0.00000000001
 43
0.00000000001
 44
0.00000000001
 40
0.0
 40
0.0
 40
0.0
 40
0.0
 40
0.4640024011697389
 40
0.4640024011697389
 40
0.4640024011697389
 40
0.4640024011697389
 10
267.37585950788429
 20
252.5829420932578
 30
0.0
 10
267.44035035777779
 20
252.71595973245451
 30
0.0
 10
267.49208497996102
 20
252.8604648608696
 30
0.0
 10
267.53050593499569
 20
253.0185517712371
 30
0.0
 11
267.37585950788429
 21
252.5829420932578
 31
0.0
 11
267.46295893201204
 21
252.7913459555584
 31
0.0
 11
267.53050593499569
 21
253.0185517712371
 31
0.0
  0
SPLINE
  5
354
100
AcDbEntity
  8
1
  6
CONTINUOUS
 62
           2
100
AcDbSpline
210
0.0
220
0.0
230
1.0
 70
           0
 71
           4
 72
           8
 73
           4
 74
           3
 42
0.00000000001
 43
0.00000000001
 44
0.00000000001
 40
0.0
 40
0.0
 40
0.0
 40
0.0
 40
0.265330033397332
 40
0.265330033397332
 40
0.265330033397332
 40
0.265330033397332
 10
266.25044960446758
 20
252.79092745779579
 30
0.0
 10
266.26964789636901
 20
252.69442320000141
 30
0.0
 10
266.30526099790723
 20
252.63578595631449
 30
0.0
 10
266.3557297038497
 20
252.55139594914189
 30
0.0
 11
266.25044960446758
 21
252.79092745779579
 31
0.0
 11
266.29136324889328
 21
252.66661885948565
 31
0.0
 11
266.3557297038497
 21
252.55139594914189
 31
0.0
  0
SPLINE
  5
353
100
AcDbEntity
  8
1
  6
CONTINUOUS
 62
           2
100
AcDbSpline
210
0.0
220
0.0
230
1.0
 70
           0
 71
           4
 72
           8
 73
           4
 74
           3
 42
0.00000000001
 43
0.00000000001
 44
0.00000000001
 40
0.0
 40
0.0
 40
0.0
 40
0.0
 40
0.3507391087578107
 40
0.3507391087578107
 40
0.3507391087578107
 40
0.3507391087578107
 10
266.22368667942777
 20
253.13965273865981
 30
0.0
 10
266.2219236420674
 20
253.0228359820787
 30
0.0
 10
266.23080845461851
 20
252.90608821434751
 30
0.0
 10
266.25044960446758
 20
252.79092745779579
 30
0.0
 11
266.22368667942777
 21
253.13965273865981
 31
0.0
 11
266.22904157174406
 21
252.96466909821672
 31
0.0
 11
266.25044960446758
 21
252.79092745779579
 31
0.0
  0
SPLINE
  5
352
100
AcDbEntity
  8
1
  6
CONTINUOUS
 62
           2
100
AcDbSpline
210
0.0
220
0.0
230
1.0
 70
           0
 71
           4
 72
          14
 73
          10
 74
          15
 42
0.00000000001
 43
0.00000000001
 44
0.00000000001
 40
0.0
 40
0.0
 40
0.0
 40
0.0
 40
0.0705740578363526
 40
0.1407961933773588
 40
0.1762160345101063
 40
0.2463667586670483
 40
0.2817476071170761
 40
0.3518265448189218
 40
0.4222079013271671
 40
0.4222079013271671
 40
0.4222079013271671
 40
0.4222079013271671
 10
266.65192969688587
 20
255.92244118939411
 30
0.0
 10
266.65161769024331
 20
255.95756622144151
 30
0.0
 10
266.64453772393699
 20
255.99229962415791
 30
0.0
 10
266.61762149669448
 20
256.05715843258798
 30
0.0
 10
266.5980388930389
 20
256.08667261189112
 30
0.0
 10
266.54878108335652
 20
256.13662050759291
 30
0.0
 10
266.51957008064937
 20
256.1565835173331
 30
0.0
 10
266.45520050768658
 20
256.18428939371353
 30
0.0
 10
266.42064855330858
 20
256.19177116145647
 30
0.0
 10
266.38563180471471
 20
256.19268390526901
 30
0.0
 11
266.65192969688587
 21
255.92244118939411
 31
0.0
 11
266.64898560139716
 21
255.96459360364435
 31
0.0
 11
266.64089546702149
 21
255.99667998200894
 31
0.0
 11
266.6281874855373
 21
256.03056193265041
 31
0.0
 11
266.61423571313924
 21
256.06062428620947
 31
0.0
 11
266.6075339551324
 21
256.07190136468591
 31
0.0
 11
266.59907862354748
 21
256.08305752965066
 31
0.0
 11
266.57308342207244
 21
256.11133705410526
 31
0.0
 11
266.54516970376523
 21
256.13771809210562
 31
0.0
 11
266.53414479646858
 21
256.14631433360574
 31
0.0
 11
266.52297099878183
 21
256.15316002039174
 31
0.0
 11
266.49315373259822
 21
256.16747870577802
 31
0.0
 11
266.45950954381965
 21
256.18059513941733
 31
0.0
 11
266.42762152354561
 21
256.1890823998524
 31
0.0
 11
266.38563180471471
 21
256.19268390526901
 31
0.0
  0
SPLINE
  5
351
100
AcDbEntity
  8
1
  6
CONTINUOUS
 62
           2
100
AcDbSpline
210
0.0
220
0.0
230
1.0
 70
           0
 71
           4
 72
           8
 73
           4
 74
           3
 42
0.00000000001
 43
0.00000000001
 44
0.00000000001
 40
0.0
 40
0.0
 40
0.0
 40
0.0
 40
1.1136535620558714
 40
1.1136535620558714
 40
1.1136535620558714
 40
1.1136535620558714
 10
266.49908805359058
 20
239.65559677213861
 30
0.0
 10
266.70603309766881
 20
239.3659887213694
 30
0.0
 10
266.96838779421017
 20
239.0792147896436
 30
0.0
 10
267.27330923767482
 20
238.87135569718501
 30
0.0
 11
266.49908805359058
 21
239.65559677213861
 31
0.0
 11
266.84945749586279
 21
239.23282037529535
 31
0.0
 11
267.27330923767482
 21
238.87135569718501
 31
0.0
  0
SPLINE
  5
350
100
AcDbEntity
  8
1
  6
CONTINUOUS
 62
           2
100
AcDbSpline
210
0.0
220
0.0
230
1.0
 70
           0
 71
           4
 72
           8
 73
           4
 74
           3
 42
0.00000000001
 43
0.00000000001
 44
0.00000000001
 40
0.0
 40
0.0
 40
0.0
 40
0.0
 40
0.7544074008821169
 40
0.7544074008821169
 40
0.7544074008821169
 40
0.7544074008821169
 10
266.22912290429298
 20
240.34953274214021
 30
0.0
 10
266.27182742253581
 20
240.09446493103661
 30
0.0
 10
266.36319231875768
 20
239.87519521224661
 30
0.0
 10
266.49908805359058
 20
239.65559677213861
 30
0.0
 11
266.22912290429298
 21
240.34953274214021
 31
0.0
 11
266.32915877272046
 21
239.98926374301601
 31
0.0
 11
266.49908805359058
 21
239.65559677213861
 31
0.0
  0
SPLINE
  5
34F
100
AcDbEntity
  8
1
  6
CONTINUOUS
 62
           2
100
AcDbSpline
210
0.0
220
0.0
230
1.0
 70
           0
 71
           4
 72
           8
 73
           4
 74
           3
 42
0.00000000001
 43
0.00000000001
 44
0.00000000001
 40
0.0
 40
0.0
 40
0.0
 40
0.0
 40
0.2705909097437606
 40
0.2705909097437606
 40
0.2705909097437606
 40
0.2705909097437606
 10
268.41298312307657
 20
240.76988975844731
 30
0.0
 10
268.46260726720811
 20
240.6948340045071
 30
0.0
 10
268.52599741519771
 20
240.62991649118979
 30
0.0
 10
268.59978132442978
 20
240.5785907142172
 30
0.0
 11
268.41298312307657
 21
240.76988975844731
 31
0.0
 11
268.49732231184049
 21
240.6653414949694
 31
0.0
 11
268.59978132442978
 21
240.5785907142172
 31
0.0
  0
CIRCLE
  5
34E
100
AcDbEntity
  8
1
  6
CONTINUOUS
 62
           2
100
AcDbCircle
 10
88.223368057932
 20
166.092683905269
 40
4.283
  0
CIRCLE
  5
34D
100
AcDbEntity
  8
1
  6
CONTINUOUS
 62
           7
100
AcDbCircle
 10
88.223368057932
 20
166.092683905269
 40
4.864
  0
CIRCLE
  5
34C
100
AcDbEntity
  8
1
  6
CONTINUOUS
 62
           7
100
AcDbCircle
 10
88.223368057932
 20
143.592683905269
 40
4.864
  0
CIRCLE
  5
34B
100
AcDbEntity
  8
1
  6
CONTINUOUS
 62
           2
100
AcDbCircle
 10
88.223368057932
 20
143.592683905269
 40
4.283
  0
CIRCLE
  5
34A
100
AcDbEntity
  8
1
  6
CONTINUOUS
 62
           7
100
AcDbCircle
 10
266.223368057932
 20
168.592683905269
 40
4.864
  0
CIRCLE
  5
349
100
AcDbEntity
  8
1
  6
CONTINUOUS
 62
           2
100
AcDbCircle
 10
266.223368057932
 20
168.592683905269
 40
4.283
  0
CIRCLE
  5
348
100
AcDbEntity
  8
1
  6
CONTINUOUS
 62
           7
100
AcDbCircle
 10
270.723368057932
 20
141.592683905269
 40
4.0
  0
CIRCLE
  5
347
100
AcDbEntity
  8
1
  6
CONTINUOUS
 62
           2
100
AcDbCircle
 10
270.723368057932
 20
141.592683905269
 40
3.3235
  0
CIRCLE
  5
346
100
AcDbEntity
  8
1
  6
CONTINUOUS
 62
           7
100
AcDbCircle
 10
259.623368057932
 20
66.092683905269
 40
2.0
  0
CIRCLE
  5
345
100
AcDbEntity
  8
1
  6
CONTINUOUS
 62
           7
100
AcDbCircle
 10
259.623368057932
 20
66.092683905269
 40
4.864
  0
CIRCLE
  5
344
100
AcDbEntity
  8
1
  6
CONTINUOUS
 62
           2
100
AcDbCircle
 10
259.623368057932
 20
66.092683905269
 40
4.283
  0
CIRCLE
  5
343
100
AcDbEntity
  8
1
  6
CONTINUOUS
 62
           2
100
AcDbCircle
 10
259.623368057932
 20
246.092683905269
 40
4.283
  0
CIRCLE
  5
342
100
AcDbEntity
  8
1
  6
CONTINUOUS
 62
           7
100
AcDbCircle
 10
259.623368057932
 20
246.092683905269
 40
4.864
  0
CIRCLE
  5
341
100
AcDbEntity
  8
1
  6
CONTINUOUS
 62
           7
100
AcDbCircle
 10
259.623368057932
 20
246.092683905269
 40
2.0
  0
CIRCLE
  5
340
100
AcDbEntity
  8
1
  6
CONTINUOUS
 62
           7
100
AcDbCircle
 10
177.223368057932
 20
156.092683905269
 40
18.75
  0
CIRCLE
  5
33F
100
AcDbEntity
  8
1
  6
CONTINUOUS
 62
           7
100
AcDbCircle
 10
177.223368057932
 20
156.092683905269
 40
18.2
  0
CIRCLE
  5
33E
100
AcDbEntity
  8
1
  6
CONTINUOUS
 62
           7
100
AcDbCircle
 10
177.223368057932
 20
156.092683905269
 40
15.2
  0
CIRCLE
  5
33D
100
AcDbEntity
  8
1
  6
CONTINUOUS
 62
           7
100
AcDbCircle
 10
177.223368057932
 20
156.092683905269
 40
2.895
  0
CIRCLE
  5
33C
100
AcDbEntity
  8
1
  6
CONTINUOUS
 62
           2
100
AcDbCircle
 10
177.223368057932
 20
156.092683905269
 40
3.295
  0
CIRCLE
  5
33B
100
AcDbEntity
  8
1
  6
CONTINUOUS
 62
           7
100
AcDbCircle
 10
177.223368057932
 20
156.092683905269
 40
6.792670549763
  0
CIRCLE
  5
33A
100
AcDbEntity
  8
1
  6
CONTINUOUS
 62
           2
100
AcDbCircle
 10
177.223368057932
 20
156.092683905269
 40
1.799923515531
  0
CIRCLE
  5
339
100
AcDbEntity
  8
1
  6
CONTINUOUS
 62
           2
100
AcDbCircle
 10
177.223368057932
 20
156.092683905269
 40
1.053706118544
  0
CIRCLE
  5
338
100
AcDbEntity
  8
1
  6
CONTINUOUS
 62
           2
100
AcDbCircle
 10
177.223368057932
 20
156.092683905269
 40
1.0
  0
CIRCLE
  5
337
100
AcDbEntity
  8
1
  6
CONTINUOUS
 62
           2
100
AcDbCircle
 10
177.223368057932
 20
156.092683905269
 40
0.6
  0
CIRCLE
  5
336
100
AcDbEntity
  8
1
  6
CONTINUOUS
 62
           2
100
AcDbCircle
 10
177.223368057932
 20
156.092683905269
 40
0.382454608194
  0
CIRCLE
  5
335
100
AcDbEntity
  8
1
  6
CONTINUOUS
 62
           2
100
AcDbCircle
 10
177.223368057932
 20
156.092683905269
 40
0.182049042745
  0
CIRCLE
  5
334
100
AcDbEntity
  8
1
  6
CONTINUOUS
 62
           2
100
AcDbCircle
 10
177.223368057932
 20
156.092683905269
 40
2.0
  0
CIRCLE
  5
333
100
AcDbEntity
  8
1
  6
CONTINUOUS
 62
           7
100
AcDbCircle
 10
85.223368057932
 20
156.092683905269
 40
2.0
  0
ARC
  5
332
100
AcDbEntity
  8
1
  6
CONTINUOUS
 62
           7
100
AcDbCircle
 10
74.434966002291
 20
154.413272097323
 40
25.965964878101
100
AcDbArc
 50
161.76229084485
 51
176.291667879627
  0
ARC
  5
331
100
AcDbEntity
  8
1
  6
CONTINUOUS
 62
           7
100
AcDbCircle
 10
53.526893571851
 20
170.034162515766
 40
5.003525513919
100
AcDbArc
 50
138.605638979555
 51
-138.605638979559
  0
ARC
  5
330
100
AcDbEntity
  8
1
  6
CONTINUOUS
 62
           7
100
AcDbCircle
 10
74.434966002291
 20
157.772095713215
 40
25.965964878101
100
AcDbArc
 50
-176.291667879628
 51
-161.76229084485
  0
ARC
  5
32F
100
AcDbEntity
  8
1
  6
CONTINUOUS
 62
           7
100
AcDbCircle
 10
53.526893571851
 20
142.151205294772
 40
5.003525513919
100
AcDbArc
 50
138.605638979558
 51
-138.605638979555
  0
ARC
  5
32E
100
AcDbEntity
  8
1
  6
CONTINUOUS
 62
           7
100
AcDbCircle
 10
280.011770113573
 20
244.413272097323
 40
25.965964878101
100
AcDbArc
 50
3.708332120372
 51
18.23770915515
  0
ARC
  5
32D
100
AcDbEntity
  8
1
  6
CONTINUOUS
 62
           7
100
AcDbCircle
 10
300.919842544013
 20
260.034162515766
 40
5.003525513919
100
AcDbArc
 50
-41.394361020442
 51
41.394361020446
  0
ARC
  5
32C
100
AcDbEntity
  8
1
  6
CONTINUOUS
 62
           7
100
AcDbCircle
 10
280.011770113573
 20
247.772095713215
 40
25.965964878101
100
AcDbArc
 50
-18.23770915515
 51
-3.708332120372
  0
ARC
  5
32B
100
AcDbEntity
  8
1
  6
CONTINUOUS
 62
           7
100
AcDbCircle
 10
300.919842544013
 20
232.151205294772
 40
5.003525513919
100
AcDbArc
 50
-41.394361020444
 51
41.394361020442
  0
ARC
  5
32A
100
AcDbEntity
  8
1
  6
CONTINUOUS
 62
           7
100
AcDbCircle
 10
280.011770113573
 20
154.413272097323
 40
25.965964878101
100
AcDbArc
 50
3.708332120372
 51
18.23770915515
  0
ARC
  5
329
100
AcDbEntity
  8
1
  6
CONTINUOUS
 62
           7
100
AcDbCircle
 10
300.919842544013
 20
170.034162515766
 40
5.003525513919
100
AcDbArc
 50
-41.394361020441
 51
41.394361020445
  0
ARC
  5
328
100
AcDbEntity
  8
1
  6
CONTINUOUS
 62
           7
100
AcDbCircle
 10
280.011770113573
 20
157.772095713215
 40
25.965964878101
100
AcDbArc
 50
-18.23770915515
 51
-3.708332120372
  0
ARC
  5
327
100
AcDbEntity
  8
1
  6
CONTINUOUS
 62
           7
100
AcDbCircle
 10
300.919842544013
 20
142.151205294772
 40
5.003525513919
100
AcDbArc
 50
-41.394361020445
 51
41.394361020442
  0
ARC
  5
326
100
AcDbEntity
  8
1
  6
CONTINUOUS
 62
           7
100
AcDbCircle
 10
280.011770113573
 20
64.413272097323
 40
25.965964878101
100
AcDbArc
 50
3.708332120372
 51
18.23770915515
  0
ARC
  5
325
100
AcDbEntity
  8
1
  6
CONTINUOUS
 62
           7
100
AcDbCircle
 10
300.919842544013
 20
80.034162515766
 40
5.003525513919
100
AcDbArc
 50
-41.394361020441
 51
41.394361020445
  0
ARC
  5
324
100
AcDbEntity
  8
1
  6
CONTINUOUS
 62
           7
100
AcDbCircle
 10
280.011770113573
 20
67.772095713215
 40
25.965964878101
100
AcDbArc
 50
-18.23770915515
 51
-3.708332120372
  0
ARC
  5
323
100
AcDbEntity
  8
1
  6
CONTINUOUS
 62
           7
100
AcDbCircle
 10
300.919842544013
 20
52.151205294772
 40
5.003525513919
100
AcDbArc
 50
-41.394361020443
 51
41.394361020443
  0
ARC
  5
322
100
AcDbEntity
  8
1
  6
CONTINUOUS
 62
           7
100
AcDbCircle
 10
268.983229579564
 20
246.092683905269
 40
21.920490367397
100
AcDbArc
 50
114.162481313274
 51
-114.162481313273
  0
ARC
  5
321
100
AcDbEntity
  8
1
  6
CONTINUOUS
 62
           7
100
AcDbCircle
 10
268.983229579564
 20
156.092683905269
 40
21.920490367397
100
AcDbArc
 50
114.162481313273
 51
-114.162481313273
  0
ARC
  5
320
100
AcDbEntity
  8
1
  6
CONTINUOUS
 62
           7
100
AcDbCircle
 10
268.983229579564
 20
66.092683905269
 40
21.920490367397
100
AcDbArc
 50
114.162481313273
 51
-114.162481313273
  0
ARC
  5
31F
100
AcDbEntity
  8
1
  6
CONTINUOUS
 62
           7
100
AcDbCircle
 10
85.4635065363
 20
156.092683905269
 40
21.920490367397
100
AcDbArc
 50
-65.837518686726
 51
65.837518686725
  0
ARC
  5
31E
100
AcDbEntity
  8
1
  6
CONTINUOUS
 62
           7
100
AcDbCircle
 10
177.223368057932
 20
156.092683905269
 40
12.969198064765
100
AcDbArc
 50
105.198244860083
 51
-105.198244860083
  0
ARC
  5
31D
100
AcDbEntity
  8
1
  6
CONTINUOUS
 62
           7
100
AcDbCircle
 10
177.223368057932
 20
156.092683905269
 40
15.2
100
AcDbArc
 50
-101.377882109358
 51
-78.622117890642
  0
ARC
  5
31C
100
AcDbEntity
  8
1
  6
CONTINUOUS
 62
           7
100
AcDbCircle
 10
177.223368057932
 20
156.092683905269
 40
8.349999999999
100
AcDbArc
 50
-108.188282096013
 51
-71.811717903986
  0
ARC
  5
31B
100
AcDbEntity
  8
1
  6
CONTINUOUS
 62
           7
100
AcDbCircle
 10
177.223368057932
 20
156.092683905269
 40
11.39999999998
100
AcDbArc
 50
-96.29508943886
 51
-83.704910561139
  0
ARC
  5
31A
100
AcDbEntity
  8
1
  6
CONTINUOUS
 62
           6
100
AcDbCircle
 10
177.223368057932
 20
156.092683905269
 40
15.2
100
AcDbArc
 50
-102.925517073454
 51
-101.377882109358
  0
ARC
  5
319
100
AcDbEntity
  8
1
  6
CONTINUOUS
 62
           6
100
AcDbCircle
 10
177.223368057932
 20
156.092683905269
 40
15.2
100
AcDbArc
 50
-78.622117890642
 51
-77.074482926545
  0
ARC
  5
318
100
AcDbEntity
  8
1
  6
CONTINUOUS
 62
           7
100
AcDbCircle
 10
177.223368057932
 20
156.092683905269
 40
12.969198064765
100
AcDbArc
 50
-74.801755139916
 51
74.801755139916
  0
ARC
  5
317
100
AcDbEntity
  8
1
  6
CONTINUOUS
 62
           7
100
AcDbCircle
 10
177.223368057932
 20
156.092683905269
 40
15.2
100
AcDbArc
 50
78.622117890641
 51
101.377882109358
  0
ARC
  5
316
100
AcDbEntity
  8
1
  6
CONTINUOUS
 62
           7
100
AcDbCircle
 10
177.223368057932
 20
156.092683905269
 40
8.349999999999
100
AcDbArc
 50
71.811717903986
 51
108.188282096013
  0
ARC
  5
315
100
AcDbEntity
  8
1
  6
CONTINUOUS
 62
           7
100
AcDbCircle
 10
177.223368057932
 20
156.092683905269
 40
11.39999999998
100
AcDbArc
 50
83.704910561139
 51
96.29508943886
  0
ARC
  5
314
100
AcDbEntity
  8
1
  6
CONTINUOUS
 62
           6
100
AcDbCircle
 10
177.223368057932
 20
156.092683905269
 40
15.2
100
AcDbArc
 50
101.377882109358
 51
102.925517073454
  0
ARC
  5
313
100
AcDbEntity
  8
1
  6
CONTINUOUS
 62
           6
100
AcDbCircle
 10
177.223368057932
 20
156.092683905269
 40
15.2
100
AcDbArc
 50
77.074482926545
 51
78.622117890641
  0
ARC
  5
312
100
AcDbEntity
  8
1
  6
CONTINUOUS
 62
           7
100
AcDbCircle
 10
177.223368057932
 20
156.092683905269
 40
27.0
100
AcDbArc
 50
42.205446403732
 51
47.794553596268
  0
ARC
  5
311
100
AcDbEntity
  8
1
  6
CONTINUOUS
 62
           7
100
AcDbCircle
 10
177.223368057932
 20
156.092683905269
 40
27.0
100
AcDbArc
 50
-47.794553596268
 51
-42.205446403732
  0
ARC
  5
310
100
AcDbEntity
  8
1
  6
CONTINUOUS
 62
           7
100
AcDbCircle
 10
177.223368057932
 20
156.092683905269
 40
27.0
100
AcDbArc
 50
-137.794553596267
 51
-132.205446403732
  0
ARC
  5
30F
100
AcDbEntity
  8
1
  6
CONTINUOUS
 62
           7
100
AcDbCircle
 10
177.223368057932
 20
156.092683905269
 40
27.0
100
AcDbArc
 50
132.205446403732
 51
137.794553596268
  0
LINE
  5
30E
100
AcDbEntity
  8
1
  6
PHANTOM
 62
           3
100
AcDbLine
 10
329.123368057932
 20
141.092683905269
 11
326.123368057932
 21
141.092683905269
  0
LINE
  5
30D
100
AcDbEntity
  8
1
  6
PHANTOM
 62
           3
100
AcDbLine
 10
329.123368057932
 20
171.092683905269
 11
326.123368057932
 21
171.092683905269
  0
LINE
  5
30C
100
AcDbEntity
  8
1
  6
DOT_CENTER
 62
           2
100
AcDbLine
 10
212.621111159502
 20
246.092683905269
 11
327.183329765607
 21
246.092683905269
  0
LINE
  5
30B
100
AcDbEntity
  8
1
  6
PHANTOM
 62
           3
100
AcDbLine
 10
330.123368057932
 20
170.092683905269
 11
330.123368057932
 21
142.092683905269
  0
LINE
  5
30A
100
AcDbEntity
  8
1
  6
PHANTOM
 62
           3
100
AcDbLine
 10
330.123368057932
 20
142.092683905269
 11
329.123368057932
 21
141.092683905269
  0
LINE
  5
309
100
AcDbEntity
  8
1
  6
PHANTOM
 62
           3
100
AcDbLine
 10
329.123368057932
 20
171.092683905269
 11
330.123368057932
 21
170.092683905269
  0
LINE
  5
308
100
AcDbEntity
  8
1
  6
PHANTOM
 62
           3
100
AcDbLine
 10
329.123368057932
 20
171.092683905269
 11
329.123368057932
 21
141.092683905269
  0
LINE
  5
307
100
AcDbEntity
  8
1
  6
CONTINUOUS
 62
           2
100
AcDbLine
 10
45.523368057932
 20
156.092683905269
 11
30.323368057932
 21
156.092683905269
  0
LINE
  5
306
100
AcDbEntity
  8
1
  6
CONTINUOUS
 62
           2
100
AcDbLine
 10
324.123368057932
 20
66.092683905269
 11
308.923368057932
 21
66.092683905269
  0
LINE
  5
305
100
AcDbEntity
  8
1
  6
CONTINUOUS
 62
           2
100
AcDbLine
 10
324.123368057932
 20
156.092683905269
 11
308.923368057932
 21
156.092683905269
  0
LINE
  5
304
100
AcDbEntity
  8
1
  6
DOT_CENTER
 62
           2
100
AcDbLine
 10
88.223368057932
 20
159.769483905269
 11
88.223368057932
 21
172.415883905269
  0
LINE
  5
303
100
AcDbEntity
  8
1
  6
DOT_CENTER
 62
           2
100
AcDbLine
 10
81.900168057932
 20
166.092683905269
 11
94.546568057932
 21
166.092683905269
  0
LINE
  5
302
100
AcDbEntity
  8
1
  6
DOT_CENTER
 62
           2
100
AcDbLine
 10
88.223368057932
 20
137.269483905269
 11
88.223368057932
 21
149.915883905269
  0
LINE
  5
301
100
AcDbEntity
  8
1
  6
DOT_CENTER
 62
           2
100
AcDbLine
 10
81.900168057932
 20
143.592683905269
 11
94.546568057932
 21
143.592683905269
  0
LINE
  5
300
100
AcDbEntity
  8
1
  6
DOT_CENTER
 62
           2
100
AcDbLine
 10
266.223368057932
 20
174.915883905269
 11
266.223368057932
 21
162.269483905269
  0
LINE
  5
2FF
100
AcDbEntity
  8
1
  6
DOT_CENTER
 62
           2
100
AcDbLine
 10
259.900168057932
 20
168.592683905269
 11
272.546568057932
 21
168.592683905269
  0
LINE
  5
2FE
100
AcDbEntity
  8
1
  6
DOT_CENTER
 62
           2
100
AcDbLine
 10
270.723368057932
 20
147.992683905269
 11
270.723368057932
 21
135.192683905269
  0
LINE
  5
2FD
100
AcDbEntity
  8
1
  6
DOT_CENTER
 62
           2
100
AcDbLine
 10
264.323368057932
 20
141.592683905269
 11
277.123368057932
 21
141.592683905269
  0
LINE
  5
2FC
100
AcDbEntity
  8
1
  6
DOT_CENTER
 62
           2
100
AcDbLine
 10
259.623368057932
 20
72.415883905269
 11
259.623368057932
 21
59.769483905269
  0
LINE
  5
2FB
100
AcDbEntity
  8
1
  6
DOT_CENTER
 62
           2
100
AcDbLine
 10
259.623368057932
 20
252.415883905269
 11
259.623368057932
 21
239.769483905269
  0
LINE
  5
2FA
100
AcDbEntity
  8
1
  6
DOT_CENTER
 62
           2
100
AcDbLine
 10
77.223368057932
 20
156.092683905269
 11
88.223368057932
 21
156.092683905269
  0
LINE
  5
2F9
100
AcDbEntity
  8
976
  6
CONTINUOUS
 62
           7
100
AcDbLine
 10
77.223368057932
 20
138.592683905269
 11
53.023368057932
 21
138.592683905269
  0
LINE
  5
2F8
100
AcDbEntity
  8
976
  6
CONTINUOUS
 62
           7
100
AcDbLine
 10
77.223368057932
 20
173.592683905269
 11
53.023368057932
 21
173.592683905269
  0
LINE
  5
2F7
100
AcDbEntity
  8
1
  6
CONTINUOUS
 62
           7
100
AcDbLine
 10
49.773368057932
 20
162.539582384383
 11
49.773368057932
 21
166.725641126263
  0
LINE
  5
2F6
100
AcDbEntity
  8
1
  6
CONTINUOUS
 62
           7
100
AcDbLine
 10
48.023368057932
 20
171.592683905269
 11
49.773368057932
 21
173.342683905269
  0
LINE
  5
2F5
100
AcDbEntity
  8
1
  6
CONTINUOUS
 62
           7
100
AcDbLine
 10
53.023368057932
 20
166.725641126263
 11
49.773368057932
 21
166.725641126263
  0
LINE
  5
2F4
100
AcDbEntity
  8
1
  6
CONTINUOUS
 62
           7
100
AcDbLine
 10
53.023368057932
 20
162.539582384383
 11
49.773368057932
 21
162.539582384383
  0
LINE
  5
2F3
100
AcDbEntity
  8
1
  6
CONTINUOUS
 62
           7
100
AcDbLine
 10
48.023368057932
 20
171.592683905269
 11
48.023368057932
 21
140.592683905269
  0
LINE
  5
2F2
100
AcDbEntity
  8
1
  6
CONTINUOUS
 62
           7
100
AcDbLine
 10
53.023368057932
 20
173.342683905269
 11
49.773368057932
 21
173.342683905269
  0
LINE
  5
2F1
100
AcDbEntity
  8
1
  6
CONTINUOUS
 62
           7
100
AcDbLine
 10
53.023368057932
 20
138.592683905269
 11
53.023368057932
 21
173.592683905269
  0
LINE
  5
2F0
100
AcDbEntity
  8
1
  6
CONTINUOUS
 62
           2
100
AcDbLine
 10
45.523368057932
 20
170.864800200452
 11
30.323368057932
 21
170.864800200452
  0
LINE
  5
2EF
100
AcDbEntity
  8
1
  6
CONTINUOUS
 62
           2
100
AcDbLine
 10
30.323368057932
 20
170.581571299605
 11
45.523368057932
 21
170.581571299605
  0
LINE
  5
2EE
100
AcDbEntity
  8
1
  6
CONTINUOUS
 62
           2
100
AcDbLine
 10
45.523368057932
 20
170.188073217057
 11
30.323368057932
 21
170.188073217057
  0
LINE
  5
2ED
100
AcDbEntity
  8
1
  6
CONTINUOUS
 62
           2
100
AcDbLine
 10
30.323368057932
 20
169.687300710819
 11
45.523368057932
 21
169.687300710819
  0
LINE
  5
2EC
100
AcDbEntity
  8
1
  6
CONTINUOUS
 62
           2
100
AcDbLine
 10
45.523368057932
 20
169.083064962035
 11
30.323368057932
 21
169.083064962035
  0
LINE
  5
2EB
100
AcDbEntity
  8
1
  6
CONTINUOUS
 62
           2
100
AcDbLine
 10
30.323368057932
 20
168.379964569603
 11
45.523368057932
 21
168.379964569603
  0
LINE
  5
2EA
100
AcDbEntity
  8
1
  6
CONTINUOUS
 62
           2
100
AcDbLine
 10
45.523368057932
 20
167.583350552053
 11
30.323368057932
 21
167.583350552053
  0
LINE
  5
2E9
100
AcDbEntity
  8
1
  6
CONTINUOUS
 62
           2
100
AcDbLine
 10
30.323368057932
 20
166.699285623067
 11
45.523368057932
 21
166.699285623067
  0
LINE
  5
2E8
100
AcDbEntity
  8
1
  6
CONTINUOUS
 62
           2
100
AcDbLine
 10
45.523368057932
 20
165.734498050567
 11
30.323368057932
 21
165.734498050567
  0
LINE
  5
2E7
100
AcDbEntity
  8
1
  6
CONTINUOUS
 62
           2
100
AcDbLine
 10
45.523368057932
 20
164.696330450534
 11
30.323368057932
 21
164.696330450534
  0
LINE
  5
2E6
100
AcDbEntity
  8
1
  6
CONTINUOUS
 62
           2
100
AcDbLine
 10
30.323368057932
 20
163.592683905269
 11
45.523368057932
 21
163.592683905269
  0
LINE
  5
2E5
100
AcDbEntity
  8
1
  6
CONTINUOUS
 62
           2
100
AcDbLine
 10
45.523368057932
 20
162.431957831379
 11
30.323368057932
 21
162.431957831379
  0
LINE
  5
2E4
100
AcDbEntity
  8
1
  6
CONTINUOUS
 62
           2
100
AcDbLine
 10
30.323368057932
 20
161.222986055154
 11
45.523368057932
 21
161.222986055154
  0
LINE
  5
2E3
100
AcDbEntity
  8
1
  6
CONTINUOUS
 62
           2
100
AcDbLine
 10
45.523368057932
 20
159.974969581806
 11
30.323368057932
 21
159.974969581806
  0
LINE
  5
2E2
100
AcDbEntity
  8
1
  6
CONTINUOUS
 62
           2
100
AcDbLine
 10
45.523368057932
 20
158.697406570273
 11
30.323368057932
 21
158.697406570273
  0
LINE
  5
2E1
100
AcDbEntity
  8
1
  6
CONTINUOUS
 62
           2
100
AcDbLine
 10
45.523368057932
 20
157.400020046484
 11
30.323368057932
 21
157.400020046484
  0
LINE
  5
2E0
100
AcDbEntity
  8
1
  6
CONTINUOUS
 62
           7
100
AcDbLine
 10
30.323368057932
 20
141.092683905269
 11
30.323368057932
 21
171.092683905269
  0
LINE
  5
2DF
100
AcDbEntity
  8
1
  6
CONTINUOUS
 62
           7
100
AcDbLine
 10
45.523368057932
 20
141.092683905269
 11
45.523368057932
 21
171.092683905269
  0
LINE
  5
2DE
100
AcDbEntity
  8
1
  6
CONTINUOUS
 62
           7
100
AcDbLine
 10
45.523368057932
 20
171.092683905269
 11
46.523368057932
 21
170.092683905269
  0
LINE
  5
2DD
100
AcDbEntity
  8
1
  6
CONTINUOUS
 62
           7
100
AcDbLine
 10
29.323368057932
 20
170.092683905269
 11
30.323368057932
 21
171.092683905269
  0
LINE
  5
2DC
100
AcDbEntity
  8
1
  6
CONTINUOUS
 62
           7
100
AcDbLine
 10
46.523368057932
 20
142.092683905269
 11
46.523368057932
 21
170.092683905269
  0
LINE
  5
2DB
100
AcDbEntity
  8
1
  6
CONTINUOUS
 62
           7
100
AcDbLine
 10
30.323368057932
 20
171.092683905269
 11
45.523368057932
 21
171.092683905269
  0
LINE
  5
2DA
100
AcDbEntity
  8
1
  6
CONTINUOUS
 62
           7
100
AcDbLine
 10
48.023368057932
 20
168.092683905269
 11
46.523368057932
 21
168.092683905269
  0
LINE
  5
2D9
100
AcDbEntity
  8
1
  6
CONTINUOUS
 62
           7
100
AcDbLine
 10
53.023368057932
 20
170.442683905269
 11
53.023368057932
 21
173.592683905269
  0
LINE
  5
2D8
100
AcDbEntity
  8
1
  6
CONTINUOUS
 62
           7
100
AcDbLine
 10
29.323368057932
 20
142.092683905269
 11
29.323368057932
 21
170.092683905269
  0
LINE
  5
2D7
100
AcDbEntity
  8
1
  6
CONTINUOUS
 62
           7
100
AcDbLine
 10
49.773368057932
 20
145.459726684275
 11
49.773368057932
 21
149.645785426155
  0
LINE
  5
2D6
100
AcDbEntity
  8
1
  6
CONTINUOUS
 62
           7
100
AcDbLine
 10
49.773368057932
 20
138.842683905269
 11
48.023368057932
 21
140.592683905269
  0
LINE
  5
2D5
100
AcDbEntity
  8
1
  6
CONTINUOUS
 62
           7
100
AcDbLine
 10
49.773368057932
 20
145.459726684275
 11
53.023368057932
 21
145.459726684275
  0
LINE
  5
2D4
100
AcDbEntity
  8
1
  6
CONTINUOUS
 62
           7
100
AcDbLine
 10
49.773368057932
 20
149.645785426155
 11
53.023368057932
 21
149.645785426155
  0
LINE
  5
2D3
100
AcDbEntity
  8
1
  6
CONTINUOUS
 62
           7
100
AcDbLine
 10
49.773368057932
 20
138.842683905269
 11
53.023368057932
 21
138.842683905269
  0
LINE
  5
2D2
100
AcDbEntity
  8
1
  6
CONTINUOUS
 62
           2
100
AcDbLine
 10
30.323368057932
 20
141.320567610086
 11
45.523368057932
 21
141.320567610086
  0
LINE
  5
2D1
100
AcDbEntity
  8
1
  6
CONTINUOUS
 62
           2
100
AcDbLine
 10
45.523368057932
 20
141.603796510933
 11
30.323368057932
 21
141.603796510933
  0
LINE
  5
2D0
100
AcDbEntity
  8
1
  6
CONTINUOUS
 62
           2
100
AcDbLine
 10
30.323368057932
 20
141.99729459348
 11
45.523368057932
 21
141.99729459348
  0
LINE
  5
2CF
100
AcDbEntity
  8
1
  6
CONTINUOUS
 62
           2
100
AcDbLine
 10
45.523368057932
 20
142.498067099719
 11
30.323368057932
 21
142.498067099719
  0
LINE
  5
2CE
100
AcDbEntity
  8
1
  6
CONTINUOUS
 62
           2
100
AcDbLine
 10
30.323368057932
 20
143.102302848502
 11
45.523368057932
 21
143.102302848502
  0
LINE
  5
2CD
100
AcDbEntity
  8
1
  6
CONTINUOUS
 62
           2
100
AcDbLine
 10
45.523368057932
 20
143.805403240934
 11
30.323368057932
 21
143.805403240934
  0
LINE
  5
2CC
100
AcDbEntity
  8
1
  6
CONTINUOUS
 62
           2
100
AcDbLine
 10
30.323368057932
 20
144.602017258484
 11
45.523368057932
 21
144.602017258484
  0
LINE
  5
2CB
100
AcDbEntity
  8
1
  6
CONTINUOUS
 62
           2
100
AcDbLine
 10
45.523368057932
 20
145.486082187471
 11
30.323368057932
 21
145.486082187471
  0
LINE
  5
2CA
100
AcDbEntity
  8
1
  6
CONTINUOUS
 62
           2
100
AcDbLine
 10
30.323368057932
 20
146.450869759971
 11
45.523368057932
 21
146.450869759971
  0
LINE
  5
2C9
100
AcDbEntity
  8
1
  6
CONTINUOUS
 62
           2
100
AcDbLine
 10
30.323368057932
 20
147.489037360003
 11
45.523368057932
 21
147.489037360003
  0
LINE
  5
2C8
100
AcDbEntity
  8
1
  6
CONTINUOUS
 62
           2
100
AcDbLine
 10
45.523368057932
 20
148.592683905269
 11
30.323368057932
 21
148.592683905269
  0
LINE
  5
2C7
100
AcDbEntity
  8
1
  6
CONTINUOUS
 62
           2
100
AcDbLine
 10
30.323368057932
 20
149.753409979159
 11
45.523368057932
 21
149.753409979159
  0
LINE
  5
2C6
100
AcDbEntity
  8
1
  6
CONTINUOUS
 62
           2
100
AcDbLine
 10
45.523368057932
 20
150.962381755384
 11
30.323368057932
 21
150.962381755384
  0
LINE
  5
2C5
100
AcDbEntity
  8
1
  6
CONTINUOUS
 62
           2
100
AcDbLine
 10
30.323368057932
 20
152.210398228731
 11
45.523368057932
 21
152.210398228731
  0
LINE
  5
2C4
100
AcDbEntity
  8
1
  6
CONTINUOUS
 62
           2
100
AcDbLine
 10
30.323368057932
 20
153.487961240265
 11
45.523368057932
 21
153.487961240265
  0
LINE
  5
2C3
100
AcDbEntity
  8
1
  6
CONTINUOUS
 62
           2
100
AcDbLine
 10
30.323368057932
 20
154.785347764054
 11
45.523368057932
 21
154.785347764054
  0
LINE
  5
2C2
100
AcDbEntity
  8
1
  6
CONTINUOUS
 62
           7
100
AcDbLine
 10
46.523368057932
 20
142.092683905269
 11
45.523368057932
 21
141.092683905269
  0
LINE
  5
2C1
100
AcDbEntity
  8
1
  6
CONTINUOUS
 62
           7
100
AcDbLine
 10
30.323368057932
 20
141.092683905269
 11
29.323368057932
 21
142.092683905269
  0
LINE
  5
2C0
100
AcDbEntity
  8
1
  6
CONTINUOUS
 62
           7
100
AcDbLine
 10
45.523368057932
 20
141.092683905269
 11
30.323368057932
 21
141.092683905269
  0
LINE
  5
2BF
100
AcDbEntity
  8
1
  6
CONTINUOUS
 62
           7
100
AcDbLine
 10
46.523368057932
 20
144.092683905269
 11
48.023368057932
 21
144.092683905269
  0
LINE
  5
2BE
100
AcDbEntity
  8
1
  6
CONTINUOUS
 62
           7
100
AcDbLine
 10
53.023368057932
 20
138.842683905269
 11
53.023368057932
 21
141.742683905269
  0
LINE
  5
2BD
100
AcDbEntity
  8
1
  6
CONTINUOUS
 62
           7
100
AcDbLine
 10
53.023368057932
 20
170.192683905269
 11
53.023368057932
 21
173.342683905269
  0
LINE
  5
2BC
100
AcDbEntity
  8
1
  6
CONTINUOUS
 62
           7
100
AcDbLine
 10
307.923368057932
 20
258.092683905269
 11
306.423368057932
 21
258.092683905269
  0
LINE
  5
2BB
100
AcDbEntity
  8
1
  6
CONTINUOUS
 62
           7
100
AcDbLine
 10
301.423368057932
 20
228.592683905269
 11
277.223368057932
 21
228.592683905269
  0
LINE
  5
2BA
100
AcDbEntity
  8
1
  6
CONTINUOUS
 62
           7
100
AcDbLine
 10
277.223368057932
 20
263.592683905269
 11
301.423368057932
 21
263.592683905269
  0
LINE
  5
2B9
100
AcDbEntity
  8
1
  6
CONTINUOUS
 62
           7
100
AcDbLine
 10
304.673368057932
 20
256.725641126263
 11
304.673368057932
 21
252.539582384383
  0
LINE
  5
2B8
100
AcDbEntity
  8
1
  6
CONTINUOUS
 62
           7
100
AcDbLine
 10
304.673368057932
 20
263.342683905269
 11
306.423368057932
 21
261.592683905269
  0
LINE
  5
2B7
100
AcDbEntity
  8
1
  6
CONTINUOUS
 62
           7
100
AcDbLine
 10
304.673368057932
 20
256.725641126263
 11
301.423368057932
 21
256.725641126263
  0
LINE
  5
2B6
100
AcDbEntity
  8
1
  6
CONTINUOUS
 62
           7
100
AcDbLine
 10
304.673368057932
 20
252.539582384383
 11
301.423368057932
 21
252.539582384383
  0
LINE
  5
2B5
100
AcDbEntity
  8
1
  6
CONTINUOUS
 62
           7
100
AcDbLine
 10
304.673368057932
 20
263.342683905269
 11
301.423368057932
 21
263.342683905269
  0
LINE
  5
2B4
100
AcDbEntity
  8
1
  6
CONTINUOUS
 62
           7
100
AcDbLine
 10
301.423368057932
 20
263.592683905269
 11
301.423368057932
 21
228.592683905269
  0
LINE
  5
2B3
100
AcDbEntity
  8
1
  6
CONTINUOUS
 62
           2
100
AcDbLine
 10
324.123368057932
 20
260.864800200452
 11
308.923368057932
 21
260.864800200452
  0
LINE
  5
2B2
100
AcDbEntity
  8
1
  6
CONTINUOUS
 62
           2
100
AcDbLine
 10
308.923368057932
 20
260.581571299605
 11
324.123368057932
 21
260.581571299605
  0
LINE
  5
2B1
100
AcDbEntity
  8
1
  6
CONTINUOUS
 62
           2
100
AcDbLine
 10
324.123368057932
 20
260.188073217057
 11
308.923368057932
 21
260.188073217057
  0
LINE
  5
2B0
100
AcDbEntity
  8
1
  6
CONTINUOUS
 62
           2
100
AcDbLine
 10
308.923368057932
 20
259.687300710819
 11
324.123368057932
 21
259.687300710819
  0
LINE
  5
2AF
100
AcDbEntity
  8
1
  6
CONTINUOUS
 62
           2
100
AcDbLine
 10
324.123368057932
 20
259.083064962035
 11
308.923368057932
 21
259.083064962035
  0
LINE
  5
2AE
100
AcDbEntity
  8
1
  6
CONTINUOUS
 62
           2
100
AcDbLine
 10
308.923368057932
 20
258.379964569603
 11
324.123368057932
 21
258.379964569603
  0
LINE
  5
2AD
100
AcDbEntity
  8
1
  6
CONTINUOUS
 62
           2
100
AcDbLine
 10
324.123368057932
 20
257.583350552054
 11
308.923368057932
 21
257.583350552054
  0
LINE
  5
2AC
100
AcDbEntity
  8
1
  6
CONTINUOUS
 62
           2
100
AcDbLine
 10
308.923368057932
 20
256.699285623067
 11
324.123368057932
 21
256.699285623067
  0
LINE
  5
2AB
100
AcDbEntity
  8
1
  6
CONTINUOUS
 62
           2
100
AcDbLine
 10
324.123368057932
 20
255.734498050567
 11
308.923368057932
 21
255.734498050567
  0
LINE
  5
2AA
100
AcDbEntity
  8
1
  6
CONTINUOUS
 62
           2
100
AcDbLine
 10
324.123368057932
 20
254.696330450534
 11
308.923368057932
 21
254.696330450534
  0
LINE
  5
2A9
100
AcDbEntity
  8
1
  6
CONTINUOUS
 62
           2
100
AcDbLine
 10
308.923368057932
 20
253.592683905269
 11
324.123368057932
 21
253.592683905269
  0
LINE
  5
2A8
100
AcDbEntity
  8
1
  6
CONTINUOUS
 62
           2
100
AcDbLine
 10
324.123368057932
 20
252.431957831379
 11
308.923368057932
 21
252.431957831379
  0
LINE
  5
2A7
100
AcDbEntity
  8
1
  6
CONTINUOUS
 62
           2
100
AcDbLine
 10
308.923368057932
 20
251.222986055154
 11
324.123368057932
 21
251.222986055154
  0
LINE
  5
2A6
100
AcDbEntity
  8
1
  6
CONTINUOUS
 62
           2
100
AcDbLine
 10
324.123368057932
 20
249.974969581806
 11
308.923368057932
 21
249.974969581806
  0
LINE
  5
2A5
100
AcDbEntity
  8
1
  6
CONTINUOUS
 62
           2
100
AcDbLine
 10
324.123368057932
 20
248.697406570273
 11
308.923368057932
 21
248.697406570273
  0
LINE
  5
2A4
100
AcDbEntity
  8
1
  6
CONTINUOUS
 62
           2
100
AcDbLine
 10
324.183329765607
 20
247.400020046484
 11
308.983329765607
 21
247.400020046484
  0
LINE
  5
2A3
100
AcDbEntity
  8
1
  6
CONTINUOUS
 62
           7
100
AcDbLine
 10
324.123368057932
 20
261.092683905269
 11
324.123368057932
 21
231.092683905269
  0
LINE
  5
2A2
100
AcDbEntity
  8
1
  6
CONTINUOUS
 62
           7
100
AcDbLine
 10
307.923368057932
 20
260.092683905269
 11
308.923368057932
 21
261.092683905269
  0
LINE
  5
2A1
100
AcDbEntity
  8
1
  6
CONTINUOUS
 62
           7
100
AcDbLine
 10
324.123368057932
 20
261.092683905269
 11
325.123368057932
 21
260.092683905269
  0
LINE
  5
2A0
100
AcDbEntity
  8
1
  6
CONTINUOUS
 62
           7
100
AcDbLine
 10
307.923368057932
 20
260.092683905269
 11
307.923368057932
 21
232.092683905269
  0
LINE
  5
29F
100
AcDbEntity
  8
1
  6
CONTINUOUS
 62
           7
100
AcDbLine
 10
308.923368057932
 20
261.092683905269
 11
324.123368057932
 21
261.092683905269
  0
LINE
  5
29E
100
AcDbEntity
  8
1
  6
CONTINUOUS
 62
           7
100
AcDbLine
 10
325.123368057932
 20
260.092683905269
 11
325.123368057932
 21
232.092683905269
  0
LINE
  5
29D
100
AcDbEntity
  8
1
  6
CONTINUOUS
 62
           7
100
AcDbLine
 10
304.673368057932
 20
239.645785426155
 11
304.673368057932
 21
235.459726684275
  0
LINE
  5
29C
100
AcDbEntity
  8
1
  6
CONTINUOUS
 62
           7
100
AcDbLine
 10
306.423368057932
 20
230.592683905269
 11
304.673368057932
 21
228.842683905269
  0
LINE
  5
29B
100
AcDbEntity
  8
1
  6
CONTINUOUS
 62
           7
100
AcDbLine
 10
301.423368057932
 20
235.459726684275
 11
304.673368057932
 21
235.459726684275
  0
LINE
  5
29A
100
AcDbEntity
  8
1
  6
CONTINUOUS
 62
           7
100
AcDbLine
 10
301.423368057932
 20
239.645785426155
 11
304.673368057932
 21
239.645785426155
  0
LINE
  5
299
100
AcDbEntity
  8
1
  6
CONTINUOUS
 62
           7
100
AcDbLine
 10
301.423368057932
 20
228.842683905269
 11
304.673368057932
 21
228.842683905269
  0
LINE
  5
298
100
AcDbEntity
  8
1
  6
CONTINUOUS
 62
           7
100
AcDbLine
 10
306.423368057932
 20
234.092683905269
 11
307.923368057932
 21
234.092683905269
  0
LINE
  5
297
100
AcDbEntity
  8
1
  6
DOT_CENTER
 62
           2
100
AcDbLine
 10
285.223368057932
 20
156.092683905269
 11
332.123368057932
 21
156.092683905269
  0
LINE
  5
296
100
AcDbEntity
  8
1
  6
CONTINUOUS
 62
           7
100
AcDbLine
 10
304.673368057932
 20
166.725641126263
 11
304.673368057932
 21
162.539582384383
  0
LINE
  5
295
100
AcDbEntity
  8
1
  6
CONTINUOUS
 62
           7
100
AcDbLine
 10
304.673368057932
 20
173.342683905269
 11
306.423368057932
 21
171.592683905269
  0
LINE
  5
294
100
AcDbEntity
  8
1
  6
CONTINUOUS
 62
           7
100
AcDbLine
 10
304.673368057932
 20
166.725641126263
 11
301.423368057932
 21
166.725641126263
  0
LINE
  5
293
100
AcDbEntity
  8
1
  6
CONTINUOUS
 62
           7
100
AcDbLine
 10
304.673368057932
 20
162.539582384383
 11
301.423368057932
 21
162.539582384383
  0
LINE
  5
292
100
AcDbEntity
  8
1
  6
CONTINUOUS
 62
           7
100
AcDbLine
 10
306.423368057932
 20
140.592683905269
 11
306.423368057932
 21
171.592683905269
  0
LINE
  5
291
100
AcDbEntity
  8
1
  6
CONTINUOUS
 62
           7
100
AcDbLine
 10
304.673368057932
 20
173.342683905269
 11
301.423368057932
 21
173.342683905269
  0
LINE
  5
290
100
AcDbEntity
  8
1
  6
CONTINUOUS
 62
           7
100
AcDbLine
 10
301.423368057932
 20
173.592683905269
 11
301.423368057932
 21
138.592683905269
  0
LINE
  5
28F
100
AcDbEntity
  8
1
  6
CONTINUOUS
 62
           2
100
AcDbLine
 10
324.123368057932
 20
170.864800200452
 11
308.923368057932
 21
170.864800200452
  0
LINE
  5
28E
100
AcDbEntity
  8
1
  6
CONTINUOUS
 62
           2
100
AcDbLine
 10
308.923368057932
 20
170.581571299605
 11
324.123368057932
 21
170.581571299605
  0
LINE
  5
28D
100
AcDbEntity
  8
1
  6
CONTINUOUS
 62
           2
100
AcDbLine
 10
324.123368057932
 20
170.188073217057
 11
308.923368057932
 21
170.188073217057
  0
LINE
  5
28C
100
AcDbEntity
  8
1
  6
CONTINUOUS
 62
           2
100
AcDbLine
 10
308.923368057932
 20
169.687300710819
 11
324.123368057932
 21
169.687300710819
  0
LINE
  5
28B
100
AcDbEntity
  8
1
  6
CONTINUOUS
 62
           2
100
AcDbLine
 10
324.123368057932
 20
169.083064962035
 11
308.923368057932
 21
169.083064962035
  0
LINE
  5
28A
100
AcDbEntity
  8
1
  6
CONTINUOUS
 62
           2
100
AcDbLine
 10
308.923368057932
 20
168.379964569603
 11
324.123368057932
 21
168.379964569603
  0
LINE
  5
289
100
AcDbEntity
  8
1
  6
CONTINUOUS
 62
           2
100
AcDbLine
 10
324.123368057932
 20
167.583350552053
 11
308.923368057932
 21
167.583350552053
  0
LINE
  5
288
100
AcDbEntity
  8
1
  6
CONTINUOUS
 62
           2
100
AcDbLine
 10
308.923368057932
 20
166.699285623067
 11
324.123368057932
 21
166.699285623067
  0
LINE
  5
287
100
AcDbEntity
  8
1
  6
CONTINUOUS
 62
           2
100
AcDbLine
 10
324.123368057932
 20
165.734498050567
 11
308.923368057932
 21
165.734498050567
  0
LINE
  5
286
100
AcDbEntity
  8
1
  6
CONTINUOUS
 62
           2
100
AcDbLine
 10
324.123368057932
 20
164.696330450534
 11
308.923368057932
 21
164.696330450534
  0
LINE
  5
285
100
AcDbEntity
  8
1
  6
CONTINUOUS
 62
           2
100
AcDbLine
 10
308.923368057932
 20
163.592683905269
 11
324.123368057932
 21
163.592683905269
  0
LINE
  5
284
100
AcDbEntity
  8
1
  6
CONTINUOUS
 62
           2
100
AcDbLine
 10
324.123368057932
 20
162.431957831379
 11
308.923368057932
 21
162.431957831379
  0
LINE
  5
283
100
AcDbEntity
  8
1
  6
CONTINUOUS
 62
           2
100
AcDbLine
 10
308.923368057932
 20
161.222986055154
 11
324.123368057932
 21
161.222986055154
  0
LINE
  5
282
100
AcDbEntity
  8
1
  6
CONTINUOUS
 62
           2
100
AcDbLine
 10
324.123368057932
 20
159.974969581806
 11
308.923368057932
 21
159.974969581806
  0
LINE
  5
281
100
AcDbEntity
  8
1
  6
CONTINUOUS
 62
           2
100
AcDbLine
 10
324.123368057932
 20
158.697406570273
 11
308.923368057932
 21
158.697406570273
  0
LINE
  5
280
100
AcDbEntity
  8
1
  6
CONTINUOUS
 62
           2
100
AcDbLine
 10
324.123368057932
 20
157.400020046484
 11
308.923368057932
 21
157.400020046484
  0
LINE
  5
27F
100
AcDbEntity
  8
1
  6
CONTINUOUS
 62
           7
100
AcDbLine
 10
324.123368057932
 20
171.092683905269
 11
324.123368057932
 21
141.092683905269
  0
LINE
  5
27E
100
AcDbEntity
  8
1
  6
CONTINUOUS
 62
           7
100
AcDbLine
 10
308.923368057932
 20
171.092683905269
 11
308.923368057932
 21
141.092683905269
  0
LINE
  5
27D
100
AcDbEntity
  8
1
  6
CONTINUOUS
 62
           7
100
AcDbLine
 10
307.923368057932
 20
170.092683905269
 11
308.923368057932
 21
171.092683905269
  0
LINE
  5
27C
100
AcDbEntity
  8
1
  6
CONTINUOUS
 62
           7
100
AcDbLine
 10
324.123368057932
 20
171.092683905269
 11
325.123368057932
 21
170.092683905269
  0
LINE
  5
27B
100
AcDbEntity
  8
1
  6
CONTINUOUS
 62
           7
100
AcDbLine
 10
307.923368057932
 20
170.092683905269
 11
307.923368057932
 21
142.092683905269
  0
LINE
  5
27A
100
AcDbEntity
  8
1
  6
CONTINUOUS
 62
           7
100
AcDbLine
 10
308.923368057932
 20
171.092683905269
 11
324.123368057932
 21
171.092683905269
  0
LINE
  5
279
100
AcDbEntity
  8
1
  6
CONTINUOUS
 62
           7
100
AcDbLine
 10
307.923368057932
 20
168.092683905269
 11
306.423368057932
 21
168.092683905269
  0
LINE
  5
278
100
AcDbEntity
  8
1
  6
CONTINUOUS
 62
           7
100
AcDbLine
 10
304.673368057932
 20
149.645785426155
 11
304.673368057932
 21
145.459726684275
  0
LINE
  5
277
100
AcDbEntity
  8
1
  6
CONTINUOUS
 62
           7
100
AcDbLine
 10
306.423368057932
 20
140.592683905269
 11
304.673368057932
 21
138.842683905269
  0
LINE
  5
276
100
AcDbEntity
  8
1
  6
CONTINUOUS
 62
           7
100
AcDbLine
 10
301.423368057932
 20
145.459726684275
 11
304.673368057932
 21
145.459726684275
  0
LINE
  5
275
100
AcDbEntity
  8
1
  6
CONTINUOUS
 62
           7
100
AcDbLine
 10
301.423368057932
 20
149.645785426155
 11
304.673368057932
 21
149.645785426155
  0
LINE
  5
274
100
AcDbEntity
  8
1
  6
CONTINUOUS
 62
           7
100
AcDbLine
 10
301.423368057932
 20
138.842683905269
 11
304.673368057932
 21
138.842683905269
  0
LINE
  5
273
100
AcDbEntity
  8
1
  6
CONTINUOUS
 62
           2
100
AcDbLine
 10
308.923368057932
 20
141.320567610086
 11
324.123368057932
 21
141.320567610086
  0
LINE
  5
272
100
AcDbEntity
  8
1
  6
CONTINUOUS
 62
           2
100
AcDbLine
 10
324.123368057932
 20
141.603796510933
 11
308.923368057932
 21
141.603796510933
  0
LINE
  5
271
100
AcDbEntity
  8
1
  6
CONTINUOUS
 62
           2
100
AcDbLine
 10
308.923368057932
 20
141.99729459348
 11
324.123368057932
 21
141.99729459348
  0
LINE
  5
270
100
AcDbEntity
  8
1
  6
CONTINUOUS
 62
           2
100
AcDbLine
 10
324.123368057932
 20
142.498067099719
 11
308.923368057932
 21
142.498067099719
  0
LINE
  5
26F
100
AcDbEntity
  8
1
  6
CONTINUOUS
 62
           2
100
AcDbLine
 10
308.923368057932
 20
143.102302848502
 11
324.123368057932
 21
143.102302848502
  0
LINE
  5
26E
100
AcDbEntity
  8
1
  6
CONTINUOUS
 62
           2
100
AcDbLine
 10
324.123368057932
 20
143.805403240934
 11
308.923368057932
 21
143.805403240934
  0
LINE
  5
26D
100
AcDbEntity
  8
1
  6
CONTINUOUS
 62
           2
100
AcDbLine
 10
308.923368057932
 20
144.602017258484
 11
324.123368057932
 21
144.602017258484
  0
LINE
  5
26C
100
AcDbEntity
  8
1
  6
CONTINUOUS
 62
           2
100
AcDbLine
 10
324.123368057932
 20
145.486082187471
 11
308.923368057932
 21
145.486082187471
  0
LINE
  5
26B
100
AcDbEntity
  8
1
  6
CONTINUOUS
 62
           2
100
AcDbLine
 10
308.923368057932
 20
146.450869759971
 11
324.123368057932
 21
146.450869759971
  0
LINE
  5
26A
100
AcDbEntity
  8
1
  6
CONTINUOUS
 62
           2
100
AcDbLine
 10
308.923368057932
 20
147.489037360003
 11
324.123368057932
 21
147.489037360003
  0
LINE
  5
269
100
AcDbEntity
  8
1
  6
CONTINUOUS
 62
           2
100
AcDbLine
 10
324.123368057932
 20
148.592683905269
 11
308.923368057932
 21
148.592683905269
  0
LINE
  5
268
100
AcDbEntity
  8
1
  6
CONTINUOUS
 62
           2
100
AcDbLine
 10
308.923368057932
 20
149.753409979159
 11
324.123368057932
 21
149.753409979159
  0
LINE
  5
267
100
AcDbEntity
  8
1
  6
CONTINUOUS
 62
           2
100
AcDbLine
 10
324.123368057932
 20
150.962381755384
 11
308.923368057932
 21
150.962381755384
  0
LINE
  5
266
100
AcDbEntity
  8
1
  6
CONTINUOUS
 62
           2
100
AcDbLine
 10
308.923368057932
 20
152.210398228731
 11
324.123368057932
 21
152.210398228731
  0
LINE
  5
265
100
AcDbEntity
  8
1
  6
CONTINUOUS
 62
           2
100
AcDbLine
 10
308.923368057932
 20
153.487961240265
 11
324.123368057932
 21
153.487961240265
  0
LINE
  5
264
100
AcDbEntity
  8
1
  6
CONTINUOUS
 62
           2
100
AcDbLine
 10
308.923368057932
 20
154.785347764054
 11
324.123368057932
 21
154.785347764054
  0
LINE
  5
263
100
AcDbEntity
  8
1
  6
CONTINUOUS
 62
           7
100
AcDbLine
 10
308.923368057932
 20
141.092683905269
 11
307.923368057932
 21
142.092683905269
  0
LINE
  5
262
100
AcDbEntity
  8
1
  6
CONTINUOUS
 62
           7
100
AcDbLine
 10
325.123368057932
 20
142.092683905269
 11
324.123368057932
 21
141.092683905269
  0
LINE
  5
261
100
AcDbEntity
  8
1
  6
CONTINUOUS
 62
           7
100
AcDbLine
 10
324.123368057932
 20
141.092683905269
 11
308.923368057932
 21
141.092683905269
  0
LINE
  5
260
100
AcDbEntity
  8
1
  6
CONTINUOUS
 62
           7
100
AcDbLine
 10
306.423368057932
 20
144.092683905269
 11
307.923368057932
 21
144.092683905269
  0
LINE
  5
25F
100
AcDbEntity
  8
1
  6
CONTINUOUS
 62
           7
100
AcDbLine
 10
325.123368057932
 20
170.092683905269
 11
325.123368057932
 21
142.092683905269
  0
LINE
  5
25E
100
AcDbEntity
  8
1
  6
DOT_CENTER
 62
           2
100
AcDbLine
 10
212.621111159502
 20
66.092683905269
 11
327.123368057932
 21
66.092683905269
  0
LINE
  5
25D
100
AcDbEntity
  8
1
  6
CONTINUOUS
 62
           7
100
AcDbLine
 10
304.673368057932
 20
76.725641126263
 11
304.673368057932
 21
72.539582384383
  0
LINE
  5
25C
100
AcDbEntity
  8
1
  6
CONTINUOUS
 62
           7
100
AcDbLine
 10
304.673368057932
 20
83.342683905269
 11
306.423368057932
 21
81.592683905269
  0
LINE
  5
25B
100
AcDbEntity
  8
1
  6
CONTINUOUS
 62
           7
100
AcDbLine
 10
304.673368057932
 20
76.725641126263
 11
301.423368057932
 21
76.725641126263
  0
LINE
  5
25A
100
AcDbEntity
  8
1
  6
CONTINUOUS
 62
           7
100
AcDbLine
 10
304.673368057932
 20
72.539582384383
 11
301.423368057932
 21
72.539582384383
  0
LINE
  5
259
100
AcDbEntity
  8
1
  6
CONTINUOUS
 62
           7
100
AcDbLine
 10
306.423368057932
 20
50.592683905269
 11
306.423368057932
 21
81.592683905269
  0
LINE
  5
258
100
AcDbEntity
  8
1
  6
CONTINUOUS
 62
           7
100
AcDbLine
 10
304.673368057932
 20
83.342683905269
 11
301.423368057932
 21
83.342683905269
  0
LINE
  5
257
100
AcDbEntity
  8
1
  6
CONTINUOUS
 62
           7
100
AcDbLine
 10
301.423368057932
 20
83.592683905269
 11
301.423368057932
 21
48.592683905269
  0
LINE
  5
256
100
AcDbEntity
  8
1
  6
CONTINUOUS
 62
           2
100
AcDbLine
 10
324.123368057932
 20
80.864800200452
 11
308.923368057932
 21
80.864800200452
  0
LINE
  5
255
100
AcDbEntity
  8
1
  6
CONTINUOUS
 62
           2
100
AcDbLine
 10
308.923368057932
 20
80.581571299605
 11
324.123368057932
 21
80.581571299605
  0
LINE
  5
254
100
AcDbEntity
  8
1
  6
CONTINUOUS
 62
           2
100
AcDbLine
 10
324.123368057932
 20
80.188073217057
 11
308.923368057932
 21
80.188073217057
  0
LINE
  5
253
100
AcDbEntity
  8
1
  6
CONTINUOUS
 62
           2
100
AcDbLine
 10
308.923368057932
 20
79.687300710819
 11
324.123368057932
 21
79.687300710819
  0
LINE
  5
252
100
AcDbEntity
  8
1
  6
CONTINUOUS
 62
           2
100
AcDbLine
 10
324.123368057932
 20
79.083064962035
 11
308.923368057932
 21
79.083064962035
  0
LINE
  5
251
100
AcDbEntity
  8
1
  6
CONTINUOUS
 62
           2
100
AcDbLine
 10
308.923368057932
 20
78.379964569604
 11
324.123368057932
 21
78.379964569604
  0
LINE
  5
250
100
AcDbEntity
  8
1
  6
CONTINUOUS
 62
           2
100
AcDbLine
 10
324.123368057932
 20
77.583350552053
 11
308.923368057932
 21
77.583350552053
  0
LINE
  5
24F
100
AcDbEntity
  8
1
  6
CONTINUOUS
 62
           2
100
AcDbLine
 10
308.923368057932
 20
76.699285623067
 11
324.123368057932
 21
76.699285623067
  0
LINE
  5
24E
100
AcDbEntity
  8
1
  6
CONTINUOUS
 62
           2
100
AcDbLine
 10
324.123368057932
 20
75.734498050567
 11
308.923368057932
 21
75.734498050567
  0
LINE
  5
24D
100
AcDbEntity
  8
1
  6
CONTINUOUS
 62
           2
100
AcDbLine
 10
324.123368057932
 20
74.696330450534
 11
308.923368057932
 21
74.696330450534
  0
LINE
  5
24C
100
AcDbEntity
  8
1
  6
CONTINUOUS
 62
           2
100
AcDbLine
 10
308.923368057932
 20
73.592683905269
 11
324.123368057932
 21
73.592683905269
  0
LINE
  5
24B
100
AcDbEntity
  8
1
  6
CONTINUOUS
 62
           2
100
AcDbLine
 10
324.123368057932
 20
72.431957831379
 11
308.923368057932
 21
72.431957831379
  0
LINE
  5
24A
100
AcDbEntity
  8
1
  6
CONTINUOUS
 62
           2
100
AcDbLine
 10
308.923368057932
 20
71.222986055154
 11
324.123368057932
 21
71.222986055154
  0
LINE
  5
249
100
AcDbEntity
  8
1
  6
CONTINUOUS
 62
           2
100
AcDbLine
 10
324.123368057932
 20
69.974969581806
 11
308.923368057932
 21
69.974969581806
  0
LINE
  5
248
100
AcDbEntity
  8
1
  6
CONTINUOUS
 62
           2
100
AcDbLine
 10
324.123368057932
 20
68.697406570273
 11
308.923368057932
 21
68.697406570273
  0
LINE
  5
247
100
AcDbEntity
  8
1
  6
CONTINUOUS
 62
           2
100
AcDbLine
 10
324.123368057932
 20
67.400020046484
 11
308.923368057932
 21
67.400020046484
  0
LINE
  5
246
100
AcDbEntity
  8
1
  6
CONTINUOUS
 62
           7
100
AcDbLine
 10
324.123368057932
 20
81.092683905269
 11
324.123368057932
 21
51.092683905269
  0
LINE
  5
245
100
AcDbEntity
  8
1
  6
CONTINUOUS
 62
           7
100
AcDbLine
 10
308.923368057932
 20
81.092683905269
 11
308.923368057932
 21
51.092683905269
  0
LINE
  5
244
100
AcDbEntity
  8
1
  6
CONTINUOUS
 62
           7
100
AcDbLine
 10
307.923368057932
 20
80.092683905269
 11
308.923368057932
 21
81.092683905269
  0
LINE
  5
243
100
AcDbEntity
  8
1
  6
CONTINUOUS
 62
           7
100
AcDbLine
 10
324.123368057932
 20
81.092683905269
 11
325.123368057932
 21
80.092683905269
  0
LINE
  5
242
100
AcDbEntity
  8
1
  6
CONTINUOUS
 62
           7
100
AcDbLine
 10
307.923368057932
 20
80.092683905269
 11
307.923368057932
 21
52.092683905269
  0
LINE
  5
241
100
AcDbEntity
  8
1
  6
CONTINUOUS
 62
           7
100
AcDbLine
 10
308.923368057932
 20
81.092683905269
 11
324.123368057932
 21
81.092683905269
  0
LINE
  5
240
100
AcDbEntity
  8
1
  6
CONTINUOUS
 62
           7
100
AcDbLine
 10
307.923368057932
 20
78.092683905269
 11
306.423368057932
 21
78.092683905269
  0
LINE
  5
23F
100
AcDbEntity
  8
1
  6
CONTINUOUS
 62
           7
100
AcDbLine
 10
325.123368057932
 20
80.092683905269
 11
325.123368057932
 21
52.092683905269
  0
LINE
  5
23E
100
AcDbEntity
  8
1
  6
CONTINUOUS
 62
           7
100
AcDbLine
 10
304.673368057932
 20
59.645785426155
 11
304.673368057932
 21
55.459726684275
  0
LINE
  5
23D
100
AcDbEntity
  8
1
  6
CONTINUOUS
 62
           7
100
AcDbLine
 10
306.423368057932
 20
50.592683905269
 11
304.673368057932
 21
48.842683905269
  0
LINE
  5
23C
100
AcDbEntity
  8
1
  6
CONTINUOUS
 62
           7
100
AcDbLine
 10
301.423368057932
 20
55.459726684275
 11
304.673368057932
 21
55.459726684275
  0
LINE
  5
23B
100
AcDbEntity
  8
1
  6
CONTINUOUS
 62
           7
100
AcDbLine
 10
301.423368057932
 20
59.645785426155
 11
304.673368057932
 21
59.645785426155
  0
LINE
  5
23A
100
AcDbEntity
  8
1
  6
CONTINUOUS
 62
           7
100
AcDbLine
 10
301.423368057932
 20
48.842683905269
 11
304.673368057932
 21
48.842683905269
  0
LINE
  5
239
100
AcDbEntity
  8
1
  6
CONTINUOUS
 62
           2
100
AcDbLine
 10
308.923368057932
 20
51.320567610086
 11
324.123368057932
 21
51.320567610086
  0
LINE
  5
238
100
AcDbEntity
  8
1
  6
CONTINUOUS
 62
           2
100
AcDbLine
 10
324.123368057932
 20
51.603796510933
 11
308.923368057932
 21
51.603796510933
  0
LINE
  5
237
100
AcDbEntity
  8
1
  6
CONTINUOUS
 62
           2
100
AcDbLine
 10
308.923368057932
 20
51.99729459348
 11
324.123368057932
 21
51.99729459348
  0
LINE
  5
236
100
AcDbEntity
  8
1
  6
CONTINUOUS
 62
           2
100
AcDbLine
 10
324.123368057932
 20
52.498067099719
 11
308.923368057932
 21
52.498067099719
  0
LINE
  5
235
100
AcDbEntity
  8
1
  6
CONTINUOUS
 62
           2
100
AcDbLine
 10
308.923368057932
 20
53.102302848502
 11
324.123368057932
 21
53.102302848502
  0
LINE
  5
234
100
AcDbEntity
  8
1
  6
CONTINUOUS
 62
           2
100
AcDbLine
 10
324.123368057932
 20
53.805403240934
 11
308.923368057932
 21
53.805403240934
  0
LINE
  5
233
100
AcDbEntity
  8
1
  6
CONTINUOUS
 62
           2
100
AcDbLine
 10
308.923368057932
 20
54.602017258484
 11
324.123368057932
 21
54.602017258484
  0
LINE
  5
232
100
AcDbEntity
  8
1
  6
CONTINUOUS
 62
           2
100
AcDbLine
 10
324.123368057932
 20
55.486082187471
 11
308.923368057932
 21
55.486082187471
  0
LINE
  5
231
100
AcDbEntity
  8
1
  6
CONTINUOUS
 62
           2
100
AcDbLine
 10
308.923368057932
 20
56.450869759971
 11
324.123368057932
 21
56.450869759971
  0
LINE
  5
230
100
AcDbEntity
  8
1
  6
CONTINUOUS
 62
           2
100
AcDbLine
 10
308.923368057932
 20
57.489037360003
 11
324.123368057932
 21
57.489037360003
  0
LINE
  5
22F
100
AcDbEntity
  8
1
  6
CONTINUOUS
 62
           2
100
AcDbLine
 10
324.123368057932
 20
58.592683905269
 11
308.923368057932
 21
58.592683905269
  0
LINE
  5
22E
100
AcDbEntity
  8
1
  6
CONTINUOUS
 62
           2
100
AcDbLine
 10
308.923368057932
 20
59.753409979159
 11
324.123368057932
 21
59.753409979159
  0
LINE
  5
22D
100
AcDbEntity
  8
1
  6
CONTINUOUS
 62
           2
100
AcDbLine
 10
324.123368057932
 20
60.962381755384
 11
308.923368057932
 21
60.962381755384
  0
LINE
  5
22C
100
AcDbEntity
  8
1
  6
CONTINUOUS
 62
           2
100
AcDbLine
 10
308.923368057932
 20
62.210398228731
 11
324.123368057932
 21
62.210398228731
  0
LINE
  5
22B
100
AcDbEntity
  8
1
  6
CONTINUOUS
 62
           2
100
AcDbLine
 10
308.923368057932
 20
63.487961240265
 11
324.123368057932
 21
63.487961240265
  0
LINE
  5
22A
100
AcDbEntity
  8
1
  6
CONTINUOUS
 62
           2
100
AcDbLine
 10
308.923368057932
 20
64.785347764054
 11
324.123368057932
 21
64.785347764054
  0
LINE
  5
229
100
AcDbEntity
  8
1
  6
CONTINUOUS
 62
           7
100
AcDbLine
 10
308.923368057932
 20
51.092683905269
 11
307.923368057932
 21
52.092683905269
  0
LINE
  5
228
100
AcDbEntity
  8
1
  6
CONTINUOUS
 62
           7
100
AcDbLine
 10
325.123368057932
 20
52.092683905269
 11
324.123368057932
 21
51.092683905269
  0
LINE
  5
227
100
AcDbEntity
  8
1
  6
CONTINUOUS
 62
           7
100
AcDbLine
 10
324.123368057932
 20
51.092683905269
 11
308.923368057932
 21
51.092683905269
  0
LINE
  5
226
100
AcDbEntity
  8
1
  6
CONTINUOUS
 62
           7
100
AcDbLine
 10
306.423368057932
 20
54.092683905269
 11
307.923368057932
 21
54.092683905269
  0
LINE
  5
225
100
AcDbEntity
  8
1
  6
CONTINUOUS
 62
           7
100
AcDbLine
 10
301.423368057932
 20
138.592683905269
 11
277.223368057932
 21
138.592683905269
  0
LINE
  5
224
100
AcDbEntity
  8
1
  6
CONTINUOUS
 62
           7
100
AcDbLine
 10
277.223368057932
 20
173.592683905269
 11
301.423368057932
 21
173.592683905269
  0
LINE
  5
223
100
AcDbEntity
  8
1
  6
CONTINUOUS
 62
           7
100
AcDbLine
 10
301.423368057932
 20
48.592683905269
 11
277.223368057932
 21
48.592683905269
  0
LINE
  5
222
100
AcDbEntity
  8
1
  6
CONTINUOUS
 62
           7
100
AcDbLine
 10
277.223368057932
 20
83.592683905269
 11
301.423368057932
 21
83.592683905269
  0
LINE
  5
221
100
AcDbEntity
  8
1
  6
CONTINUOUS
 62
           7
100
AcDbLine
 10
110.523368057932
 20
174.092683905269
 11
107.383996903697
 21
176.092683905269
  0
LINE
  5
220
100
AcDbEntity
  8
1
  6
CONTINUOUS
 62
           7
100
AcDbLine
 10
111.618173868174
 20
138.092683905269
 11
110.523368057932
 21
138.092683905269
  0
LINE
  5
21F
100
AcDbEntity
  8
1
  6
CONTINUOUS
 62
           7
100
AcDbLine
 10
110.523368057932
 20
138.092683905269
 11
107.383996903697
 21
136.092683905269
  0
LINE
  5
21E
100
AcDbEntity
  8
1
  6
CONTINUOUS
 62
           7
100
AcDbLine
 10
243.923368057932
 20
138.092683905269
 11
247.062739212167
 21
136.092683905269
  0
LINE
  5
21D
100
AcDbEntity
  8
1
  6
CONTINUOUS
 62
           7
100
AcDbLine
 10
277.223368057932
 20
136.092683905269
 11
247.062739212167
 21
136.092683905269
  0
LINE
  5
21C
100
AcDbEntity
  8
1
  6
CONTINUOUS
 62
           7
100
AcDbLine
 10
243.923368057932
 20
174.092683905269
 11
247.062739212167
 21
176.092683905269
  0
LINE
  5
21B
100
AcDbEntity
  8
1
  6
CONTINUOUS
 62
           7
100
AcDbLine
 10
247.062739212167
 20
176.092683905269
 11
277.223368057932
 21
176.092683905269
  0
LINE
  5
21A
100
AcDbEntity
  8
1
  6
CONTINUOUS
 62
           7
100
AcDbLine
 10
243.923368057932
 20
48.092683905269
 11
247.062739212167
 21
46.092683905269
  0
LINE
  5
219
100
AcDbEntity
  8
1
  6
CONTINUOUS
 62
           7
100
AcDbLine
 10
243.923368057932
 20
84.092683905269
 11
247.062739212167
 21
86.092683905269
  0
LINE
  5
218
100
AcDbEntity
  8
1
  6
CONTINUOUS
 62
           7
100
AcDbLine
 10
195.361725205149
 20
136.092683905269
 11
159.085010910715
 21
136.092683905269
  0
LINE
  5
217
100
AcDbEntity
  8
1
  6
CONTINUOUS
 62
           7
100
AcDbLine
 10
175.973368057932
 20
147.83677692905
 11
175.973368057932
 21
144.761421839659
  0
LINE
  5
216
100
AcDbEntity
  8
1
  6
CONTINUOUS
 62
           7
100
AcDbLine
 10
178.473368057932
 20
147.83677692905
 11
178.473368057932
 21
144.761421839659
  0
LINE
  5
215
100
AcDbEntity
  8
1
  6
CONTINUOUS
 62
           7
100
AcDbLine
 10
180.623368057932
 20
142.373604932776
 11
178.473368057932
 21
144.761421839659
  0
LINE
  5
214
100
AcDbEntity
  8
1
  6
CONTINUOUS
 62
           7
100
AcDbLine
 10
175.973368057932
 20
144.761421839659
 11
173.823368057932
 21
142.373604932776
  0
LINE
  5
213
100
AcDbEntity
  8
1
  6
CONTINUOUS
 62
           7
100
AcDbLine
 10
179.829742297488
 20
148.159884063892
 11
180.623368057932
 21
147.278473362252
  0
LINE
  5
212
100
AcDbEntity
  8
1
  6
CONTINUOUS
 62
           7
100
AcDbLine
 10
180.623368057932
 20
141.681577077547
 11
180.623368057932
 21
147.278473362252
  0
LINE
  5
211
100
AcDbEntity
  8
1
  6
CONTINUOUS
 62
           7
100
AcDbLine
 10
173.823368057932
 20
147.278473362252
 11
174.616993818376
 21
148.159884063892
  0
LINE
  5
210
100
AcDbEntity
  8
1
  6
CONTINUOUS
 62
           7
100
AcDbLine
 10
173.823368057932
 20
147.278473362252
 11
173.823368057932
 21
141.681577077547
  0
LINE
  5
20F
100
AcDbEntity
  8
1
  6
CONTINUOUS
 62
           6
100
AcDbLine
 10
173.823368057932
 20
141.681577077547
 11
173.823368057932
 21
141.277826497923
  0
LINE
  5
20E
100
AcDbEntity
  8
1
  6
CONTINUOUS
 62
           6
100
AcDbLine
 10
180.623368057932
 20
141.277826497923
 11
180.623368057932
 21
141.681577077547
  0
LINE
  5
20D
100
AcDbEntity
  8
1
  6
CONTINUOUS
 62
           7
100
AcDbLine
 10
175.973368057932
 20
167.423945970879
 11
175.973368057932
 21
164.348590881488
  0
LINE
  5
20C
100
AcDbEntity
  8
1
  6
CONTINUOUS
 62
           7
100
AcDbLine
 10
178.473368057932
 20
167.423945970879
 11
178.473368057932
 21
164.348590881488
  0
LINE
  5
20B
100
AcDbEntity
  8
1
  6
CONTINUOUS
 62
           7
100
AcDbLine
 10
178.473368057932
 20
167.423945970879
 11
180.623368057932
 21
169.811762877762
  0
LINE
  5
20A
100
AcDbEntity
  8
1
  6
CONTINUOUS
 62
           7
100
AcDbLine
 10
173.823368057932
 20
169.811762877762
 11
175.973368057932
 21
167.423945970879
  0
LINE
  5
209
100
AcDbEntity
  8
1
  6
CONTINUOUS
 62
           7
100
AcDbLine
 10
180.623368057932
 20
164.906894448286
 11
179.829742297488
 21
164.025483746646
  0
LINE
  5
208
100
AcDbEntity
  8
1
  6
CONTINUOUS
 62
           7
100
AcDbLine
 10
180.623368057932
 20
164.906894448286
 11
180.623368057932
 21
170.50379073299
  0
LINE
  5
207
100
AcDbEntity
  8
1
  6
CONTINUOUS
 62
           7
100
AcDbLine
 10
174.616993818376
 20
164.025483746646
 11
173.823368057932
 21
164.906894448286
  0
LINE
  5
206
100
AcDbEntity
  8
1
  6
CONTINUOUS
 62
           7
100
AcDbLine
 10
173.823368057932
 20
170.50379073299
 11
173.823368057932
 21
164.906894448286
  0
LINE
  5
205
100
AcDbEntity
  8
1
  6
CONTINUOUS
 62
           6
100
AcDbLine
 10
173.823368057932
 20
170.907541312615
 11
173.823368057932
 21
170.50379073299
  0
LINE
  5
204
100
AcDbEntity
  8
1
  6
CONTINUOUS
 62
           6
100
AcDbLine
 10
180.623368057932
 20
170.50379073299
 11
180.623368057932
 21
170.907541312615
  0
LINE
  5
203
100
AcDbEntity
  8
1
  6
CONTINUOUS
 62
           7
100
AcDbLine
 10
242.823368057932
 20
48.392683905269
 11
242.823368057932
 21
83.792683905269
  0
LINE
  5
202
100
AcDbEntity
  8
1
  6
CONTINUOUS
 62
           7
100
AcDbLine
 10
224.451229238141
 20
62.690787640929
 11
225.322013494259
 21
59.654002048673
  0
LINE
  5
201
100
AcDbEntity
  8
1
  6
CONTINUOUS
 62
           7
100
AcDbLine
 10
225.520987937926
 20
62.607978070092
 11
225.520987937926
 21
59.340787640909
  0
LINE
  5
200
100
AcDbEntity
  8
1
  6
CONTINUOUS
 62
           2
100
AcDbLine
 10
225.322013494259
 20
69.73292128291
 11
225.322013494259
 21
72.727573233186
  0
LINE
  5
1FF
100
AcDbEntity
  8
1
  6
CONTINUOUS
 62
           7
100
AcDbLine
 10
224.820987937927
 20
62.690787640929
 11
215.121111159502
 21
62.690787640929
  0
LINE
  5
1FE
100
AcDbEntity
  8
1
  6
CONTINUOUS
 62
           7
100
AcDbLine
 10
215.121111159502
 20
69.690787640929
 11
224.820987937927
 21
69.690787640929
  0
LINE
  5
1FD
100
AcDbEntity
  8
1
  6
CONTINUOUS
 62
           7
100
AcDbLine
 10
225.322013494259
 20
72.727573233186
 11
225.520987937926
 21
72.840787640949
  0
LINE
  5
1FC
100
AcDbEntity
  8
1
  6
CONTINUOUS
 62
           7
100
AcDbLine
 10
225.322013494259
 20
72.727573233186
 11
224.451229238141
 21
69.690787640929
  0
LINE
  5
1FB
100
AcDbEntity
  8
1
  6
CONTINUOUS
 62
           7
100
AcDbLine
 10
227.820987937927
 20
79.159985705694
 11
225.520987937926
 21
72.840787640949
  0
LINE
  5
1FA
100
AcDbEntity
  8
1
  6
CONTINUOUS
 62
           7
100
AcDbLine
 10
225.520987937926
 20
69.773597211766
 11
225.520987937926
 21
73.040787640948
  0
LINE
  5
1F9
100
AcDbEntity
  8
1
  6
CONTINUOUS
 62
           7
100
AcDbLine
 10
227.820987937927
 20
81.290787640909
 11
228.020987937966
 21
81.490787640949
  0
LINE
  5
1F8
100
AcDbEntity
  8
1
  6
CONTINUOUS
 62
           7
100
AcDbLine
 10
227.820987937927
 20
51.090787640949
 11
227.820987937927
 21
81.290787640909
  0
LINE
  5
1F7
100
AcDbEntity
  8
1
  6
CONTINUOUS
 62
           7
100
AcDbLine
 10
230.823368057932
 20
81.490787640949
 11
228.020987937966
 21
81.490787640949
  0
LINE
  5
1F6
100
AcDbEntity
  8
1
  6
CONTINUOUS
 62
           2
100
AcDbLine
 10
228.020987937966
 20
81.490787640949
 11
228.020987937966
 21
50.890787640909
  0
LINE
  5
1F5
100
AcDbEntity
  8
1
  6
CONTINUOUS
 62
           2
100
AcDbLine
 10
225.322013494259
 20
59.654002048673
 11
225.322013494259
 21
62.648653998948
  0
LINE
  5
1F4
100
AcDbEntity
  8
1
  6
CONTINUOUS
 62
           7
100
AcDbLine
 10
225.520987937926
 20
59.540787640909
 11
225.322013494259
 21
59.654002048673
  0
LINE
  5
1F3
100
AcDbEntity
  8
1
  6
CONTINUOUS
 62
           7
100
AcDbLine
 10
225.520987937926
 20
59.540787640909
 11
227.820987937927
 21
53.221589576164
  0
LINE
  5
1F2
100
AcDbEntity
  8
1
  6
CONTINUOUS
 62
           7
100
AcDbLine
 10
228.020987937966
 20
50.890787640909
 11
227.820987937927
 21
51.090787640949
  0
LINE
  5
1F1
100
AcDbEntity
  8
1
  6
CONTINUOUS
 62
           7
100
AcDbLine
 10
228.020987937966
 20
50.890787640909
 11
230.823368057932
 21
50.890787640909
  0
LINE
  5
1F0
100
AcDbEntity
  8
1
  6
CONTINUOUS
 62
           7
100
AcDbLine
 10
225.520987937926
 20
59.340787640909
 11
225.520987937926
 21
59.540787640909
  0
LINE
  5
1EF
100
AcDbEntity
  8
1
  6
CONTINUOUS
 62
           7
100
AcDbLine
 10
230.823368057932
 20
48.990787640929
 11
230.823368057932
 21
83.39078764093
  0
LINE
  5
1EE
100
AcDbEntity
  8
1
  6
CONTINUOUS
 62
           7
100
AcDbLine
 10
234.323368057932
 20
84.298068055112
 11
241.023368057931
 21
84.298068055112
  0
LINE
  5
1ED
100
AcDbEntity
  8
1
  6
CONTINUOUS
 62
           7
100
AcDbLine
 10
234.323368057932
 20
83.70070892443
 11
241.023368057931
 21
83.70070892443
  0
LINE
  5
1EC
100
AcDbEntity
  8
1
  6
CONTINUOUS
 62
           7
100
AcDbLine
 10
241.023368057931
 20
81.907810642419
 11
234.323368057932
 21
81.907810642419
  0
LINE
  5
1EB
100
AcDbEntity
  8
1
  6
CONTINUOUS
 62
           7
100
AcDbLine
 10
234.323368057932
 20
80.771566054812
 11
241.023368057931
 21
80.771566054812
  0
LINE
  5
1EA
100
AcDbEntity
  8
1
  6
CONTINUOUS
 62
           7
100
AcDbLine
 10
241.023368057931
 20
77.979061511402
 11
234.323368057932
 21
77.979061511402
  0
LINE
  5
1E9
100
AcDbEntity
  8
1
  6
CONTINUOUS
 62
           7
100
AcDbLine
 10
234.323368057932
 20
76.415155003786
 11
241.023368057931
 21
76.415155003786
  0
LINE
  5
1E8
100
AcDbEntity
  8
1
  6
CONTINUOUS
 62
           7
100
AcDbLine
 10
234.323368057932
 20
72.896394000209
 11
241.023368057931
 21
72.896394000209
  0
LINE
  5
1E7
100
AcDbEntity
  8
1
  6
CONTINUOUS
 62
           7
100
AcDbLine
 10
234.323368057932
 20
71.057911637928
 11
241.023368057931
 21
71.057911637928
  0
LINE
  5
1E6
100
AcDbEntity
  8
1
  6
CONTINUOUS
 62
           7
100
AcDbLine
 10
241.023368057931
 20
67.157335017863
 11
234.323368057932
 21
67.157335017863
  0
LINE
  5
1E5
100
AcDbEntity
  8
1
  6
CONTINUOUS
 62
           7
100
AcDbLine
 10
241.023368057932
 20
47.740787640929
 11
241.023368057932
 21
84.640787640929
  0
LINE
  5
1E4
100
AcDbEntity
  8
1
  6
CONTINUOUS
 62
           7
100
AcDbLine
 10
234.323368057932
 20
47.740787640929
 11
234.323368057932
 21
84.64078764093
  0
LINE
  5
1E3
100
AcDbEntity
  8
1
  6
CONTINUOUS
 62
           7
100
AcDbLine
 10
242.823368057932
 20
48.490787640929
 11
242.823368057932
 21
83.890787640929
  0
LINE
  5
1E2
100
AcDbEntity
  8
1
  6
CONTINUOUS
 62
           7
100
AcDbLine
 10
234.623368057932
 20
84.940787640929
 11
240.723368057932
 21
84.940787640929
  0
LINE
  5
1E1
100
AcDbEntity
  8
1
  6
CONTINUOUS
 62
           7
100
AcDbLine
 10
241.023368057931
 20
84.390787640929
 11
242.323368057932
 21
84.390787640929
  0
LINE
  5
1E0
100
AcDbEntity
  8
1
  6
CONTINUOUS
 62
           7
100
AcDbLine
 10
231.823368057932
 20
84.390787640929
 11
234.323368057932
 21
84.390787640929
  0
LINE
  5
1DF
100
AcDbEntity
  8
1
  6
CONTINUOUS
 62
           7
100
AcDbLine
 10
241.023368057931
 20
48.083507226746
 11
234.323368057932
 21
48.083507226746
  0
LINE
  5
1DE
100
AcDbEntity
  8
1
  6
CONTINUOUS
 62
           7
100
AcDbLine
 10
241.023368057931
 20
48.680866357428
 11
234.323368057932
 21
48.680866357428
  0
LINE
  5
1DD
100
AcDbEntity
  8
1
  6
CONTINUOUS
 62
           7
100
AcDbLine
 10
234.323368057932
 20
50.473764639439
 11
241.023368057931
 21
50.473764639439
  0
LINE
  5
1DC
100
AcDbEntity
  8
1
  6
CONTINUOUS
 62
           7
100
AcDbLine
 10
241.023368057931
 20
51.610009227046
 11
234.323368057932
 21
51.610009227046
  0
LINE
  5
1DB
100
AcDbEntity
  8
1
  6
CONTINUOUS
 62
           7
100
AcDbLine
 10
234.323368057932
 20
54.402513770456
 11
241.023368057931
 21
54.402513770456
  0
LINE
  5
1DA
100
AcDbEntity
  8
1
  6
CONTINUOUS
 62
           7
100
AcDbLine
 10
241.023368057931
 20
55.966420278072
 11
234.323368057932
 21
55.966420278072
  0
LINE
  5
1D9
100
AcDbEntity
  8
1
  6
CONTINUOUS
 62
           7
100
AcDbLine
 10
241.023368057931
 20
59.485181281649
 11
234.323368057932
 21
59.485181281649
  0
LINE
  5
1D8
100
AcDbEntity
  8
1
  6
CONTINUOUS
 62
           7
100
AcDbLine
 10
241.023368057931
 20
61.32366364393
 11
234.323368057932
 21
61.32366364393
  0
LINE
  5
1D7
100
AcDbEntity
  8
1
  6
CONTINUOUS
 62
           7
100
AcDbLine
 10
234.323368057932
 20
65.224240263995
 11
241.023368057931
 21
65.224240263995
  0
LINE
  5
1D6
100
AcDbEntity
  8
1
  6
CONTINUOUS
 62
           7
100
AcDbLine
 10
240.723368057932
 20
47.440787640929
 11
234.623368057932
 21
47.440787640929
  0
LINE
  5
1D5
100
AcDbEntity
  8
1
  6
CONTINUOUS
 62
           7
100
AcDbLine
 10
234.323368057932
 20
47.990787640929
 11
231.823368057932
 21
47.990787640929
  0
LINE
  5
1D4
100
AcDbEntity
  8
1
  6
CONTINUOUS
 62
           7
100
AcDbLine
 10
214.621111159502
 20
63.190787640929
 11
214.621111159502
 21
69.190787640929
  0
LINE
  5
1D3
100
AcDbEntity
  8
1
  6
CONTINUOUS
 62
           7
100
AcDbLine
 10
224.451229238141
 20
62.788891376589
 11
225.322013494259
 21
59.752105784333
  0
LINE
  5
1D2
100
AcDbEntity
  8
1
  6
CONTINUOUS
 62
           7
100
AcDbLine
 10
225.520987937926
 20
62.706081805753
 11
225.520987937926
 21
59.438891376569
  0
LINE
  5
1D1
100
AcDbEntity
  8
1
  6
CONTINUOUS
 62
           2
100
AcDbLine
 10
225.322013494259
 20
69.83102501857
 11
225.322013494259
 21
72.825676968846
  0
LINE
  5
1D0
100
AcDbEntity
  8
1
  6
CONTINUOUS
 62
           7
100
AcDbLine
 10
224.820987937927
 20
62.788891376589
 11
215.121111159502
 21
62.788891376589
  0
LINE
  5
1CF
100
AcDbEntity
  8
1
  6
CONTINUOUS
 62
           7
100
AcDbLine
 10
215.121111159502
 20
69.788891376589
 11
224.820987937927
 21
69.788891376589
  0
LINE
  5
1CE
100
AcDbEntity
  8
1
  6
CONTINUOUS
 62
           7
100
AcDbLine
 10
225.322013494259
 20
72.825676968846
 11
225.520987937926
 21
72.938891376609
  0
LINE
  5
1CD
100
AcDbEntity
  8
1
  6
CONTINUOUS
 62
           7
100
AcDbLine
 10
225.322013494259
 20
72.825676968846
 11
224.451229238141
 21
69.788891376589
  0
LINE
  5
1CC
100
AcDbEntity
  8
1
  6
CONTINUOUS
 62
           7
100
AcDbLine
 10
227.820987937927
 20
79.258089441355
 11
225.520987937926
 21
72.938891376609
  0
LINE
  5
1CB
100
AcDbEntity
  8
1
  6
CONTINUOUS
 62
           7
100
AcDbLine
 10
225.520987937926
 20
69.871700947426
 11
225.520987937926
 21
73.138891376608
  0
LINE
  5
1CA
100
AcDbEntity
  8
1
  6
CONTINUOUS
 62
           7
100
AcDbLine
 10
227.820987937927
 20
81.38889137657
 11
228.020987937966
 21
81.588891376609
  0
LINE
  5
1C9
100
AcDbEntity
  8
1
  6
CONTINUOUS
 62
           7
100
AcDbLine
 10
227.820987937927
 20
51.188891376609
 11
227.820987937927
 21
81.38889137657
  0
LINE
  5
1C8
100
AcDbEntity
  8
1
  6
CONTINUOUS
 62
           7
100
AcDbLine
 10
230.823368057932
 20
81.588891376609
 11
228.020987937966
 21
81.588891376609
  0
LINE
  5
1C7
100
AcDbEntity
  8
1
  6
CONTINUOUS
 62
           2
100
AcDbLine
 10
228.020987937966
 20
81.588891376609
 11
228.020987937966
 21
50.98889137657
  0
LINE
  5
1C6
100
AcDbEntity
  8
1
  6
CONTINUOUS
 62
           2
100
AcDbLine
 10
225.322013494259
 20
59.752105784333
 11
225.322013494259
 21
62.746757734609
  0
LINE
  5
1C5
100
AcDbEntity
  8
1
  6
CONTINUOUS
 62
           7
100
AcDbLine
 10
225.520987937926
 20
59.63889137657
 11
225.322013494259
 21
59.752105784333
  0
LINE
  5
1C4
100
AcDbEntity
  8
1
  6
CONTINUOUS
 62
           7
100
AcDbLine
 10
225.520987937926
 20
59.63889137657
 11
227.820987937927
 21
53.319693311824
  0
LINE
  5
1C3
100
AcDbEntity
  8
1
  6
CONTINUOUS
 62
           7
100
AcDbLine
 10
228.020987937966
 20
50.98889137657
 11
227.820987937927
 21
51.188891376609
  0
LINE
  5
1C2
100
AcDbEntity
  8
1
  6
CONTINUOUS
 62
           7
100
AcDbLine
 10
228.020987937966
 20
50.98889137657
 11
230.823368057932
 21
50.98889137657
  0
LINE
  5
1C1
100
AcDbEntity
  8
1
  6
CONTINUOUS
 62
           7
100
AcDbLine
 10
225.520987937926
 20
59.438891376569
 11
225.520987937926
 21
59.63889137657
  0
LINE
  5
1C0
100
AcDbEntity
  8
1
  6
CONTINUOUS
 62
           7
100
AcDbLine
 10
230.823368057932
 20
49.08889137659
 11
230.823368057932
 21
83.48889137659
  0
LINE
  5
1BF
100
AcDbEntity
  8
1
  6
CONTINUOUS
 62
           7
100
AcDbLine
 10
234.323368057932
 20
84.396171790772
 11
241.023368057931
 21
84.396171790772
  0
LINE
  5
1BE
100
AcDbEntity
  8
1
  6
CONTINUOUS
 62
           7
100
AcDbLine
 10
234.323368057932
 20
83.79881266009
 11
241.023368057931
 21
83.79881266009
  0
LINE
  5
1BD
100
AcDbEntity
  8
1
  6
CONTINUOUS
 62
           7
100
AcDbLine
 10
241.023368057931
 20
82.005914378079
 11
234.323368057932
 21
82.005914378079
  0
LINE
  5
1BC
100
AcDbEntity
  8
1
  6
CONTINUOUS
 62
           7
100
AcDbLine
 10
234.323368057932
 20
80.869669790472
 11
241.023368057931
 21
80.869669790472
  0
LINE
  5
1BB
100
AcDbEntity
  8
1
  6
CONTINUOUS
 62
           7
100
AcDbLine
 10
241.023368057931
 20
78.077165247062
 11
234.323368057932
 21
78.077165247062
  0
LINE
  5
1BA
100
AcDbEntity
  8
1
  6
CONTINUOUS
 62
           7
100
AcDbLine
 10
234.323368057932
 20
76.513258739446
 11
241.023368057931
 21
76.513258739446
  0
LINE
  5
1B9
100
AcDbEntity
  8
1
  6
CONTINUOUS
 62
           7
100
AcDbLine
 10
234.323368057932
 20
72.994497735869
 11
241.023368057931
 21
72.994497735869
  0
LINE
  5
1B8
100
AcDbEntity
  8
1
  6
CONTINUOUS
 62
           7
100
AcDbLine
 10
234.323368057932
 20
71.156015373588
 11
241.023368057931
 21
71.156015373588
  0
LINE
  5
1B7
100
AcDbEntity
  8
1
  6
CONTINUOUS
 62
           7
100
AcDbLine
 10
241.023368057931
 20
67.255438753523
 11
234.323368057932
 21
67.255438753523
  0
LINE
  5
1B6
100
AcDbEntity
  8
1
  6
CONTINUOUS
 62
           7
100
AcDbLine
 10
241.023368057932
 20
47.83889137659
 11
241.023368057932
 21
84.738891376589
  0
LINE
  5
1B5
100
AcDbEntity
  8
1
  6
CONTINUOUS
 62
           7
100
AcDbLine
 10
234.323368057932
 20
47.83889137659
 11
234.323368057932
 21
84.73889137659
  0
LINE
  5
1B4
100
AcDbEntity
  8
1
  6
CONTINUOUS
 62
           7
100
AcDbLine
 10
242.823368057932
 20
48.58889137659
 11
242.823368057932
 21
83.988891376589
  0
LINE
  5
1B3
100
AcDbEntity
  8
1
  6
CONTINUOUS
 62
           7
100
AcDbLine
 10
234.623368057932
 20
85.038891376589
 11
240.723368057932
 21
85.038891376589
  0
LINE
  5
1B2
100
AcDbEntity
  8
1
  6
CONTINUOUS
 62
           7
100
AcDbLine
 10
241.023368057931
 20
84.488891376589
 11
242.323368057932
 21
84.488891376589
  0
LINE
  5
1B1
100
AcDbEntity
  8
1
  6
CONTINUOUS
 62
           7
100
AcDbLine
 10
231.823368057932
 20
84.488891376589
 11
234.323368057932
 21
84.488891376589
  0
LINE
  5
1B0
100
AcDbEntity
  8
1
  6
CONTINUOUS
 62
           7
100
AcDbLine
 10
241.023368057931
 20
48.181610962407
 11
234.323368057932
 21
48.181610962407
  0
LINE
  5
1AF
100
AcDbEntity
  8
1
  6
CONTINUOUS
 62
           7
100
AcDbLine
 10
241.023368057931
 20
48.778970093089
 11
234.323368057932
 21
48.778970093089
  0
LINE
  5
1AE
100
AcDbEntity
  8
1
  6
CONTINUOUS
 62
           7
100
AcDbLine
 10
234.323368057932
 20
50.571868375099
 11
241.023368057931
 21
50.571868375099
  0
LINE
  5
1AD
100
AcDbEntity
  8
1
  6
CONTINUOUS
 62
           7
100
AcDbLine
 10
241.023368057931
 20
51.708112962707
 11
234.323368057932
 21
51.708112962707
  0
LINE
  5
1AC
100
AcDbEntity
  8
1
  6
CONTINUOUS
 62
           7
100
AcDbLine
 10
234.323368057932
 20
54.500617506117
 11
241.023368057931
 21
54.500617506117
  0
LINE
  5
1AB
100
AcDbEntity
  8
1
  6
CONTINUOUS
 62
           7
100
AcDbLine
 10
241.023368057931
 20
56.064524013733
 11
234.323368057932
 21
56.064524013733
  0
LINE
  5
1AA
100
AcDbEntity
  8
1
  6
CONTINUOUS
 62
           7
100
AcDbLine
 10
241.023368057931
 20
59.583285017309
 11
234.323368057932
 21
59.583285017309
  0
LINE
  5
1A9
100
AcDbEntity
  8
1
  6
CONTINUOUS
 62
           7
100
AcDbLine
 10
241.023368057931
 20
61.42176737959
 11
234.323368057932
 21
61.42176737959
  0
LINE
  5
1A8
100
AcDbEntity
  8
1
  6
CONTINUOUS
 62
           7
100
AcDbLine
 10
234.323368057932
 20
65.322343999656
 11
241.023368057931
 21
65.322343999656
  0
LINE
  5
1A7
100
AcDbEntity
  8
1
  6
CONTINUOUS
 62
           7
100
AcDbLine
 10
240.723368057932
 20
47.538891376589
 11
234.623368057932
 21
47.538891376589
  0
LINE
  5
1A6
100
AcDbEntity
  8
1
  6
CONTINUOUS
 62
           7
100
AcDbLine
 10
242.323368057932
 20
48.08889137659
 11
241.023368057931
 21
48.08889137659
  0
LINE
  5
1A5
100
AcDbEntity
  8
1
  6
CONTINUOUS
 62
           7
100
AcDbLine
 10
234.323368057932
 20
48.08889137659
 11
231.823368057932
 21
48.08889137659
  0
LINE
  5
1A4
100
AcDbEntity
  8
1
  6
CONTINUOUS
 62
           7
100
AcDbLine
 10
214.621111159502
 20
63.288891376589
 11
214.621111159502
 21
69.288891376589
  0
LINE
  5
1A3
100
AcDbEntity
  8
1
  6
CONTINUOUS
 62
           7
100
AcDbLine
 10
242.823368057932
 20
228.196476433949
 11
242.823368057932
 21
263.596476433948
  0
LINE
  5
1A2
100
AcDbEntity
  8
1
  6
CONTINUOUS
 62
           7
100
AcDbLine
 10
224.451229238141
 20
242.494580169609
 11
225.322013494259
 21
239.457794577352
  0
LINE
  5
1A1
100
AcDbEntity
  8
1
  6
CONTINUOUS
 62
           7
100
AcDbLine
 10
225.520987937926
 20
242.411770598772
 11
225.520987937926
 21
239.144580169589
  0
LINE
  5
1A0
100
AcDbEntity
  8
1
  6
CONTINUOUS
 62
           2
100
AcDbLine
 10
225.322013494259
 20
249.536713811589
 11
225.322013494259
 21
252.531365761865
  0
LINE
  5
19F
100
AcDbEntity
  8
1
  6
CONTINUOUS
 62
           7
100
AcDbLine
 10
224.820987937927
 20
242.494580169609
 11
215.121111159502
 21
242.494580169609
  0
LINE
  5
19E
100
AcDbEntity
  8
1
  6
CONTINUOUS
 62
           7
100
AcDbLine
 10
215.121111159502
 20
249.494580169609
 11
224.820987937927
 21
249.494580169609
  0
LINE
  5
19D
100
AcDbEntity
  8
1
  6
CONTINUOUS
 62
           7
100
AcDbLine
 10
225.322013494259
 20
252.531365761865
 11
225.520987937926
 21
252.644580169628
  0
LINE
  5
19C
100
AcDbEntity
  8
1
  6
CONTINUOUS
 62
           7
100
AcDbLine
 10
225.322013494259
 20
252.531365761865
 11
224.451229238141
 21
249.494580169609
  0
LINE
  5
19B
100
AcDbEntity
  8
1
  6
CONTINUOUS
 62
           7
100
AcDbLine
 10
227.820987937927
 20
258.963778234374
 11
225.520987937926
 21
252.644580169628
  0
LINE
  5
19A
100
AcDbEntity
  8
1
  6
CONTINUOUS
 62
           7
100
AcDbLine
 10
225.520987937926
 20
249.577389740446
 11
225.520987937926
 21
252.844580169627
  0
LINE
  5
199
100
AcDbEntity
  8
1
  6
CONTINUOUS
 62
           7
100
AcDbLine
 10
227.820987937927
 20
261.094580169589
 11
228.020987937966
 21
261.294580169629
  0
LINE
  5
198
100
AcDbEntity
  8
1
  6
CONTINUOUS
 62
           7
100
AcDbLine
 10
227.820987937927
 20
230.894580169629
 11
227.820987937927
 21
261.094580169589
  0
LINE
  5
197
100
AcDbEntity
  8
1
  6
CONTINUOUS
 62
           7
100
AcDbLine
 10
230.823368057932
 20
261.294580169629
 11
228.020987937966
 21
261.294580169629
  0
LINE
  5
196
100
AcDbEntity
  8
1
  6
CONTINUOUS
 62
           2
100
AcDbLine
 10
228.020987937966
 20
261.294580169629
 11
228.020987937966
 21
230.694580169589
  0
LINE
  5
195
100
AcDbEntity
  8
1
  6
CONTINUOUS
 62
           2
100
AcDbLine
 10
225.322013494259
 20
239.457794577352
 11
225.322013494259
 21
242.452446527628
  0
LINE
  5
194
100
AcDbEntity
  8
1
  6
CONTINUOUS
 62
           7
100
AcDbLine
 10
225.520987937926
 20
239.344580169589
 11
225.322013494259
 21
239.457794577352
  0
LINE
  5
193
100
AcDbEntity
  8
1
  6
CONTINUOUS
 62
           7
100
AcDbLine
 10
225.520987937926
 20
239.344580169589
 11
227.820987937927
 21
233.025382104843
  0
LINE
  5
192
100
AcDbEntity
  8
1
  6
CONTINUOUS
 62
           7
100
AcDbLine
 10
228.020987937966
 20
230.694580169589
 11
227.820987937927
 21
230.894580169629
  0
LINE
  5
191
100
AcDbEntity
  8
1
  6
CONTINUOUS
 62
           7
100
AcDbLine
 10
228.020987937966
 20
230.694580169589
 11
230.823368057932
 21
230.694580169589
  0
LINE
  5
190
100
AcDbEntity
  8
1
  6
CONTINUOUS
 62
           7
100
AcDbLine
 10
225.520987937926
 20
239.144580169589
 11
225.520987937926
 21
239.344580169589
  0
LINE
  5
18F
100
AcDbEntity
  8
1
  6
CONTINUOUS
 62
           7
100
AcDbLine
 10
230.823368057932
 20
228.794580169609
 11
230.823368057932
 21
263.194580169609
  0
LINE
  5
18E
100
AcDbEntity
  8
1
  6
CONTINUOUS
 62
           7
100
AcDbLine
 10
234.323368057932
 20
264.101860583792
 11
241.023368057931
 21
264.101860583792
  0
LINE
  5
18D
100
AcDbEntity
  8
1
  6
CONTINUOUS
 62
           7
100
AcDbLine
 10
234.323368057932
 20
263.504501453109
 11
241.023368057931
 21
263.504501453109
  0
LINE
  5
18C
100
AcDbEntity
  8
1
  6
CONTINUOUS
 62
           7
100
AcDbLine
 10
241.023368057931
 20
261.711603171099
 11
234.323368057932
 21
261.711603171099
  0
LINE
  5
18B
100
AcDbEntity
  8
1
  6
CONTINUOUS
 62
           7
100
AcDbLine
 10
234.323368057932
 20
260.575358583492
 11
241.023368057931
 21
260.575358583492
  0
LINE
  5
18A
100
AcDbEntity
  8
1
  6
CONTINUOUS
 62
           7
100
AcDbLine
 10
241.023368057931
 20
257.782854040082
 11
234.323368057932
 21
257.782854040082
  0
LINE
  5
189
100
AcDbEntity
  8
1
  6
CONTINUOUS
 62
           7
100
AcDbLine
 10
234.323368057932
 20
256.218947532466
 11
241.023368057931
 21
256.218947532466
  0
LINE
  5
188
100
AcDbEntity
  8
1
  6
CONTINUOUS
 62
           7
100
AcDbLine
 10
234.323368057932
 20
252.700186528889
 11
241.023368057931
 21
252.700186528889
  0
LINE
  5
187
100
AcDbEntity
  8
1
  6
CONTINUOUS
 62
           7
100
AcDbLine
 10
234.323368057932
 20
250.861704166608
 11
241.023368057931
 21
250.861704166608
  0
LINE
  5
186
100
AcDbEntity
  8
1
  6
CONTINUOUS
 62
           7
100
AcDbLine
 10
241.023368057931
 20
246.961127546543
 11
234.323368057932
 21
246.961127546543
  0
LINE
  5
185
100
AcDbEntity
  8
1
  6
CONTINUOUS
 62
           7
100
AcDbLine
 10
241.023368057932
 20
227.544580169609
 11
241.023368057932
 21
264.444580169608
  0
LINE
  5
184
100
AcDbEntity
  8
1
  6
CONTINUOUS
 62
           7
100
AcDbLine
 10
234.323368057932
 20
227.544580169609
 11
234.323368057932
 21
264.444580169609
  0
LINE
  5
183
100
AcDbEntity
  8
1
  6
CONTINUOUS
 62
           7
100
AcDbLine
 10
242.823368057932
 20
228.294580169609
 11
242.823368057932
 21
263.694580169608
  0
LINE
  5
182
100
AcDbEntity
  8
1
  6
CONTINUOUS
 62
           7
100
AcDbLine
 10
234.623368057932
 20
264.744580169609
 11
240.723368057932
 21
264.744580169609
  0
LINE
  5
181
100
AcDbEntity
  8
1
  6
CONTINUOUS
 62
           7
100
AcDbLine
 10
241.023368057931
 20
264.194580169608
 11
242.323368057932
 21
264.194580169608
  0
LINE
  5
180
100
AcDbEntity
  8
1
  6
CONTINUOUS
 62
           7
100
AcDbLine
 10
231.823368057932
 20
264.194580169608
 11
234.323368057932
 21
264.194580169608
  0
LINE
  5
17F
100
AcDbEntity
  8
1
  6
CONTINUOUS
 62
           7
100
AcDbLine
 10
241.023368057931
 20
227.887299755426
 11
234.323368057932
 21
227.887299755426
  0
LINE
  5
17E
100
AcDbEntity
  8
1
  6
CONTINUOUS
 62
           7
100
AcDbLine
 10
241.023368057931
 20
228.484658886108
 11
234.323368057932
 21
228.484658886108
  0
LINE
  5
17D
100
AcDbEntity
  8
1
  6
CONTINUOUS
 62
           7
100
AcDbLine
 10
234.323368057932
 20
230.277557168119
 11
241.023368057931
 21
230.277557168119
  0
LINE
  5
17C
100
AcDbEntity
  8
1
  6
CONTINUOUS
 62
           7
100
AcDbLine
 10
241.023368057931
 20
231.413801755726
 11
234.323368057932
 21
231.413801755726
  0
LINE
  5
17B
100
AcDbEntity
  8
1
  6
CONTINUOUS
 62
           7
100
AcDbLine
 10
234.323368057932
 20
234.206306299136
 11
241.023368057931
 21
234.206306299136
  0
LINE
  5
17A
100
AcDbEntity
  8
1
  6
CONTINUOUS
 62
           7
100
AcDbLine
 10
241.023368057931
 20
235.770212806752
 11
234.323368057932
 21
235.770212806752
  0
LINE
  5
179
100
AcDbEntity
  8
1
  6
CONTINUOUS
 62
           7
100
AcDbLine
 10
241.023368057931
 20
239.288973810329
 11
234.323368057932
 21
239.288973810329
  0
LINE
  5
178
100
AcDbEntity
  8
1
  6
CONTINUOUS
 62
           7
100
AcDbLine
 10
241.023368057931
 20
241.12745617261
 11
234.323368057932
 21
241.12745617261
  0
LINE
  5
177
100
AcDbEntity
  8
1
  6
CONTINUOUS
 62
           7
100
AcDbLine
 10
234.323368057932
 20
245.028032792675
 11
241.023368057931
 21
245.028032792675
  0
LINE
  5
176
100
AcDbEntity
  8
1
  6
CONTINUOUS
 62
           7
100
AcDbLine
 10
240.723368057932
 20
227.244580169609
 11
234.623368057932
 21
227.244580169609
  0
LINE
  5
175
100
AcDbEntity
  8
1
  6
CONTINUOUS
 62
           7
100
AcDbLine
 10
242.323368057932
 20
227.794580169609
 11
241.023368057931
 21
227.794580169609
  0
LINE
  5
174
100
AcDbEntity
  8
1
  6
CONTINUOUS
 62
           7
100
AcDbLine
 10
234.323368057932
 20
227.794580169609
 11
231.823368057932
 21
227.794580169609
  0
LINE
  5
173
100
AcDbEntity
  8
1
  6
CONTINUOUS
 62
           7
100
AcDbLine
 10
214.621111159502
 20
242.994580169609
 11
214.621111159502
 21
248.994580169609
  0
LINE
  5
172
100
AcDbEntity
  8
1
  6
CONTINUOUS
 62
           7
100
AcDbLine
 10
224.451229238141
 20
242.592683905269
 11
225.322013494259
 21
239.555898313013
  0
LINE
  5
171
100
AcDbEntity
  8
1
  6
CONTINUOUS
 62
           7
100
AcDbLine
 10
225.520987937926
 20
242.509874334432
 11
225.520987937926
 21
239.242683905249
  0
LINE
  5
170
100
AcDbEntity
  8
1
  6
CONTINUOUS
 62
           2
100
AcDbLine
 10
225.322013494259
 20
249.63481754725
 11
225.322013494259
 21
252.629469497525
  0
LINE
  5
16F
100
AcDbEntity
  8
1
  6
CONTINUOUS
 62
           7
100
AcDbLine
 10
224.820987937927
 20
242.592683905269
 11
215.121111159502
 21
242.592683905269
  0
LINE
  5
16E
100
AcDbEntity
  8
1
  6
CONTINUOUS
 62
           7
100
AcDbLine
 10
215.121111159502
 20
249.592683905269
 11
224.820987937927
 21
249.592683905269
  0
LINE
  5
16D
100
AcDbEntity
  8
1
  6
CONTINUOUS
 62
           7
100
AcDbLine
 10
225.322013494259
 20
252.629469497525
 11
225.520987937926
 21
252.742683905289
  0
LINE
  5
16C
100
AcDbEntity
  8
1
  6
CONTINUOUS
 62
           7
100
AcDbLine
 10
225.322013494259
 20
252.629469497525
 11
224.451229238141
 21
249.592683905269
  0
LINE
  5
16B
100
AcDbEntity
  8
1
  6
CONTINUOUS
 62
           7
100
AcDbLine
 10
227.820987937927
 20
259.061881970034
 11
225.520987937926
 21
252.742683905289
  0
LINE
  5
16A
100
AcDbEntity
  8
1
  6
CONTINUOUS
 62
           7
100
AcDbLine
 10
225.520987937926
 20
249.675493476106
 11
225.520987937926
 21
252.942683905288
  0
LINE
  5
169
100
AcDbEntity
  8
1
  6
CONTINUOUS
 62
           7
100
AcDbLine
 10
227.820987937927
 20
261.192683905249
 11
228.020987937966
 21
261.392683905289
  0
LINE
  5
168
100
AcDbEntity
  8
1
  6
CONTINUOUS
 62
           7
100
AcDbLine
 10
227.820987937927
 20
230.992683905289
 11
227.820987937927
 21
261.192683905249
  0
LINE
  5
167
100
AcDbEntity
  8
1
  6
CONTINUOUS
 62
           7
100
AcDbLine
 10
230.823368057932
 20
261.392683905289
 11
228.020987937966
 21
261.392683905289
  0
LINE
  5
166
100
AcDbEntity
  8
1
  6
CONTINUOUS
 62
           2
100
AcDbLine
 10
228.020987937966
 20
261.392683905289
 11
228.020987937966
 21
230.792683905249
  0
LINE
  5
165
100
AcDbEntity
  8
1
  6
CONTINUOUS
 62
           2
100
AcDbLine
 10
225.322013494259
 20
239.555898313013
 11
225.322013494259
 21
242.550550263288
  0
LINE
  5
164
100
AcDbEntity
  8
1
  6
CONTINUOUS
 62
           7
100
AcDbLine
 10
225.520987937926
 20
239.442683905249
 11
225.322013494259
 21
239.555898313013
  0
LINE
  5
163
100
AcDbEntity
  8
1
  6
CONTINUOUS
 62
           7
100
AcDbLine
 10
225.520987937926
 20
239.442683905249
 11
227.820987937927
 21
233.123485840504
  0
LINE
  5
162
100
AcDbEntity
  8
1
  6
CONTINUOUS
 62
           7
100
AcDbLine
 10
228.020987937966
 20
230.792683905249
 11
227.820987937927
 21
230.992683905289
  0
LINE
  5
161
100
AcDbEntity
  8
1
  6
CONTINUOUS
 62
           7
100
AcDbLine
 10
228.020987937966
 20
230.792683905249
 11
230.823368057932
 21
230.792683905249
  0
LINE
  5
160
100
AcDbEntity
  8
1
  6
CONTINUOUS
 62
           7
100
AcDbLine
 10
225.520987937926
 20
239.242683905249
 11
225.520987937926
 21
239.442683905249
  0
LINE
  5
15F
100
AcDbEntity
  8
1
  6
CONTINUOUS
 62
           7
100
AcDbLine
 10
230.823368057932
 20
228.892683905269
 11
230.823368057932
 21
263.292683905269
  0
LINE
  5
15E
100
AcDbEntity
  8
1
  6
CONTINUOUS
 62
           7
100
AcDbLine
 10
234.323368057932
 20
264.199964319452
 11
241.023368057931
 21
264.199964319452
  0
LINE
  5
15D
100
AcDbEntity
  8
1
  6
CONTINUOUS
 62
           7
100
AcDbLine
 10
234.323368057932
 20
263.60260518877
 11
241.023368057931
 21
263.60260518877
  0
LINE
  5
15C
100
AcDbEntity
  8
1
  6
CONTINUOUS
 62
           7
100
AcDbLine
 10
241.023368057931
 20
261.809706906759
 11
234.323368057932
 21
261.809706906759
  0
LINE
  5
15B
100
AcDbEntity
  8
1
  6
CONTINUOUS
 62
           7
100
AcDbLine
 10
234.323368057932
 20
260.673462319152
 11
241.023368057931
 21
260.673462319152
  0
LINE
  5
15A
100
AcDbEntity
  8
1
  6
CONTINUOUS
 62
           7
100
AcDbLine
 10
241.023368057931
 20
257.880957775742
 11
234.323368057932
 21
257.880957775742
  0
LINE
  5
159
100
AcDbEntity
  8
1
  6
CONTINUOUS
 62
           7
100
AcDbLine
 10
234.323368057932
 20
256.317051268126
 11
241.023368057931
 21
256.317051268126
  0
LINE
  5
158
100
AcDbEntity
  8
1
  6
CONTINUOUS
 62
           7
100
AcDbLine
 10
234.323368057932
 20
252.798290264549
 11
241.023368057931
 21
252.798290264549
  0
LINE
  5
157
100
AcDbEntity
  8
1
  6
CONTINUOUS
 62
           7
100
AcDbLine
 10
234.323368057932
 20
250.959807902268
 11
241.023368057931
 21
250.959807902268
  0
LINE
  5
156
100
AcDbEntity
  8
1
  6
CONTINUOUS
 62
           7
100
AcDbLine
 10
241.023368057931
 20
247.059231282203
 11
234.323368057932
 21
247.059231282203
  0
LINE
  5
155
100
AcDbEntity
  8
1
  6
CONTINUOUS
 62
           7
100
AcDbLine
 10
241.023368057932
 20
227.642683905269
 11
241.023368057932
 21
264.542683905269
  0
LINE
  5
154
100
AcDbEntity
  8
1
  6
CONTINUOUS
 62
           7
100
AcDbLine
 10
234.323368057932
 20
227.642683905269
 11
234.323368057932
 21
264.542683905269
  0
LINE
  5
153
100
AcDbEntity
  8
1
  6
CONTINUOUS
 62
           7
100
AcDbLine
 10
242.823368057932
 20
228.392683905269
 11
242.823368057932
 21
263.792683905269
  0
LINE
  5
152
100
AcDbEntity
  8
1
  6
CONTINUOUS
 62
           7
100
AcDbLine
 10
234.623368057932
 20
264.842683905269
 11
240.723368057932
 21
264.842683905269
  0
LINE
  5
151
100
AcDbEntity
  8
1
  6
CONTINUOUS
 62
           7
100
AcDbLine
 10
241.023368057931
 20
264.292683905269
 11
242.323368057932
 21
264.292683905269
  0
LINE
  5
150
100
AcDbEntity
  8
1
  6
CONTINUOUS
 62
           7
100
AcDbLine
 10
231.823368057932
 20
264.292683905269
 11
234.323368057932
 21
264.292683905269
  0
LINE
  5
14F
100
AcDbEntity
  8
1
  6
CONTINUOUS
 62
           7
100
AcDbLine
 10
241.023368057931
 20
227.985403491086
 11
234.323368057932
 21
227.985403491086
  0
LINE
  5
14E
100
AcDbEntity
  8
1
  6
CONTINUOUS
 62
           7
100
AcDbLine
 10
241.023368057931
 20
228.582762621768
 11
234.323368057932
 21
228.582762621768
  0
LINE
  5
14D
100
AcDbEntity
  8
1
  6
CONTINUOUS
 62
           7
100
AcDbLine
 10
234.323368057932
 20
230.375660903779
 11
241.023368057931
 21
230.375660903779
  0
LINE
  5
14C
100
AcDbEntity
  8
1
  6
CONTINUOUS
 62
           7
100
AcDbLine
 10
241.023368057931
 20
231.511905491386
 11
234.323368057932
 21
231.511905491386
  0
LINE
  5
14B
100
AcDbEntity
  8
1
  6
CONTINUOUS
 62
           7
100
AcDbLine
 10
234.323368057932
 20
234.304410034796
 11
241.023368057931
 21
234.304410034796
  0
LINE
  5
14A
100
AcDbEntity
  8
1
  6
CONTINUOUS
 62
           7
100
AcDbLine
 10
241.023368057931
 20
235.868316542412
 11
234.323368057932
 21
235.868316542412
  0
LINE
  5
149
100
AcDbEntity
  8
1
  6
CONTINUOUS
 62
           7
100
AcDbLine
 10
241.023368057931
 20
239.387077545989
 11
234.323368057932
 21
239.387077545989
  0
LINE
  5
148
100
AcDbEntity
  8
1
  6
CONTINUOUS
 62
           7
100
AcDbLine
 10
241.023368057931
 20
241.22555990827
 11
234.323368057932
 21
241.22555990827
  0
LINE
  5
147
100
AcDbEntity
  8
1
  6
CONTINUOUS
 62
           7
100
AcDbLine
 10
234.323368057932
 20
245.126136528335
 11
241.023368057931
 21
245.126136528335
  0
LINE
  5
146
100
AcDbEntity
  8
1
  6
CONTINUOUS
 62
           7
100
AcDbLine
 10
240.723368057932
 20
227.342683905269
 11
234.623368057932
 21
227.342683905269
  0
LINE
  5
145
100
AcDbEntity
  8
1
  6
CONTINUOUS
 62
           7
100
AcDbLine
 10
242.323368057932
 20
227.892683905269
 11
241.023368057931
 21
227.892683905269
  0
LINE
  5
144
100
AcDbEntity
  8
1
  6
CONTINUOUS
 62
           7
100
AcDbLine
 10
234.323368057932
 20
227.892683905269
 11
231.823368057932
 21
227.892683905269
  0
LINE
  5
143
100
AcDbEntity
  8
1
  6
CONTINUOUS
 62
           2
100
AcDbLine
 10
129.019528431847
 20
162.629469497525
 11
129.019528431847
 21
149.555898313013
  0
LINE
  5
142
100
AcDbEntity
  8
1
  6
CONTINUOUS
 62
           7
100
AcDbLine
 10
128.820553988179
 20
162.742683905289
 11
129.019528431847
 21
162.629469497525
  0
LINE
  5
141
100
AcDbEntity
  8
1
  6
CONTINUOUS
 62
           7
100
AcDbLine
 10
130.320430766603
 20
158.092683905269
 11
129.019528431847
 21
162.629469497525
  0
LINE
  5
140
100
AcDbEntity
  8
1
  6
CONTINUOUS
 62
           7
100
AcDbLine
 10
130.320430766603
 20
158.092683905269
 11
130.320430766603
 21
154.092683905269
  0
LINE
  5
13F
100
AcDbEntity
  8
1
  6
CONTINUOUS
 62
           7
100
AcDbLine
 10
130.320553988179
 20
164.442683905288
 11
132.321881890844
 21
164.442683905288
  0
LINE
  5
13E
100
AcDbEntity
  8
1
  6
CONTINUOUS
 62
           7
100
AcDbLine
 10
132.321881890844
 20
164.442683905288
 11
139.009386033384
 21
167.561118300898
  0
LINE
  5
13D
100
AcDbEntity
  8
1
  6
CONTINUOUS
 62
           7
100
AcDbLine
 10
139.009386033384
 20
167.561118300898
 11
139.720430766604
 21
168.792683905289
  0
LINE
  5
13C
100
AcDbEntity
  8
1
  6
CONTINUOUS
 62
           7
100
AcDbLine
 10
139.720430766604
 20
168.792683905289
 11
139.720430766604
 21
170.792683905289
  0
LINE
  5
13B
100
AcDbEntity
  8
1
  6
CONTINUOUS
 62
           7
100
AcDbLine
 10
139.220430766604
 20
171.292683905289
 11
139.720430766604
 21
170.792683905289
  0
LINE
  5
13A
100
AcDbEntity
  8
1
  6
CONTINUOUS
 62
           7
100
AcDbLine
 10
126.420553988179
 20
171.292683905289
 11
139.220430766604
 21
171.292683905289
  0
LINE
  5
139
100
AcDbEntity
  8
1
  6
CONTINUOUS
 62
           7
100
AcDbLine
 10
128.820553988179
 20
162.742683905289
 11
126.520553988179
 21
169.061881970034
  0
LINE
  5
138
100
AcDbEntity
  8
1
  6
CONTINUOUS
 62
           7
100
AcDbLine
 10
139.720430766603
 20
169.578609048705
 11
128.275019957013
 21
164.241526337462
  0
LINE
  5
137
100
AcDbEntity
  8
1
  6
CONTINUOUS
 62
           7
100
AcDbLine
 10
128.820553988179
 20
162.942683905288
 11
128.820553988179
 21
149.24268390525
  0
LINE
  5
136
100
AcDbEntity
  8
1
  6
CONTINUOUS
 62
           7
100
AcDbLine
 10
126.320553988139
 20
171.392683905289
 11
126.520553988179
 21
171.192683905249
  0
LINE
  5
135
100
AcDbEntity
  8
1
  6
CONTINUOUS
 62
           7
100
AcDbLine
 10
126.520553988179
 20
171.192683905249
 11
126.520553988179
 21
140.992683905289
  0
LINE
  5
134
100
AcDbEntity
  8
1
  6
CONTINUOUS
 62
           7
100
AcDbLine
 10
126.320553988139
 20
171.392683905289
 11
123.518173868174
 21
171.392683905289
  0
LINE
  5
133
100
AcDbEntity
  8
1
  6
CONTINUOUS
 62
           2
100
AcDbLine
 10
126.320553988139
 20
140.792683905249
 11
126.320553988139
 21
171.392683905289
  0
LINE
  5
132
100
AcDbEntity
  8
1
  6
CONTINUOUS
 62
           7
100
AcDbLine
 10
128.820553988179
 20
162.942683905288
 11
128.820553988179
 21
162.742683905289
  0
LINE
  5
131
100
AcDbEntity
  8
1
  6
CONTINUOUS
 62
           7
100
AcDbLine
 10
129.019528431847
 20
149.555898313013
 11
128.820553988179
 21
149.442683905249
  0
LINE
  5
130
100
AcDbEntity
  8
1
  6
CONTINUOUS
 62
           7
100
AcDbLine
 10
129.019528431847
 20
149.555898313013
 11
130.320430766603
 21
154.092683905269
  0
LINE
  5
12F
100
AcDbEntity
  8
1
  6
CONTINUOUS
 62
           7
100
AcDbLine
 10
132.321881890844
 20
147.74268390525
 11
130.320553988179
 21
147.74268390525
  0
LINE
  5
12E
100
AcDbEntity
  8
1
  6
CONTINUOUS
 62
           7
100
AcDbLine
 10
139.009386033384
 20
144.62424950964
 11
132.321881890844
 21
147.74268390525
  0
LINE
  5
12D
100
AcDbEntity
  8
1
  6
CONTINUOUS
 62
           7
100
AcDbLine
 10
139.720430766604
 20
143.392683905249
 11
139.009386033384
 21
144.62424950964
  0
LINE
  5
12C
100
AcDbEntity
  8
1
  6
CONTINUOUS
 62
           7
100
AcDbLine
 10
139.720430766604
 20
141.392683905249
 11
139.720430766604
 21
143.392683905249
  0
LINE
  5
12B
100
AcDbEntity
  8
1
  6
CONTINUOUS
 62
           7
100
AcDbLine
 10
139.720430766604
 20
141.392683905249
 11
139.220430766603
 21
140.892683905249
  0
LINE
  5
12A
100
AcDbEntity
  8
1
  6
CONTINUOUS
 62
           7
100
AcDbLine
 10
139.220430766603
 20
140.892683905249
 11
126.420553988179
 21
140.892683905249
  0
LINE
  5
129
100
AcDbEntity
  8
1
  6
CONTINUOUS
 62
           7
100
AcDbLine
 10
126.520553988179
 20
143.123485840504
 11
128.820553988179
 21
149.442683905249
  0
LINE
  5
128
100
AcDbEntity
  8
1
  6
CONTINUOUS
 62
           7
100
AcDbLine
 10
128.275019957013
 20
147.943841473075
 11
139.720430766603
 21
142.606758761833
  0
LINE
  5
127
100
AcDbEntity
  8
1
  6
CONTINUOUS
 62
           7
100
AcDbLine
 10
128.820553988179
 20
149.442683905249
 11
128.820553988179
 21
149.24268390525
  0
LINE
  5
126
100
AcDbEntity
  8
1
  6
CONTINUOUS
 62
           7
100
AcDbLine
 10
126.520553988179
 20
140.992683905289
 11
126.320553988139
 21
140.792683905249
  0
LINE
  5
125
100
AcDbEntity
  8
1
  6
CONTINUOUS
 62
           7
100
AcDbLine
 10
123.518173868174
 20
140.792683905249
 11
126.320553988139
 21
140.792683905249
  0
LINE
  5
124
100
AcDbEntity
  8
1
  6
CONTINUOUS
 62
           7
100
AcDbLine
 10
123.518173868174
 20
173.292683905269
 11
123.518173868174
 21
138.892683905269
  0
LINE
  5
123
100
AcDbEntity
  8
1
  6
CONTINUOUS
 62
           7
100
AcDbLine
 10
113.318173868174
 20
174.199964319452
 11
120.018173868174
 21
174.199964319452
  0
LINE
  5
122
100
AcDbEntity
  8
1
  6
CONTINUOUS
 62
           7
100
AcDbLine
 10
113.318173868174
 20
173.60260518877
 11
120.018173868174
 21
173.60260518877
  0
LINE
  5
121
100
AcDbEntity
  8
1
  6
CONTINUOUS
 62
           7
100
AcDbLine
 10
120.018173868174
 20
171.809706906759
 11
113.318173868174
 21
171.809706906759
  0
LINE
  5
120
100
AcDbEntity
  8
1
  6
CONTINUOUS
 62
           7
100
AcDbLine
 10
113.318173868174
 20
170.673462319152
 11
120.018173868174
 21
170.673462319152
  0
LINE
  5
11F
100
AcDbEntity
  8
1
  6
CONTINUOUS
 62
           7
100
AcDbLine
 10
120.018173868174
 20
167.880957775742
 11
113.318173868174
 21
167.880957775742
  0
LINE
  5
11E
100
AcDbEntity
  8
1
  6
CONTINUOUS
 62
           7
100
AcDbLine
 10
113.318173868174
 20
166.317051268126
 11
120.018173868174
 21
166.317051268126
  0
LINE
  5
11D
100
AcDbEntity
  8
1
  6
CONTINUOUS
 62
           7
100
AcDbLine
 10
113.318173868174
 20
162.798290264549
 11
120.018173868174
 21
162.798290264549
  0
LINE
  5
11C
100
AcDbEntity
  8
1
  6
CONTINUOUS
 62
           7
100
AcDbLine
 10
113.318173868174
 20
160.959807902268
 11
120.018173868174
 21
160.959807902268
  0
LINE
  5
11B
100
AcDbEntity
  8
1
  6
CONTINUOUS
 62
           7
100
AcDbLine
 10
120.018173868174
 20
157.059231282203
 11
113.318173868174
 21
157.059231282203
  0
LINE
  5
11A
100
AcDbEntity
  8
1
  6
CONTINUOUS
 62
           7
100
AcDbLine
 10
113.318173868174
 20
174.542683905269
 11
113.318173868174
 21
137.642683905269
  0
LINE
  5
119
100
AcDbEntity
  8
1
  6
CONTINUOUS
 62
           7
100
AcDbLine
 10
120.018173868174
 20
174.542683905269
 11
120.018173868174
 21
137.642683905269
  0
LINE
  5
118
100
AcDbEntity
  8
1
  6
CONTINUOUS
 62
           7
100
AcDbLine
 10
111.518173868174
 20
173.792683905269
 11
111.518173868174
 21
138.392683905269
  0
LINE
  5
117
100
AcDbEntity
  8
1
  6
CONTINUOUS
 62
           7
100
AcDbLine
 10
113.618173868174
 20
174.842683905269
 11
119.718173868174
 21
174.842683905269
  0
LINE
  5
116
100
AcDbEntity
  8
1
  6
CONTINUOUS
 62
           7
100
AcDbLine
 10
112.018173868174
 20
174.292683905269
 11
113.318173868174
 21
174.292683905269
  0
LINE
  5
115
100
AcDbEntity
  8
1
  6
CONTINUOUS
 62
           7
100
AcDbLine
 10
120.018173868174
 20
174.292683905269
 11
122.518173868174
 21
174.292683905269
  0
LINE
  5
114
100
AcDbEntity
  8
1
  6
CONTINUOUS
 62
           7
100
AcDbLine
 10
120.018173868174
 20
137.985403491086
 11
113.318173868174
 21
137.985403491086
  0
LINE
  5
113
100
AcDbEntity
  8
1
  6
CONTINUOUS
 62
           7
100
AcDbLine
 10
120.018173868174
 20
138.582762621768
 11
113.318173868174
 21
138.582762621768
  0
LINE
  5
112
100
AcDbEntity
  8
1
  6
CONTINUOUS
 62
           7
100
AcDbLine
 10
113.318173868174
 20
140.375660903779
 11
120.018173868174
 21
140.375660903779
  0
LINE
  5
111
100
AcDbEntity
  8
1
  6
CONTINUOUS
 62
           7
100
AcDbLine
 10
120.018173868174
 20
141.511905491386
 11
113.318173868174
 21
141.511905491386
  0
LINE
  5
110
100
AcDbEntity
  8
1
  6
CONTINUOUS
 62
           7
100
AcDbLine
 10
113.318173868174
 20
144.304410034796
 11
120.018173868174
 21
144.304410034796
  0
LINE
  5
10F
100
AcDbEntity
  8
1
  6
CONTINUOUS
 62
           7
100
AcDbLine
 10
120.018173868174
 20
145.868316542412
 11
113.318173868174
 21
145.868316542412
  0
LINE
  5
10E
100
AcDbEntity
  8
1
  6
CONTINUOUS
 62
           7
100
AcDbLine
 10
120.018173868174
 20
149.387077545989
 11
113.318173868174
 21
149.387077545989
  0
LINE
  5
10D
100
AcDbEntity
  8
1
  6
CONTINUOUS
 62
           7
100
AcDbLine
 10
120.018173868174
 20
151.22555990827
 11
113.318173868174
 21
151.22555990827
  0
LINE
  5
10C
100
AcDbEntity
  8
1
  6
CONTINUOUS
 62
           7
100
AcDbLine
 10
113.318173868174
 20
155.126136528335
 11
120.018173868174
 21
155.126136528335
  0
LINE
  5
10B
100
AcDbEntity
  8
1
  6
CONTINUOUS
 62
           7
100
AcDbLine
 10
119.718173868174
 20
137.342683905269
 11
113.618173868174
 21
137.342683905269
  0
LINE
  5
10A
100
AcDbEntity
  8
1
  6
CONTINUOUS
 62
           7
100
AcDbLine
 10
113.318173868174
 20
137.892683905269
 11
112.018173868174
 21
137.892683905269
  0
LINE
  5
109
100
AcDbEntity
  8
1
  6
CONTINUOUS
 62
           7
100
AcDbLine
 10
122.518173868174
 20
137.892683905269
 11
120.018173868174
 21
137.892683905269
  0
LINE
  5
108
100
AcDbEntity
  8
1
  6
CONTINUOUS
 62
           2
100
AcDbLine
 10
225.322013494259
 20
149.555898313013
 11
225.322013494259
 21
162.629469497525
  0
LINE
  5
107
100
AcDbEntity
  8
1
  6
CONTINUOUS
 62
           7
100
AcDbLine
 10
225.322013494259
 20
162.629469497525
 11
225.520987937926
 21
162.742683905289
  0
LINE
  5
106
100
AcDbEntity
  8
1
  6
CONTINUOUS
 62
           7
100
AcDbLine
 10
225.322013494259
 20
162.629469497525
 11
224.021111159502
 21
158.092683905269
  0
LINE
  5
105
100
AcDbEntity
  8
1
  6
CONTINUOUS
 62
           7
100
AcDbLine
 10
224.021111159502
 20
154.092683905269
 11
224.021111159502
 21
158.092683905269
  0
LINE
  5
104
100
AcDbEntity
  8
1
  6
CONTINUOUS
 62
           7
100
AcDbLine
 10
222.019660035262
 20
164.442683905288
 11
224.020987937926
 21
164.442683905288
  0
LINE
  5
103
100
AcDbEntity
  8
1
  6
CONTINUOUS
 62
           7
100
AcDbLine
 10
215.332155892722
 20
167.561118300898
 11
222.019660035262
 21
164.442683905288
  0
LINE
  5
102
100
AcDbEntity
  8
1
  6
CONTINUOUS
 62
           7
100
AcDbLine
 10
214.621111159502
 20
168.792683905289
 11
215.332155892722
 21
167.561118300898
  0
LINE
  5
101
100
AcDbEntity
  8
1
  6
CONTINUOUS
 62
           7
100
AcDbLine
 10
214.621111159502
 20
170.792683905289
 11
214.621111159502
 21
168.792683905289
  0
LINE
  5
100
100
AcDbEntity
  8
1
  6
CONTINUOUS
 62
           7
100
AcDbLine
 10
214.621111159502
 20
170.792683905289
 11
215.121111159502
 21
171.292683905289
  0
LINE
  5
FF
100
AcDbEntity
  8
1
  6
CONTINUOUS
 62
           7
100
AcDbLine
 10
215.121111159502
 20
171.292683905289
 11
227.920987937926
 21
171.292683905289
  0
LINE
  5
FE
100
AcDbEntity
  8
1
  6
CONTINUOUS
 62
           7
100
AcDbLine
 10
227.820987937927
 20
169.061881970034
 11
225.520987937926
 21
162.742683905289
  0
LINE
  5
FD
100
AcDbEntity
  8
1
  6
CONTINUOUS
 62
           7
100
AcDbLine
 10
226.066521969093
 20
164.241526337462
 11
214.621111159502
 21
169.578609048705
  0
LINE
  5
FC
100
AcDbEntity
  8
1
  6
CONTINUOUS
 62
           7
100
AcDbLine
 10
225.520987937926
 20
149.24268390525
 11
225.520987937926
 21
162.942683905288
  0
LINE
  5
FB
100
AcDbEntity
  8
1
  6
CONTINUOUS
 62
           7
100
AcDbLine
 10
227.820987937927
 20
171.192683905249
 11
228.020987937966
 21
171.392683905289
  0
LINE
  5
FA
100
AcDbEntity
  8
1
  6
CONTINUOUS
 62
           7
100
AcDbLine
 10
227.820987937927
 20
140.992683905289
 11
227.820987937927
 21
171.192683905249
  0
LINE
  5
F9
100
AcDbEntity
  8
1
  6
CONTINUOUS
 62
           7
100
AcDbLine
 10
230.823368057932
 20
171.392683905289
 11
228.020987937966
 21
171.392683905289
  0
LINE
  5
F8
100
AcDbEntity
  8
1
  6
CONTINUOUS
 62
           2
100
AcDbLine
 10
228.020987937966
 20
171.392683905289
 11
228.020987937966
 21
140.792683905249
  0
LINE
  5
F7
100
AcDbEntity
  8
1
  6
CONTINUOUS
 62
           7
100
AcDbLine
 10
225.520987937926
 20
162.742683905289
 11
225.520987937926
 21
162.942683905288
  0
LINE
  5
F6
100
AcDbEntity
  8
1
  6
CONTINUOUS
 62
           7
100
AcDbLine
 10
225.520987937926
 20
149.442683905249
 11
225.322013494259
 21
149.555898313013
  0
LINE
  5
F5
100
AcDbEntity
  8
1
  6
CONTINUOUS
 62
           7
100
AcDbLine
 10
224.021111159502
 20
154.092683905269
 11
225.322013494259
 21
149.555898313013
  0
LINE
  5
F4
100
AcDbEntity
  8
1
  6
CONTINUOUS
 62
           7
100
AcDbLine
 10
224.020987937926
 20
147.74268390525
 11
222.019660035262
 21
147.74268390525
  0
LINE
  5
F3
100
AcDbEntity
  8
1
  6
CONTINUOUS
 62
           7
100
AcDbLine
 10
222.019660035262
 20
147.74268390525
 11
215.332155892722
 21
144.62424950964
  0
LINE
  5
F2
100
AcDbEntity
  8
1
  6
CONTINUOUS
 62
           7
100
AcDbLine
 10
215.332155892722
 20
144.62424950964
 11
214.621111159502
 21
143.392683905249
  0
LINE
  5
F1
100
AcDbEntity
  8
1
  6
CONTINUOUS
 62
           7
100
AcDbLine
 10
214.621111159502
 20
143.392683905249
 11
214.621111159502
 21
141.392683905249
  0
LINE
  5
F0
100
AcDbEntity
  8
1
  6
CONTINUOUS
 62
           7
100
AcDbLine
 10
215.121111159502
 20
140.892683905249
 11
214.621111159502
 21
141.392683905249
  0
LINE
  5
EF
100
AcDbEntity
  8
1
  6
CONTINUOUS
 62
           7
100
AcDbLine
 10
227.920987937926
 20
140.892683905249
 11
215.121111159502
 21
140.892683905249
  0
LINE
  5
EE
100
AcDbEntity
  8
1
  6
CONTINUOUS
 62
           7
100
AcDbLine
 10
225.520987937926
 20
149.442683905249
 11
227.820987937927
 21
143.123485840504
  0
LINE
  5
ED
100
AcDbEntity
  8
1
  6
CONTINUOUS
 62
           7
100
AcDbLine
 10
214.621111159502
 20
142.606758761833
 11
226.066521969093
 21
147.943841473075
  0
LINE
  5
EC
100
AcDbEntity
  8
1
  6
CONTINUOUS
 62
           7
100
AcDbLine
 10
225.520987937926
 20
149.24268390525
 11
225.520987937926
 21
149.442683905249
  0
LINE
  5
EB
100
AcDbEntity
  8
1
  6
CONTINUOUS
 62
           7
100
AcDbLine
 10
228.020987937966
 20
140.792683905249
 11
227.820987937927
 21
140.992683905289
  0
LINE
  5
EA
100
AcDbEntity
  8
1
  6
CONTINUOUS
 62
           7
100
AcDbLine
 10
228.020987937966
 20
140.792683905249
 11
230.823368057932
 21
140.792683905249
  0
LINE
  5
E9
100
AcDbEntity
  8
1
  6
DOT_CENTER
 62
           2
100
AcDbLine
 10
212.621111159502
 20
156.092683905269
 11
285.223368057932
 21
156.092683905269
  0
LINE
  5
E8
100
AcDbEntity
  8
1
  6
CONTINUOUS
 62
           7
100
AcDbLine
 10
230.823368057932
 20
138.892683905269
 11
230.823368057932
 21
173.292683905269
  0
LINE
  5
E7
100
AcDbEntity
  8
1
  6
CONTINUOUS
 62
           7
100
AcDbLine
 10
234.323368057932
 20
174.199964319452
 11
241.023368057931
 21
174.199964319452
  0
LINE
  5
E6
100
AcDbEntity
  8
1
  6
CONTINUOUS
 62
           7
100
AcDbLine
 10
234.323368057932
 20
173.60260518877
 11
241.023368057931
 21
173.60260518877
  0
LINE
  5
E5
100
AcDbEntity
  8
1
  6
CONTINUOUS
 62
           7
100
AcDbLine
 10
241.023368057931
 20
171.809706906759
 11
234.323368057932
 21
171.809706906759
  0
LINE
  5
E4
100
AcDbEntity
  8
1
  6
CONTINUOUS
 62
           7
100
AcDbLine
 10
234.323368057932
 20
170.673462319152
 11
241.023368057931
 21
170.673462319152
  0
LINE
  5
E3
100
AcDbEntity
  8
1
  6
CONTINUOUS
 62
           7
100
AcDbLine
 10
241.023368057931
 20
167.880957775742
 11
234.323368057932
 21
167.880957775742
  0
LINE
  5
E2
100
AcDbEntity
  8
1
  6
CONTINUOUS
 62
           7
100
AcDbLine
 10
234.323368057932
 20
166.317051268126
 11
241.023368057931
 21
166.317051268126
  0
LINE
  5
E1
100
AcDbEntity
  8
1
  6
CONTINUOUS
 62
           7
100
AcDbLine
 10
234.323368057932
 20
162.798290264549
 11
241.023368057931
 21
162.798290264549
  0
LINE
  5
E0
100
AcDbEntity
  8
1
  6
CONTINUOUS
 62
           7
100
AcDbLine
 10
234.323368057932
 20
160.959807902268
 11
241.023368057931
 21
160.959807902268
  0
LINE
  5
DF
100
AcDbEntity
  8
1
  6
CONTINUOUS
 62
           7
100
AcDbLine
 10
241.023368057931
 20
157.059231282203
 11
234.323368057932
 21
157.059231282203
  0
LINE
  5
DE
100
AcDbEntity
  8
1
  6
CONTINUOUS
 62
           7
100
AcDbLine
 10
241.023368057932
 20
137.642683905269
 11
241.023368057932
 21
174.542683905269
  0
LINE
  5
DD
100
AcDbEntity
  8
1
  6
CONTINUOUS
 62
           7
100
AcDbLine
 10
234.323368057932
 20
137.642683905269
 11
234.323368057932
 21
174.542683905269
  0
LINE
  5
DC
100
AcDbEntity
  8
1
  6
CONTINUOUS
 62
           7
100
AcDbLine
 10
242.823368057932
 20
138.392683905269
 11
242.823368057932
 21
173.792683905269
  0
LINE
  5
DB
100
AcDbEntity
  8
1
  6
CONTINUOUS
 62
           7
100
AcDbLine
 10
234.623368057932
 20
174.842683905269
 11
240.723368057932
 21
174.842683905269
  0
LINE
  5
DA
100
AcDbEntity
  8
1
  6
CONTINUOUS
 62
           7
100
AcDbLine
 10
241.023368057931
 20
174.292683905269
 11
242.323368057932
 21
174.292683905269
  0
LINE
  5
D9
100
AcDbEntity
  8
1
  6
CONTINUOUS
 62
           7
100
AcDbLine
 10
231.823368057932
 20
174.292683905269
 11
234.323368057932
 21
174.292683905269
  0
LINE
  5
D8
100
AcDbEntity
  8
1
  6
CONTINUOUS
 62
           7
100
AcDbLine
 10
241.023368057931
 20
137.985403491086
 11
234.323368057932
 21
137.985403491086
  0
LINE
  5
D7
100
AcDbEntity
  8
1
  6
CONTINUOUS
 62
           7
100
AcDbLine
 10
241.023368057931
 20
138.582762621768
 11
234.323368057932
 21
138.582762621768
  0
LINE
  5
D6
100
AcDbEntity
  8
1
  6
CONTINUOUS
 62
           7
100
AcDbLine
 10
234.323368057932
 20
140.375660903779
 11
241.023368057931
 21
140.375660903779
  0
LINE
  5
D5
100
AcDbEntity
  8
1
  6
CONTINUOUS
 62
           7
100
AcDbLine
 10
241.023368057931
 20
141.511905491386
 11
234.323368057932
 21
141.511905491386
  0
LINE
  5
D4
100
AcDbEntity
  8
1
  6
CONTINUOUS
 62
           7
100
AcDbLine
 10
234.323368057932
 20
144.304410034796
 11
241.023368057931
 21
144.304410034796
  0
LINE
  5
D3
100
AcDbEntity
  8
1
  6
CONTINUOUS
 62
           7
100
AcDbLine
 10
241.023368057931
 20
145.868316542412
 11
234.323368057932
 21
145.868316542412
  0
LINE
  5
D2
100
AcDbEntity
  8
1
  6
CONTINUOUS
 62
           7
100
AcDbLine
 10
241.023368057931
 20
149.387077545989
 11
234.323368057932
 21
149.387077545989
  0
LINE
  5
D1
100
AcDbEntity
  8
1
  6
CONTINUOUS
 62
           7
100
AcDbLine
 10
241.023368057931
 20
151.22555990827
 11
234.323368057932
 21
151.22555990827
  0
LINE
  5
D0
100
AcDbEntity
  8
1
  6
CONTINUOUS
 62
           7
100
AcDbLine
 10
234.323368057932
 20
155.126136528335
 11
241.023368057931
 21
155.126136528335
  0
LINE
  5
CF
100
AcDbEntity
  8
1
  6
CONTINUOUS
 62
           7
100
AcDbLine
 10
240.723368057932
 20
137.342683905269
 11
234.623368057932
 21
137.342683905269
  0
LINE
  5
CE
100
AcDbEntity
  8
1
  6
CONTINUOUS
 62
           7
100
AcDbLine
 10
242.323368057932
 20
137.892683905269
 11
241.023368057931
 21
137.892683905269
  0
LINE
  5
CD
100
AcDbEntity
  8
1
  6
CONTINUOUS
 62
           7
100
AcDbLine
 10
234.323368057932
 20
137.892683905269
 11
231.823368057932
 21
137.892683905269
  0
LINE
  5
CC
100
AcDbEntity
  8
1
  6
CONTINUOUS
 62
           2
100
AcDbLine
 10
242.823368057932
 20
138.403560720969
 11
243.923368057932
 21
138.092683905269
  0
LINE
  5
CB
100
AcDbEntity
  8
1
  6
CONTINUOUS
 62
           7
100
AcDbLine
 10
242.823368057932
 20
174.092683905269
 11
243.923368057932
 21
174.092683905269
  0
LINE
  5
CA
100
AcDbEntity
  8
1
  6
CONTINUOUS
 62
           7
100
AcDbLine
 10
197.223368057932
 20
174.231041052486
 11
197.223368057932
 21
137.954326758052
  0
LINE
  5
C9
100
AcDbEntity
  8
1
  6
CONTINUOUS
 62
           7
100
AcDbLine
 10
157.223368057932
 20
137.954326758052
 11
157.223368057932
 21
174.231041052486
  0
LINE
  5
C8
100
AcDbEntity
  8
1
  6
CONTINUOUS
 62
           7
100
AcDbLine
 10
159.085010910715
 20
176.092683905269
 11
195.361725205149
 21
176.092683905269
  0
LINE
  5
C7
100
AcDbEntity
  8
1
  6
CONTINUOUS
 62
           7
100
AcDbLine
 10
277.223368057932
 20
176.092683905269
 11
277.223368057932
 21
136.092683905269
  0
LINE
  5
C6
100
AcDbEntity
  8
1
  6
CONTINUOUS
 62
           2
100
AcDbLine
 10
243.923368057932
 20
174.092683905269
 11
242.823368057932
 21
173.781807089569
  0
LINE
  5
C5
100
AcDbEntity
  8
1
  6
CONTINUOUS
 62
           7
100
AcDbLine
 10
277.223368057932
 20
136.092683905269
 11
247.38746967307
 21
136.092683905269
  0
LINE
  5
C4
100
AcDbEntity
  8
1
  6
CONTINUOUS
 62
           7
100
AcDbLine
 10
243.923368057932
 20
138.092683905269
 11
242.823368057932
 21
138.092683905269
  0
LINE
  5
C3
100
AcDbEntity
  8
1
  6
CONTINUOUS
 62
           7
100
AcDbLine
 10
247.38746967307
 20
176.092683905269
 11
277.223368057932
 21
176.092683905269
  0
LINE
  5
C2
100
AcDbEntity
  8
1
  6
CONTINUOUS
 62
           7
100
AcDbLine
 10
243.923368057932
 20
138.092683905269
 11
243.923368057932
 21
174.092683905269
  0
LINE
  5
C1
100
AcDbEntity
  8
1
  6
CONTINUOUS
 62
           7
100
AcDbLine
 10
77.223368057932
 20
136.092683905269
 11
77.223368057932
 21
176.092683905269
  0
LINE
  5
C0
100
AcDbEntity
  8
1
  6
CONTINUOUS
 62
           2
100
AcDbLine
 10
110.523368057932
 20
138.092683905269
 11
111.518173868174
 21
138.403560720969
  0
LINE
  5
BF
100
AcDbEntity
  8
1
  6
CONTINUOUS
 62
           2
100
AcDbLine
 10
111.518173868174
 20
173.781807089569
 11
110.523368057932
 21
174.092683905269
  0
LINE
  5
BE
100
AcDbEntity
  8
1
  6
CONTINUOUS
 62
           7
100
AcDbLine
 10
107.383996903697
 20
136.092683905269
 11
77.223368057932
 21
136.092683905269
  0
LINE
  5
BD
100
AcDbEntity
  8
1
  6
CONTINUOUS
 62
           7
100
AcDbLine
 10
77.223368057932
 20
176.092683905269
 11
107.383996903697
 21
176.092683905269
  0
LINE
  5
BC
100
AcDbEntity
  8
1
  6
CONTINUOUS
 62
           7
100
AcDbLine
 10
110.523368057932
 20
174.092683905269
 11
111.623148817409
 21
174.092683905269
  0
LINE
  5
BB
100
AcDbEntity
  8
1
  6
CONTINUOUS
 62
           7
100
AcDbLine
 10
110.523368057932
 20
174.092683905269
 11
110.523368057932
 21
138.092683905269
  0
LINE
  5
BA
100
AcDbEntity
  8
1
  6
CONTINUOUS
 62
           7
100
AcDbLine
 10
277.223368057932
 20
86.092683905269
 11
277.223368057932
 21
46.092683905269
  0
LINE
  5
B9
100
AcDbEntity
  8
1
  6
CONTINUOUS
 62
           2
100
AcDbLine
 10
242.823368057932
 20
48.403560720969
 11
243.923368057932
 21
48.092683905269
  0
LINE
  5
B8
100
AcDbEntity
  8
1
  6
CONTINUOUS
 62
           2
100
AcDbLine
 10
243.923368057932
 20
84.092683905269
 11
242.823368057932
 21
83.781807089568
  0
LINE
  5
B7
100
AcDbEntity
  8
1
  6
CONTINUOUS
 62
           7
100
AcDbLine
 10
277.223368057932
 20
46.092683905269
 11
247.062739212167
 21
46.092683905269
  0
LINE
  5
B6
100
AcDbEntity
  8
1
  6
CONTINUOUS
 62
           7
100
AcDbLine
 10
243.923368057932
 20
48.092683905269
 11
242.283590512621
 21
48.092683905269
  0
LINE
  5
B5
100
AcDbEntity
  8
1
  6
CONTINUOUS
 62
           7
100
AcDbLine
 10
247.062739212167
 20
86.092683905269
 11
277.223368057932
 21
86.092683905269
  0
LINE
  5
B4
100
AcDbEntity
  8
1
  6
CONTINUOUS
 62
           7
100
AcDbLine
 10
242.823368057932
 20
84.092683905269
 11
243.923368057932
 21
84.092683905269
  0
LINE
  5
B3
100
AcDbEntity
  8
1
  6
CONTINUOUS
 62
           7
100
AcDbLine
 10
243.923368057932
 20
48.092683905269
 11
243.923368057932
 21
84.092683905269
  0
LINE
  5
B2
100
AcDbEntity
  8
1
  6
CONTINUOUS
 62
           7
100
AcDbLine
 10
214.621111159502
 20
243.092683905269
 11
214.621111159502
 21
249.092683905269
  0
LINE
  5
B1
100
AcDbEntity
  8
1
  6
CONTINUOUS
 62
           7
100
AcDbLine
 10
277.223368057932
 20
266.092683905269
 11
277.223368057932
 21
226.092683905269
  0
LINE
  5
B0
100
AcDbEntity
  8
1
  6
CONTINUOUS
 62
           2
100
AcDbLine
 10
242.823368057932
 20
228.403560720969
 11
243.923368057932
 21
228.092683905269
  0
LINE
  5
AF
100
AcDbEntity
  8
1
  6
CONTINUOUS
 62
           2
100
AcDbLine
 10
243.923368057932
 20
264.092683905269
 11
242.823368057932
 21
263.781807089568
  0
LINE
  5
AE
100
AcDbEntity
  8
1
  6
CONTINUOUS
 62
           7
100
AcDbLine
 10
277.223368057932
 20
226.092683905269
 11
247.38746967307
 21
226.092683905269
  0
LINE
  5
AD
100
AcDbEntity
  8
1
  6
CONTINUOUS
 62
           7
100
AcDbLine
 10
243.923368057932
 20
228.092683905269
 11
242.823368057932
 21
228.092683905269
  0
LINE
  5
AC
100
AcDbEntity
  8
1
  6
CONTINUOUS
 62
           7
100
AcDbLine
 10
247.38746967307
 20
226.092683905269
 11
243.923368057932
 21
228.092683905269
  0
LINE
  5
AB
100
AcDbEntity
  8
1
  6
CONTINUOUS
 62
           7
100
AcDbLine
 10
247.38746967307
 20
266.092683905269
 11
277.223368057932
 21
266.092683905269
  0
LINE
  5
AA
100
AcDbEntity
  8
1
  6
CONTINUOUS
 62
           7
100
AcDbLine
 10
243.923368057932
 20
264.092683905269
 11
247.38746967307
 21
266.092683905269
  0
LINE
  5
A9
100
AcDbEntity
  8
1
  6
CONTINUOUS
 62
           7
100
AcDbLine
 10
242.823368057932
 20
264.092683905269
 11
243.923368057932
 21
264.092683905269
  0
LINE
  5
A8
100
AcDbEntity
  8
1
  6
CONTINUOUS
 62
           7
100
AcDbLine
 10
243.923368057932
 20
228.092683905269
 11
243.923368057932
 21
264.092683905269
  0
LINE
  5
A7
100
AcDbEntity
  8
1
  6
DOT_CENTER
 62
           2
100
AcDbLine
 10
155.223368057932
 20
156.092683905269
 11
199.223368057932
 21
156.092683905269
  0
LINE
  5
A6
100
AcDbEntity
  8
1
  6
DOT_CENTER
 62
           2
100
AcDbLine
 10
177.223368057932
 20
178.092683905269
 11
177.223368057932
 21
134.092683905268
  0
LINE
  5
A5
100
AcDbEntity
  8
1
  6
DOT_CENTER
 62
           2
100
AcDbLine
 10
27.323368057932
 20
156.092683905269
 11
77.223368057932
 21
156.092683905269
  0
LINE
  5
A4
100
AcDbEntity
  8
1
  6
CONTINUOUS
 62
           2
100
AcDbLine
 10
266.453857885062
 20
246.77116560262
 11
268.495338468766
 21
247.531177685086
  0
LINE
  5
A3
100
AcDbEntity
  8
1
  6
CONTINUOUS
 62
           2
100
AcDbLine
 10
268.02914098041
 20
246.165983526118
 11
267.613096075146
 21
246.031494024007
  0
LINE
  5
A2
100
AcDbEntity
  8
1
  6
CONTINUOUS
 62
           2
100
AcDbLine
 10
267.613096075146
 20
246.031494024007
 11
267.613096112993
 21
246.576608963478
  0
LINE
  5
A1
100
AcDbEntity
  8
1
  6
CONTINUOUS
 62
           2
100
AcDbLine
 10
266.646469879122
 20
246.276501811793
 11
268.495241615488
 21
245.654698104436
  0
LINE
  5
A0
100
AcDbEntity
  8
1
  6
CONTINUOUS
 62
           2
100
AcDbLine
 10
268.495241615488
 20
245.654698104436
 11
268.495296259681
 21
245.045939263421
  0
LINE
  5
9F
100
AcDbEntity
  8
1
  6
CONTINUOUS
 62
           2
100
AcDbLine
 10
268.495296259681
 20
245.045939263421
 11
266.223385895334
 21
245.889420890149
  0
LINE
  5
9E
100
AcDbEntity
  8
1
  6
CONTINUOUS
 62
           2
100
AcDbLine
 10
266.223763315202
 20
246.444231163299
 11
266.223385895334
 21
245.889420890149
  0
LINE
  5
9D
100
AcDbEntity
  8
1
  6
CONTINUOUS
 62
           2
100
AcDbLine
 10
266.433965071623
 20
246.763768256556
 11
266.453857885062
 21
246.77116560262
  0
LINE
  5
9C
100
AcDbEntity
  8
1
  6
CONTINUOUS
 62
           2
100
AcDbLine
 10
268.495338468766
 20
247.531177685086
 11
268.495327626089
 21
246.902043124971
  0
LINE
  5
9B
100
AcDbEntity
  8
1
  6
CONTINUOUS
 62
           2
100
AcDbLine
 10
268.48500230861
 20
246.884172978093
 11
268.048829887971
 21
246.732101701609
  0
LINE
  5
9A
100
AcDbEntity
  8
1
  6
CONTINUOUS
 62
           2
100
AcDbLine
 10
268.048829887971
 20
246.732101701609
 11
268.048976460949
 21
246.194880739339
  0
LINE
  5
99
100
AcDbEntity
  8
1
  6
CONTINUOUS
 62
           2
100
AcDbLine
 10
268.49533992038
 20
247.620369787607
 11
266.223381922434
 21
247.620369787607
  0
LINE
  5
98
100
AcDbEntity
  8
1
  6
CONTINUOUS
 62
           2
100
AcDbLine
 10
266.223381922434
 20
247.620369787607
 11
266.223380394733
 21
248.290937842046
  0
LINE
  5
97
100
AcDbEntity
  8
1
  6
CONTINUOUS
 62
           2
100
AcDbLine
 10
266.427436968338
 20
248.607042775591
 11
267.91168731119
 21
249.282150915382
  0
LINE
  5
96
100
AcDbEntity
  8
1
  6
CONTINUOUS
 62
           2
100
AcDbLine
 10
267.91168731119
 20
249.282150915382
 11
266.223378136532
 21
249.282150915382
  0
LINE
  5
95
100
AcDbEntity
  8
1
  6
CONTINUOUS
 62
           2
100
AcDbLine
 10
266.223378136532
 20
249.282150915382
 11
266.223376847618
 21
249.841449494682
  0
LINE
  5
94
100
AcDbEntity
  8
1
  6
CONTINUOUS
 62
           2
100
AcDbLine
 10
266.223376847618
 20
249.841449494682
 11
268.495377559983
 21
249.841449494682
  0
LINE
  5
93
100
AcDbEntity
  8
1
  6
CONTINUOUS
 62
           2
100
AcDbLine
 10
268.495377559983
 20
249.841449494682
 11
268.49536657881
 21
249.194586523083
  0
LINE
  5
92
100
AcDbEntity
  8
1
  6
CONTINUOUS
 62
           2
100
AcDbLine
 10
268.297137839766
 20
248.878567585785
 11
266.769558955265
 21
248.185933952942
  0
LINE
  5
91
100
AcDbEntity
  8
1
  6
CONTINUOUS
 62
           2
100
AcDbLine
 10
266.769558955265
 20
248.185933952942
 11
268.495349477882
 21
248.185933952942
  0
LINE
  5
90
100
AcDbEntity
  8
1
  6
CONTINUOUS
 62
           2
100
AcDbLine
 10
268.495349477882
 20
248.185933952942
 11
268.49533992038
 21
247.620369787607
  0
LINE
  5
8F
100
AcDbEntity
  8
1
  6
CONTINUOUS
 62
           2
100
AcDbLine
 10
267.568414146244
 20
251.966933496404
 11
267.131575251862
 21
251.966933496404
  0
LINE
  5
8E
100
AcDbEntity
  8
1
  6
CONTINUOUS
 62
           2
100
AcDbLine
 10
267.131575251862
 20
251.966933496404
 11
267.131577712222
 21
250.899897764313
  0
LINE
  5
8D
100
AcDbEntity
  8
1
  6
CONTINUOUS
 62
           2
100
AcDbLine
 10
267.131577712222
 20
250.899897764313
 11
267.568044350133
 21
251.039854353569
  0
LINE
  5
8C
100
AcDbEntity
  8
1
  6
CONTINUOUS
 62
           2
100
AcDbLine
 10
267.568044350133
 20
251.039854353569
 11
267.568414146244
 21
251.966933496404
  0
LINE
  5
8B
100
AcDbEntity
  8
1
  6
CONTINUOUS
 62
           2
100
AcDbLine
 10
268.051209494422
 20
252.048940538133
 11
268.495415267625
 21
252.048940538133
  0
LINE
  5
8A
100
AcDbEntity
  8
1
  6
CONTINUOUS
 62
           2
100
AcDbLine
 10
268.495415267625
 20
252.048940538133
 11
268.49538933625
 21
250.526279998782
  0
LINE
  5
89
100
AcDbEntity
  8
1
  6
CONTINUOUS
 62
           2
100
AcDbLine
 10
268.154716461341
 20
250.180058038817
 11
266.2233760556
 21
250.180058038817
  0
LINE
  5
88
100
AcDbEntity
  8
1
  6
CONTINUOUS
 62
           2
100
AcDbLine
 10
266.2233760556
 20
250.180058038817
 11
266.223371763158
 21
252.051266149696
  0
LINE
  5
87
100
AcDbEntity
  8
1
  6
CONTINUOUS
 62
           2
100
AcDbLine
 10
266.223371763158
 20
252.051266149696
 11
266.655152766372
 21
252.050722055629
  0
LINE
  5
86
100
AcDbEntity
  8
1
  6
CONTINUOUS
 62
           2
100
AcDbLine
 10
266.655152766372
 20
252.050722055629
 11
266.655218269512
 21
250.809925324492
  0
LINE
  5
85
100
AcDbEntity
  8
1
  6
CONTINUOUS
 62
           2
100
AcDbLine
 10
266.655218269512
 20
250.809925324492
 11
268.012381635991
 21
250.809925324492
  0
LINE
  5
84
100
AcDbEntity
  8
1
  6
CONTINUOUS
 62
           2
100
AcDbLine
 10
268.051212260361
 20
250.847774267923
 11
268.051209494422
 21
252.048940538133
  0
LINE
  5
83
100
AcDbEntity
  8
1
  6
CONTINUOUS
 62
           2
100
AcDbLine
 10
266.2234909244
 20
253.896647189088
 11
266.656614422848
 21
253.896647189088
  0
LINE
  5
82
100
AcDbEntity
  8
1
  6
CONTINUOUS
 62
           2
100
AcDbLine
 10
268.05064208267
 20
252.311307102242
 11
268.494653908969
 21
252.311307102242
  0
LINE
  5
81
100
AcDbEntity
  8
1
  6
CONTINUOUS
 62
           2
100
AcDbLine
 10
266.656614422848
 20
253.896647189088
 11
266.656601785927
 21
253.138234122301
  0
LINE
  5
80
100
AcDbEntity
  8
1
  6
CONTINUOUS
 62
           2
100
AcDbLine
 10
268.494653908969
 20
252.311307102242
 11
268.49514230337
 21
253.31827972363
  0
LINE
  5
7F
100
AcDbEntity
  8
1
  6
CONTINUOUS
 62
           2
100
AcDbLine
 10
268.05064208267
 20
252.311307102242
 11
268.050642147919
 21
253.251098257545
  0
LINE
  5
7E
100
AcDbEntity
  8
1
  6
CONTINUOUS
 62
           2
100
AcDbLine
 10
266.2234909244
 20
253.896647189088
 11
266.223686679428
 21
253.13965273866
  0
LINE
  5
7D
100
AcDbEntity
  8
1
  6
CONTINUOUS
 62
           2
100
AcDbLine
 10
266.651320329367
 20
255.448238689872
 11
268.495473347863
 21
255.448238689872
  0
LINE
  5
7C
100
AcDbEntity
  8
1
  6
CONTINUOUS
 62
           2
100
AcDbLine
 10
268.495473347863
 20
255.448238689872
 11
268.495462590731
 21
254.82791014583
  0
LINE
  5
7B
100
AcDbEntity
  8
1
  6
CONTINUOUS
 62
           2
100
AcDbLine
 10
268.495462590731
 20
254.82791014583
 11
266.650502251762
 21
254.82791014583
  0
LINE
  5
7A
100
AcDbEntity
  8
1
  6
CONTINUOUS
 62
           2
100
AcDbLine
 10
266.650502251762
 20
254.82791014583
 11
266.650503693059
 21
254.195267971414
  0
LINE
  5
79
100
AcDbEntity
  8
1
  6
CONTINUOUS
 62
           2
100
AcDbLine
 10
266.650503693059
 20
254.195267971414
 11
266.223366829817
 21
254.195267971414
  0
LINE
  5
78
100
AcDbEntity
  8
1
  6
CONTINUOUS
 62
           2
100
AcDbLine
 10
266.651320329367
 20
255.448238689872
 11
266.651929696886
 21
255.922441189394
  0
LINE
  5
77
100
AcDbEntity
  8
1
  6
CONTINUOUS
 62
           2
100
AcDbLine
 10
266.223362241021
 20
256.192683905269
 11
266.385631804715
 21
256.192683905269
  0
LINE
  5
76
100
AcDbEntity
  8
1
  6
CONTINUOUS
 62
           2
100
AcDbLine
 10
266.223362241021
 20
256.192683905269
 11
266.223366829817
 21
254.195267971414
  0
LINE
  5
75
100
AcDbEntity
  8
1
  6
CONTINUOUS
 62
           2
100
AcDbLine
 10
271.223401424329
 20
246.204441430129
 11
268.938673901042
 21
246.204441430129
  0
LINE
  5
74
100
AcDbEntity
  8
1
  6
CONTINUOUS
 62
           2
100
AcDbLine
 10
268.938673901042
 20
246.204441430129
 11
268.93867301415
 21
246.59414746861
  0
LINE
  5
73
100
AcDbEntity
  8
1
  6
CONTINUOUS
 62
           2
100
AcDbLine
 10
269.253865681455
 20
246.832582842904
 11
271.223399846238
 21
246.832582842904
  0
LINE
  5
72
100
AcDbEntity
  8
1
  6
CONTINUOUS
 62
           2
100
AcDbLine
 10
271.223399846238
 20
246.832582842904
 11
271.223401424329
 21
246.204441430129
  0
LINE
  5
71
100
AcDbEntity
  8
1
  6
CONTINUOUS
 62
           2
100
AcDbLine
 10
268.938667556419
 20
248.983303263555
 11
268.938668788235
 21
248.449067463479
  0
LINE
  5
70
100
AcDbEntity
  8
1
  6
CONTINUOUS
 62
           2
100
AcDbLine
 10
268.938668788235
 20
248.449067463479
 11
270.559990342044
 21
248.162108572364
  0
LINE
  5
6F
100
AcDbEntity
  8
1
  6
CONTINUOUS
 62
           2
100
AcDbLine
 10
270.559990342044
 20
248.162108572364
 11
269.116598274907
 21
247.70753622208
  0
LINE
  5
6E
100
AcDbEntity
  8
1
  6
CONTINUOUS
 62
           2
100
AcDbLine
 10
268.938670997657
 20
247.466352026788
 11
268.938672026915
 21
247.027483463042
  0
LINE
  5
6D
100
AcDbEntity
  8
1
  6
CONTINUOUS
 62
           2
100
AcDbLine
 10
268.938672026915
 20
247.027483463042
 11
271.223392881002
 21
247.803227547603
  0
LINE
  5
6C
100
AcDbEntity
  8
1
  6
CONTINUOUS
 62
           2
100
AcDbLine
 10
271.223392881002
 20
247.803227547603
 11
271.223400083673
 21
248.216965149603
  0
LINE
  5
6B
100
AcDbEntity
  8
1
  6
CONTINUOUS
 62
           2
100
AcDbLine
 10
270.945479074077
 20
248.558292744606
 11
269.4805382311
 21
248.86172658776
  0
LINE
  5
6A
100
AcDbEntity
  8
1
  6
CONTINUOUS
 62
           2
100
AcDbLine
 10
269.4805382311
 20
248.86172658776
 11
271.223416216637
 21
249.184111273641
  0
LINE
  5
69
100
AcDbEntity
  8
1
  6
CONTINUOUS
 62
           2
100
AcDbLine
 10
270.775788738951
 20
250.455597429602
 11
270.331048350715
 21
250.314299233056
  0
LINE
  5
68
100
AcDbEntity
  8
1
  6
CONTINUOUS
 62
           2
100
AcDbLine
 10
270.331048350715
 20
250.314299233056
 11
270.330916180637
 21
250.850197864381
  0
LINE
  5
67
100
AcDbEntity
  8
1
  6
CONTINUOUS
 62
           2
100
AcDbLine
 10
270.330916180637
 20
250.850197864381
 11
269.35610114145
 21
250.549856435558
  0
LINE
  5
66
100
AcDbEntity
  8
1
  6
CONTINUOUS
 62
           2
100
AcDbLine
 10
269.35610114145
 20
250.549856435558
 11
270.990986389006
 21
249.998714237309
  0
LINE
  5
65
100
AcDbEntity
  8
1
  6
CONTINUOUS
 62
           2
100
AcDbLine
 10
271.223424621449
 20
249.668985478914
 11
271.223416216637
 21
249.184111273641
  0
LINE
  5
64
100
AcDbEntity
  8
1
  6
CONTINUOUS
 62
           2
100
AcDbLine
 10
268.938664886387
 20
250.148828559335
 11
270.555524935375
 21
249.552322480843
  0
LINE
  5
63
100
AcDbEntity
  8
1
  6
CONTINUOUS
 62
           2
100
AcDbLine
 10
270.555524935375
 20
249.552322480843
 11
269.204437546126
 21
249.287799430052
  0
LINE
  5
62
100
AcDbEntity
  8
1
  6
CONTINUOUS
 62
           2
100
AcDbLine
 10
268.938664886387
 20
250.148828559335
 11
268.938675114218
 21
250.746571561904
  0
LINE
  5
61
100
AcDbEntity
  8
1
  6
CONTINUOUS
 62
           2
100
AcDbLine
 10
269.15854343234
 20
251.042545112734
 11
271.223388469933
 21
251.805429464378
  0
LINE
  5
60
100
AcDbEntity
  8
1
  6
CONTINUOUS
 62
           2
100
AcDbLine
 10
271.223388469933
 20
251.805429464378
 11
271.223377425658
 21
251.15937349288
  0
LINE
  5
5F
100
AcDbEntity
  8
1
  6
CONTINUOUS
 62
           2
100
AcDbLine
 10
271.223377425658
 20
251.15937349288
 11
270.775675213405
 21
251.006005012583
  0
LINE
  5
5E
100
AcDbEntity
  8
1
  6
CONTINUOUS
 62
           2
100
AcDbLine
 10
270.775675213405
 20
251.006005012583
 11
270.775788738951
 21
250.455597429602
  0
LINE
  5
5D
100
AcDbEntity
  8
1
  6
CONTINUOUS
 62
           2
100
AcDbLine
 10
271.22338626153
 20
252.754122953325
 11
269.378046445831
 21
252.754122953325
  0
LINE
  5
5C
100
AcDbEntity
  8
1
  6
CONTINUOUS
 62
           2
100
AcDbLine
 10
269.378046445831
 20
252.754122953325
 11
269.378045274641
 21
253.275952463011
  0
LINE
  5
5B
100
AcDbEntity
  8
1
  6
CONTINUOUS
 62
           2
100
AcDbLine
 10
269.108043403008
 20
253.547894087697
 11
268.938657094996
 21
253.547894087697
  0
LINE
  5
5A
100
AcDbEntity
  8
1
  6
CONTINUOUS
 62
           2
100
AcDbLine
 10
268.938657094996
 20
253.547894087697
 11
268.938656947792
 21
251.427702738276
  0
LINE
  5
59
100
AcDbEntity
  8
1
  6
CONTINUOUS
 62
           2
100
AcDbLine
 10
268.938656947792
 20
251.427702738276
 11
269.376397765987
 21
251.427702738276
  0
LINE
  5
58
100
AcDbEntity
  8
1
  6
CONTINUOUS
 62
           2
100
AcDbLine
 10
269.376397765987
 20
251.427702738276
 11
269.376396164179
 21
252.13079936118
  0
LINE
  5
57
100
AcDbEntity
  8
1
  6
CONTINUOUS
 62
           2
100
AcDbLine
 10
269.376396164179
 20
252.13079936118
 11
271.223375572703
 21
252.13079936118
  0
LINE
  5
56
100
AcDbEntity
  8
1
  6
CONTINUOUS
 62
           2
100
AcDbLine
 10
271.223375572703
 20
252.13079936118
 11
271.22338626153
 21
252.754122953325
  0
LINE
  5
55
100
AcDbEntity
  8
1
  6
CONTINUOUS
 62
           2
100
AcDbLine
 10
266.223390410087
 20
243.91120505547
 11
266.223351535977
 21
241.61794714073
  0
LINE
  5
54
100
AcDbEntity
  8
1
  6
CONTINUOUS
 62
           2
100
AcDbLine
 10
271.223406543258
 20
243.91120505547
 11
266.223390410087
 21
243.91120505547
  0
LINE
  5
53
100
AcDbEntity
  8
1
  6
CONTINUOUS
 62
           2
100
AcDbLine
 10
271.223411784572
 20
241.61794714073
 11
271.223406543258
 21
243.91120505547
  0
LINE
  5
52
100
AcDbEntity
  8
1
  6
CONTINUOUS
 62
           2
100
AcDbLine
 10
266.223351535977
 20
241.61794714073
 11
271.223411784572
 21
241.61794714073
  0
LINE
  5
51
100
AcDbEntity
  8
1
  6
CONTINUOUS
 62
           2
100
AcDbLine
 10
266.223398376847
 20
240.426010323572
 11
266.223397356543
 21
240.86949321867
  0
LINE
  5
50
100
AcDbEntity
  8
1
  6
CONTINUOUS
 62
           2
100
AcDbLine
 10
271.223372097174
 20
236.092683905269
 11
267.273309237675
 21
238.871355697185
  0
LINE
  5
4F
100
AcDbEntity
  8
1
  6
CONTINUOUS
 62
           2
100
AcDbLine
 10
268.335476620523
 20
241.54297644191
 11
266.223397356543
 21
240.86949321867
  0
LINE
  5
4E
100
AcDbEntity
  8
1
  6
CONTINUOUS
 62
           2
100
AcDbLine
 10
268.335468347285
 20
241.053408494706
 11
268.335476620523
 21
241.54297644191
  0
LINE
  5
4D
100
AcDbEntity
  8
1
  6
CONTINUOUS
 62
           2
100
AcDbLine
 10
271.223365865173
 20
238.76358874771
 11
268.59978132443
 21
240.578590714217
  0
LINE
  5
4C
100
AcDbEntity
  8
1
  6
CONTINUOUS
 62
           2
100
AcDbLine
 10
271.223372097174
 20
236.092683905269
 11
271.223365865173
 21
238.76358874771
  0
LINE
  5
4B
100
AcDbEntity
  8
1
  6
CONTINUOUS
 62
           2
100
AcDbLine
 10
271.223385407388
 20
253.116126795055
 11
271.223384005064
 21
253.73166156882
  0
LINE
  5
4A
100
AcDbEntity
  8
1
  6
CONTINUOUS
 62
           2
100
AcDbLine
 10
268.938656095541
 20
253.966154693777
 11
271.223385407388
 21
253.116126795055
  0
LINE
  5
49
100
AcDbEntity
  8
1
  6
CONTINUOUS
 62
           2
100
AcDbLine
 10
268.938654751944
 20
254.55591209298
 11
268.938656095541
 21
253.966154693777
  0
LINE
  5
48
100
AcDbEntity
  8
1
  6
CONTINUOUS
 62
           2
100
AcDbLine
 10
271.223379697598
 20
255.622378017079
 11
269.146373579831
 21
254.851698113944
  0
LINE
  5
47
100
AcDbEntity
  8
1
  6
CONTINUOUS
 62
           2
100
AcDbLine
 10
271.223368544874
 20
254.962416804344
 11
271.223379697598
 21
255.622378017079
  0
LINE
  5
46
100
AcDbEntity
  8
1
  6
CONTINUOUS
 62
           2
100
AcDbLine
 10
270.776433591349
 20
254.810424606911
 11
271.223368544874
 21
254.962416804344
  0
LINE
  5
45
100
AcDbEntity
  8
1
  6
CONTINUOUS
 62
           2
100
AcDbLine
 10
270.776556630923
 20
254.254890231372
 11
270.776433591349
 21
254.810424606911
  0
LINE
  5
44
100
AcDbEntity
  8
1
  6
CONTINUOUS
 62
           2
100
AcDbLine
 10
270.328679514163
 20
254.113019216953
 11
270.776556630923
 21
254.254890231372
  0
LINE
  5
43
100
AcDbEntity
  8
1
  6
CONTINUOUS
 62
           2
100
AcDbLine
 10
270.328679514163
 20
254.113019216953
 11
270.32937805428
 21
254.656614763176
  0
LINE
  5
42
100
AcDbEntity
  8
1
  6
CONTINUOUS
 62
           2
100
AcDbLine
 10
270.32937805428
 20
254.656614763176
 11
269.377673346698
 21
254.358609992373
  0
LINE
  5
41
100
AcDbEntity
  8
1
  6
CONTINUOUS
 62
           2
100
AcDbLine
 10
269.377673346698
 20
254.358609992373
 11
271.223384005064
 21
253.73166156882
  0
LINE
  5
40
100
AcDbEntity
  8
1
  6
CONTINUOUS
 62
           2
100
AcDbLine
 10
267.613096112993
 20
246.576608963478
 11
266.646469879122
 21
246.276501811793
  0
LINE
  5
3F
100
AcDbEntity
  8
1
  6
DOT_CENTER
 62
           2
100
AcDbLine
 10
88.223368057932
 20
156.092683905269
 11
141.720430766604
 21
156.092683905269
  0
LINE
  5
3E
100
AcDbEntity
  8
1
  6
CONTINUOUS
 62
           7
100
AcDbLine
 10
324.123368057932
 20
231.092683905269
 11
308.923368057932
 21
231.092683905269
  0
LINE
  5
3D
100
AcDbEntity
  8
1
  6
CONTINUOUS
 62
           7
100
AcDbLine
 10
325.123368057932
 20
232.092683905269
 11
324.123368057932
 21
231.092683905269
  0
LINE
  5
3C
100
AcDbEntity
  8
1
  6
CONTINUOUS
 62
           7
100
AcDbLine
 10
308.923368057932
 20
231.092683905269
 11
307.923368057932
 21
232.092683905269
  0
LINE
  5
3B
100
AcDbEntity
  8
1
  6
CONTINUOUS
 62
           2
100
AcDbLine
 10
308.983329765607
 20
244.785347764054
 11
324.183329765607
 21
244.785347764054
  0
LINE
  5
3A
100
AcDbEntity
  8
1
  6
CONTINUOUS
 62
           2
100
AcDbLine
 10
308.923368057932
 20
243.487961240265
 11
324.123368057932
 21
243.487961240265
  0
LINE
  5
39
100
AcDbEntity
  8
1
  6
CONTINUOUS
 62
           2
100
AcDbLine
 10
308.923368057932
 20
242.210398228732
 11
324.123368057932
 21
242.210398228732
  0
LINE
  5
38
100
AcDbEntity
  8
1
  6
CONTINUOUS
 62
           2
100
AcDbLine
 10
324.123368057932
 20
240.962381755384
 11
308.923368057932
 21
240.962381755384
  0
LINE
  5
37
100
AcDbEntity
  8
1
  6
CONTINUOUS
 62
           2
100
AcDbLine
 10
308.923368057932
 20
239.753409979159
 11
324.123368057932
 21
239.753409979159
  0
LINE
  5
36
100
AcDbEntity
  8
1
  6
CONTINUOUS
 62
           2
100
AcDbLine
 10
324.123368057932
 20
238.592683905269
 11
308.923368057932
 21
238.592683905269
  0
LINE
  5
35
100
AcDbEntity
  8
1
  6
CONTINUOUS
 62
           2
100
AcDbLine
 10
308.923368057932
 20
237.489037360004
 11
324.123368057932
 21
237.489037360004
  0
LINE
  5
34
100
AcDbEntity
  8
1
  6
CONTINUOUS
 62
           2
100
AcDbLine
 10
308.923368057932
 20
236.450869759971
 11
324.123368057932
 21
236.450869759971
  0
LINE
  5
33
100
AcDbEntity
  8
1
  6
CONTINUOUS
 62
           2
100
AcDbLine
 10
324.123368057932
 20
235.486082187471
 11
308.923368057932
 21
235.486082187471
  0
LINE
  5
32
100
AcDbEntity
  8
1
  6
CONTINUOUS
 62
           2
100
AcDbLine
 10
308.923368057932
 20
234.602017258484
 11
324.123368057932
 21
234.602017258484
  0
LINE
  5
31
100
AcDbEntity
  8
1
  6
CONTINUOUS
 62
           2
100
AcDbLine
 10
324.123368057932
 20
233.805403240934
 11
308.923368057932
 21
233.805403240934
  0
LINE
  5
30
100
AcDbEntity
  8
1
  6
CONTINUOUS
 62
           2
100
AcDbLine
 10
308.923368057932
 20
233.102302848503
 11
324.123368057932
 21
233.102302848503
  0
LINE
  5
2F
100
AcDbEntity
  8
1
  6
CONTINUOUS
 62
           2
100
AcDbLine
 10
324.123368057932
 20
232.498067099719
 11
308.923368057932
 21
232.498067099719
  0
LINE
  5
2E
100
AcDbEntity
  8
1
  6
CONTINUOUS
 62
           2
100
AcDbLine
 10
308.923368057932
 20
231.997294593481
 11
324.123368057932
 21
231.997294593481
  0
LINE
  5
2D
100
AcDbEntity
  8
1
  6
CONTINUOUS
 62
           2
100
AcDbLine
 10
324.123368057932
 20
231.603796510933
 11
308.923368057932
 21
231.603796510933
  0
LINE
  5
2C
100
AcDbEntity
  8
1
  6
CONTINUOUS
 62
           2
100
AcDbLine
 10
308.923368057932
 20
231.320567610086
 11
324.123368057932
 21
231.320567610086
  0
LINE
  5
2B
100
AcDbEntity
  8
1
  6
CONTINUOUS
 62
           2
100
AcDbLine
 10
308.983329765607
 20
246.092683905269
 11
324.183329765607
 21
246.092683905269
  0
LINE
  5
2A
100
AcDbEntity
  8
1
  6
CONTINUOUS
 62
           7
100
AcDbLine
 10
306.423368057932
 20
230.592683905269
 11
306.423368057932
 21
261.592683905269
  0
LINE
  5
29
100
AcDbEntity
  8
1
  6
CONTINUOUS
 62
           7
100
AcDbLine
 10
308.923368057932
 20
261.092683905269
 11
308.923368057932
 21
231.092683905269
  0
ENDSEC
  0
SECTION
  2
OBJECTS
  0
DICTIONARY
  5
19
100
AcDbDictionary
  3
ACAD_GROUP
350
1A
  3
ACAD_MLINESTYLE
350
1B
  0
DICTIONARY
  5
1A
102
{ACAD_REACTORS
330
19
102
}
100
AcDbDictionary
  0
DICTIONARY
  5
1B
102
{ACAD_REACTORS
330
19
102
}
100
AcDbDictionary
  3
STANDARD
350
1C
  0
MLINESTYLE
  5
1C
102
{ACAD_REACTORS
330
1B
102
}
100
AcDbMlineStyle
  2
STANDARD
 70
           0
  3

 62
           0
 51
90.0
 52
90.0
 71
           2
 49
0.5
 62
         256
  6
BYLAYER
 49
-0.5
 62
         256
  6
BYLAYER
  0
ENDSEC
  0
EOF
