  0
SECTION
  2
HEADER
  9
$ACADVER
  1
AC1014
  9
$ACADMAINTVER
 70
           0
  9
$DWGCODEPAGE
  3
DOS932
  9
$INSBASE
 10
0.0
 20
0.0
 30
0.0
  9
$EXTMIN
 10
1.000000000000E+20
 20
1.000000000000E+20
 30
1.000000000000E+20
  9
$EXTMAX
 10
-1.000000000000E+20
 20
-1.000000000000E+20
 30
-1.000000000000E+20
  9
$LIMMIN
 10
0.0
 20
0.0
  9
$LIMMAX
 10
0.0
 20
0.0
  9
$ORTHOMODE
 70
           0
  9
$REGENMODE
 70
           1
  9
$FILLMODE
 70
           1
  9
$QTEXTMODE
 70
           0
  9
$MIRRTEXT
 70
           1
  9
$DRAGMODE
 70
           2
  9
$LTSCALE
 40
1.0
  9
$OSMODE
 70
           0
  9
$ATTMODE
 70
           1
  9
$TEXTSIZE
 40
0.2
  9
$TRACEWID
 40
0.05
  9
$TEXTSTYLE
  7
STANDARD
  9
$CLAYER
  8
0
  9
$CELTYPE
  6
CONTINUOUS
  9
$CECOLOR
 62
         256
  9
$CELTSCALE
 40
1.0
  9
$DELOBJ
 70
           1
  9
$DISPSILH
 70
           0
  9
$DIMSCALE
 40
1.0
  9
$DIMASZ
 40
0.18
  9
$DIMEXO
 40
0.0625
  9
$DIMDLI
 40
0.38
  9
$DIMRND
 40
0.0
  9
$DIMDLE
 40
0.0
  9
$DIMEXE
 40
0.18
  9
$DIMTP
 40
0.0
  9
$DIMTM
 40
0.0
  9
$DIMTXT
 40
0.18
  9
$DIMCEN
 40
0.09
  9
$DIMTSZ
 40
0.0
  9
$DIMTOL
 70
           0
  9
$DIMLIM
 70
           0
  9
$DIMTIH
 70
           1
  9
$DIMTOH
 70
           1
  9
$DIMSE1
 70
           0
  9
$DIMSE2
 70
           0
  9
$DIMTAD
 70
           0
  9
$DIMZIN
 70
           0
  9
$DIMBLK
  1

  9
$DIMASO
 70
           1
  9
$DIMSHO
 70
           1
  9
$DIMPOST
  1

  9
$DIMAPOST
  1

  9
$DIMALT
 70
           0
  9
$DIMALTD
 70
           2
  9
$DIMALTF
 40
25.4
  9
$DIMLFAC
 40
1.0
  9
$DIMTOFL
 70
           0
  9
$DIMTVP
 40
0.0
  9
$DIMTIX
 70
           0
  9
$DIMSOXD
 70
           0
  9
$DIMSAH
 70
           0
  9
$DIMBLK1
  1

  9
$DIMBLK2
  1

  9
$DIMSTYLE
  2
STANDARD
  9
$DIMCLRD
 70
           0
  9
$DIMCLRE
 70
           0
  9
$DIMCLRT
 70
           0
  9
$DIMTFAC
 40
1.0
  9
$DIMGAP
 40
0.09
  9
$DIMJUST
 70
           0
  9
$DIMSD1
 70
           0
  9
$DIMSD2
 70
           0
  9
$DIMTOLJ
 70
           1
  9
$DIMTZIN
 70
           0
  9
$DIMALTZ
 70
           0
  9
$DIMALTTZ
 70
           0
  9
$DIMFIT
 70
           3
  9
$DIMUPT
 70
           0
  9
$DIMUNIT
 70
           2
  9
$DIMDEC
 70
           4
  9
$DIMTDEC
 70
           4
  9
$DIMALTU
 70
           2
  9
$DIMALTTD
 70
           2
  9
$DIMTXSTY
  7
STANDARD
  9
$DIMAUNIT
 70
           0
  9
$LUNITS
 70
           2
  9
$LUPREC
 70
           4
  9
$SKETCHINC
 40
0.1
  9
$FILLETRAD
 40
0.0
  9
$AUNITS
 70
           0
  9
$AUPREC
 70
           0
  9
$MENU
  1
acad
  9
$ELEVATION
 40
0.0
  9
$PELEVATION
 40
0.0
  9
$THICKNESS
 40
0.0
  9
$LIMCHECK
 70
           0
  9
$BLIPMODE
 70
           1
  9
$CHAMFERA
 40
0.0
  9
$CHAMFERB
 40
0.0
  9
$CHAMFERC
 40
0.0
  9
$CHAMFERD
 40
0.0
  9
$SKPOLY
 70
           0
  9
$TDCREATE
 40
0.000000000
  9
$TDUPDATE
 40
0.000000000
  9
$TDINDWG
 40
0.0000000000
  9
$TDUSRTIMER
 40
0.0000000000
  9
$USRTIMER
 70
           1
  9
$ANGBASE
 50
0.0
  9
$ANGDIR
 70
           0
  9
$PDMODE
 70
           0
  9
$PDSIZE
 40
0.0
  9
$PLINEWID
 40
0.0
  9
$COORDS
 70
           0
  9
$SPLFRAME
 70
           0
  9
$SPLINETYPE
 70
           6
  9
$SPLINESEGS
 70
           8
  9
$ATTDIA
 70
           0
  9
$ATTREQ
 70
           1
  9
$HANDLING
 70
           1
  9
$HANDSEED
  5
2C4
  9
$SURFTAB1
 70
           6
  9
$SURFTAB2
 70
           6
  9
$SURFTYPE
 70
           6
  9
$SURFU
 70
           6
  9
$SURFV
 70
           6
  9
$UCSNAME
  2

  9
$UCSORG
 10
0.0
 20
0.0
 30
0.0
  9
$UCSXDIR
 10
1.0
 20
0.0
 30
0.0
  9
$UCSYDIR
 10
0.0
 20
1.0
 30
0.0
  9
$PUCSNAME
  2

  9
$PUCSORG
 10
0.0
 20
0.0
 30
0.0
  9
$PUCSXDIR
 10
1.0
 20
0.0
 30
0.0
  9
$PUCSYDIR
 10
0.0
 20
1.0
 30
0.0
  9
$USERI1
 70
           0
  9
$USERI2
 70
           0
  9
$USERI3
 70
           0
  9
$USERI4
 70
           0
  9
$USERI5
 70
           0
  9
$USERR1
 40
0.0
  9
$USERR2
 40
0.0
  9
$USERR3
 40
0.0
  9
$USERR4
 40
0.0
  9
$USERR5
 40
0.0
  9
$WORLDVIEW
 70
           1
  9
$SHADEDGE
 70
           3
  9
$SHADEDIF
 70
          70
  9
$TILEMODE
 70
           1
  9
$MAXACTVP
 70
          16
  9
$PINSBASE
 10
0.0
 20
0.0
 30
0.0
  9
$PLIMCHECK
 70
           0
  9
$PEXTMIN
 10
1.000000000000E+20
 20
1.000000000000E+20
 30
1.000000000000E+20
  9
$PEXTMAX
 10
-1.000000000000E+20
 20
-1.000000000000E+20
 30
-1.000000000000E+20
  9
$PLIMMIN
 10
0.0
 20
0.0
  9
$PLIMMAX
 10
12.0
 20
9.0
  9
$UNITMODE
 70
           0
  9
$VISRETAIN
 70
           0
  9
$PLINEGEN
 70
           1
  9
$PSLTSCALE
 70
           0
  9
$TREEDEPTH
 70
        3020
  9
$PICKSTYLE
 70
           1
  9
$CMLSTYLE
  2
STANDARD
  9
$CMLJUST
 70
           0
  9
$CMLSCALE
 40
1.0
  9
$PROXYGRAPHICS
 70
           0
  9
$MEASUREMENT
 70
           0
  0
ENDSEC
  0
SECTION
  2
CLASSES
  0
CLASS
  1
LWPOLYLINE
  2
AcDbPolyline
  3
"AutoCAD"
 90
        0
280
           0
281
           1
  0
CLASS
  1
IMAGE
  2
AcDbRasterImage
  3
ISM
 90
      127
280
           0
281
           1
  0
CLASS
  1
OLE2FRAME
  2
AcDbOle2Frame
  3
""
 90
        0
280
           0
281
           1
  0
CLASS
  1
HATCH
  2
AcDbHatch
  3
"ACAD_SEDONA"
 90
        0
280
           0
281
           1
  0
CLASS
  1
DICTIONARYVAR
  2
AcDbDictionaryVar
  3
"AutoCAD"
 90
        0
280
           0
281
           0
  0
CLASS
  1
RASTERVARIABLES
  2
AcDbRasterVariables
  3
ISM
 90
        0
280
           0
281
           0
  0
CLASS
  1
IMAGEDEF
  2
AcDbRasterImageDef
  3
ISM
 90
        0
280
           0
281
           0
  0
CLASS
  1
IMAGEDEF_REACTOR
  2
AcDbRasterImageDefReactor
  3
ISM
 90
        1
280
           0
281
           0
  0
CLASS
  1
IDBUFFER
  2
AcDbIdBuffer
  3
"Acad"
 90
        0
280
           0
281
           0
  0
CLASS
  1
SPATIAL_FILTER
  2
AcDbSpatialFilter
  3
"Acad"
 90
        0
280
           0
281
           0
  0
CLASS
  1
XRECORD
  2
AcDbXrecord
  3
"<Built In>"
 90
        0
280
           0
281
           0
  0
CLASS
  1
SORTENTSTABLE
  2
AcDbSortentsTable
  3
"AutoCAD"
 90
        0
280
           0
281
           0
  0
CLASS
  1
LAYER_INDEX
  2
AcDbLayerIndex
  3
"Acad"
 90
        0
280
           0
281
           0
  0
CLASS
  1
SPATIAL_INDEX
  2
AcDbSpatialIndex
  3
"Acad"
 90
        0
280
           0
281
           0
  0
CLASS
  1
OBJECT_PTR
  2
CAseDLPNTableRecord
  3
"ASE-LPNTableRecord"
 90
        1
280
           0
281
           0
  0
CLASS
  1
LAYOUT
  2
AcDbLayout
  3
"AutoCAD 2000"
 90
        1
280
           0
281
           0
  0
CLASS
  1
PLOTSETTINGS
  2
AcDbPlotSettings
  3
"AutoCAD 2000"
 90
        1
280
           0
281
           0
  0
CLASS
  1
ACDBDICTIONARYWDFLT
  2
AcDbDictionaryWithDefault
  3
"AutoCAD 2000"
 90
        1
280
           0
281
           0
  0
CLASS
  1
ACDBPLACEHOLDER
  2
AcDbPlaceHolder
  3
"AutoCAD 2000"
 90
        1
280
           0
281
           0
  0
CLASS
  1
VBA_PROJECT
  2
AcDbVbaProject
  3
"acadvba"
 90
        1
280
           0
281
           0
  0
CLASS
  1
WIPEOUT
  2
AcDbWipeout
  3
WipeOut|AutoCAD Express Tool|expresstools@autodesk.com
 90
      127
280
           0
281
           1
  0
CLASS
  1
WIPEOUTVARIABLES
  2
AcDbWipeoutVariables
  3
WipeOut|AutoCAD Express Tool|expresstools@autodesk.com
 90
        0
280
           0
281
           0
  0
CLASS
  1
RTEXT
  2
RText
  3
RText|AutoCAD Express Tool|expresstools@autodesk.com
 90
        0
280
           0
281
           1
  0
CLASS
  1
ARCALIGNEDTEXT
  2
AcDbArcAlignedText
  3
ATEXT|AutoCAD Express Tool|expresstools@autodesk.com
 90
        0
280
           0
281
           1
  0
ENDSEC
  0
SECTION
  2
TABLES
  0
TABLE
  2
VPORT
  5
7
100
AcDbSymbolTable
 70
           1
  0
VPORT
  5
15
100
AcDbSymbolTableRecord
100
AcDbViewportTableRecord
  2
*ACTIVE
 70
           0
 10
0.0
 20
0.0
 11
1.0
 21
1.0
 12
6.591288
 22
4.579184
 13
0.0
 23
0.0
 14
1.0
 24
1.0
 15
0.0
 25
0.0
 16
0.0
 26
0.0
 36
1.0
 17
0.0
 27
0.0
 37
0.0
 40
9.158369
 41
0.688564
 42
50.0
 43
0.0
 44
0.0
 50
0.0
 51
0.0
 71
           0
 72
         100
 73
           1
 74
           1
 75
           0
 76
           0
 77
           0
 78
           0
  0
ENDTAB
  0
TABLE
  2
LTYPE
  5
4
100
AcDbSymbolTable
 70
          10
  0
LTYPE
  5
11
100
AcDbSymbolTableRecord
100
AcDbLinetypeTableRecord
  2
BYBLOCK
 70
          64
  3

 72
          65
 73
           0
 40
0.0
  0
LTYPE
  5
12
100
AcDbSymbolTableRecord
100
AcDbLinetypeTableRecord
  2
BYLAYER
 70
          64
  3

 72
          65
 73
           0
 40
0.0
  0
LTYPE
  5
13
100
AcDbSymbolTableRecord
100
AcDbLinetypeTableRecord
  2
CONTINUOUS
 70
          64
  3
Solid line
 72
          65
 73
           0
 40
0.0
  0
LTYPE
  5
1D
100
AcDbSymbolTableRecord
100
AcDbLinetypeTableRecord
  2
DASHED
 70
          64
  3
Dashed
 72
          65
 73
           2
 40
15.0
 49
12.0
 74
           0
 49
-3.0
 74
           0
  0
LTYPE
  5
1E
100
AcDbSymbolTableRecord
100
AcDbLinetypeTableRecord
  2
DOTTED
 70
          64
  3
Dotted
 72
          65
 73
           2
 40
3.5
 49
0.5
 74
           0
 49
-3.0
 74
           0
  0
LTYPE
  5
1F
100
AcDbSymbolTableRecord
100
AcDbLinetypeTableRecord
  2
DOT_CENTER
 70
          64
  3
Dot_Center
 72
          65
 73
           4
 40
2.0
 49
1.25
 74
           0
 49
-0.25
 74
           0
 49
0.25
 74
           0
 49
-0.25
 74
           0
  0
LTYPE
  5
20
100
AcDbSymbolTableRecord
100
AcDbLinetypeTableRecord
  2
LONG_DASHED
 70
          64
  3
Long_Dashed
 72
          65
 73
           2
 40
2.0
 49
1.5
 74
           0
 49
-0.5
 74
           0
  0
LTYPE
  5
21
100
AcDbSymbolTableRecord
100
AcDbLinetypeTableRecord
  2
DASH_CENTER
 70
          64
  3
Dash_Center
 72
          65
 73
           4
 40
36.0
 49
24.0
 74
           0
 49
-3.0
 74
           0
 49
6.0
 74
           0
 49
-3.0
 74
           0
  0
LTYPE
  5
22
100
AcDbSymbolTableRecord
100
AcDbLinetypeTableRecord
  2
PHANTOM
 70
          64
  3
Phantom
 72
          65
 73
           6
 40
2.5
 49
1.25
 74
           0
 49
-0.25
 74
           0
 49
0.25
 74
           0
 49
-0.25
 74
           0
 49
0.25
 74
           0
 49
-0.25
 74
           0
  0
LTYPE
  5
23
100
AcDbSymbolTableRecord
100
AcDbLinetypeTableRecord
  2
CENTER_DASH_DASH
 70
          64
  3
Center_Dash_Dash
 72
          65
 73
           6
 40
22.0
 49
12.0
 74
           0
 49
-3.0
 74
           0
 49
0.5
 74
           0
 49
-3.0
 74
           0
 49
0.5
 74
           0
 49
-3.0
 74
           0
  0
ENDTAB
  0
TABLE
  2
LAYER
  5
2
100
AcDbSymbolTable
 70
           2
  0
LAYER
  5
14
100
AcDbSymbolTableRecord
100
AcDbLayerTableRecord
  2
0
 70
           0
 62
           7
  6
CONTINUOUS
  0
LAYER
  5
24
100
AcDbSymbolTableRecord
100
AcDbLayerTableRecord
  2
1
 70
           0
 62
           7
  6
CONTINUOUS
  0
ENDTAB
  0
TABLE
  2
STYLE
  5
3
100
AcDbSymbolTable
 70
           2
  0
STYLE
  5
17
100
AcDbSymbolTableRecord
100
AcDbTextStyleTableRecord
  2
STANDARD
 70
           0
 40
0.0
 41
1.0
 50
0.0
 71
           0
 42
0.0
  3
txt
  4

  0
STYLE
  5
2BF
100
AcDbSymbolTableRecord
100
AcDbTextStyleTableRecord
  2
CONVERTER_1
 70
           0
 40
0.0
 41
0.9
 50
0.0
 71
           0
 42
0.0
  3
txt.shx
  4

  0
ENDTAB
  0
TABLE
  2
VIEW
  5
5
100
AcDbSymbolTable
 70
           0
  0
ENDTAB
  0
TABLE
  2
UCS
  5
6
100
AcDbSymbolTable
 70
           0
  0
ENDTAB
  0
TABLE
  2
APPID
  5
8
100
AcDbSymbolTable
 70
           1
  0
APPID
  5
16
100
AcDbSymbolTableRecord
100
AcDbRegAppTableRecord
  2
ACAD
 70
           0
  0
ENDTAB
  0
TABLE
  2
DIMSTYLE
  5
9
100
AcDbSymbolTable
 70
           1
  0
DIMSTYLE
105
18
100
AcDbSymbolTableRecord
100
AcDbDimStyleTableRecord
  2
STANDARD
 70
           0
  3

  4

  5

  6

  7

 40
1.0
 41
0.18
 42
0.0625
 43
0.38
 44
0.18
 45
0.0
 46
0.0
 47
0.0
 48
0.0
 71
           0
 72
           0
 73
           1
 74
           1
 75
           0
 76
           0
 77
           0
 78
           0
140
0.18
141
0.09
142
0.0
143
25.4
144
1.0
145
0.0
146
1.0
147
0.09
170
           0
171
           2
172
           0
173
           0
174
           0
175
           0
176
           0
177
           0
178
           0
270
           2
271
           4
272
           4
273
           2
274
           2
275
           0
280
           0
281
           0
282
           0
283
           1
284
           0
285
           0
286
           0
287
           0
288
           0
340
17
  0
ENDTAB
  0
TABLE
  2
BLOCK_RECORD
  5
1
100
AcDbSymbolTable
 70
           0
  0
BLOCK_RECORD
  5
A
100
AcDbSymbolTableRecord
100
AcDbBlockTableRecord
  2
*MODEL_SPACE
  0
BLOCK_RECORD
  5
B
100
AcDbSymbolTableRecord
100
AcDbBlockTableRecord
  2
*PAPER_SPACE
  0
ENDTAB
  0
ENDSEC
  0
SECTION
  2
BLOCKS
  0
BLOCK
  5
D
100
AcDbEntity
  8
0
100
AcDbBlockBegin
  2
*MODEL_SPACE
 70
           0
 10
0.0
 20
0.0
 30
0.0
  3
*MODEL_SPACE
  1

  0
ENDBLK
  5
E
100
AcDbEntity
  8
0
100
AcDbBlockEnd
  0
BLOCK
  5
F
100
AcDbEntity
 67
           1
  8
0
100
AcDbBlockBegin
  2
*PAPER_SPACE
 70
           0
 10
0.0
 20
0.0
 30
0.0
  3
*PAPER_SPACE
  1

  0
ENDBLK
  5
10
100
AcDbEntity
 67
           1
  8
0
100
AcDbBlockEnd
  0
ENDSEC
  0
SECTION
  2
ENTITIES
  0
TEXT
  5
2C2
100
AcDbEntity
  8
0
 62
           7
100
AcDbText
 10
-175.782085577113
 20
-2359.071196324319
 40
15.0
  1
IWATA
 41
0.9
  7
CONVERTER_1
100
AcDbText
  0
TEXT
  5
2C1
100
AcDbEntity
  8
0
 62
           7
100
AcDbText
 10
-175.782085577113
 20
-2336.571196324319
 40
15.0
  1
ANEST
 41
0.9
  7
CONVERTER_1
100
AcDbText
  0
TEXT
  5
2C0
100
AcDbEntity
  8
0
 62
           7
100
AcDbText
 10
-241.044700479541
 20
-2407.232548269328
 40
7.0
  1
REFRIGERATED AIR DRYER
 41
0.9
  7
CONVERTER_1
100
AcDbText
  0
SPLINE
  5
2BE
100
AcDbEntity
  8
0
  6
CONTINUOUS
 62
           7
100
AcDbSpline
210
0.0
220
0.0
230
1.0
 70
           0
 71
           3
 72
          16
 73
          13
 74
          23
 42
0.00000000001
 43
0.00000000001
 44
0.00000000001
 40
0.0
 40
0.0
 40
0.0
 40
107.25159549929216
 40
195.08830865596349
 40
273.29747883298876
 40
351.3024735857972
 40
429.20752321153293
 40
507.43032499261608
 40
585.67765600539974
 40
663.58992733600735
 40
741.69490922030911
 40
829.93420533126891
 40
937.6041680648899
 40
937.6041680648899
 40
937.6041680648899
 10
614.72014308964549
 20
-2228.715984725914
 30
0.0
 10
591.02674996079452
 20
-2282.2292096123001
 30
0.0
 10
565.04588020129256
 20
-2376.1577115657451
 30
0.0
 10
556.94833571183597
 20
-2453.9553857605879
 30
0.0
 10
568.32710123533707
 20
-2531.3234936096651
 30
0.0
 10
590.684155033661
 20
-2605.8519881399852
 30
0.0
 10
610.59296338893193
 20
-2681.268940695692
 30
0.0
 10
611.43557940302151
 20
-2759.7095226159199
 30
0.0
 10
591.72045180384964
 20
-2835.2280415523942
 30
0.0
 10
569.87895144361846
 20
-2909.8731863679332
 30
0.0
 10
561.18985774629198
 20
-2987.8253835801811
 30
0.0
 10
582.17783949652107
 20
-3083.5962318572069
 30
0.0
 10
608.37502229058214
 20
-3136.0682589919911
 30
0.0
 11
614.72014308964549
 21
-2228.715984725914
 31
0.0
 11
593.37929259944633
 21
-2281.7604182749747
 31
0.0
 11
576.7435273865508
 21
-2333.8672691493825
 31
0.0
 11
566.89941074732587
 21
-2375.873660749035
 31
0.0
 11
560.76235520016746
 21
-2417.3119507152669
 31
0.0
 11
559.32604531213872
 21
-2454.4781807123518
 31
0.0
 11
562.64515462471559
 21
-2492.6900006129654
 31
0.0
 11
569.70303778809136
 21
-2530.987154178044
 31
0.0
 11
579.51279405697619
 21
-2568.6116288798798
 31
0.0
 11
590.37485102106393
 21
-2605.9498312762757
 31
0.0
 11
600.61829995995754
 21
-2643.4837199452531
 31
0.0
 11
608.20460802173341
 21
-2681.6261711438929
 31
0.0
 11
611.01420534911176
 21
-2720.4830832389348
 31
0.0
 11
608.8605572849915
 21
-2759.362981925512
 31
0.0
 11
601.556864984811
 21
-2797.549799231273
 31
0.0
 11
591.45273984746234
 21
-2835.1275989807641
 31
0.0
 11
580.81319079733885
 21
-2872.504513586995
 31
0.0
 11
571.59254607194373
 21
-2909.6814004769185
 31
0.0
 11
565.79909060319915
 21
-2946.4747155848117
 31
0.0
 11
564.70546000204638
 21
-2988.2717299170981
 31
0.0
 11
570.64303391240207
 21
-3030.9614369232158
 31
0.0
 11
585.84343379900656
 21
-3083.5555399074046
 31
0.0
 11
608.37502229058214
 21
-3136.0682589919911
 31
0.0
  0
SPLINE
  5
2BD
100
AcDbEntity
  8
0
  6
CONTINUOUS
 62
           7
100
AcDbSpline
210
0.0
220
0.0
230
1.0
 70
           0
 71
           3
 72
          52
 73
          49
 74
          95
 42
0.00000000001
 43
0.00000000001
 44
0.00000000001
 40
0.0
 40
0.0
 40
0.0
 40
1.5137305864000985
 40
2.8191470333039321
 40
4.0217803492641506
 40
5.2247380213282248
 40
6.4275592493169338
 40
7.6300101961077083
 40
8.8342146806301862
 40
10.042379814117368
 40
11.25056804836133
 40
12.455377251365643
 40
13.658619102862541
 40
14.861598173990238
 40
16.064398297494957
 40
17.267155026739765
 40
18.46992012247599
 40
19.67260230964644
 40
20.875107637300033
 40
22.077538651683568
 40
23.280005030842545
 40
24.482499012595397
 40
25.685013862720886
 40
26.88754651635449
 40
28.090082777942619
 40
29.292620596268492
 40
30.49515947245029
 40
31.697698237002967
 40
32.900236476695859
 40
34.102774260909911
 40
35.305311657143235
 40
36.507848727701237
 40
37.710385530197186
 40
38.91292211740091
 40
40.115458537205058
 40
41.318013315293221
 40
42.520585582169531
 40
43.72306832862408
 40
44.925412668956028
 40
46.127777154615515
 40
47.330262203456144
 40
48.532797788404814
 40
49.735333299470952
 40
50.93786881011232
 40
52.14040439539054
 40
53.342940118678683
 40
54.545441033551846
 40
55.898189172601519
 40
57.551536604170039
 40
57.551536604170039
 40
57.551536604170039
 10
-202.37419156202139
 20
-2321.912755851763
 30
0.0
 10
-203.17190263534371
 20
-2322.0501945313899
 30
0.0
 10
-204.5801195902294
 20
-2322.020371975032
 30
0.0
 10
-205.7821574817886
 20
-2321.9952591334318
 30
0.0
 10
-206.98408914566221
 20
-2321.9453739143678
 30
0.0
 10
-208.18434759489611
 20
-2321.8649642318101
 30
0.0
 10
-209.38200645409401
 20
-2321.7550322502011
 30
0.0
 10
-210.58041185651501
 20
-2321.6594844378528
 30
0.0
 10
-211.78628760605801
 20
-2321.687477900321
 30
0.0
 10
-212.95120957468191
 20
-2322.0151523543832
 30
0.0
 10
-214.00034381945829
 20
-2322.6104243530849
 30
0.0
 10
-214.95381713468791
 20
-2323.3445849526661
 30
0.0
 10
-215.83280122300991
 20
-2324.1660870912442
 30
0.0
 10
-216.65308797452201
 20
-2325.0458417051182
 30
0.0
 10
-217.42565745057041
 20
-2325.9676628091061
 30
0.0
 10
-218.1576335732918
 20
-2326.9220425617132
 30
0.0
 10
-218.85471300369039
 20
-2327.9022151293798
 30
0.0
 10
-219.52623540096681
 20
-2328.8998566369878
 30
0.0
 10
-220.18454669374671
 20
-2329.9060541700992
 30
0.0
 10
-220.84411996216991
 20
-2330.9114578496342
 30
0.0
 10
-221.51674994014309
 20
-2331.9082257486152
 30
0.0
 10
-222.19949647990461
 20
-2332.898106237923
 30
0.0
 10
-222.88924336148739
 20
-2333.8831579871548
 30
0.0
 10
-223.58314347875771
 20
-2334.8652956985079
 30
0.0
 10
-224.27836355286311
 20
-2335.8465011370481
 30
0.0
 10
-224.9726680886298
 20
-2336.8283568069728
 30
0.0
 10
-225.66613422757791
 20
-2337.8108052110329
 30
0.0
 10
-226.3588397383981
 20
-2338.7937893834769
 30
0.0
 10
-227.05086379687231
 20
-2339.7772528196779
 30
0.0
 10
-227.74228626622391
 20
-2340.76113878154
 30
0.0
 10
-228.43318764813381
 20
-2341.7453902951688
 30
0.0
 10
-229.1236490170028
 20
-2342.7299501707612
 30
0.0
 10
-229.8137519557915
 20
-2343.7147610186212
 30
0.0
 10
-230.50357849039099
 20
-2344.699765265872
 30
0.0
 10
-231.19321102325819
 20
-2345.6849051729828
 30
0.0
 10
-231.88275346132599
 20
-2346.6701531358922
 30
0.0
 10
-232.5722665205563
 20
-2347.6554193603001
 30
0.0
 10
-233.2617328158866
 20
-2348.640502078923
 30
0.0
 10
-233.95127993092061
 20
-2349.6254065776661
 30
0.0
 10
-234.64112850538331
 20
-2350.6102708177309
 30
0.0
 10
-235.33133959680941
 20
-2351.595004595315
 30
0.0
 10
-236.0219382132052
 20
-2352.5794665060689
 30
0.0
 10
-236.7130073405242
 20
-2353.5635981381811
 30
0.0
 10
-237.40462972604999
 20
-2354.547341080463
 30
0.0
 10
-238.0968878170155
 20
-2355.5306369172099
 30
0.0
 10
-238.7898635882901
 20
-2356.5134273042831
 30
0.0
 10
-239.4835986578349
 20
-2357.495596430128
 30
0.0
 10
-240.35183489210129
 20
-2358.7224891665719
 30
0.0
 10
-240.8738785070515
 20
-2359.4578611604738
 30
0.0
 11
-202.37419156202139
 21
-2321.912755851763
 31
0.0
 11
-203.16150909010571
 21
-2322.011831583613
 31
0.0
 11
-203.92803952771413
 21
-2322.0341814199096
 31
0.0
 11
-204.57351194494879
 21
-2322.0205565864508
 31
0.0
 11
-205.20576907162211
 21
-2322.007300975828
 31
0.0
 11
-205.7882815795339
 21
-2321.9920347824273
 31
0.0
 11
-206.3830422829364
 21
-2321.9703198870184
 31
0.0
 11
-206.98386824523752
 21
-2321.9415586271552
 31
0.0
 11
-207.58425240668925
 21
-2321.9051667928661
 31
0.0
 11
-208.18405420204115
 21
-2321.8612712589293
 31
0.0
 11
-208.7832692116832
 21
-2321.8099897792304
 31
0.0
 11
-209.38201367099779
 21
-2321.7568368581728
 31
0.0
 11
-209.98077256411997
 21
-2321.7072931530593
 31
0.0
 11
-210.58098902497591
 21
-2321.6749300544748
 31
0.0
 11
-211.18235982275357
 21
-2321.6734581891342
 31
0.0
 11
-211.78091951420288
 21
-2321.7249318877039
 31
0.0
 11
-212.36874302194207
 21
-2321.8513135610401
 31
0.0
 11
-212.93691836095812
 21
-2322.048705854228
 31
0.0
 11
-213.47651127252652
 21
-2322.3132051471066
 31
0.0
 11
-213.98864742168021
 21
-2322.6279493578149
 31
0.0
 11
-214.47739077527774
 21
-2322.9777435779847
 31
0.0
 11
-214.94459555496934
 21
-2323.3555735907203
 31
0.0
 11
-215.39335717522385
 21
-2323.7553808795642
 31
0.0
 11
-215.82548368186423
 21
-2324.1733880448405
 31
0.0
 11
-216.24297510621335
 21
-2324.6059971173095
 31
0.0
 11
-216.64713268401533
 21
-2325.051110274776
 31
0.0
 11
-217.03937968080402
 21
-2325.5067605715581
 31
0.0
 11
-217.42058470523909
 21
-2325.9717343038742
 31
0.0
 11
-217.79164423901148
 21
-2326.4448510257262
 31
0.0
 11
-218.15327417180168
 21
-2326.9252704716264
 31
0.0
 11
-218.50618530161154
 21
-2327.4121457373531
 31
0.0
 11
-218.85152755017262
 21
-2327.9044121397114
 31
0.0
 11
-219.19049889169816
 21
-2328.4010725627345
 31
0.0
 11
-219.52459272799973
 21
-2328.9009391965401
 31
0.0
 11
-219.85540121836712
 21
-2329.4029709494498
 31
0.0
 11
-220.18470577105057
 21
-2329.9059569767815
 31
0.0
 11
-220.51432847834172
 21
-2330.4087486174776
 31
0.0
 11
-220.84574987345752
 21
-2330.9103750989352
 31
0.0
 11
-221.18043109114859
 21
-2331.4098360789931
 31
0.0
 11
-221.51801280483673
 21
-2331.9073623187182
 31
0.0
 11
-221.85812024791221
 21
-2332.4031616986499
 31
0.0
 11
-222.20037014386779
 21
-2332.8975006602705
 31
0.0
 11
-222.54436736774971
 21
-2333.3906284665868
 31
0.0
 11
-222.88976174759284
 21
-2333.8827926367635
 31
0.0
 11
-223.23619289964677
 21
-2334.3742261061561
 31
0.0
 11
-223.58330828699354
 21
-2334.8651789008486
 31
0.0
 11
-223.93075329081208
 21
-2335.3558981002243
 31
0.0
 11
-224.2782490161481
 21
-2335.8465822826001
 31
0.0
 11
-224.62551566805399
 21
-2336.3374287560791
 31
0.0
 11
-224.97256325487766
 21
-2336.8284308504567
 31
0.0
 11
-225.31940117419711
 21
-2337.3195810318025
 31
0.0
 11
-225.66603917198137
 21
-2337.8108722145953
 31
0.0
 11
-226.01248705857253
 21
-2338.302297404513
 31
0.0
 11
-226.3587545921331
 21
-2338.7938493415422
 31
0.0
 11
-226.70485183316373
 21
-2339.2855211947026
 31
0.0
 11
-227.05078862855643
 21
-2339.7773056785068
 31
0.0
 11
-227.39657508731739
 21
-2340.2691958799678
 31
0.0
 11
-227.74222115593054
 21
-2340.7611845120105
 31
0.0
 11
-228.08773700395693
 21
-2341.253264604994
 31
0.0
 11
-228.4331326678178
 21
-2341.7454288707909
 31
0.0
 11
-228.77841837104666
 21
-2342.2376702878332
 31
0.0
 11
-229.12360423058428
 21
-2342.7299815670312
 31
0.0
 11
-229.46870051728473
 21
-2343.2223556387689
 31
0.0
 11
-229.81371741899147
 21
-2343.7147852131347
 31
0.0
 11
-230.15866524709816
 21
-2344.2072631765259
 31
0.0
 11
-230.50355358817259
 21
-2344.6997812919662
 31
0.0
 11
-230.84839212481006
 21
-2345.1923314595952
 31
0.0
 11
-231.19319847665696
 21
-2345.6849168444751
 31
0.0
 11
-231.53797973530152
 21
-2346.1775255723414
 31
0.0
 11
-231.88275237033631
 21
-2346.6701591072251
 31
0.0
 11
-232.22752282339184
 21
-2347.162804584776
 31
0.0
 11
-232.57226884332792
 21
-2347.6554080931119
 31
0.0
 11
-232.9170195088073
 21
-2348.1479890670716
 31
0.0
 11
-233.26174715641523
 21
-2348.6404858569294
 31
0.0
 11
-233.60650348508042
 21
-2349.1329502028007
 31
0.0
 11
-233.95131256821526
 21
-2349.6253943421389
 31
0.0
 11
-234.29618692593942
 21
-2350.117814010423
 31
0.0
 11
-234.64116768404608
 21
-2350.6102457516058
 31
0.0
 11
-234.98622679947829
 21
-2351.1026273605385
 31
0.0
 11
-235.33138622717794
 21
-2351.5949680292451
 31
0.0
 11
-235.67663891561472
 21
-2352.087235565813
 31
0.0
 11
-236.02199702973772
 21
-2352.5794252250407
 31
0.0
 11
-236.36747277692575
 21
-2353.0715323222121
 31
0.0
 11
-236.71307649513241
 21
-2353.5635495481579
 31
0.0
 11
-237.0588185225555
 21
-2354.0554695940577
 31
0.0
 11
-237.40470918158158
 21
-2354.547285181402
 31
0.0
 11
-237.75075875167087
 21
-2355.0389889706239
 31
0.0
 11
-238.09697877577997
 21
-2355.5305755069548
 31
0.0
 11
-238.44338071741802
 21
-2356.0220392227743
 31
0.0
 11
-238.78486084970083
 21
-2356.5061325497973
 31
0.0
 11
-239.11633550480505
 21
-2356.975636367848
 31
0.0
 11
-239.48945981651477
 21
-2357.5036323710729
 31
0.0
 11
-239.87430644558424
 21
-2358.0477002561875
 31
0.0
 11
-240.36296368420957
 21
-2358.7376349374513
 31
0.0
 11
-240.8738785070515
 21
-2359.4578611604738
 31
0.0
  0
SPLINE
  5
2BC
100
AcDbEntity
  8
0
  6
CONTINUOUS
 62
           7
100
AcDbSpline
210
0.0
220
0.0
230
1.0
 70
           0
 71
           3
 72
          52
 73
          49
 74
          95
 42
0.00000000001
 43
0.00000000001
 44
0.00000000001
 40
0.0
 40
0.0
 40
0.0
 40
0.174522335465287
 40
0.3172660736517555
 40
0.4441579879769851
 40
0.5710208122175781
 40
0.6978148125786539
 40
0.8246413384290211
 40
0.9516160619153544
 40
1.0786848448922133
 40
1.2057335831104352
 40
1.3327083349780036
 40
1.4596216411892011
 40
1.5865138385817921
 40
1.7134028129549081
 40
1.8402892269913758
 40
1.9671736286542678
 40
2.0940564971344164
 40
2.2209927500356672
 40
2.3480758838489013
 40
2.4752540006783024
 40
2.6023117145750865
 40
2.7291393819246954
 40
2.8558806328653414
 40
2.9826823823129249
 40
3.1095177764225284
 40
3.2363424442625126
 40
3.3631583533346978
 40
3.4899680314787487
 40
3.6167743148005398
 40
3.7435801485013886
 40
3.8703884075941621
 40
3.997201738937429
 40
4.1240224191636283
 40
4.2508522245762688
 40
4.3776923095651181
 40
4.5045430899419907
 40
4.6314041330843789
 40
4.7582277551107577
 40
4.884964966505108
 40
5.0117040569749456
 40
5.138536980860664
 40
5.265427478829082
 40
5.3923425800465949
 40
5.5192870121601434
 40
5.6462567913201163
 40
5.7732388917872397
 40
5.916102431543445
 40
6.0907551630317558
 40
6.0907551630317558
 40
6.0907551630317558
 10
-205.86906867790691
 20
-2338.2497431564502
 30
0.0
 10
-205.79274114472
 20
-2338.1928114214561
 30
0.0
 10
-205.65688692272721
 20
-2338.110968983508
 30
0.0
 10
-205.544454262371
 20
-2338.052156968598
 30
0.0
 10
-205.42889057242991
 20
-2337.9997337554519
 30
0.0
 10
-205.31081510825101
 20
-2337.9534371043342
 30
0.0
 10
-205.190686439308
 20
-2337.9129729592
 30
0.0
 10
-205.06870117659699
 20
-2337.878025919917
 30
0.0
 10
-204.94514978791071
 20
-2337.8483859330868
 30
0.0
 10
-204.8204490585382
 20
-2337.823907266421
 30
0.0
 10
-204.69492943595111
 20
-2337.804462135593
 30
0.0
 10
-204.5688345019212
 20
-2337.7899033712729
 30
0.0
 10
-204.44234434207519
 20
-2337.779787799685
 30
0.0
 10
-204.31560377716889
 20
-2337.7736231094659
 30
0.0
 10
-204.18874555918671
 20
-2337.7708951118261
 30
0.0
 10
-204.06186040073391
 20
-2337.7710719176589
 30
0.0
 10
-203.93500231199289
 20
-2337.7736122714391
 30
0.0
 10
-203.8081949565412
 20
-2337.7779701557138
 30
0.0
 10
-203.68132959537289
 20
-2337.7836016763772
 30
0.0
 10
-203.5543127352669
 20
-2337.7899614247058
 30
0.0
 10
-203.4272996782598
 20
-2337.79648070453
 30
0.0
 10
-203.30051138230471
 20
-2337.8025852687119
 30
0.0
 10
-203.17389356081469
 20
-2337.8076771358478
 30
0.0
 10
-203.04718509289711
 20
-2337.811372348634
 30
0.0
 10
-202.9203677340511
 20
-2337.8138294787
 30
0.0
 10
-202.7935453813831
 20
-2337.8151879098882
 30
0.0
 10
-202.66672633941431
 20
-2337.8155989052962
 30
0.0
 10
-202.53991480582141
 20
-2337.8152164903609
 30
0.0
 10
-202.4131116579382
 20
-2337.8141970064871
 30
0.0
 10
-202.286315201299
 20
-2337.8126977050129
 30
0.0
 10
-202.1595219464113
 20
-2337.8108755866092
 30
0.0
 10
-202.03272737937101
 20
-2337.8088862841778
 30
0.0
 10
-201.90592671126561
 20
-2337.8068830254201
 30
0.0
 10
-201.77911559030559
 20
-2337.805015667821
 30
0.0
 10
-201.65229076327091
 20
-2337.8034298069078
 30
0.0
 10
-201.52545067458669
 20
-2337.8022659459089
 30
0.0
 10
-201.39859599511689
 20
-2337.8016587815969
 30
0.0
 10
-201.271730064997
 20
-2337.8017362767978
 30
0.0
 10
-201.1449518532871
 20
-2337.8026197906252
 30
0.0
 10
-201.01827142616591
 20
-2337.8044140072438
 30
0.0
 10
-200.89151833310299
 20
-2337.8072603910218
 30
0.0
 10
-200.76469348740849
 20
-2337.811028117108
 30
0.0
 10
-200.6378582563093
 20
-2337.8150881718111
 30
0.0
 10
-200.51098433596931
 20
-2337.8188610651018
 30
0.0
 10
-200.3840578122221
 20
-2337.8217262507369
 30
0.0
 10
-200.2570833515305
 20
-2337.8229850164789
 30
0.0
 10
-200.13010557095771
 20
-2337.8217797100028
 30
0.0
 10
-199.9714704832657
 20
-2337.8159117737359
 30
0.0
 10
-199.87666958936521
 20
-2337.8063593673869
 30
0.0
 11
-205.86906867790691
 21
-2338.2497431564502
 31
0.0
 11
-205.79314028971442
 21
-2338.1957893435624
 31
0.0
 11
-205.71801019151059
 21
-2338.1477913748859
 31
0.0
 11
-205.65728742079241
 21
-2338.1123908862251
 31
0.0
 11
-205.59736564620465
 21
-2338.0798342029984
 31
0.0
 11
-205.54323499107952
 21
-2338.0525226243394
 31
0.0
 11
-205.4866657933714
 21
-2338.0259423571633
 31
0.0
 11
-205.42857094001405
 21
-2338.0004972543002
 31
0.0
 11
-205.369836821825
 21
-2337.9765791491332
 31
0.0
 11
-205.31055637875983
 21
-2337.9541652460562
 31
0.0
 11
-205.25075847671229
 21
-2337.9332076264236
 31
0.0
 11
-205.19046519440499
 21
-2337.9136657968456
 31
0.0
 11
-205.12972942229166
 21
-2337.8955096425593
 31
0.0
 11
-205.06852003254045
 21
-2337.8786932239982
 31
0.0
 11
-205.00694835467607
 21
-2337.8632114135976
 31
0.0
 11
-204.94501060888319
 21
-2337.8490322285215
 31
0.0
 11
-204.88279450503541
 21
-2337.8361456343168
 31
0.0
 11
-204.82034089751625
 21
-2337.8245355090976
 31
0.0
 11
-204.75767096795323
 21
-2337.8141818692329
 31
0.0
 11
-204.69484913753149
 21
-2337.8050717830261
 31
0.0
 11
-204.63186671027051
 21
-2337.7971809916862
 31
0.0
 11
-204.56877996901599
 21
-2337.7904582247647
 31
0.0
 11
-204.50558416195099
 21
-2337.7848451648265
 31
0.0
 11
-204.44231152523028
 21
-2337.7802815449068
 31
0.0
 11
-204.37897325481981
 21
-2337.7767054154297
 31
0.0
 11
-204.31558870934995
 21
-2337.7740526828115
 31
0.0
 11
-204.25217402824234
 21
-2337.7722590968847
 31
0.0
 11
-204.18874190587093
 21
-2337.7712582089953
 31
0.0
 11
-204.12530247686792
 21
-2337.7709835154437
 31
0.0
 11
-204.06186356287014
 21
-2337.7713673632461
 31
0.0
 11
-203.99843097314488
 21
-2337.7723421022229
 31
0.0
 11
-203.93501189168873
 21
-2337.7738393500981
 31
0.0
 11
-203.87161196962418
 21
-2337.7757907552914
 31
0.0
 11
-203.80820020929079
 21
-2337.7781288386536
 31
0.0
 11
-203.74479895445666
 21
-2337.7807842878965
 31
0.0
 11
-203.68132575875674
 21
-2337.7836920008262
 31
0.0
 11
-203.6178448898246
 21
-2337.7867803626527
 31
0.0
 11
-203.55431162280462
 21
-2337.789981455102
 31
0.0
 11
-203.49077613086001
 21
-2337.7932226083431
 31
0.0
 11
-203.42730589399349
 21
-2337.796429942427
 31
0.0
 11
-203.3638480885943
 21
-2337.7995357523059
 31
0.0
 11
-203.30051293726405
 21
-2337.802459589916
 31
0.0
 11
-203.23718089585256
 21
-2337.8051320699351
 31
0.0
 11
-203.1738806153611
 21
-2337.8075026607526
 31
0.0
 11
-203.11055444396249
 21
-2337.809524301379
 31
0.0
 11
-203.04717736357898
 21
-2337.8112174373368
 31
0.0
 11
-202.98378482455917
 21
-2337.8126007506989
 31
0.0
 11
-202.92036854224335
 21
-2337.8136921077789
 31
0.0
 11
-202.85695387631202
 21
-2337.814508723015
 31
0.0
 11
-202.79354457745166
 21
-2337.8150694893702
 31
0.0
 11
-202.73013367072826
 21
-2337.8153934146885
 31
0.0
 11
-202.66672634111453
 21
-2337.8154997296028
 31
0.0
 11
-202.60331901490133
 21
-2337.8154076931314
 31
0.0
 11
-202.53991525243768
 21
-2337.8151368538638
 31
0.0
 11
-202.47651238320657
 21
-2337.8147067416007
 31
0.0
 11
-202.4131122540762
 21
-2337.8141370272488
 31
0.0
 11
-202.34971331722187
 21
-2337.813447354421
 31
0.0
 11
-202.28631572498927
 21
-2337.8126573547429
 31
0.0
 11
-202.22291918013718
 21
-2337.8117866545235
 31
0.0
 11
-202.15952225093784
 21
-2337.8108546957574
 31
0.0
 11
-202.09612593079152
 21
-2337.8098809552857
 31
0.0
 11
-202.032727392959
 21
-2337.8088845518655
 31
0.0
 11
-201.96932888230236
 21
-2337.8078846838207
 31
0.0
 11
-201.90592643416545
 21
-2337.8069000287173
 31
0.0
 11
-201.84252343182817
 21
-2337.8059493802102
 31
0.0
 11
-201.77911508972917
 21
-2337.8050508713372
 31
0.0
 11
-201.71570574647728
 21
-2337.8042227694968
 31
0.0
 11
-201.65229016642058
 21
-2337.8034825710638
 31
0.0
 11
-201.58887339266317
 21
-2337.8028479009422
 31
0.0
 11
-201.52545016058872
 21
-2337.8023355421983
 31
0.0
 11
-201.46202590051826
 21
-2337.8019623760329
 31
0.0
 11
-201.39859289094738
 21
-2337.8017443685349
 31
0.0
 11
-201.3351536730375
 21
-2337.8016975349128
 31
0.0
 11
-201.27173328997284
 21
-2337.8018370681912
 31
0.0
 11
-201.20831935685976
 21
-2337.8021781842572
 31
0.0
 11
-201.14495879317886
 21
-2337.8027336644482
 31
0.0
 11
-201.08161210928142
 21
-2337.8035168922843
 31
0.0
 11
-201.01826832337798
 21
-2337.8045453948148
 31
0.0
 11
-200.95491833189854
 21
-2337.8058366724854
 31
0.0
 11
-200.89151882442457
 21
-2337.8073753202784
 31
0.0
 11
-200.82812029959376
 21
-2337.8091438265847
 31
0.0
 11
-200.76469732345174
 21
-2337.8110645021188
 31
0.0
 11
-200.70128201939622
 21
-2337.8130579476738
 31
0.0
 11
-200.63785678941298
 21
-2337.8150521729485
 31
0.0
 11
-200.5744286256371
 21
-2337.8169744004967
 31
0.0
 11
-200.51098117672663
 21
-2337.8187475114023
 31
0.0
 11
-200.44752740933089
 21
-2337.8202935149102
 31
0.0
 11
-200.38405417398559
 21
-2337.8215254048637
 31
0.0
 11
-200.32057366216719
 21
-2337.8223556030716
 31
0.0
 11
-200.25801784711021
 21
-2337.8226858669245
 31
0.0
 11
-200.19733102321257
 21
-2337.8224178316696
 31
0.0
 11
-200.1290678326244
 21
-2337.8212791843675
 31
0.0
 11
-200.05872916536947
 21
-2337.8191394857936
 31
0.0
 11
-199.96958493031653
 21
-2337.814330600163
 31
0.0
 11
-199.87666958936521
 21
-2337.8063593673869
 31
0.0
  0
CIRCLE
  5
2BB
100
AcDbEntity
  8
0
  6
CONTINUOUS
 62
           7
100
AcDbCircle
 10
-378.274120140799
 20
-2353.228315623901
 40
12.75
  0
CIRCLE
  5
2BA
100
AcDbEntity
  8
0
  6
CONTINUOUS
 62
           7
100
AcDbCircle
 10
-378.274120140799
 20
-2390.728315623898
 40
12.75
  0
CIRCLE
  5
2B9
100
AcDbEntity
  8
0
  6
CONTINUOUS
 62
           7
100
AcDbCircle
 10
353.344355972469
 20
-3057.166123751747
 40
6.75
  0
CIRCLE
  5
2B8
100
AcDbEntity
  8
0
  6
CONTINUOUS
 62
           7
100
AcDbCircle
 10
353.344355972469
 20
-3057.166123751747
 40
5.25
  0
CIRCLE
  5
2B7
100
AcDbEntity
  8
0
  6
CONTINUOUS
 62
           3
100
AcDbCircle
 10
364.29455171263
 20
-3028.678315623897
 40
7.05
  0
CIRCLE
  5
2B6
100
AcDbEntity
  8
0
  6
CONTINUOUS
 62
           7
100
AcDbCircle
 10
-1138.724120140799
 20
-1797.928315623899
 40
14.4
  0
CIRCLE
  5
2B5
100
AcDbEntity
  8
0
  6
CONTINUOUS
 62
           7
100
AcDbCircle
 10
-1138.724120140799
 20
-1797.928315623899
 40
20.264994448556
  0
CIRCLE
  5
2B4
100
AcDbEntity
  8
0
  6
CONTINUOUS
 62
           7
100
AcDbCircle
 10
-1138.724120140799
 20
-1797.928315623899
 40
15.75
  0
CIRCLE
  5
2B3
100
AcDbEntity
  8
0
  6
CONTINUOUS
 62
           7
100
AcDbCircle
 10
-808.724120140797
 20
-1797.928315623899
 40
28.5
  0
CIRCLE
  5
2B2
100
AcDbEntity
  8
0
  6
CONTINUOUS
 62
           7
100
AcDbCircle
 10
-1138.724120140797
 20
-1797.928315623899
 40
28.5
  0
CIRCLE
  5
2B1
100
AcDbEntity
  8
0
  6
CONTINUOUS
 62
           7
100
AcDbCircle
 10
-300.503938864823
 20
-2488.978315623899
 40
3.375
  0
CIRCLE
  5
2B0
100
AcDbEntity
  8
0
  6
CONTINUOUS
 62
           7
100
AcDbCircle
 10
-381.044301416775
 20
-2488.978315623899
 40
3.375
  0
CIRCLE
  5
2AF
100
AcDbEntity
  8
0
  6
CONTINUOUS
 62
           7
100
AcDbCircle
 10
-340.774120140799
 20
-2419.228315623899
 40
3.375
  0
CIRCLE
  5
2AE
100
AcDbEntity
  8
0
  6
CONTINUOUS
 62
           3
100
AcDbCircle
 10
-340.774120140799
 20
-2465.728315623899
 40
46.5
  0
CIRCLE
  5
2AD
100
AcDbEntity
  8
0
  6
CONTINUOUS
 62
           7
100
AcDbCircle
 10
-340.774120140799
 20
-2465.728315623899
 40
39.6
  0
CIRCLE
  5
2AC
100
AcDbEntity
  8
0
  6
CONTINUOUS
 62
           7
100
AcDbCircle
 10
-340.774120140799
 20
-2465.728315623899
 40
52.5
  0
CIRCLE
  5
2AB
100
AcDbEntity
  8
0
  6
CONTINUOUS
 62
           7
100
AcDbCircle
 10
-808.724120140799
 20
-1797.928315623899
 40
15.75
  0
CIRCLE
  5
2AA
100
AcDbEntity
  8
0
  6
CONTINUOUS
 62
           7
100
AcDbCircle
 10
-808.724120140799
 20
-1797.928315623899
 40
20.264994448556
  0
CIRCLE
  5
2A9
100
AcDbEntity
  8
0
  6
CONTINUOUS
 62
           7
100
AcDbCircle
 10
-808.724120140799
 20
-1797.928315623899
 40
14.4
  0
CIRCLE
  5
2A8
100
AcDbEntity
  8
0
  6
CONTINUOUS
 62
           3
100
AcDbCircle
 10
-802.724120140799
 20
-3028.678315623899
 40
7.05
  0
CIRCLE
  5
2A7
100
AcDbEntity
  8
0
  6
CONTINUOUS
 62
           3
100
AcDbCircle
 10
-255.124120140799
 20
-3028.678315623899
 40
7.05
  0
CIRCLE
  5
2A6
100
AcDbEntity
  8
0
  6
CONTINUOUS
 62
           3
100
AcDbCircle
 10
-1102.724120140799
 20
-3028.678315623899
 40
7.05
  0
ARC
  5
2A5
100
AcDbEntity
  8
0
  6
CONTINUOUS
 62
           7
100
AcDbCircle
 10
-688.124120140797
 20
-2501.653315623898
 40
3.000000000003
100
AcDbArc
 50
-90.000000000002
 51
0.0
  0
ARC
  5
2A4
100
AcDbEntity
  8
0
  6
CONTINUOUS
 62
           7
100
AcDbCircle
 10
-688.124120140797
 20
-2429.8033156239
 40
3.0
100
AcDbArc
 50
0.0
 51
90.0
  0
ARC
  5
2A3
100
AcDbEntity
  8
0
  6
CONTINUOUS
 62
           7
100
AcDbCircle
 10
-688.124120140799
 20
-1723.603315623899
 40
3.0
100
AcDbArc
 50
0.0
 51
90.0
  0
ARC
  5
2A2
100
AcDbEntity
  8
0
  6
CONTINUOUS
 62
           7
100
AcDbCircle
 10
-688.124120140799
 20
-1795.453315623899
 40
3.0
100
AcDbArc
 50
-90.0
 51
0.000000000039
  0
ARC
  5
2A1
100
AcDbEntity
  8
0
  6
CONTINUOUS
 62
           7
100
AcDbCircle
 10
-389.299120140798
 20
-2278.8685423757
 40
23.890226751803
100
AcDbArc
 50
64.924416713965
 51
115.075583286034
  0
ARC
  5
2A0
100
AcDbEntity
  8
0
  6
CONTINUOUS
 62
           7
100
AcDbCircle
 10
-369.049120140799
 20
-2278.8685423757
 40
23.890226751803
100
AcDbArc
 50
64.924416713962
 51
115.075583286031
  0
ARC
  5
29F
100
AcDbEntity
  8
0
  6
CONTINUOUS
 62
           7
100
AcDbCircle
 10
-1326.996290236553
 20
-1928.765716195904
 40
7.499999701976
100
AcDbArc
 50
-0.000017986086
 51
90.000018669334
  0
ARC
  5
29E
100
AcDbEntity
  8
0
  6
CONTINUOUS
 62
           7
100
AcDbCircle
 10
-1341.996289640507
 20
-1928.765716195904
 40
7.499999701977
100
AcDbArc
 50
90.000035972187
 51
-179.999982013914
  0
ARC
  5
29D
100
AcDbEntity
  8
0
  6
CONTINUOUS
 62
           7
100
AcDbCircle
 10
-1319.496290534576
 20
-1822.378315027851
 40
19.499999701976
100
AcDbArc
 50
90.000035972183
 51
-179.999982013908
  0
ARC
  5
29C
100
AcDbEntity
  8
0
  6
CONTINUOUS
 62
           7
100
AcDbCircle
 10
-1319.496290534576
 20
-1822.378315027851
 40
10.49999910593
100
AcDbArc
 50
90.000035972181
 51
-179.999982013914
  0
ARC
  5
29B
100
AcDbEntity
  8
0
  6
CONTINUOUS
 62
           7
100
AcDbCircle
 10
-171.081722163141
 20
-3049.666123751747
 40
0.75
100
AcDbArc
 50
180.0
 51
-90.0
  0
ARC
  5
29A
100
AcDbEntity
  8
0
  6
CONTINUOUS
 62
           7
100
AcDbCircle
 10
-171.081722163141
 20
-3049.666123751747
 40
14.249999999999
100
AcDbArc
 50
180.0
 51
-90.0
  0
ARC
  5
299
100
AcDbEntity
  8
0
  6
CONTINUOUS
 62
           7
100
AcDbCircle
 10
249.694551712628
 20
-2501.653315623898
 40
3.0
100
AcDbArc
 50
180.0
 51
-90.0
  0
ARC
  5
298
100
AcDbEntity
  8
0
  6
CONTINUOUS
 62
           7
100
AcDbCircle
 10
249.694551712628
 20
-2429.803315623899
 40
3.0
100
AcDbArc
 50
90.0
 51
180.0
  0
ARC
  5
297
100
AcDbEntity
  8
0
  6
CONTINUOUS
 62
           7
100
AcDbCircle
 10
353.344508560354
 20
-2873.878313686746
 40
52.499993145466
100
AcDbArc
 50
-60.000006678606
 51
0.00003597218
  0
ARC
  5
296
100
AcDbEntity
  8
0
  6
CONTINUOUS
 62
           7
100
AcDbCircle
 10
353.344508560354
 20
-2873.878313686746
 40
52.499993145466
100
AcDbArc
 50
179.999982013911
 51
-119.999957349212
  0
ARC
  5
295
100
AcDbEntity
  8
0
  6
CONTINUOUS
 62
           7
100
AcDbCircle
 10
361.59447771495
 20
-2907.410187964661
 40
42.218163720044
100
AcDbArc
 50
-90.000017986089
 51
-78.731025478267
  0
ARC
  5
294
100
AcDbEntity
  8
0
  6
CONTINUOUS
 62
           7
100
AcDbCircle
 10
345.094539405755
 20
-2907.410187964661
 40
42.218163720044
100
AcDbArc
 50
-101.20513456479
 51
-90.000017986087
  0
ARC
  5
293
100
AcDbEntity
  8
0
  6
CONTINUOUS
 62
           7
100
AcDbCircle
 10
352.744551712627
 20
-2263.703521567027
 40
8.725205943129
100
AcDbArc
 50
47.896551129248
 51
90.0
  0
ARC
  5
292
100
AcDbEntity
  8
0
  6
CONTINUOUS
 62
           7
100
AcDbCircle
 10
387.844551712627
 20
-2263.703521567027
 40
8.725205943128
100
AcDbArc
 50
90.0
 51
132.103448870737
  0
ARC
  5
291
100
AcDbEntity
  8
0
  6
CONTINUOUS
 62
           7
100
AcDbCircle
 10
370.294551712628
 20
-2286.501640321656
 40
31.523324697757
100
AcDbArc
 50
68.213210701741
 51
111.786789298259
  0
ARC
  5
290
100
AcDbEntity
  8
0
  6
CONTINUOUS
 62
           7
100
AcDbCircle
 10
-1121.174120140797
 20
-2263.703521567027
 40
8.725205943127
100
AcDbArc
 50
90.0
 51
132.103448870749
  0
ARC
  5
28F
100
AcDbEntity
  8
0
  6
CONTINUOUS
 62
           7
100
AcDbCircle
 10
-1156.274120140798
 20
-2263.703521567027
 40
8.725205943129
100
AcDbArc
 50
47.89655112925
 51
90.0
  0
ARC
  5
28E
100
AcDbEntity
  8
0
  6
CONTINUOUS
 62
           7
100
AcDbCircle
 10
-1138.724120140797
 20
-2286.501640321656
 40
31.523324697757
100
AcDbArc
 50
68.213210701742
 51
111.786789298259
  0
ARC
  5
28D
100
AcDbEntity
  8
0
  6
CONTINUOUS
 62
           7
100
AcDbCircle
 10
-791.174120140797
 20
-2263.703521567027
 40
8.725205943127
100
AcDbArc
 50
90.0
 51
132.103448870746
  0
ARC
  5
28C
100
AcDbEntity
  8
0
  6
CONTINUOUS
 62
           7
100
AcDbCircle
 10
-826.274120140798
 20
-2263.703521567027
 40
8.725205943129
100
AcDbArc
 50
47.896551129253
 51
90.0
  0
ARC
  5
28B
100
AcDbEntity
  8
0
  6
CONTINUOUS
 62
           7
100
AcDbCircle
 10
-808.724120140797
 20
-2286.501640321656
 40
31.523324697757
100
AcDbArc
 50
68.213210701741
 51
111.786789298259
  0
ARC
  5
28A
100
AcDbEntity
  8
0
  6
CONTINUOUS
 62
           7
100
AcDbCircle
 10
-1303.724120140797
 20
-2988.178315623899
 40
7.050000000001
100
AcDbArc
 50
90.0
 51
-90.0
  0
ARC
  5
289
100
AcDbEntity
  8
0
  6
CONTINUOUS
 62
           7
100
AcDbCircle
 10
-1410.11152130885
 20
-3010.678315921922
 40
7.499999701976
100
AcDbArc
 50
0.000035972189
 51
90.000017986085
  0
ARC
  5
288
100
AcDbEntity
  8
0
  6
CONTINUOUS
 62
           7
100
AcDbCircle
 10
-1410.11152130885
 20
-3025.678315325875
 40
7.499999701977
100
AcDbArc
 50
-90.000017986085
 51
0.000018669334
  0
ARC
  5
287
100
AcDbEntity
  8
0
  6
CONTINUOUS
 62
           1
100
AcDbCircle
 10
-385.774120140799
 20
-2510.428315623899
 40
30.0
100
AcDbArc
 50
180.0
 51
-89.999999999999
  0
ARC
  5
286
100
AcDbEntity
  8
0
  6
CONTINUOUS
 62
         204
100
AcDbCircle
 10
-385.774120140799
 20
-2510.428315623899
 40
37.5
100
AcDbArc
 50
180.0
 51
-89.999999999999
  0
ARC
  5
285
100
AcDbEntity
  8
0
  6
CONTINUOUS
 62
         204
100
AcDbCircle
 10
-295.774120140799
 20
-2510.428315623899
 40
37.5
100
AcDbArc
 50
-90.0
 51
0.0
  0
ARC
  5
284
100
AcDbEntity
  8
0
  6
CONTINUOUS
 62
         204
100
AcDbCircle
 10
-385.774120140799
 20
-2352.928315623899
 40
37.5
100
AcDbArc
 50
90.0
 51
180.0
  0
ARC
  5
283
100
AcDbEntity
  8
0
  6
CONTINUOUS
 62
           1
100
AcDbCircle
 10
-385.774120140799
 20
-2352.928315623899
 40
30.0
100
AcDbArc
 50
89.999999999999
 51
180.0
  0
ARC
  5
282
100
AcDbEntity
  8
0
  6
CONTINUOUS
 62
           1
100
AcDbCircle
 10
-295.774120140799
 20
-2510.428315623899
 40
30.0
100
AcDbArc
 50
-90.0
 51
0.0
  0
ARC
  5
281
100
AcDbEntity
  8
0
  6
CONTINUOUS
 62
           1
100
AcDbCircle
 10
-295.774120140799
 20
-2352.928315623899
 40
30.0
100
AcDbArc
 50
0.0
 51
89.999999999998
  0
ARC
  5
280
100
AcDbEntity
  8
0
  6
CONTINUOUS
 62
         204
100
AcDbCircle
 10
-295.774120140799
 20
-2352.928315623899
 40
37.5
100
AcDbArc
 50
0.0
 51
89.999999999998
  0
ARC
  5
27F
100
AcDbEntity
  8
0
  6
CONTINUOUS
 62
           7
100
AcDbCircle
 10
-340.774120140799
 20
-2465.728315623899
 40
18.0
100
AcDbArc
 50
29.538518672261
 51
60.461481327737
  0
ARC
  5
27E
100
AcDbEntity
  8
0
  6
CONTINUOUS
 62
           7
100
AcDbCircle
 10
-340.774120140799
 20
-2465.728315623899
 40
37.5
100
AcDbArc
 50
0.0
 51
179.999964027822
  0
ARC
  5
27D
100
AcDbEntity
  8
0
  6
CONTINUOUS
 62
           7
100
AcDbCircle
 10
-340.774120140799
 20
-2465.728315623899
 40
37.5
100
AcDbArc
 50
179.999981330664
 51
0.0
  0
LINE
  5
27C
100
AcDbEntity
  8
0
  6
CONTINUOUS
 62
           3
100
AcDbLine
 10
-412.324120140797
 20
-3040.678315623898
 11
-412.324120140797
 21
-3070.678315623899
  0
LINE
  5
27B
100
AcDbEntity
  8
0
  6
CONTINUOUS
 62
           7
100
AcDbLine
 10
-429.574120140798
 20
-3040.678315623899
 11
-427.324120140798
 21
-3070.678315623899
  0
LINE
  5
27A
100
AcDbEntity
  8
0
  6
CONTINUOUS
 62
           7
100
AcDbLine
 10
-397.324120140797
 20
-3070.678315623898
 11
-395.074120140797
 21
-3040.678315623898
  0
LINE
  5
279
100
AcDbEntity
  8
0
  6
CONTINUOUS
 62
           7
100
AcDbLine
 10
-397.324120140797
 20
-3070.678315623898
 11
-427.324120140798
 21
-3070.678315623899
  0
LINE
  5
278
100
AcDbEntity
  8
0
  6
CONTINUOUS
 62
           3
100
AcDbLine
 10
-97.924120140798
 20
-3040.678315623898
 11
-97.924120140798
 21
-3070.678315623898
  0
LINE
  5
277
100
AcDbEntity
  8
0
  6
CONTINUOUS
 62
           7
100
AcDbLine
 10
-115.174120140799
 20
-3040.678315623898
 11
-112.924120140799
 21
-3070.678315623898
  0
LINE
  5
276
100
AcDbEntity
  8
0
  6
CONTINUOUS
 62
           7
100
AcDbLine
 10
-82.924120140798
 20
-3070.678315623898
 11
-80.674120140798
 21
-3040.678315623898
  0
LINE
  5
275
100
AcDbEntity
  8
0
  6
CONTINUOUS
 62
           7
100
AcDbLine
 10
-82.924120140798
 20
-3070.678315623898
 11
-112.924120140799
 21
-3070.678315623898
  0
LINE
  5
274
100
AcDbEntity
  8
0
  6
CONTINUOUS
 62
           3
100
AcDbLine
 10
-724.724120140797
 20
-3040.678315623898
 11
-724.724120140797
 21
-3070.678315623899
  0
LINE
  5
273
100
AcDbEntity
  8
0
  6
CONTINUOUS
 62
           7
100
AcDbLine
 10
-741.974120140797
 20
-3040.678315623899
 11
-739.724120140797
 21
-3070.678315623899
  0
LINE
  5
272
100
AcDbEntity
  8
0
  6
CONTINUOUS
 62
           7
100
AcDbLine
 10
-709.724120140799
 20
-3070.678315623899
 11
-707.474120140799
 21
-3040.678315623898
  0
LINE
  5
271
100
AcDbEntity
  8
0
  6
CONTINUOUS
 62
           7
100
AcDbLine
 10
-709.724120140799
 20
-3070.678315623899
 11
-739.724120140797
 21
-3070.678315623899
  0
LINE
  5
270
100
AcDbEntity
  8
0
  6
CONTINUOUS
 62
           7
100
AcDbLine
 10
-910.124120140797
 20
-2820.778315623897
 11
-910.124120140797
 21
-2895.778315623897
  0
LINE
  5
26F
100
AcDbEntity
  8
0
  6
CONTINUOUS
 62
           7
100
AcDbLine
 10
-910.124120140797
 20
-2820.778315623897
 11
-895.124120140797
 21
-2820.778315623897
  0
LINE
  5
26E
100
AcDbEntity
  8
0
  6
CONTINUOUS
 62
           7
100
AcDbLine
 10
-910.124120140797
 20
-2895.778315623897
 11
-895.124120140797
 21
-2895.778315623897
  0
LINE
  5
26D
100
AcDbEntity
  8
0
  6
CONTINUOUS
 62
           7
100
AcDbLine
 10
-890.624120140797
 20
-2895.778315623897
 11
-875.624120140797
 21
-2895.778315623897
  0
LINE
  5
26C
100
AcDbEntity
  8
0
  6
CONTINUOUS
 62
           7
100
AcDbLine
 10
-890.624120140797
 20
-2820.778315623897
 11
-875.624120140797
 21
-2820.778315623897
  0
LINE
  5
26B
100
AcDbEntity
  8
0
  6
CONTINUOUS
 62
           7
100
AcDbLine
 10
-890.624120140797
 20
-2820.778315623897
 11
-890.624120140797
 21
-2895.778315623897
  0
LINE
  5
26A
100
AcDbEntity
  8
0
  6
CONTINUOUS
 62
           7
100
AcDbLine
 10
-875.624120140797
 20
-2820.778315623897
 11
-875.624120140797
 21
-2895.778315623897
  0
LINE
  5
269
100
AcDbEntity
  8
0
  6
CONTINUOUS
 62
           7
100
AcDbLine
 10
-856.124120140797
 20
-2820.778315623897
 11
-856.124120140797
 21
-2895.778315623897
  0
LINE
  5
268
100
AcDbEntity
  8
0
  6
CONTINUOUS
 62
           7
100
AcDbLine
 10
-871.124120140797
 20
-2820.778315623897
 11
-871.124120140797
 21
-2895.778315623897
  0
LINE
  5
267
100
AcDbEntity
  8
0
  6
CONTINUOUS
 62
           7
100
AcDbLine
 10
-871.124120140797
 20
-2820.778315623897
 11
-856.124120140797
 21
-2820.778315623897
  0
LINE
  5
266
100
AcDbEntity
  8
0
  6
CONTINUOUS
 62
           7
100
AcDbLine
 10
-871.124120140797
 20
-2895.778315623897
 11
-856.124120140797
 21
-2895.778315623897
  0
LINE
  5
265
100
AcDbEntity
  8
0
  6
CONTINUOUS
 62
           7
100
AcDbLine
 10
-851.624120140797
 20
-2895.778315623897
 11
-836.624120140797
 21
-2895.778315623897
  0
LINE
  5
264
100
AcDbEntity
  8
0
  6
CONTINUOUS
 62
           7
100
AcDbLine
 10
-851.624120140797
 20
-2820.778315623897
 11
-836.624120140797
 21
-2820.778315623897
  0
LINE
  5
263
100
AcDbEntity
  8
0
  6
CONTINUOUS
 62
           7
100
AcDbLine
 10
-851.624120140797
 20
-2820.778315623897
 11
-851.624120140797
 21
-2895.778315623897
  0
LINE
  5
262
100
AcDbEntity
  8
0
  6
CONTINUOUS
 62
           7
100
AcDbLine
 10
-836.624120140797
 20
-2820.778315623897
 11
-836.624120140797
 21
-2895.778315623897
  0
LINE
  5
261
100
AcDbEntity
  8
0
  6
CONTINUOUS
 62
           7
100
AcDbLine
 10
-817.124120140797
 20
-2820.778315623897
 11
-817.124120140797
 21
-2895.778315623897
  0
LINE
  5
260
100
AcDbEntity
  8
0
  6
CONTINUOUS
 62
           7
100
AcDbLine
 10
-832.124120140797
 20
-2820.778315623897
 11
-832.124120140797
 21
-2895.778315623897
  0
LINE
  5
25F
100
AcDbEntity
  8
0
  6
CONTINUOUS
 62
           7
100
AcDbLine
 10
-832.124120140797
 20
-2820.778315623897
 11
-817.124120140797
 21
-2820.778315623897
  0
LINE
  5
25E
100
AcDbEntity
  8
0
  6
CONTINUOUS
 62
           7
100
AcDbLine
 10
-832.124120140797
 20
-2895.778315623897
 11
-817.124120140797
 21
-2895.778315623897
  0
LINE
  5
25D
100
AcDbEntity
  8
0
  6
CONTINUOUS
 62
           7
100
AcDbLine
 10
-812.624120140797
 20
-2895.778315623897
 11
-797.624120140797
 21
-2895.778315623897
  0
LINE
  5
25C
100
AcDbEntity
  8
0
  6
CONTINUOUS
 62
           7
100
AcDbLine
 10
-812.624120140797
 20
-2820.778315623897
 11
-797.624120140797
 21
-2820.778315623897
  0
LINE
  5
25B
100
AcDbEntity
  8
0
  6
CONTINUOUS
 62
           7
100
AcDbLine
 10
-812.624120140797
 20
-2820.778315623897
 11
-812.624120140797
 21
-2895.778315623897
  0
LINE
  5
25A
100
AcDbEntity
  8
0
  6
CONTINUOUS
 62
           7
100
AcDbLine
 10
-797.624120140797
 20
-2820.778315623897
 11
-797.624120140797
 21
-2895.778315623897
  0
LINE
  5
259
100
AcDbEntity
  8
0
  6
CONTINUOUS
 62
           7
100
AcDbLine
 10
-778.124120140797
 20
-2820.778315623897
 11
-778.124120140797
 21
-2895.778315623897
  0
LINE
  5
258
100
AcDbEntity
  8
0
  6
CONTINUOUS
 62
           7
100
AcDbLine
 10
-793.124120140797
 20
-2820.778315623897
 11
-793.124120140797
 21
-2895.778315623897
  0
LINE
  5
257
100
AcDbEntity
  8
0
  6
CONTINUOUS
 62
           7
100
AcDbLine
 10
-793.124120140797
 20
-2820.778315623897
 11
-778.124120140797
 21
-2820.778315623897
  0
LINE
  5
256
100
AcDbEntity
  8
0
  6
CONTINUOUS
 62
           7
100
AcDbLine
 10
-793.124120140797
 20
-2895.778315623897
 11
-778.124120140797
 21
-2895.778315623897
  0
LINE
  5
255
100
AcDbEntity
  8
0
  6
CONTINUOUS
 62
           7
100
AcDbLine
 10
-773.624120140797
 20
-2895.778315623897
 11
-758.624120140797
 21
-2895.778315623897
  0
LINE
  5
254
100
AcDbEntity
  8
0
  6
CONTINUOUS
 62
           7
100
AcDbLine
 10
-773.624120140797
 20
-2820.778315623897
 11
-758.624120140797
 21
-2820.778315623897
  0
LINE
  5
253
100
AcDbEntity
  8
0
  6
CONTINUOUS
 62
           7
100
AcDbLine
 10
-773.624120140797
 20
-2820.778315623897
 11
-773.624120140797
 21
-2895.778315623897
  0
LINE
  5
252
100
AcDbEntity
  8
0
  6
CONTINUOUS
 62
           7
100
AcDbLine
 10
-758.624120140797
 20
-2820.778315623897
 11
-758.624120140797
 21
-2895.778315623897
  0
LINE
  5
251
100
AcDbEntity
  8
0
  6
CONTINUOUS
 62
           7
100
AcDbLine
 10
-754.124120140797
 20
-2805.778315623897
 11
-739.124120140797
 21
-2805.778315623897
  0
LINE
  5
250
100
AcDbEntity
  8
0
  6
CONTINUOUS
 62
           7
100
AcDbLine
 10
-754.124120140797
 20
-2730.778315623897
 11
-739.124120140797
 21
-2730.778315623897
  0
LINE
  5
24F
100
AcDbEntity
  8
0
  6
CONTINUOUS
 62
           7
100
AcDbLine
 10
-754.124120140797
 20
-2730.778315623897
 11
-754.124120140797
 21
-2805.778315623897
  0
LINE
  5
24E
100
AcDbEntity
  8
0
  6
CONTINUOUS
 62
           7
100
AcDbLine
 10
-739.124120140797
 20
-2730.778315623897
 11
-739.124120140797
 21
-2805.778315623897
  0
LINE
  5
24D
100
AcDbEntity
  8
0
  6
CONTINUOUS
 62
           7
100
AcDbLine
 10
-758.624120140797
 20
-2730.778315623897
 11
-758.624120140797
 21
-2805.778315623897
  0
LINE
  5
24C
100
AcDbEntity
  8
0
  6
CONTINUOUS
 62
           7
100
AcDbLine
 10
-773.624120140797
 20
-2730.778315623897
 11
-773.624120140797
 21
-2805.778315623897
  0
LINE
  5
24B
100
AcDbEntity
  8
0
  6
CONTINUOUS
 62
           7
100
AcDbLine
 10
-773.624120140797
 20
-2730.778315623897
 11
-758.624120140797
 21
-2730.778315623897
  0
LINE
  5
24A
100
AcDbEntity
  8
0
  6
CONTINUOUS
 62
           7
100
AcDbLine
 10
-773.624120140797
 20
-2805.778315623897
 11
-758.624120140797
 21
-2805.778315623897
  0
LINE
  5
249
100
AcDbEntity
  8
0
  6
CONTINUOUS
 62
           7
100
AcDbLine
 10
-793.124120140797
 20
-2805.778315623897
 11
-778.124120140797
 21
-2805.778315623897
  0
LINE
  5
248
100
AcDbEntity
  8
0
  6
CONTINUOUS
 62
           7
100
AcDbLine
 10
-793.124120140797
 20
-2730.778315623897
 11
-778.124120140797
 21
-2730.778315623897
  0
LINE
  5
247
100
AcDbEntity
  8
0
  6
CONTINUOUS
 62
           7
100
AcDbLine
 10
-793.124120140797
 20
-2730.778315623897
 11
-793.124120140797
 21
-2805.778315623897
  0
LINE
  5
246
100
AcDbEntity
  8
0
  6
CONTINUOUS
 62
           7
100
AcDbLine
 10
-778.124120140797
 20
-2730.778315623897
 11
-778.124120140797
 21
-2805.778315623897
  0
LINE
  5
245
100
AcDbEntity
  8
0
  6
CONTINUOUS
 62
           7
100
AcDbLine
 10
-797.624120140797
 20
-2730.778315623897
 11
-797.624120140797
 21
-2805.778315623897
  0
LINE
  5
244
100
AcDbEntity
  8
0
  6
CONTINUOUS
 62
           7
100
AcDbLine
 10
-812.624120140797
 20
-2730.778315623897
 11
-812.624120140797
 21
-2805.778315623897
  0
LINE
  5
243
100
AcDbEntity
  8
0
  6
CONTINUOUS
 62
           7
100
AcDbLine
 10
-812.624120140797
 20
-2730.778315623897
 11
-797.624120140797
 21
-2730.778315623897
  0
LINE
  5
242
100
AcDbEntity
  8
0
  6
CONTINUOUS
 62
           7
100
AcDbLine
 10
-812.624120140797
 20
-2805.778315623897
 11
-797.624120140797
 21
-2805.778315623897
  0
LINE
  5
241
100
AcDbEntity
  8
0
  6
CONTINUOUS
 62
           7
100
AcDbLine
 10
-832.124120140797
 20
-2805.778315623897
 11
-817.124120140797
 21
-2805.778315623897
  0
LINE
  5
240
100
AcDbEntity
  8
0
  6
CONTINUOUS
 62
           7
100
AcDbLine
 10
-832.124120140797
 20
-2730.778315623897
 11
-817.124120140797
 21
-2730.778315623897
  0
LINE
  5
23F
100
AcDbEntity
  8
0
  6
CONTINUOUS
 62
           7
100
AcDbLine
 10
-832.124120140797
 20
-2730.778315623897
 11
-832.124120140797
 21
-2805.778315623897
  0
LINE
  5
23E
100
AcDbEntity
  8
0
  6
CONTINUOUS
 62
           7
100
AcDbLine
 10
-817.124120140797
 20
-2730.778315623897
 11
-817.124120140797
 21
-2805.778315623897
  0
LINE
  5
23D
100
AcDbEntity
  8
0
  6
CONTINUOUS
 62
           7
100
AcDbLine
 10
-836.624120140797
 20
-2730.778315623897
 11
-836.624120140797
 21
-2805.778315623897
  0
LINE
  5
23C
100
AcDbEntity
  8
0
  6
CONTINUOUS
 62
           7
100
AcDbLine
 10
-851.624120140797
 20
-2730.778315623897
 11
-851.624120140797
 21
-2805.778315623897
  0
LINE
  5
23B
100
AcDbEntity
  8
0
  6
CONTINUOUS
 62
           7
100
AcDbLine
 10
-851.624120140797
 20
-2730.778315623897
 11
-836.624120140797
 21
-2730.778315623897
  0
LINE
  5
23A
100
AcDbEntity
  8
0
  6
CONTINUOUS
 62
           7
100
AcDbLine
 10
-851.624120140797
 20
-2805.778315623897
 11
-836.624120140797
 21
-2805.778315623897
  0
LINE
  5
239
100
AcDbEntity
  8
0
  6
CONTINUOUS
 62
           7
100
AcDbLine
 10
-871.124120140797
 20
-2805.778315623897
 11
-856.124120140797
 21
-2805.778315623897
  0
LINE
  5
238
100
AcDbEntity
  8
0
  6
CONTINUOUS
 62
           7
100
AcDbLine
 10
-871.124120140797
 20
-2730.778315623897
 11
-856.124120140797
 21
-2730.778315623897
  0
LINE
  5
237
100
AcDbEntity
  8
0
  6
CONTINUOUS
 62
           7
100
AcDbLine
 10
-871.124120140797
 20
-2730.778315623897
 11
-871.124120140797
 21
-2805.778315623897
  0
LINE
  5
236
100
AcDbEntity
  8
0
  6
CONTINUOUS
 62
           7
100
AcDbLine
 10
-856.124120140797
 20
-2730.778315623897
 11
-856.124120140797
 21
-2805.778315623897
  0
LINE
  5
235
100
AcDbEntity
  8
0
  6
CONTINUOUS
 62
           7
100
AcDbLine
 10
-875.624120140797
 20
-2730.778315623897
 11
-875.624120140797
 21
-2805.778315623897
  0
LINE
  5
234
100
AcDbEntity
  8
0
  6
CONTINUOUS
 62
           7
100
AcDbLine
 10
-890.624120140797
 20
-2730.778315623897
 11
-890.624120140797
 21
-2805.778315623897
  0
LINE
  5
233
100
AcDbEntity
  8
0
  6
CONTINUOUS
 62
           7
100
AcDbLine
 10
-890.624120140797
 20
-2730.778315623897
 11
-875.624120140797
 21
-2730.778315623897
  0
LINE
  5
232
100
AcDbEntity
  8
0
  6
CONTINUOUS
 62
           7
100
AcDbLine
 10
-890.624120140797
 20
-2805.778315623897
 11
-875.624120140797
 21
-2805.778315623897
  0
LINE
  5
231
100
AcDbEntity
  8
0
  6
CONTINUOUS
 62
           7
100
AcDbLine
 10
-910.124120140797
 20
-2805.778315623897
 11
-895.124120140797
 21
-2805.778315623897
  0
LINE
  5
230
100
AcDbEntity
  8
0
  6
CONTINUOUS
 62
           7
100
AcDbLine
 10
-910.124120140797
 20
-2730.778315623897
 11
-895.124120140797
 21
-2730.778315623897
  0
LINE
  5
22F
100
AcDbEntity
  8
0
  6
CONTINUOUS
 62
           7
100
AcDbLine
 10
-910.124120140797
 20
-2730.778315623897
 11
-910.124120140797
 21
-2805.778315623897
  0
LINE
  5
22E
100
AcDbEntity
  8
0
  6
CONTINUOUS
 62
           7
100
AcDbLine
 10
-895.124120140797
 20
-2730.778315623897
 11
-895.124120140797
 21
-2805.778315623897
  0
LINE
  5
22D
100
AcDbEntity
  8
0
  6
CONTINUOUS
 62
           7
100
AcDbLine
 10
-914.624120140797
 20
-2730.778315623897
 11
-914.624120140797
 21
-2805.778315623897
  0
LINE
  5
22C
100
AcDbEntity
  8
0
  6
CONTINUOUS
 62
           7
100
AcDbLine
 10
-929.624120140797
 20
-2730.778315623897
 11
-929.624120140797
 21
-2805.778315623897
  0
LINE
  5
22B
100
AcDbEntity
  8
0
  6
CONTINUOUS
 62
           7
100
AcDbLine
 10
-929.624120140797
 20
-2730.778315623897
 11
-914.624120140797
 21
-2730.778315623897
  0
LINE
  5
22A
100
AcDbEntity
  8
0
  6
CONTINUOUS
 62
           7
100
AcDbLine
 10
-929.624120140797
 20
-2805.778315623897
 11
-914.624120140797
 21
-2805.778315623897
  0
LINE
  5
229
100
AcDbEntity
  8
0
  6
CONTINUOUS
 62
           7
100
AcDbLine
 10
-739.124120140797
 20
-2820.778315623897
 11
-739.124120140797
 21
-2895.778315623897
  0
LINE
  5
228
100
AcDbEntity
  8
0
  6
CONTINUOUS
 62
           7
100
AcDbLine
 10
-754.124120140797
 20
-2895.778315623897
 11
-739.124120140797
 21
-2895.778315623897
  0
LINE
  5
227
100
AcDbEntity
  8
0
  6
CONTINUOUS
 62
           7
100
AcDbLine
 10
-754.124120140797
 20
-2820.778315623897
 11
-754.124120140797
 21
-2895.778315623897
  0
LINE
  5
226
100
AcDbEntity
  8
0
  6
CONTINUOUS
 62
           7
100
AcDbLine
 10
-754.124120140797
 20
-2820.778315623897
 11
-739.124120140797
 21
-2820.778315623897
  0
LINE
  5
225
100
AcDbEntity
  8
0
  6
CONTINUOUS
 62
           7
100
AcDbLine
 10
-929.624120140797
 20
-2820.778315623897
 11
-929.624120140797
 21
-2895.778315623897
  0
LINE
  5
224
100
AcDbEntity
  8
0
  6
CONTINUOUS
 62
           7
100
AcDbLine
 10
-914.624120140797
 20
-2820.778315623897
 11
-914.624120140797
 21
-2895.778315623897
  0
LINE
  5
223
100
AcDbEntity
  8
0
  6
CONTINUOUS
 62
           7
100
AcDbLine
 10
-929.624120140797
 20
-2820.778315623897
 11
-914.624120140797
 21
-2820.778315623897
  0
LINE
  5
222
100
AcDbEntity
  8
0
  6
CONTINUOUS
 62
           7
100
AcDbLine
 10
-895.124120140797
 20
-2820.778315623897
 11
-895.124120140797
 21
-2895.778315623897
  0
LINE
  5
221
100
AcDbEntity
  8
0
  6
CONTINUOUS
 62
           7
100
AcDbLine
 10
-929.624120140797
 20
-2895.778315623897
 11
-914.624120140797
 21
-2895.778315623897
  0
LINE
  5
220
100
AcDbEntity
  8
0
  6
CONTINUOUS
 62
           7
100
AcDbLine
 10
-910.124120140797
 20
-2910.778315623897
 11
-910.124120140797
 21
-2985.778315623897
  0
LINE
  5
21F
100
AcDbEntity
  8
0
  6
CONTINUOUS
 62
           7
100
AcDbLine
 10
-910.124120140797
 20
-2910.778315623897
 11
-895.124120140797
 21
-2910.778315623897
  0
LINE
  5
21E
100
AcDbEntity
  8
0
  6
CONTINUOUS
 62
           7
100
AcDbLine
 10
-910.124120140797
 20
-2985.778315623897
 11
-895.124120140797
 21
-2985.778315623897
  0
LINE
  5
21D
100
AcDbEntity
  8
0
  6
CONTINUOUS
 62
           7
100
AcDbLine
 10
-890.624120140797
 20
-2985.778315623897
 11
-875.624120140797
 21
-2985.778315623897
  0
LINE
  5
21C
100
AcDbEntity
  8
0
  6
CONTINUOUS
 62
           7
100
AcDbLine
 10
-890.624120140797
 20
-2910.778315623897
 11
-875.624120140797
 21
-2910.778315623897
  0
LINE
  5
21B
100
AcDbEntity
  8
0
  6
CONTINUOUS
 62
           7
100
AcDbLine
 10
-890.624120140797
 20
-2910.778315623897
 11
-890.624120140797
 21
-2985.778315623897
  0
LINE
  5
21A
100
AcDbEntity
  8
0
  6
CONTINUOUS
 62
           7
100
AcDbLine
 10
-875.624120140797
 20
-2910.778315623897
 11
-875.624120140797
 21
-2985.778315623897
  0
LINE
  5
219
100
AcDbEntity
  8
0
  6
CONTINUOUS
 62
           7
100
AcDbLine
 10
-856.124120140797
 20
-2910.778315623897
 11
-856.124120140797
 21
-2985.778315623897
  0
LINE
  5
218
100
AcDbEntity
  8
0
  6
CONTINUOUS
 62
           7
100
AcDbLine
 10
-871.124120140797
 20
-2910.778315623897
 11
-871.124120140797
 21
-2985.778315623897
  0
LINE
  5
217
100
AcDbEntity
  8
0
  6
CONTINUOUS
 62
           7
100
AcDbLine
 10
-871.124120140797
 20
-2910.778315623897
 11
-856.124120140797
 21
-2910.778315623897
  0
LINE
  5
216
100
AcDbEntity
  8
0
  6
CONTINUOUS
 62
           7
100
AcDbLine
 10
-871.124120140797
 20
-2985.778315623897
 11
-856.124120140797
 21
-2985.778315623897
  0
LINE
  5
215
100
AcDbEntity
  8
0
  6
CONTINUOUS
 62
           7
100
AcDbLine
 10
-851.624120140797
 20
-2985.778315623897
 11
-836.624120140797
 21
-2985.778315623897
  0
LINE
  5
214
100
AcDbEntity
  8
0
  6
CONTINUOUS
 62
           7
100
AcDbLine
 10
-851.624120140797
 20
-2910.778315623897
 11
-836.624120140797
 21
-2910.778315623897
  0
LINE
  5
213
100
AcDbEntity
  8
0
  6
CONTINUOUS
 62
           7
100
AcDbLine
 10
-851.624120140797
 20
-2910.778315623897
 11
-851.624120140797
 21
-2985.778315623897
  0
LINE
  5
212
100
AcDbEntity
  8
0
  6
CONTINUOUS
 62
           7
100
AcDbLine
 10
-836.624120140797
 20
-2910.778315623897
 11
-836.624120140797
 21
-2985.778315623897
  0
LINE
  5
211
100
AcDbEntity
  8
0
  6
CONTINUOUS
 62
           7
100
AcDbLine
 10
-817.124120140797
 20
-2910.778315623897
 11
-817.124120140797
 21
-2985.778315623897
  0
LINE
  5
210
100
AcDbEntity
  8
0
  6
CONTINUOUS
 62
           7
100
AcDbLine
 10
-832.124120140797
 20
-2910.778315623897
 11
-832.124120140797
 21
-2985.778315623897
  0
LINE
  5
20F
100
AcDbEntity
  8
0
  6
CONTINUOUS
 62
           7
100
AcDbLine
 10
-832.124120140797
 20
-2910.778315623897
 11
-817.124120140797
 21
-2910.778315623897
  0
LINE
  5
20E
100
AcDbEntity
  8
0
  6
CONTINUOUS
 62
           7
100
AcDbLine
 10
-832.124120140797
 20
-2985.778315623897
 11
-817.124120140797
 21
-2985.778315623897
  0
LINE
  5
20D
100
AcDbEntity
  8
0
  6
CONTINUOUS
 62
           7
100
AcDbLine
 10
-812.624120140797
 20
-2985.778315623897
 11
-797.624120140797
 21
-2985.778315623897
  0
LINE
  5
20C
100
AcDbEntity
  8
0
  6
CONTINUOUS
 62
           7
100
AcDbLine
 10
-812.624120140797
 20
-2910.778315623897
 11
-797.624120140797
 21
-2910.778315623897
  0
LINE
  5
20B
100
AcDbEntity
  8
0
  6
CONTINUOUS
 62
           7
100
AcDbLine
 10
-812.624120140797
 20
-2910.778315623897
 11
-812.624120140797
 21
-2985.778315623897
  0
LINE
  5
20A
100
AcDbEntity
  8
0
  6
CONTINUOUS
 62
           7
100
AcDbLine
 10
-797.624120140797
 20
-2910.778315623897
 11
-797.624120140797
 21
-2985.778315623897
  0
LINE
  5
209
100
AcDbEntity
  8
0
  6
CONTINUOUS
 62
           7
100
AcDbLine
 10
-778.124120140797
 20
-2910.778315623897
 11
-778.124120140797
 21
-2985.778315623897
  0
LINE
  5
208
100
AcDbEntity
  8
0
  6
CONTINUOUS
 62
           7
100
AcDbLine
 10
-793.124120140797
 20
-2910.778315623897
 11
-793.124120140797
 21
-2985.778315623897
  0
LINE
  5
207
100
AcDbEntity
  8
0
  6
CONTINUOUS
 62
           7
100
AcDbLine
 10
-793.124120140797
 20
-2910.778315623897
 11
-778.124120140797
 21
-2910.778315623897
  0
LINE
  5
206
100
AcDbEntity
  8
0
  6
CONTINUOUS
 62
           7
100
AcDbLine
 10
-793.124120140797
 20
-2985.778315623897
 11
-778.124120140797
 21
-2985.778315623897
  0
LINE
  5
205
100
AcDbEntity
  8
0
  6
CONTINUOUS
 62
           7
100
AcDbLine
 10
-773.624120140797
 20
-2985.778315623897
 11
-758.624120140797
 21
-2985.778315623897
  0
LINE
  5
204
100
AcDbEntity
  8
0
  6
CONTINUOUS
 62
           7
100
AcDbLine
 10
-773.624120140797
 20
-2910.778315623897
 11
-758.624120140797
 21
-2910.778315623897
  0
LINE
  5
203
100
AcDbEntity
  8
0
  6
CONTINUOUS
 62
           7
100
AcDbLine
 10
-773.624120140797
 20
-2910.778315623897
 11
-773.624120140797
 21
-2985.778315623897
  0
LINE
  5
202
100
AcDbEntity
  8
0
  6
CONTINUOUS
 62
           7
100
AcDbLine
 10
-758.624120140797
 20
-2910.778315623897
 11
-758.624120140797
 21
-2985.778315623897
  0
LINE
  5
201
100
AcDbEntity
  8
0
  6
CONTINUOUS
 62
           7
100
AcDbLine
 10
-739.124120140797
 20
-2910.778315623897
 11
-739.124120140797
 21
-2985.778315623897
  0
LINE
  5
200
100
AcDbEntity
  8
0
  6
CONTINUOUS
 62
           7
100
AcDbLine
 10
-754.124120140797
 20
-2985.778315623897
 11
-739.124120140797
 21
-2985.778315623897
  0
LINE
  5
1FF
100
AcDbEntity
  8
0
  6
CONTINUOUS
 62
           7
100
AcDbLine
 10
-754.124120140797
 20
-2910.778315623897
 11
-754.124120140797
 21
-2985.778315623897
  0
LINE
  5
1FE
100
AcDbEntity
  8
0
  6
CONTINUOUS
 62
           7
100
AcDbLine
 10
-754.124120140797
 20
-2910.778315623897
 11
-739.124120140797
 21
-2910.778315623897
  0
LINE
  5
1FD
100
AcDbEntity
  8
0
  6
CONTINUOUS
 62
           7
100
AcDbLine
 10
-929.624120140797
 20
-2910.778315623897
 11
-929.624120140797
 21
-2985.778315623897
  0
LINE
  5
1FC
100
AcDbEntity
  8
0
  6
CONTINUOUS
 62
           7
100
AcDbLine
 10
-914.624120140797
 20
-2910.778315623897
 11
-914.624120140797
 21
-2985.778315623897
  0
LINE
  5
1FB
100
AcDbEntity
  8
0
  6
CONTINUOUS
 62
           7
100
AcDbLine
 10
-929.624120140797
 20
-2910.778315623897
 11
-914.624120140797
 21
-2910.778315623897
  0
LINE
  5
1FA
100
AcDbEntity
  8
0
  6
CONTINUOUS
 62
           7
100
AcDbLine
 10
-895.124120140797
 20
-2910.778315623897
 11
-895.124120140797
 21
-2985.778315623897
  0
LINE
  5
1F9
100
AcDbEntity
  8
0
  6
CONTINUOUS
 62
           7
100
AcDbLine
 10
-929.624120140797
 20
-2985.778315623897
 11
-914.624120140797
 21
-2985.778315623897
  0
LINE
  5
1F8
100
AcDbEntity
  8
0
  6
CONTINUOUS
 62
           7
100
AcDbLine
 10
-688.124120140798
 20
-2504.653315623901
 11
-688.724120140797
 21
-2504.653315623901
  0
LINE
  5
1F7
100
AcDbEntity
  8
0
  6
CONTINUOUS
 62
           7
100
AcDbLine
 10
-688.124120140797
 20
-2426.803315623899
 11
-688.724120140797
 21
-2426.803315623899
  0
LINE
  5
1F6
100
AcDbEntity
  8
0
  6
CONTINUOUS
 62
           7
100
AcDbLine
 10
-685.124120140798
 20
-2429.8033156239
 11
-685.124120140797
 21
-2501.653315623898
  0
LINE
  5
1F5
100
AcDbEntity
  8
0
  6
CONTINUOUS
 62
           7
100
AcDbLine
 10
-685.124120140799
 20
-1723.603315623899
 11
-685.124120140799
 21
-1795.453315623897
  0
LINE
  5
1F4
100
AcDbEntity
  8
0
  6
CONTINUOUS
 62
           7
100
AcDbLine
 10
-688.124120140799
 20
-1798.453315623899
 11
-688.724120140799
 21
-1798.453315623899
  0
LINE
  5
1F3
100
AcDbEntity
  8
0
  6
CONTINUOUS
 62
           7
100
AcDbLine
 10
-688.124120140799
 20
-1720.603315623899
 11
-688.724120140799
 21
-1720.603315623899
  0
LINE
  5
1F2
100
AcDbEntity
  8
0
  6
CONTINUOUS
 62
           7
100
AcDbLine
 10
-379.174120140798
 20
-2257.229981673737
 11
-379.174120140798
 21
-2288.878315623898
  0
LINE
  5
1F1
100
AcDbEntity
  8
0
  6
CONTINUOUS
 62
           3
100
AcDbLine
 10
-379.174120140798
 20
-2245.716874420702
 11
-379.174120140798
 21
-2288.878315623898
  0
LINE
  5
1F0
100
AcDbEntity
  8
0
  6
CONTINUOUS
 62
           7
100
AcDbLine
 10
-395.524120140796
 20
-2254.9783156239
 11
-399.424120140796
 21
-2257.22998167374
  0
LINE
  5
1EF
100
AcDbEntity
  8
0
  6
CONTINUOUS
 62
           7
100
AcDbLine
 10
-362.824120140799
 20
-2254.978315623898
 11
-395.524120140796
 21
-2254.9783156239
  0
LINE
  5
1EE
100
AcDbEntity
  8
0
  6
CONTINUOUS
 62
           7
100
AcDbLine
 10
-358.924120140798
 20
-2257.229981673737
 11
-358.924120140798
 21
-2288.878315623898
  0
LINE
  5
1ED
100
AcDbEntity
  8
0
  6
CONTINUOUS
 62
           7
100
AcDbLine
 10
-399.424120140796
 20
-2257.22998167374
 11
-399.424120140798
 21
-2288.878315623898
  0
LINE
  5
1EC
100
AcDbEntity
  8
0
  6
CONTINUOUS
 62
           7
100
AcDbLine
 10
-358.924120140798
 20
-2257.229981673737
 11
-362.824120140799
 21
-2254.978315623898
  0
LINE
  5
1EB
100
AcDbEntity
  8
0
  6
CONTINUOUS
 62
           7
100
AcDbLine
 10
-706.124120140797
 20
-3018.178315623899
 11
-706.124120140797
 21
-3038.278315623897
  0
LINE
  5
1EA
100
AcDbEntity
  8
0
  6
CONTINUOUS
 62
           7
100
AcDbLine
 10
-703.724120140797
 20
-3018.178315623899
 11
-703.724120140797
 21
-3040.678315623898
  0
LINE
  5
1E9
100
AcDbEntity
  8
0
  6
CONTINUOUS
 62
           7
100
AcDbLine
 10
-706.124120140797
 20
-3018.178315623899
 11
-703.724120140797
 21
-3018.178315623899
  0
LINE
  5
1E8
100
AcDbEntity
  8
0
  6
CONTINUOUS
 62
           7
100
AcDbLine
 10
-706.124120140797
 20
-3038.278315623897
 11
-1301.924120140797
 21
-3038.278315623897
  0
LINE
  5
1E7
100
AcDbEntity
  8
0
  6
CONTINUOUS
 62
           7
100
AcDbLine
 10
-1301.924120140797
 20
-3040.678315623898
 11
-703.724120140797
 21
-3040.678315623898
  0
LINE
  5
1E6
100
AcDbEntity
  8
0
  6
CONTINUOUS
 62
           7
100
AcDbLine
 10
-313.774120140799
 20
-2349.478315623898
 11
-313.774120140799
 21
-2394.478315623898
  0
LINE
  5
1E5
100
AcDbEntity
  8
0
  6
CONTINUOUS
 62
           7
100
AcDbLine
 10
-292.774120140799
 20
-2349.478315623898
 11
-292.774120140799
 21
-2394.478315623898
  0
LINE
  5
1E4
100
AcDbEntity
  8
0
  6
CONTINUOUS
 62
           7
100
AcDbLine
 10
-309.649120140799
 20
-2354.728315623898
 11
-309.649120140799
 21
-2389.228315623898
  0
LINE
  5
1E3
100
AcDbEntity
  8
0
  6
CONTINUOUS
 62
           7
100
AcDbLine
 10
-296.899120140799
 20
-2354.728315623898
 11
-309.649120140799
 21
-2354.728315623898
  0
LINE
  5
1E2
100
AcDbEntity
  8
0
  6
CONTINUOUS
 62
           7
100
AcDbLine
 10
-292.774120140799
 20
-2349.478315623898
 11
-313.774120140799
 21
-2349.478315623898
  0
LINE
  5
1E1
100
AcDbEntity
  8
0
  6
CONTINUOUS
 62
           7
100
AcDbLine
 10
-292.774120140799
 20
-2394.478315623898
 11
-313.774120140799
 21
-2394.478315623898
  0
LINE
  5
1E0
100
AcDbEntity
  8
0
  6
CONTINUOUS
 62
           7
100
AcDbLine
 10
-296.899120140799
 20
-2389.228315623898
 11
-309.649120140799
 21
-2389.228315623898
  0
LINE
  5
1DF
100
AcDbEntity
  8
0
  6
CONTINUOUS
 62
           7
100
AcDbLine
 10
-296.899120140799
 20
-2354.728315623898
 11
-296.899120140799
 21
-2389.228315623898
  0
LINE
  5
1DE
100
AcDbEntity
  8
0
  6
CONTINUOUS
 62
           7
100
AcDbLine
 10
-1341.996289640507
 20
-1951.265715301835
 11
-1341.996289640507
 21
-1966.89864925095
  0
LINE
  5
1DD
100
AcDbEntity
  8
0
  6
CONTINUOUS
 62
           7
100
AcDbLine
 10
-1341.996289640507
 20
-1921.265716493927
 11
-1326.996290236553
 21
-1921.265716493927
  0
LINE
  5
1DC
100
AcDbEntity
  8
0
  6
CONTINUOUS
 62
           7
100
AcDbLine
 10
-1319.496290534576
 20
-1928.765716195904
 11
-1319.496290534576
 21
-1951.265715301835
  0
LINE
  5
1DB
100
AcDbEntity
  8
0
  6
CONTINUOUS
 62
           7
100
AcDbLine
 10
-1349.496289342484
 20
-1951.265715301835
 11
-1319.496290534576
 21
-1951.265715301835
  0
LINE
  5
1DA
100
AcDbEntity
  8
0
  6
CONTINUOUS
 62
           7
100
AcDbLine
 10
-1349.496289342484
 20
-1928.765716195904
 11
-1349.496289342484
 21
-1951.265715301835
  0
LINE
  5
1D9
100
AcDbEntity
  8
0
  6
CONTINUOUS
 62
           7
100
AcDbLine
 10
-1338.996259242138
 20
-1822.378315027851
 11
-1338.996259242138
 21
-1875.465242239656
  0
LINE
  5
1D8
100
AcDbEntity
  8
0
  6
CONTINUOUS
 62
           7
100
AcDbLine
 10
-1329.99632063492
 20
-1822.378315027851
 11
-1329.99632063492
 21
-1877.62520003957
  0
LINE
  5
1D7
100
AcDbEntity
  8
0
  6
CONTINUOUS
 62
           7
100
AcDbLine
 10
-1303.724120140797
 20
-1802.878346320289
 11
-1319.496290534576
 21
-1802.878346320289
  0
LINE
  5
1D6
100
AcDbEntity
  8
0
  6
CONTINUOUS
 62
           7
100
AcDbLine
 10
-1303.724120140797
 20
-1811.878284927507
 11
-1319.496290534576
 21
-1811.878284927507
  0
LINE
  5
1D5
100
AcDbEntity
  8
0
  6
CONTINUOUS
 62
           7
100
AcDbLine
 10
-1326.996290236553
 20
-1951.265715301835
 11
-1326.996290236553
 21
-1966.264875472422
  0
LINE
  5
1D4
100
AcDbEntity
  8
0
  6
CONTINUOUS
 62
           7
100
AcDbLine
 10
-1347.858766692633
 20
-1873.338251263026
 11
-1323.535695665276
 21
-1879.17579428825
  0
LINE
  5
1D3
100
AcDbEntity
  8
0
  6
CONTINUOUS
 62
           7
100
AcDbLine
 10
-1349.609065461626
 20
-1880.631155331291
 11
-1325.285994434269
 21
-1886.468698356513
  0
LINE
  5
1D2
100
AcDbEntity
  8
0
  6
CONTINUOUS
 62
           7
100
AcDbLine
 10
-1329.99632063492
 20
-1885.338212428394
 11
-1329.99632063492
 21
-1921.265716493927
  0
LINE
  5
1D1
100
AcDbEntity
  8
0
  6
CONTINUOUS
 62
           7
100
AcDbLine
 10
-1338.996259242138
 20
-1883.17825462848
 11
-1338.996259242138
 21
-1921.265716493927
  0
LINE
  5
1D0
100
AcDbEntity
  8
0
  6
CONTINUOUS
 62
           7
100
AcDbLine
 10
-171.081722163141
 20
-3050.416123751747
 11
-114.44378453121
 21
-3050.416123751747
  0
LINE
  5
1CF
100
AcDbEntity
  8
0
  6
CONTINUOUS
 62
           7
100
AcDbLine
 10
-171.081722163141
 20
-3063.916123751747
 11
-113.43128453121
 21
-3063.916123751747
  0
LINE
  5
1CE
100
AcDbEntity
  8
0
  6
CONTINUOUS
 62
           7
100
AcDbLine
 10
-171.831722163141
 20
-3040.678315623899
 11
-171.831722163141
 21
-3049.666123751747
  0
LINE
  5
1CD
100
AcDbEntity
  8
0
  6
CONTINUOUS
 62
           7
100
AcDbLine
 10
-185.331722163141
 20
-3040.678315623899
 11
-185.331722163141
 21
-3049.666123751747
  0
LINE
  5
1CC
100
AcDbEntity
  8
0
  6
CONTINUOUS
 62
           7
100
AcDbLine
 10
-82.416955750387
 20
-3063.916123751747
 11
122.780859813883
 21
-3063.916123751747
  0
LINE
  5
1CB
100
AcDbEntity
  8
0
  6
CONTINUOUS
 62
           7
100
AcDbLine
 10
-81.404455750387
 20
-3050.416123751747
 11
122.780859813883
 21
-3050.416123751747
  0
LINE
  5
1CA
100
AcDbEntity
  8
0
  6
CONTINUOUS
 62
           7
100
AcDbLine
 10
122.780859813883
 20
-3050.416123751747
 11
122.780859813883
 21
-3063.916123751747
  0
LINE
  5
1C9
100
AcDbEntity
  8
0
  6
CONTINUOUS
 62
           7
100
AcDbLine
 10
-733.724120140797
 20
-2303.878315623898
 11
-733.724120140797
 21
-2393.878315623898
  0
LINE
  5
1C8
100
AcDbEntity
  8
0
  6
CONTINUOUS
 62
           7
100
AcDbLine
 10
-883.724120140797
 20
-2303.878315623898
 11
-733.724120140797
 21
-2303.878315623898
  0
LINE
  5
1C7
100
AcDbEntity
  8
0
  6
CONTINUOUS
 62
           7
100
AcDbLine
 10
-883.724120140797
 20
-2303.878315623898
 11
-883.724120140797
 21
-2393.878315623898
  0
LINE
  5
1C6
100
AcDbEntity
  8
0
  6
CONTINUOUS
 62
           7
100
AcDbLine
 10
-883.724120140797
 20
-2393.878315623898
 11
-733.724120140797
 21
-2393.878315623898
  0
LINE
  5
1C5
100
AcDbEntity
  8
0
  6
CONTINUOUS
 62
           3
100
AcDbLine
 10
286.29455171263
 20
-3040.678315623898
 11
286.294551712629
 21
-3070.678315623898
  0
LINE
  5
1C4
100
AcDbEntity
  8
0
  6
CONTINUOUS
 62
           7
100
AcDbLine
 10
303.54455171263
 20
-3040.678315623898
 11
301.29455171263
 21
-3070.678315623898
  0
LINE
  5
1C3
100
AcDbEntity
  8
0
  6
CONTINUOUS
 62
           7
100
AcDbLine
 10
271.294551712629
 20
-3070.678315623898
 11
269.044551712629
 21
-3040.678315623898
  0
LINE
  5
1C2
100
AcDbEntity
  8
0
  6
CONTINUOUS
 62
           7
100
AcDbLine
 10
271.294551712629
 20
-3070.678315623898
 11
301.29455171263
 21
-3070.678315623898
  0
LINE
  5
1C1
100
AcDbEntity
  8
0
  6
CONTINUOUS
 62
           7
100
AcDbLine
 10
249.694551712628
 20
-2504.653315623898
 11
250.294551712628
 21
-2504.653315623898
  0
LINE
  5
1C0
100
AcDbEntity
  8
0
  6
CONTINUOUS
 62
           7
100
AcDbLine
 10
249.694551712628
 20
-2426.803315623899
 11
250.294551712628
 21
-2426.803315623899
  0
LINE
  5
1BF
100
AcDbEntity
  8
0
  6
CONTINUOUS
 62
           7
100
AcDbLine
 10
246.694551712628
 20
-2429.803315623899
 11
246.694551712628
 21
-2501.653315623898
  0
LINE
  5
1BE
100
AcDbEntity
  8
0
  6
CONTINUOUS
 62
           7
100
AcDbLine
 10
267.69455171263
 20
-3018.178315623897
 11
267.69455171263
 21
-3038.278315623897
  0
LINE
  5
1BD
100
AcDbEntity
  8
0
  6
CONTINUOUS
 62
           7
100
AcDbLine
 10
265.294551712628
 20
-3018.178315623897
 11
265.294551712628
 21
-3040.678315623898
  0
LINE
  5
1BC
100
AcDbEntity
  8
0
  6
CONTINUOUS
 62
           7
100
AcDbLine
 10
267.69455171263
 20
-3018.178315623897
 11
265.294551712628
 21
-3018.178315623897
  0
LINE
  5
1BB
100
AcDbEntity
  8
0
  6
CONTINUOUS
 62
           7
100
AcDbLine
 10
267.69455171263
 20
-3038.278315623897
 11
572.267595629046
 21
-3038.278315623897
  0
LINE
  5
1BA
100
AcDbEntity
  8
0
  6
CONTINUOUS
 62
           7
100
AcDbLine
 10
572.861878765245
 20
-3040.678315623896
 11
265.294551712628
 21
-3040.678315623898
  0
LINE
  5
1B9
100
AcDbEntity
  8
0
  6
CONTINUOUS
 62
           7
100
AcDbLine
 10
591.028764096318
 20
-2288.878315623898
 11
281.794551712628
 21
-2288.878315623898
  0
LINE
  5
1B8
100
AcDbEntity
  8
0
  6
CONTINUOUS
 62
           7
100
AcDbLine
 10
280.294551712629
 20
-3038.278315623897
 11
572.267595629046
 21
-3038.278315623897
  0
LINE
  5
1B7
100
AcDbEntity
  8
0
  6
CONTINUOUS
 62
           7
100
AcDbLine
 10
281.794551712628
 20
-2288.878315623898
 11
281.794551712628
 21
-2290.678315623899
  0
LINE
  5
1B6
100
AcDbEntity
  8
0
  6
CONTINUOUS
 62
           7
100
AcDbLine
 10
280.294551712629
 20
-2290.678315623899
 11
281.794551712628
 21
-2290.678315623899
  0
LINE
  5
1B5
100
AcDbEntity
  8
0
  6
CONTINUOUS
 62
           7
100
AcDbLine
 10
300.694551712628
 20
-2985.778315623897
 11
495.694551712628
 21
-2985.778315623897
  0
LINE
  5
1B4
100
AcDbEntity
  8
0
  6
CONTINUOUS
 62
           7
100
AcDbLine
 10
300.694551712628
 20
-2678.278315623897
 11
495.694551712628
 21
-2678.278315623897
  0
LINE
  5
1B3
100
AcDbEntity
  8
0
  6
CONTINUOUS
 62
           7
100
AcDbLine
 10
300.694551712628
 20
-2678.278315623897
 11
300.694551712628
 21
-2985.778315623897
  0
LINE
  5
1B2
100
AcDbEntity
  8
0
  6
CONTINUOUS
 62
           7
100
AcDbLine
 10
495.694551712628
 20
-2678.278315623897
 11
495.694551712628
 21
-2985.778315623897
  0
LINE
  5
1B1
100
AcDbEntity
  8
0
  6
CONTINUOUS
 62
           7
100
AcDbLine
 10
365.468787919393
 20
-2954.128356453075
 11
341.220076613428
 21
-2954.128356453075
  0
LINE
  5
1B0
100
AcDbEntity
  8
0
  6
CONTINUOUS
 62
           7
100
AcDbLine
 10
363.328025087126
 20
-2949.628356453075
 11
363.483603701762
 21
-2954.083545275539
  0
LINE
  5
1AF
100
AcDbEntity
  8
0
  6
CONTINUOUS
 62
           7
100
AcDbLine
 10
343.360838014312
 20
-2949.628356453075
 11
343.20525940142
 21
-2954.083545225616
  0
LINE
  5
1AE
100
AcDbEntity
  8
0
  6
CONTINUOUS
 62
           3
100
AcDbLine
 10
362.043242495182
 20
-2949.628356453075
 11
362.200385942581
 21
-2954.12835622502
  0
LINE
  5
1AD
100
AcDbEntity
  8
0
  6
CONTINUOUS
 62
           3
100
AcDbLine
 10
344.645620606256
 20
-2949.628356453075
 11
344.4884771606
 21
-2954.128356175096
  0
LINE
  5
1AC
100
AcDbEntity
  8
0
  6
DASHED
 62
           3
100
AcDbLine
 10
353.34443226641
 20
-2943.139626678979
 11
353.34443226641
 21
-3001.19708700142
  0
LINE
  5
1AB
100
AcDbEntity
  8
0
  6
CONTINUOUS
 62
           7
100
AcDbLine
 10
365.468787919393
 20
-2954.128356453075
 11
365.468787919393
 21
-2961.628356453075
  0
LINE
  5
1AA
100
AcDbEntity
  8
0
  6
DASHED
 62
           7
100
AcDbLine
 10
363.328025087126
 20
-2949.628356453075
 11
343.360838014312
 21
-2949.628356453075
  0
LINE
  5
1A9
100
AcDbEntity
  8
0
  6
CONTINUOUS
 62
           7
100
AcDbLine
 10
365.468787919393
 20
-2961.628356453075
 11
341.220076613428
 21
-2961.628356453075
  0
LINE
  5
1A8
100
AcDbEntity
  8
0
  6
CONTINUOUS
 62
           7
100
AcDbLine
 10
360.09443226641
 20
-2961.628356453075
 11
360.09443226641
 21
-2985.778315623897
  0
LINE
  5
1A7
100
AcDbEntity
  8
0
  6
CONTINUOUS
 62
           7
100
AcDbLine
 10
341.220076613428
 20
-2954.128356453075
 11
341.220076613428
 21
-2961.628356453075
  0
LINE
  5
1A6
100
AcDbEntity
  8
0
  6
CONTINUOUS
 62
           7
100
AcDbLine
 10
346.59443226641
 20
-2961.628356453075
 11
346.59443226641
 21
-2985.778315623897
  0
LINE
  5
1A5
100
AcDbEntity
  8
0
  6
CONTINUOUS
 62
           7
100
AcDbLine
 10
359.406610092901
 20
-2954.128356453075
 11
359.406610092901
 21
-2961.628356453075
  0
LINE
  5
1A4
100
AcDbEntity
  8
0
  6
CONTINUOUS
 62
           7
100
AcDbLine
 10
347.282254439919
 20
-2954.128356453075
 11
347.282254439919
 21
-2961.628356453075
  0
LINE
  5
1A3
100
AcDbEntity
  8
0
  6
DASHED
 62
           7
100
AcDbLine
 10
360.09443226641
 20
-2997.628356453075
 11
346.59443226641
 21
-2997.628356453075
  0
LINE
  5
1A2
100
AcDbEntity
  8
0
  6
CONTINUOUS
 62
           7
100
AcDbLine
 10
360.09443226641
 20
-2979.628356453075
 11
346.59443226641
 21
-2979.628356453075
  0
LINE
  5
1A1
100
AcDbEntity
  8
0
  6
DASHED
 62
           7
100
AcDbLine
 10
360.09443226641
 20
-2988.628356453075
 11
346.59443226641
 21
-2988.628356453075
  0
LINE
  5
1A0
100
AcDbEntity
  8
0
  6
CONTINUOUS
 62
           7
100
AcDbLine
 10
360.09443226641
 20
-2970.628356453075
 11
346.59443226641
 21
-2970.628356453075
  0
LINE
  5
19F
100
AcDbEntity
  8
0
  6
DASHED
 62
           7
100
AcDbLine
 10
373.594370426594
 20
-2727.628319498199
 11
333.094341518342
 21
-2727.628319498199
  0
LINE
  5
19E
100
AcDbEntity
  8
0
  6
DASHED
 62
           7
100
AcDbLine
 10
279.844450445827
 20
-2762.128325756687
 11
279.844450445827
 21
-2766.62827598681
  0
LINE
  5
19D
100
AcDbEntity
  8
0
  6
CONTINUOUS
 62
           7
100
AcDbLine
 10
426.844414086995
 20
-2762.128325756687
 11
426.844414086995
 21
-2766.62827598681
  0
LINE
  5
19C
100
AcDbEntity
  8
0
  6
CONTINUOUS
 62
           7
100
AcDbLine
 10
330.844509454423
 20
-2729.128277476926
 11
330.844509454423
 21
-2749.678317859071
  0
LINE
  5
19B
100
AcDbEntity
  8
0
  6
CONTINUOUS
 62
           7
100
AcDbLine
 10
375.844507666283
 20
-2729.128277476926
 11
375.844507666283
 21
-2749.678317859071
  0
LINE
  5
19A
100
AcDbEntity
  8
0
  6
CONTINUOUS
 62
           7
100
AcDbLine
 10
323.344509752446
 20
-2749.678317859071
 11
323.344509752446
 21
-2751.628276582856
  0
LINE
  5
199
100
AcDbEntity
  8
0
  6
CONTINUOUS
 62
           7
100
AcDbLine
 10
383.344507368259
 20
-2749.678317859071
 11
383.344507368259
 21
-2751.628276582856
  0
LINE
  5
198
100
AcDbEntity
  8
0
  6
CONTINUOUS
 62
           7
100
AcDbLine
 10
323.344509752446
 20
-2749.678336932557
 11
383.344431074317
 21
-2749.678336932557
  0
LINE
  5
197
100
AcDbEntity
  8
0
  6
DASHED
 62
           7
100
AcDbLine
 10
297.094339134156
 20
-2751.628333803312
 11
300.694551712628
 21
-2751.628333803312
  0
LINE
  5
196
100
AcDbEntity
  8
0
  6
CONTINUOUS
 62
           7
100
AcDbLine
 10
409.594352711813
 20
-2751.628328477543
 11
426.844409569428
 21
-2762.128362563186
  0
LINE
  5
195
100
AcDbEntity
  8
0
  6
DASHED
 62
           7
100
AcDbLine
 10
297.094351681774
 20
-2751.628333926509
 11
279.844327409246
 21
-2762.128348177751
  0
LINE
  5
194
100
AcDbEntity
  8
0
  6
CONTINUOUS
 62
           7
100
AcDbLine
 10
415.59441453403
 20
-2766.62827598681
 11
415.59441453403
 21
-2771.128321584361
  0
LINE
  5
193
100
AcDbEntity
  8
0
  6
DASHED
 62
           7
100
AcDbLine
 10
279.844450445827
 20
-2766.628333207266
 11
300.694551712628
 21
-2766.628333207266
  0
LINE
  5
192
100
AcDbEntity
  8
0
  6
CONTINUOUS
 62
           7
100
AcDbLine
 10
426.844414086995
 20
-2762.128363903657
 11
300.694551712628
 21
-2762.128363903657
  0
LINE
  5
191
100
AcDbEntity
  8
0
  6
CONTINUOUS
 62
           7
100
AcDbLine
 10
362.664118785728
 20
-2727.628300424713
 11
362.664118785728
 21
-2749.678317859071
  0
LINE
  5
190
100
AcDbEntity
  8
0
  6
CONTINUOUS
 62
           7
100
AcDbLine
 10
344.024593159208
 20
-2727.628300424713
 11
344.024593159208
 21
-2749.678317859071
  0
LINE
  5
18F
100
AcDbEntity
  8
0
  6
CONTINUOUS
 62
           7
100
AcDbLine
 10
339.881832093358
 20
-2927.878288652797
 11
339.881832093358
 21
-2930.128311451572
  0
LINE
  5
18E
100
AcDbEntity
  8
0
  6
CONTINUOUS
 62
           7
100
AcDbLine
 10
353.34443226641
 20
-2949.628356453076
 11
345.094463111813
 21
-2949.628356453076
  0
LINE
  5
18D
100
AcDbEntity
  8
0
  6
DASHED
 62
           7
100
AcDbLine
 10
340.969478534515
 20
-2927.878288652797
 11
340.969478534515
 21
-2928.628296252389
  0
LINE
  5
18C
100
AcDbEntity
  8
0
  6
CONTINUOUS
 62
           7
100
AcDbLine
 10
340.969500343709
 20
-2928.628417977111
 11
339.881989807863
 21
-2930.128431759128
  0
LINE
  5
18B
100
AcDbEntity
  8
0
  6
CONTINUOUS
 62
           7
100
AcDbLine
 10
339.881797475098
 20
-2930.128381014801
 11
336.844247839397
 21
-2930.942289993478
  0
LINE
  5
18A
100
AcDbEntity
  8
0
  6
CONTINUOUS
 62
           7
100
AcDbLine
 10
353.34443226641
 20
-2930.12823515763
 11
339.8819083873
 21
-2930.12823515763
  0
LINE
  5
189
100
AcDbEntity
  8
0
  6
CONTINUOUS
 62
           7
100
AcDbLine
 10
366.807185027348
 20
-2927.878288652797
 11
366.807185027348
 21
-2930.128311451572
  0
LINE
  5
188
100
AcDbEntity
  8
0
  6
CONTINUOUS
 62
           7
100
AcDbLine
 10
353.34443226641
 20
-2949.628356453076
 11
361.594458641464
 21
-2949.628356453076
  0
LINE
  5
187
100
AcDbEntity
  8
0
  6
DASHED
 62
           7
100
AcDbLine
 10
365.719538586193
 20
-2927.878288652797
 11
365.719538586193
 21
-2928.628296252389
  0
LINE
  5
186
100
AcDbEntity
  8
0
  6
CONTINUOUS
 62
           7
100
AcDbLine
 10
365.719364632157
 20
-2928.628320658232
 11
366.806830385918
 21
-2930.128272671886
  0
LINE
  5
185
100
AcDbEntity
  8
0
  6
CONTINUOUS
 62
           7
100
AcDbLine
 10
366.8069969434
 20
-2930.128266581897
 11
369.844491308382
 21
-2930.942160750828
  0
LINE
  5
184
100
AcDbEntity
  8
0
  6
CONTINUOUS
 62
           7
100
AcDbLine
 10
353.34443226641
 20
-2930.12823515763
 11
366.807108733405
 21
-2930.12823515763
  0
LINE
  5
183
100
AcDbEntity
  8
0
  6
CONTINUOUS
 62
           7
100
AcDbLine
 10
379.594431223329
 20
-2919.32836986412
 11
327.094433309492
 21
-2919.32836986412
  0
LINE
  5
182
100
AcDbEntity
  8
0
  6
DASHED
 62
           7
100
AcDbLine
 10
278.344358952701
 20
-2796.628293868203
 11
278.344358952701
 21
-2772.628298636574
  0
LINE
  5
181
100
AcDbEntity
  8
0
  6
CONTINUOUS
 62
           7
100
AcDbLine
 10
428.34450558012
 20
-2796.628293868203
 11
428.34450558012
 21
-2772.628298636574
  0
LINE
  5
180
100
AcDbEntity
  8
0
  6
DASHED
 62
           7
100
AcDbLine
 10
278.34435792569
 20
-2796.628487299826
 11
299.719372871005
 21
-2802.628491634294
  0
LINE
  5
17F
100
AcDbEntity
  8
0
  6
CONTINUOUS
 62
           7
100
AcDbLine
 10
428.344366992153
 20
-2796.628392737778
 11
406.96931531938
 21
-2802.628407381711
  0
LINE
  5
17E
100
AcDbEntity
  8
0
  6
DASHED
 62
           7
100
AcDbLine
 10
299.719335787657
 20
-2802.628292733408
 11
300.694551712628
 21
-2864.391972583995
  0
LINE
  5
17D
100
AcDbEntity
  8
0
  6
CONTINUOUS
 62
           7
100
AcDbLine
 10
406.969232935556
 20
-2802.628337467997
 11
405.831148564697
 21
-2874.707019660034
  0
LINE
  5
17C
100
AcDbEntity
  8
0
  6
DASHED
 62
           7
100
AcDbLine
 10
279.844450445827
 20
-2771.128378804818
 11
300.694551712628
 21
-2771.128378804818
  0
LINE
  5
17B
100
AcDbEntity
  8
0
  6
DASHED
 62
           7
100
AcDbLine
 10
278.344416173156
 20
-2796.628332015174
 11
300.694551712628
 21
-2796.628332015174
  0
LINE
  5
17A
100
AcDbEntity
  8
0
  6
CONTINUOUS
 62
           7
100
AcDbLine
 10
406.969460653121
 20
-2802.628316517966
 11
300.694551712628
 21
-2802.628316517966
  0
LINE
  5
179
100
AcDbEntity
  8
0
  6
DASHED
 62
           7
100
AcDbLine
 10
278.344482147987
 20
-2772.628370392009
 11
279.844471673514
 21
-2771.128367590257
  0
LINE
  5
178
100
AcDbEntity
  8
0
  6
DASHED
 62
           7
100
AcDbLine
 10
428.34444116859
 20
-2772.628352098431
 11
426.844451643064
 21
-2771.128349296682
  0
LINE
  5
177
100
AcDbEntity
  8
0
  6
CONTINUOUS
 62
           7
100
AcDbLine
 10
353.344355972469
 20
-2707.100774258503
 11
353.344355972469
 21
-2956.798862820755
  0
LINE
  5
176
100
AcDbEntity
  8
0
  6
DASHED
 62
           7
100
AcDbLine
 10
291.094449998792
 20
-2766.62827598681
 11
291.094449998792
 21
-2771.128321584361
  0
LINE
  5
175
100
AcDbEntity
  8
0
  6
CONTINUOUS
 62
           7
100
AcDbLine
 10
332.344372065721
 20
-2727.628319498199
 11
374.344416173156
 21
-2727.628319498199
  0
LINE
  5
174
100
AcDbEntity
  8
0
  6
CONTINUOUS
 62
           7
100
AcDbLine
 10
330.844274117771
 20
-2729.128308036185
 11
332.344239893615
 21
-2727.62833543269
  0
LINE
  5
173
100
AcDbEntity
  8
0
  6
CONTINUOUS
 62
           7
100
AcDbLine
 10
374.34439157366
 20
-2727.628277459352
 11
375.844391151199
 21
-2729.128270209117
  0
LINE
  5
172
100
AcDbEntity
  8
0
  6
CONTINUOUS
 62
           7
100
AcDbLine
 10
336.844417663274
 20
-2930.942215227824
 11
336.844417663274
 21
-2948.814452676825
  0
LINE
  5
171
100
AcDbEntity
  8
0
  6
CONTINUOUS
 62
           7
100
AcDbLine
 10
369.844294281664
 20
-2930.942215227824
 11
369.844294281664
 21
-2948.814452676825
  0
LINE
  5
170
100
AcDbEntity
  8
0
  6
CONTINUOUS
 62
           7
100
AcDbLine
 10
375.844355078399
 20
-2919.328293570179
 11
375.844355078399
 21
-2926.678223087689
  0
LINE
  5
16F
100
AcDbEntity
  8
0
  6
CONTINUOUS
 62
           7
100
AcDbLine
 10
353.344413192924
 20
-2927.878326799767
 11
332.044670386957
 21
-2927.878326799767
  0
LINE
  5
16E
100
AcDbEntity
  8
0
  6
CONTINUOUS
 62
           7
100
AcDbLine
 10
374.719362752495
 20
-2927.878326799767
 11
353.344413192924
 21
-2927.878326799767
  0
LINE
  5
16D
100
AcDbEntity
  8
0
  6
DASHED
 62
           7
100
AcDbLine
 10
375.844441259155
 20
-2926.678238881159
 11
374.644424165203
 21
-2927.878258807424
  0
LINE
  5
16C
100
AcDbEntity
  8
0
  6
DASHED
 62
           7
100
AcDbLine
 10
330.844520861882
 20
-2926.678191804555
 11
332.04448481713
 21
-2927.878156973597
  0
LINE
  5
16B
100
AcDbEntity
  8
0
  6
CONTINUOUS
 62
           7
100
AcDbLine
 10
330.844509454423
 20
-2919.328293570179
 11
330.844509454423
 21
-2926.678184940719
  0
LINE
  5
16A
100
AcDbEntity
  8
0
  6
DASHED
 62
           7
100
AcDbLine
 10
346.59443226641
 20
-2985.778315623897
 11
346.59443226641
 21
-2997.628356453075
  0
LINE
  5
169
100
AcDbEntity
  8
0
  6
DASHED
 62
           7
100
AcDbLine
 10
360.09443226641
 20
-2985.778315623897
 11
360.09443226641
 21
-2997.628356453075
  0
LINE
  5
168
100
AcDbEntity
  8
0
  6
CONTINUOUS
 62
           7
100
AcDbLine
 10
300.694551712628
 20
-2864.391972583995
 11
300.857420760761
 21
-2874.707013067663
  0
LINE
  5
167
100
AcDbEntity
  8
0
  6
DASHED
 62
           7
100
AcDbLine
 10
300.694551712628
 20
-2802.628316517966
 11
299.719461100156
 21
-2802.628316517966
  0
LINE
  5
166
100
AcDbEntity
  8
0
  6
CONTINUOUS
 62
           7
100
AcDbLine
 10
300.694551712628
 20
-2796.628332015174
 11
428.344429286179
 21
-2796.628332015174
  0
LINE
  5
165
100
AcDbEntity
  8
0
  6
CONTINUOUS
 62
           7
100
AcDbLine
 10
300.694551712628
 20
-2771.128378804818
 11
426.844414086995
 21
-2771.128378804818
  0
LINE
  5
164
100
AcDbEntity
  8
0
  6
CONTINUOUS
 62
           7
100
AcDbLine
 10
300.694551712628
 20
-2766.628333207266
 11
426.844414086995
 21
-2766.628333207266
  0
LINE
  5
163
100
AcDbEntity
  8
0
  6
DASHED
 62
           7
100
AcDbLine
 10
300.694551712628
 20
-2762.128363903657
 11
279.844374151883
 21
-2762.128363903657
  0
LINE
  5
162
100
AcDbEntity
  8
0
  6
CONTINUOUS
 62
           7
100
AcDbLine
 10
300.694551712628
 20
-2751.628333803312
 11
409.594430031236
 21
-2751.628333803312
  0
LINE
  5
161
100
AcDbEntity
  8
0
  6
CONTINUOUS
 62
           3
100
AcDbLine
 10
370.294551712628
 20
-2244.584653133692
 11
370.294551712628
 21
-2288.878315623899
  0
LINE
  5
160
100
AcDbEntity
  8
0
  6
CONTINUOUS
 62
           7
100
AcDbLine
 10
346.894551712629
 20
-2257.229981673744
 11
350.79455171263
 21
-2254.978315623904
  0
LINE
  5
15F
100
AcDbEntity
  8
0
  6
CONTINUOUS
 62
           7
100
AcDbLine
 10
381.994551712628
 20
-2257.229981673738
 11
381.994551712628
 21
-2288.878315623899
  0
LINE
  5
15E
100
AcDbEntity
  8
0
  6
CONTINUOUS
 62
           7
100
AcDbLine
 10
393.694551712628
 20
-2257.229981673738
 11
393.694551712628
 21
-2288.878315623899
  0
LINE
  5
15D
100
AcDbEntity
  8
0
  6
CONTINUOUS
 62
           7
100
AcDbLine
 10
346.894551712629
 20
-2257.229981673744
 11
346.894551712628
 21
-2288.878315623899
  0
LINE
  5
15C
100
AcDbEntity
  8
0
  6
CONTINUOUS
 62
           7
100
AcDbLine
 10
358.594551712628
 20
-2257.229981673738
 11
358.594551712628
 21
-2288.878315623899
  0
LINE
  5
15B
100
AcDbEntity
  8
0
  6
CONTINUOUS
 62
           7
100
AcDbLine
 10
389.79455171263
 20
-2254.9783156239
 11
350.79455171263
 21
-2254.978315623904
  0
LINE
  5
15A
100
AcDbEntity
  8
0
  6
CONTINUOUS
 62
           7
100
AcDbLine
 10
389.79455171263
 20
-2254.9783156239
 11
393.694551712628
 21
-2257.229981673738
  0
LINE
  5
159
100
AcDbEntity
  8
0
  6
CONTINUOUS
 62
           3
100
AcDbLine
 10
-1138.724120140797
 20
-2243.478044416576
 11
-1138.724120140797
 21
-2288.878315623899
  0
LINE
  5
158
100
AcDbEntity
  8
0
  6
CONTINUOUS
 62
           7
100
AcDbLine
 10
-1115.324120140801
 20
-2257.229981673742
 11
-1119.224120140801
 21
-2254.978315623902
  0
LINE
  5
157
100
AcDbEntity
  8
0
  6
CONTINUOUS
 62
           7
100
AcDbLine
 10
-1150.424120140797
 20
-2257.229981673738
 11
-1150.424120140797
 21
-2288.878315623899
  0
LINE
  5
156
100
AcDbEntity
  8
0
  6
CONTINUOUS
 62
           3
100
AcDbLine
 10
-808.724120140799
 20
-2244.584653133692
 11
-808.724120140799
 21
-2288.878315623899
  0
LINE
  5
155
100
AcDbEntity
  8
0
  6
CONTINUOUS
 62
           7
100
AcDbLine
 10
-785.3241201408
 20
-2257.229981673744
 11
-789.224120140801
 21
-2254.978315623904
  0
LINE
  5
154
100
AcDbEntity
  8
0
  6
CONTINUOUS
 62
           7
100
AcDbLine
 10
-820.424120140797
 20
-2257.229981673738
 11
-820.424120140797
 21
-2288.878315623899
  0
LINE
  5
153
100
AcDbEntity
  8
0
  6
CONTINUOUS
 62
           7
100
AcDbLine
 10
-1162.124120140798
 20
-2257.229981673738
 11
-1162.124120140798
 21
-2288.878315623898
  0
LINE
  5
152
100
AcDbEntity
  8
0
  6
CONTINUOUS
 62
           7
100
AcDbLine
 10
-1115.324120140801
 20
-2257.229981673742
 11
-1115.324120140798
 21
-2288.878315623899
  0
LINE
  5
151
100
AcDbEntity
  8
0
  6
CONTINUOUS
 62
           7
100
AcDbLine
 10
-1127.024120140798
 20
-2257.229981673738
 11
-1127.024120140798
 21
-2288.878315623899
  0
LINE
  5
150
100
AcDbEntity
  8
0
  6
CONTINUOUS
 62
           7
100
AcDbLine
 10
-832.124120140797
 20
-2257.229981673738
 11
-832.124120140797
 21
-2288.878315623899
  0
LINE
  5
14F
100
AcDbEntity
  8
0
  6
CONTINUOUS
 62
           7
100
AcDbLine
 10
-1158.224120140799
 20
-2254.9783156239
 11
-1119.224120140801
 21
-2254.978315623902
  0
LINE
  5
14E
100
AcDbEntity
  8
0
  6
CONTINUOUS
 62
           7
100
AcDbLine
 10
-1158.224120140799
 20
-2254.9783156239
 11
-1162.124120140798
 21
-2257.229981673738
  0
LINE
  5
14D
100
AcDbEntity
  8
0
  6
CONTINUOUS
 62
           7
100
AcDbLine
 10
-785.3241201408
 20
-2257.229981673744
 11
-785.324120140799
 21
-2288.878315623899
  0
LINE
  5
14C
100
AcDbEntity
  8
0
  6
CONTINUOUS
 62
           7
100
AcDbLine
 10
-797.024120140798
 20
-2257.229981673738
 11
-797.024120140798
 21
-2288.878315623899
  0
LINE
  5
14B
100
AcDbEntity
  8
0
  6
CONTINUOUS
 62
           7
100
AcDbLine
 10
-828.224120140799
 20
-2254.9783156239
 11
-789.224120140801
 21
-2254.978315623904
  0
LINE
  5
14A
100
AcDbEntity
  8
0
  6
CONTINUOUS
 62
           7
100
AcDbLine
 10
-828.224120140799
 20
-2254.9783156239
 11
-832.124120140797
 21
-2257.229981673738
  0
LINE
  5
149
100
AcDbEntity
  8
0
  6
CONTINUOUS
 62
           7
100
AcDbLine
 10
346.594355972469
 20
-3057.166123751747
 11
346.594355972469
 21
-3040.678315623896
  0
LINE
  5
148
100
AcDbEntity
  8
0
  6
DASHED
 62
           7
100
AcDbLine
 10
360.094355972469
 20
-2997.628356453075
 11
360.094355972469
 21
-3040.678315623896
  0
LINE
  5
147
100
AcDbEntity
  8
0
  6
DASHED
 62
           7
100
AcDbLine
 10
346.594355972469
 20
-3040.678315623896
 11
346.594355972469
 21
-2997.628356453075
  0
LINE
  5
146
100
AcDbEntity
  8
0
  6
CONTINUOUS
 62
           7
100
AcDbLine
 10
360.094355972469
 20
-3040.678315623896
 11
360.094355972469
 21
-3057.166123751747
  0
LINE
  5
145
100
AcDbEntity
  8
0
  6
CONTINUOUS
 62
           7
100
AcDbLine
 10
-988.124120140797
 20
-2820.778315623897
 11
-988.124120140797
 21
-2895.778315623897
  0
LINE
  5
144
100
AcDbEntity
  8
0
  6
CONTINUOUS
 62
           7
100
AcDbLine
 10
-968.624120140797
 20
-2730.778315623897
 11
-968.624120140797
 21
-2805.778315623897
  0
LINE
  5
143
100
AcDbEntity
  8
0
  6
CONTINUOUS
 62
           7
100
AcDbLine
 10
-953.624120140797
 20
-2730.778315623897
 11
-953.624120140797
 21
-2805.778315623897
  0
LINE
  5
142
100
AcDbEntity
  8
0
  6
CONTINUOUS
 62
           7
100
AcDbLine
 10
-934.124120140797
 20
-2730.778315623897
 11
-934.124120140797
 21
-2805.778315623897
  0
LINE
  5
141
100
AcDbEntity
  8
0
  6
CONTINUOUS
 62
           7
100
AcDbLine
 10
-949.124120140797
 20
-2730.778315623897
 11
-949.124120140797
 21
-2805.778315623897
  0
LINE
  5
140
100
AcDbEntity
  8
0
  6
CONTINUOUS
 62
           7
100
AcDbLine
 10
-949.124120140797
 20
-2730.778315623897
 11
-934.124120140797
 21
-2730.778315623897
  0
LINE
  5
13F
100
AcDbEntity
  8
0
  6
CONTINUOUS
 62
           7
100
AcDbLine
 10
-949.124120140797
 20
-2805.778315623897
 11
-934.124120140797
 21
-2805.778315623897
  0
LINE
  5
13E
100
AcDbEntity
  8
0
  6
CONTINUOUS
 62
           7
100
AcDbLine
 10
-949.124120140797
 20
-2895.778315623897
 11
-934.124120140797
 21
-2895.778315623897
  0
LINE
  5
13D
100
AcDbEntity
  8
0
  6
CONTINUOUS
 62
           7
100
AcDbLine
 10
-949.124120140797
 20
-2820.778315623897
 11
-934.124120140797
 21
-2820.778315623897
  0
LINE
  5
13C
100
AcDbEntity
  8
0
  6
CONTINUOUS
 62
           7
100
AcDbLine
 10
-949.124120140797
 20
-2820.778315623897
 11
-949.124120140797
 21
-2895.778315623897
  0
LINE
  5
13B
100
AcDbEntity
  8
0
  6
CONTINUOUS
 62
           7
100
AcDbLine
 10
-934.124120140797
 20
-2820.778315623897
 11
-934.124120140797
 21
-2895.778315623897
  0
LINE
  5
13A
100
AcDbEntity
  8
0
  6
CONTINUOUS
 62
           7
100
AcDbLine
 10
-953.624120140797
 20
-2820.778315623897
 11
-953.624120140797
 21
-2895.778315623897
  0
LINE
  5
139
100
AcDbEntity
  8
0
  6
CONTINUOUS
 62
           7
100
AcDbLine
 10
-968.624120140797
 20
-2820.778315623897
 11
-968.624120140797
 21
-2895.778315623897
  0
LINE
  5
138
100
AcDbEntity
  8
0
  6
CONTINUOUS
 62
           7
100
AcDbLine
 10
-968.624120140797
 20
-2820.778315623897
 11
-953.624120140797
 21
-2820.778315623897
  0
LINE
  5
137
100
AcDbEntity
  8
0
  6
CONTINUOUS
 62
           7
100
AcDbLine
 10
-968.624120140797
 20
-2895.778315623897
 11
-953.624120140797
 21
-2895.778315623897
  0
LINE
  5
136
100
AcDbEntity
  8
0
  6
CONTINUOUS
 62
           7
100
AcDbLine
 10
-988.124120140797
 20
-2895.778315623897
 11
-973.124120140797
 21
-2895.778315623897
  0
LINE
  5
135
100
AcDbEntity
  8
0
  6
CONTINUOUS
 62
           7
100
AcDbLine
 10
-988.124120140797
 20
-2820.778315623897
 11
-973.124120140797
 21
-2820.778315623897
  0
LINE
  5
134
100
AcDbEntity
  8
0
  6
CONTINUOUS
 62
           7
100
AcDbLine
 10
-968.624120140797
 20
-2730.778315623897
 11
-953.624120140797
 21
-2730.778315623897
  0
LINE
  5
133
100
AcDbEntity
  8
0
  6
CONTINUOUS
 62
           7
100
AcDbLine
 10
-968.624120140797
 20
-2805.778315623897
 11
-953.624120140797
 21
-2805.778315623897
  0
LINE
  5
132
100
AcDbEntity
  8
0
  6
CONTINUOUS
 62
           7
100
AcDbLine
 10
-988.124120140797
 20
-2805.778315623897
 11
-973.124120140797
 21
-2805.778315623897
  0
LINE
  5
131
100
AcDbEntity
  8
0
  6
CONTINUOUS
 62
           7
100
AcDbLine
 10
-988.124120140797
 20
-2730.778315623897
 11
-973.124120140797
 21
-2730.778315623897
  0
LINE
  5
130
100
AcDbEntity
  8
0
  6
CONTINUOUS
 62
           7
100
AcDbLine
 10
-988.124120140797
 20
-2730.778315623897
 11
-988.124120140797
 21
-2805.778315623897
  0
LINE
  5
12F
100
AcDbEntity
  8
0
  6
CONTINUOUS
 62
           7
100
AcDbLine
 10
-973.124120140797
 20
-2730.778315623897
 11
-973.124120140797
 21
-2805.778315623897
  0
LINE
  5
12E
100
AcDbEntity
  8
0
  6
CONTINUOUS
 62
           7
100
AcDbLine
 10
-992.624120140797
 20
-2730.778315623897
 11
-992.624120140797
 21
-2805.778315623897
  0
LINE
  5
12D
100
AcDbEntity
  8
0
  6
CONTINUOUS
 62
           7
100
AcDbLine
 10
-1007.624120140798
 20
-2730.778315623897
 11
-1007.624120140798
 21
-2805.778315623897
  0
LINE
  5
12C
100
AcDbEntity
  8
0
  6
CONTINUOUS
 62
           7
100
AcDbLine
 10
-1007.624120140798
 20
-2730.778315623897
 11
-992.624120140797
 21
-2730.778315623897
  0
LINE
  5
12B
100
AcDbEntity
  8
0
  6
CONTINUOUS
 62
           7
100
AcDbLine
 10
-1007.624120140798
 20
-2805.778315623897
 11
-992.624120140797
 21
-2805.778315623897
  0
LINE
  5
12A
100
AcDbEntity
  8
0
  6
CONTINUOUS
 62
           7
100
AcDbLine
 10
-1007.624120140798
 20
-2820.778315623897
 11
-1007.624120140798
 21
-2895.778315623897
  0
LINE
  5
129
100
AcDbEntity
  8
0
  6
CONTINUOUS
 62
           7
100
AcDbLine
 10
-992.624120140797
 20
-2820.778315623897
 11
-992.624120140797
 21
-2895.778315623897
  0
LINE
  5
128
100
AcDbEntity
  8
0
  6
CONTINUOUS
 62
           7
100
AcDbLine
 10
-1007.624120140798
 20
-2820.778315623897
 11
-992.624120140797
 21
-2820.778315623897
  0
LINE
  5
127
100
AcDbEntity
  8
0
  6
CONTINUOUS
 62
           7
100
AcDbLine
 10
-973.124120140797
 20
-2820.778315623897
 11
-973.124120140797
 21
-2895.778315623897
  0
LINE
  5
126
100
AcDbEntity
  8
0
  6
CONTINUOUS
 62
           7
100
AcDbLine
 10
-1007.624120140798
 20
-2895.778315623897
 11
-992.624120140797
 21
-2895.778315623897
  0
LINE
  5
125
100
AcDbEntity
  8
0
  6
CONTINUOUS
 62
           7
100
AcDbLine
 10
-988.124120140797
 20
-2910.778315623897
 11
-988.124120140797
 21
-2985.778315623897
  0
LINE
  5
124
100
AcDbEntity
  8
0
  6
CONTINUOUS
 62
           7
100
AcDbLine
 10
-988.124120140797
 20
-2910.778315623897
 11
-973.124120140797
 21
-2910.778315623897
  0
LINE
  5
123
100
AcDbEntity
  8
0
  6
CONTINUOUS
 62
           7
100
AcDbLine
 10
-988.124120140797
 20
-2985.778315623897
 11
-973.124120140797
 21
-2985.778315623897
  0
LINE
  5
122
100
AcDbEntity
  8
0
  6
CONTINUOUS
 62
           7
100
AcDbLine
 10
-968.624120140797
 20
-2985.778315623897
 11
-953.624120140797
 21
-2985.778315623897
  0
LINE
  5
121
100
AcDbEntity
  8
0
  6
CONTINUOUS
 62
           7
100
AcDbLine
 10
-968.624120140797
 20
-2910.778315623897
 11
-953.624120140797
 21
-2910.778315623897
  0
LINE
  5
120
100
AcDbEntity
  8
0
  6
CONTINUOUS
 62
           7
100
AcDbLine
 10
-968.624120140797
 20
-2910.778315623897
 11
-968.624120140797
 21
-2985.778315623897
  0
LINE
  5
11F
100
AcDbEntity
  8
0
  6
CONTINUOUS
 62
           7
100
AcDbLine
 10
-953.624120140797
 20
-2910.778315623897
 11
-953.624120140797
 21
-2985.778315623897
  0
LINE
  5
11E
100
AcDbEntity
  8
0
  6
CONTINUOUS
 62
           7
100
AcDbLine
 10
-934.124120140797
 20
-2910.778315623897
 11
-934.124120140797
 21
-2985.778315623897
  0
LINE
  5
11D
100
AcDbEntity
  8
0
  6
CONTINUOUS
 62
           7
100
AcDbLine
 10
-949.124120140797
 20
-2910.778315623897
 11
-949.124120140797
 21
-2985.778315623897
  0
LINE
  5
11C
100
AcDbEntity
  8
0
  6
CONTINUOUS
 62
           7
100
AcDbLine
 10
-949.124120140797
 20
-2910.778315623897
 11
-934.124120140797
 21
-2910.778315623897
  0
LINE
  5
11B
100
AcDbEntity
  8
0
  6
CONTINUOUS
 62
           7
100
AcDbLine
 10
-949.124120140797
 20
-2985.778315623897
 11
-934.124120140797
 21
-2985.778315623897
  0
LINE
  5
11A
100
AcDbEntity
  8
0
  6
CONTINUOUS
 62
           7
100
AcDbLine
 10
-1007.624120140798
 20
-2910.778315623897
 11
-1007.624120140798
 21
-2985.778315623897
  0
LINE
  5
119
100
AcDbEntity
  8
0
  6
CONTINUOUS
 62
           7
100
AcDbLine
 10
-992.624120140797
 20
-2910.778315623897
 11
-992.624120140797
 21
-2985.778315623897
  0
LINE
  5
118
100
AcDbEntity
  8
0
  6
CONTINUOUS
 62
           7
100
AcDbLine
 10
-1007.624120140798
 20
-2910.778315623897
 11
-992.624120140797
 21
-2910.778315623897
  0
LINE
  5
117
100
AcDbEntity
  8
0
  6
CONTINUOUS
 62
           7
100
AcDbLine
 10
-973.124120140797
 20
-2910.778315623897
 11
-973.124120140797
 21
-2985.778315623897
  0
LINE
  5
116
100
AcDbEntity
  8
0
  6
CONTINUOUS
 62
           7
100
AcDbLine
 10
-1007.624120140798
 20
-2985.778315623897
 11
-992.624120140797
 21
-2985.778315623897
  0
LINE
  5
115
100
AcDbEntity
  8
0
  6
CONTINUOUS
 62
           7
100
AcDbLine
 10
-222.124120140797
 20
-3003.178315623899
 11
-87.124120140798
 21
-3003.178315623899
  0
LINE
  5
114
100
AcDbEntity
  8
0
  6
CONTINUOUS
 62
           7
100
AcDbLine
 10
-222.124120140797
 20
-2935.678315623899
 11
-87.124120140798
 21
-2935.678315623899
  0
LINE
  5
113
100
AcDbEntity
  8
0
  6
CONTINUOUS
 62
           7
100
AcDbLine
 10
-87.124120140798
 20
-2935.678315623899
 11
-87.124120140798
 21
-3003.178315623899
  0
LINE
  5
112
100
AcDbEntity
  8
0
  6
CONTINUOUS
 62
           7
100
AcDbLine
 10
-222.124120140797
 20
-2935.678315623899
 11
-222.124120140797
 21
-3003.178315623899
  0
LINE
  5
111
100
AcDbEntity
  8
0
  6
CONTINUOUS
 62
           7
100
AcDbLine
 10
-1364.524059741427
 20
-3013.678346320289
 11
-1402.611521606873
 21
-3013.678346320289
  0
LINE
  5
110
100
AcDbEntity
  8
0
  6
CONTINUOUS
 62
           7
100
AcDbLine
 10
-1366.68401754134
 20
-3022.678284927507
 11
-1402.611521606873
 21
-3022.678284927507
  0
LINE
  5
10F
100
AcDbEntity
  8
0
  6
CONTINUOUS
 62
           7
100
AcDbLine
 10
-1361.976960444242
 20
-3003.065540100799
 11
-1367.814503469464
 21
-3027.388611128157
  0
LINE
  5
10E
100
AcDbEntity
  8
0
  6
CONTINUOUS
 62
           7
100
AcDbLine
 10
-1354.684056375977
 20
-3004.815838869793
 11
-1360.521599401199
 21
-3029.138909897151
  0
LINE
  5
10D
100
AcDbEntity
  8
0
  6
CONTINUOUS
 62
           7
100
AcDbLine
 10
-1432.611520414778
 20
-3025.678315325875
 11
-1447.610680585373
 21
-3025.678315325875
  0
LINE
  5
10C
100
AcDbEntity
  8
0
  6
CONTINUOUS
 62
           7
100
AcDbLine
 10
-1303.724120140797
 20
-3022.678284927507
 11
-1358.971005152516
 21
-3022.678284927507
  0
LINE
  5
10B
100
AcDbEntity
  8
0
  6
CONTINUOUS
 62
           7
100
AcDbLine
 10
-1303.724120140797
 20
-3013.678346320289
 11
-1356.811047352603
 21
-3013.678346320289
  0
LINE
  5
10A
100
AcDbEntity
  8
0
  6
CONTINUOUS
 62
           7
100
AcDbLine
 10
-1410.11152130885
 20
-3003.178316219945
 11
-1432.611520414778
 21
-3003.178316219945
  0
LINE
  5
109
100
AcDbEntity
  8
0
  6
CONTINUOUS
 62
           7
100
AcDbLine
 10
-1432.611520414778
 20
-3003.178316219945
 11
-1432.611520414778
 21
-3033.178315027851
  0
LINE
  5
108
100
AcDbEntity
  8
0
  6
CONTINUOUS
 62
           7
100
AcDbLine
 10
-1410.11152130885
 20
-3033.178315027851
 11
-1432.611520414778
 21
-3033.178315027851
  0
LINE
  5
107
100
AcDbEntity
  8
0
  6
CONTINUOUS
 62
           7
100
AcDbLine
 10
-1402.611521606873
 20
-3010.678315921922
 11
-1402.611521606873
 21
-3025.678315325875
  0
LINE
  5
106
100
AcDbEntity
  8
0
  6
CONTINUOUS
 62
           7
100
AcDbLine
 10
-1432.611520414778
 20
-3010.678315921922
 11
-1448.244454363898
 21
-3010.678315921922
  0
LINE
  5
105
100
AcDbEntity
  8
0
  6
CONTINUOUS
 62
           7
100
AcDbLine
 10
-1301.924120140797
 20
-3040.678315623898
 11
-1301.924120140797
 21
-3038.278315623897
  0
LINE
  5
104
100
AcDbEntity
  8
0
  6
CONTINUOUS
 62
           7
100
AcDbLine
 10
-1265.924120140799
 20
-3070.678315623898
 11
-1295.924120140797
 21
-3070.678315623898
  0
LINE
  5
103
100
AcDbEntity
  8
0
  6
CONTINUOUS
 62
           7
100
AcDbLine
 10
-1265.924120140799
 20
-3070.678315623898
 11
-1263.674120140799
 21
-3040.678315623898
  0
LINE
  5
102
100
AcDbEntity
  8
0
  6
CONTINUOUS
 62
           7
100
AcDbLine
 10
-1298.174120140797
 20
-3040.678315623898
 11
-1295.924120140797
 21
-3070.678315623898
  0
LINE
  5
101
100
AcDbEntity
  8
0
  6
CONTINUOUS
 62
           3
100
AcDbLine
 10
-1280.924120140797
 20
-3040.678315623898
 11
-1280.924120140797
 21
-3070.678315623898
  0
LINE
  5
100
100
AcDbEntity
  8
1
  6
CONTINUOUS
 62
           2
100
AcDbLine
 10
1182.511048635867
 20
-3144.113806624868
 11
1172.911048635867
 21
-3144.113806624868
  0
LINE
  5
FF
100
AcDbEntity
  8
1
  6
CONTINUOUS
 62
           2
100
AcDbLine
 10
1172.911048635867
 20
-3144.113806624868
 11
1172.911048635867
 21
-3132.113806624868
  0
LINE
  5
FE
100
AcDbEntity
  8
1
  6
CONTINUOUS
 62
           2
100
AcDbLine
 10
1172.911048635867
 20
-3132.113806624868
 11
1184.311048635867
 21
-3132.113806624868
  0
LINE
  5
FD
100
AcDbEntity
  8
1
  6
CONTINUOUS
 62
           2
100
AcDbLine
 10
1184.311048635867
 20
-3132.113806624868
 11
1186.711048635867
 21
-3132.713806624868
  0
LINE
  5
FC
100
AcDbEntity
  8
1
  6
CONTINUOUS
 62
           2
100
AcDbLine
 10
1186.711048635867
 20
-3132.713806624868
 11
1188.511048635867
 21
-3133.913806624868
  0
LINE
  5
FB
100
AcDbEntity
  8
1
  6
CONTINUOUS
 62
           2
100
AcDbLine
 10
1188.511048635867
 20
-3133.913806624868
 11
1189.111048635867
 21
-3135.113806624868
  0
LINE
  5
FA
100
AcDbEntity
  8
1
  6
CONTINUOUS
 62
           2
100
AcDbLine
 10
1189.111048635867
 20
-3135.113806624868
 11
1189.711048635867
 21
-3136.913806624868
  0
LINE
  5
F9
100
AcDbEntity
  8
1
  6
CONTINUOUS
 62
           2
100
AcDbLine
 10
1189.711048635867
 20
-3136.913806624868
 11
1189.711048635867
 21
-3139.313806624868
  0
LINE
  5
F8
100
AcDbEntity
  8
1
  6
CONTINUOUS
 62
           2
100
AcDbLine
 10
1189.711048635867
 20
-3139.313806624868
 11
1189.111048635867
 21
-3141.113806624868
  0
LINE
  5
F7
100
AcDbEntity
  8
1
  6
CONTINUOUS
 62
           2
100
AcDbLine
 10
1189.111048635867
 20
-3141.113806624868
 11
1188.511048635867
 21
-3142.313806624868
  0
LINE
  5
F6
100
AcDbEntity
  8
1
  6
CONTINUOUS
 62
           2
100
AcDbLine
 10
1188.511048635867
 20
-3142.313806624868
 11
1186.711048635867
 21
-3143.513806624868
  0
LINE
  5
F5
100
AcDbEntity
  8
1
  6
CONTINUOUS
 62
           2
100
AcDbLine
 10
1186.711048635867
 20
-3143.513806624868
 11
1184.311048635867
 21
-3144.113806624868
  0
LINE
  5
F4
100
AcDbEntity
  8
1
  6
CONTINUOUS
 62
           2
100
AcDbLine
 10
1184.311048635867
 20
-3144.113806624868
 11
1182.511048635867
 21
-3144.113806624868
  0
LINE
  5
F3
100
AcDbEntity
  8
1
  6
CONTINUOUS
 62
           2
100
AcDbLine
 10
1182.511048635867
 20
-3144.113806624868
 11
1189.711048635867
 21
-3156.113806624868
  0
LINE
  5
F2
100
AcDbEntity
  8
1
  6
CONTINUOUS
 62
           2
100
AcDbLine
 10
1172.911048635867
 20
-3156.113806624868
 11
1172.911048635867
 21
-3144.113806624868
  0
LINE
  5
F1
100
AcDbEntity
  8
1
  6
CONTINUOUS
 62
           2
100
AcDbLine
 10
1213.711048635867
 20
-3139.313806624868
 11
1213.711048635867
 21
-3148.913806624868
  0
LINE
  5
F0
100
AcDbEntity
  8
1
  6
CONTINUOUS
 62
           2
100
AcDbLine
 10
1213.711048635867
 20
-3148.913806624868
 11
1213.111048635867
 21
-3151.313806624868
  0
LINE
  5
EF
100
AcDbEntity
  8
1
  6
CONTINUOUS
 62
           2
100
AcDbLine
 10
1213.111048635867
 20
-3151.313806624868
 11
1211.911048635867
 21
-3153.113806624868
  0
LINE
  5
EE
100
AcDbEntity
  8
1
  6
CONTINUOUS
 62
           2
100
AcDbLine
 10
1211.911048635867
 20
-3153.113806624868
 11
1210.711048635867
 21
-3154.313806624868
  0
LINE
  5
ED
100
AcDbEntity
  8
1
  6
CONTINUOUS
 62
           2
100
AcDbLine
 10
1210.711048635867
 20
-3154.313806624868
 11
1208.911048635867
 21
-3155.513806624868
  0
LINE
  5
EC
100
AcDbEntity
  8
1
  6
CONTINUOUS
 62
           2
100
AcDbLine
 10
1208.911048635867
 20
-3155.513806624868
 11
1206.511048635867
 21
-3156.113806624868
  0
LINE
  5
EB
100
AcDbEntity
  8
1
  6
CONTINUOUS
 62
           2
100
AcDbLine
 10
1206.511048635867
 20
-3156.113806624868
 11
1196.911048635867
 21
-3156.113806624868
  0
LINE
  5
EA
100
AcDbEntity
  8
1
  6
CONTINUOUS
 62
           2
100
AcDbLine
 10
1196.911048635867
 20
-3156.113806624868
 11
1196.911048635867
 21
-3132.113806624868
  0
LINE
  5
E9
100
AcDbEntity
  8
1
  6
CONTINUOUS
 62
           2
100
AcDbLine
 10
1196.911048635867
 20
-3132.113806624868
 11
1206.511048635867
 21
-3132.113806624868
  0
LINE
  5
E8
100
AcDbEntity
  8
1
  6
CONTINUOUS
 62
           2
100
AcDbLine
 10
1206.511048635867
 20
-3132.113806624868
 11
1208.911048635867
 21
-3132.713806624868
  0
LINE
  5
E7
100
AcDbEntity
  8
1
  6
CONTINUOUS
 62
           2
100
AcDbLine
 10
1208.911048635867
 20
-3132.713806624868
 11
1210.711048635867
 21
-3133.913806624868
  0
LINE
  5
E6
100
AcDbEntity
  8
1
  6
CONTINUOUS
 62
           2
100
AcDbLine
 10
1210.711048635867
 20
-3133.913806624868
 11
1211.911048635867
 21
-3135.113806624868
  0
LINE
  5
E5
100
AcDbEntity
  8
1
  6
CONTINUOUS
 62
           2
100
AcDbLine
 10
1211.911048635867
 20
-3135.113806624868
 11
1213.111048635867
 21
-3136.913806624868
  0
LINE
  5
E4
100
AcDbEntity
  8
1
  6
CONTINUOUS
 62
           2
100
AcDbLine
 10
1213.111048635867
 20
-3136.913806624868
 11
1213.711048635867
 21
-3139.313806624868
  0
LINE
  5
E3
100
AcDbEntity
  8
1
  6
CONTINUOUS
 62
           2
100
AcDbLine
 10
1237.711048635867
 20
-3132.113806624868
 11
1227.511048635867
 21
-3132.113806624868
  0
LINE
  5
E2
100
AcDbEntity
  8
1
  6
CONTINUOUS
 62
           2
100
AcDbLine
 10
1227.511048635867
 20
-3132.113806624868
 11
1225.111048635867
 21
-3132.713806624868
  0
LINE
  5
E1
100
AcDbEntity
  8
1
  6
CONTINUOUS
 62
           2
100
AcDbLine
 10
1225.111048635867
 20
-3132.713806624868
 11
1223.311048635867
 21
-3133.913806624868
  0
LINE
  5
E0
100
AcDbEntity
  8
1
  6
CONTINUOUS
 62
           2
100
AcDbLine
 10
1223.311048635867
 20
-3133.913806624868
 11
1222.111048635867
 21
-3135.113806624868
  0
LINE
  5
DF
100
AcDbEntity
  8
1
  6
CONTINUOUS
 62
           2
100
AcDbLine
 10
1222.111048635867
 20
-3135.113806624868
 11
1221.511048635867
 21
-3136.913806624868
  0
LINE
  5
DE
100
AcDbEntity
  8
1
  6
CONTINUOUS
 62
           2
100
AcDbLine
 10
1221.511048635867
 20
-3136.913806624868
 11
1220.911048635867
 21
-3139.313806624868
  0
LINE
  5
DD
100
AcDbEntity
  8
1
  6
CONTINUOUS
 62
           2
100
AcDbLine
 10
1220.911048635867
 20
-3139.313806624868
 11
1220.911048635867
 21
-3148.913806624868
  0
LINE
  5
DC
100
AcDbEntity
  8
1
  6
CONTINUOUS
 62
           2
100
AcDbLine
 10
1220.911048635867
 20
-3148.913806624868
 11
1221.511048635867
 21
-3151.313806624868
  0
LINE
  5
DB
100
AcDbEntity
  8
1
  6
CONTINUOUS
 62
           2
100
AcDbLine
 10
1221.511048635867
 20
-3151.313806624868
 11
1222.111048635867
 21
-3153.113806624868
  0
LINE
  5
DA
100
AcDbEntity
  8
1
  6
CONTINUOUS
 62
           2
100
AcDbLine
 10
1222.111048635867
 20
-3153.113806624868
 11
1223.311048635867
 21
-3154.313806624868
  0
LINE
  5
D9
100
AcDbEntity
  8
1
  6
CONTINUOUS
 62
           2
100
AcDbLine
 10
1223.311048635867
 20
-3154.313806624868
 11
1225.711048635867
 21
-3155.513806624868
  0
LINE
  5
D8
100
AcDbEntity
  8
1
  6
CONTINUOUS
 62
           2
100
AcDbLine
 10
1225.711048635867
 20
-3155.513806624868
 11
1227.511048635867
 21
-3156.113806624868
  0
LINE
  5
D7
100
AcDbEntity
  8
1
  6
CONTINUOUS
 62
           2
100
AcDbLine
 10
1227.511048635867
 20
-3156.113806624868
 11
1237.711048635867
 21
-3156.113806624868
  0
LINE
  5
D6
100
AcDbEntity
  8
1
  6
CONTINUOUS
 62
           2
100
AcDbLine
 10
1237.711048635867
 20
-3156.113806624868
 11
1237.711048635867
 21
-3142.913806624868
  0
LINE
  5
D5
100
AcDbEntity
  8
1
  6
CONTINUOUS
 62
           2
100
AcDbLine
 10
1237.711048635867
 20
-3142.913806624868
 11
1231.711048635867
 21
-3142.913806624868
  0
LINE
  5
D4
100
AcDbEntity
  8
1
  6
CONTINUOUS
 62
           2
100
AcDbLine
 10
1244.911048635867
 20
-3147.713806624868
 11
1256.911048635867
 21
-3147.713806624868
  0
LINE
  5
D3
100
AcDbEntity
  8
1
  6
CONTINUOUS
 62
           2
100
AcDbLine
 10
1264.111048635867
 20
-3135.713806624868
 11
1265.311048635867
 21
-3133.913806624868
  0
LINE
  5
D2
100
AcDbEntity
  8
1
  6
CONTINUOUS
 62
           2
100
AcDbLine
 10
1265.311048635867
 20
-3133.913806624868
 11
1267.111048635867
 21
-3132.713806624868
  0
LINE
  5
D1
100
AcDbEntity
  8
1
  6
CONTINUOUS
 62
           2
100
AcDbLine
 10
1267.111048635867
 20
-3132.713806624868
 11
1269.511048635867
 21
-3132.113806624868
  0
LINE
  5
D0
100
AcDbEntity
  8
1
  6
CONTINUOUS
 62
           2
100
AcDbLine
 10
1269.511048635867
 20
-3132.113806624868
 11
1273.111048635867
 21
-3132.113806624868
  0
LINE
  5
CF
100
AcDbEntity
  8
1
  6
CONTINUOUS
 62
           2
100
AcDbLine
 10
1273.111048635867
 20
-3132.113806624868
 11
1275.511048635867
 21
-3132.713806624868
  0
LINE
  5
CE
100
AcDbEntity
  8
1
  6
CONTINUOUS
 62
           2
100
AcDbLine
 10
1275.511048635867
 20
-3132.713806624868
 11
1277.311048635867
 21
-3133.913806624868
  0
LINE
  5
CD
100
AcDbEntity
  8
1
  6
CONTINUOUS
 62
           2
100
AcDbLine
 10
1277.311048635867
 20
-3133.913806624868
 11
1278.511048635867
 21
-3135.713806624868
  0
LINE
  5
CC
100
AcDbEntity
  8
1
  6
CONTINUOUS
 62
           2
100
AcDbLine
 10
1278.511048635867
 20
-3135.713806624868
 11
1278.511048635867
 21
-3138.113806624868
  0
LINE
  5
CB
100
AcDbEntity
  8
1
  6
CONTINUOUS
 62
           2
100
AcDbLine
 10
1278.511048635867
 20
-3138.113806624868
 11
1277.311048635867
 21
-3140.513806624868
  0
LINE
  5
CA
100
AcDbEntity
  8
1
  6
CONTINUOUS
 62
           2
100
AcDbLine
 10
1277.311048635867
 20
-3140.513806624868
 11
1264.111048635867
 21
-3156.113806624868
  0
LINE
  5
C9
100
AcDbEntity
  8
1
  6
CONTINUOUS
 62
           2
100
AcDbLine
 10
1264.111048635867
 20
-3156.113806624868
 11
1278.511048635867
 21
-3156.113806624868
  0
LINE
  5
C8
100
AcDbEntity
  8
1
  6
CONTINUOUS
 62
           2
100
AcDbLine
 10
1285.711048635867
 20
-3135.713806624868
 11
1286.911048635867
 21
-3133.913806624868
  0
LINE
  5
C7
100
AcDbEntity
  8
1
  6
CONTINUOUS
 62
           2
100
AcDbLine
 10
1286.911048635867
 20
-3133.913806624868
 11
1288.711048635867
 21
-3132.713806624868
  0
LINE
  5
C6
100
AcDbEntity
  8
1
  6
CONTINUOUS
 62
           2
100
AcDbLine
 10
1288.711048635867
 20
-3132.713806624868
 11
1291.111048635867
 21
-3132.113806624868
  0
LINE
  5
C5
100
AcDbEntity
  8
1
  6
CONTINUOUS
 62
           2
100
AcDbLine
 10
1291.111048635867
 20
-3132.113806624868
 11
1294.711048635867
 21
-3132.113806624868
  0
LINE
  5
C4
100
AcDbEntity
  8
1
  6
CONTINUOUS
 62
           2
100
AcDbLine
 10
1294.711048635867
 20
-3132.113806624868
 11
1297.111048635867
 21
-3132.713806624868
  0
LINE
  5
C3
100
AcDbEntity
  8
1
  6
CONTINUOUS
 62
           2
100
AcDbLine
 10
1297.111048635867
 20
-3132.713806624868
 11
1298.911048635867
 21
-3133.913806624868
  0
LINE
  5
C2
100
AcDbEntity
  8
1
  6
CONTINUOUS
 62
           2
100
AcDbLine
 10
1298.911048635867
 20
-3133.913806624868
 11
1300.111048635867
 21
-3135.713806624868
  0
LINE
  5
C1
100
AcDbEntity
  8
1
  6
CONTINUOUS
 62
           2
100
AcDbLine
 10
1300.111048635867
 20
-3135.713806624868
 11
1300.111048635867
 21
-3138.113806624868
  0
LINE
  5
C0
100
AcDbEntity
  8
1
  6
CONTINUOUS
 62
           2
100
AcDbLine
 10
1300.111048635867
 20
-3138.113806624868
 11
1298.911048635867
 21
-3140.513806624868
  0
LINE
  5
BF
100
AcDbEntity
  8
1
  6
CONTINUOUS
 62
           2
100
AcDbLine
 10
1298.911048635867
 20
-3140.513806624868
 11
1285.711048635867
 21
-3156.113806624868
  0
LINE
  5
BE
100
AcDbEntity
  8
1
  6
CONTINUOUS
 62
           2
100
AcDbLine
 10
1285.711048635867
 20
-3156.113806624868
 11
1300.111048635867
 21
-3156.113806624868
  0
LINE
  5
BD
100
AcDbEntity
  8
1
  6
CONTINUOUS
 62
           2
100
AcDbLine
 10
1321.711048635867
 20
-3156.113806624868
 11
1313.911048635867
 21
-3156.113806624868
  0
LINE
  5
BC
100
AcDbEntity
  8
1
  6
CONTINUOUS
 62
           2
100
AcDbLine
 10
1313.911048635867
 20
-3156.113806624868
 11
1311.511048635867
 21
-3155.513806624868
  0
LINE
  5
BB
100
AcDbEntity
  8
1
  6
CONTINUOUS
 62
           2
100
AcDbLine
 10
1311.511048635867
 20
-3155.513806624868
 11
1309.711048635867
 21
-3154.313806624868
  0
LINE
  5
BA
100
AcDbEntity
  8
1
  6
CONTINUOUS
 62
           2
100
AcDbLine
 10
1309.711048635867
 20
-3154.313806624868
 11
1308.511048635867
 21
-3153.113806624868
  0
LINE
  5
B9
100
AcDbEntity
  8
1
  6
CONTINUOUS
 62
           2
100
AcDbLine
 10
1308.511048635867
 20
-3153.113806624868
 11
1307.911048635867
 21
-3151.313806624868
  0
LINE
  5
B8
100
AcDbEntity
  8
1
  6
CONTINUOUS
 62
           2
100
AcDbLine
 10
1307.911048635867
 20
-3151.313806624868
 11
1307.311048635867
 21
-3148.913806624868
  0
LINE
  5
B7
100
AcDbEntity
  8
1
  6
CONTINUOUS
 62
           2
100
AcDbLine
 10
1307.311048635867
 20
-3148.913806624868
 11
1307.311048635867
 21
-3139.313806624868
  0
LINE
  5
B6
100
AcDbEntity
  8
1
  6
CONTINUOUS
 62
           2
100
AcDbLine
 10
1307.311048635867
 20
-3139.313806624868
 11
1307.911048635867
 21
-3136.913806624868
  0
LINE
  5
B5
100
AcDbEntity
  8
1
  6
CONTINUOUS
 62
           2
100
AcDbLine
 10
1307.911048635867
 20
-3136.913806624868
 11
1308.511048635867
 21
-3135.113806624868
  0
LINE
  5
B4
100
AcDbEntity
  8
1
  6
CONTINUOUS
 62
           2
100
AcDbLine
 10
1308.511048635867
 20
-3135.113806624868
 11
1309.711048635867
 21
-3133.913806624868
  0
LINE
  5
B3
100
AcDbEntity
  8
1
  6
CONTINUOUS
 62
           2
100
AcDbLine
 10
1309.711048635867
 20
-3133.913806624868
 11
1311.511048635867
 21
-3132.713806624868
  0
LINE
  5
B2
100
AcDbEntity
  8
1
  6
CONTINUOUS
 62
           2
100
AcDbLine
 10
1311.511048635867
 20
-3132.713806624868
 11
1313.911048635867
 21
-3132.113806624868
  0
LINE
  5
B1
100
AcDbEntity
  8
1
  6
CONTINUOUS
 62
           2
100
AcDbLine
 10
1313.911048635867
 20
-3132.113806624868
 11
1321.711048635867
 21
-3132.113806624868
  0
LINE
  5
B0
100
AcDbEntity
  8
0
  6
CONTINUOUS
 62
           3
100
AcDbLine
 10
361.589877777863
 20
-3025.97363061253
 11
364.294548222102
 21
-3028.678301056768
  0
LINE
  5
AF
100
AcDbEntity
  8
0
  6
CONTINUOUS
 62
           3
100
AcDbLine
 10
361.589863095321
 20
-3031.382988275333
 11
364.294549723948
 21
-3028.678301646705
  0
LINE
  5
AE
100
AcDbEntity
  8
0
  6
CONTINUOUS
 62
           3
100
AcDbLine
 10
366.999220168187
 20
-3025.973631202467
 11
364.294549723948
 21
-3028.678301646705
  0
LINE
  5
AD
100
AcDbEntity
  8
0
  6
CONTINUOUS
 62
           3
100
AcDbLine
 10
366.999234850729
 20
-3031.382987685396
 11
364.294548222102
 21
-3028.678301056768
  0
LINE
  5
AC
100
AcDbEntity
  8
0
  6
CONTINUOUS
 62
           6
100
AcDbLine
 10
263.49455171263
 20
-3040.678315623897
 11
265.294551712629
 21
-3040.678315623897
  0
LINE
  5
AB
100
AcDbEntity
  8
0
  6
CONTINUOUS
 62
         206
100
AcDbLine
 10
265.294551712629
 20
-3040.678315623897
 11
265.294551712629
 21
-3018.178315623897
  0
LINE
  5
AA
100
AcDbEntity
  8
0
  6
CONTINUOUS
 62
         206
100
AcDbLine
 10
280.294551712629
 20
-3018.178315623897
 11
280.294551712624
 21
-2288.878315623897
  0
LINE
  5
A9
100
AcDbEntity
  8
0
  6
CONTINUOUS
 62
         206
100
AcDbLine
 10
250.294551712624
 20
-2288.878315623897
 11
280.294551712624
 21
-2288.878315623897
  0
LINE
  5
A8
100
AcDbEntity
  8
0
  6
CONTINUOUS
 62
         206
100
AcDbLine
 10
250.294551712629
 20
-3018.178315623897
 11
250.294551712624
 21
-2288.878315623897
  0
LINE
  5
A7
100
AcDbEntity
  8
0
  6
CONTINUOUS
 62
         206
100
AcDbLine
 10
250.294551712629
 20
-3018.178315623897
 11
280.294551712629
 21
-3018.178315623897
  0
LINE
  5
A6
100
AcDbEntity
  8
0
  6
CONTINUOUS
 62
         206
100
AcDbLine
 10
263.49455171263
 20
-3040.678315623897
 11
263.494551712629
 21
-3018.178315623897
  0
LINE
  5
A5
100
AcDbEntity
  8
0
  6
CONTINUOUS
 62
           7
100
AcDbLine
 10
-718.724120140793
 20
-1493.878315623899
 11
-1303.724120140793
 21
-1493.878315623899
  0
LINE
  5
A4
100
AcDbEntity
  8
0
  6
CONTINUOUS
 62
           7
100
AcDbLine
 10
-720.224120140793
 20
-1516.378315623899
 11
-1303.724120140793
 21
-1516.378315623899
  0
LINE
  5
A3
100
AcDbEntity
  8
0
  6
CONTINUOUS
 62
           7
100
AcDbLine
 10
-720.224120140793
 20
-1493.878315623899
 11
-720.224120140793
 21
-1516.378315623899
  0
LINE
  5
A2
100
AcDbEntity
  8
0
  6
CONTINUOUS
 62
           7
100
AcDbLine
 10
-1303.724120140793
 20
-1493.878315623899
 11
-1303.724120140793
 21
-1516.378315623899
  0
LINE
  5
A1
100
AcDbEntity
  8
0
  6
CONTINUOUS
 62
           7
100
AcDbLine
 10
-1150.424120140797
 20
-1777.663321175344
 11
-1162.124120140797
 21
-1797.9283156239
  0
LINE
  5
A0
100
AcDbEntity
  8
0
  6
CONTINUOUS
 62
           7
100
AcDbLine
 10
-1162.124120140797
 20
-1797.9283156239
 11
-1150.4241201408
 21
-1818.193310072454
  0
LINE
  5
9F
100
AcDbEntity
  8
0
  6
CONTINUOUS
 62
           7
100
AcDbLine
 10
-1127.0241201408
 20
-1777.663321175343
 11
-1150.424120140797
 21
-1777.663321175344
  0
LINE
  5
9E
100
AcDbEntity
  8
0
  6
CONTINUOUS
 62
           7
100
AcDbLine
 10
-1115.324120140797
 20
-1797.928315623898
 11
-1127.0241201408
 21
-1777.663321175343
  0
LINE
  5
9D
100
AcDbEntity
  8
0
  6
CONTINUOUS
 62
           7
100
AcDbLine
 10
-1150.4241201408
 20
-1818.193310072454
 11
-1127.0241201408
 21
-1818.193310072457
  0
LINE
  5
9C
100
AcDbEntity
  8
0
  6
CONTINUOUS
 62
           7
100
AcDbLine
 10
-1127.0241201408
 20
-1818.193310072457
 11
-1115.324120140797
 21
-1797.928315623898
  0
LINE
  5
9B
100
AcDbEntity
  8
0
  6
CONTINUOUS
 62
           3
100
AcDbLine
 10
-1138.724120140799
 20
-1763.340006944238
 11
-1138.724120140799
 21
-1833.015509025853
  0
LINE
  5
9A
100
AcDbEntity
  8
0
  6
CONTINUOUS
 62
         206
100
AcDbLine
 10
-76.924120140799
 20
-3018.178315623899
 11
-76.924120140799
 21
-3040.678315623899
  0
LINE
  5
99
100
AcDbEntity
  8
0
  6
CONTINUOUS
 62
         206
100
AcDbLine
 10
-433.324120140799
 20
-3018.178315623899
 11
-433.324120140799
 21
-3040.678315623899
  0
LINE
  5
98
100
AcDbEntity
  8
0
  6
CONTINUOUS
 62
           1
100
AcDbLine
 10
-415.774120140799
 20
-2352.928315623899
 11
-415.774120140799
 21
-2510.428315623899
  0
LINE
  5
97
100
AcDbEntity
  8
0
  6
CONTINUOUS
 62
           1
100
AcDbLine
 10
-265.774120140799
 20
-2352.928315623899
 11
-265.774120140799
 21
-2510.428315623899
  0
LINE
  5
96
100
AcDbEntity
  8
0
  6
CONTINUOUS
 62
         206
100
AcDbLine
 10
-438.124120140799
 20
-2288.878315623899
 11
-438.124120140799
 21
-3018.178315623899
  0
LINE
  5
95
100
AcDbEntity
  8
0
  6
CONTINUOUS
 62
         206
100
AcDbLine
 10
-72.124120140799
 20
-2288.878315623899
 11
-72.124120140799
 21
-3018.178315623899
  0
LINE
  5
94
100
AcDbEntity
  8
0
  6
CONTINUOUS
 62
         206
100
AcDbLine
 10
-438.124120140799
 20
-2288.878315623899
 11
-72.124120140799
 21
-2288.878315623899
  0
LINE
  5
93
100
AcDbEntity
  8
0
  6
CONTINUOUS
 62
         206
100
AcDbLine
 10
-433.324120140799
 20
-3040.678315623899
 11
-76.924120140799
 21
-3040.678315623899
  0
LINE
  5
92
100
AcDbEntity
  8
0
  6
CONTINUOUS
 62
         206
100
AcDbLine
 10
-438.124120140799
 20
-3018.178315623899
 11
-72.124120140799
 21
-3018.178315623899
  0
LINE
  5
91
100
AcDbEntity
  8
0
  6
CONTINUOUS
 62
         204
100
AcDbLine
 10
-258.274120140799
 20
-2352.928315623899
 11
-258.274120140799
 21
-2510.428315623899
  0
LINE
  5
90
100
AcDbEntity
  8
0
  6
CONTINUOUS
 62
         204
100
AcDbLine
 10
-423.274120140799
 20
-2352.928315623899
 11
-423.274120140799
 21
-2510.428315623899
  0
LINE
  5
8F
100
AcDbEntity
  8
0
  6
CONTINUOUS
 62
         204
100
AcDbLine
 10
-385.774120140798
 20
-2547.928315623899
 11
-295.774120140799
 21
-2547.928315623899
  0
LINE
  5
8E
100
AcDbEntity
  8
0
  6
CONTINUOUS
 62
           1
100
AcDbLine
 10
-385.774120140798
 20
-2540.428315623899
 11
-295.774120140799
 21
-2540.428315623899
  0
LINE
  5
8D
100
AcDbEntity
  8
0
  6
CONTINUOUS
 62
           1
100
AcDbLine
 10
-385.774120140798
 20
-2322.928315623899
 11
-295.774120140798
 21
-2322.928315623899
  0
LINE
  5
8C
100
AcDbEntity
  8
0
  6
CONTINUOUS
 62
         204
100
AcDbLine
 10
-385.774120140797
 20
-2315.428315623899
 11
-295.774120140798
 21
-2315.428315623899
  0
LINE
  5
8B
100
AcDbEntity
  8
0
  6
CONTINUOUS
 62
           3
100
AcDbLine
 10
-844.724120140797
 20
-1797.928315623899
 11
-772.724120140797
 21
-1797.928315623899
  0
LINE
  5
8A
100
AcDbEntity
  8
0
  6
CONTINUOUS
 62
           7
100
AcDbLine
 10
-1303.724120140797
 20
-1518.178315623899
 11
-1303.724120140797
 21
-1829.578315623898
  0
LINE
  5
89
100
AcDbEntity
  8
0
  6
CONTINUOUS
 62
           3
100
AcDbLine
 10
-1174.724120140797
 20
-1797.928315623899
 11
-1102.724120140797
 21
-1797.928315623899
  0
LINE
  5
88
100
AcDbEntity
  8
0
  6
CONTINUOUS
 62
         206
100
AcDbLine
 10
-688.7241201408
 20
-1490.878315623899
 11
-688.7241201408
 21
-1856.878315623899
  0
LINE
  5
87
100
AcDbEntity
  8
0
  6
CONTINUOUS
 62
         206
100
AcDbLine
 10
-718.7241201408
 20
-1856.878315623899
 11
-688.7241201408
 21
-1856.878315623899
  0
LINE
  5
86
100
AcDbEntity
  8
0
  6
CONTINUOUS
 62
         206
100
AcDbLine
 10
-718.724120140799
 20
-1490.878315623899
 11
-718.7241201408
 21
-1856.878315623899
  0
LINE
  5
85
100
AcDbEntity
  8
0
  6
CONTINUOUS
 62
         206
100
AcDbLine
 10
-718.724120140799
 20
-1490.878315623899
 11
-688.7241201408
 21
-1490.878315623899
  0
LINE
  5
84
100
AcDbEntity
  8
0
  6
CONTINUOUS
 62
           7
100
AcDbLine
 10
-718.724120140798
 20
-3038.278315623899
 11
-1303.724120140797
 21
-3038.278315623899
  0
LINE
  5
83
100
AcDbEntity
  8
0
  6
CONTINUOUS
 62
           7
100
AcDbLine
 10
-1303.724120140797
 20
-2288.878315623898
 11
-1303.724120140797
 21
-3038.278315623899
  0
LINE
  5
82
100
AcDbEntity
  8
0
  6
CONTINUOUS
 62
           7
100
AcDbLine
 10
-1303.724120140797
 20
-2288.878315623898
 11
-720.224120140797
 21
-2288.878315623899
  0
LINE
  5
81
100
AcDbEntity
  8
0
  6
CONTINUOUS
 62
           7
100
AcDbLine
 10
-367.290624435295
 20
-2492.244819918395
 11
-331.899965890375
 21
-2450.067875453212
  0
LINE
  5
80
100
AcDbEntity
  8
0
  6
CONTINUOUS
 62
           7
100
AcDbLine
 10
-367.290624435295
 20
-2492.244819918395
 11
-325.113679970112
 21
-2456.854161373475
  0
LINE
  5
7F
100
AcDbEntity
  8
0
  6
CONTINUOUS
 62
           3
100
AcDbLine
 10
-294.281546338631
 20
-2492.570815623899
 11
-306.726331391014
 21
-2485.385815623899
  0
LINE
  5
7E
100
AcDbEntity
  8
0
  6
CONTINUOUS
 62
           3
100
AcDbLine
 10
-387.266693942967
 20
-2492.570815623899
 11
-374.821908890584
 21
-2485.385815623899
  0
LINE
  5
7D
100
AcDbEntity
  8
0
  6
CONTINUOUS
 62
           3
100
AcDbLine
 10
-340.774120140799
 20
-2412.043315623899
 11
-340.774120140799
 21
-2426.413315623899
  0
LINE
  5
7C
100
AcDbEntity
  8
0
  6
CONTINUOUS
 62
           3
100
AcDbLine
 10
-340.774120140799
 20
-2424.418315623899
 11
-340.774120140799
 21
-2507.038315623899
  0
LINE
  5
7B
100
AcDbEntity
  8
0
  6
CONTINUOUS
 62
           3
100
AcDbLine
 10
-299.464120140799
 20
-2465.728315623899
 11
-382.084120140799
 21
-2465.728315623899
  0
LINE
  5
7A
100
AcDbEntity
  8
0
  6
CONTINUOUS
 62
           7
100
AcDbLine
 10
-240.874167147959
 20
-2359.458267733273
 11
-220.570496900563
 21
-2359.458267733273
  0
LINE
  5
79
100
AcDbEntity
  8
0
  6
CONTINUOUS
 62
           7
100
AcDbLine
 10
-199.876669589365
 20
-2337.806359367387
 11
-202.374191562021
 21
-2321.912755851763
  0
LINE
  5
78
100
AcDbEntity
  8
0
  6
CONTINUOUS
 62
           7
100
AcDbLine
 10
-220.570496900563
 20
-2359.458267733273
 11
-205.869068677907
 21
-2338.24974315645
  0
LINE
  5
77
100
AcDbEntity
  8
0
  6
CONTINUOUS
 62
           7
100
AcDbLine
 10
-87.124120140798
 20
-2318.878315623898
 11
-87.124120140797
 21
-2415.627966123898
  0
LINE
  5
76
100
AcDbEntity
  8
0
  6
CONTINUOUS
 62
           7
100
AcDbLine
 10
-243.873983640797
 20
-2318.878315623898
 11
-87.124120140798
 21
-2318.878315623898
  0
LINE
  5
75
100
AcDbEntity
  8
0
  6
CONTINUOUS
 62
           7
100
AcDbLine
 10
-243.873983640797
 20
-2415.627966123898
 11
-243.873983640797
 21
-2318.878315623898
  0
LINE
  5
74
100
AcDbEntity
  8
0
  6
CONTINUOUS
 62
           7
100
AcDbLine
 10
-87.124120140797
 20
-2415.627966123898
 11
-243.873983640797
 21
-2415.627966123898
  0
LINE
  5
73
100
AcDbEntity
  8
0
  6
CONTINUOUS
 62
           7
100
AcDbLine
 10
-199.461191640797
 20
-2321.968050123898
 11
-199.461191640797
 21
-2359.458267123898
  0
LINE
  5
72
100
AcDbEntity
  8
0
  6
CONTINUOUS
 62
           7
100
AcDbLine
 10
-182.374895640797
 20
-2321.968050123898
 11
-199.461191640797
 21
-2321.968050123898
  0
LINE
  5
71
100
AcDbEntity
  8
0
  6
CONTINUOUS
 62
           7
100
AcDbLine
 10
-182.374895640797
 20
-2359.458267123898
 11
-182.374895640797
 21
-2321.968050123898
  0
LINE
  5
70
100
AcDbEntity
  8
0
  6
CONTINUOUS
 62
           7
100
AcDbLine
 10
-199.461191640797
 20
-2359.458267123898
 11
-182.374895640797
 21
-2359.458267123898
  0
LINE
  5
6F
100
AcDbEntity
  8
0
  6
CONTINUOUS
 62
           3
100
AcDbLine
 10
-808.724120140799
 20
-1763.340006944238
 11
-808.724120140799
 21
-1833.015509025853
  0
LINE
  5
6E
100
AcDbEntity
  8
0
  6
CONTINUOUS
 62
           7
100
AcDbLine
 10
-797.024120140799
 20
-1818.193310072457
 11
-785.324120140797
 21
-1797.928315623898
  0
LINE
  5
6D
100
AcDbEntity
  8
0
  6
CONTINUOUS
 62
           7
100
AcDbLine
 10
-820.424120140799
 20
-1818.193310072454
 11
-797.024120140799
 21
-1818.193310072457
  0
LINE
  5
6C
100
AcDbEntity
  8
0
  6
CONTINUOUS
 62
           7
100
AcDbLine
 10
-785.324120140797
 20
-1797.928315623898
 11
-797.024120140799
 21
-1777.663321175343
  0
LINE
  5
6B
100
AcDbEntity
  8
0
  6
CONTINUOUS
 62
           7
100
AcDbLine
 10
-797.024120140799
 20
-1777.663321175343
 11
-820.424120140797
 21
-1777.663321175344
  0
LINE
  5
6A
100
AcDbEntity
  8
0
  6
CONTINUOUS
 62
           7
100
AcDbLine
 10
-832.124120140796
 20
-1797.9283156239
 11
-820.424120140799
 21
-1818.193310072454
  0
LINE
  5
69
100
AcDbEntity
  8
0
  6
CONTINUOUS
 62
           7
100
AcDbLine
 10
-820.424120140797
 20
-1777.663321175344
 11
-832.124120140796
 21
-1797.9283156239
  0
LINE
  5
68
100
AcDbEntity
  8
0
  6
CONTINUOUS
 62
           7
100
AcDbLine
 10
-1303.724120140793
 20
-1831.378315623899
 11
-1303.724120140793
 21
-1853.878315623899
  0
LINE
  5
67
100
AcDbEntity
  8
0
  6
CONTINUOUS
 62
           7
100
AcDbLine
 10
-720.224120140793
 20
-1831.378315623899
 11
-720.224120140793
 21
-1853.878315623899
  0
LINE
  5
66
100
AcDbEntity
  8
0
  6
CONTINUOUS
 62
           7
100
AcDbLine
 10
-1303.724120140793
 20
-1831.378315623899
 11
-720.224120140793
 21
-1831.378315623899
  0
LINE
  5
65
100
AcDbEntity
  8
0
  6
CONTINUOUS
 62
           7
100
AcDbLine
 10
-1303.724120140793
 20
-1853.878315623899
 11
-718.724120140793
 21
-1853.878315623899
  0
LINE
  5
64
100
AcDbEntity
  8
0
  6
CONTINUOUS
 62
         206
100
AcDbLine
 10
-701.924120140797
 20
-3018.178315623899
 11
-701.924120140797
 21
-3040.678315623899
  0
LINE
  5
63
100
AcDbEntity
  8
0
  6
CONTINUOUS
 62
         206
100
AcDbLine
 10
-718.724120140797
 20
-3018.178315623899
 11
-688.724120140797
 21
-3018.178315623899
  0
LINE
  5
62
100
AcDbEntity
  8
0
  6
CONTINUOUS
 62
         206
100
AcDbLine
 10
-688.724120140797
 20
-2288.878315623898
 11
-688.724120140797
 21
-3018.178315623899
  0
LINE
  5
61
100
AcDbEntity
  8
0
  6
CONTINUOUS
 62
         206
100
AcDbLine
 10
-718.724120140797
 20
-2288.878315623899
 11
-688.724120140797
 21
-2288.878315623898
  0
LINE
  5
60
100
AcDbEntity
  8
0
  6
CONTINUOUS
 62
         206
100
AcDbLine
 10
-718.724120140797
 20
-2288.878315623899
 11
-718.724120140797
 21
-3018.178315623899
  0
LINE
  5
5F
100
AcDbEntity
  8
0
  6
CONTINUOUS
 62
         206
100
AcDbLine
 10
-703.724120140797
 20
-3018.178315623899
 11
-703.724120140797
 21
-3040.678315623898
  0
LINE
  5
5E
100
AcDbEntity
  8
0
  6
CONTINUOUS
 62
           6
100
AcDbLine
 10
-703.724120140797
 20
-3040.678315623898
 11
-701.924120140797
 21
-3040.678315623899
  0
LINE
  5
5D
100
AcDbEntity
  8
0
  6
CONTINUOUS
 62
           3
100
AcDbLine
 10
-802.724116650271
 20
-3028.67830105677
 11
-800.019446206033
 21
-3025.973630612532
  0
LINE
  5
5C
100
AcDbEntity
  8
0
  6
CONTINUOUS
 62
           3
100
AcDbLine
 10
-802.724118152118
 20
-3028.678301646707
 11
-800.01943152349
 21
-3031.382988275335
  0
LINE
  5
5B
100
AcDbEntity
  8
0
  6
CONTINUOUS
 62
           3
100
AcDbLine
 10
-802.724118152118
 20
-3028.678301646707
 11
-805.428788596356
 21
-3025.973631202469
  0
LINE
  5
5A
100
AcDbEntity
  8
0
  6
CONTINUOUS
 62
           3
100
AcDbLine
 10
-802.724116650271
 20
-3028.67830105677
 11
-805.428803278899
 21
-3031.382987685398
  0
LINE
  5
59
100
AcDbEntity
  8
0
  6
CONTINUOUS
 62
           3
100
AcDbLine
 10
-255.124116650271
 20
-3028.67830105677
 11
-252.419446206033
 21
-3025.973630612532
  0
LINE
  5
58
100
AcDbEntity
  8
0
  6
CONTINUOUS
 62
           3
100
AcDbLine
 10
-255.124118152118
 20
-3028.678301646707
 11
-252.41943152349
 21
-3031.382988275335
  0
LINE
  5
57
100
AcDbEntity
  8
0
  6
CONTINUOUS
 62
           3
100
AcDbLine
 10
-255.124118152118
 20
-3028.678301646707
 11
-257.828788596356
 21
-3025.973631202469
  0
LINE
  5
56
100
AcDbEntity
  8
0
  6
CONTINUOUS
 62
           3
100
AcDbLine
 10
-255.124116650271
 20
-3028.67830105677
 11
-257.828803278899
 21
-3031.382987685398
  0
LINE
  5
55
100
AcDbEntity
  8
0
  6
CONTINUOUS
 62
           3
100
AcDbLine
 10
-1102.724116650271
 20
-3028.67830105677
 11
-1105.428803278899
 21
-3031.382987685398
  0
LINE
  5
54
100
AcDbEntity
  8
0
  6
CONTINUOUS
 62
           3
100
AcDbLine
 10
-1102.724118152118
 20
-3028.678301646707
 11
-1105.428788596356
 21
-3025.973631202469
  0
LINE
  5
53
100
AcDbEntity
  8
0
  6
CONTINUOUS
 62
           3
100
AcDbLine
 10
-1102.724118152118
 20
-3028.678301646707
 11
-1100.01943152349
 21
-3031.382988275335
  0
LINE
  5
52
100
AcDbEntity
  8
0
  6
CONTINUOUS
 62
           3
100
AcDbLine
 10
-1102.724116650271
 20
-3028.67830105677
 11
-1100.019446206033
 21
-3025.973630612532
  0
POINT
  5
51
100
AcDbEntity
  8
0
 62
           7
100
AcDbPoint
 10
-1138.724120140797
 20
-2254.9783156239
  0
POINT
  5
50
100
AcDbEntity
  8
0
 62
           7
100
AcDbPoint
 10
-808.724120140799
 20
-2254.9783156239
  0
POINT
  5
4F
100
AcDbEntity
  8
0
 62
           7
100
AcDbPoint
 10
-688.724120140797
 20
-2288.878315623898
  0
POINT
  5
4E
100
AcDbEntity
  8
0
 62
           7
100
AcDbPoint
 10
-808.724120140799
 20
-2254.9783156239
  0
POINT
  5
4D
100
AcDbEntity
  8
0
 62
           7
100
AcDbPoint
 10
-1303.724120140797
 20
-2288.878315623898
  0
POINT
  5
4C
100
AcDbEntity
  8
0
 62
           7
100
AcDbPoint
 10
-1138.724120140797
 20
-2254.9783156239
  0
POINT
  5
4B
100
AcDbEntity
  8
0
 62
           7
100
AcDbPoint
 10
-379.174120140798
 20
-2245.716874420702
  0
POINT
  5
4A
100
AcDbEntity
  8
0
 62
           7
100
AcDbPoint
 10
-72.124120140798
 20
-2288.878315623898
  0
POINT
  5
49
100
AcDbEntity
  8
0
 62
           7
100
AcDbPoint
 10
-379.174120140798
 20
-2245.716874420702
  0
POINT
  5
48
100
AcDbEntity
  8
0
 62
           7
100
AcDbPoint
 10
-427.324120140798
 20
-3070.678315623899
  0
POINT
  5
47
100
AcDbEntity
  8
0
 62
           7
100
AcDbPoint
 10
-433.324120140799
 20
-3040.678315623899
  0
POINT
  5
46
100
AcDbEntity
  8
0
 62
           7
100
AcDbPoint
 10
-433.324120140799
 20
-3040.678315623899
  0
POINT
  5
45
100
AcDbEntity
  8
0
 62
           7
100
AcDbPoint
 10
-395.524120140796
 20
-2254.9783156239
  0
POINT
  5
44
100
AcDbEntity
  8
0
 62
           7
100
AcDbPoint
 10
-427.324120140798
 20
-3070.678315623899
  0
POINT
  5
43
100
AcDbEntity
  8
0
 62
           7
100
AcDbPoint
 10
-395.524120140796
 20
-2254.9783156239
  0
POINT
  5
42
100
AcDbEntity
  8
0
 62
           7
100
AcDbPoint
 10
-72.124120140798
 20
-2288.878315623898
  0
POINT
  5
41
100
AcDbEntity
  8
0
 62
           7
100
AcDbPoint
 10
-87.124120140798
 20
-2318.878315623898
  0
POINT
  5
40
100
AcDbEntity
  8
0
 62
           7
100
AcDbPoint
 10
-72.124120140798
 20
-2288.878315623898
  0
POINT
  5
3F
100
AcDbEntity
  8
0
 62
           7
100
AcDbPoint
 10
-87.124120140798
 20
-2318.878315623898
  0
POINT
  5
3E
100
AcDbEntity
  8
0
 62
           7
100
AcDbPoint
 10
-72.124120140798
 20
-2288.878315623898
  0
POINT
  5
3D
100
AcDbEntity
  8
0
 62
           7
100
AcDbPoint
 10
300.694551712628
 20
-2678.278315623897
  0
POINT
  5
3C
100
AcDbEntity
  8
0
 62
           7
100
AcDbPoint
 10
495.694551712628
 20
-2678.278315623897
  0
POINT
  5
3B
100
AcDbEntity
  8
0
 62
           7
100
AcDbPoint
 10
495.694551712628
 20
-2678.278315623897
  0
POINT
  5
3A
100
AcDbEntity
  8
0
 62
           7
100
AcDbPoint
 10
495.694551712628
 20
-2985.778315623897
  0
POINT
  5
39
100
AcDbEntity
  8
0
 62
           6
100
AcDbPoint
 10
-1138.724120140799
 20
-1797.928315623899
  0
POINT
  5
38
100
AcDbEntity
  8
0
 62
           6
100
AcDbPoint
 10
-1138.724120140799
 20
-1797.928315623899
  0
POINT
  5
37
100
AcDbEntity
  8
0
 62
           6
100
AcDbPoint
 10
-1138.724120140799
 20
-1797.928315623899
  0
POINT
  5
36
100
AcDbEntity
  8
0
 62
           6
100
AcDbPoint
 10
-1138.724120140799
 20
-1797.928315623899
  0
POINT
  5
35
100
AcDbEntity
  8
0
 62
           6
100
AcDbPoint
 10
-438.124120140799
 20
-2288.878315623899
  0
POINT
  5
34
100
AcDbEntity
  8
0
 62
           6
100
AcDbPoint
 10
-438.124120140799
 20
-2288.878315623899
  0
POINT
  5
33
100
AcDbEntity
  8
0
 62
           6
100
AcDbPoint
 10
-438.124120140799
 20
-2290.678315623899
  0
POINT
  5
32
100
AcDbEntity
  8
0
 62
           6
100
AcDbPoint
 10
-438.124120140799
 20
-2288.878315623899
  0
POINT
  5
31
100
AcDbEntity
  8
0
 62
           6
100
AcDbPoint
 10
-438.124120140799
 20
-2288.878315623899
  0
POINT
  5
30
100
AcDbEntity
  8
0
 62
           6
100
AcDbPoint
 10
-438.124120140799
 20
-2290.678315623899
  0
POINT
  5
2F
100
AcDbEntity
  8
0
 62
           7
100
AcDbPoint
 10
-340.774120140799
 20
-2465.728315623899
  0
POINT
  5
2E
100
AcDbEntity
  8
0
 62
           7
100
AcDbPoint
 10
-303.274120140799
 20
-2465.728315623899
  0
POINT
  5
2D
100
AcDbEntity
  8
0
 62
           7
100
AcDbPoint
 10
-378.274120140797
 20
-2465.728303404848
  0
POINT
  5
2C
100
AcDbEntity
  8
0
 62
           6
100
AcDbPoint
 10
-87.124120140798
 20
-2318.878315623898
  0
POINT
  5
2B
100
AcDbEntity
  8
0
 62
           6
100
AcDbPoint
 10
-808.724120140799
 20
-1797.928315623899
  0
POINT
  5
2A
100
AcDbEntity
  8
0
 62
           6
100
AcDbPoint
 10
-808.724120140799
 20
-1797.928315623899
  0
POINT
  5
29
100
AcDbEntity
  8
0
 62
           6
100
AcDbPoint
 10
-808.724120140799
 20
-1797.928315623899
  0
POINT
  5
28
100
AcDbEntity
  8
0
 62
           6
100
AcDbPoint
 10
-808.724120140799
 20
-1797.928315623899
  0
ENDSEC
  0
SECTION
  2
OBJECTS
  0
DICTIONARY
  5
19
100
AcDbDictionary
  3
ACAD_GROUP
350
1A
  3
ACAD_MLINESTYLE
350
1B
  0
DICTIONARY
  5
1A
102
{ACAD_REACTORS
330
19
102
}
100
AcDbDictionary
  0
DICTIONARY
  5
1B
102
{ACAD_REACTORS
330
19
102
}
100
AcDbDictionary
  3
STANDARD
350
1C
  0
MLINESTYLE
  5
1C
102
{ACAD_REACTORS
330
1B
102
}
100
AcDbMlineStyle
  2
STANDARD
 70
           0
  3

 62
           0
 51
90.0
 52
90.0
 71
           2
 49
0.5
 62
         256
  6
BYLAYER
 49
-0.5
 62
         256
  6
BYLAYER
  0
ENDSEC
  0
EOF
