  0
SECTION
  2
HEADER
  9
$ACADVER
  1
AC1014
  9
$ACADMAINTVER
 70
           0
  9
$DWGCODEPAGE
  3
DOS932
  9
$INSBASE
 10
0.0
 20
0.0
 30
0.0
  9
$EXTMIN
 10
1.000000000000E+20
 20
1.000000000000E+20
 30
1.000000000000E+20
  9
$EXTMAX
 10
-1.000000000000E+20
 20
-1.000000000000E+20
 30
-1.000000000000E+20
  9
$LIMMIN
 10
0.0
 20
0.0
  9
$LIMMAX
 10
0.0
 20
0.0
  9
$ORTHOMODE
 70
           0
  9
$REGENMODE
 70
           1
  9
$FILLMODE
 70
           1
  9
$QTEXTMODE
 70
           0
  9
$MIRRTEXT
 70
           1
  9
$DRAGMODE
 70
           2
  9
$LTSCALE
 40
1.0
  9
$OSMODE
 70
           0
  9
$ATTMODE
 70
           1
  9
$TEXTSIZE
 40
0.2
  9
$TRACEWID
 40
0.05
  9
$TEXTSTYLE
  7
STANDARD
  9
$CLAYER
  8
0
  9
$CELTYPE
  6
CONTINUOUS
  9
$CECOLOR
 62
         256
  9
$CELTSCALE
 40
1.0
  9
$DELOBJ
 70
           1
  9
$DISPSILH
 70
           0
  9
$DIMSCALE
 40
1.0
  9
$DIMASZ
 40
0.18
  9
$DIMEXO
 40
0.0625
  9
$DIMDLI
 40
0.38
  9
$DIMRND
 40
0.0
  9
$DIMDLE
 40
0.0
  9
$DIMEXE
 40
0.18
  9
$DIMTP
 40
0.0
  9
$DIMTM
 40
0.0
  9
$DIMTXT
 40
0.18
  9
$DIMCEN
 40
0.09
  9
$DIMTSZ
 40
0.0
  9
$DIMTOL
 70
           0
  9
$DIMLIM
 70
           0
  9
$DIMTIH
 70
           1
  9
$DIMTOH
 70
           1
  9
$DIMSE1
 70
           0
  9
$DIMSE2
 70
           0
  9
$DIMTAD
 70
           0
  9
$DIMZIN
 70
           0
  9
$DIMBLK
  1

  9
$DIMASO
 70
           1
  9
$DIMSHO
 70
           1
  9
$DIMPOST
  1

  9
$DIMAPOST
  1

  9
$DIMALT
 70
           0
  9
$DIMALTD
 70
           2
  9
$DIMALTF
 40
25.4
  9
$DIMLFAC
 40
1.0
  9
$DIMTOFL
 70
           0
  9
$DIMTVP
 40
0.0
  9
$DIMTIX
 70
           0
  9
$DIMSOXD
 70
           0
  9
$DIMSAH
 70
           0
  9
$DIMBLK1
  1

  9
$DIMBLK2
  1

  9
$DIMSTYLE
  2
STANDARD
  9
$DIMCLRD
 70
           0
  9
$DIMCLRE
 70
           0
  9
$DIMCLRT
 70
           0
  9
$DIMTFAC
 40
1.0
  9
$DIMGAP
 40
0.09
  9
$DIMJUST
 70
           0
  9
$DIMSD1
 70
           0
  9
$DIMSD2
 70
           0
  9
$DIMTOLJ
 70
           1
  9
$DIMTZIN
 70
           0
  9
$DIMALTZ
 70
           0
  9
$DIMALTTZ
 70
           0
  9
$DIMFIT
 70
           3
  9
$DIMUPT
 70
           0
  9
$DIMUNIT
 70
           2
  9
$DIMDEC
 70
           4
  9
$DIMTDEC
 70
           4
  9
$DIMALTU
 70
           2
  9
$DIMALTTD
 70
           2
  9
$DIMTXSTY
  7
STANDARD
  9
$DIMAUNIT
 70
           0
  9
$LUNITS
 70
           2
  9
$LUPREC
 70
           4
  9
$SKETCHINC
 40
0.1
  9
$FILLETRAD
 40
0.0
  9
$AUNITS
 70
           0
  9
$AUPREC
 70
           0
  9
$MENU
  1
acad
  9
$ELEVATION
 40
0.0
  9
$PELEVATION
 40
0.0
  9
$THICKNESS
 40
0.0
  9
$LIMCHECK
 70
           0
  9
$BLIPMODE
 70
           1
  9
$CHAMFERA
 40
0.0
  9
$CHAMFERB
 40
0.0
  9
$CHAMFERC
 40
0.0
  9
$CHAMFERD
 40
0.0
  9
$SKPOLY
 70
           0
  9
$TDCREATE
 40
0.000000000
  9
$TDUPDATE
 40
0.000000000
  9
$TDINDWG
 40
0.0000000000
  9
$TDUSRTIMER
 40
0.0000000000
  9
$USRTIMER
 70
           1
  9
$ANGBASE
 50
0.0
  9
$ANGDIR
 70
           0
  9
$PDMODE
 70
           0
  9
$PDSIZE
 40
0.0
  9
$PLINEWID
 40
0.0
  9
$COORDS
 70
           0
  9
$SPLFRAME
 70
           0
  9
$SPLINETYPE
 70
           6
  9
$SPLINESEGS
 70
           8
  9
$ATTDIA
 70
           0
  9
$ATTREQ
 70
           1
  9
$HANDLING
 70
           1
  9
$HANDSEED
  5
81D
  9
$SURFTAB1
 70
           6
  9
$SURFTAB2
 70
           6
  9
$SURFTYPE
 70
           6
  9
$SURFU
 70
           6
  9
$SURFV
 70
           6
  9
$UCSNAME
  2

  9
$UCSORG
 10
0.0
 20
0.0
 30
0.0
  9
$UCSXDIR
 10
1.0
 20
0.0
 30
0.0
  9
$UCSYDIR
 10
0.0
 20
1.0
 30
0.0
  9
$PUCSNAME
  2

  9
$PUCSORG
 10
0.0
 20
0.0
 30
0.0
  9
$PUCSXDIR
 10
1.0
 20
0.0
 30
0.0
  9
$PUCSYDIR
 10
0.0
 20
1.0
 30
0.0
  9
$USERI1
 70
           0
  9
$USERI2
 70
           0
  9
$USERI3
 70
           0
  9
$USERI4
 70
           0
  9
$USERI5
 70
           0
  9
$USERR1
 40
0.0
  9
$USERR2
 40
0.0
  9
$USERR3
 40
0.0
  9
$USERR4
 40
0.0
  9
$USERR5
 40
0.0
  9
$WORLDVIEW
 70
           1
  9
$SHADEDGE
 70
           3
  9
$SHADEDIF
 70
          70
  9
$TILEMODE
 70
           1
  9
$MAXACTVP
 70
          16
  9
$PINSBASE
 10
0.0
 20
0.0
 30
0.0
  9
$PLIMCHECK
 70
           0
  9
$PEXTMIN
 10
1.000000000000E+20
 20
1.000000000000E+20
 30
1.000000000000E+20
  9
$PEXTMAX
 10
-1.000000000000E+20
 20
-1.000000000000E+20
 30
-1.000000000000E+20
  9
$PLIMMIN
 10
0.0
 20
0.0
  9
$PLIMMAX
 10
12.0
 20
9.0
  9
$UNITMODE
 70
           0
  9
$VISRETAIN
 70
           0
  9
$PLINEGEN
 70
           1
  9
$PSLTSCALE
 70
           0
  9
$TREEDEPTH
 70
        3020
  9
$PICKSTYLE
 70
           1
  9
$CMLSTYLE
  2
STANDARD
  9
$CMLJUST
 70
           0
  9
$CMLSCALE
 40
1.0
  9
$PROXYGRAPHICS
 70
           0
  9
$MEASUREMENT
 70
           0
  0
ENDSEC
  0
SECTION
  2
CLASSES
  0
CLASS
  1
LWPOLYLINE
  2
AcDbPolyline
  3
"AutoCAD"
 90
        0
280
           0
281
           1
  0
CLASS
  1
IMAGE
  2
AcDbRasterImage
  3
ISM
 90
      127
280
           0
281
           1
  0
CLASS
  1
OLE2FRAME
  2
AcDbOle2Frame
  3
""
 90
        0
280
           0
281
           1
  0
CLASS
  1
HATCH
  2
AcDbHatch
  3
"ACAD_SEDONA"
 90
        0
280
           0
281
           1
  0
CLASS
  1
DICTIONARYVAR
  2
AcDbDictionaryVar
  3
"AutoCAD"
 90
        0
280
           0
281
           0
  0
CLASS
  1
RASTERVARIABLES
  2
AcDbRasterVariables
  3
ISM
 90
        0
280
           0
281
           0
  0
CLASS
  1
IMAGEDEF
  2
AcDbRasterImageDef
  3
ISM
 90
        0
280
           0
281
           0
  0
CLASS
  1
IMAGEDEF_REACTOR
  2
AcDbRasterImageDefReactor
  3
ISM
 90
        1
280
           0
281
           0
  0
CLASS
  1
IDBUFFER
  2
AcDbIdBuffer
  3
"Acad"
 90
        0
280
           0
281
           0
  0
CLASS
  1
SPATIAL_FILTER
  2
AcDbSpatialFilter
  3
"Acad"
 90
        0
280
           0
281
           0
  0
CLASS
  1
XRECORD
  2
AcDbXrecord
  3
"<Built In>"
 90
        0
280
           0
281
           0
  0
CLASS
  1
SORTENTSTABLE
  2
AcDbSortentsTable
  3
"AutoCAD"
 90
        0
280
           0
281
           0
  0
CLASS
  1
LAYER_INDEX
  2
AcDbLayerIndex
  3
"Acad"
 90
        0
280
           0
281
           0
  0
CLASS
  1
SPATIAL_INDEX
  2
AcDbSpatialIndex
  3
"Acad"
 90
        0
280
           0
281
           0
  0
CLASS
  1
OBJECT_PTR
  2
CAseDLPNTableRecord
  3
"ASE-LPNTableRecord"
 90
        1
280
           0
281
           0
  0
CLASS
  1
LAYOUT
  2
AcDbLayout
  3
"AutoCAD 2000"
 90
        1
280
           0
281
           0
  0
CLASS
  1
PLOTSETTINGS
  2
AcDbPlotSettings
  3
"AutoCAD 2000"
 90
        1
280
           0
281
           0
  0
CLASS
  1
ACDBDICTIONARYWDFLT
  2
AcDbDictionaryWithDefault
  3
"AutoCAD 2000"
 90
        1
280
           0
281
           0
  0
CLASS
  1
ACDBPLACEHOLDER
  2
AcDbPlaceHolder
  3
"AutoCAD 2000"
 90
        1
280
           0
281
           0
  0
CLASS
  1
VBA_PROJECT
  2
AcDbVbaProject
  3
"acadvba"
 90
        1
280
           0
281
           0
  0
CLASS
  1
WIPEOUT
  2
AcDbWipeout
  3
WipeOut|AutoCAD Express Tool|expresstools@autodesk.com
 90
      127
280
           0
281
           1
  0
CLASS
  1
WIPEOUTVARIABLES
  2
AcDbWipeoutVariables
  3
WipeOut|AutoCAD Express Tool|expresstools@autodesk.com
 90
        0
280
           0
281
           0
  0
CLASS
  1
RTEXT
  2
RText
  3
RText|AutoCAD Express Tool|expresstools@autodesk.com
 90
        0
280
           0
281
           1
  0
CLASS
  1
ARCALIGNEDTEXT
  2
AcDbArcAlignedText
  3
ATEXT|AutoCAD Express Tool|expresstools@autodesk.com
 90
        0
280
           0
281
           1
  0
ENDSEC
  0
SECTION
  2
TABLES
  0
TABLE
  2
VPORT
  5
7
100
AcDbSymbolTable
 70
           1
  0
VPORT
  5
15
100
AcDbSymbolTableRecord
100
AcDbViewportTableRecord
  2
*ACTIVE
 70
           0
 10
0.0
 20
0.0
 11
1.0
 21
1.0
 12
6.591288
 22
4.579184
 13
0.0
 23
0.0
 14
1.0
 24
1.0
 15
0.0
 25
0.0
 16
0.0
 26
0.0
 36
1.0
 17
0.0
 27
0.0
 37
0.0
 40
9.158369
 41
0.688564
 42
50.0
 43
0.0
 44
0.0
 50
0.0
 51
0.0
 71
           0
 72
         100
 73
           1
 74
           1
 75
           0
 76
           0
 77
           0
 78
           0
  0
ENDTAB
  0
TABLE
  2
LTYPE
  5
4
100
AcDbSymbolTable
 70
          10
  0
LTYPE
  5
11
100
AcDbSymbolTableRecord
100
AcDbLinetypeTableRecord
  2
BYBLOCK
 70
          64
  3

 72
          65
 73
           0
 40
0.0
  0
LTYPE
  5
12
100
AcDbSymbolTableRecord
100
AcDbLinetypeTableRecord
  2
BYLAYER
 70
          64
  3

 72
          65
 73
           0
 40
0.0
  0
LTYPE
  5
13
100
AcDbSymbolTableRecord
100
AcDbLinetypeTableRecord
  2
CONTINUOUS
 70
          64
  3
Solid line
 72
          65
 73
           0
 40
0.0
  0
LTYPE
  5
1D
100
AcDbSymbolTableRecord
100
AcDbLinetypeTableRecord
  2
DASHED
 70
          64
  3
Dashed
 72
          65
 73
           2
 40
15.0
 49
12.0
 74
           0
 49
-3.0
 74
           0
  0
LTYPE
  5
1E
100
AcDbSymbolTableRecord
100
AcDbLinetypeTableRecord
  2
DOTTED
 70
          64
  3
Dotted
 72
          65
 73
           2
 40
3.5
 49
0.5
 74
           0
 49
-3.0
 74
           0
  0
LTYPE
  5
1F
100
AcDbSymbolTableRecord
100
AcDbLinetypeTableRecord
  2
DOT_CENTER
 70
          64
  3
Dot_Center
 72
          65
 73
           4
 40
2.0
 49
1.25
 74
           0
 49
-0.25
 74
           0
 49
0.25
 74
           0
 49
-0.25
 74
           0
  0
LTYPE
  5
20
100
AcDbSymbolTableRecord
100
AcDbLinetypeTableRecord
  2
LONG_DASHED
 70
          64
  3
Long_Dashed
 72
          65
 73
           2
 40
2.0
 49
1.5
 74
           0
 49
-0.5
 74
           0
  0
LTYPE
  5
21
100
AcDbSymbolTableRecord
100
AcDbLinetypeTableRecord
  2
DASH_CENTER
 70
          64
  3
Dash_Center
 72
          65
 73
           4
 40
36.0
 49
24.0
 74
           0
 49
-3.0
 74
           0
 49
6.0
 74
           0
 49
-3.0
 74
           0
  0
LTYPE
  5
22
100
AcDbSymbolTableRecord
100
AcDbLinetypeTableRecord
  2
PHANTOM
 70
          64
  3
Phantom
 72
          65
 73
           6
 40
2.5
 49
1.25
 74
           0
 49
-0.25
 74
           0
 49
0.25
 74
           0
 49
-0.25
 74
           0
 49
0.25
 74
           0
 49
-0.25
 74
           0
  0
LTYPE
  5
23
100
AcDbSymbolTableRecord
100
AcDbLinetypeTableRecord
  2
CENTER_DASH_DASH
 70
          64
  3
Center_Dash_Dash
 72
          65
 73
           6
 40
22.0
 49
12.0
 74
           0
 49
-3.0
 74
           0
 49
0.5
 74
           0
 49
-3.0
 74
           0
 49
0.5
 74
           0
 49
-3.0
 74
           0
  0
ENDTAB
  0
TABLE
  2
LAYER
  5
2
100
AcDbSymbolTable
 70
           2
  0
LAYER
  5
14
100
AcDbSymbolTableRecord
100
AcDbLayerTableRecord
  2
0
 70
           0
 62
           7
  6
CONTINUOUS
  0
LAYER
  5
24
100
AcDbSymbolTableRecord
100
AcDbLayerTableRecord
  2
1
 70
           0
 62
           7
  6
CONTINUOUS
  0
ENDTAB
  0
TABLE
  2
STYLE
  5
3
100
AcDbSymbolTable
 70
           2
  0
STYLE
  5
17
100
AcDbSymbolTableRecord
100
AcDbTextStyleTableRecord
  2
STANDARD
 70
           0
 40
0.0
 41
1.0
 50
0.0
 71
           0
 42
0.0
  3
txt
  4

  0
STYLE
  5
57
100
AcDbSymbolTableRecord
100
AcDbTextStyleTableRecord
  2
CONVERTER_1
 70
           0
 40
0.0
 41
0.9
 50
0.0
 71
           0
 42
0.0
  3
txt.shx
  4

  0
ENDTAB
  0
TABLE
  2
VIEW
  5
5
100
AcDbSymbolTable
 70
           0
  0
ENDTAB
  0
TABLE
  2
UCS
  5
6
100
AcDbSymbolTable
 70
           0
  0
ENDTAB
  0
TABLE
  2
APPID
  5
8
100
AcDbSymbolTable
 70
           1
  0
APPID
  5
16
100
AcDbSymbolTableRecord
100
AcDbRegAppTableRecord
  2
ACAD
 70
           0
  0
ENDTAB
  0
TABLE
  2
DIMSTYLE
  5
9
100
AcDbSymbolTable
 70
           1
  0
DIMSTYLE
105
18
100
AcDbSymbolTableRecord
100
AcDbDimStyleTableRecord
  2
STANDARD
 70
           0
  3

  4

  5

  6

  7

 40
1.0
 41
0.18
 42
0.0625
 43
0.38
 44
0.18
 45
0.0
 46
0.0
 47
0.0
 48
0.0
 71
           0
 72
           0
 73
           1
 74
           1
 75
           0
 76
           0
 77
           0
 78
           0
140
0.18
141
0.09
142
0.0
143
25.4
144
1.0
145
0.0
146
1.0
147
0.09
170
           0
171
           2
172
           0
173
           0
174
           0
175
           0
176
           0
177
           0
178
           0
270
           2
271
           4
272
           4
273
           2
274
           2
275
           0
280
           0
281
           0
282
           0
283
           1
284
           0
285
           0
286
           0
287
           0
288
           0
340
17
  0
ENDTAB
  0
TABLE
  2
BLOCK_RECORD
  5
1
100
AcDbSymbolTable
 70
           7
  0
BLOCK_RECORD
  5
A
100
AcDbSymbolTableRecord
100
AcDbBlockTableRecord
  2
*MODEL_SPACE
  0
BLOCK_RECORD
  5
B
100
AcDbSymbolTableRecord
100
AcDbBlockTableRecord
  2
*PAPER_SPACE
  0
BLOCK_RECORD
  5
25
100
AcDbSymbolTableRecord
100
AcDbBlockTableRecord
  2
KOZU0001__S
  0
BLOCK_RECORD
  5
27
100
AcDbSymbolTableRecord
100
AcDbBlockTableRecord
  2
KOZU0005__S
  0
BLOCK_RECORD
  5
29
100
AcDbSymbolTableRecord
100
AcDbBlockTableRecord
  2
KOZU0006__S
  0
BLOCK_RECORD
  5
2B
100
AcDbSymbolTableRecord
100
AcDbBlockTableRecord
  2
KOZU0007__S
  0
BLOCK_RECORD
  5
2D
100
AcDbSymbolTableRecord
100
AcDbBlockTableRecord
  2
KOZU0008__S
  0
BLOCK_RECORD
  5
2F
100
AcDbSymbolTableRecord
100
AcDbBlockTableRecord
  2
KOZU0009__S
  0
BLOCK_RECORD
  5
31
100
AcDbSymbolTableRecord
100
AcDbBlockTableRecord
  2
TOP
  0
ENDTAB
  0
ENDSEC
  0
SECTION
  2
BLOCKS
  0
BLOCK
  5
D
100
AcDbEntity
  8
0
100
AcDbBlockBegin
  2
*MODEL_SPACE
 70
           0
 10
0.0
 20
0.0
 30
0.0
  3
*MODEL_SPACE
  1

  0
ENDBLK
  5
E
100
AcDbEntity
  8
0
100
AcDbBlockEnd
  0
BLOCK
  5
F
100
AcDbEntity
 67
           1
  8
0
100
AcDbBlockBegin
  2
*PAPER_SPACE
 70
           0
 10
0.0
 20
0.0
 30
0.0
  3
*PAPER_SPACE
  1

  0
ENDBLK
  5
10
100
AcDbEntity
 67
           1
  8
0
100
AcDbBlockEnd
  0
BLOCK
  5
26
100
AcDbEntity
  8
0
100
AcDbBlockBegin
  2
KOZU0001__S
 70
           0
 10
0.0
 20
0.0
 30
0.0
  3
KOZU0001__S
  1

  0
CIRCLE
  5
48
100
AcDbEntity
  8
0
  6
CONTINUOUS
 62
           7
100
AcDbCircle
 10
0.0
 20
0.0
 40
32.475952641916
  0
CIRCLE
  5
47
100
AcDbEntity
  8
0
  6
CONTINUOUS
 62
           7
100
AcDbCircle
 10
0.0
 20
0.0
 40
24.0
  0
CIRCLE
  5
46
100
AcDbEntity
  8
0
  6
CONTINUOUS
 62
           7
100
AcDbCircle
 10
0.0
 20
0.0
 40
22.6
  0
LINE
  5
45
100
AcDbEntity
  8
0
  6
CONTINUOUS
 62
           7
100
AcDbLine
 10
-18.75
 20
-32.475952641917
 11
-37.5
 21
0.0
  0
LINE
  5
44
100
AcDbEntity
  8
0
  6
CONTINUOUS
 62
           7
100
AcDbLine
 10
18.75
 20
-32.475952641917
 11
-18.75
 21
-32.475952641917
  0
LINE
  5
43
100
AcDbEntity
  8
0
  6
CONTINUOUS
 62
           7
100
AcDbLine
 10
37.5
 20
0.0
 11
18.75
 21
-32.475952641917
  0
LINE
  5
42
100
AcDbEntity
  8
0
  6
CONTINUOUS
 62
           7
100
AcDbLine
 10
18.75
 20
32.475952641917
 11
37.5
 21
0.0
  0
LINE
  5
41
100
AcDbEntity
  8
0
  6
CONTINUOUS
 62
           7
100
AcDbLine
 10
-18.75
 20
32.475952641916
 11
18.75
 21
32.475952641917
  0
LINE
  5
40
100
AcDbEntity
  8
0
  6
CONTINUOUS
 62
           7
100
AcDbLine
 10
-37.5
 20
0.0
 11
-18.75
 21
32.475952641916
  0
ENDBLK
  5
49
100
AcDbEntity
  8
0
100
AcDbBlockEnd
  0
BLOCK
  5
28
100
AcDbEntity
  8
0
100
AcDbBlockBegin
  2
KOZU0005__S
 70
           0
 10
0.0
 20
0.0
 30
0.0
  3
KOZU0005__S
  1

  0
TEXT
  5
5A
100
AcDbEntity
  8
0
 62
           7
100
AcDbText
 10
45.394598709123
 20
-26.795253800281
 40
10.0
  1
IWATA
 41
0.9
  7
CONVERTER_1
100
AcDbText
  0
TEXT
  5
59
100
AcDbEntity
  8
0
 62
           7
100
AcDbText
 10
45.394598709123
 20
-11.795253800281
 40
10.0
  1
ANEST
 41
0.9
  7
CONVERTER_1
100
AcDbText
  0
TEXT
  5
58
100
AcDbEntity
  8
0
 62
           7
100
AcDbText
 10
1.886188774171
 20
-58.90282176362
 40
5.0
  1
REFRIGERATED AIR DRYER
 41
0.9
  7
CONVERTER_1
100
AcDbText
  0
SPLINE
  5
56
100
AcDbEntity
  8
0
  6
CONTINUOUS
 62
           7
100
AcDbSpline
210
0.0
220
0.0
230
1.0
 70
           0
 71
           3
 72
          52
 73
          49
 74
          95
 42
0.00000000001
 43
0.00000000001
 44
0.00000000001
 40
0.0
 40
0.0
 40
0.0
 40
1.0092344757072271
 40
1.879538952811878
 40
2.6811800202019787
 40
3.4829505556754778
 40
4.2846977148993872
 40
5.0862983526880541
 40
5.8891002223717219
 40
6.6945426338373695
 40
7.5000024163856942
 40
8.3032094945910355
 40
9.1053707792031737
 40
9.9073568524428914
 40
10.70922361306166
 40
11.511041129962445
 40
12.31282358600351
 40
13.114571026127209
 40
13.916281678225427
 40
14.717963087352617
 40
15.519627584180798
 40
16.321290230137429
 40
17.122966787324025
 40
17.924655220611221
 40
18.726346061358388
 40
19.528037940157944
 40
20.329730524387507
 40
21.131423034271915
 40
21.93311519421912
 40
22.734807050493558
 40
23.536498648093758
 40
24.338190028558362
 40
25.139881230297462
 40
25.941572288492882
 40
26.743263235074302
 40
27.544966433366728
 40
28.346681327387923
 40
29.148370341229779
 40
29.95003461555644
 40
30.751712285610981
 40
31.55340276333628
 40
32.355093153311216
 40
33.156783494025269
 40
33.958473834449642
 40
34.760164224625811
 40
35.5618547068038
 40
36.363545303217577
 40
37.26544736063677
 40
38.367772276589953
 40
38.367772276589953
 40
38.367772276589953
 10
27.6665280525174
 20
-2.02296015190975
 30
0.0
 10
27.134680575526399
 20
-2.1145904474781401
 30
0.0
 10
26.195788437824898
 20
-2.0947025987371899
 30
0.0
 10
25.3944571467039
 20
-2.07795866811108
 30
0.0
 10
24.593370933301902
 20
-2.0447093134862699
 30
0.0
 10
23.793398466883598
 20
-1.99112391200406
 30
0.0
 10
22.995025061907501
 20
-1.9178464991033
 30
0.0
 10
22.196089563399202
 20
-1.8541315537630401
 30
0.0
 10
21.392172960038501
 20
-1.8727269919499101
 30
0.0
 10
20.615528482189799
 20
-2.09107087705378
 30
0.0
 10
19.916070982013899
 20
-2.4878614725621899
 30
0.0
 10
19.280396039964401
 20
-2.9772681115681299
 30
0.0
 10
18.694386175472399
 20
-3.5249143627990001
 30
0.0
 10
18.147511959373698
 20
-4.1114021743360496
 30
0.0
 10
17.6324520800346
 20
-4.7259382309040197
 30
0.0
 10
17.144480774601298
 20
-5.3621500057562201
 30
0.0
 10
16.679796369359799
 20
-6.0155237122270098
 30
0.0
 10
16.2321060521706
 20
-6.6806120516943102
 30
0.0
 10
15.7931853503074
 20
-7.3514767460344403
 30
0.0
 10
15.3534506304643
 20
-8.0217816910060993
 30
0.0
 10
14.9050345902758
 20
-8.6862962828930605
 30
0.0
 10
14.4498728413105
 20
-9.3462183921045607
 30
0.0
 10
13.990043328698899
 20
-10.002920772384799
 30
0.0
 10
13.5274441227577
 20
-10.6576798623323
 30
0.0
 10
13.063964006191799
 20
-11.311816773550399
 30
0.0
 10
12.6010940015504
 20
-11.966386998049201
 30
0.0
 10
12.138782998908701
 20
-12.6213524292413
 30
0.0
 10
11.6769790983502
 20
-13.2766750513278
 30
0.0
 10
11.2156295255914
 20
-13.932317201259901
 30
0.0
 10
10.754681037089201
 20
-14.588241052578599
 30
0.0
 10
10.2940799655206
 20
-15.244408622955399
 30
0.0
 10
9.8337722614071605
 20
-15.9007817858833
 30
0.0
 10
9.3737035362651095
 20
-16.5573222816334
 30
0.0
 10
8.9138191062943299
 20
-17.213991728339899
 30
0.0
 10
8.4540640366284592
 20
-17.8707516330314
 30
0.0
 10
7.9943690413233996
 20
-18.527583614138301
 30
0.0
 10
7.5346936306524102
 20
-19.184427826492101
 30
0.0
 10
7.0750106867868299
 20
-19.841205064030099
 30
0.0
 10
6.6152351447640401
 20
-20.4979187914583
 30
0.0
 10
6.1552973604748704
 20
-21.154550301063999
 30
0.0
 10
5.6951566631772597
 20
-21.811039507386099
 30
0.0
 10
5.2347576232722002
 20
-22.467347474337501
 30
0.0
 10
4.7740449166846197
 20
-23.123435260649501
 30
0.0
 10
4.3129633785480701
 20
-23.779263925538501
 30
0.0
 10
3.8514580440170101
 20
-24.434794525206101
 30
0.0
 10
3.3894742630835801
 20
-25.0899881635168
 30
0.0
 10
2.9269573830337201
 20
-25.744805728107998
 30
0.0
 10
2.3480793515132601
 20
-26.5628103796045
 30
0.0
 10
2.0000232188443001
 20
-27.053096378171499
 30
0.0
 11
27.6665280525174
 21
-2.02296015190975
 31
0.0
 11
27.141605908936302
 21
-2.0890131360731554
 31
0.0
 11
26.630534432175011
 21
-2.1039114974265916
 31
0.0
 11
26.200194893829252
 21
-2.0948258771758819
 31
0.0
 11
25.778668267492193
 21
-2.0859868138025575
 31
0.0
 11
25.390382235727326
 21
-2.0758098707973307
 31
0.0
 11
24.993946382009312
 21
-2.0613353331646058
 31
0.0
 11
24.593516779416127
 21
-2.0421675455738755
 31
0.0
 11
24.193378869051376
 21
-2.0179162221583558
 31
0.0
 11
23.793587771915647
 21
-1.9886614758758663
 31
0.0
 11
23.394175284844025
 21
-1.9544818573369898
 31
0.0
 11
22.995020451683661
 21
-1.91904693349476
 31
0.0
 11
22.595856398075615
 21
-1.8860128784354493
 31
0.0
 11
22.195706688326197
 21
-1.8644224982731246
 31
0.0
 11
21.794791228430775
 21
-1.8634140071309686
 31
0.0
 11
21.395748014268808
 21
-1.8976914370706226
 31
0.0
 11
21.003854908567455
 21
-1.9818977572517009
 31
0.0
 11
20.625055465179681
 21
-2.1134458774931617
 31
0.0
 11
20.265309987771676
 21
-2.2897439986133867
 31
0.0
 11
19.923869603061462
 21
-2.4995477860447588
 31
0.0
 11
19.598026460446373
 21
-2.7327242004412682
 31
0.0
 11
19.286544411231564
 21
-2.9845953922037469
 31
0.0
 11
18.987359104551075
 21
-3.2511211452374633
 31
0.0
 11
18.699265045397503
 21
-3.5297824885460978
 31
0.0
 11
18.420928726094132
 21
-3.8181800833489286
 31
0.0
 11
18.151481689168151
 21
-4.1149160174506365
 31
0.0
 11
17.889974111831073
 21
-4.4186796377815192
 31
0.0
 11
17.63583484118849
 21
-4.7286517932342971
 31
0.0
 11
17.388461092853689
 21
-5.0440510733476325
 31
0.0
 11
17.147389035108262
 21
-5.3642987694095359
 31
0.0
 11
16.912133498376754
 21
-5.6888439927780734
 31
0.0
 11
16.681918078049481
 21
-6.0169917321825244
 31
0.0
 11
16.455946075101576
 21
-6.348075511498001
 31
0.0
 11
16.233199969530482
 21
-6.6813375328575724
 31
0.0
 11
16.012641698679154
 21
-7.0160505165436682
 31
0.0
 11
15.793082017622647
 21
-7.3514091905910615
 31
0.0
 11
15.573315671196635
 21
-7.6866327537516934
 31
0.0
 11
15.35236482091771
 21
-8.0210588765673414
 31
0.0
 11
15.129242351545614
 21
-8.3540393705054754
 31
0.0
 11
14.904191805618895
 21
-8.685721602728167
 31
0.0
 11
14.677455690378363
 21
-9.0162544746210713
 31
0.0
 11
14.449290290244809
 21
-9.3458146022456248
 31
0.0
 11
14.219959787979874
 21
-9.6745671501523063
 31
0.0
 11
13.989697629600077
 21
-10.002677130180732
 31
0.0
 11
13.758744073022633
 21
-10.330299825801024
 31
0.0
 11
13.527334133261133
 21
-10.657601914164571
 31
0.0
 11
13.295704214506504
 21
-10.984748106192658
 31
0.0
 11
13.064040333146016
 21
-11.311870848774969
 31
0.0
 11
12.832529105693961
 21
-11.639101741806426
 31
0.0
 11
12.601163899576544
 21
-11.966436366683668
 31
0.0
 11
12.369938489511418
 21
-12.293869728829844
 31
0.0
 11
12.138846371391034
 21
-12.621397099777191
 31
0.0
 11
11.907880998235317
 21
-12.949013811796325
 31
0.0
 11
11.677035865804472
 21
-13.276715025708352
 31
0.0
 11
11.446304268282169
 21
-13.604496188381493
 31
0.0
 11
11.215679640905702
 21
-13.93235244268268
 31
0.0
 11
10.985155244157834
 21
-14.260279179829427
 31
0.0
 11
10.754724447113265
 21
-14.58827154179596
 31
0.0
 11
10.524380470116816
 21
-14.916324882197227
 31
0.0
 11
10.294116622241789
 21
-15.244434342277403
 31
0.0
 11
10.06392608780914
 21
-15.572595241001579
 31
0.0
 11
9.8338021222164116
 21
-15.900802718978774
 31
0.0
 11
9.6037378782421818
 21
-16.229052063146924
 31
0.0
 11
9.3737265640113687
 21
-16.557338413564068
 31
0.0
 11
9.1437613052730722
 21
-16.885657027842559
 31
0.0
 11
8.9138357114606634
 21
-17.214002414005169
 31
0.0
 11
8.6839433279809199
 21
-17.542369171498315
 31
0.0
 11
8.4540724041945872
 21
-17.870759416399594
 31
0.0
 11
8.2242182155405157
 21
-18.199165228037259
 31
0.0
 11
7.9943709811042183
 21
-18.527585869403975
 31
0.0
 11
7.7645276262295564
 21
-18.856011021302038
 31
0.0
 11
7.5346908749581205
 21
-19.18442204663436
 31
0.0
 11
7.3048486122981116
 21
-19.512821512251193
 31
0.0
 11
7.0749987055829271
 21
-19.841197706168437
 31
0.0
 11
6.8451248364599362
 21
-20.169559184362345
 31
0.0
 11
6.6152158038985247
 21
-20.497907172740206
 31
0.0
 11
6.3852680896060878
 21
-20.826231923681867
 31
0.0
 11
6.1552724524476323
 21
-21.154531861999796
 31
0.0
 11
5.9252269992346989
 21
-21.482794922189328
 31
0.0
 11
5.6951243654353743
 21
-21.811016859476311
 31
0.0
 11
5.4649571361522788
 21
-22.139193500943719
 31
0.0
 11
5.2347184131583653
 21
-22.467319954292876
 31
0.0
 11
5.0044012699367908
 21
-22.795391367552767
 31
0.0
 11
4.7739988145189747
 21
-23.123402867942705
 31
0.0
 11
4.5435041547698649
 21
-23.451349582919043
 31
0.0
 11
4.3129104090972747
 21
-23.779226660140299
 31
0.0
 11
4.0822107245231027
 21
-24.107029206565166
 31
0.0
 11
3.8513982456412132
 21
-24.434752394499647
 31
0.0
 11
3.620466170007731
 21
-24.762391321021219
 31
0.0
 11
3.3928084935789271
 21
-25.085126307262538
 31
0.0
 11
3.1718192781408199
 21
-25.398137580995332
 31
0.0
 11
2.9230490840842225
 21
-25.75016420639934
 31
0.0
 11
2.6664622921286281
 21
-26.112907788386025
 31
0.0
 11
2.3406610534998644
 21
-26.572906231441628
 31
0.0
 11
2.0000232188443001
 21
-27.053096378171499
 31
0.0
  0
SPLINE
  5
55
100
AcDbEntity
  8
0
  6
CONTINUOUS
 62
           7
100
AcDbSpline
210
0.0
220
0.0
230
1.0
 70
           0
 71
           3
 72
          52
 73
          49
 74
          95
 42
0.00000000001
 43
0.00000000001
 44
0.00000000001
 40
0.0
 40
0.0
 40
0.0
 40
0.1163482236430535
 40
0.2115107157596665
 40
0.2961053253100981
 40
0.3807054988466558
 40
0.4653098069697522
 40
0.5499359120565501
 40
0.6346108592045803
 40
0.7193237845034948
 40
0.8040240030866084
 40
0.888674921472947
 40
0.9732841554165803
 40
1.0578789477696366
 40
1.1424715927955242
 40
1.2270625318454584
 40
1.3116521301396131
 40
1.3962407070235914
 40
1.4808285505912155
 40
1.5654159212484824
 40
1.6500151729163675
 40
1.7346382751833591
 40
1.8192585699944517
 40
1.9038468991021298
 40
1.9884127707656833
 40
2.0729697039691963
 40
2.1575194858152278
 40
2.2420634277147062
 40
2.3266032147580553
 40
2.4111407376135965
 40
2.495677959743726
 40
2.5802167978742743
 40
2.6647590166780346
 40
2.749306134055443
 40
2.8338593343960059
 40
2.9184193875196907
 40
3.0029865708976691
 40
3.0875605964256581
 40
3.1721405289461568
 40
3.2567245623102226
 40
3.3413098482360502
 40
3.4258959951961629
 40
3.5104896952626117
 40
3.5950998100583385
 40
3.6797294772578675
 40
3.7643760299323494
 40
3.8490307700354123
 40
3.9442219404676147
 40
4.0605033979515408
 40
4.0605033979515408
 40
4.0605033979515408
 10
25.336609975260401
 20
-12.914285021701399
 30
0.0
 10
25.387494997394398
 20
-12.8763305317269
 30
0.0
 10
25.478064478691699
 20
-12.821768906357301
 30
0.0
 10
25.553019585745499
 20
-12.782560896757801
 30
0.0
 10
25.6300620448331
 20
-12.747612086006599
 30
0.0
 10
25.708825495836699
 20
-12.7167294429959
 30
0.0
 10
25.789007607735201
 20
-12.6897259617465
 30
0.0
 10
25.870381780204401
 20
-12.666422720885899
 30
0.0
 10
25.952751475478902
 20
-12.646670975427799
 30
0.0
 10
26.035887537519098
 20
-12.6303597339486
 30
0.0
 10
26.119569928229598
 20
-12.6174040015768
 30
0.0
 10
26.203634811067101
 20
-12.6077055717027
 30
0.0
 10
26.287962114038901
 20
-12.600968569925
 30
0.0
 10
26.372456106425901
 20
-12.596864691219601
 30
0.0
 10
26.457028356632598
 20
-12.5950511003575
 30
0.0
 10
26.541618453087299
 20
-12.5951731855041
 30
0.0
 10
26.626190442805601
 20
-12.596870097967701
 30
0.0
 10
26.7107285930045
 20
-12.599777826121899
 30
0.0
 10
26.795232854112001
 20
-12.6035305173728
 30
0.0
 10
26.879714217592699
 20
-12.6077605217432
 30
0.0
 10
26.964214287768701
 20
-12.6120977425047
 30
0.0
 10
27.048751177573699
 20
-12.6161696058657
 30
0.0
 10
27.133288467452399
 20
-12.619571050429199
 30
0.0
 10
27.2178234798224
 20
-12.6220368005956
 30
0.0
 10
27.302368382153901
 20
-12.623675276048401
 30
0.0
 10
27.386916617240502
 20
-12.6245812378656
 30
0.0
 10
27.471462647223799
 20
-12.624855524731499
 30
0.0
 10
27.556003672429
 20
-12.6246008196683
 30
0.0
 10
27.6405391069821
 20
-12.6239213497034
 30
0.0
 10
27.725070079800201
 20
-12.6229219489638
 30
0.0
 10
27.809598916742601
 20
-12.621707284836001
 30
0.0
 10
27.894128626864202
 20
-12.620381113220301
 30
0.0
 10
27.978662402802598
 20
-12.619045586882301
 30
0.0
 10
28.063203146009698
 20
-12.617800612087001
 30
0.0
 10
28.147753025767798
 20
-12.6167432540772
 30
0.0
 10
28.232313079784699
 20
-12.615967183509101
 30
0.0
 10
28.316882861634301
 20
-12.615562200206501
 30
0.0
 10
28.401460145537001
 20
-12.615613615511201
 30
0.0
 10
28.486040659198
 20
-12.6162027650334
 30
0.0
 10
28.570617669586699
 20
-12.6174012348778
 30
0.0
 10
28.655181380698401
 20
-12.6193020076573
 30
0.0
 10
28.7397312726664
 20
-12.6218147972405
 30
0.0
 10
28.824288139028301
 20
-12.6245215062252
 30
0.0
 10
28.9088708296809
 20
-12.6270358189568
 30
0.0
 10
28.9934886000419
 20
-12.6289439431847
 30
0.0
 10
29.078138296202599
 20
-12.629779889384199
 30
0.0
 10
29.162790094025201
 20
-12.628971616677701
 30
0.0
 10
29.268444201727601
 20
-12.625054818252799
 30
0.0
 10
29.331542700954898
 20
-12.618695828993101
 30
0.0
 11
25.336609975260401
 21
-12.914285021701399
 31
0.0
 11
25.387228900725272
 21
-12.878315813115522
 31
0.0
 11
25.437315632851885
 21
-12.846317167306896
 31
0.0
 11
25.477797480004924
 21
-12.822716841555026
 31
0.0
 11
25.517745329784411
 21
-12.801012386198606
 31
0.0
 11
25.553831012447624
 21
-12.782805311435961
 31
0.0
 11
25.591539548515094
 21
-12.76508706602964
 31
0.0
 11
25.630276611551565
 21
-12.748120594964908
 31
0.0
 11
25.669442808024975
 21
-12.732171141816787
 31
0.0
 11
25.709001296933959
 21
-12.717214867302719
 31
0.0
 11
25.748911388037456
 21
-12.703229441402293
 31
0.0
 11
25.789152389890962
 21
-12.690189766903762
 31
0.0
 11
25.829682956056004
 21
-12.678077702719753
 31
0.0
 11
25.870500977581418
 21
-12.666868051725023
 31
0.0
 11
25.911557393860875
 21
-12.656549062408549
 31
0.0
 11
25.952845742274782
 21
-12.647101439061412
 31
0.0
 11
25.994322624280443
 21
-12.638514742981503
 31
0.0
 11
26.035959653169765
 21
-12.63077854821374
 31
0.0
 11
26.077740913360415
 21
-12.623879981976259
 31
0.0
 11
26.119623372745576
 21
-12.617810394383023
 31
0.0
 11
26.161612721162697
 21
-12.612553592402243
 31
0.0
 11
26.203671101131064
 21
-12.608075379779851
 31
0.0
 11
26.245802061227366
 21
-12.604336783311762
 31
0.0
 11
26.287983983934126
 21
-12.601297631922712
 31
0.0
 11
26.330209646431328
 21
-12.598916604529084
 31
0.0
 11
26.372466129301962
 21
-12.597150968403271
 31
0.0
 11
26.414742657924712
 21
-12.595957886644808
 31
0.0
 11
26.457030777809532
 21
-12.595293057693592
 31
0.0
 11
26.499323740048212
 21
-12.595112143414562
 31
0.0
 11
26.54161633736755
 21
-12.595370040320303
 31
0.0
 11
26.583904703247381
 21
-12.596021646858439
 31
0.0
 11
26.626186322496054
 21
-12.59702145278515
 31
0.0
 11
26.668459701125641
 21
-12.598323968346754
 31
0.0
 11
26.710724432200998
 21
-12.599883449395753
 31
0.0
 11
26.752980841669348
 21
-12.601654176992463
 31
0.0
 11
26.795229279855942
 21
-12.603590145692884
 31
0.0
 11
26.837470569530417
 21
-12.605645371033471
 31
0.0
 11
26.879714325644144
 21
-12.607773810248688
 31
0.0
 11
26.921958297860751
 21
-12.609928826474871
 31
0.0
 11
26.964217576807478
 21
-12.612064504860514
 31
0.0
 11
27.006483433831761
 21
-12.614133707957793
 31
0.0
 11
27.048753399146847
 21
-12.616085892281284
 31
0.0
 11
27.091027807608231
 21
-12.617870649435943
 31
0.0
 11
27.133291581929399
 21
-12.61945420987178
 31
0.0
 11
27.175561585204559
 21
-12.620804089192776
 31
0.0
 11
27.217826677504121
 21
-12.621933443001058
 31
0.0
 11
27.260098165167129
 21
-12.622856081620263
 31
0.0
 11
27.302369804225801
 21
-12.623583727457547
 31
0.0
 11
27.34464428742826
 21
-12.624128276113119
 31
0.0
 11
27.386917153528415
 21
-12.624502284469839
 31
0.0
 11
27.42919109220442
 21
-12.624718386035036
 31
0.0
 11
27.471462646295535
 21
-12.624789401142131
 31
0.0
 11
27.513734198530123
 21
-12.624728169070496
 31
0.0
 11
27.556003374779763
 21
-12.624547722135851
 31
0.0
 11
27.598271955730937
 21
-12.624261080136311
 31
0.0
 11
27.640538709565483
 21
-12.623881356996979
 31
0.0
 11
27.68280466856681
 21
-12.623421648444806
 31
0.0
 11
27.725069730620611
 21
-12.622895042269271
 31
0.0
 11
27.767334094315231
 21
-12.622314622704678
 31
0.0
 11
27.809598713635921
 21
-12.621693351165709
 31
0.0
 11
27.851862926743252
 21
-12.621044212286149
 31
0.0
 11
27.894128617704858
 21
-12.620379952030843
 31
0.0
 11
27.936394290347764
 21
-12.619713369396619
 31
0.0
 11
27.978662587446919
 21
-12.619056916259577
 31
0.0
 11
28.020931253834711
 21
-12.618423121877086
 31
0.0
 11
28.063203479670946
 21
-12.617824075139062
 31
0.0
 11
28.105476372829667
 21
-12.617271954505156
 31
0.0
 11
28.147753423663268
 21
-12.616778424452983
 31
0.0
 11
28.190031270287804
 21
-12.616355235152373
 31
0.0
 11
28.23231342251146
 21
-12.616013575554906
 31
0.0
 11
28.274596260188638
 21
-12.615764700049052
 31
0.0
 11
28.316883002572361
 21
-12.615619251855794
 31
0.0
 11
28.359170026832203
 21
-12.615587906961119
 31
0.0
 11
28.401459923770155
 21
-12.615680830278697
 31
0.0
 11
28.443749377174417
 21
-12.615908183131268
 31
0.0
 11
28.486039886712661
 21
-12.616278927179206
 31
0.0
 11
28.528328851280229
 21
-12.616801995518751
 31
0.0
 11
28.570615875098401
 21
-12.617489020426175
 31
0.0
 11
28.61289930993998
 21
-12.618351616430356
 31
0.0
 11
28.655179127659054
 21
-12.619378494525396
 31
0.0
 11
28.697454439299428
 21
-12.620558346356619
 31
0.0
 11
28.739730647245501
 21
-12.621838990319851
 31
0.0
 11
28.782005604349784
 21
-12.623168020441794
 31
0.0
 11
28.824289120202227
 21
-12.624497387560734
 31
0.0
 11
28.866574598402543
 21
-12.625778517350746
 31
0.0
 11
28.908872938067862
 21
-12.626959985291608
 31
0.0
 11
28.951175494507108
 21
-12.627989785902084
 31
0.0
 11
28.993491023969753
 21
-12.628809892085679
 31
0.0
 11
29.035811401288079
 21
-12.629361896071226
 31
0.0
 11
29.077518122228703
 21
-12.629580276138279
 31
0.0
 11
29.117984495221535
 21
-12.629399429713487
 31
0.0
 11
29.16347833965601
 21
-12.62863779820405
 31
0.0
 11
29.210348675352094
 21
-12.627208529747314
 31
0.0
 11
29.269694944940547
 21
-12.624003498811502
 31
0.0
 11
29.331542700954898
 21
-12.618695828993101
 31
0.0
  0
LINE
  5
54
100
AcDbEntity
  8
0
  6
CONTINUOUS
 62
           7
100
AcDbLine
 10
1.999877661892
 20
-27.05330140625
 11
15.535657826823
 21
-27.05330140625
  0
LINE
  5
53
100
AcDbEntity
  8
0
  6
CONTINUOUS
 62
           7
100
AcDbLine
 10
29.331542700955
 20
-12.618695828993
 11
27.666528052517
 21
-2.02296015191
  0
LINE
  5
52
100
AcDbEntity
  8
0
  6
CONTINUOUS
 62
           7
100
AcDbLine
 10
15.535657826823
 20
-27.05330140625
 11
25.33660997526
 21
-12.914285021701
  0
LINE
  5
51
100
AcDbEntity
  8
0
  6
CONTINUOUS
 62
           7
100
AcDbLine
 10
104.499909
 20
0.0
 11
104.499909
 21
-64.499767
  0
LINE
  5
50
100
AcDbEntity
  8
0
  6
CONTINUOUS
 62
           7
100
AcDbLine
 10
0.0
 20
0.0
 11
104.499909
 21
0.0
  0
LINE
  5
4F
100
AcDbEntity
  8
0
  6
CONTINUOUS
 62
           7
100
AcDbLine
 10
0.0
 20
-64.499767
 11
0.0
 21
0.0
  0
LINE
  5
4E
100
AcDbEntity
  8
0
  6
CONTINUOUS
 62
           7
100
AcDbLine
 10
104.499909
 20
-64.499767
 11
0.0
 21
-64.499767
  0
LINE
  5
4D
100
AcDbEntity
  8
0
  6
CONTINUOUS
 62
           7
100
AcDbLine
 10
29.608528
 20
-2.059823
 11
29.608528
 21
-27.053301
  0
LINE
  5
4C
100
AcDbEntity
  8
0
  6
CONTINUOUS
 62
           7
100
AcDbLine
 10
40.999392
 20
-2.059823
 11
29.608528
 21
-2.059823
  0
LINE
  5
4B
100
AcDbEntity
  8
0
  6
CONTINUOUS
 62
           7
100
AcDbLine
 10
40.999392
 20
-27.053301
 11
40.999392
 21
-2.059823
  0
LINE
  5
4A
100
AcDbEntity
  8
0
  6
CONTINUOUS
 62
           7
100
AcDbLine
 10
29.608528
 20
-27.053301
 11
40.999392
 21
-27.053301
  0
ENDBLK
  5
5B
100
AcDbEntity
  8
0
100
AcDbBlockEnd
  0
BLOCK
  5
2A
100
AcDbEntity
  8
0
100
AcDbBlockBegin
  2
KOZU0006__S
 70
           0
 10
0.0
 20
0.0
 30
0.0
  3
KOZU0006__S
  1

  0
CIRCLE
  5
70
100
AcDbEntity
  8
0
  6
CONTINUOUS
 62
           7
100
AcDbCircle
 10
0.0
 20
31.000022426247
 40
2.25
  0
CIRCLE
  5
6F
100
AcDbEntity
  8
0
  6
CONTINUOUS
 62
           7
100
AcDbCircle
 10
26.846787517318
 20
-15.5
 40
2.25
  0
CIRCLE
  5
6E
100
AcDbEntity
  8
0
  6
CONTINUOUS
 62
           7
100
AcDbCircle
 10
-26.846787517318
 20
-15.5
 40
2.25
  0
CIRCLE
  5
6D
100
AcDbEntity
  8
0
  6
CONTINUOUS
 62
           7
100
AcDbCircle
 10
0.0
 20
0.0
 40
26.4
  0
CIRCLE
  5
6C
100
AcDbEntity
  8
0
  6
CONTINUOUS
 62
           7
100
AcDbCircle
 10
0.0
 20
0.0
 40
35.0
  0
CIRCLE
  5
6B
100
AcDbEntity
  8
0
  6
CONTINUOUS
 62
           7
100
AcDbCircle
 10
-25.0
 20
74.999999999999
 40
8.5
  0
CIRCLE
  5
6A
100
AcDbEntity
  8
0
  6
CONTINUOUS
 62
           7
100
AcDbCircle
 10
-25.0
 20
50.0
 40
8.5
  0
ARC
  5
69
100
AcDbEntity
  8
0
  6
CONTINUOUS
 62
           7
100
AcDbCircle
 10
0.0
 20
0.0
 40
12.0
100
AcDbArc
 50
29.538518672261
 51
60.461481327738
  0
ARC
  5
68
100
AcDbEntity
  8
0
  6
CONTINUOUS
 62
           7
100
AcDbCircle
 10
0.0
 20
0.0
 40
25.0
100
AcDbArc
 50
0.000000000001
 51
179.999964027821
  0
ARC
  5
67
100
AcDbEntity
  8
0
  6
CONTINUOUS
 62
           7
100
AcDbCircle
 10
0.0
 20
0.0
 40
25.0
100
AcDbArc
 50
179.999981330665
 51
0.000000000001
  0
LINE
  5
66
100
AcDbEntity
  8
0
  6
CONTINUOUS
 62
           7
100
AcDbLine
 10
-17.677669529664
 20
-17.677669529664
 11
5.916102833616
 21
10.440293447125
  0
LINE
  5
65
100
AcDbEntity
  8
0
  6
CONTINUOUS
 62
           7
100
AcDbLine
 10
-17.677669529664
 20
-17.677669529664
 11
10.440293447125
 21
5.916102833616
  0
LINE
  5
64
100
AcDbEntity
  8
0
  6
CONTINUOUS
 62
           7
100
AcDbLine
 10
29.25
 20
74.0
 11
29.25
 21
51.0
  0
LINE
  5
63
100
AcDbEntity
  8
0
  6
CONTINUOUS
 62
           7
100
AcDbLine
 10
29.25
 20
51.0
 11
20.75
 21
51.0
  0
LINE
  5
62
100
AcDbEntity
  8
0
  6
CONTINUOUS
 62
           7
100
AcDbLine
 10
32.0
 20
47.5
 11
18.0
 21
47.5
  0
LINE
  5
61
100
AcDbEntity
  8
0
  6
CONTINUOUS
 62
           7
100
AcDbLine
 10
32.0
 20
77.5
 11
18.0
 21
77.5
  0
LINE
  5
60
100
AcDbEntity
  8
0
  6
CONTINUOUS
 62
           7
100
AcDbLine
 10
29.25
 20
74.0
 11
20.75
 21
74.0
  0
LINE
  5
5F
100
AcDbEntity
  8
0
  6
CONTINUOUS
 62
           7
100
AcDbLine
 10
20.75
 20
74.0
 11
20.75
 21
51.0
  0
LINE
  5
5E
100
AcDbEntity
  8
0
  6
CONTINUOUS
 62
           7
100
AcDbLine
 10
32.0
 20
77.5
 11
32.0
 21
47.5
  0
LINE
  5
5D
100
AcDbEntity
  8
0
  6
CONTINUOUS
 62
           7
100
AcDbLine
 10
18.0
 20
77.5
 11
18.0
 21
47.5
  0
POINT
  5
5C
100
AcDbEntity
  8
0
 62
           7
100
AcDbPoint
 10
0.0
 20
0.0
  0
ENDBLK
  5
71
100
AcDbEntity
  8
0
100
AcDbBlockEnd
  0
BLOCK
  5
2C
100
AcDbEntity
  8
0
100
AcDbBlockBegin
  2
KOZU0007__S
 70
           0
 10
0.0
 20
0.0
 30
0.0
  3
KOZU0007__S
  1

  0
ARC
  5
74
100
AcDbEntity
  8
0
  6
CONTINUOUS
 62
           1
100
AcDbCircle
 10
4.894230769231
 20
0.0
 40
7.994230769231
100
AcDbArc
 50
132.435939153557
 51
-132.435939153557
  0
LINE
  5
73
100
AcDbEntity
  8
0
  6
CONTINUOUS
 62
           1
100
AcDbLine
 10
-0.5
 20
5.9
 11
-0.5
 21
-5.9
  0
LINE
  5
72
100
AcDbEntity
  8
0
  6
CONTINUOUS
 62
           1
100
AcDbLine
 10
0.0
 20
5.9
 11
0.0
 21
-5.9
  0
ENDBLK
  5
75
100
AcDbEntity
  8
0
100
AcDbBlockEnd
  0
BLOCK
  5
2E
100
AcDbEntity
  8
0
100
AcDbBlockBegin
  2
KOZU0008__S
 70
           0
 10
0.0
 20
0.0
 30
0.0
  3
KOZU0008__S
  1

  0
LINE
  5
615
100
AcDbEntity
  8
0
  6
CONTINUOUS
 62
           7
100
AcDbLine
 10
-193.5
 20
215.0
 11
-183.5
 21
215.0
  0
LINE
  5
614
100
AcDbEntity
  8
0
  6
CONTINUOUS
 62
           7
100
AcDbLine
 10
-193.5
 20
265.0
 11
-193.5
 21
215.0
  0
LINE
  5
613
100
AcDbEntity
  8
0
  6
CONTINUOUS
 62
           7
100
AcDbLine
 10
-206.5
 20
265.0
 11
-206.5
 21
215.0
  0
LINE
  5
612
100
AcDbEntity
  8
0
  6
CONTINUOUS
 62
           7
100
AcDbLine
 10
-206.5
 20
215.0
 11
-196.5
 21
215.0
  0
LINE
  5
611
100
AcDbEntity
  8
0
  6
CONTINUOUS
 62
           7
100
AcDbLine
 10
-206.5
 20
265.0
 11
-196.5
 21
265.0
  0
LINE
  5
610
100
AcDbEntity
  8
0
  6
CONTINUOUS
 62
           7
100
AcDbLine
 10
-196.5
 20
265.0
 11
-196.5
 21
215.0
  0
LINE
  5
60F
100
AcDbEntity
  8
0
  6
CONTINUOUS
 62
           7
100
AcDbLine
 10
-209.5
 20
265.0
 11
-209.5
 21
215.0
  0
LINE
  5
60E
100
AcDbEntity
  8
0
  6
CONTINUOUS
 62
           7
100
AcDbLine
 10
-219.5
 20
265.0
 11
-209.5
 21
265.0
  0
LINE
  5
60D
100
AcDbEntity
  8
0
  6
CONTINUOUS
 62
           7
100
AcDbLine
 10
-219.5
 20
215.0
 11
-209.5
 21
215.0
  0
LINE
  5
60C
100
AcDbEntity
  8
0
  6
CONTINUOUS
 62
           7
100
AcDbLine
 10
-219.5
 20
265.0
 11
-219.5
 21
215.0
  0
LINE
  5
60B
100
AcDbEntity
  8
0
  6
CONTINUOUS
 62
           7
100
AcDbLine
 10
-232.5
 20
265.0
 11
-232.5
 21
215.0
  0
LINE
  5
60A
100
AcDbEntity
  8
0
  6
CONTINUOUS
 62
           7
100
AcDbLine
 10
-232.5
 20
215.0
 11
-222.5
 21
215.0
  0
LINE
  5
609
100
AcDbEntity
  8
0
  6
CONTINUOUS
 62
           7
100
AcDbLine
 10
-232.5
 20
265.0
 11
-222.5
 21
265.0
  0
LINE
  5
608
100
AcDbEntity
  8
0
  6
CONTINUOUS
 62
           7
100
AcDbLine
 10
-222.5
 20
265.0
 11
-222.5
 21
215.0
  0
LINE
  5
607
100
AcDbEntity
  8
0
  6
CONTINUOUS
 62
           7
100
AcDbLine
 10
-235.5
 20
265.0
 11
-235.5
 21
215.0
  0
LINE
  5
606
100
AcDbEntity
  8
0
  6
CONTINUOUS
 62
           7
100
AcDbLine
 10
-245.5
 20
265.0
 11
-235.5
 21
265.0
  0
LINE
  5
605
100
AcDbEntity
  8
0
  6
CONTINUOUS
 62
           7
100
AcDbLine
 10
-245.5
 20
215.0
 11
-235.5
 21
215.0
  0
LINE
  5
604
100
AcDbEntity
  8
0
  6
CONTINUOUS
 62
           7
100
AcDbLine
 10
-245.5
 20
265.0
 11
-245.5
 21
215.0
  0
LINE
  5
603
100
AcDbEntity
  8
0
  6
CONTINUOUS
 62
           7
100
AcDbLine
 10
-193.5
 20
265.0
 11
-183.5
 21
265.0
  0
LINE
  5
602
100
AcDbEntity
  8
0
  6
CONTINUOUS
 62
           7
100
AcDbLine
 10
-183.5
 20
265.0
 11
-183.5
 21
215.0
  0
LINE
  5
601
100
AcDbEntity
  8
0
  6
CONTINUOUS
 62
           7
100
AcDbLine
 10
-180.5
 20
215.0
 11
-170.5
 21
215.0
  0
LINE
  5
600
100
AcDbEntity
  8
0
  6
CONTINUOUS
 62
           7
100
AcDbLine
 10
-180.5
 20
265.0
 11
-180.5
 21
215.0
  0
LINE
  5
5FF
100
AcDbEntity
  8
0
  6
CONTINUOUS
 62
           7
100
AcDbLine
 10
-180.5
 20
265.0
 11
-170.5
 21
265.0
  0
LINE
  5
5FE
100
AcDbEntity
  8
0
  6
CONTINUOUS
 62
           7
100
AcDbLine
 10
-170.5
 20
265.0
 11
-170.5
 21
215.0
  0
LINE
  5
5FD
100
AcDbEntity
  8
0
  6
CONTINUOUS
 62
           7
100
AcDbLine
 10
-167.5
 20
215.0
 11
-157.5
 21
215.0
  0
LINE
  5
5FC
100
AcDbEntity
  8
0
  6
CONTINUOUS
 62
           7
100
AcDbLine
 10
-167.5
 20
265.0
 11
-167.5
 21
215.0
  0
LINE
  5
5FB
100
AcDbEntity
  8
0
  6
CONTINUOUS
 62
           7
100
AcDbLine
 10
-167.5
 20
265.0
 11
-157.5
 21
265.0
  0
LINE
  5
5FA
100
AcDbEntity
  8
0
  6
CONTINUOUS
 62
           7
100
AcDbLine
 10
-157.5
 20
265.0
 11
-157.5
 21
215.0
  0
LINE
  5
5F9
100
AcDbEntity
  8
0
  6
CONTINUOUS
 62
           7
100
AcDbLine
 10
-154.5
 20
215.0
 11
-144.5
 21
215.0
  0
LINE
  5
5F8
100
AcDbEntity
  8
0
  6
CONTINUOUS
 62
           7
100
AcDbLine
 10
-154.5
 20
265.0
 11
-154.5
 21
215.0
  0
LINE
  5
5F7
100
AcDbEntity
  8
0
  6
CONTINUOUS
 62
           7
100
AcDbLine
 10
-154.5
 20
265.0
 11
-144.5
 21
265.0
  0
LINE
  5
5F6
100
AcDbEntity
  8
0
  6
CONTINUOUS
 62
           7
100
AcDbLine
 10
-144.5
 20
265.0
 11
-144.5
 21
215.0
  0
LINE
  5
5F5
100
AcDbEntity
  8
0
  6
CONTINUOUS
 62
           7
100
AcDbLine
 10
-141.5
 20
215.0
 11
-131.5
 21
215.0
  0
LINE
  5
5F4
100
AcDbEntity
  8
0
  6
CONTINUOUS
 62
           7
100
AcDbLine
 10
-141.5
 20
265.0
 11
-141.5
 21
215.0
  0
LINE
  5
5F3
100
AcDbEntity
  8
0
  6
CONTINUOUS
 62
           7
100
AcDbLine
 10
-141.5
 20
265.0
 11
-131.5
 21
265.0
  0
LINE
  5
5F2
100
AcDbEntity
  8
0
  6
CONTINUOUS
 62
           7
100
AcDbLine
 10
-131.5
 20
265.0
 11
-131.5
 21
215.0
  0
LINE
  5
5F1
100
AcDbEntity
  8
0
  6
CONTINUOUS
 62
           7
100
AcDbLine
 10
-128.5
 20
215.0
 11
-118.5
 21
215.0
  0
LINE
  5
5F0
100
AcDbEntity
  8
0
  6
CONTINUOUS
 62
           7
100
AcDbLine
 10
-128.5
 20
265.0
 11
-128.5
 21
215.0
  0
LINE
  5
5EF
100
AcDbEntity
  8
0
  6
CONTINUOUS
 62
           7
100
AcDbLine
 10
-128.5
 20
265.0
 11
-118.5
 21
265.0
  0
LINE
  5
5EE
100
AcDbEntity
  8
0
  6
CONTINUOUS
 62
           7
100
AcDbLine
 10
-118.5
 20
265.0
 11
-118.5
 21
215.0
  0
LINE
  5
5ED
100
AcDbEntity
  8
0
  6
CONTINUOUS
 62
           7
100
AcDbLine
 10
-115.5
 20
215.0
 11
-105.5
 21
215.0
  0
LINE
  5
5EC
100
AcDbEntity
  8
0
  6
CONTINUOUS
 62
           7
100
AcDbLine
 10
-115.5
 20
265.0
 11
-115.5
 21
215.0
  0
LINE
  5
5EB
100
AcDbEntity
  8
0
  6
CONTINUOUS
 62
           7
100
AcDbLine
 10
-115.5
 20
265.0
 11
-105.5
 21
265.0
  0
LINE
  5
5EA
100
AcDbEntity
  8
0
  6
CONTINUOUS
 62
           7
100
AcDbLine
 10
-105.5
 20
265.0
 11
-105.5
 21
215.0
  0
LINE
  5
5E9
100
AcDbEntity
  8
0
  6
CONTINUOUS
 62
           7
100
AcDbLine
 10
-102.5
 20
215.0
 11
-92.5
 21
215.0
  0
LINE
  5
5E8
100
AcDbEntity
  8
0
  6
CONTINUOUS
 62
           7
100
AcDbLine
 10
-102.5
 20
265.0
 11
-102.5
 21
215.0
  0
LINE
  5
5E7
100
AcDbEntity
  8
0
  6
CONTINUOUS
 62
           7
100
AcDbLine
 10
-102.5
 20
265.0
 11
-92.5
 21
265.0
  0
LINE
  5
5E6
100
AcDbEntity
  8
0
  6
CONTINUOUS
 62
           7
100
AcDbLine
 10
-92.5
 20
265.0
 11
-92.5
 21
215.0
  0
LINE
  5
5E5
100
AcDbEntity
  8
0
  6
CONTINUOUS
 62
           7
100
AcDbLine
 10
-89.5
 20
215.0
 11
-79.5
 21
215.0
  0
LINE
  5
5E4
100
AcDbEntity
  8
0
  6
CONTINUOUS
 62
           7
100
AcDbLine
 10
-89.5
 20
265.0
 11
-89.5
 21
215.0
  0
LINE
  5
5E3
100
AcDbEntity
  8
0
  6
CONTINUOUS
 62
           7
100
AcDbLine
 10
-89.5
 20
265.0
 11
-79.5
 21
265.0
  0
LINE
  5
5E2
100
AcDbEntity
  8
0
  6
CONTINUOUS
 62
           7
100
AcDbLine
 10
-79.5
 20
265.0
 11
-79.5
 21
215.0
  0
LINE
  5
5E1
100
AcDbEntity
  8
0
  6
CONTINUOUS
 62
           7
100
AcDbLine
 10
-76.5
 20
215.0
 11
-66.5
 21
215.0
  0
LINE
  5
5E0
100
AcDbEntity
  8
0
  6
CONTINUOUS
 62
           7
100
AcDbLine
 10
-76.5
 20
265.0
 11
-76.5
 21
215.0
  0
LINE
  5
5DF
100
AcDbEntity
  8
0
  6
CONTINUOUS
 62
           7
100
AcDbLine
 10
-76.5
 20
265.0
 11
-66.5
 21
265.0
  0
LINE
  5
5DE
100
AcDbEntity
  8
0
  6
CONTINUOUS
 62
           7
100
AcDbLine
 10
-66.5
 20
265.0
 11
-66.5
 21
215.0
  0
LINE
  5
5DD
100
AcDbEntity
  8
0
  6
CONTINUOUS
 62
           7
100
AcDbLine
 10
-63.5
 20
215.0
 11
-53.5
 21
215.0
  0
LINE
  5
5DC
100
AcDbEntity
  8
0
  6
CONTINUOUS
 62
           7
100
AcDbLine
 10
-63.5
 20
265.0
 11
-63.5
 21
215.0
  0
LINE
  5
5DB
100
AcDbEntity
  8
0
  6
CONTINUOUS
 62
           7
100
AcDbLine
 10
-63.5
 20
265.0
 11
-53.5
 21
265.0
  0
LINE
  5
5DA
100
AcDbEntity
  8
0
  6
CONTINUOUS
 62
           7
100
AcDbLine
 10
-53.5
 20
265.0
 11
-53.5
 21
215.0
  0
LINE
  5
5D9
100
AcDbEntity
  8
0
  6
CONTINUOUS
 62
           7
100
AcDbLine
 10
-50.5
 20
215.0
 11
-40.5
 21
215.0
  0
LINE
  5
5D8
100
AcDbEntity
  8
0
  6
CONTINUOUS
 62
           7
100
AcDbLine
 10
-50.5
 20
265.0
 11
-50.5
 21
215.0
  0
LINE
  5
5D7
100
AcDbEntity
  8
0
  6
CONTINUOUS
 62
           7
100
AcDbLine
 10
-50.5
 20
265.0
 11
-40.5
 21
265.0
  0
LINE
  5
5D6
100
AcDbEntity
  8
0
  6
CONTINUOUS
 62
           7
100
AcDbLine
 10
-40.5
 20
265.0
 11
-40.5
 21
215.0
  0
LINE
  5
5D5
100
AcDbEntity
  8
0
  6
CONTINUOUS
 62
           7
100
AcDbLine
 10
-37.5
 20
215.0
 11
-27.5
 21
215.0
  0
LINE
  5
5D4
100
AcDbEntity
  8
0
  6
CONTINUOUS
 62
           7
100
AcDbLine
 10
-37.5
 20
265.0
 11
-37.5
 21
215.0
  0
LINE
  5
5D3
100
AcDbEntity
  8
0
  6
CONTINUOUS
 62
           7
100
AcDbLine
 10
-37.5
 20
265.0
 11
-27.5
 21
265.0
  0
LINE
  5
5D2
100
AcDbEntity
  8
0
  6
CONTINUOUS
 62
           7
100
AcDbLine
 10
-27.5
 20
265.0
 11
-27.5
 21
215.0
  0
LINE
  5
5D1
100
AcDbEntity
  8
0
  6
CONTINUOUS
 62
           7
100
AcDbLine
 10
-24.5
 20
215.0
 11
-14.5
 21
215.0
  0
LINE
  5
5D0
100
AcDbEntity
  8
0
  6
CONTINUOUS
 62
           7
100
AcDbLine
 10
-24.5
 20
265.0
 11
-24.5
 21
215.0
  0
LINE
  5
5CF
100
AcDbEntity
  8
0
  6
CONTINUOUS
 62
           7
100
AcDbLine
 10
-24.5
 20
265.0
 11
-14.5
 21
265.0
  0
LINE
  5
5CE
100
AcDbEntity
  8
0
  6
CONTINUOUS
 62
           7
100
AcDbLine
 10
-14.5
 20
265.0
 11
-14.5
 21
215.0
  0
LINE
  5
5CD
100
AcDbEntity
  8
0
  6
CONTINUOUS
 62
           7
100
AcDbLine
 10
-11.5
 20
215.0
 11
-1.5
 21
215.0
  0
LINE
  5
5CC
100
AcDbEntity
  8
0
  6
CONTINUOUS
 62
           7
100
AcDbLine
 10
-11.5
 20
265.0
 11
-11.5
 21
215.0
  0
LINE
  5
5CB
100
AcDbEntity
  8
0
  6
CONTINUOUS
 62
           7
100
AcDbLine
 10
-11.5
 20
265.0
 11
-1.5
 21
265.0
  0
LINE
  5
5CA
100
AcDbEntity
  8
0
  6
CONTINUOUS
 62
           7
100
AcDbLine
 10
-1.5
 20
265.0
 11
-1.5
 21
215.0
  0
LINE
  5
5C9
100
AcDbEntity
  8
0
  6
CONTINUOUS
 62
           7
100
AcDbLine
 10
1.5
 20
215.0
 11
11.5
 21
215.0
  0
LINE
  5
5C8
100
AcDbEntity
  8
0
  6
CONTINUOUS
 62
           7
100
AcDbLine
 10
1.5
 20
265.0
 11
11.5
 21
265.0
  0
LINE
  5
5C7
100
AcDbEntity
  8
0
  6
CONTINUOUS
 62
           7
100
AcDbLine
 10
11.5
 20
265.0
 11
11.5
 21
215.0
  0
LINE
  5
5C6
100
AcDbEntity
  8
0
  6
CONTINUOUS
 62
           7
100
AcDbLine
 10
14.5
 20
215.0
 11
24.5
 21
215.0
  0
LINE
  5
5C5
100
AcDbEntity
  8
0
  6
CONTINUOUS
 62
           7
100
AcDbLine
 10
14.5
 20
265.0
 11
14.5
 21
215.0
  0
LINE
  5
5C4
100
AcDbEntity
  8
0
  6
CONTINUOUS
 62
           7
100
AcDbLine
 10
1.5
 20
265.0
 11
1.5
 21
215.0
  0
LINE
  5
5C3
100
AcDbEntity
  8
0
  6
CONTINUOUS
 62
           7
100
AcDbLine
 10
14.5
 20
265.0
 11
24.5
 21
265.0
  0
LINE
  5
5C2
100
AcDbEntity
  8
0
  6
CONTINUOUS
 62
           7
100
AcDbLine
 10
24.5
 20
265.0
 11
24.5
 21
215.0
  0
LINE
  5
5C1
100
AcDbEntity
  8
0
  6
CONTINUOUS
 62
           7
100
AcDbLine
 10
27.5
 20
215.0
 11
37.5
 21
215.0
  0
LINE
  5
5C0
100
AcDbEntity
  8
0
  6
CONTINUOUS
 62
           7
100
AcDbLine
 10
27.5
 20
265.0
 11
27.5
 21
215.0
  0
LINE
  5
5BF
100
AcDbEntity
  8
0
  6
CONTINUOUS
 62
           7
100
AcDbLine
 10
27.5
 20
265.0
 11
37.5
 21
265.0
  0
LINE
  5
5BE
100
AcDbEntity
  8
0
  6
CONTINUOUS
 62
           7
100
AcDbLine
 10
37.5
 20
265.0
 11
37.5
 21
215.0
  0
LINE
  5
5BD
100
AcDbEntity
  8
0
  6
CONTINUOUS
 62
           7
100
AcDbLine
 10
40.5
 20
215.0
 11
50.5
 21
215.0
  0
LINE
  5
5BC
100
AcDbEntity
  8
0
  6
CONTINUOUS
 62
           7
100
AcDbLine
 10
40.5
 20
265.0
 11
40.5
 21
215.0
  0
LINE
  5
5BB
100
AcDbEntity
  8
0
  6
CONTINUOUS
 62
           7
100
AcDbLine
 10
40.5
 20
265.0
 11
50.5
 21
265.0
  0
LINE
  5
5BA
100
AcDbEntity
  8
0
  6
CONTINUOUS
 62
           7
100
AcDbLine
 10
50.5
 20
265.0
 11
50.5
 21
215.0
  0
LINE
  5
5B9
100
AcDbEntity
  8
0
  6
CONTINUOUS
 62
           7
100
AcDbLine
 10
53.5
 20
215.0
 11
63.5
 21
215.0
  0
LINE
  5
5B8
100
AcDbEntity
  8
0
  6
CONTINUOUS
 62
           7
100
AcDbLine
 10
53.5
 20
265.0
 11
53.5
 21
215.0
  0
LINE
  5
5B7
100
AcDbEntity
  8
0
  6
CONTINUOUS
 62
           7
100
AcDbLine
 10
53.5
 20
265.0
 11
63.5
 21
265.0
  0
LINE
  5
5B6
100
AcDbEntity
  8
0
  6
CONTINUOUS
 62
           7
100
AcDbLine
 10
63.5
 20
265.0
 11
63.5
 21
215.0
  0
LINE
  5
5B5
100
AcDbEntity
  8
0
  6
CONTINUOUS
 62
           7
100
AcDbLine
 10
66.5
 20
215.0
 11
76.5
 21
215.0
  0
LINE
  5
5B4
100
AcDbEntity
  8
0
  6
CONTINUOUS
 62
           7
100
AcDbLine
 10
66.5
 20
265.0
 11
66.5
 21
215.0
  0
LINE
  5
5B3
100
AcDbEntity
  8
0
  6
CONTINUOUS
 62
           7
100
AcDbLine
 10
66.5
 20
265.0
 11
76.5
 21
265.0
  0
LINE
  5
5B2
100
AcDbEntity
  8
0
  6
CONTINUOUS
 62
           7
100
AcDbLine
 10
76.5
 20
265.0
 11
76.5
 21
215.0
  0
LINE
  5
5B1
100
AcDbEntity
  8
0
  6
CONTINUOUS
 62
           7
100
AcDbLine
 10
79.5
 20
215.0
 11
89.5
 21
215.0
  0
LINE
  5
5B0
100
AcDbEntity
  8
0
  6
CONTINUOUS
 62
           7
100
AcDbLine
 10
79.5
 20
265.0
 11
79.5
 21
215.0
  0
LINE
  5
5AF
100
AcDbEntity
  8
0
  6
CONTINUOUS
 62
           7
100
AcDbLine
 10
79.5
 20
265.0
 11
89.5
 21
265.0
  0
LINE
  5
5AE
100
AcDbEntity
  8
0
  6
CONTINUOUS
 62
           7
100
AcDbLine
 10
89.5
 20
265.0
 11
89.5
 21
215.0
  0
LINE
  5
5AD
100
AcDbEntity
  8
0
  6
CONTINUOUS
 62
           7
100
AcDbLine
 10
92.5
 20
215.0
 11
102.5
 21
215.0
  0
LINE
  5
5AC
100
AcDbEntity
  8
0
  6
CONTINUOUS
 62
           7
100
AcDbLine
 10
92.5
 20
265.0
 11
92.5
 21
215.0
  0
LINE
  5
5AB
100
AcDbEntity
  8
0
  6
CONTINUOUS
 62
           7
100
AcDbLine
 10
92.5
 20
265.0
 11
102.5
 21
265.0
  0
LINE
  5
5AA
100
AcDbEntity
  8
0
  6
CONTINUOUS
 62
           7
100
AcDbLine
 10
102.5
 20
265.0
 11
102.5
 21
215.0
  0
LINE
  5
5A9
100
AcDbEntity
  8
0
  6
CONTINUOUS
 62
           7
100
AcDbLine
 10
105.5
 20
215.0
 11
115.5
 21
215.0
  0
LINE
  5
5A8
100
AcDbEntity
  8
0
  6
CONTINUOUS
 62
           7
100
AcDbLine
 10
105.5
 20
265.0
 11
105.5
 21
215.0
  0
LINE
  5
5A7
100
AcDbEntity
  8
0
  6
CONTINUOUS
 62
           7
100
AcDbLine
 10
105.5
 20
265.0
 11
115.5
 21
265.0
  0
LINE
  5
5A6
100
AcDbEntity
  8
0
  6
CONTINUOUS
 62
           7
100
AcDbLine
 10
115.5
 20
265.0
 11
115.5
 21
215.0
  0
LINE
  5
5A5
100
AcDbEntity
  8
0
  6
CONTINUOUS
 62
           7
100
AcDbLine
 10
118.5
 20
215.0
 11
128.5
 21
215.0
  0
LINE
  5
5A4
100
AcDbEntity
  8
0
  6
CONTINUOUS
 62
           7
100
AcDbLine
 10
118.5
 20
265.0
 11
118.5
 21
215.0
  0
LINE
  5
5A3
100
AcDbEntity
  8
0
  6
CONTINUOUS
 62
           7
100
AcDbLine
 10
118.5
 20
265.0
 11
128.5
 21
265.0
  0
LINE
  5
5A2
100
AcDbEntity
  8
0
  6
CONTINUOUS
 62
           7
100
AcDbLine
 10
128.5
 20
265.0
 11
128.5
 21
215.0
  0
LINE
  5
5A1
100
AcDbEntity
  8
0
  6
CONTINUOUS
 62
           7
100
AcDbLine
 10
131.5
 20
215.0
 11
141.5
 21
215.0
  0
LINE
  5
5A0
100
AcDbEntity
  8
0
  6
CONTINUOUS
 62
           7
100
AcDbLine
 10
131.5
 20
265.0
 11
131.5
 21
215.0
  0
LINE
  5
59F
100
AcDbEntity
  8
0
  6
CONTINUOUS
 62
           7
100
AcDbLine
 10
131.5
 20
265.0
 11
141.5
 21
265.0
  0
LINE
  5
59E
100
AcDbEntity
  8
0
  6
CONTINUOUS
 62
           7
100
AcDbLine
 10
141.5
 20
265.0
 11
141.5
 21
215.0
  0
LINE
  5
59D
100
AcDbEntity
  8
0
  6
CONTINUOUS
 62
           7
100
AcDbLine
 10
144.5
 20
215.0
 11
154.5
 21
215.0
  0
LINE
  5
59C
100
AcDbEntity
  8
0
  6
CONTINUOUS
 62
           7
100
AcDbLine
 10
144.5
 20
265.0
 11
144.5
 21
215.0
  0
LINE
  5
59B
100
AcDbEntity
  8
0
  6
CONTINUOUS
 62
           7
100
AcDbLine
 10
144.5
 20
265.0
 11
154.5
 21
265.0
  0
LINE
  5
59A
100
AcDbEntity
  8
0
  6
CONTINUOUS
 62
           7
100
AcDbLine
 10
154.5
 20
265.0
 11
154.5
 21
215.0
  0
LINE
  5
599
100
AcDbEntity
  8
0
  6
CONTINUOUS
 62
           7
100
AcDbLine
 10
157.5
 20
215.0
 11
167.5
 21
215.0
  0
LINE
  5
598
100
AcDbEntity
  8
0
  6
CONTINUOUS
 62
           7
100
AcDbLine
 10
157.5
 20
265.0
 11
157.5
 21
215.0
  0
LINE
  5
597
100
AcDbEntity
  8
0
  6
CONTINUOUS
 62
           7
100
AcDbLine
 10
157.5
 20
265.0
 11
167.5
 21
265.0
  0
LINE
  5
596
100
AcDbEntity
  8
0
  6
CONTINUOUS
 62
           7
100
AcDbLine
 10
167.5
 20
265.0
 11
167.5
 21
215.0
  0
LINE
  5
595
100
AcDbEntity
  8
0
  6
CONTINUOUS
 62
           7
100
AcDbLine
 10
170.5
 20
215.0
 11
180.5
 21
215.0
  0
LINE
  5
594
100
AcDbEntity
  8
0
  6
CONTINUOUS
 62
           7
100
AcDbLine
 10
170.5
 20
265.0
 11
170.5
 21
215.0
  0
LINE
  5
593
100
AcDbEntity
  8
0
  6
CONTINUOUS
 62
           7
100
AcDbLine
 10
170.5
 20
265.0
 11
180.5
 21
265.0
  0
LINE
  5
592
100
AcDbEntity
  8
0
  6
CONTINUOUS
 62
           7
100
AcDbLine
 10
180.5
 20
265.0
 11
180.5
 21
215.0
  0
LINE
  5
591
100
AcDbEntity
  8
0
  6
CONTINUOUS
 62
           7
100
AcDbLine
 10
183.5
 20
215.0
 11
193.5
 21
215.0
  0
LINE
  5
590
100
AcDbEntity
  8
0
  6
CONTINUOUS
 62
           7
100
AcDbLine
 10
183.5
 20
265.0
 11
183.5
 21
215.0
  0
LINE
  5
58F
100
AcDbEntity
  8
0
  6
CONTINUOUS
 62
           7
100
AcDbLine
 10
183.5
 20
265.0
 11
193.5
 21
265.0
  0
LINE
  5
58E
100
AcDbEntity
  8
0
  6
CONTINUOUS
 62
           7
100
AcDbLine
 10
193.5
 20
265.0
 11
193.5
 21
215.0
  0
LINE
  5
58D
100
AcDbEntity
  8
0
  6
CONTINUOUS
 62
           7
100
AcDbLine
 10
196.5
 20
215.0
 11
206.5
 21
215.0
  0
LINE
  5
58C
100
AcDbEntity
  8
0
  6
CONTINUOUS
 62
           7
100
AcDbLine
 10
196.5
 20
265.0
 11
196.5
 21
215.0
  0
LINE
  5
58B
100
AcDbEntity
  8
0
  6
CONTINUOUS
 62
           7
100
AcDbLine
 10
196.5
 20
265.0
 11
206.5
 21
265.0
  0
LINE
  5
58A
100
AcDbEntity
  8
0
  6
CONTINUOUS
 62
           7
100
AcDbLine
 10
206.5
 20
265.0
 11
206.5
 21
215.0
  0
LINE
  5
589
100
AcDbEntity
  8
0
  6
CONTINUOUS
 62
           7
100
AcDbLine
 10
209.5
 20
215.0
 11
219.5
 21
215.0
  0
LINE
  5
588
100
AcDbEntity
  8
0
  6
CONTINUOUS
 62
           7
100
AcDbLine
 10
209.5
 20
265.0
 11
209.5
 21
215.0
  0
LINE
  5
587
100
AcDbEntity
  8
0
  6
CONTINUOUS
 62
           7
100
AcDbLine
 10
209.5
 20
265.0
 11
219.5
 21
265.0
  0
LINE
  5
586
100
AcDbEntity
  8
0
  6
CONTINUOUS
 62
           7
100
AcDbLine
 10
219.5
 20
265.0
 11
219.5
 21
215.0
  0
LINE
  5
585
100
AcDbEntity
  8
0
  6
CONTINUOUS
 62
           7
100
AcDbLine
 10
222.5
 20
215.0
 11
232.5
 21
215.0
  0
LINE
  5
584
100
AcDbEntity
  8
0
  6
CONTINUOUS
 62
           7
100
AcDbLine
 10
222.5
 20
265.0
 11
222.5
 21
215.0
  0
LINE
  5
583
100
AcDbEntity
  8
0
  6
CONTINUOUS
 62
           7
100
AcDbLine
 10
222.5
 20
265.0
 11
232.5
 21
265.0
  0
LINE
  5
582
100
AcDbEntity
  8
0
  6
CONTINUOUS
 62
           7
100
AcDbLine
 10
232.5
 20
265.0
 11
232.5
 21
215.0
  0
LINE
  5
581
100
AcDbEntity
  8
0
  6
CONTINUOUS
 62
           7
100
AcDbLine
 10
235.5
 20
215.0
 11
245.5
 21
215.0
  0
LINE
  5
580
100
AcDbEntity
  8
0
  6
CONTINUOUS
 62
           7
100
AcDbLine
 10
235.5
 20
265.0
 11
235.5
 21
215.0
  0
LINE
  5
57F
100
AcDbEntity
  8
0
  6
CONTINUOUS
 62
           7
100
AcDbLine
 10
235.5
 20
265.0
 11
245.5
 21
265.0
  0
LINE
  5
57E
100
AcDbEntity
  8
0
  6
CONTINUOUS
 62
           7
100
AcDbLine
 10
245.5
 20
265.0
 11
245.5
 21
215.0
  0
LINE
  5
57D
100
AcDbEntity
  8
0
  6
CONTINUOUS
 62
           7
100
AcDbLine
 10
248.5
 20
215.0
 11
258.5
 21
215.0
  0
LINE
  5
57C
100
AcDbEntity
  8
0
  6
CONTINUOUS
 62
           7
100
AcDbLine
 10
248.5
 20
265.0
 11
248.5
 21
215.0
  0
LINE
  5
57B
100
AcDbEntity
  8
0
  6
CONTINUOUS
 62
           7
100
AcDbLine
 10
248.5
 20
265.0
 11
258.5
 21
265.0
  0
LINE
  5
57A
100
AcDbEntity
  8
0
  6
CONTINUOUS
 62
           7
100
AcDbLine
 10
258.5
 20
265.0
 11
258.5
 21
215.0
  0
LINE
  5
579
100
AcDbEntity
  8
0
  6
CONTINUOUS
 62
           7
100
AcDbLine
 10
-193.5
 20
155.0
 11
-183.5
 21
155.0
  0
LINE
  5
578
100
AcDbEntity
  8
0
  6
CONTINUOUS
 62
           7
100
AcDbLine
 10
-193.5
 20
205.0
 11
-193.5
 21
155.0
  0
LINE
  5
577
100
AcDbEntity
  8
0
  6
CONTINUOUS
 62
           7
100
AcDbLine
 10
-206.5
 20
205.0
 11
-206.5
 21
155.0
  0
LINE
  5
576
100
AcDbEntity
  8
0
  6
CONTINUOUS
 62
           7
100
AcDbLine
 10
-206.5
 20
155.0
 11
-196.5
 21
155.0
  0
LINE
  5
575
100
AcDbEntity
  8
0
  6
CONTINUOUS
 62
           7
100
AcDbLine
 10
-206.5
 20
205.0
 11
-196.5
 21
205.0
  0
LINE
  5
574
100
AcDbEntity
  8
0
  6
CONTINUOUS
 62
           7
100
AcDbLine
 10
-196.5
 20
205.0
 11
-196.5
 21
155.0
  0
LINE
  5
573
100
AcDbEntity
  8
0
  6
CONTINUOUS
 62
           7
100
AcDbLine
 10
-209.5
 20
205.0
 11
-209.5
 21
155.0
  0
LINE
  5
572
100
AcDbEntity
  8
0
  6
CONTINUOUS
 62
           7
100
AcDbLine
 10
-219.5
 20
205.0
 11
-209.5
 21
205.0
  0
LINE
  5
571
100
AcDbEntity
  8
0
  6
CONTINUOUS
 62
           7
100
AcDbLine
 10
-219.5
 20
155.0
 11
-209.5
 21
155.0
  0
LINE
  5
570
100
AcDbEntity
  8
0
  6
CONTINUOUS
 62
           7
100
AcDbLine
 10
-219.5
 20
205.0
 11
-219.5
 21
155.0
  0
LINE
  5
56F
100
AcDbEntity
  8
0
  6
CONTINUOUS
 62
           7
100
AcDbLine
 10
-232.5
 20
205.0
 11
-232.5
 21
155.0
  0
LINE
  5
56E
100
AcDbEntity
  8
0
  6
CONTINUOUS
 62
           7
100
AcDbLine
 10
-232.5
 20
155.0
 11
-222.5
 21
155.0
  0
LINE
  5
56D
100
AcDbEntity
  8
0
  6
CONTINUOUS
 62
           7
100
AcDbLine
 10
-232.5
 20
205.0
 11
-222.5
 21
205.0
  0
LINE
  5
56C
100
AcDbEntity
  8
0
  6
CONTINUOUS
 62
           7
100
AcDbLine
 10
-222.5
 20
205.0
 11
-222.5
 21
155.0
  0
LINE
  5
56B
100
AcDbEntity
  8
0
  6
CONTINUOUS
 62
           7
100
AcDbLine
 10
-235.5
 20
205.0
 11
-235.5
 21
155.0
  0
LINE
  5
56A
100
AcDbEntity
  8
0
  6
CONTINUOUS
 62
           7
100
AcDbLine
 10
-245.5
 20
205.0
 11
-235.5
 21
205.0
  0
LINE
  5
569
100
AcDbEntity
  8
0
  6
CONTINUOUS
 62
           7
100
AcDbLine
 10
-245.5
 20
155.0
 11
-235.5
 21
155.0
  0
LINE
  5
568
100
AcDbEntity
  8
0
  6
CONTINUOUS
 62
           7
100
AcDbLine
 10
-245.5
 20
205.0
 11
-245.5
 21
155.0
  0
LINE
  5
567
100
AcDbEntity
  8
0
  6
CONTINUOUS
 62
           7
100
AcDbLine
 10
-193.5
 20
205.0
 11
-183.5
 21
205.0
  0
LINE
  5
566
100
AcDbEntity
  8
0
  6
CONTINUOUS
 62
           7
100
AcDbLine
 10
-183.5
 20
205.0
 11
-183.5
 21
155.0
  0
LINE
  5
565
100
AcDbEntity
  8
0
  6
CONTINUOUS
 62
           7
100
AcDbLine
 10
-180.5
 20
155.0
 11
-170.5
 21
155.0
  0
LINE
  5
564
100
AcDbEntity
  8
0
  6
CONTINUOUS
 62
           7
100
AcDbLine
 10
-180.5
 20
205.0
 11
-180.5
 21
155.0
  0
LINE
  5
563
100
AcDbEntity
  8
0
  6
CONTINUOUS
 62
           7
100
AcDbLine
 10
-180.5
 20
205.0
 11
-170.5
 21
205.0
  0
LINE
  5
562
100
AcDbEntity
  8
0
  6
CONTINUOUS
 62
           7
100
AcDbLine
 10
-170.5
 20
205.0
 11
-170.5
 21
155.0
  0
LINE
  5
561
100
AcDbEntity
  8
0
  6
CONTINUOUS
 62
           7
100
AcDbLine
 10
-167.5
 20
155.0
 11
-157.5
 21
155.0
  0
LINE
  5
560
100
AcDbEntity
  8
0
  6
CONTINUOUS
 62
           7
100
AcDbLine
 10
-167.5
 20
205.0
 11
-167.5
 21
155.0
  0
LINE
  5
55F
100
AcDbEntity
  8
0
  6
CONTINUOUS
 62
           7
100
AcDbLine
 10
-167.5
 20
205.0
 11
-157.5
 21
205.0
  0
LINE
  5
55E
100
AcDbEntity
  8
0
  6
CONTINUOUS
 62
           7
100
AcDbLine
 10
-157.5
 20
205.0
 11
-157.5
 21
155.0
  0
LINE
  5
55D
100
AcDbEntity
  8
0
  6
CONTINUOUS
 62
           7
100
AcDbLine
 10
-154.5
 20
155.0
 11
-144.5
 21
155.0
  0
LINE
  5
55C
100
AcDbEntity
  8
0
  6
CONTINUOUS
 62
           7
100
AcDbLine
 10
-154.5
 20
205.0
 11
-154.5
 21
155.0
  0
LINE
  5
55B
100
AcDbEntity
  8
0
  6
CONTINUOUS
 62
           7
100
AcDbLine
 10
-154.5
 20
205.0
 11
-144.5
 21
205.0
  0
LINE
  5
55A
100
AcDbEntity
  8
0
  6
CONTINUOUS
 62
           7
100
AcDbLine
 10
-144.5
 20
205.0
 11
-144.5
 21
155.0
  0
LINE
  5
559
100
AcDbEntity
  8
0
  6
CONTINUOUS
 62
           7
100
AcDbLine
 10
-141.5
 20
155.0
 11
-131.5
 21
155.0
  0
LINE
  5
558
100
AcDbEntity
  8
0
  6
CONTINUOUS
 62
           7
100
AcDbLine
 10
-141.5
 20
205.0
 11
-141.5
 21
155.0
  0
LINE
  5
557
100
AcDbEntity
  8
0
  6
CONTINUOUS
 62
           7
100
AcDbLine
 10
-141.5
 20
205.0
 11
-131.5
 21
205.0
  0
LINE
  5
556
100
AcDbEntity
  8
0
  6
CONTINUOUS
 62
           7
100
AcDbLine
 10
-131.5
 20
205.0
 11
-131.5
 21
155.0
  0
LINE
  5
555
100
AcDbEntity
  8
0
  6
CONTINUOUS
 62
           7
100
AcDbLine
 10
-128.5
 20
155.0
 11
-118.5
 21
155.0
  0
LINE
  5
554
100
AcDbEntity
  8
0
  6
CONTINUOUS
 62
           7
100
AcDbLine
 10
-128.5
 20
205.0
 11
-128.5
 21
155.0
  0
LINE
  5
553
100
AcDbEntity
  8
0
  6
CONTINUOUS
 62
           7
100
AcDbLine
 10
-128.5
 20
205.0
 11
-118.5
 21
205.0
  0
LINE
  5
552
100
AcDbEntity
  8
0
  6
CONTINUOUS
 62
           7
100
AcDbLine
 10
-118.5
 20
205.0
 11
-118.5
 21
155.0
  0
LINE
  5
551
100
AcDbEntity
  8
0
  6
CONTINUOUS
 62
           7
100
AcDbLine
 10
-115.5
 20
155.0
 11
-105.5
 21
155.0
  0
LINE
  5
550
100
AcDbEntity
  8
0
  6
CONTINUOUS
 62
           7
100
AcDbLine
 10
-115.5
 20
205.0
 11
-115.5
 21
155.0
  0
LINE
  5
54F
100
AcDbEntity
  8
0
  6
CONTINUOUS
 62
           7
100
AcDbLine
 10
-115.5
 20
205.0
 11
-105.5
 21
205.0
  0
LINE
  5
54E
100
AcDbEntity
  8
0
  6
CONTINUOUS
 62
           7
100
AcDbLine
 10
-105.5
 20
205.0
 11
-105.5
 21
155.0
  0
LINE
  5
54D
100
AcDbEntity
  8
0
  6
CONTINUOUS
 62
           7
100
AcDbLine
 10
-102.5
 20
155.0
 11
-92.5
 21
155.0
  0
LINE
  5
54C
100
AcDbEntity
  8
0
  6
CONTINUOUS
 62
           7
100
AcDbLine
 10
-102.5
 20
205.0
 11
-102.5
 21
155.0
  0
LINE
  5
54B
100
AcDbEntity
  8
0
  6
CONTINUOUS
 62
           7
100
AcDbLine
 10
-102.5
 20
205.0
 11
-92.5
 21
205.0
  0
LINE
  5
54A
100
AcDbEntity
  8
0
  6
CONTINUOUS
 62
           7
100
AcDbLine
 10
-92.5
 20
205.0
 11
-92.5
 21
155.0
  0
LINE
  5
549
100
AcDbEntity
  8
0
  6
CONTINUOUS
 62
           7
100
AcDbLine
 10
-89.5
 20
155.0
 11
-79.5
 21
155.0
  0
LINE
  5
548
100
AcDbEntity
  8
0
  6
CONTINUOUS
 62
           7
100
AcDbLine
 10
-89.5
 20
205.0
 11
-89.5
 21
155.0
  0
LINE
  5
547
100
AcDbEntity
  8
0
  6
CONTINUOUS
 62
           7
100
AcDbLine
 10
-89.5
 20
205.0
 11
-79.5
 21
205.0
  0
LINE
  5
546
100
AcDbEntity
  8
0
  6
CONTINUOUS
 62
           7
100
AcDbLine
 10
-79.5
 20
205.0
 11
-79.5
 21
155.0
  0
LINE
  5
545
100
AcDbEntity
  8
0
  6
CONTINUOUS
 62
           7
100
AcDbLine
 10
-76.5
 20
155.0
 11
-66.5
 21
155.0
  0
LINE
  5
544
100
AcDbEntity
  8
0
  6
CONTINUOUS
 62
           7
100
AcDbLine
 10
-76.5
 20
205.0
 11
-76.5
 21
155.0
  0
LINE
  5
543
100
AcDbEntity
  8
0
  6
CONTINUOUS
 62
           7
100
AcDbLine
 10
-76.5
 20
205.0
 11
-66.5
 21
205.0
  0
LINE
  5
542
100
AcDbEntity
  8
0
  6
CONTINUOUS
 62
           7
100
AcDbLine
 10
-66.5
 20
205.0
 11
-66.5
 21
155.0
  0
LINE
  5
541
100
AcDbEntity
  8
0
  6
CONTINUOUS
 62
           7
100
AcDbLine
 10
-63.5
 20
155.0
 11
-53.5
 21
155.0
  0
LINE
  5
540
100
AcDbEntity
  8
0
  6
CONTINUOUS
 62
           7
100
AcDbLine
 10
-63.5
 20
205.0
 11
-63.5
 21
155.0
  0
LINE
  5
53F
100
AcDbEntity
  8
0
  6
CONTINUOUS
 62
           7
100
AcDbLine
 10
-63.5
 20
205.0
 11
-53.5
 21
205.0
  0
LINE
  5
53E
100
AcDbEntity
  8
0
  6
CONTINUOUS
 62
           7
100
AcDbLine
 10
-53.5
 20
205.0
 11
-53.5
 21
155.0
  0
LINE
  5
53D
100
AcDbEntity
  8
0
  6
CONTINUOUS
 62
           7
100
AcDbLine
 10
-50.5
 20
155.0
 11
-40.5
 21
155.0
  0
LINE
  5
53C
100
AcDbEntity
  8
0
  6
CONTINUOUS
 62
           7
100
AcDbLine
 10
-50.5
 20
205.0
 11
-50.5
 21
155.0
  0
LINE
  5
53B
100
AcDbEntity
  8
0
  6
CONTINUOUS
 62
           7
100
AcDbLine
 10
-50.5
 20
205.0
 11
-40.5
 21
205.0
  0
LINE
  5
53A
100
AcDbEntity
  8
0
  6
CONTINUOUS
 62
           7
100
AcDbLine
 10
-40.5
 20
205.0
 11
-40.5
 21
155.0
  0
LINE
  5
539
100
AcDbEntity
  8
0
  6
CONTINUOUS
 62
           7
100
AcDbLine
 10
-37.5
 20
155.0
 11
-27.5
 21
155.0
  0
LINE
  5
538
100
AcDbEntity
  8
0
  6
CONTINUOUS
 62
           7
100
AcDbLine
 10
-37.5
 20
205.0
 11
-37.5
 21
155.0
  0
LINE
  5
537
100
AcDbEntity
  8
0
  6
CONTINUOUS
 62
           7
100
AcDbLine
 10
-37.5
 20
205.0
 11
-27.5
 21
205.0
  0
LINE
  5
536
100
AcDbEntity
  8
0
  6
CONTINUOUS
 62
           7
100
AcDbLine
 10
-27.5
 20
205.0
 11
-27.5
 21
155.0
  0
LINE
  5
535
100
AcDbEntity
  8
0
  6
CONTINUOUS
 62
           7
100
AcDbLine
 10
-24.5
 20
155.0
 11
-14.5
 21
155.0
  0
LINE
  5
534
100
AcDbEntity
  8
0
  6
CONTINUOUS
 62
           7
100
AcDbLine
 10
-24.5
 20
205.0
 11
-24.5
 21
155.0
  0
LINE
  5
533
100
AcDbEntity
  8
0
  6
CONTINUOUS
 62
           7
100
AcDbLine
 10
-24.5
 20
205.0
 11
-14.5
 21
205.0
  0
LINE
  5
532
100
AcDbEntity
  8
0
  6
CONTINUOUS
 62
           7
100
AcDbLine
 10
-14.5
 20
205.0
 11
-14.5
 21
155.0
  0
LINE
  5
531
100
AcDbEntity
  8
0
  6
CONTINUOUS
 62
           7
100
AcDbLine
 10
-11.5
 20
155.0
 11
-1.5
 21
155.0
  0
LINE
  5
530
100
AcDbEntity
  8
0
  6
CONTINUOUS
 62
           7
100
AcDbLine
 10
-11.5
 20
205.0
 11
-11.5
 21
155.0
  0
LINE
  5
52F
100
AcDbEntity
  8
0
  6
CONTINUOUS
 62
           7
100
AcDbLine
 10
-11.5
 20
205.0
 11
-1.5
 21
205.0
  0
LINE
  5
52E
100
AcDbEntity
  8
0
  6
CONTINUOUS
 62
           7
100
AcDbLine
 10
-1.5
 20
205.0
 11
-1.5
 21
155.0
  0
LINE
  5
52D
100
AcDbEntity
  8
0
  6
CONTINUOUS
 62
           7
100
AcDbLine
 10
1.5
 20
155.0
 11
11.5
 21
155.0
  0
LINE
  5
52C
100
AcDbEntity
  8
0
  6
CONTINUOUS
 62
           7
100
AcDbLine
 10
1.5
 20
205.0
 11
11.5
 21
205.0
  0
LINE
  5
52B
100
AcDbEntity
  8
0
  6
CONTINUOUS
 62
           7
100
AcDbLine
 10
11.5
 20
205.0
 11
11.5
 21
155.0
  0
LINE
  5
52A
100
AcDbEntity
  8
0
  6
CONTINUOUS
 62
           7
100
AcDbLine
 10
14.5
 20
155.0
 11
24.5
 21
155.0
  0
LINE
  5
529
100
AcDbEntity
  8
0
  6
CONTINUOUS
 62
           7
100
AcDbLine
 10
14.5
 20
205.0
 11
14.5
 21
155.0
  0
LINE
  5
528
100
AcDbEntity
  8
0
  6
CONTINUOUS
 62
           7
100
AcDbLine
 10
1.5
 20
205.0
 11
1.5
 21
155.0
  0
LINE
  5
527
100
AcDbEntity
  8
0
  6
CONTINUOUS
 62
           7
100
AcDbLine
 10
14.5
 20
205.0
 11
24.5
 21
205.0
  0
LINE
  5
526
100
AcDbEntity
  8
0
  6
CONTINUOUS
 62
           7
100
AcDbLine
 10
24.5
 20
205.0
 11
24.5
 21
155.0
  0
LINE
  5
525
100
AcDbEntity
  8
0
  6
CONTINUOUS
 62
           7
100
AcDbLine
 10
27.5
 20
155.0
 11
37.5
 21
155.0
  0
LINE
  5
524
100
AcDbEntity
  8
0
  6
CONTINUOUS
 62
           7
100
AcDbLine
 10
27.5
 20
205.0
 11
27.5
 21
155.0
  0
LINE
  5
523
100
AcDbEntity
  8
0
  6
CONTINUOUS
 62
           7
100
AcDbLine
 10
27.5
 20
205.0
 11
37.5
 21
205.0
  0
LINE
  5
522
100
AcDbEntity
  8
0
  6
CONTINUOUS
 62
           7
100
AcDbLine
 10
37.5
 20
205.0
 11
37.5
 21
155.0
  0
LINE
  5
521
100
AcDbEntity
  8
0
  6
CONTINUOUS
 62
           7
100
AcDbLine
 10
40.5
 20
155.0
 11
50.5
 21
155.0
  0
LINE
  5
520
100
AcDbEntity
  8
0
  6
CONTINUOUS
 62
           7
100
AcDbLine
 10
40.5
 20
205.0
 11
40.5
 21
155.0
  0
LINE
  5
51F
100
AcDbEntity
  8
0
  6
CONTINUOUS
 62
           7
100
AcDbLine
 10
40.5
 20
205.0
 11
50.5
 21
205.0
  0
LINE
  5
51E
100
AcDbEntity
  8
0
  6
CONTINUOUS
 62
           7
100
AcDbLine
 10
50.5
 20
205.0
 11
50.5
 21
155.0
  0
LINE
  5
51D
100
AcDbEntity
  8
0
  6
CONTINUOUS
 62
           7
100
AcDbLine
 10
53.5
 20
155.0
 11
63.5
 21
155.0
  0
LINE
  5
51C
100
AcDbEntity
  8
0
  6
CONTINUOUS
 62
           7
100
AcDbLine
 10
53.5
 20
205.0
 11
53.5
 21
155.0
  0
LINE
  5
51B
100
AcDbEntity
  8
0
  6
CONTINUOUS
 62
           7
100
AcDbLine
 10
53.5
 20
205.0
 11
63.5
 21
205.0
  0
LINE
  5
51A
100
AcDbEntity
  8
0
  6
CONTINUOUS
 62
           7
100
AcDbLine
 10
63.5
 20
205.0
 11
63.5
 21
155.0
  0
LINE
  5
519
100
AcDbEntity
  8
0
  6
CONTINUOUS
 62
           7
100
AcDbLine
 10
66.5
 20
155.0
 11
76.5
 21
155.0
  0
LINE
  5
518
100
AcDbEntity
  8
0
  6
CONTINUOUS
 62
           7
100
AcDbLine
 10
66.5
 20
205.0
 11
66.5
 21
155.0
  0
LINE
  5
517
100
AcDbEntity
  8
0
  6
CONTINUOUS
 62
           7
100
AcDbLine
 10
66.5
 20
205.0
 11
76.5
 21
205.0
  0
LINE
  5
516
100
AcDbEntity
  8
0
  6
CONTINUOUS
 62
           7
100
AcDbLine
 10
76.5
 20
205.0
 11
76.5
 21
155.0
  0
LINE
  5
515
100
AcDbEntity
  8
0
  6
CONTINUOUS
 62
           7
100
AcDbLine
 10
79.5
 20
155.0
 11
89.5
 21
155.0
  0
LINE
  5
514
100
AcDbEntity
  8
0
  6
CONTINUOUS
 62
           7
100
AcDbLine
 10
79.5
 20
205.0
 11
79.5
 21
155.0
  0
LINE
  5
513
100
AcDbEntity
  8
0
  6
CONTINUOUS
 62
           7
100
AcDbLine
 10
79.5
 20
205.0
 11
89.5
 21
205.0
  0
LINE
  5
512
100
AcDbEntity
  8
0
  6
CONTINUOUS
 62
           7
100
AcDbLine
 10
89.5
 20
205.0
 11
89.5
 21
155.0
  0
LINE
  5
511
100
AcDbEntity
  8
0
  6
CONTINUOUS
 62
           7
100
AcDbLine
 10
92.5
 20
155.0
 11
102.5
 21
155.0
  0
LINE
  5
510
100
AcDbEntity
  8
0
  6
CONTINUOUS
 62
           7
100
AcDbLine
 10
92.5
 20
205.0
 11
92.5
 21
155.0
  0
LINE
  5
50F
100
AcDbEntity
  8
0
  6
CONTINUOUS
 62
           7
100
AcDbLine
 10
92.5
 20
205.0
 11
102.5
 21
205.0
  0
LINE
  5
50E
100
AcDbEntity
  8
0
  6
CONTINUOUS
 62
           7
100
AcDbLine
 10
102.5
 20
205.0
 11
102.5
 21
155.0
  0
LINE
  5
50D
100
AcDbEntity
  8
0
  6
CONTINUOUS
 62
           7
100
AcDbLine
 10
105.5
 20
155.0
 11
115.5
 21
155.0
  0
LINE
  5
50C
100
AcDbEntity
  8
0
  6
CONTINUOUS
 62
           7
100
AcDbLine
 10
105.5
 20
205.0
 11
105.5
 21
155.0
  0
LINE
  5
50B
100
AcDbEntity
  8
0
  6
CONTINUOUS
 62
           7
100
AcDbLine
 10
105.5
 20
205.0
 11
115.5
 21
205.0
  0
LINE
  5
50A
100
AcDbEntity
  8
0
  6
CONTINUOUS
 62
           7
100
AcDbLine
 10
115.5
 20
205.0
 11
115.5
 21
155.0
  0
LINE
  5
509
100
AcDbEntity
  8
0
  6
CONTINUOUS
 62
           7
100
AcDbLine
 10
118.5
 20
155.0
 11
128.5
 21
155.0
  0
LINE
  5
508
100
AcDbEntity
  8
0
  6
CONTINUOUS
 62
           7
100
AcDbLine
 10
118.5
 20
205.0
 11
118.5
 21
155.0
  0
LINE
  5
507
100
AcDbEntity
  8
0
  6
CONTINUOUS
 62
           7
100
AcDbLine
 10
118.5
 20
205.0
 11
128.5
 21
205.0
  0
LINE
  5
506
100
AcDbEntity
  8
0
  6
CONTINUOUS
 62
           7
100
AcDbLine
 10
128.5
 20
205.0
 11
128.5
 21
155.0
  0
LINE
  5
505
100
AcDbEntity
  8
0
  6
CONTINUOUS
 62
           7
100
AcDbLine
 10
131.5
 20
155.0
 11
141.5
 21
155.0
  0
LINE
  5
504
100
AcDbEntity
  8
0
  6
CONTINUOUS
 62
           7
100
AcDbLine
 10
131.5
 20
205.0
 11
131.5
 21
155.0
  0
LINE
  5
503
100
AcDbEntity
  8
0
  6
CONTINUOUS
 62
           7
100
AcDbLine
 10
131.5
 20
205.0
 11
141.5
 21
205.0
  0
LINE
  5
502
100
AcDbEntity
  8
0
  6
CONTINUOUS
 62
           7
100
AcDbLine
 10
141.5
 20
205.0
 11
141.5
 21
155.0
  0
LINE
  5
501
100
AcDbEntity
  8
0
  6
CONTINUOUS
 62
           7
100
AcDbLine
 10
144.5
 20
155.0
 11
154.5
 21
155.0
  0
LINE
  5
500
100
AcDbEntity
  8
0
  6
CONTINUOUS
 62
           7
100
AcDbLine
 10
144.5
 20
205.0
 11
144.5
 21
155.0
  0
LINE
  5
4FF
100
AcDbEntity
  8
0
  6
CONTINUOUS
 62
           7
100
AcDbLine
 10
144.5
 20
205.0
 11
154.5
 21
205.0
  0
LINE
  5
4FE
100
AcDbEntity
  8
0
  6
CONTINUOUS
 62
           7
100
AcDbLine
 10
154.5
 20
205.0
 11
154.5
 21
155.0
  0
LINE
  5
4FD
100
AcDbEntity
  8
0
  6
CONTINUOUS
 62
           7
100
AcDbLine
 10
157.5
 20
155.0
 11
167.5
 21
155.0
  0
LINE
  5
4FC
100
AcDbEntity
  8
0
  6
CONTINUOUS
 62
           7
100
AcDbLine
 10
157.5
 20
205.0
 11
157.5
 21
155.0
  0
LINE
  5
4FB
100
AcDbEntity
  8
0
  6
CONTINUOUS
 62
           7
100
AcDbLine
 10
157.5
 20
205.0
 11
167.5
 21
205.0
  0
LINE
  5
4FA
100
AcDbEntity
  8
0
  6
CONTINUOUS
 62
           7
100
AcDbLine
 10
167.5
 20
205.0
 11
167.5
 21
155.0
  0
LINE
  5
4F9
100
AcDbEntity
  8
0
  6
CONTINUOUS
 62
           7
100
AcDbLine
 10
170.5
 20
155.0
 11
180.5
 21
155.0
  0
LINE
  5
4F8
100
AcDbEntity
  8
0
  6
CONTINUOUS
 62
           7
100
AcDbLine
 10
170.5
 20
205.0
 11
170.5
 21
155.0
  0
LINE
  5
4F7
100
AcDbEntity
  8
0
  6
CONTINUOUS
 62
           7
100
AcDbLine
 10
170.5
 20
205.0
 11
180.5
 21
205.0
  0
LINE
  5
4F6
100
AcDbEntity
  8
0
  6
CONTINUOUS
 62
           7
100
AcDbLine
 10
180.5
 20
205.0
 11
180.5
 21
155.0
  0
LINE
  5
4F5
100
AcDbEntity
  8
0
  6
CONTINUOUS
 62
           7
100
AcDbLine
 10
183.5
 20
155.0
 11
193.5
 21
155.0
  0
LINE
  5
4F4
100
AcDbEntity
  8
0
  6
CONTINUOUS
 62
           7
100
AcDbLine
 10
183.5
 20
205.0
 11
183.5
 21
155.0
  0
LINE
  5
4F3
100
AcDbEntity
  8
0
  6
CONTINUOUS
 62
           7
100
AcDbLine
 10
183.5
 20
205.0
 11
193.5
 21
205.0
  0
LINE
  5
4F2
100
AcDbEntity
  8
0
  6
CONTINUOUS
 62
           7
100
AcDbLine
 10
193.5
 20
205.0
 11
193.5
 21
155.0
  0
LINE
  5
4F1
100
AcDbEntity
  8
0
  6
CONTINUOUS
 62
           7
100
AcDbLine
 10
196.5
 20
155.0
 11
206.5
 21
155.0
  0
LINE
  5
4F0
100
AcDbEntity
  8
0
  6
CONTINUOUS
 62
           7
100
AcDbLine
 10
196.5
 20
205.0
 11
196.5
 21
155.0
  0
LINE
  5
4EF
100
AcDbEntity
  8
0
  6
CONTINUOUS
 62
           7
100
AcDbLine
 10
196.5
 20
205.0
 11
206.5
 21
205.0
  0
LINE
  5
4EE
100
AcDbEntity
  8
0
  6
CONTINUOUS
 62
           7
100
AcDbLine
 10
206.5
 20
205.0
 11
206.5
 21
155.0
  0
LINE
  5
4ED
100
AcDbEntity
  8
0
  6
CONTINUOUS
 62
           7
100
AcDbLine
 10
209.5
 20
155.0
 11
219.5
 21
155.0
  0
LINE
  5
4EC
100
AcDbEntity
  8
0
  6
CONTINUOUS
 62
           7
100
AcDbLine
 10
209.5
 20
205.0
 11
209.5
 21
155.0
  0
LINE
  5
4EB
100
AcDbEntity
  8
0
  6
CONTINUOUS
 62
           7
100
AcDbLine
 10
209.5
 20
205.0
 11
219.5
 21
205.0
  0
LINE
  5
4EA
100
AcDbEntity
  8
0
  6
CONTINUOUS
 62
           7
100
AcDbLine
 10
219.5
 20
205.0
 11
219.5
 21
155.0
  0
LINE
  5
4E9
100
AcDbEntity
  8
0
  6
CONTINUOUS
 62
           7
100
AcDbLine
 10
222.5
 20
155.0
 11
232.5
 21
155.0
  0
LINE
  5
4E8
100
AcDbEntity
  8
0
  6
CONTINUOUS
 62
           7
100
AcDbLine
 10
222.5
 20
205.0
 11
222.5
 21
155.0
  0
LINE
  5
4E7
100
AcDbEntity
  8
0
  6
CONTINUOUS
 62
           7
100
AcDbLine
 10
222.5
 20
205.0
 11
232.5
 21
205.0
  0
LINE
  5
4E6
100
AcDbEntity
  8
0
  6
CONTINUOUS
 62
           7
100
AcDbLine
 10
232.5
 20
205.0
 11
232.5
 21
155.0
  0
LINE
  5
4E5
100
AcDbEntity
  8
0
  6
CONTINUOUS
 62
           7
100
AcDbLine
 10
235.5
 20
155.0
 11
245.5
 21
155.0
  0
LINE
  5
4E4
100
AcDbEntity
  8
0
  6
CONTINUOUS
 62
           7
100
AcDbLine
 10
235.5
 20
205.0
 11
235.5
 21
155.0
  0
LINE
  5
4E3
100
AcDbEntity
  8
0
  6
CONTINUOUS
 62
           7
100
AcDbLine
 10
235.5
 20
205.0
 11
245.5
 21
205.0
  0
LINE
  5
4E2
100
AcDbEntity
  8
0
  6
CONTINUOUS
 62
           7
100
AcDbLine
 10
245.5
 20
205.0
 11
245.5
 21
155.0
  0
LINE
  5
4E1
100
AcDbEntity
  8
0
  6
CONTINUOUS
 62
           7
100
AcDbLine
 10
248.5
 20
155.0
 11
258.5
 21
155.0
  0
LINE
  5
4E0
100
AcDbEntity
  8
0
  6
CONTINUOUS
 62
           7
100
AcDbLine
 10
248.5
 20
205.0
 11
248.5
 21
155.0
  0
LINE
  5
4DF
100
AcDbEntity
  8
0
  6
CONTINUOUS
 62
           7
100
AcDbLine
 10
248.5
 20
205.0
 11
258.5
 21
205.0
  0
LINE
  5
4DE
100
AcDbEntity
  8
0
  6
CONTINUOUS
 62
           7
100
AcDbLine
 10
258.5
 20
205.0
 11
258.5
 21
155.0
  0
LINE
  5
4DD
100
AcDbEntity
  8
0
  6
CONTINUOUS
 62
           7
100
AcDbLine
 10
-193.5
 20
95.0
 11
-183.5
 21
95.0
  0
LINE
  5
4DC
100
AcDbEntity
  8
0
  6
CONTINUOUS
 62
           7
100
AcDbLine
 10
-193.5
 20
145.0
 11
-193.5
 21
95.0
  0
LINE
  5
4DB
100
AcDbEntity
  8
0
  6
CONTINUOUS
 62
           7
100
AcDbLine
 10
-206.5
 20
145.0
 11
-206.5
 21
95.0
  0
LINE
  5
4DA
100
AcDbEntity
  8
0
  6
CONTINUOUS
 62
           7
100
AcDbLine
 10
-206.5
 20
95.0
 11
-196.5
 21
95.0
  0
LINE
  5
4D9
100
AcDbEntity
  8
0
  6
CONTINUOUS
 62
           7
100
AcDbLine
 10
-206.5
 20
145.0
 11
-196.5
 21
145.0
  0
LINE
  5
4D8
100
AcDbEntity
  8
0
  6
CONTINUOUS
 62
           7
100
AcDbLine
 10
-196.5
 20
145.0
 11
-196.5
 21
95.0
  0
LINE
  5
4D7
100
AcDbEntity
  8
0
  6
CONTINUOUS
 62
           7
100
AcDbLine
 10
-209.5
 20
145.0
 11
-209.5
 21
95.0
  0
LINE
  5
4D6
100
AcDbEntity
  8
0
  6
CONTINUOUS
 62
           7
100
AcDbLine
 10
-219.5
 20
145.0
 11
-209.5
 21
145.0
  0
LINE
  5
4D5
100
AcDbEntity
  8
0
  6
CONTINUOUS
 62
           7
100
AcDbLine
 10
-219.5
 20
95.0
 11
-209.5
 21
95.0
  0
LINE
  5
4D4
100
AcDbEntity
  8
0
  6
CONTINUOUS
 62
           7
100
AcDbLine
 10
-219.5
 20
145.0
 11
-219.5
 21
95.0
  0
LINE
  5
4D3
100
AcDbEntity
  8
0
  6
CONTINUOUS
 62
           7
100
AcDbLine
 10
-232.5
 20
145.0
 11
-232.5
 21
95.0
  0
LINE
  5
4D2
100
AcDbEntity
  8
0
  6
CONTINUOUS
 62
           7
100
AcDbLine
 10
-232.5
 20
95.0
 11
-222.5
 21
95.0
  0
LINE
  5
4D1
100
AcDbEntity
  8
0
  6
CONTINUOUS
 62
           7
100
AcDbLine
 10
-232.5
 20
145.0
 11
-222.5
 21
145.0
  0
LINE
  5
4D0
100
AcDbEntity
  8
0
  6
CONTINUOUS
 62
           7
100
AcDbLine
 10
-222.5
 20
145.0
 11
-222.5
 21
95.0
  0
LINE
  5
4CF
100
AcDbEntity
  8
0
  6
CONTINUOUS
 62
           7
100
AcDbLine
 10
-235.5
 20
145.0
 11
-235.5
 21
95.0
  0
LINE
  5
4CE
100
AcDbEntity
  8
0
  6
CONTINUOUS
 62
           7
100
AcDbLine
 10
-245.5
 20
145.0
 11
-235.5
 21
145.0
  0
LINE
  5
4CD
100
AcDbEntity
  8
0
  6
CONTINUOUS
 62
           7
100
AcDbLine
 10
-245.5
 20
95.0
 11
-235.5
 21
95.0
  0
LINE
  5
4CC
100
AcDbEntity
  8
0
  6
CONTINUOUS
 62
           7
100
AcDbLine
 10
-245.5
 20
145.0
 11
-245.5
 21
95.0
  0
LINE
  5
4CB
100
AcDbEntity
  8
0
  6
CONTINUOUS
 62
           7
100
AcDbLine
 10
-193.5
 20
145.0
 11
-183.5
 21
145.0
  0
LINE
  5
4CA
100
AcDbEntity
  8
0
  6
CONTINUOUS
 62
           7
100
AcDbLine
 10
-183.5
 20
145.0
 11
-183.5
 21
95.0
  0
LINE
  5
4C9
100
AcDbEntity
  8
0
  6
CONTINUOUS
 62
           7
100
AcDbLine
 10
-180.5
 20
95.0
 11
-170.5
 21
95.0
  0
LINE
  5
4C8
100
AcDbEntity
  8
0
  6
CONTINUOUS
 62
           7
100
AcDbLine
 10
-180.5
 20
145.0
 11
-180.5
 21
95.0
  0
LINE
  5
4C7
100
AcDbEntity
  8
0
  6
CONTINUOUS
 62
           7
100
AcDbLine
 10
-180.5
 20
145.0
 11
-170.5
 21
145.0
  0
LINE
  5
4C6
100
AcDbEntity
  8
0
  6
CONTINUOUS
 62
           7
100
AcDbLine
 10
-170.5
 20
145.0
 11
-170.5
 21
95.0
  0
LINE
  5
4C5
100
AcDbEntity
  8
0
  6
CONTINUOUS
 62
           7
100
AcDbLine
 10
-167.5
 20
95.0
 11
-157.5
 21
95.0
  0
LINE
  5
4C4
100
AcDbEntity
  8
0
  6
CONTINUOUS
 62
           7
100
AcDbLine
 10
-167.5
 20
145.0
 11
-167.5
 21
95.0
  0
LINE
  5
4C3
100
AcDbEntity
  8
0
  6
CONTINUOUS
 62
           7
100
AcDbLine
 10
-167.5
 20
145.0
 11
-157.5
 21
145.0
  0
LINE
  5
4C2
100
AcDbEntity
  8
0
  6
CONTINUOUS
 62
           7
100
AcDbLine
 10
-157.5
 20
145.0
 11
-157.5
 21
95.0
  0
LINE
  5
4C1
100
AcDbEntity
  8
0
  6
CONTINUOUS
 62
           7
100
AcDbLine
 10
-154.5
 20
95.0
 11
-144.5
 21
95.0
  0
LINE
  5
4C0
100
AcDbEntity
  8
0
  6
CONTINUOUS
 62
           7
100
AcDbLine
 10
-154.5
 20
145.0
 11
-154.5
 21
95.0
  0
LINE
  5
4BF
100
AcDbEntity
  8
0
  6
CONTINUOUS
 62
           7
100
AcDbLine
 10
-154.5
 20
145.0
 11
-144.5
 21
145.0
  0
LINE
  5
4BE
100
AcDbEntity
  8
0
  6
CONTINUOUS
 62
           7
100
AcDbLine
 10
-144.5
 20
145.0
 11
-144.5
 21
95.0
  0
LINE
  5
4BD
100
AcDbEntity
  8
0
  6
CONTINUOUS
 62
           7
100
AcDbLine
 10
-141.5
 20
95.0
 11
-131.5
 21
95.0
  0
LINE
  5
4BC
100
AcDbEntity
  8
0
  6
CONTINUOUS
 62
           7
100
AcDbLine
 10
-141.5
 20
145.0
 11
-141.5
 21
95.0
  0
LINE
  5
4BB
100
AcDbEntity
  8
0
  6
CONTINUOUS
 62
           7
100
AcDbLine
 10
-141.5
 20
145.0
 11
-131.5
 21
145.0
  0
LINE
  5
4BA
100
AcDbEntity
  8
0
  6
CONTINUOUS
 62
           7
100
AcDbLine
 10
-131.5
 20
145.0
 11
-131.5
 21
95.0
  0
LINE
  5
4B9
100
AcDbEntity
  8
0
  6
CONTINUOUS
 62
           7
100
AcDbLine
 10
-128.5
 20
95.0
 11
-118.5
 21
95.0
  0
LINE
  5
4B8
100
AcDbEntity
  8
0
  6
CONTINUOUS
 62
           7
100
AcDbLine
 10
-128.5
 20
145.0
 11
-128.5
 21
95.0
  0
LINE
  5
4B7
100
AcDbEntity
  8
0
  6
CONTINUOUS
 62
           7
100
AcDbLine
 10
-128.5
 20
145.0
 11
-118.5
 21
145.0
  0
LINE
  5
4B6
100
AcDbEntity
  8
0
  6
CONTINUOUS
 62
           7
100
AcDbLine
 10
-118.5
 20
145.0
 11
-118.5
 21
95.0
  0
LINE
  5
4B5
100
AcDbEntity
  8
0
  6
CONTINUOUS
 62
           7
100
AcDbLine
 10
-115.5
 20
95.0
 11
-105.5
 21
95.0
  0
LINE
  5
4B4
100
AcDbEntity
  8
0
  6
CONTINUOUS
 62
           7
100
AcDbLine
 10
-115.5
 20
145.0
 11
-115.5
 21
95.0
  0
LINE
  5
4B3
100
AcDbEntity
  8
0
  6
CONTINUOUS
 62
           7
100
AcDbLine
 10
-115.5
 20
145.0
 11
-105.5
 21
145.0
  0
LINE
  5
4B2
100
AcDbEntity
  8
0
  6
CONTINUOUS
 62
           7
100
AcDbLine
 10
-105.5
 20
145.0
 11
-105.5
 21
95.0
  0
LINE
  5
4B1
100
AcDbEntity
  8
0
  6
CONTINUOUS
 62
           7
100
AcDbLine
 10
-102.5
 20
95.0
 11
-92.5
 21
95.0
  0
LINE
  5
4B0
100
AcDbEntity
  8
0
  6
CONTINUOUS
 62
           7
100
AcDbLine
 10
-102.5
 20
145.0
 11
-102.5
 21
95.0
  0
LINE
  5
4AF
100
AcDbEntity
  8
0
  6
CONTINUOUS
 62
           7
100
AcDbLine
 10
-102.5
 20
145.0
 11
-92.5
 21
145.0
  0
LINE
  5
4AE
100
AcDbEntity
  8
0
  6
CONTINUOUS
 62
           7
100
AcDbLine
 10
-92.5
 20
145.0
 11
-92.5
 21
95.0
  0
LINE
  5
4AD
100
AcDbEntity
  8
0
  6
CONTINUOUS
 62
           7
100
AcDbLine
 10
-89.5
 20
95.0
 11
-79.5
 21
95.0
  0
LINE
  5
4AC
100
AcDbEntity
  8
0
  6
CONTINUOUS
 62
           7
100
AcDbLine
 10
-89.5
 20
145.0
 11
-89.5
 21
95.0
  0
LINE
  5
4AB
100
AcDbEntity
  8
0
  6
CONTINUOUS
 62
           7
100
AcDbLine
 10
-89.5
 20
145.0
 11
-79.5
 21
145.0
  0
LINE
  5
4AA
100
AcDbEntity
  8
0
  6
CONTINUOUS
 62
           7
100
AcDbLine
 10
-79.5
 20
145.0
 11
-79.5
 21
95.0
  0
LINE
  5
4A9
100
AcDbEntity
  8
0
  6
CONTINUOUS
 62
           7
100
AcDbLine
 10
-76.5
 20
95.0
 11
-66.5
 21
95.0
  0
LINE
  5
4A8
100
AcDbEntity
  8
0
  6
CONTINUOUS
 62
           7
100
AcDbLine
 10
-76.5
 20
145.0
 11
-76.5
 21
95.0
  0
LINE
  5
4A7
100
AcDbEntity
  8
0
  6
CONTINUOUS
 62
           7
100
AcDbLine
 10
-76.5
 20
145.0
 11
-66.5
 21
145.0
  0
LINE
  5
4A6
100
AcDbEntity
  8
0
  6
CONTINUOUS
 62
           7
100
AcDbLine
 10
-66.5
 20
145.0
 11
-66.5
 21
95.0
  0
LINE
  5
4A5
100
AcDbEntity
  8
0
  6
CONTINUOUS
 62
           7
100
AcDbLine
 10
-63.5
 20
95.0
 11
-53.5
 21
95.0
  0
LINE
  5
4A4
100
AcDbEntity
  8
0
  6
CONTINUOUS
 62
           7
100
AcDbLine
 10
-63.5
 20
145.0
 11
-63.5
 21
95.0
  0
LINE
  5
4A3
100
AcDbEntity
  8
0
  6
CONTINUOUS
 62
           7
100
AcDbLine
 10
-63.5
 20
145.0
 11
-53.5
 21
145.0
  0
LINE
  5
4A2
100
AcDbEntity
  8
0
  6
CONTINUOUS
 62
           7
100
AcDbLine
 10
-53.5
 20
145.0
 11
-53.5
 21
95.0
  0
LINE
  5
4A1
100
AcDbEntity
  8
0
  6
CONTINUOUS
 62
           7
100
AcDbLine
 10
-50.5
 20
95.0
 11
-40.5
 21
95.0
  0
LINE
  5
4A0
100
AcDbEntity
  8
0
  6
CONTINUOUS
 62
           7
100
AcDbLine
 10
-50.5
 20
145.0
 11
-50.5
 21
95.0
  0
LINE
  5
49F
100
AcDbEntity
  8
0
  6
CONTINUOUS
 62
           7
100
AcDbLine
 10
-50.5
 20
145.0
 11
-40.5
 21
145.0
  0
LINE
  5
49E
100
AcDbEntity
  8
0
  6
CONTINUOUS
 62
           7
100
AcDbLine
 10
-40.5
 20
145.0
 11
-40.5
 21
95.0
  0
LINE
  5
49D
100
AcDbEntity
  8
0
  6
CONTINUOUS
 62
           7
100
AcDbLine
 10
-37.5
 20
95.0
 11
-27.5
 21
95.0
  0
LINE
  5
49C
100
AcDbEntity
  8
0
  6
CONTINUOUS
 62
           7
100
AcDbLine
 10
-37.5
 20
145.0
 11
-37.5
 21
95.0
  0
LINE
  5
49B
100
AcDbEntity
  8
0
  6
CONTINUOUS
 62
           7
100
AcDbLine
 10
-37.5
 20
145.0
 11
-27.5
 21
145.0
  0
LINE
  5
49A
100
AcDbEntity
  8
0
  6
CONTINUOUS
 62
           7
100
AcDbLine
 10
-27.5
 20
145.0
 11
-27.5
 21
95.0
  0
LINE
  5
499
100
AcDbEntity
  8
0
  6
CONTINUOUS
 62
           7
100
AcDbLine
 10
-24.5
 20
95.0
 11
-14.5
 21
95.0
  0
LINE
  5
498
100
AcDbEntity
  8
0
  6
CONTINUOUS
 62
           7
100
AcDbLine
 10
-24.5
 20
145.0
 11
-24.5
 21
95.0
  0
LINE
  5
497
100
AcDbEntity
  8
0
  6
CONTINUOUS
 62
           7
100
AcDbLine
 10
-24.5
 20
145.0
 11
-14.5
 21
145.0
  0
LINE
  5
496
100
AcDbEntity
  8
0
  6
CONTINUOUS
 62
           7
100
AcDbLine
 10
-14.5
 20
145.0
 11
-14.5
 21
95.0
  0
LINE
  5
495
100
AcDbEntity
  8
0
  6
CONTINUOUS
 62
           7
100
AcDbLine
 10
-11.5
 20
95.0
 11
-1.5
 21
95.0
  0
LINE
  5
494
100
AcDbEntity
  8
0
  6
CONTINUOUS
 62
           7
100
AcDbLine
 10
-11.5
 20
145.0
 11
-11.5
 21
95.0
  0
LINE
  5
493
100
AcDbEntity
  8
0
  6
CONTINUOUS
 62
           7
100
AcDbLine
 10
-11.5
 20
145.0
 11
-1.5
 21
145.0
  0
LINE
  5
492
100
AcDbEntity
  8
0
  6
CONTINUOUS
 62
           7
100
AcDbLine
 10
-1.5
 20
145.0
 11
-1.5
 21
95.0
  0
LINE
  5
491
100
AcDbEntity
  8
0
  6
CONTINUOUS
 62
           7
100
AcDbLine
 10
1.5
 20
95.0
 11
11.5
 21
95.0
  0
LINE
  5
490
100
AcDbEntity
  8
0
  6
CONTINUOUS
 62
           7
100
AcDbLine
 10
1.5
 20
145.0
 11
11.5
 21
145.0
  0
LINE
  5
48F
100
AcDbEntity
  8
0
  6
CONTINUOUS
 62
           7
100
AcDbLine
 10
11.5
 20
145.0
 11
11.5
 21
95.0
  0
LINE
  5
48E
100
AcDbEntity
  8
0
  6
CONTINUOUS
 62
           7
100
AcDbLine
 10
14.5
 20
95.0
 11
24.5
 21
95.0
  0
LINE
  5
48D
100
AcDbEntity
  8
0
  6
CONTINUOUS
 62
           7
100
AcDbLine
 10
14.5
 20
145.0
 11
14.5
 21
95.0
  0
LINE
  5
48C
100
AcDbEntity
  8
0
  6
CONTINUOUS
 62
           7
100
AcDbLine
 10
1.5
 20
145.0
 11
1.5
 21
95.0
  0
LINE
  5
48B
100
AcDbEntity
  8
0
  6
CONTINUOUS
 62
           7
100
AcDbLine
 10
14.5
 20
145.0
 11
24.5
 21
145.0
  0
LINE
  5
48A
100
AcDbEntity
  8
0
  6
CONTINUOUS
 62
           7
100
AcDbLine
 10
24.5
 20
145.0
 11
24.5
 21
95.0
  0
LINE
  5
489
100
AcDbEntity
  8
0
  6
CONTINUOUS
 62
           7
100
AcDbLine
 10
27.5
 20
95.0
 11
37.5
 21
95.0
  0
LINE
  5
488
100
AcDbEntity
  8
0
  6
CONTINUOUS
 62
           7
100
AcDbLine
 10
27.5
 20
145.0
 11
27.5
 21
95.0
  0
LINE
  5
487
100
AcDbEntity
  8
0
  6
CONTINUOUS
 62
           7
100
AcDbLine
 10
27.5
 20
145.0
 11
37.5
 21
145.0
  0
LINE
  5
486
100
AcDbEntity
  8
0
  6
CONTINUOUS
 62
           7
100
AcDbLine
 10
37.5
 20
145.0
 11
37.5
 21
95.0
  0
LINE
  5
485
100
AcDbEntity
  8
0
  6
CONTINUOUS
 62
           7
100
AcDbLine
 10
40.5
 20
95.0
 11
50.5
 21
95.0
  0
LINE
  5
484
100
AcDbEntity
  8
0
  6
CONTINUOUS
 62
           7
100
AcDbLine
 10
40.5
 20
145.0
 11
40.5
 21
95.0
  0
LINE
  5
483
100
AcDbEntity
  8
0
  6
CONTINUOUS
 62
           7
100
AcDbLine
 10
40.5
 20
145.0
 11
50.5
 21
145.0
  0
LINE
  5
482
100
AcDbEntity
  8
0
  6
CONTINUOUS
 62
           7
100
AcDbLine
 10
50.5
 20
145.0
 11
50.5
 21
95.0
  0
LINE
  5
481
100
AcDbEntity
  8
0
  6
CONTINUOUS
 62
           7
100
AcDbLine
 10
53.5
 20
95.0
 11
63.5
 21
95.0
  0
LINE
  5
480
100
AcDbEntity
  8
0
  6
CONTINUOUS
 62
           7
100
AcDbLine
 10
53.5
 20
145.0
 11
53.5
 21
95.0
  0
LINE
  5
47F
100
AcDbEntity
  8
0
  6
CONTINUOUS
 62
           7
100
AcDbLine
 10
53.5
 20
145.0
 11
63.5
 21
145.0
  0
LINE
  5
47E
100
AcDbEntity
  8
0
  6
CONTINUOUS
 62
           7
100
AcDbLine
 10
63.5
 20
145.0
 11
63.5
 21
95.0
  0
LINE
  5
47D
100
AcDbEntity
  8
0
  6
CONTINUOUS
 62
           7
100
AcDbLine
 10
66.5
 20
95.0
 11
76.5
 21
95.0
  0
LINE
  5
47C
100
AcDbEntity
  8
0
  6
CONTINUOUS
 62
           7
100
AcDbLine
 10
66.5
 20
145.0
 11
66.5
 21
95.0
  0
LINE
  5
47B
100
AcDbEntity
  8
0
  6
CONTINUOUS
 62
           7
100
AcDbLine
 10
66.5
 20
145.0
 11
76.5
 21
145.0
  0
LINE
  5
47A
100
AcDbEntity
  8
0
  6
CONTINUOUS
 62
           7
100
AcDbLine
 10
76.5
 20
145.0
 11
76.5
 21
95.0
  0
LINE
  5
479
100
AcDbEntity
  8
0
  6
CONTINUOUS
 62
           7
100
AcDbLine
 10
79.5
 20
95.0
 11
89.5
 21
95.0
  0
LINE
  5
478
100
AcDbEntity
  8
0
  6
CONTINUOUS
 62
           7
100
AcDbLine
 10
79.5
 20
145.0
 11
79.5
 21
95.0
  0
LINE
  5
477
100
AcDbEntity
  8
0
  6
CONTINUOUS
 62
           7
100
AcDbLine
 10
79.5
 20
145.0
 11
89.5
 21
145.0
  0
LINE
  5
476
100
AcDbEntity
  8
0
  6
CONTINUOUS
 62
           7
100
AcDbLine
 10
89.5
 20
145.0
 11
89.5
 21
95.0
  0
LINE
  5
475
100
AcDbEntity
  8
0
  6
CONTINUOUS
 62
           7
100
AcDbLine
 10
92.5
 20
95.0
 11
102.5
 21
95.0
  0
LINE
  5
474
100
AcDbEntity
  8
0
  6
CONTINUOUS
 62
           7
100
AcDbLine
 10
92.5
 20
145.0
 11
92.5
 21
95.0
  0
LINE
  5
473
100
AcDbEntity
  8
0
  6
CONTINUOUS
 62
           7
100
AcDbLine
 10
92.5
 20
145.0
 11
102.5
 21
145.0
  0
LINE
  5
472
100
AcDbEntity
  8
0
  6
CONTINUOUS
 62
           7
100
AcDbLine
 10
102.5
 20
145.0
 11
102.5
 21
95.0
  0
LINE
  5
471
100
AcDbEntity
  8
0
  6
CONTINUOUS
 62
           7
100
AcDbLine
 10
105.5
 20
95.0
 11
115.5
 21
95.0
  0
LINE
  5
470
100
AcDbEntity
  8
0
  6
CONTINUOUS
 62
           7
100
AcDbLine
 10
105.5
 20
145.0
 11
105.5
 21
95.0
  0
LINE
  5
46F
100
AcDbEntity
  8
0
  6
CONTINUOUS
 62
           7
100
AcDbLine
 10
105.5
 20
145.0
 11
115.5
 21
145.0
  0
LINE
  5
46E
100
AcDbEntity
  8
0
  6
CONTINUOUS
 62
           7
100
AcDbLine
 10
115.5
 20
145.0
 11
115.5
 21
95.0
  0
LINE
  5
46D
100
AcDbEntity
  8
0
  6
CONTINUOUS
 62
           7
100
AcDbLine
 10
118.5
 20
95.0
 11
128.5
 21
95.0
  0
LINE
  5
46C
100
AcDbEntity
  8
0
  6
CONTINUOUS
 62
           7
100
AcDbLine
 10
118.5
 20
145.0
 11
118.5
 21
95.0
  0
LINE
  5
46B
100
AcDbEntity
  8
0
  6
CONTINUOUS
 62
           7
100
AcDbLine
 10
118.5
 20
145.0
 11
128.5
 21
145.0
  0
LINE
  5
46A
100
AcDbEntity
  8
0
  6
CONTINUOUS
 62
           7
100
AcDbLine
 10
128.5
 20
145.0
 11
128.5
 21
95.0
  0
LINE
  5
469
100
AcDbEntity
  8
0
  6
CONTINUOUS
 62
           7
100
AcDbLine
 10
131.5
 20
95.0
 11
141.5
 21
95.0
  0
LINE
  5
468
100
AcDbEntity
  8
0
  6
CONTINUOUS
 62
           7
100
AcDbLine
 10
131.5
 20
145.0
 11
131.5
 21
95.0
  0
LINE
  5
467
100
AcDbEntity
  8
0
  6
CONTINUOUS
 62
           7
100
AcDbLine
 10
131.5
 20
145.0
 11
141.5
 21
145.0
  0
LINE
  5
466
100
AcDbEntity
  8
0
  6
CONTINUOUS
 62
           7
100
AcDbLine
 10
141.5
 20
145.0
 11
141.5
 21
95.0
  0
LINE
  5
465
100
AcDbEntity
  8
0
  6
CONTINUOUS
 62
           7
100
AcDbLine
 10
144.5
 20
95.0
 11
154.5
 21
95.0
  0
LINE
  5
464
100
AcDbEntity
  8
0
  6
CONTINUOUS
 62
           7
100
AcDbLine
 10
144.5
 20
145.0
 11
144.5
 21
95.0
  0
LINE
  5
463
100
AcDbEntity
  8
0
  6
CONTINUOUS
 62
           7
100
AcDbLine
 10
144.5
 20
145.0
 11
154.5
 21
145.0
  0
LINE
  5
462
100
AcDbEntity
  8
0
  6
CONTINUOUS
 62
           7
100
AcDbLine
 10
154.5
 20
145.0
 11
154.5
 21
95.0
  0
LINE
  5
461
100
AcDbEntity
  8
0
  6
CONTINUOUS
 62
           7
100
AcDbLine
 10
157.5
 20
95.0
 11
167.5
 21
95.0
  0
LINE
  5
460
100
AcDbEntity
  8
0
  6
CONTINUOUS
 62
           7
100
AcDbLine
 10
157.5
 20
145.0
 11
157.5
 21
95.0
  0
LINE
  5
45F
100
AcDbEntity
  8
0
  6
CONTINUOUS
 62
           7
100
AcDbLine
 10
157.5
 20
145.0
 11
167.5
 21
145.0
  0
LINE
  5
45E
100
AcDbEntity
  8
0
  6
CONTINUOUS
 62
           7
100
AcDbLine
 10
167.5
 20
145.0
 11
167.5
 21
95.0
  0
LINE
  5
45D
100
AcDbEntity
  8
0
  6
CONTINUOUS
 62
           7
100
AcDbLine
 10
170.5
 20
95.0
 11
180.5
 21
95.0
  0
LINE
  5
45C
100
AcDbEntity
  8
0
  6
CONTINUOUS
 62
           7
100
AcDbLine
 10
170.5
 20
145.0
 11
170.5
 21
95.0
  0
LINE
  5
45B
100
AcDbEntity
  8
0
  6
CONTINUOUS
 62
           7
100
AcDbLine
 10
170.5
 20
145.0
 11
180.5
 21
145.0
  0
LINE
  5
45A
100
AcDbEntity
  8
0
  6
CONTINUOUS
 62
           7
100
AcDbLine
 10
180.5
 20
145.0
 11
180.5
 21
95.0
  0
LINE
  5
459
100
AcDbEntity
  8
0
  6
CONTINUOUS
 62
           7
100
AcDbLine
 10
183.5
 20
95.0
 11
193.5
 21
95.0
  0
LINE
  5
458
100
AcDbEntity
  8
0
  6
CONTINUOUS
 62
           7
100
AcDbLine
 10
183.5
 20
145.0
 11
183.5
 21
95.0
  0
LINE
  5
457
100
AcDbEntity
  8
0
  6
CONTINUOUS
 62
           7
100
AcDbLine
 10
183.5
 20
145.0
 11
193.5
 21
145.0
  0
LINE
  5
456
100
AcDbEntity
  8
0
  6
CONTINUOUS
 62
           7
100
AcDbLine
 10
193.5
 20
145.0
 11
193.5
 21
95.0
  0
LINE
  5
455
100
AcDbEntity
  8
0
  6
CONTINUOUS
 62
           7
100
AcDbLine
 10
196.5
 20
95.0
 11
206.5
 21
95.0
  0
LINE
  5
454
100
AcDbEntity
  8
0
  6
CONTINUOUS
 62
           7
100
AcDbLine
 10
196.5
 20
145.0
 11
196.5
 21
95.0
  0
LINE
  5
453
100
AcDbEntity
  8
0
  6
CONTINUOUS
 62
           7
100
AcDbLine
 10
196.5
 20
145.0
 11
206.5
 21
145.0
  0
LINE
  5
452
100
AcDbEntity
  8
0
  6
CONTINUOUS
 62
           7
100
AcDbLine
 10
206.5
 20
145.0
 11
206.5
 21
95.0
  0
LINE
  5
451
100
AcDbEntity
  8
0
  6
CONTINUOUS
 62
           7
100
AcDbLine
 10
209.5
 20
95.0
 11
219.5
 21
95.0
  0
LINE
  5
450
100
AcDbEntity
  8
0
  6
CONTINUOUS
 62
           7
100
AcDbLine
 10
209.5
 20
145.0
 11
209.5
 21
95.0
  0
LINE
  5
44F
100
AcDbEntity
  8
0
  6
CONTINUOUS
 62
           7
100
AcDbLine
 10
209.5
 20
145.0
 11
219.5
 21
145.0
  0
LINE
  5
44E
100
AcDbEntity
  8
0
  6
CONTINUOUS
 62
           7
100
AcDbLine
 10
219.5
 20
145.0
 11
219.5
 21
95.0
  0
LINE
  5
44D
100
AcDbEntity
  8
0
  6
CONTINUOUS
 62
           7
100
AcDbLine
 10
222.5
 20
95.0
 11
232.5
 21
95.0
  0
LINE
  5
44C
100
AcDbEntity
  8
0
  6
CONTINUOUS
 62
           7
100
AcDbLine
 10
222.5
 20
145.0
 11
222.5
 21
95.0
  0
LINE
  5
44B
100
AcDbEntity
  8
0
  6
CONTINUOUS
 62
           7
100
AcDbLine
 10
222.5
 20
145.0
 11
232.5
 21
145.0
  0
LINE
  5
44A
100
AcDbEntity
  8
0
  6
CONTINUOUS
 62
           7
100
AcDbLine
 10
232.5
 20
145.0
 11
232.5
 21
95.0
  0
LINE
  5
449
100
AcDbEntity
  8
0
  6
CONTINUOUS
 62
           7
100
AcDbLine
 10
235.5
 20
95.0
 11
245.5
 21
95.0
  0
LINE
  5
448
100
AcDbEntity
  8
0
  6
CONTINUOUS
 62
           7
100
AcDbLine
 10
235.5
 20
145.0
 11
235.5
 21
95.0
  0
LINE
  5
447
100
AcDbEntity
  8
0
  6
CONTINUOUS
 62
           7
100
AcDbLine
 10
235.5
 20
145.0
 11
245.5
 21
145.0
  0
LINE
  5
446
100
AcDbEntity
  8
0
  6
CONTINUOUS
 62
           7
100
AcDbLine
 10
245.5
 20
145.0
 11
245.5
 21
95.0
  0
LINE
  5
445
100
AcDbEntity
  8
0
  6
CONTINUOUS
 62
           7
100
AcDbLine
 10
248.5
 20
95.0
 11
258.5
 21
95.0
  0
LINE
  5
444
100
AcDbEntity
  8
0
  6
CONTINUOUS
 62
           7
100
AcDbLine
 10
248.5
 20
145.0
 11
248.5
 21
95.0
  0
LINE
  5
443
100
AcDbEntity
  8
0
  6
CONTINUOUS
 62
           7
100
AcDbLine
 10
248.5
 20
145.0
 11
258.5
 21
145.0
  0
LINE
  5
442
100
AcDbEntity
  8
0
  6
CONTINUOUS
 62
           7
100
AcDbLine
 10
258.5
 20
145.0
 11
258.5
 21
95.0
  0
LINE
  5
441
100
AcDbEntity
  8
0
  6
CONTINUOUS
 62
           7
100
AcDbLine
 10
-193.5
 20
35.0
 11
-183.5
 21
35.0
  0
LINE
  5
440
100
AcDbEntity
  8
0
  6
CONTINUOUS
 62
           7
100
AcDbLine
 10
-193.5
 20
85.0
 11
-193.5
 21
35.0
  0
LINE
  5
43F
100
AcDbEntity
  8
0
  6
CONTINUOUS
 62
           7
100
AcDbLine
 10
-206.5
 20
85.0
 11
-206.5
 21
35.0
  0
LINE
  5
43E
100
AcDbEntity
  8
0
  6
CONTINUOUS
 62
           7
100
AcDbLine
 10
-206.5
 20
35.0
 11
-196.5
 21
35.0
  0
LINE
  5
43D
100
AcDbEntity
  8
0
  6
CONTINUOUS
 62
           7
100
AcDbLine
 10
-206.5
 20
85.0
 11
-196.5
 21
85.0
  0
LINE
  5
43C
100
AcDbEntity
  8
0
  6
CONTINUOUS
 62
           7
100
AcDbLine
 10
-196.5
 20
85.0
 11
-196.5
 21
35.0
  0
LINE
  5
43B
100
AcDbEntity
  8
0
  6
CONTINUOUS
 62
           7
100
AcDbLine
 10
-209.5
 20
85.0
 11
-209.5
 21
35.0
  0
LINE
  5
43A
100
AcDbEntity
  8
0
  6
CONTINUOUS
 62
           7
100
AcDbLine
 10
-219.5
 20
85.0
 11
-209.5
 21
85.0
  0
LINE
  5
439
100
AcDbEntity
  8
0
  6
CONTINUOUS
 62
           7
100
AcDbLine
 10
-219.5
 20
35.0
 11
-209.5
 21
35.0
  0
LINE
  5
438
100
AcDbEntity
  8
0
  6
CONTINUOUS
 62
           7
100
AcDbLine
 10
-219.5
 20
85.0
 11
-219.5
 21
35.0
  0
LINE
  5
437
100
AcDbEntity
  8
0
  6
CONTINUOUS
 62
           7
100
AcDbLine
 10
-232.5
 20
85.0
 11
-232.5
 21
35.0
  0
LINE
  5
436
100
AcDbEntity
  8
0
  6
CONTINUOUS
 62
           7
100
AcDbLine
 10
-232.5
 20
35.0
 11
-222.5
 21
35.0
  0
LINE
  5
435
100
AcDbEntity
  8
0
  6
CONTINUOUS
 62
           7
100
AcDbLine
 10
-232.5
 20
85.0
 11
-222.5
 21
85.0
  0
LINE
  5
434
100
AcDbEntity
  8
0
  6
CONTINUOUS
 62
           7
100
AcDbLine
 10
-222.5
 20
85.0
 11
-222.5
 21
35.0
  0
LINE
  5
433
100
AcDbEntity
  8
0
  6
CONTINUOUS
 62
           7
100
AcDbLine
 10
-235.5
 20
85.0
 11
-235.5
 21
35.0
  0
LINE
  5
432
100
AcDbEntity
  8
0
  6
CONTINUOUS
 62
           7
100
AcDbLine
 10
-245.5
 20
85.0
 11
-235.5
 21
85.0
  0
LINE
  5
431
100
AcDbEntity
  8
0
  6
CONTINUOUS
 62
           7
100
AcDbLine
 10
-245.5
 20
35.0
 11
-235.5
 21
35.0
  0
LINE
  5
430
100
AcDbEntity
  8
0
  6
CONTINUOUS
 62
           7
100
AcDbLine
 10
-245.5
 20
85.0
 11
-245.5
 21
35.0
  0
LINE
  5
42F
100
AcDbEntity
  8
0
  6
CONTINUOUS
 62
           7
100
AcDbLine
 10
-193.5
 20
85.0
 11
-183.5
 21
85.0
  0
LINE
  5
42E
100
AcDbEntity
  8
0
  6
CONTINUOUS
 62
           7
100
AcDbLine
 10
-183.5
 20
85.0
 11
-183.5
 21
35.0
  0
LINE
  5
42D
100
AcDbEntity
  8
0
  6
CONTINUOUS
 62
           7
100
AcDbLine
 10
-180.5
 20
35.0
 11
-170.5
 21
35.0
  0
LINE
  5
42C
100
AcDbEntity
  8
0
  6
CONTINUOUS
 62
           7
100
AcDbLine
 10
-180.5
 20
85.0
 11
-180.5
 21
35.0
  0
LINE
  5
42B
100
AcDbEntity
  8
0
  6
CONTINUOUS
 62
           7
100
AcDbLine
 10
-180.5
 20
85.0
 11
-170.5
 21
85.0
  0
LINE
  5
42A
100
AcDbEntity
  8
0
  6
CONTINUOUS
 62
           7
100
AcDbLine
 10
-170.5
 20
85.0
 11
-170.5
 21
35.0
  0
LINE
  5
429
100
AcDbEntity
  8
0
  6
CONTINUOUS
 62
           7
100
AcDbLine
 10
-167.5
 20
35.0
 11
-157.5
 21
35.0
  0
LINE
  5
428
100
AcDbEntity
  8
0
  6
CONTINUOUS
 62
           7
100
AcDbLine
 10
-167.5
 20
85.0
 11
-167.5
 21
35.0
  0
LINE
  5
427
100
AcDbEntity
  8
0
  6
CONTINUOUS
 62
           7
100
AcDbLine
 10
-167.5
 20
85.0
 11
-157.5
 21
85.0
  0
LINE
  5
426
100
AcDbEntity
  8
0
  6
CONTINUOUS
 62
           7
100
AcDbLine
 10
-157.5
 20
85.0
 11
-157.5
 21
35.0
  0
LINE
  5
425
100
AcDbEntity
  8
0
  6
CONTINUOUS
 62
           7
100
AcDbLine
 10
-154.5
 20
35.0
 11
-144.5
 21
35.0
  0
LINE
  5
424
100
AcDbEntity
  8
0
  6
CONTINUOUS
 62
           7
100
AcDbLine
 10
-154.5
 20
85.0
 11
-154.5
 21
35.0
  0
LINE
  5
423
100
AcDbEntity
  8
0
  6
CONTINUOUS
 62
           7
100
AcDbLine
 10
-154.5
 20
85.0
 11
-144.5
 21
85.0
  0
LINE
  5
422
100
AcDbEntity
  8
0
  6
CONTINUOUS
 62
           7
100
AcDbLine
 10
-144.5
 20
85.0
 11
-144.5
 21
35.0
  0
LINE
  5
421
100
AcDbEntity
  8
0
  6
CONTINUOUS
 62
           7
100
AcDbLine
 10
-141.5
 20
35.0
 11
-131.5
 21
35.0
  0
LINE
  5
420
100
AcDbEntity
  8
0
  6
CONTINUOUS
 62
           7
100
AcDbLine
 10
-141.5
 20
85.0
 11
-141.5
 21
35.0
  0
LINE
  5
41F
100
AcDbEntity
  8
0
  6
CONTINUOUS
 62
           7
100
AcDbLine
 10
-141.5
 20
85.0
 11
-131.5
 21
85.0
  0
LINE
  5
41E
100
AcDbEntity
  8
0
  6
CONTINUOUS
 62
           7
100
AcDbLine
 10
-131.5
 20
85.0
 11
-131.5
 21
35.0
  0
LINE
  5
41D
100
AcDbEntity
  8
0
  6
CONTINUOUS
 62
           7
100
AcDbLine
 10
-128.5
 20
35.0
 11
-118.5
 21
35.0
  0
LINE
  5
41C
100
AcDbEntity
  8
0
  6
CONTINUOUS
 62
           7
100
AcDbLine
 10
-128.5
 20
85.0
 11
-128.5
 21
35.0
  0
LINE
  5
41B
100
AcDbEntity
  8
0
  6
CONTINUOUS
 62
           7
100
AcDbLine
 10
-128.5
 20
85.0
 11
-118.5
 21
85.0
  0
LINE
  5
41A
100
AcDbEntity
  8
0
  6
CONTINUOUS
 62
           7
100
AcDbLine
 10
-118.5
 20
85.0
 11
-118.5
 21
35.0
  0
LINE
  5
419
100
AcDbEntity
  8
0
  6
CONTINUOUS
 62
           7
100
AcDbLine
 10
-115.5
 20
35.0
 11
-105.5
 21
35.0
  0
LINE
  5
418
100
AcDbEntity
  8
0
  6
CONTINUOUS
 62
           7
100
AcDbLine
 10
-115.5
 20
85.0
 11
-115.5
 21
35.0
  0
LINE
  5
417
100
AcDbEntity
  8
0
  6
CONTINUOUS
 62
           7
100
AcDbLine
 10
-115.5
 20
85.0
 11
-105.5
 21
85.0
  0
LINE
  5
416
100
AcDbEntity
  8
0
  6
CONTINUOUS
 62
           7
100
AcDbLine
 10
-105.5
 20
85.0
 11
-105.5
 21
35.0
  0
LINE
  5
415
100
AcDbEntity
  8
0
  6
CONTINUOUS
 62
           7
100
AcDbLine
 10
-102.5
 20
35.0
 11
-92.5
 21
35.0
  0
LINE
  5
414
100
AcDbEntity
  8
0
  6
CONTINUOUS
 62
           7
100
AcDbLine
 10
-102.5
 20
85.0
 11
-102.5
 21
35.0
  0
LINE
  5
413
100
AcDbEntity
  8
0
  6
CONTINUOUS
 62
           7
100
AcDbLine
 10
-102.5
 20
85.0
 11
-92.5
 21
85.0
  0
LINE
  5
412
100
AcDbEntity
  8
0
  6
CONTINUOUS
 62
           7
100
AcDbLine
 10
-92.5
 20
85.0
 11
-92.5
 21
35.0
  0
LINE
  5
411
100
AcDbEntity
  8
0
  6
CONTINUOUS
 62
           7
100
AcDbLine
 10
-89.5
 20
35.0
 11
-79.5
 21
35.0
  0
LINE
  5
410
100
AcDbEntity
  8
0
  6
CONTINUOUS
 62
           7
100
AcDbLine
 10
-89.5
 20
85.0
 11
-89.5
 21
35.0
  0
LINE
  5
40F
100
AcDbEntity
  8
0
  6
CONTINUOUS
 62
           7
100
AcDbLine
 10
-89.5
 20
85.0
 11
-79.5
 21
85.0
  0
LINE
  5
40E
100
AcDbEntity
  8
0
  6
CONTINUOUS
 62
           7
100
AcDbLine
 10
-79.5
 20
85.0
 11
-79.5
 21
35.0
  0
LINE
  5
40D
100
AcDbEntity
  8
0
  6
CONTINUOUS
 62
           7
100
AcDbLine
 10
-76.5
 20
35.0
 11
-66.5
 21
35.0
  0
LINE
  5
40C
100
AcDbEntity
  8
0
  6
CONTINUOUS
 62
           7
100
AcDbLine
 10
-76.5
 20
85.0
 11
-76.5
 21
35.0
  0
LINE
  5
40B
100
AcDbEntity
  8
0
  6
CONTINUOUS
 62
           7
100
AcDbLine
 10
-76.5
 20
85.0
 11
-66.5
 21
85.0
  0
LINE
  5
40A
100
AcDbEntity
  8
0
  6
CONTINUOUS
 62
           7
100
AcDbLine
 10
-66.5
 20
85.0
 11
-66.5
 21
35.0
  0
LINE
  5
409
100
AcDbEntity
  8
0
  6
CONTINUOUS
 62
           7
100
AcDbLine
 10
-63.5
 20
35.0
 11
-53.5
 21
35.0
  0
LINE
  5
408
100
AcDbEntity
  8
0
  6
CONTINUOUS
 62
           7
100
AcDbLine
 10
-63.5
 20
85.0
 11
-63.5
 21
35.0
  0
LINE
  5
407
100
AcDbEntity
  8
0
  6
CONTINUOUS
 62
           7
100
AcDbLine
 10
-63.5
 20
85.0
 11
-53.5
 21
85.0
  0
LINE
  5
406
100
AcDbEntity
  8
0
  6
CONTINUOUS
 62
           7
100
AcDbLine
 10
-53.5
 20
85.0
 11
-53.5
 21
35.0
  0
LINE
  5
405
100
AcDbEntity
  8
0
  6
CONTINUOUS
 62
           7
100
AcDbLine
 10
-50.5
 20
35.0
 11
-40.5
 21
35.0
  0
LINE
  5
404
100
AcDbEntity
  8
0
  6
CONTINUOUS
 62
           7
100
AcDbLine
 10
-50.5
 20
85.0
 11
-50.5
 21
35.0
  0
LINE
  5
403
100
AcDbEntity
  8
0
  6
CONTINUOUS
 62
           7
100
AcDbLine
 10
-50.5
 20
85.0
 11
-40.5
 21
85.0
  0
LINE
  5
402
100
AcDbEntity
  8
0
  6
CONTINUOUS
 62
           7
100
AcDbLine
 10
-40.5
 20
85.0
 11
-40.5
 21
35.0
  0
LINE
  5
401
100
AcDbEntity
  8
0
  6
CONTINUOUS
 62
           7
100
AcDbLine
 10
-37.5
 20
35.0
 11
-27.5
 21
35.0
  0
LINE
  5
400
100
AcDbEntity
  8
0
  6
CONTINUOUS
 62
           7
100
AcDbLine
 10
-37.5
 20
85.0
 11
-37.5
 21
35.0
  0
LINE
  5
3FF
100
AcDbEntity
  8
0
  6
CONTINUOUS
 62
           7
100
AcDbLine
 10
-37.5
 20
85.0
 11
-27.5
 21
85.0
  0
LINE
  5
3FE
100
AcDbEntity
  8
0
  6
CONTINUOUS
 62
           7
100
AcDbLine
 10
-27.5
 20
85.0
 11
-27.5
 21
35.0
  0
LINE
  5
3FD
100
AcDbEntity
  8
0
  6
CONTINUOUS
 62
           7
100
AcDbLine
 10
-24.5
 20
35.0
 11
-14.5
 21
35.0
  0
LINE
  5
3FC
100
AcDbEntity
  8
0
  6
CONTINUOUS
 62
           7
100
AcDbLine
 10
-24.5
 20
85.0
 11
-24.5
 21
35.0
  0
LINE
  5
3FB
100
AcDbEntity
  8
0
  6
CONTINUOUS
 62
           7
100
AcDbLine
 10
-24.5
 20
85.0
 11
-14.5
 21
85.0
  0
LINE
  5
3FA
100
AcDbEntity
  8
0
  6
CONTINUOUS
 62
           7
100
AcDbLine
 10
-14.5
 20
85.0
 11
-14.5
 21
35.0
  0
LINE
  5
3F9
100
AcDbEntity
  8
0
  6
CONTINUOUS
 62
           7
100
AcDbLine
 10
-11.5
 20
35.0
 11
-1.5
 21
35.0
  0
LINE
  5
3F8
100
AcDbEntity
  8
0
  6
CONTINUOUS
 62
           7
100
AcDbLine
 10
-11.5
 20
85.0
 11
-11.5
 21
35.0
  0
LINE
  5
3F7
100
AcDbEntity
  8
0
  6
CONTINUOUS
 62
           7
100
AcDbLine
 10
-11.5
 20
85.0
 11
-1.5
 21
85.0
  0
LINE
  5
3F6
100
AcDbEntity
  8
0
  6
CONTINUOUS
 62
           7
100
AcDbLine
 10
-1.5
 20
85.0
 11
-1.5
 21
35.0
  0
LINE
  5
3F5
100
AcDbEntity
  8
0
  6
CONTINUOUS
 62
           7
100
AcDbLine
 10
1.5
 20
35.0
 11
11.5
 21
35.0
  0
LINE
  5
3F4
100
AcDbEntity
  8
0
  6
CONTINUOUS
 62
           7
100
AcDbLine
 10
1.5
 20
85.0
 11
11.5
 21
85.0
  0
LINE
  5
3F3
100
AcDbEntity
  8
0
  6
CONTINUOUS
 62
           7
100
AcDbLine
 10
11.5
 20
85.0
 11
11.5
 21
35.0
  0
LINE
  5
3F2
100
AcDbEntity
  8
0
  6
CONTINUOUS
 62
           7
100
AcDbLine
 10
14.5
 20
35.0
 11
24.5
 21
35.0
  0
LINE
  5
3F1
100
AcDbEntity
  8
0
  6
CONTINUOUS
 62
           7
100
AcDbLine
 10
14.5
 20
85.0
 11
14.5
 21
35.0
  0
LINE
  5
3F0
100
AcDbEntity
  8
0
  6
CONTINUOUS
 62
           7
100
AcDbLine
 10
1.5
 20
85.0
 11
1.5
 21
35.0
  0
LINE
  5
3EF
100
AcDbEntity
  8
0
  6
CONTINUOUS
 62
           7
100
AcDbLine
 10
14.5
 20
85.0
 11
24.5
 21
85.0
  0
LINE
  5
3EE
100
AcDbEntity
  8
0
  6
CONTINUOUS
 62
           7
100
AcDbLine
 10
24.5
 20
85.0
 11
24.5
 21
35.0
  0
LINE
  5
3ED
100
AcDbEntity
  8
0
  6
CONTINUOUS
 62
           7
100
AcDbLine
 10
27.5
 20
35.0
 11
37.5
 21
35.0
  0
LINE
  5
3EC
100
AcDbEntity
  8
0
  6
CONTINUOUS
 62
           7
100
AcDbLine
 10
27.5
 20
85.0
 11
27.5
 21
35.0
  0
LINE
  5
3EB
100
AcDbEntity
  8
0
  6
CONTINUOUS
 62
           7
100
AcDbLine
 10
27.5
 20
85.0
 11
37.5
 21
85.0
  0
LINE
  5
3EA
100
AcDbEntity
  8
0
  6
CONTINUOUS
 62
           7
100
AcDbLine
 10
37.5
 20
85.0
 11
37.5
 21
35.0
  0
LINE
  5
3E9
100
AcDbEntity
  8
0
  6
CONTINUOUS
 62
           7
100
AcDbLine
 10
40.5
 20
35.0
 11
50.5
 21
35.0
  0
LINE
  5
3E8
100
AcDbEntity
  8
0
  6
CONTINUOUS
 62
           7
100
AcDbLine
 10
40.5
 20
85.0
 11
40.5
 21
35.0
  0
LINE
  5
3E7
100
AcDbEntity
  8
0
  6
CONTINUOUS
 62
           7
100
AcDbLine
 10
40.5
 20
85.0
 11
50.5
 21
85.0
  0
LINE
  5
3E6
100
AcDbEntity
  8
0
  6
CONTINUOUS
 62
           7
100
AcDbLine
 10
50.5
 20
85.0
 11
50.5
 21
35.0
  0
LINE
  5
3E5
100
AcDbEntity
  8
0
  6
CONTINUOUS
 62
           7
100
AcDbLine
 10
53.5
 20
35.0
 11
63.5
 21
35.0
  0
LINE
  5
3E4
100
AcDbEntity
  8
0
  6
CONTINUOUS
 62
           7
100
AcDbLine
 10
53.5
 20
85.0
 11
53.5
 21
35.0
  0
LINE
  5
3E3
100
AcDbEntity
  8
0
  6
CONTINUOUS
 62
           7
100
AcDbLine
 10
53.5
 20
85.0
 11
63.5
 21
85.0
  0
LINE
  5
3E2
100
AcDbEntity
  8
0
  6
CONTINUOUS
 62
           7
100
AcDbLine
 10
63.5
 20
85.0
 11
63.5
 21
35.0
  0
LINE
  5
3E1
100
AcDbEntity
  8
0
  6
CONTINUOUS
 62
           7
100
AcDbLine
 10
66.5
 20
35.0
 11
76.5
 21
35.0
  0
LINE
  5
3E0
100
AcDbEntity
  8
0
  6
CONTINUOUS
 62
           7
100
AcDbLine
 10
66.5
 20
85.0
 11
66.5
 21
35.0
  0
LINE
  5
3DF
100
AcDbEntity
  8
0
  6
CONTINUOUS
 62
           7
100
AcDbLine
 10
66.5
 20
85.0
 11
76.5
 21
85.0
  0
LINE
  5
3DE
100
AcDbEntity
  8
0
  6
CONTINUOUS
 62
           7
100
AcDbLine
 10
76.5
 20
85.0
 11
76.5
 21
35.0
  0
LINE
  5
3DD
100
AcDbEntity
  8
0
  6
CONTINUOUS
 62
           7
100
AcDbLine
 10
79.5
 20
35.0
 11
89.5
 21
35.0
  0
LINE
  5
3DC
100
AcDbEntity
  8
0
  6
CONTINUOUS
 62
           7
100
AcDbLine
 10
79.5
 20
85.0
 11
79.5
 21
35.0
  0
LINE
  5
3DB
100
AcDbEntity
  8
0
  6
CONTINUOUS
 62
           7
100
AcDbLine
 10
79.5
 20
85.0
 11
89.5
 21
85.0
  0
LINE
  5
3DA
100
AcDbEntity
  8
0
  6
CONTINUOUS
 62
           7
100
AcDbLine
 10
89.5
 20
85.0
 11
89.5
 21
35.0
  0
LINE
  5
3D9
100
AcDbEntity
  8
0
  6
CONTINUOUS
 62
           7
100
AcDbLine
 10
92.5
 20
35.0
 11
102.5
 21
35.0
  0
LINE
  5
3D8
100
AcDbEntity
  8
0
  6
CONTINUOUS
 62
           7
100
AcDbLine
 10
92.5
 20
85.0
 11
92.5
 21
35.0
  0
LINE
  5
3D7
100
AcDbEntity
  8
0
  6
CONTINUOUS
 62
           7
100
AcDbLine
 10
92.5
 20
85.0
 11
102.5
 21
85.0
  0
LINE
  5
3D6
100
AcDbEntity
  8
0
  6
CONTINUOUS
 62
           7
100
AcDbLine
 10
102.5
 20
85.0
 11
102.5
 21
35.0
  0
LINE
  5
3D5
100
AcDbEntity
  8
0
  6
CONTINUOUS
 62
           7
100
AcDbLine
 10
105.5
 20
35.0
 11
115.5
 21
35.0
  0
LINE
  5
3D4
100
AcDbEntity
  8
0
  6
CONTINUOUS
 62
           7
100
AcDbLine
 10
105.5
 20
85.0
 11
105.5
 21
35.0
  0
LINE
  5
3D3
100
AcDbEntity
  8
0
  6
CONTINUOUS
 62
           7
100
AcDbLine
 10
105.5
 20
85.0
 11
115.5
 21
85.0
  0
LINE
  5
3D2
100
AcDbEntity
  8
0
  6
CONTINUOUS
 62
           7
100
AcDbLine
 10
115.5
 20
85.0
 11
115.5
 21
35.0
  0
LINE
  5
3D1
100
AcDbEntity
  8
0
  6
CONTINUOUS
 62
           7
100
AcDbLine
 10
118.5
 20
35.0
 11
128.5
 21
35.0
  0
LINE
  5
3D0
100
AcDbEntity
  8
0
  6
CONTINUOUS
 62
           7
100
AcDbLine
 10
118.5
 20
85.0
 11
118.5
 21
35.0
  0
LINE
  5
3CF
100
AcDbEntity
  8
0
  6
CONTINUOUS
 62
           7
100
AcDbLine
 10
118.5
 20
85.0
 11
128.5
 21
85.0
  0
LINE
  5
3CE
100
AcDbEntity
  8
0
  6
CONTINUOUS
 62
           7
100
AcDbLine
 10
128.5
 20
85.0
 11
128.5
 21
35.0
  0
LINE
  5
3CD
100
AcDbEntity
  8
0
  6
CONTINUOUS
 62
           7
100
AcDbLine
 10
131.5
 20
35.0
 11
141.5
 21
35.0
  0
LINE
  5
3CC
100
AcDbEntity
  8
0
  6
CONTINUOUS
 62
           7
100
AcDbLine
 10
131.5
 20
85.0
 11
131.5
 21
35.0
  0
LINE
  5
3CB
100
AcDbEntity
  8
0
  6
CONTINUOUS
 62
           7
100
AcDbLine
 10
131.5
 20
85.0
 11
141.5
 21
85.0
  0
LINE
  5
3CA
100
AcDbEntity
  8
0
  6
CONTINUOUS
 62
           7
100
AcDbLine
 10
141.5
 20
85.0
 11
141.5
 21
35.0
  0
LINE
  5
3C9
100
AcDbEntity
  8
0
  6
CONTINUOUS
 62
           7
100
AcDbLine
 10
144.5
 20
35.0
 11
154.5
 21
35.0
  0
LINE
  5
3C8
100
AcDbEntity
  8
0
  6
CONTINUOUS
 62
           7
100
AcDbLine
 10
144.5
 20
85.0
 11
144.5
 21
35.0
  0
LINE
  5
3C7
100
AcDbEntity
  8
0
  6
CONTINUOUS
 62
           7
100
AcDbLine
 10
144.5
 20
85.0
 11
154.5
 21
85.0
  0
LINE
  5
3C6
100
AcDbEntity
  8
0
  6
CONTINUOUS
 62
           7
100
AcDbLine
 10
154.5
 20
85.0
 11
154.5
 21
35.0
  0
LINE
  5
3C5
100
AcDbEntity
  8
0
  6
CONTINUOUS
 62
           7
100
AcDbLine
 10
157.5
 20
35.0
 11
167.5
 21
35.0
  0
LINE
  5
3C4
100
AcDbEntity
  8
0
  6
CONTINUOUS
 62
           7
100
AcDbLine
 10
157.5
 20
85.0
 11
157.5
 21
35.0
  0
LINE
  5
3C3
100
AcDbEntity
  8
0
  6
CONTINUOUS
 62
           7
100
AcDbLine
 10
157.5
 20
85.0
 11
167.5
 21
85.0
  0
LINE
  5
3C2
100
AcDbEntity
  8
0
  6
CONTINUOUS
 62
           7
100
AcDbLine
 10
167.5
 20
85.0
 11
167.5
 21
35.0
  0
LINE
  5
3C1
100
AcDbEntity
  8
0
  6
CONTINUOUS
 62
           7
100
AcDbLine
 10
170.5
 20
35.0
 11
180.5
 21
35.0
  0
LINE
  5
3C0
100
AcDbEntity
  8
0
  6
CONTINUOUS
 62
           7
100
AcDbLine
 10
170.5
 20
85.0
 11
170.5
 21
35.0
  0
LINE
  5
3BF
100
AcDbEntity
  8
0
  6
CONTINUOUS
 62
           7
100
AcDbLine
 10
170.5
 20
85.0
 11
180.5
 21
85.0
  0
LINE
  5
3BE
100
AcDbEntity
  8
0
  6
CONTINUOUS
 62
           7
100
AcDbLine
 10
180.5
 20
85.0
 11
180.5
 21
35.0
  0
LINE
  5
3BD
100
AcDbEntity
  8
0
  6
CONTINUOUS
 62
           7
100
AcDbLine
 10
183.5
 20
35.0
 11
193.5
 21
35.0
  0
LINE
  5
3BC
100
AcDbEntity
  8
0
  6
CONTINUOUS
 62
           7
100
AcDbLine
 10
183.5
 20
85.0
 11
183.5
 21
35.0
  0
LINE
  5
3BB
100
AcDbEntity
  8
0
  6
CONTINUOUS
 62
           7
100
AcDbLine
 10
183.5
 20
85.0
 11
193.5
 21
85.0
  0
LINE
  5
3BA
100
AcDbEntity
  8
0
  6
CONTINUOUS
 62
           7
100
AcDbLine
 10
193.5
 20
85.0
 11
193.5
 21
35.0
  0
LINE
  5
3B9
100
AcDbEntity
  8
0
  6
CONTINUOUS
 62
           7
100
AcDbLine
 10
196.5
 20
35.0
 11
206.5
 21
35.0
  0
LINE
  5
3B8
100
AcDbEntity
  8
0
  6
CONTINUOUS
 62
           7
100
AcDbLine
 10
196.5
 20
85.0
 11
196.5
 21
35.0
  0
LINE
  5
3B7
100
AcDbEntity
  8
0
  6
CONTINUOUS
 62
           7
100
AcDbLine
 10
196.5
 20
85.0
 11
206.5
 21
85.0
  0
LINE
  5
3B6
100
AcDbEntity
  8
0
  6
CONTINUOUS
 62
           7
100
AcDbLine
 10
206.5
 20
85.0
 11
206.5
 21
35.0
  0
LINE
  5
3B5
100
AcDbEntity
  8
0
  6
CONTINUOUS
 62
           7
100
AcDbLine
 10
209.5
 20
35.0
 11
219.5
 21
35.0
  0
LINE
  5
3B4
100
AcDbEntity
  8
0
  6
CONTINUOUS
 62
           7
100
AcDbLine
 10
209.5
 20
85.0
 11
209.5
 21
35.0
  0
LINE
  5
3B3
100
AcDbEntity
  8
0
  6
CONTINUOUS
 62
           7
100
AcDbLine
 10
209.5
 20
85.0
 11
219.5
 21
85.0
  0
LINE
  5
3B2
100
AcDbEntity
  8
0
  6
CONTINUOUS
 62
           7
100
AcDbLine
 10
219.5
 20
85.0
 11
219.5
 21
35.0
  0
LINE
  5
3B1
100
AcDbEntity
  8
0
  6
CONTINUOUS
 62
           7
100
AcDbLine
 10
222.5
 20
35.0
 11
232.5
 21
35.0
  0
LINE
  5
3B0
100
AcDbEntity
  8
0
  6
CONTINUOUS
 62
           7
100
AcDbLine
 10
222.5
 20
85.0
 11
222.5
 21
35.0
  0
LINE
  5
3AF
100
AcDbEntity
  8
0
  6
CONTINUOUS
 62
           7
100
AcDbLine
 10
222.5
 20
85.0
 11
232.5
 21
85.0
  0
LINE
  5
3AE
100
AcDbEntity
  8
0
  6
CONTINUOUS
 62
           7
100
AcDbLine
 10
232.5
 20
85.0
 11
232.5
 21
35.0
  0
LINE
  5
3AD
100
AcDbEntity
  8
0
  6
CONTINUOUS
 62
           7
100
AcDbLine
 10
235.5
 20
35.0
 11
245.5
 21
35.0
  0
LINE
  5
3AC
100
AcDbEntity
  8
0
  6
CONTINUOUS
 62
           7
100
AcDbLine
 10
235.5
 20
85.0
 11
235.5
 21
35.0
  0
LINE
  5
3AB
100
AcDbEntity
  8
0
  6
CONTINUOUS
 62
           7
100
AcDbLine
 10
235.5
 20
85.0
 11
245.5
 21
85.0
  0
LINE
  5
3AA
100
AcDbEntity
  8
0
  6
CONTINUOUS
 62
           7
100
AcDbLine
 10
245.5
 20
85.0
 11
245.5
 21
35.0
  0
LINE
  5
3A9
100
AcDbEntity
  8
0
  6
CONTINUOUS
 62
           7
100
AcDbLine
 10
248.5
 20
35.0
 11
258.5
 21
35.0
  0
LINE
  5
3A8
100
AcDbEntity
  8
0
  6
CONTINUOUS
 62
           7
100
AcDbLine
 10
248.5
 20
85.0
 11
248.5
 21
35.0
  0
LINE
  5
3A7
100
AcDbEntity
  8
0
  6
CONTINUOUS
 62
           7
100
AcDbLine
 10
248.5
 20
85.0
 11
258.5
 21
85.0
  0
LINE
  5
3A6
100
AcDbEntity
  8
0
  6
CONTINUOUS
 62
           7
100
AcDbLine
 10
258.5
 20
85.0
 11
258.5
 21
35.0
  0
LINE
  5
3A5
100
AcDbEntity
  8
0
  6
CONTINUOUS
 62
           7
100
AcDbLine
 10
-193.5
 20
-25.0
 11
-183.5
 21
-25.0
  0
LINE
  5
3A4
100
AcDbEntity
  8
0
  6
CONTINUOUS
 62
           7
100
AcDbLine
 10
-193.5
 20
25.0
 11
-193.5
 21
-25.0
  0
LINE
  5
3A3
100
AcDbEntity
  8
0
  6
CONTINUOUS
 62
           7
100
AcDbLine
 10
-206.5
 20
25.0
 11
-206.5
 21
-25.0
  0
LINE
  5
3A2
100
AcDbEntity
  8
0
  6
CONTINUOUS
 62
           7
100
AcDbLine
 10
-206.5
 20
-25.0
 11
-196.5
 21
-25.0
  0
LINE
  5
3A1
100
AcDbEntity
  8
0
  6
CONTINUOUS
 62
           7
100
AcDbLine
 10
-206.5
 20
25.0
 11
-196.5
 21
25.0
  0
LINE
  5
3A0
100
AcDbEntity
  8
0
  6
CONTINUOUS
 62
           7
100
AcDbLine
 10
-196.5
 20
25.0
 11
-196.5
 21
-25.0
  0
LINE
  5
39F
100
AcDbEntity
  8
0
  6
CONTINUOUS
 62
           7
100
AcDbLine
 10
-209.5
 20
25.0
 11
-209.5
 21
-25.0
  0
LINE
  5
39E
100
AcDbEntity
  8
0
  6
CONTINUOUS
 62
           7
100
AcDbLine
 10
-219.5
 20
25.0
 11
-209.5
 21
25.0
  0
LINE
  5
39D
100
AcDbEntity
  8
0
  6
CONTINUOUS
 62
           7
100
AcDbLine
 10
-219.5
 20
-25.0
 11
-209.5
 21
-25.0
  0
LINE
  5
39C
100
AcDbEntity
  8
0
  6
CONTINUOUS
 62
           7
100
AcDbLine
 10
-219.5
 20
25.0
 11
-219.5
 21
-25.0
  0
LINE
  5
39B
100
AcDbEntity
  8
0
  6
CONTINUOUS
 62
           7
100
AcDbLine
 10
-232.5
 20
25.0
 11
-232.5
 21
-25.0
  0
LINE
  5
39A
100
AcDbEntity
  8
0
  6
CONTINUOUS
 62
           7
100
AcDbLine
 10
-232.5
 20
-25.0
 11
-222.5
 21
-25.0
  0
LINE
  5
399
100
AcDbEntity
  8
0
  6
CONTINUOUS
 62
           7
100
AcDbLine
 10
-232.5
 20
25.0
 11
-222.5
 21
25.0
  0
LINE
  5
398
100
AcDbEntity
  8
0
  6
CONTINUOUS
 62
           7
100
AcDbLine
 10
-222.5
 20
25.0
 11
-222.5
 21
-25.0
  0
LINE
  5
397
100
AcDbEntity
  8
0
  6
CONTINUOUS
 62
           7
100
AcDbLine
 10
-235.5
 20
25.0
 11
-235.5
 21
-25.0
  0
LINE
  5
396
100
AcDbEntity
  8
0
  6
CONTINUOUS
 62
           7
100
AcDbLine
 10
-245.5
 20
25.0
 11
-235.5
 21
25.0
  0
LINE
  5
395
100
AcDbEntity
  8
0
  6
CONTINUOUS
 62
           7
100
AcDbLine
 10
-245.5
 20
-25.0
 11
-235.5
 21
-25.0
  0
LINE
  5
394
100
AcDbEntity
  8
0
  6
CONTINUOUS
 62
           7
100
AcDbLine
 10
-245.5
 20
25.0
 11
-245.5
 21
-25.0
  0
LINE
  5
393
100
AcDbEntity
  8
0
  6
CONTINUOUS
 62
           7
100
AcDbLine
 10
-193.5
 20
25.0
 11
-183.5
 21
25.0
  0
LINE
  5
392
100
AcDbEntity
  8
0
  6
CONTINUOUS
 62
           7
100
AcDbLine
 10
-183.5
 20
25.0
 11
-183.5
 21
-25.0
  0
LINE
  5
391
100
AcDbEntity
  8
0
  6
CONTINUOUS
 62
           7
100
AcDbLine
 10
-180.5
 20
-25.0
 11
-170.5
 21
-25.0
  0
LINE
  5
390
100
AcDbEntity
  8
0
  6
CONTINUOUS
 62
           7
100
AcDbLine
 10
-180.5
 20
25.0
 11
-180.5
 21
-25.0
  0
LINE
  5
38F
100
AcDbEntity
  8
0
  6
CONTINUOUS
 62
           7
100
AcDbLine
 10
-180.5
 20
25.0
 11
-170.5
 21
25.0
  0
LINE
  5
38E
100
AcDbEntity
  8
0
  6
CONTINUOUS
 62
           7
100
AcDbLine
 10
-170.5
 20
25.0
 11
-170.5
 21
-25.0
  0
LINE
  5
38D
100
AcDbEntity
  8
0
  6
CONTINUOUS
 62
           7
100
AcDbLine
 10
-167.5
 20
-25.0
 11
-157.5
 21
-25.0
  0
LINE
  5
38C
100
AcDbEntity
  8
0
  6
CONTINUOUS
 62
           7
100
AcDbLine
 10
-167.5
 20
25.0
 11
-167.5
 21
-25.0
  0
LINE
  5
38B
100
AcDbEntity
  8
0
  6
CONTINUOUS
 62
           7
100
AcDbLine
 10
-167.5
 20
25.0
 11
-157.5
 21
25.0
  0
LINE
  5
38A
100
AcDbEntity
  8
0
  6
CONTINUOUS
 62
           7
100
AcDbLine
 10
-157.5
 20
25.0
 11
-157.5
 21
-25.0
  0
LINE
  5
389
100
AcDbEntity
  8
0
  6
CONTINUOUS
 62
           7
100
AcDbLine
 10
-154.5
 20
-25.0
 11
-144.5
 21
-25.0
  0
LINE
  5
388
100
AcDbEntity
  8
0
  6
CONTINUOUS
 62
           7
100
AcDbLine
 10
-154.5
 20
25.0
 11
-154.5
 21
-25.0
  0
LINE
  5
387
100
AcDbEntity
  8
0
  6
CONTINUOUS
 62
           7
100
AcDbLine
 10
-154.5
 20
25.0
 11
-144.5
 21
25.0
  0
LINE
  5
386
100
AcDbEntity
  8
0
  6
CONTINUOUS
 62
           7
100
AcDbLine
 10
-144.5
 20
25.0
 11
-144.5
 21
-25.0
  0
LINE
  5
385
100
AcDbEntity
  8
0
  6
CONTINUOUS
 62
           7
100
AcDbLine
 10
-141.5
 20
-25.0
 11
-131.5
 21
-25.0
  0
LINE
  5
384
100
AcDbEntity
  8
0
  6
CONTINUOUS
 62
           7
100
AcDbLine
 10
-141.5
 20
25.0
 11
-141.5
 21
-25.0
  0
LINE
  5
383
100
AcDbEntity
  8
0
  6
CONTINUOUS
 62
           7
100
AcDbLine
 10
-141.5
 20
25.0
 11
-131.5
 21
25.0
  0
LINE
  5
382
100
AcDbEntity
  8
0
  6
CONTINUOUS
 62
           7
100
AcDbLine
 10
-131.5
 20
25.0
 11
-131.5
 21
-25.0
  0
LINE
  5
381
100
AcDbEntity
  8
0
  6
CONTINUOUS
 62
           7
100
AcDbLine
 10
-128.5
 20
-25.0
 11
-118.5
 21
-25.0
  0
LINE
  5
380
100
AcDbEntity
  8
0
  6
CONTINUOUS
 62
           7
100
AcDbLine
 10
-128.5
 20
25.0
 11
-128.5
 21
-25.0
  0
LINE
  5
37F
100
AcDbEntity
  8
0
  6
CONTINUOUS
 62
           7
100
AcDbLine
 10
-128.5
 20
25.0
 11
-118.5
 21
25.0
  0
LINE
  5
37E
100
AcDbEntity
  8
0
  6
CONTINUOUS
 62
           7
100
AcDbLine
 10
-118.5
 20
25.0
 11
-118.5
 21
-25.0
  0
LINE
  5
37D
100
AcDbEntity
  8
0
  6
CONTINUOUS
 62
           7
100
AcDbLine
 10
-115.5
 20
-25.0
 11
-105.5
 21
-25.0
  0
LINE
  5
37C
100
AcDbEntity
  8
0
  6
CONTINUOUS
 62
           7
100
AcDbLine
 10
-115.5
 20
25.0
 11
-115.5
 21
-25.0
  0
LINE
  5
37B
100
AcDbEntity
  8
0
  6
CONTINUOUS
 62
           7
100
AcDbLine
 10
-115.5
 20
25.0
 11
-105.5
 21
25.0
  0
LINE
  5
37A
100
AcDbEntity
  8
0
  6
CONTINUOUS
 62
           7
100
AcDbLine
 10
-105.5
 20
25.0
 11
-105.5
 21
-25.0
  0
LINE
  5
379
100
AcDbEntity
  8
0
  6
CONTINUOUS
 62
           7
100
AcDbLine
 10
-102.5
 20
-25.0
 11
-92.5
 21
-25.0
  0
LINE
  5
378
100
AcDbEntity
  8
0
  6
CONTINUOUS
 62
           7
100
AcDbLine
 10
-102.5
 20
25.0
 11
-102.5
 21
-25.0
  0
LINE
  5
377
100
AcDbEntity
  8
0
  6
CONTINUOUS
 62
           7
100
AcDbLine
 10
-102.5
 20
25.0
 11
-92.5
 21
25.0
  0
LINE
  5
376
100
AcDbEntity
  8
0
  6
CONTINUOUS
 62
           7
100
AcDbLine
 10
-92.5
 20
25.0
 11
-92.5
 21
-25.0
  0
LINE
  5
375
100
AcDbEntity
  8
0
  6
CONTINUOUS
 62
           7
100
AcDbLine
 10
-89.5
 20
-25.0
 11
-79.5
 21
-25.0
  0
LINE
  5
374
100
AcDbEntity
  8
0
  6
CONTINUOUS
 62
           7
100
AcDbLine
 10
-89.5
 20
25.0
 11
-89.5
 21
-25.0
  0
LINE
  5
373
100
AcDbEntity
  8
0
  6
CONTINUOUS
 62
           7
100
AcDbLine
 10
-89.5
 20
25.0
 11
-79.5
 21
25.0
  0
LINE
  5
372
100
AcDbEntity
  8
0
  6
CONTINUOUS
 62
           7
100
AcDbLine
 10
-79.5
 20
25.0
 11
-79.5
 21
-25.0
  0
LINE
  5
371
100
AcDbEntity
  8
0
  6
CONTINUOUS
 62
           7
100
AcDbLine
 10
-76.5
 20
-25.0
 11
-66.5
 21
-25.0
  0
LINE
  5
370
100
AcDbEntity
  8
0
  6
CONTINUOUS
 62
           7
100
AcDbLine
 10
-76.5
 20
25.0
 11
-76.5
 21
-25.0
  0
LINE
  5
36F
100
AcDbEntity
  8
0
  6
CONTINUOUS
 62
           7
100
AcDbLine
 10
-76.5
 20
25.0
 11
-66.5
 21
25.0
  0
LINE
  5
36E
100
AcDbEntity
  8
0
  6
CONTINUOUS
 62
           7
100
AcDbLine
 10
-66.5
 20
25.0
 11
-66.5
 21
-25.0
  0
LINE
  5
36D
100
AcDbEntity
  8
0
  6
CONTINUOUS
 62
           7
100
AcDbLine
 10
-63.5
 20
-25.0
 11
-53.5
 21
-25.0
  0
LINE
  5
36C
100
AcDbEntity
  8
0
  6
CONTINUOUS
 62
           7
100
AcDbLine
 10
-63.5
 20
25.0
 11
-63.5
 21
-25.0
  0
LINE
  5
36B
100
AcDbEntity
  8
0
  6
CONTINUOUS
 62
           7
100
AcDbLine
 10
-63.5
 20
25.0
 11
-53.5
 21
25.0
  0
LINE
  5
36A
100
AcDbEntity
  8
0
  6
CONTINUOUS
 62
           7
100
AcDbLine
 10
-53.5
 20
25.0
 11
-53.5
 21
-25.0
  0
LINE
  5
369
100
AcDbEntity
  8
0
  6
CONTINUOUS
 62
           7
100
AcDbLine
 10
-50.5
 20
-25.0
 11
-40.5
 21
-25.0
  0
LINE
  5
368
100
AcDbEntity
  8
0
  6
CONTINUOUS
 62
           7
100
AcDbLine
 10
-50.5
 20
25.0
 11
-50.5
 21
-25.0
  0
LINE
  5
367
100
AcDbEntity
  8
0
  6
CONTINUOUS
 62
           7
100
AcDbLine
 10
-50.5
 20
25.0
 11
-40.5
 21
25.0
  0
LINE
  5
366
100
AcDbEntity
  8
0
  6
CONTINUOUS
 62
           7
100
AcDbLine
 10
-40.5
 20
25.0
 11
-40.5
 21
-25.0
  0
LINE
  5
365
100
AcDbEntity
  8
0
  6
CONTINUOUS
 62
           7
100
AcDbLine
 10
-37.5
 20
-25.0
 11
-27.5
 21
-25.0
  0
LINE
  5
364
100
AcDbEntity
  8
0
  6
CONTINUOUS
 62
           7
100
AcDbLine
 10
-37.5
 20
25.0
 11
-37.5
 21
-25.0
  0
LINE
  5
363
100
AcDbEntity
  8
0
  6
CONTINUOUS
 62
           7
100
AcDbLine
 10
-37.5
 20
25.0
 11
-27.5
 21
25.0
  0
LINE
  5
362
100
AcDbEntity
  8
0
  6
CONTINUOUS
 62
           7
100
AcDbLine
 10
-27.5
 20
25.0
 11
-27.5
 21
-25.0
  0
LINE
  5
361
100
AcDbEntity
  8
0
  6
CONTINUOUS
 62
           7
100
AcDbLine
 10
-24.5
 20
-25.0
 11
-14.5
 21
-25.0
  0
LINE
  5
360
100
AcDbEntity
  8
0
  6
CONTINUOUS
 62
           7
100
AcDbLine
 10
-24.5
 20
25.0
 11
-24.5
 21
-25.0
  0
LINE
  5
35F
100
AcDbEntity
  8
0
  6
CONTINUOUS
 62
           7
100
AcDbLine
 10
-24.5
 20
25.0
 11
-14.5
 21
25.0
  0
LINE
  5
35E
100
AcDbEntity
  8
0
  6
CONTINUOUS
 62
           7
100
AcDbLine
 10
-14.5
 20
25.0
 11
-14.5
 21
-25.0
  0
LINE
  5
35D
100
AcDbEntity
  8
0
  6
CONTINUOUS
 62
           7
100
AcDbLine
 10
-11.5
 20
-25.0
 11
-1.5
 21
-25.0
  0
LINE
  5
35C
100
AcDbEntity
  8
0
  6
CONTINUOUS
 62
           7
100
AcDbLine
 10
-11.5
 20
25.0
 11
-11.5
 21
-25.0
  0
LINE
  5
35B
100
AcDbEntity
  8
0
  6
CONTINUOUS
 62
           7
100
AcDbLine
 10
-11.5
 20
25.0
 11
-1.5
 21
25.0
  0
LINE
  5
35A
100
AcDbEntity
  8
0
  6
CONTINUOUS
 62
           7
100
AcDbLine
 10
-1.5
 20
25.0
 11
-1.5
 21
-25.0
  0
LINE
  5
359
100
AcDbEntity
  8
0
  6
CONTINUOUS
 62
           7
100
AcDbLine
 10
1.5
 20
-25.0
 11
11.5
 21
-25.0
  0
LINE
  5
358
100
AcDbEntity
  8
0
  6
CONTINUOUS
 62
           7
100
AcDbLine
 10
1.5
 20
25.0
 11
11.5
 21
25.0
  0
LINE
  5
357
100
AcDbEntity
  8
0
  6
CONTINUOUS
 62
           7
100
AcDbLine
 10
11.5
 20
25.0
 11
11.5
 21
-25.0
  0
LINE
  5
356
100
AcDbEntity
  8
0
  6
CONTINUOUS
 62
           7
100
AcDbLine
 10
14.5
 20
-25.0
 11
24.5
 21
-25.0
  0
LINE
  5
355
100
AcDbEntity
  8
0
  6
CONTINUOUS
 62
           7
100
AcDbLine
 10
14.5
 20
25.0
 11
14.5
 21
-25.0
  0
LINE
  5
354
100
AcDbEntity
  8
0
  6
CONTINUOUS
 62
           7
100
AcDbLine
 10
1.5
 20
25.0
 11
1.5
 21
-25.0
  0
LINE
  5
353
100
AcDbEntity
  8
0
  6
CONTINUOUS
 62
           7
100
AcDbLine
 10
14.5
 20
25.0
 11
24.5
 21
25.0
  0
LINE
  5
352
100
AcDbEntity
  8
0
  6
CONTINUOUS
 62
           7
100
AcDbLine
 10
24.5
 20
25.0
 11
24.5
 21
-25.0
  0
LINE
  5
351
100
AcDbEntity
  8
0
  6
CONTINUOUS
 62
           7
100
AcDbLine
 10
27.5
 20
-25.0
 11
37.5
 21
-25.0
  0
LINE
  5
350
100
AcDbEntity
  8
0
  6
CONTINUOUS
 62
           7
100
AcDbLine
 10
27.5
 20
25.0
 11
27.5
 21
-25.0
  0
LINE
  5
34F
100
AcDbEntity
  8
0
  6
CONTINUOUS
 62
           7
100
AcDbLine
 10
27.5
 20
25.0
 11
37.5
 21
25.0
  0
LINE
  5
34E
100
AcDbEntity
  8
0
  6
CONTINUOUS
 62
           7
100
AcDbLine
 10
37.5
 20
25.0
 11
37.5
 21
-25.0
  0
LINE
  5
34D
100
AcDbEntity
  8
0
  6
CONTINUOUS
 62
           7
100
AcDbLine
 10
40.5
 20
-25.0
 11
50.5
 21
-25.0
  0
LINE
  5
34C
100
AcDbEntity
  8
0
  6
CONTINUOUS
 62
           7
100
AcDbLine
 10
40.5
 20
25.0
 11
40.5
 21
-25.0
  0
LINE
  5
34B
100
AcDbEntity
  8
0
  6
CONTINUOUS
 62
           7
100
AcDbLine
 10
40.5
 20
25.0
 11
50.5
 21
25.0
  0
LINE
  5
34A
100
AcDbEntity
  8
0
  6
CONTINUOUS
 62
           7
100
AcDbLine
 10
50.5
 20
25.0
 11
50.5
 21
-25.0
  0
LINE
  5
349
100
AcDbEntity
  8
0
  6
CONTINUOUS
 62
           7
100
AcDbLine
 10
53.5
 20
-25.0
 11
63.5
 21
-25.0
  0
LINE
  5
348
100
AcDbEntity
  8
0
  6
CONTINUOUS
 62
           7
100
AcDbLine
 10
53.5
 20
25.0
 11
53.5
 21
-25.0
  0
LINE
  5
347
100
AcDbEntity
  8
0
  6
CONTINUOUS
 62
           7
100
AcDbLine
 10
53.5
 20
25.0
 11
63.5
 21
25.0
  0
LINE
  5
346
100
AcDbEntity
  8
0
  6
CONTINUOUS
 62
           7
100
AcDbLine
 10
63.5
 20
25.0
 11
63.5
 21
-25.0
  0
LINE
  5
345
100
AcDbEntity
  8
0
  6
CONTINUOUS
 62
           7
100
AcDbLine
 10
66.5
 20
-25.0
 11
76.5
 21
-25.0
  0
LINE
  5
344
100
AcDbEntity
  8
0
  6
CONTINUOUS
 62
           7
100
AcDbLine
 10
66.5
 20
25.0
 11
66.5
 21
-25.0
  0
LINE
  5
343
100
AcDbEntity
  8
0
  6
CONTINUOUS
 62
           7
100
AcDbLine
 10
66.5
 20
25.0
 11
76.5
 21
25.0
  0
LINE
  5
342
100
AcDbEntity
  8
0
  6
CONTINUOUS
 62
           7
100
AcDbLine
 10
76.5
 20
25.0
 11
76.5
 21
-25.0
  0
LINE
  5
341
100
AcDbEntity
  8
0
  6
CONTINUOUS
 62
           7
100
AcDbLine
 10
79.5
 20
-25.0
 11
89.5
 21
-25.0
  0
LINE
  5
340
100
AcDbEntity
  8
0
  6
CONTINUOUS
 62
           7
100
AcDbLine
 10
79.5
 20
25.0
 11
79.5
 21
-25.0
  0
LINE
  5
33F
100
AcDbEntity
  8
0
  6
CONTINUOUS
 62
           7
100
AcDbLine
 10
79.5
 20
25.0
 11
89.5
 21
25.0
  0
LINE
  5
33E
100
AcDbEntity
  8
0
  6
CONTINUOUS
 62
           7
100
AcDbLine
 10
89.5
 20
25.0
 11
89.5
 21
-25.0
  0
LINE
  5
33D
100
AcDbEntity
  8
0
  6
CONTINUOUS
 62
           7
100
AcDbLine
 10
92.5
 20
-25.0
 11
102.5
 21
-25.0
  0
LINE
  5
33C
100
AcDbEntity
  8
0
  6
CONTINUOUS
 62
           7
100
AcDbLine
 10
92.5
 20
25.0
 11
92.5
 21
-25.0
  0
LINE
  5
33B
100
AcDbEntity
  8
0
  6
CONTINUOUS
 62
           7
100
AcDbLine
 10
92.5
 20
25.0
 11
102.5
 21
25.0
  0
LINE
  5
33A
100
AcDbEntity
  8
0
  6
CONTINUOUS
 62
           7
100
AcDbLine
 10
102.5
 20
25.0
 11
102.5
 21
-25.0
  0
LINE
  5
339
100
AcDbEntity
  8
0
  6
CONTINUOUS
 62
           7
100
AcDbLine
 10
105.5
 20
-25.0
 11
115.5
 21
-25.0
  0
LINE
  5
338
100
AcDbEntity
  8
0
  6
CONTINUOUS
 62
           7
100
AcDbLine
 10
105.5
 20
25.0
 11
105.5
 21
-25.0
  0
LINE
  5
337
100
AcDbEntity
  8
0
  6
CONTINUOUS
 62
           7
100
AcDbLine
 10
105.5
 20
25.0
 11
115.5
 21
25.0
  0
LINE
  5
336
100
AcDbEntity
  8
0
  6
CONTINUOUS
 62
           7
100
AcDbLine
 10
115.5
 20
25.0
 11
115.5
 21
-25.0
  0
LINE
  5
335
100
AcDbEntity
  8
0
  6
CONTINUOUS
 62
           7
100
AcDbLine
 10
118.5
 20
-25.0
 11
128.5
 21
-25.0
  0
LINE
  5
334
100
AcDbEntity
  8
0
  6
CONTINUOUS
 62
           7
100
AcDbLine
 10
118.5
 20
25.0
 11
118.5
 21
-25.0
  0
LINE
  5
333
100
AcDbEntity
  8
0
  6
CONTINUOUS
 62
           7
100
AcDbLine
 10
118.5
 20
25.0
 11
128.5
 21
25.0
  0
LINE
  5
332
100
AcDbEntity
  8
0
  6
CONTINUOUS
 62
           7
100
AcDbLine
 10
128.5
 20
25.0
 11
128.5
 21
-25.0
  0
LINE
  5
331
100
AcDbEntity
  8
0
  6
CONTINUOUS
 62
           7
100
AcDbLine
 10
131.5
 20
-25.0
 11
141.5
 21
-25.0
  0
LINE
  5
330
100
AcDbEntity
  8
0
  6
CONTINUOUS
 62
           7
100
AcDbLine
 10
131.5
 20
25.0
 11
131.5
 21
-25.0
  0
LINE
  5
32F
100
AcDbEntity
  8
0
  6
CONTINUOUS
 62
           7
100
AcDbLine
 10
131.5
 20
25.0
 11
141.5
 21
25.0
  0
LINE
  5
32E
100
AcDbEntity
  8
0
  6
CONTINUOUS
 62
           7
100
AcDbLine
 10
141.5
 20
25.0
 11
141.5
 21
-25.0
  0
LINE
  5
32D
100
AcDbEntity
  8
0
  6
CONTINUOUS
 62
           7
100
AcDbLine
 10
144.5
 20
-25.0
 11
154.5
 21
-25.0
  0
LINE
  5
32C
100
AcDbEntity
  8
0
  6
CONTINUOUS
 62
           7
100
AcDbLine
 10
144.5
 20
25.0
 11
144.5
 21
-25.0
  0
LINE
  5
32B
100
AcDbEntity
  8
0
  6
CONTINUOUS
 62
           7
100
AcDbLine
 10
144.5
 20
25.0
 11
154.5
 21
25.0
  0
LINE
  5
32A
100
AcDbEntity
  8
0
  6
CONTINUOUS
 62
           7
100
AcDbLine
 10
154.5
 20
25.0
 11
154.5
 21
-25.0
  0
LINE
  5
329
100
AcDbEntity
  8
0
  6
CONTINUOUS
 62
           7
100
AcDbLine
 10
157.5
 20
-25.0
 11
167.5
 21
-25.0
  0
LINE
  5
328
100
AcDbEntity
  8
0
  6
CONTINUOUS
 62
           7
100
AcDbLine
 10
157.5
 20
25.0
 11
157.5
 21
-25.0
  0
LINE
  5
327
100
AcDbEntity
  8
0
  6
CONTINUOUS
 62
           7
100
AcDbLine
 10
157.5
 20
25.0
 11
167.5
 21
25.0
  0
LINE
  5
326
100
AcDbEntity
  8
0
  6
CONTINUOUS
 62
           7
100
AcDbLine
 10
167.5
 20
25.0
 11
167.5
 21
-25.0
  0
LINE
  5
325
100
AcDbEntity
  8
0
  6
CONTINUOUS
 62
           7
100
AcDbLine
 10
170.5
 20
-25.0
 11
180.5
 21
-25.0
  0
LINE
  5
324
100
AcDbEntity
  8
0
  6
CONTINUOUS
 62
           7
100
AcDbLine
 10
170.5
 20
25.0
 11
170.5
 21
-25.0
  0
LINE
  5
323
100
AcDbEntity
  8
0
  6
CONTINUOUS
 62
           7
100
AcDbLine
 10
170.5
 20
25.0
 11
180.5
 21
25.0
  0
LINE
  5
322
100
AcDbEntity
  8
0
  6
CONTINUOUS
 62
           7
100
AcDbLine
 10
180.5
 20
25.0
 11
180.5
 21
-25.0
  0
LINE
  5
321
100
AcDbEntity
  8
0
  6
CONTINUOUS
 62
           7
100
AcDbLine
 10
183.5
 20
-25.0
 11
193.5
 21
-25.0
  0
LINE
  5
320
100
AcDbEntity
  8
0
  6
CONTINUOUS
 62
           7
100
AcDbLine
 10
183.5
 20
25.0
 11
183.5
 21
-25.0
  0
LINE
  5
31F
100
AcDbEntity
  8
0
  6
CONTINUOUS
 62
           7
100
AcDbLine
 10
183.5
 20
25.0
 11
193.5
 21
25.0
  0
LINE
  5
31E
100
AcDbEntity
  8
0
  6
CONTINUOUS
 62
           7
100
AcDbLine
 10
193.5
 20
25.0
 11
193.5
 21
-25.0
  0
LINE
  5
31D
100
AcDbEntity
  8
0
  6
CONTINUOUS
 62
           7
100
AcDbLine
 10
196.5
 20
-25.0
 11
206.5
 21
-25.0
  0
LINE
  5
31C
100
AcDbEntity
  8
0
  6
CONTINUOUS
 62
           7
100
AcDbLine
 10
196.5
 20
25.0
 11
196.5
 21
-25.0
  0
LINE
  5
31B
100
AcDbEntity
  8
0
  6
CONTINUOUS
 62
           7
100
AcDbLine
 10
196.5
 20
25.0
 11
206.5
 21
25.0
  0
LINE
  5
31A
100
AcDbEntity
  8
0
  6
CONTINUOUS
 62
           7
100
AcDbLine
 10
206.5
 20
25.0
 11
206.5
 21
-25.0
  0
LINE
  5
319
100
AcDbEntity
  8
0
  6
CONTINUOUS
 62
           7
100
AcDbLine
 10
209.5
 20
-25.0
 11
219.5
 21
-25.0
  0
LINE
  5
318
100
AcDbEntity
  8
0
  6
CONTINUOUS
 62
           7
100
AcDbLine
 10
209.5
 20
25.0
 11
209.5
 21
-25.0
  0
LINE
  5
317
100
AcDbEntity
  8
0
  6
CONTINUOUS
 62
           7
100
AcDbLine
 10
209.5
 20
25.0
 11
219.5
 21
25.0
  0
LINE
  5
316
100
AcDbEntity
  8
0
  6
CONTINUOUS
 62
           7
100
AcDbLine
 10
219.5
 20
25.0
 11
219.5
 21
-25.0
  0
LINE
  5
315
100
AcDbEntity
  8
0
  6
CONTINUOUS
 62
           7
100
AcDbLine
 10
222.5
 20
-25.0
 11
232.5
 21
-25.0
  0
LINE
  5
314
100
AcDbEntity
  8
0
  6
CONTINUOUS
 62
           7
100
AcDbLine
 10
222.5
 20
25.0
 11
222.5
 21
-25.0
  0
LINE
  5
313
100
AcDbEntity
  8
0
  6
CONTINUOUS
 62
           7
100
AcDbLine
 10
222.5
 20
25.0
 11
232.5
 21
25.0
  0
LINE
  5
312
100
AcDbEntity
  8
0
  6
CONTINUOUS
 62
           7
100
AcDbLine
 10
232.5
 20
25.0
 11
232.5
 21
-25.0
  0
LINE
  5
311
100
AcDbEntity
  8
0
  6
CONTINUOUS
 62
           7
100
AcDbLine
 10
235.5
 20
-25.0
 11
245.5
 21
-25.0
  0
LINE
  5
310
100
AcDbEntity
  8
0
  6
CONTINUOUS
 62
           7
100
AcDbLine
 10
235.5
 20
25.0
 11
235.5
 21
-25.0
  0
LINE
  5
30F
100
AcDbEntity
  8
0
  6
CONTINUOUS
 62
           7
100
AcDbLine
 10
235.5
 20
25.0
 11
245.5
 21
25.0
  0
LINE
  5
30E
100
AcDbEntity
  8
0
  6
CONTINUOUS
 62
           7
100
AcDbLine
 10
245.5
 20
25.0
 11
245.5
 21
-25.0
  0
LINE
  5
30D
100
AcDbEntity
  8
0
  6
CONTINUOUS
 62
           7
100
AcDbLine
 10
248.5
 20
-25.0
 11
258.5
 21
-25.0
  0
LINE
  5
30C
100
AcDbEntity
  8
0
  6
CONTINUOUS
 62
           7
100
AcDbLine
 10
248.5
 20
25.0
 11
248.5
 21
-25.0
  0
LINE
  5
30B
100
AcDbEntity
  8
0
  6
CONTINUOUS
 62
           7
100
AcDbLine
 10
248.5
 20
25.0
 11
258.5
 21
25.0
  0
LINE
  5
30A
100
AcDbEntity
  8
0
  6
CONTINUOUS
 62
           7
100
AcDbLine
 10
258.5
 20
25.0
 11
258.5
 21
-25.0
  0
LINE
  5
309
100
AcDbEntity
  8
0
  6
CONTINUOUS
 62
           7
100
AcDbLine
 10
-193.5
 20
-85.0
 11
-183.5
 21
-85.0
  0
LINE
  5
308
100
AcDbEntity
  8
0
  6
CONTINUOUS
 62
           7
100
AcDbLine
 10
-193.5
 20
-35.0
 11
-193.5
 21
-85.0
  0
LINE
  5
307
100
AcDbEntity
  8
0
  6
CONTINUOUS
 62
           7
100
AcDbLine
 10
-206.5
 20
-35.0
 11
-206.5
 21
-85.0
  0
LINE
  5
306
100
AcDbEntity
  8
0
  6
CONTINUOUS
 62
           7
100
AcDbLine
 10
-206.5
 20
-85.0
 11
-196.5
 21
-85.0
  0
LINE
  5
305
100
AcDbEntity
  8
0
  6
CONTINUOUS
 62
           7
100
AcDbLine
 10
-206.5
 20
-35.0
 11
-196.5
 21
-35.0
  0
LINE
  5
304
100
AcDbEntity
  8
0
  6
CONTINUOUS
 62
           7
100
AcDbLine
 10
-196.5
 20
-35.0
 11
-196.5
 21
-85.0
  0
LINE
  5
303
100
AcDbEntity
  8
0
  6
CONTINUOUS
 62
           7
100
AcDbLine
 10
-209.5
 20
-35.0
 11
-209.5
 21
-85.0
  0
LINE
  5
302
100
AcDbEntity
  8
0
  6
CONTINUOUS
 62
           7
100
AcDbLine
 10
-219.5
 20
-35.0
 11
-209.5
 21
-35.0
  0
LINE
  5
301
100
AcDbEntity
  8
0
  6
CONTINUOUS
 62
           7
100
AcDbLine
 10
-219.5
 20
-85.0
 11
-209.5
 21
-85.0
  0
LINE
  5
300
100
AcDbEntity
  8
0
  6
CONTINUOUS
 62
           7
100
AcDbLine
 10
-219.5
 20
-35.0
 11
-219.5
 21
-85.0
  0
LINE
  5
2FF
100
AcDbEntity
  8
0
  6
CONTINUOUS
 62
           7
100
AcDbLine
 10
-232.5
 20
-35.0
 11
-232.5
 21
-85.0
  0
LINE
  5
2FE
100
AcDbEntity
  8
0
  6
CONTINUOUS
 62
           7
100
AcDbLine
 10
-232.5
 20
-85.0
 11
-222.5
 21
-85.0
  0
LINE
  5
2FD
100
AcDbEntity
  8
0
  6
CONTINUOUS
 62
           7
100
AcDbLine
 10
-232.5
 20
-35.0
 11
-222.5
 21
-35.0
  0
LINE
  5
2FC
100
AcDbEntity
  8
0
  6
CONTINUOUS
 62
           7
100
AcDbLine
 10
-222.5
 20
-35.0
 11
-222.5
 21
-85.0
  0
LINE
  5
2FB
100
AcDbEntity
  8
0
  6
CONTINUOUS
 62
           7
100
AcDbLine
 10
-235.5
 20
-35.0
 11
-235.5
 21
-85.0
  0
LINE
  5
2FA
100
AcDbEntity
  8
0
  6
CONTINUOUS
 62
           7
100
AcDbLine
 10
-245.5
 20
-35.0
 11
-235.5
 21
-35.0
  0
LINE
  5
2F9
100
AcDbEntity
  8
0
  6
CONTINUOUS
 62
           7
100
AcDbLine
 10
-245.5
 20
-85.0
 11
-235.5
 21
-85.0
  0
LINE
  5
2F8
100
AcDbEntity
  8
0
  6
CONTINUOUS
 62
           7
100
AcDbLine
 10
-245.5
 20
-35.0
 11
-245.5
 21
-85.0
  0
LINE
  5
2F7
100
AcDbEntity
  8
0
  6
CONTINUOUS
 62
           7
100
AcDbLine
 10
-193.5
 20
-35.0
 11
-183.5
 21
-35.0
  0
LINE
  5
2F6
100
AcDbEntity
  8
0
  6
CONTINUOUS
 62
           7
100
AcDbLine
 10
-183.5
 20
-35.0
 11
-183.5
 21
-85.0
  0
LINE
  5
2F5
100
AcDbEntity
  8
0
  6
CONTINUOUS
 62
           7
100
AcDbLine
 10
-180.5
 20
-85.0
 11
-170.5
 21
-85.0
  0
LINE
  5
2F4
100
AcDbEntity
  8
0
  6
CONTINUOUS
 62
           7
100
AcDbLine
 10
-180.5
 20
-35.0
 11
-180.5
 21
-85.0
  0
LINE
  5
2F3
100
AcDbEntity
  8
0
  6
CONTINUOUS
 62
           7
100
AcDbLine
 10
-180.5
 20
-35.0
 11
-170.5
 21
-35.0
  0
LINE
  5
2F2
100
AcDbEntity
  8
0
  6
CONTINUOUS
 62
           7
100
AcDbLine
 10
-170.5
 20
-35.0
 11
-170.5
 21
-85.0
  0
LINE
  5
2F1
100
AcDbEntity
  8
0
  6
CONTINUOUS
 62
           7
100
AcDbLine
 10
-167.5
 20
-85.0
 11
-157.5
 21
-85.0
  0
LINE
  5
2F0
100
AcDbEntity
  8
0
  6
CONTINUOUS
 62
           7
100
AcDbLine
 10
-167.5
 20
-35.0
 11
-167.5
 21
-85.0
  0
LINE
  5
2EF
100
AcDbEntity
  8
0
  6
CONTINUOUS
 62
           7
100
AcDbLine
 10
-167.5
 20
-35.0
 11
-157.5
 21
-35.0
  0
LINE
  5
2EE
100
AcDbEntity
  8
0
  6
CONTINUOUS
 62
           7
100
AcDbLine
 10
-157.5
 20
-35.0
 11
-157.5
 21
-85.0
  0
LINE
  5
2ED
100
AcDbEntity
  8
0
  6
CONTINUOUS
 62
           7
100
AcDbLine
 10
-154.5
 20
-85.0
 11
-144.5
 21
-85.0
  0
LINE
  5
2EC
100
AcDbEntity
  8
0
  6
CONTINUOUS
 62
           7
100
AcDbLine
 10
-154.5
 20
-35.0
 11
-154.5
 21
-85.0
  0
LINE
  5
2EB
100
AcDbEntity
  8
0
  6
CONTINUOUS
 62
           7
100
AcDbLine
 10
-154.5
 20
-35.0
 11
-144.5
 21
-35.0
  0
LINE
  5
2EA
100
AcDbEntity
  8
0
  6
CONTINUOUS
 62
           7
100
AcDbLine
 10
-144.5
 20
-35.0
 11
-144.5
 21
-85.0
  0
LINE
  5
2E9
100
AcDbEntity
  8
0
  6
CONTINUOUS
 62
           7
100
AcDbLine
 10
-141.5
 20
-85.0
 11
-131.5
 21
-85.0
  0
LINE
  5
2E8
100
AcDbEntity
  8
0
  6
CONTINUOUS
 62
           7
100
AcDbLine
 10
-141.5
 20
-35.0
 11
-141.5
 21
-85.0
  0
LINE
  5
2E7
100
AcDbEntity
  8
0
  6
CONTINUOUS
 62
           7
100
AcDbLine
 10
-141.5
 20
-35.0
 11
-131.5
 21
-35.0
  0
LINE
  5
2E6
100
AcDbEntity
  8
0
  6
CONTINUOUS
 62
           7
100
AcDbLine
 10
-131.5
 20
-35.0
 11
-131.5
 21
-85.0
  0
LINE
  5
2E5
100
AcDbEntity
  8
0
  6
CONTINUOUS
 62
           7
100
AcDbLine
 10
-128.5
 20
-85.0
 11
-118.5
 21
-85.0
  0
LINE
  5
2E4
100
AcDbEntity
  8
0
  6
CONTINUOUS
 62
           7
100
AcDbLine
 10
-128.5
 20
-35.0
 11
-128.5
 21
-85.0
  0
LINE
  5
2E3
100
AcDbEntity
  8
0
  6
CONTINUOUS
 62
           7
100
AcDbLine
 10
-128.5
 20
-35.0
 11
-118.5
 21
-35.0
  0
LINE
  5
2E2
100
AcDbEntity
  8
0
  6
CONTINUOUS
 62
           7
100
AcDbLine
 10
-118.5
 20
-35.0
 11
-118.5
 21
-85.0
  0
LINE
  5
2E1
100
AcDbEntity
  8
0
  6
CONTINUOUS
 62
           7
100
AcDbLine
 10
-115.5
 20
-85.0
 11
-105.5
 21
-85.0
  0
LINE
  5
2E0
100
AcDbEntity
  8
0
  6
CONTINUOUS
 62
           7
100
AcDbLine
 10
-115.5
 20
-35.0
 11
-115.5
 21
-85.0
  0
LINE
  5
2DF
100
AcDbEntity
  8
0
  6
CONTINUOUS
 62
           7
100
AcDbLine
 10
-115.5
 20
-35.0
 11
-105.5
 21
-35.0
  0
LINE
  5
2DE
100
AcDbEntity
  8
0
  6
CONTINUOUS
 62
           7
100
AcDbLine
 10
-105.5
 20
-35.0
 11
-105.5
 21
-85.0
  0
LINE
  5
2DD
100
AcDbEntity
  8
0
  6
CONTINUOUS
 62
           7
100
AcDbLine
 10
-102.5
 20
-85.0
 11
-92.5
 21
-85.0
  0
LINE
  5
2DC
100
AcDbEntity
  8
0
  6
CONTINUOUS
 62
           7
100
AcDbLine
 10
-102.5
 20
-35.0
 11
-102.5
 21
-85.0
  0
LINE
  5
2DB
100
AcDbEntity
  8
0
  6
CONTINUOUS
 62
           7
100
AcDbLine
 10
-102.5
 20
-35.0
 11
-92.5
 21
-35.0
  0
LINE
  5
2DA
100
AcDbEntity
  8
0
  6
CONTINUOUS
 62
           7
100
AcDbLine
 10
-92.5
 20
-35.0
 11
-92.5
 21
-85.0
  0
LINE
  5
2D9
100
AcDbEntity
  8
0
  6
CONTINUOUS
 62
           7
100
AcDbLine
 10
-89.5
 20
-85.0
 11
-79.5
 21
-85.0
  0
LINE
  5
2D8
100
AcDbEntity
  8
0
  6
CONTINUOUS
 62
           7
100
AcDbLine
 10
-89.5
 20
-35.0
 11
-89.5
 21
-85.0
  0
LINE
  5
2D7
100
AcDbEntity
  8
0
  6
CONTINUOUS
 62
           7
100
AcDbLine
 10
-89.5
 20
-35.0
 11
-79.5
 21
-35.0
  0
LINE
  5
2D6
100
AcDbEntity
  8
0
  6
CONTINUOUS
 62
           7
100
AcDbLine
 10
-79.5
 20
-35.0
 11
-79.5
 21
-85.0
  0
LINE
  5
2D5
100
AcDbEntity
  8
0
  6
CONTINUOUS
 62
           7
100
AcDbLine
 10
-76.5
 20
-85.0
 11
-66.5
 21
-85.0
  0
LINE
  5
2D4
100
AcDbEntity
  8
0
  6
CONTINUOUS
 62
           7
100
AcDbLine
 10
-76.5
 20
-35.0
 11
-76.5
 21
-85.0
  0
LINE
  5
2D3
100
AcDbEntity
  8
0
  6
CONTINUOUS
 62
           7
100
AcDbLine
 10
-76.5
 20
-35.0
 11
-66.5
 21
-35.0
  0
LINE
  5
2D2
100
AcDbEntity
  8
0
  6
CONTINUOUS
 62
           7
100
AcDbLine
 10
-66.5
 20
-35.0
 11
-66.5
 21
-85.0
  0
LINE
  5
2D1
100
AcDbEntity
  8
0
  6
CONTINUOUS
 62
           7
100
AcDbLine
 10
-63.5
 20
-85.0
 11
-53.5
 21
-85.0
  0
LINE
  5
2D0
100
AcDbEntity
  8
0
  6
CONTINUOUS
 62
           7
100
AcDbLine
 10
-63.5
 20
-35.0
 11
-63.5
 21
-85.0
  0
LINE
  5
2CF
100
AcDbEntity
  8
0
  6
CONTINUOUS
 62
           7
100
AcDbLine
 10
-63.5
 20
-35.0
 11
-53.5
 21
-35.0
  0
LINE
  5
2CE
100
AcDbEntity
  8
0
  6
CONTINUOUS
 62
           7
100
AcDbLine
 10
-53.5
 20
-35.0
 11
-53.5
 21
-85.0
  0
LINE
  5
2CD
100
AcDbEntity
  8
0
  6
CONTINUOUS
 62
           7
100
AcDbLine
 10
-50.5
 20
-85.0
 11
-40.5
 21
-85.0
  0
LINE
  5
2CC
100
AcDbEntity
  8
0
  6
CONTINUOUS
 62
           7
100
AcDbLine
 10
-50.5
 20
-35.0
 11
-50.5
 21
-85.0
  0
LINE
  5
2CB
100
AcDbEntity
  8
0
  6
CONTINUOUS
 62
           7
100
AcDbLine
 10
-50.5
 20
-35.0
 11
-40.5
 21
-35.0
  0
LINE
  5
2CA
100
AcDbEntity
  8
0
  6
CONTINUOUS
 62
           7
100
AcDbLine
 10
-40.5
 20
-35.0
 11
-40.5
 21
-85.0
  0
LINE
  5
2C9
100
AcDbEntity
  8
0
  6
CONTINUOUS
 62
           7
100
AcDbLine
 10
-37.5
 20
-85.0
 11
-27.5
 21
-85.0
  0
LINE
  5
2C8
100
AcDbEntity
  8
0
  6
CONTINUOUS
 62
           7
100
AcDbLine
 10
-37.5
 20
-35.0
 11
-37.5
 21
-85.0
  0
LINE
  5
2C7
100
AcDbEntity
  8
0
  6
CONTINUOUS
 62
           7
100
AcDbLine
 10
-37.5
 20
-35.0
 11
-27.5
 21
-35.0
  0
LINE
  5
2C6
100
AcDbEntity
  8
0
  6
CONTINUOUS
 62
           7
100
AcDbLine
 10
-27.5
 20
-35.0
 11
-27.5
 21
-85.0
  0
LINE
  5
2C5
100
AcDbEntity
  8
0
  6
CONTINUOUS
 62
           7
100
AcDbLine
 10
-24.5
 20
-85.0
 11
-14.5
 21
-85.0
  0
LINE
  5
2C4
100
AcDbEntity
  8
0
  6
CONTINUOUS
 62
           7
100
AcDbLine
 10
-24.5
 20
-35.0
 11
-24.5
 21
-85.0
  0
LINE
  5
2C3
100
AcDbEntity
  8
0
  6
CONTINUOUS
 62
           7
100
AcDbLine
 10
-24.5
 20
-35.0
 11
-14.5
 21
-35.0
  0
LINE
  5
2C2
100
AcDbEntity
  8
0
  6
CONTINUOUS
 62
           7
100
AcDbLine
 10
-14.5
 20
-35.0
 11
-14.5
 21
-85.0
  0
LINE
  5
2C1
100
AcDbEntity
  8
0
  6
CONTINUOUS
 62
           7
100
AcDbLine
 10
-11.5
 20
-85.0
 11
-1.5
 21
-85.0
  0
LINE
  5
2C0
100
AcDbEntity
  8
0
  6
CONTINUOUS
 62
           7
100
AcDbLine
 10
-11.5
 20
-35.0
 11
-11.5
 21
-85.0
  0
LINE
  5
2BF
100
AcDbEntity
  8
0
  6
CONTINUOUS
 62
           7
100
AcDbLine
 10
-11.5
 20
-35.0
 11
-1.5
 21
-35.0
  0
LINE
  5
2BE
100
AcDbEntity
  8
0
  6
CONTINUOUS
 62
           7
100
AcDbLine
 10
-1.5
 20
-35.0
 11
-1.5
 21
-85.0
  0
LINE
  5
2BD
100
AcDbEntity
  8
0
  6
CONTINUOUS
 62
           7
100
AcDbLine
 10
1.5
 20
-85.0
 11
11.5
 21
-85.0
  0
LINE
  5
2BC
100
AcDbEntity
  8
0
  6
CONTINUOUS
 62
           7
100
AcDbLine
 10
1.5
 20
-35.0
 11
11.5
 21
-35.0
  0
LINE
  5
2BB
100
AcDbEntity
  8
0
  6
CONTINUOUS
 62
           7
100
AcDbLine
 10
11.5
 20
-35.0
 11
11.5
 21
-85.0
  0
LINE
  5
2BA
100
AcDbEntity
  8
0
  6
CONTINUOUS
 62
           7
100
AcDbLine
 10
14.5
 20
-85.0
 11
24.5
 21
-85.0
  0
LINE
  5
2B9
100
AcDbEntity
  8
0
  6
CONTINUOUS
 62
           7
100
AcDbLine
 10
14.5
 20
-35.0
 11
14.5
 21
-85.0
  0
LINE
  5
2B8
100
AcDbEntity
  8
0
  6
CONTINUOUS
 62
           7
100
AcDbLine
 10
1.5
 20
-35.0
 11
1.5
 21
-85.0
  0
LINE
  5
2B7
100
AcDbEntity
  8
0
  6
CONTINUOUS
 62
           7
100
AcDbLine
 10
14.5
 20
-35.0
 11
24.5
 21
-35.0
  0
LINE
  5
2B6
100
AcDbEntity
  8
0
  6
CONTINUOUS
 62
           7
100
AcDbLine
 10
24.5
 20
-35.0
 11
24.5
 21
-85.0
  0
LINE
  5
2B5
100
AcDbEntity
  8
0
  6
CONTINUOUS
 62
           7
100
AcDbLine
 10
27.5
 20
-85.0
 11
37.5
 21
-85.0
  0
LINE
  5
2B4
100
AcDbEntity
  8
0
  6
CONTINUOUS
 62
           7
100
AcDbLine
 10
27.5
 20
-35.0
 11
27.5
 21
-85.0
  0
LINE
  5
2B3
100
AcDbEntity
  8
0
  6
CONTINUOUS
 62
           7
100
AcDbLine
 10
27.5
 20
-35.0
 11
37.5
 21
-35.0
  0
LINE
  5
2B2
100
AcDbEntity
  8
0
  6
CONTINUOUS
 62
           7
100
AcDbLine
 10
37.5
 20
-35.0
 11
37.5
 21
-85.0
  0
LINE
  5
2B1
100
AcDbEntity
  8
0
  6
CONTINUOUS
 62
           7
100
AcDbLine
 10
40.5
 20
-85.0
 11
50.5
 21
-85.0
  0
LINE
  5
2B0
100
AcDbEntity
  8
0
  6
CONTINUOUS
 62
           7
100
AcDbLine
 10
40.5
 20
-35.0
 11
40.5
 21
-85.0
  0
LINE
  5
2AF
100
AcDbEntity
  8
0
  6
CONTINUOUS
 62
           7
100
AcDbLine
 10
40.5
 20
-35.0
 11
50.5
 21
-35.0
  0
LINE
  5
2AE
100
AcDbEntity
  8
0
  6
CONTINUOUS
 62
           7
100
AcDbLine
 10
50.5
 20
-35.0
 11
50.5
 21
-85.0
  0
LINE
  5
2AD
100
AcDbEntity
  8
0
  6
CONTINUOUS
 62
           7
100
AcDbLine
 10
53.5
 20
-85.0
 11
63.5
 21
-85.0
  0
LINE
  5
2AC
100
AcDbEntity
  8
0
  6
CONTINUOUS
 62
           7
100
AcDbLine
 10
53.5
 20
-35.0
 11
53.5
 21
-85.0
  0
LINE
  5
2AB
100
AcDbEntity
  8
0
  6
CONTINUOUS
 62
           7
100
AcDbLine
 10
53.5
 20
-35.0
 11
63.5
 21
-35.0
  0
LINE
  5
2AA
100
AcDbEntity
  8
0
  6
CONTINUOUS
 62
           7
100
AcDbLine
 10
63.5
 20
-35.0
 11
63.5
 21
-85.0
  0
LINE
  5
2A9
100
AcDbEntity
  8
0
  6
CONTINUOUS
 62
           7
100
AcDbLine
 10
66.5
 20
-85.0
 11
76.5
 21
-85.0
  0
LINE
  5
2A8
100
AcDbEntity
  8
0
  6
CONTINUOUS
 62
           7
100
AcDbLine
 10
66.5
 20
-35.0
 11
66.5
 21
-85.0
  0
LINE
  5
2A7
100
AcDbEntity
  8
0
  6
CONTINUOUS
 62
           7
100
AcDbLine
 10
66.5
 20
-35.0
 11
76.5
 21
-35.0
  0
LINE
  5
2A6
100
AcDbEntity
  8
0
  6
CONTINUOUS
 62
           7
100
AcDbLine
 10
76.5
 20
-35.0
 11
76.5
 21
-85.0
  0
LINE
  5
2A5
100
AcDbEntity
  8
0
  6
CONTINUOUS
 62
           7
100
AcDbLine
 10
79.5
 20
-85.0
 11
89.5
 21
-85.0
  0
LINE
  5
2A4
100
AcDbEntity
  8
0
  6
CONTINUOUS
 62
           7
100
AcDbLine
 10
79.5
 20
-35.0
 11
79.5
 21
-85.0
  0
LINE
  5
2A3
100
AcDbEntity
  8
0
  6
CONTINUOUS
 62
           7
100
AcDbLine
 10
79.5
 20
-35.0
 11
89.5
 21
-35.0
  0
LINE
  5
2A2
100
AcDbEntity
  8
0
  6
CONTINUOUS
 62
           7
100
AcDbLine
 10
89.5
 20
-35.0
 11
89.5
 21
-85.0
  0
LINE
  5
2A1
100
AcDbEntity
  8
0
  6
CONTINUOUS
 62
           7
100
AcDbLine
 10
92.5
 20
-85.0
 11
102.5
 21
-85.0
  0
LINE
  5
2A0
100
AcDbEntity
  8
0
  6
CONTINUOUS
 62
           7
100
AcDbLine
 10
92.5
 20
-35.0
 11
92.5
 21
-85.0
  0
LINE
  5
29F
100
AcDbEntity
  8
0
  6
CONTINUOUS
 62
           7
100
AcDbLine
 10
92.5
 20
-35.0
 11
102.5
 21
-35.0
  0
LINE
  5
29E
100
AcDbEntity
  8
0
  6
CONTINUOUS
 62
           7
100
AcDbLine
 10
102.5
 20
-35.0
 11
102.5
 21
-85.0
  0
LINE
  5
29D
100
AcDbEntity
  8
0
  6
CONTINUOUS
 62
           7
100
AcDbLine
 10
105.5
 20
-85.0
 11
115.5
 21
-85.0
  0
LINE
  5
29C
100
AcDbEntity
  8
0
  6
CONTINUOUS
 62
           7
100
AcDbLine
 10
105.5
 20
-35.0
 11
105.5
 21
-85.0
  0
LINE
  5
29B
100
AcDbEntity
  8
0
  6
CONTINUOUS
 62
           7
100
AcDbLine
 10
105.5
 20
-35.0
 11
115.5
 21
-35.0
  0
LINE
  5
29A
100
AcDbEntity
  8
0
  6
CONTINUOUS
 62
           7
100
AcDbLine
 10
115.5
 20
-35.0
 11
115.5
 21
-85.0
  0
LINE
  5
299
100
AcDbEntity
  8
0
  6
CONTINUOUS
 62
           7
100
AcDbLine
 10
118.5
 20
-85.0
 11
128.5
 21
-85.0
  0
LINE
  5
298
100
AcDbEntity
  8
0
  6
CONTINUOUS
 62
           7
100
AcDbLine
 10
118.5
 20
-35.0
 11
118.5
 21
-85.0
  0
LINE
  5
297
100
AcDbEntity
  8
0
  6
CONTINUOUS
 62
           7
100
AcDbLine
 10
118.5
 20
-35.0
 11
128.5
 21
-35.0
  0
LINE
  5
296
100
AcDbEntity
  8
0
  6
CONTINUOUS
 62
           7
100
AcDbLine
 10
128.5
 20
-35.0
 11
128.5
 21
-85.0
  0
LINE
  5
295
100
AcDbEntity
  8
0
  6
CONTINUOUS
 62
           7
100
AcDbLine
 10
131.5
 20
-85.0
 11
141.5
 21
-85.0
  0
LINE
  5
294
100
AcDbEntity
  8
0
  6
CONTINUOUS
 62
           7
100
AcDbLine
 10
131.5
 20
-35.0
 11
131.5
 21
-85.0
  0
LINE
  5
293
100
AcDbEntity
  8
0
  6
CONTINUOUS
 62
           7
100
AcDbLine
 10
131.5
 20
-35.0
 11
141.5
 21
-35.0
  0
LINE
  5
292
100
AcDbEntity
  8
0
  6
CONTINUOUS
 62
           7
100
AcDbLine
 10
141.5
 20
-35.0
 11
141.5
 21
-85.0
  0
LINE
  5
291
100
AcDbEntity
  8
0
  6
CONTINUOUS
 62
           7
100
AcDbLine
 10
144.5
 20
-85.0
 11
154.5
 21
-85.0
  0
LINE
  5
290
100
AcDbEntity
  8
0
  6
CONTINUOUS
 62
           7
100
AcDbLine
 10
144.5
 20
-35.0
 11
144.5
 21
-85.0
  0
LINE
  5
28F
100
AcDbEntity
  8
0
  6
CONTINUOUS
 62
           7
100
AcDbLine
 10
144.5
 20
-35.0
 11
154.5
 21
-35.0
  0
LINE
  5
28E
100
AcDbEntity
  8
0
  6
CONTINUOUS
 62
           7
100
AcDbLine
 10
154.5
 20
-35.0
 11
154.5
 21
-85.0
  0
LINE
  5
28D
100
AcDbEntity
  8
0
  6
CONTINUOUS
 62
           7
100
AcDbLine
 10
157.5
 20
-85.0
 11
167.5
 21
-85.0
  0
LINE
  5
28C
100
AcDbEntity
  8
0
  6
CONTINUOUS
 62
           7
100
AcDbLine
 10
157.5
 20
-35.0
 11
157.5
 21
-85.0
  0
LINE
  5
28B
100
AcDbEntity
  8
0
  6
CONTINUOUS
 62
           7
100
AcDbLine
 10
157.5
 20
-35.0
 11
167.5
 21
-35.0
  0
LINE
  5
28A
100
AcDbEntity
  8
0
  6
CONTINUOUS
 62
           7
100
AcDbLine
 10
167.5
 20
-35.0
 11
167.5
 21
-85.0
  0
LINE
  5
289
100
AcDbEntity
  8
0
  6
CONTINUOUS
 62
           7
100
AcDbLine
 10
170.5
 20
-85.0
 11
180.5
 21
-85.0
  0
LINE
  5
288
100
AcDbEntity
  8
0
  6
CONTINUOUS
 62
           7
100
AcDbLine
 10
170.5
 20
-35.0
 11
170.5
 21
-85.0
  0
LINE
  5
287
100
AcDbEntity
  8
0
  6
CONTINUOUS
 62
           7
100
AcDbLine
 10
170.5
 20
-35.0
 11
180.5
 21
-35.0
  0
LINE
  5
286
100
AcDbEntity
  8
0
  6
CONTINUOUS
 62
           7
100
AcDbLine
 10
180.5
 20
-35.0
 11
180.5
 21
-85.0
  0
LINE
  5
285
100
AcDbEntity
  8
0
  6
CONTINUOUS
 62
           7
100
AcDbLine
 10
183.5
 20
-85.0
 11
193.5
 21
-85.0
  0
LINE
  5
284
100
AcDbEntity
  8
0
  6
CONTINUOUS
 62
           7
100
AcDbLine
 10
183.5
 20
-35.0
 11
183.5
 21
-85.0
  0
LINE
  5
283
100
AcDbEntity
  8
0
  6
CONTINUOUS
 62
           7
100
AcDbLine
 10
183.5
 20
-35.0
 11
193.5
 21
-35.0
  0
LINE
  5
282
100
AcDbEntity
  8
0
  6
CONTINUOUS
 62
           7
100
AcDbLine
 10
193.5
 20
-35.0
 11
193.5
 21
-85.0
  0
LINE
  5
281
100
AcDbEntity
  8
0
  6
CONTINUOUS
 62
           7
100
AcDbLine
 10
196.5
 20
-85.0
 11
206.5
 21
-85.0
  0
LINE
  5
280
100
AcDbEntity
  8
0
  6
CONTINUOUS
 62
           7
100
AcDbLine
 10
196.5
 20
-35.0
 11
196.5
 21
-85.0
  0
LINE
  5
27F
100
AcDbEntity
  8
0
  6
CONTINUOUS
 62
           7
100
AcDbLine
 10
196.5
 20
-35.0
 11
206.5
 21
-35.0
  0
LINE
  5
27E
100
AcDbEntity
  8
0
  6
CONTINUOUS
 62
           7
100
AcDbLine
 10
206.5
 20
-35.0
 11
206.5
 21
-85.0
  0
LINE
  5
27D
100
AcDbEntity
  8
0
  6
CONTINUOUS
 62
           7
100
AcDbLine
 10
209.5
 20
-85.0
 11
219.5
 21
-85.0
  0
LINE
  5
27C
100
AcDbEntity
  8
0
  6
CONTINUOUS
 62
           7
100
AcDbLine
 10
209.5
 20
-35.0
 11
209.5
 21
-85.0
  0
LINE
  5
27B
100
AcDbEntity
  8
0
  6
CONTINUOUS
 62
           7
100
AcDbLine
 10
209.5
 20
-35.0
 11
219.5
 21
-35.0
  0
LINE
  5
27A
100
AcDbEntity
  8
0
  6
CONTINUOUS
 62
           7
100
AcDbLine
 10
219.5
 20
-35.0
 11
219.5
 21
-85.0
  0
LINE
  5
279
100
AcDbEntity
  8
0
  6
CONTINUOUS
 62
           7
100
AcDbLine
 10
222.5
 20
-85.0
 11
232.5
 21
-85.0
  0
LINE
  5
278
100
AcDbEntity
  8
0
  6
CONTINUOUS
 62
           7
100
AcDbLine
 10
222.5
 20
-35.0
 11
222.5
 21
-85.0
  0
LINE
  5
277
100
AcDbEntity
  8
0
  6
CONTINUOUS
 62
           7
100
AcDbLine
 10
222.5
 20
-35.0
 11
232.5
 21
-35.0
  0
LINE
  5
276
100
AcDbEntity
  8
0
  6
CONTINUOUS
 62
           7
100
AcDbLine
 10
232.5
 20
-35.0
 11
232.5
 21
-85.0
  0
LINE
  5
275
100
AcDbEntity
  8
0
  6
CONTINUOUS
 62
           7
100
AcDbLine
 10
235.5
 20
-85.0
 11
245.5
 21
-85.0
  0
LINE
  5
274
100
AcDbEntity
  8
0
  6
CONTINUOUS
 62
           7
100
AcDbLine
 10
235.5
 20
-35.0
 11
235.5
 21
-85.0
  0
LINE
  5
273
100
AcDbEntity
  8
0
  6
CONTINUOUS
 62
           7
100
AcDbLine
 10
235.5
 20
-35.0
 11
245.5
 21
-35.0
  0
LINE
  5
272
100
AcDbEntity
  8
0
  6
CONTINUOUS
 62
           7
100
AcDbLine
 10
245.5
 20
-35.0
 11
245.5
 21
-85.0
  0
LINE
  5
271
100
AcDbEntity
  8
0
  6
CONTINUOUS
 62
           7
100
AcDbLine
 10
248.5
 20
-85.0
 11
258.5
 21
-85.0
  0
LINE
  5
270
100
AcDbEntity
  8
0
  6
CONTINUOUS
 62
           7
100
AcDbLine
 10
248.5
 20
-35.0
 11
248.5
 21
-85.0
  0
LINE
  5
26F
100
AcDbEntity
  8
0
  6
CONTINUOUS
 62
           7
100
AcDbLine
 10
248.5
 20
-35.0
 11
258.5
 21
-35.0
  0
LINE
  5
26E
100
AcDbEntity
  8
0
  6
CONTINUOUS
 62
           7
100
AcDbLine
 10
258.5
 20
-35.0
 11
258.5
 21
-85.0
  0
LINE
  5
26D
100
AcDbEntity
  8
0
  6
CONTINUOUS
 62
           7
100
AcDbLine
 10
-193.5
 20
-145.0
 11
-183.5
 21
-145.0
  0
LINE
  5
26C
100
AcDbEntity
  8
0
  6
CONTINUOUS
 62
           7
100
AcDbLine
 10
-193.5
 20
-95.0
 11
-193.5
 21
-145.0
  0
LINE
  5
26B
100
AcDbEntity
  8
0
  6
CONTINUOUS
 62
           7
100
AcDbLine
 10
-206.5
 20
-95.0
 11
-206.5
 21
-145.0
  0
LINE
  5
26A
100
AcDbEntity
  8
0
  6
CONTINUOUS
 62
           7
100
AcDbLine
 10
-206.5
 20
-145.0
 11
-196.5
 21
-145.0
  0
LINE
  5
269
100
AcDbEntity
  8
0
  6
CONTINUOUS
 62
           7
100
AcDbLine
 10
-206.5
 20
-95.0
 11
-196.5
 21
-95.0
  0
LINE
  5
268
100
AcDbEntity
  8
0
  6
CONTINUOUS
 62
           7
100
AcDbLine
 10
-196.5
 20
-95.0
 11
-196.5
 21
-145.0
  0
LINE
  5
267
100
AcDbEntity
  8
0
  6
CONTINUOUS
 62
           7
100
AcDbLine
 10
-209.5
 20
-95.0
 11
-209.5
 21
-145.0
  0
LINE
  5
266
100
AcDbEntity
  8
0
  6
CONTINUOUS
 62
           7
100
AcDbLine
 10
-219.5
 20
-95.0
 11
-209.5
 21
-95.0
  0
LINE
  5
265
100
AcDbEntity
  8
0
  6
CONTINUOUS
 62
           7
100
AcDbLine
 10
-219.5
 20
-145.0
 11
-209.5
 21
-145.0
  0
LINE
  5
264
100
AcDbEntity
  8
0
  6
CONTINUOUS
 62
           7
100
AcDbLine
 10
-219.5
 20
-95.0
 11
-219.5
 21
-145.0
  0
LINE
  5
263
100
AcDbEntity
  8
0
  6
CONTINUOUS
 62
           7
100
AcDbLine
 10
-232.5
 20
-95.0
 11
-232.5
 21
-145.0
  0
LINE
  5
262
100
AcDbEntity
  8
0
  6
CONTINUOUS
 62
           7
100
AcDbLine
 10
-232.5
 20
-145.0
 11
-222.5
 21
-145.0
  0
LINE
  5
261
100
AcDbEntity
  8
0
  6
CONTINUOUS
 62
           7
100
AcDbLine
 10
-232.5
 20
-95.0
 11
-222.5
 21
-95.0
  0
LINE
  5
260
100
AcDbEntity
  8
0
  6
CONTINUOUS
 62
           7
100
AcDbLine
 10
-222.5
 20
-95.0
 11
-222.5
 21
-145.0
  0
LINE
  5
25F
100
AcDbEntity
  8
0
  6
CONTINUOUS
 62
           7
100
AcDbLine
 10
-235.5
 20
-95.0
 11
-235.5
 21
-145.0
  0
LINE
  5
25E
100
AcDbEntity
  8
0
  6
CONTINUOUS
 62
           7
100
AcDbLine
 10
-245.5
 20
-95.0
 11
-235.5
 21
-95.0
  0
LINE
  5
25D
100
AcDbEntity
  8
0
  6
CONTINUOUS
 62
           7
100
AcDbLine
 10
-245.5
 20
-145.0
 11
-235.5
 21
-145.0
  0
LINE
  5
25C
100
AcDbEntity
  8
0
  6
CONTINUOUS
 62
           7
100
AcDbLine
 10
-245.5
 20
-95.0
 11
-245.5
 21
-145.0
  0
LINE
  5
25B
100
AcDbEntity
  8
0
  6
CONTINUOUS
 62
           7
100
AcDbLine
 10
-193.5
 20
-95.0
 11
-183.5
 21
-95.0
  0
LINE
  5
25A
100
AcDbEntity
  8
0
  6
CONTINUOUS
 62
           7
100
AcDbLine
 10
-183.5
 20
-95.0
 11
-183.5
 21
-145.0
  0
LINE
  5
259
100
AcDbEntity
  8
0
  6
CONTINUOUS
 62
           7
100
AcDbLine
 10
-180.5
 20
-145.0
 11
-170.5
 21
-145.0
  0
LINE
  5
258
100
AcDbEntity
  8
0
  6
CONTINUOUS
 62
           7
100
AcDbLine
 10
-180.5
 20
-95.0
 11
-180.5
 21
-145.0
  0
LINE
  5
257
100
AcDbEntity
  8
0
  6
CONTINUOUS
 62
           7
100
AcDbLine
 10
-180.5
 20
-95.0
 11
-170.5
 21
-95.0
  0
LINE
  5
256
100
AcDbEntity
  8
0
  6
CONTINUOUS
 62
           7
100
AcDbLine
 10
-170.5
 20
-95.0
 11
-170.5
 21
-145.0
  0
LINE
  5
255
100
AcDbEntity
  8
0
  6
CONTINUOUS
 62
           7
100
AcDbLine
 10
-167.5
 20
-145.0
 11
-157.5
 21
-145.0
  0
LINE
  5
254
100
AcDbEntity
  8
0
  6
CONTINUOUS
 62
           7
100
AcDbLine
 10
-167.5
 20
-95.0
 11
-167.5
 21
-145.0
  0
LINE
  5
253
100
AcDbEntity
  8
0
  6
CONTINUOUS
 62
           7
100
AcDbLine
 10
-167.5
 20
-95.0
 11
-157.5
 21
-95.0
  0
LINE
  5
252
100
AcDbEntity
  8
0
  6
CONTINUOUS
 62
           7
100
AcDbLine
 10
-157.5
 20
-95.0
 11
-157.5
 21
-145.0
  0
LINE
  5
251
100
AcDbEntity
  8
0
  6
CONTINUOUS
 62
           7
100
AcDbLine
 10
-154.5
 20
-145.0
 11
-144.5
 21
-145.0
  0
LINE
  5
250
100
AcDbEntity
  8
0
  6
CONTINUOUS
 62
           7
100
AcDbLine
 10
-154.5
 20
-95.0
 11
-154.5
 21
-145.0
  0
LINE
  5
24F
100
AcDbEntity
  8
0
  6
CONTINUOUS
 62
           7
100
AcDbLine
 10
-154.5
 20
-95.0
 11
-144.5
 21
-95.0
  0
LINE
  5
24E
100
AcDbEntity
  8
0
  6
CONTINUOUS
 62
           7
100
AcDbLine
 10
-144.5
 20
-95.0
 11
-144.5
 21
-145.0
  0
LINE
  5
24D
100
AcDbEntity
  8
0
  6
CONTINUOUS
 62
           7
100
AcDbLine
 10
-141.5
 20
-145.0
 11
-131.5
 21
-145.0
  0
LINE
  5
24C
100
AcDbEntity
  8
0
  6
CONTINUOUS
 62
           7
100
AcDbLine
 10
-141.5
 20
-95.0
 11
-141.5
 21
-145.0
  0
LINE
  5
24B
100
AcDbEntity
  8
0
  6
CONTINUOUS
 62
           7
100
AcDbLine
 10
-141.5
 20
-95.0
 11
-131.5
 21
-95.0
  0
LINE
  5
24A
100
AcDbEntity
  8
0
  6
CONTINUOUS
 62
           7
100
AcDbLine
 10
-131.5
 20
-95.0
 11
-131.5
 21
-145.0
  0
LINE
  5
249
100
AcDbEntity
  8
0
  6
CONTINUOUS
 62
           7
100
AcDbLine
 10
-128.5
 20
-145.0
 11
-118.5
 21
-145.0
  0
LINE
  5
248
100
AcDbEntity
  8
0
  6
CONTINUOUS
 62
           7
100
AcDbLine
 10
-128.5
 20
-95.0
 11
-128.5
 21
-145.0
  0
LINE
  5
247
100
AcDbEntity
  8
0
  6
CONTINUOUS
 62
           7
100
AcDbLine
 10
-128.5
 20
-95.0
 11
-118.5
 21
-95.0
  0
LINE
  5
246
100
AcDbEntity
  8
0
  6
CONTINUOUS
 62
           7
100
AcDbLine
 10
-118.5
 20
-95.0
 11
-118.5
 21
-145.0
  0
LINE
  5
245
100
AcDbEntity
  8
0
  6
CONTINUOUS
 62
           7
100
AcDbLine
 10
-115.5
 20
-145.0
 11
-105.5
 21
-145.0
  0
LINE
  5
244
100
AcDbEntity
  8
0
  6
CONTINUOUS
 62
           7
100
AcDbLine
 10
-115.5
 20
-95.0
 11
-115.5
 21
-145.0
  0
LINE
  5
243
100
AcDbEntity
  8
0
  6
CONTINUOUS
 62
           7
100
AcDbLine
 10
-115.5
 20
-95.0
 11
-105.5
 21
-95.0
  0
LINE
  5
242
100
AcDbEntity
  8
0
  6
CONTINUOUS
 62
           7
100
AcDbLine
 10
-105.5
 20
-95.0
 11
-105.5
 21
-145.0
  0
LINE
  5
241
100
AcDbEntity
  8
0
  6
CONTINUOUS
 62
           7
100
AcDbLine
 10
-102.5
 20
-145.0
 11
-92.5
 21
-145.0
  0
LINE
  5
240
100
AcDbEntity
  8
0
  6
CONTINUOUS
 62
           7
100
AcDbLine
 10
-102.5
 20
-95.0
 11
-102.5
 21
-145.0
  0
LINE
  5
23F
100
AcDbEntity
  8
0
  6
CONTINUOUS
 62
           7
100
AcDbLine
 10
-102.5
 20
-95.0
 11
-92.5
 21
-95.0
  0
LINE
  5
23E
100
AcDbEntity
  8
0
  6
CONTINUOUS
 62
           7
100
AcDbLine
 10
-92.5
 20
-95.0
 11
-92.5
 21
-145.0
  0
LINE
  5
23D
100
AcDbEntity
  8
0
  6
CONTINUOUS
 62
           7
100
AcDbLine
 10
-89.5
 20
-145.0
 11
-79.5
 21
-145.0
  0
LINE
  5
23C
100
AcDbEntity
  8
0
  6
CONTINUOUS
 62
           7
100
AcDbLine
 10
-89.5
 20
-95.0
 11
-89.5
 21
-145.0
  0
LINE
  5
23B
100
AcDbEntity
  8
0
  6
CONTINUOUS
 62
           7
100
AcDbLine
 10
-89.5
 20
-95.0
 11
-79.5
 21
-95.0
  0
LINE
  5
23A
100
AcDbEntity
  8
0
  6
CONTINUOUS
 62
           7
100
AcDbLine
 10
-79.5
 20
-95.0
 11
-79.5
 21
-145.0
  0
LINE
  5
239
100
AcDbEntity
  8
0
  6
CONTINUOUS
 62
           7
100
AcDbLine
 10
-76.5
 20
-145.0
 11
-66.5
 21
-145.0
  0
LINE
  5
238
100
AcDbEntity
  8
0
  6
CONTINUOUS
 62
           7
100
AcDbLine
 10
-76.5
 20
-95.0
 11
-76.5
 21
-145.0
  0
LINE
  5
237
100
AcDbEntity
  8
0
  6
CONTINUOUS
 62
           7
100
AcDbLine
 10
-76.5
 20
-95.0
 11
-66.5
 21
-95.0
  0
LINE
  5
236
100
AcDbEntity
  8
0
  6
CONTINUOUS
 62
           7
100
AcDbLine
 10
-66.5
 20
-95.0
 11
-66.5
 21
-145.0
  0
LINE
  5
235
100
AcDbEntity
  8
0
  6
CONTINUOUS
 62
           7
100
AcDbLine
 10
-63.5
 20
-145.0
 11
-53.5
 21
-145.0
  0
LINE
  5
234
100
AcDbEntity
  8
0
  6
CONTINUOUS
 62
           7
100
AcDbLine
 10
-63.5
 20
-95.0
 11
-63.5
 21
-145.0
  0
LINE
  5
233
100
AcDbEntity
  8
0
  6
CONTINUOUS
 62
           7
100
AcDbLine
 10
-63.5
 20
-95.0
 11
-53.5
 21
-95.0
  0
LINE
  5
232
100
AcDbEntity
  8
0
  6
CONTINUOUS
 62
           7
100
AcDbLine
 10
-53.5
 20
-95.0
 11
-53.5
 21
-145.0
  0
LINE
  5
231
100
AcDbEntity
  8
0
  6
CONTINUOUS
 62
           7
100
AcDbLine
 10
-50.5
 20
-145.0
 11
-40.5
 21
-145.0
  0
LINE
  5
230
100
AcDbEntity
  8
0
  6
CONTINUOUS
 62
           7
100
AcDbLine
 10
-50.5
 20
-95.0
 11
-50.5
 21
-145.0
  0
LINE
  5
22F
100
AcDbEntity
  8
0
  6
CONTINUOUS
 62
           7
100
AcDbLine
 10
-50.5
 20
-95.0
 11
-40.5
 21
-95.0
  0
LINE
  5
22E
100
AcDbEntity
  8
0
  6
CONTINUOUS
 62
           7
100
AcDbLine
 10
-40.5
 20
-95.0
 11
-40.5
 21
-145.0
  0
LINE
  5
22D
100
AcDbEntity
  8
0
  6
CONTINUOUS
 62
           7
100
AcDbLine
 10
-37.5
 20
-145.0
 11
-27.5
 21
-145.0
  0
LINE
  5
22C
100
AcDbEntity
  8
0
  6
CONTINUOUS
 62
           7
100
AcDbLine
 10
-37.5
 20
-95.0
 11
-37.5
 21
-145.0
  0
LINE
  5
22B
100
AcDbEntity
  8
0
  6
CONTINUOUS
 62
           7
100
AcDbLine
 10
-37.5
 20
-95.0
 11
-27.5
 21
-95.0
  0
LINE
  5
22A
100
AcDbEntity
  8
0
  6
CONTINUOUS
 62
           7
100
AcDbLine
 10
-27.5
 20
-95.0
 11
-27.5
 21
-145.0
  0
LINE
  5
229
100
AcDbEntity
  8
0
  6
CONTINUOUS
 62
           7
100
AcDbLine
 10
-24.5
 20
-145.0
 11
-14.5
 21
-145.0
  0
LINE
  5
228
100
AcDbEntity
  8
0
  6
CONTINUOUS
 62
           7
100
AcDbLine
 10
-24.5
 20
-95.0
 11
-24.5
 21
-145.0
  0
LINE
  5
227
100
AcDbEntity
  8
0
  6
CONTINUOUS
 62
           7
100
AcDbLine
 10
-24.5
 20
-95.0
 11
-14.5
 21
-95.0
  0
LINE
  5
226
100
AcDbEntity
  8
0
  6
CONTINUOUS
 62
           7
100
AcDbLine
 10
-14.5
 20
-95.0
 11
-14.5
 21
-145.0
  0
LINE
  5
225
100
AcDbEntity
  8
0
  6
CONTINUOUS
 62
           7
100
AcDbLine
 10
-11.5
 20
-145.0
 11
-1.5
 21
-145.0
  0
LINE
  5
224
100
AcDbEntity
  8
0
  6
CONTINUOUS
 62
           7
100
AcDbLine
 10
-11.5
 20
-95.0
 11
-11.5
 21
-145.0
  0
LINE
  5
223
100
AcDbEntity
  8
0
  6
CONTINUOUS
 62
           7
100
AcDbLine
 10
-11.5
 20
-95.0
 11
-1.5
 21
-95.0
  0
LINE
  5
222
100
AcDbEntity
  8
0
  6
CONTINUOUS
 62
           7
100
AcDbLine
 10
-1.5
 20
-95.0
 11
-1.5
 21
-145.0
  0
LINE
  5
221
100
AcDbEntity
  8
0
  6
CONTINUOUS
 62
           7
100
AcDbLine
 10
1.5
 20
-145.0
 11
11.5
 21
-145.0
  0
LINE
  5
220
100
AcDbEntity
  8
0
  6
CONTINUOUS
 62
           7
100
AcDbLine
 10
1.5
 20
-95.0
 11
11.5
 21
-95.0
  0
LINE
  5
21F
100
AcDbEntity
  8
0
  6
CONTINUOUS
 62
           7
100
AcDbLine
 10
11.5
 20
-95.0
 11
11.5
 21
-145.0
  0
LINE
  5
21E
100
AcDbEntity
  8
0
  6
CONTINUOUS
 62
           7
100
AcDbLine
 10
14.5
 20
-145.0
 11
24.5
 21
-145.0
  0
LINE
  5
21D
100
AcDbEntity
  8
0
  6
CONTINUOUS
 62
           7
100
AcDbLine
 10
14.5
 20
-95.0
 11
14.5
 21
-145.0
  0
LINE
  5
21C
100
AcDbEntity
  8
0
  6
CONTINUOUS
 62
           7
100
AcDbLine
 10
1.5
 20
-95.0
 11
1.5
 21
-145.0
  0
LINE
  5
21B
100
AcDbEntity
  8
0
  6
CONTINUOUS
 62
           7
100
AcDbLine
 10
14.5
 20
-95.0
 11
24.5
 21
-95.0
  0
LINE
  5
21A
100
AcDbEntity
  8
0
  6
CONTINUOUS
 62
           7
100
AcDbLine
 10
24.5
 20
-95.0
 11
24.5
 21
-145.0
  0
LINE
  5
219
100
AcDbEntity
  8
0
  6
CONTINUOUS
 62
           7
100
AcDbLine
 10
27.5
 20
-145.0
 11
37.5
 21
-145.0
  0
LINE
  5
218
100
AcDbEntity
  8
0
  6
CONTINUOUS
 62
           7
100
AcDbLine
 10
27.5
 20
-95.0
 11
27.5
 21
-145.0
  0
LINE
  5
217
100
AcDbEntity
  8
0
  6
CONTINUOUS
 62
           7
100
AcDbLine
 10
27.5
 20
-95.0
 11
37.5
 21
-95.0
  0
LINE
  5
216
100
AcDbEntity
  8
0
  6
CONTINUOUS
 62
           7
100
AcDbLine
 10
37.5
 20
-95.0
 11
37.5
 21
-145.0
  0
LINE
  5
215
100
AcDbEntity
  8
0
  6
CONTINUOUS
 62
           7
100
AcDbLine
 10
40.5
 20
-145.0
 11
50.5
 21
-145.0
  0
LINE
  5
214
100
AcDbEntity
  8
0
  6
CONTINUOUS
 62
           7
100
AcDbLine
 10
40.5
 20
-95.0
 11
40.5
 21
-145.0
  0
LINE
  5
213
100
AcDbEntity
  8
0
  6
CONTINUOUS
 62
           7
100
AcDbLine
 10
40.5
 20
-95.0
 11
50.5
 21
-95.0
  0
LINE
  5
212
100
AcDbEntity
  8
0
  6
CONTINUOUS
 62
           7
100
AcDbLine
 10
50.5
 20
-95.0
 11
50.5
 21
-145.0
  0
LINE
  5
211
100
AcDbEntity
  8
0
  6
CONTINUOUS
 62
           7
100
AcDbLine
 10
53.5
 20
-145.0
 11
63.5
 21
-145.0
  0
LINE
  5
210
100
AcDbEntity
  8
0
  6
CONTINUOUS
 62
           7
100
AcDbLine
 10
53.5
 20
-95.0
 11
53.5
 21
-145.0
  0
LINE
  5
20F
100
AcDbEntity
  8
0
  6
CONTINUOUS
 62
           7
100
AcDbLine
 10
53.5
 20
-95.0
 11
63.5
 21
-95.0
  0
LINE
  5
20E
100
AcDbEntity
  8
0
  6
CONTINUOUS
 62
           7
100
AcDbLine
 10
63.5
 20
-95.0
 11
63.5
 21
-145.0
  0
LINE
  5
20D
100
AcDbEntity
  8
0
  6
CONTINUOUS
 62
           7
100
AcDbLine
 10
66.5
 20
-145.0
 11
76.5
 21
-145.0
  0
LINE
  5
20C
100
AcDbEntity
  8
0
  6
CONTINUOUS
 62
           7
100
AcDbLine
 10
66.5
 20
-95.0
 11
66.5
 21
-145.0
  0
LINE
  5
20B
100
AcDbEntity
  8
0
  6
CONTINUOUS
 62
           7
100
AcDbLine
 10
66.5
 20
-95.0
 11
76.5
 21
-95.0
  0
LINE
  5
20A
100
AcDbEntity
  8
0
  6
CONTINUOUS
 62
           7
100
AcDbLine
 10
76.5
 20
-95.0
 11
76.5
 21
-145.0
  0
LINE
  5
209
100
AcDbEntity
  8
0
  6
CONTINUOUS
 62
           7
100
AcDbLine
 10
79.5
 20
-145.0
 11
89.5
 21
-145.0
  0
LINE
  5
208
100
AcDbEntity
  8
0
  6
CONTINUOUS
 62
           7
100
AcDbLine
 10
79.5
 20
-95.0
 11
79.5
 21
-145.0
  0
LINE
  5
207
100
AcDbEntity
  8
0
  6
CONTINUOUS
 62
           7
100
AcDbLine
 10
79.5
 20
-95.0
 11
89.5
 21
-95.0
  0
LINE
  5
206
100
AcDbEntity
  8
0
  6
CONTINUOUS
 62
           7
100
AcDbLine
 10
89.5
 20
-95.0
 11
89.5
 21
-145.0
  0
LINE
  5
205
100
AcDbEntity
  8
0
  6
CONTINUOUS
 62
           7
100
AcDbLine
 10
92.5
 20
-145.0
 11
102.5
 21
-145.0
  0
LINE
  5
204
100
AcDbEntity
  8
0
  6
CONTINUOUS
 62
           7
100
AcDbLine
 10
92.5
 20
-95.0
 11
92.5
 21
-145.0
  0
LINE
  5
203
100
AcDbEntity
  8
0
  6
CONTINUOUS
 62
           7
100
AcDbLine
 10
92.5
 20
-95.0
 11
102.5
 21
-95.0
  0
LINE
  5
202
100
AcDbEntity
  8
0
  6
CONTINUOUS
 62
           7
100
AcDbLine
 10
102.5
 20
-95.0
 11
102.5
 21
-145.0
  0
LINE
  5
201
100
AcDbEntity
  8
0
  6
CONTINUOUS
 62
           7
100
AcDbLine
 10
105.5
 20
-145.0
 11
115.5
 21
-145.0
  0
LINE
  5
200
100
AcDbEntity
  8
0
  6
CONTINUOUS
 62
           7
100
AcDbLine
 10
105.5
 20
-95.0
 11
105.5
 21
-145.0
  0
LINE
  5
1FF
100
AcDbEntity
  8
0
  6
CONTINUOUS
 62
           7
100
AcDbLine
 10
105.5
 20
-95.0
 11
115.5
 21
-95.0
  0
LINE
  5
1FE
100
AcDbEntity
  8
0
  6
CONTINUOUS
 62
           7
100
AcDbLine
 10
115.5
 20
-95.0
 11
115.5
 21
-145.0
  0
LINE
  5
1FD
100
AcDbEntity
  8
0
  6
CONTINUOUS
 62
           7
100
AcDbLine
 10
118.5
 20
-145.0
 11
128.5
 21
-145.0
  0
LINE
  5
1FC
100
AcDbEntity
  8
0
  6
CONTINUOUS
 62
           7
100
AcDbLine
 10
118.5
 20
-95.0
 11
118.5
 21
-145.0
  0
LINE
  5
1FB
100
AcDbEntity
  8
0
  6
CONTINUOUS
 62
           7
100
AcDbLine
 10
118.5
 20
-95.0
 11
128.5
 21
-95.0
  0
LINE
  5
1FA
100
AcDbEntity
  8
0
  6
CONTINUOUS
 62
           7
100
AcDbLine
 10
128.5
 20
-95.0
 11
128.5
 21
-145.0
  0
LINE
  5
1F9
100
AcDbEntity
  8
0
  6
CONTINUOUS
 62
           7
100
AcDbLine
 10
131.5
 20
-145.0
 11
141.5
 21
-145.0
  0
LINE
  5
1F8
100
AcDbEntity
  8
0
  6
CONTINUOUS
 62
           7
100
AcDbLine
 10
131.5
 20
-95.0
 11
131.5
 21
-145.0
  0
LINE
  5
1F7
100
AcDbEntity
  8
0
  6
CONTINUOUS
 62
           7
100
AcDbLine
 10
131.5
 20
-95.0
 11
141.5
 21
-95.0
  0
LINE
  5
1F6
100
AcDbEntity
  8
0
  6
CONTINUOUS
 62
           7
100
AcDbLine
 10
141.5
 20
-95.0
 11
141.5
 21
-145.0
  0
LINE
  5
1F5
100
AcDbEntity
  8
0
  6
CONTINUOUS
 62
           7
100
AcDbLine
 10
144.5
 20
-145.0
 11
154.5
 21
-145.0
  0
LINE
  5
1F4
100
AcDbEntity
  8
0
  6
CONTINUOUS
 62
           7
100
AcDbLine
 10
144.5
 20
-95.0
 11
144.5
 21
-145.0
  0
LINE
  5
1F3
100
AcDbEntity
  8
0
  6
CONTINUOUS
 62
           7
100
AcDbLine
 10
144.5
 20
-95.0
 11
154.5
 21
-95.0
  0
LINE
  5
1F2
100
AcDbEntity
  8
0
  6
CONTINUOUS
 62
           7
100
AcDbLine
 10
154.5
 20
-95.0
 11
154.5
 21
-145.0
  0
LINE
  5
1F1
100
AcDbEntity
  8
0
  6
CONTINUOUS
 62
           7
100
AcDbLine
 10
157.5
 20
-145.0
 11
167.5
 21
-145.0
  0
LINE
  5
1F0
100
AcDbEntity
  8
0
  6
CONTINUOUS
 62
           7
100
AcDbLine
 10
157.5
 20
-95.0
 11
157.5
 21
-145.0
  0
LINE
  5
1EF
100
AcDbEntity
  8
0
  6
CONTINUOUS
 62
           7
100
AcDbLine
 10
157.5
 20
-95.0
 11
167.5
 21
-95.0
  0
LINE
  5
1EE
100
AcDbEntity
  8
0
  6
CONTINUOUS
 62
           7
100
AcDbLine
 10
167.5
 20
-95.0
 11
167.5
 21
-145.0
  0
LINE
  5
1ED
100
AcDbEntity
  8
0
  6
CONTINUOUS
 62
           7
100
AcDbLine
 10
170.5
 20
-145.0
 11
180.5
 21
-145.0
  0
LINE
  5
1EC
100
AcDbEntity
  8
0
  6
CONTINUOUS
 62
           7
100
AcDbLine
 10
170.5
 20
-95.0
 11
170.5
 21
-145.0
  0
LINE
  5
1EB
100
AcDbEntity
  8
0
  6
CONTINUOUS
 62
           7
100
AcDbLine
 10
170.5
 20
-95.0
 11
180.5
 21
-95.0
  0
LINE
  5
1EA
100
AcDbEntity
  8
0
  6
CONTINUOUS
 62
           7
100
AcDbLine
 10
180.5
 20
-95.0
 11
180.5
 21
-145.0
  0
LINE
  5
1E9
100
AcDbEntity
  8
0
  6
CONTINUOUS
 62
           7
100
AcDbLine
 10
183.5
 20
-145.0
 11
193.5
 21
-145.0
  0
LINE
  5
1E8
100
AcDbEntity
  8
0
  6
CONTINUOUS
 62
           7
100
AcDbLine
 10
183.5
 20
-95.0
 11
183.5
 21
-145.0
  0
LINE
  5
1E7
100
AcDbEntity
  8
0
  6
CONTINUOUS
 62
           7
100
AcDbLine
 10
183.5
 20
-95.0
 11
193.5
 21
-95.0
  0
LINE
  5
1E6
100
AcDbEntity
  8
0
  6
CONTINUOUS
 62
           7
100
AcDbLine
 10
193.5
 20
-95.0
 11
193.5
 21
-145.0
  0
LINE
  5
1E5
100
AcDbEntity
  8
0
  6
CONTINUOUS
 62
           7
100
AcDbLine
 10
196.5
 20
-145.0
 11
206.5
 21
-145.0
  0
LINE
  5
1E4
100
AcDbEntity
  8
0
  6
CONTINUOUS
 62
           7
100
AcDbLine
 10
196.5
 20
-95.0
 11
196.5
 21
-145.0
  0
LINE
  5
1E3
100
AcDbEntity
  8
0
  6
CONTINUOUS
 62
           7
100
AcDbLine
 10
196.5
 20
-95.0
 11
206.5
 21
-95.0
  0
LINE
  5
1E2
100
AcDbEntity
  8
0
  6
CONTINUOUS
 62
           7
100
AcDbLine
 10
206.5
 20
-95.0
 11
206.5
 21
-145.0
  0
LINE
  5
1E1
100
AcDbEntity
  8
0
  6
CONTINUOUS
 62
           7
100
AcDbLine
 10
209.5
 20
-145.0
 11
219.5
 21
-145.0
  0
LINE
  5
1E0
100
AcDbEntity
  8
0
  6
CONTINUOUS
 62
           7
100
AcDbLine
 10
209.5
 20
-95.0
 11
209.5
 21
-145.0
  0
LINE
  5
1DF
100
AcDbEntity
  8
0
  6
CONTINUOUS
 62
           7
100
AcDbLine
 10
209.5
 20
-95.0
 11
219.5
 21
-95.0
  0
LINE
  5
1DE
100
AcDbEntity
  8
0
  6
CONTINUOUS
 62
           7
100
AcDbLine
 10
219.5
 20
-95.0
 11
219.5
 21
-145.0
  0
LINE
  5
1DD
100
AcDbEntity
  8
0
  6
CONTINUOUS
 62
           7
100
AcDbLine
 10
222.5
 20
-145.0
 11
232.5
 21
-145.0
  0
LINE
  5
1DC
100
AcDbEntity
  8
0
  6
CONTINUOUS
 62
           7
100
AcDbLine
 10
222.5
 20
-95.0
 11
222.5
 21
-145.0
  0
LINE
  5
1DB
100
AcDbEntity
  8
0
  6
CONTINUOUS
 62
           7
100
AcDbLine
 10
222.5
 20
-95.0
 11
232.5
 21
-95.0
  0
LINE
  5
1DA
100
AcDbEntity
  8
0
  6
CONTINUOUS
 62
           7
100
AcDbLine
 10
232.5
 20
-95.0
 11
232.5
 21
-145.0
  0
LINE
  5
1D9
100
AcDbEntity
  8
0
  6
CONTINUOUS
 62
           7
100
AcDbLine
 10
235.5
 20
-145.0
 11
245.5
 21
-145.0
  0
LINE
  5
1D8
100
AcDbEntity
  8
0
  6
CONTINUOUS
 62
           7
100
AcDbLine
 10
235.5
 20
-95.0
 11
235.5
 21
-145.0
  0
LINE
  5
1D7
100
AcDbEntity
  8
0
  6
CONTINUOUS
 62
           7
100
AcDbLine
 10
235.5
 20
-95.0
 11
245.5
 21
-95.0
  0
LINE
  5
1D6
100
AcDbEntity
  8
0
  6
CONTINUOUS
 62
           7
100
AcDbLine
 10
245.5
 20
-95.0
 11
245.5
 21
-145.0
  0
LINE
  5
1D5
100
AcDbEntity
  8
0
  6
CONTINUOUS
 62
           7
100
AcDbLine
 10
248.5
 20
-145.0
 11
258.5
 21
-145.0
  0
LINE
  5
1D4
100
AcDbEntity
  8
0
  6
CONTINUOUS
 62
           7
100
AcDbLine
 10
248.5
 20
-95.0
 11
248.5
 21
-145.0
  0
LINE
  5
1D3
100
AcDbEntity
  8
0
  6
CONTINUOUS
 62
           7
100
AcDbLine
 10
248.5
 20
-95.0
 11
258.5
 21
-95.0
  0
LINE
  5
1D2
100
AcDbEntity
  8
0
  6
CONTINUOUS
 62
           7
100
AcDbLine
 10
258.5
 20
-95.0
 11
258.5
 21
-145.0
  0
LINE
  5
1D1
100
AcDbEntity
  8
0
  6
CONTINUOUS
 62
           7
100
AcDbLine
 10
-193.5
 20
-205.0
 11
-183.5
 21
-205.0
  0
LINE
  5
1D0
100
AcDbEntity
  8
0
  6
CONTINUOUS
 62
           7
100
AcDbLine
 10
-193.5
 20
-155.0
 11
-193.5
 21
-205.0
  0
LINE
  5
1CF
100
AcDbEntity
  8
0
  6
CONTINUOUS
 62
           7
100
AcDbLine
 10
-206.5
 20
-155.0
 11
-206.5
 21
-205.0
  0
LINE
  5
1CE
100
AcDbEntity
  8
0
  6
CONTINUOUS
 62
           7
100
AcDbLine
 10
-206.5
 20
-205.0
 11
-196.5
 21
-205.0
  0
LINE
  5
1CD
100
AcDbEntity
  8
0
  6
CONTINUOUS
 62
           7
100
AcDbLine
 10
-206.5
 20
-155.0
 11
-196.5
 21
-155.0
  0
LINE
  5
1CC
100
AcDbEntity
  8
0
  6
CONTINUOUS
 62
           7
100
AcDbLine
 10
-196.5
 20
-155.0
 11
-196.5
 21
-205.0
  0
LINE
  5
1CB
100
AcDbEntity
  8
0
  6
CONTINUOUS
 62
           7
100
AcDbLine
 10
-209.5
 20
-155.0
 11
-209.5
 21
-205.0
  0
LINE
  5
1CA
100
AcDbEntity
  8
0
  6
CONTINUOUS
 62
           7
100
AcDbLine
 10
-219.5
 20
-155.0
 11
-209.5
 21
-155.0
  0
LINE
  5
1C9
100
AcDbEntity
  8
0
  6
CONTINUOUS
 62
           7
100
AcDbLine
 10
-219.5
 20
-205.0
 11
-209.5
 21
-205.0
  0
LINE
  5
1C8
100
AcDbEntity
  8
0
  6
CONTINUOUS
 62
           7
100
AcDbLine
 10
-219.5
 20
-155.0
 11
-219.5
 21
-205.0
  0
LINE
  5
1C7
100
AcDbEntity
  8
0
  6
CONTINUOUS
 62
           7
100
AcDbLine
 10
-232.5
 20
-155.0
 11
-232.5
 21
-205.0
  0
LINE
  5
1C6
100
AcDbEntity
  8
0
  6
CONTINUOUS
 62
           7
100
AcDbLine
 10
-232.5
 20
-205.0
 11
-222.5
 21
-205.0
  0
LINE
  5
1C5
100
AcDbEntity
  8
0
  6
CONTINUOUS
 62
           7
100
AcDbLine
 10
-232.5
 20
-155.0
 11
-222.5
 21
-155.0
  0
LINE
  5
1C4
100
AcDbEntity
  8
0
  6
CONTINUOUS
 62
           7
100
AcDbLine
 10
-222.5
 20
-155.0
 11
-222.5
 21
-205.0
  0
LINE
  5
1C3
100
AcDbEntity
  8
0
  6
CONTINUOUS
 62
           7
100
AcDbLine
 10
-235.5
 20
-155.0
 11
-235.5
 21
-205.0
  0
LINE
  5
1C2
100
AcDbEntity
  8
0
  6
CONTINUOUS
 62
           7
100
AcDbLine
 10
-245.5
 20
-155.0
 11
-235.5
 21
-155.0
  0
LINE
  5
1C1
100
AcDbEntity
  8
0
  6
CONTINUOUS
 62
           7
100
AcDbLine
 10
-245.5
 20
-205.0
 11
-235.5
 21
-205.0
  0
LINE
  5
1C0
100
AcDbEntity
  8
0
  6
CONTINUOUS
 62
           7
100
AcDbLine
 10
-245.5
 20
-155.0
 11
-245.5
 21
-205.0
  0
LINE
  5
1BF
100
AcDbEntity
  8
0
  6
CONTINUOUS
 62
           7
100
AcDbLine
 10
-193.5
 20
-155.0
 11
-183.5
 21
-155.0
  0
LINE
  5
1BE
100
AcDbEntity
  8
0
  6
CONTINUOUS
 62
           7
100
AcDbLine
 10
-183.5
 20
-155.0
 11
-183.5
 21
-205.0
  0
LINE
  5
1BD
100
AcDbEntity
  8
0
  6
CONTINUOUS
 62
           7
100
AcDbLine
 10
-180.5
 20
-205.0
 11
-170.5
 21
-205.0
  0
LINE
  5
1BC
100
AcDbEntity
  8
0
  6
CONTINUOUS
 62
           7
100
AcDbLine
 10
-180.5
 20
-155.0
 11
-180.5
 21
-205.0
  0
LINE
  5
1BB
100
AcDbEntity
  8
0
  6
CONTINUOUS
 62
           7
100
AcDbLine
 10
-180.5
 20
-155.0
 11
-170.5
 21
-155.0
  0
LINE
  5
1BA
100
AcDbEntity
  8
0
  6
CONTINUOUS
 62
           7
100
AcDbLine
 10
-170.5
 20
-155.0
 11
-170.5
 21
-205.0
  0
LINE
  5
1B9
100
AcDbEntity
  8
0
  6
CONTINUOUS
 62
           7
100
AcDbLine
 10
-167.5
 20
-205.0
 11
-157.5
 21
-205.0
  0
LINE
  5
1B8
100
AcDbEntity
  8
0
  6
CONTINUOUS
 62
           7
100
AcDbLine
 10
-167.5
 20
-155.0
 11
-167.5
 21
-205.0
  0
LINE
  5
1B7
100
AcDbEntity
  8
0
  6
CONTINUOUS
 62
           7
100
AcDbLine
 10
-167.5
 20
-155.0
 11
-157.5
 21
-155.0
  0
LINE
  5
1B6
100
AcDbEntity
  8
0
  6
CONTINUOUS
 62
           7
100
AcDbLine
 10
-157.5
 20
-155.0
 11
-157.5
 21
-205.0
  0
LINE
  5
1B5
100
AcDbEntity
  8
0
  6
CONTINUOUS
 62
           7
100
AcDbLine
 10
-154.5
 20
-205.0
 11
-144.5
 21
-205.0
  0
LINE
  5
1B4
100
AcDbEntity
  8
0
  6
CONTINUOUS
 62
           7
100
AcDbLine
 10
-154.5
 20
-155.0
 11
-154.5
 21
-205.0
  0
LINE
  5
1B3
100
AcDbEntity
  8
0
  6
CONTINUOUS
 62
           7
100
AcDbLine
 10
-154.5
 20
-155.0
 11
-144.5
 21
-155.0
  0
LINE
  5
1B2
100
AcDbEntity
  8
0
  6
CONTINUOUS
 62
           7
100
AcDbLine
 10
-144.5
 20
-155.0
 11
-144.5
 21
-205.0
  0
LINE
  5
1B1
100
AcDbEntity
  8
0
  6
CONTINUOUS
 62
           7
100
AcDbLine
 10
-141.5
 20
-205.0
 11
-131.5
 21
-205.0
  0
LINE
  5
1B0
100
AcDbEntity
  8
0
  6
CONTINUOUS
 62
           7
100
AcDbLine
 10
-141.5
 20
-155.0
 11
-141.5
 21
-205.0
  0
LINE
  5
1AF
100
AcDbEntity
  8
0
  6
CONTINUOUS
 62
           7
100
AcDbLine
 10
-141.5
 20
-155.0
 11
-131.5
 21
-155.0
  0
LINE
  5
1AE
100
AcDbEntity
  8
0
  6
CONTINUOUS
 62
           7
100
AcDbLine
 10
-131.5
 20
-155.0
 11
-131.5
 21
-205.0
  0
LINE
  5
1AD
100
AcDbEntity
  8
0
  6
CONTINUOUS
 62
           7
100
AcDbLine
 10
-128.5
 20
-205.0
 11
-118.5
 21
-205.0
  0
LINE
  5
1AC
100
AcDbEntity
  8
0
  6
CONTINUOUS
 62
           7
100
AcDbLine
 10
-128.5
 20
-155.0
 11
-128.5
 21
-205.0
  0
LINE
  5
1AB
100
AcDbEntity
  8
0
  6
CONTINUOUS
 62
           7
100
AcDbLine
 10
-128.5
 20
-155.0
 11
-118.5
 21
-155.0
  0
LINE
  5
1AA
100
AcDbEntity
  8
0
  6
CONTINUOUS
 62
           7
100
AcDbLine
 10
-118.5
 20
-155.0
 11
-118.5
 21
-205.0
  0
LINE
  5
1A9
100
AcDbEntity
  8
0
  6
CONTINUOUS
 62
           7
100
AcDbLine
 10
-115.5
 20
-205.0
 11
-105.5
 21
-205.0
  0
LINE
  5
1A8
100
AcDbEntity
  8
0
  6
CONTINUOUS
 62
           7
100
AcDbLine
 10
-115.5
 20
-155.0
 11
-115.5
 21
-205.0
  0
LINE
  5
1A7
100
AcDbEntity
  8
0
  6
CONTINUOUS
 62
           7
100
AcDbLine
 10
-115.5
 20
-155.0
 11
-105.5
 21
-155.0
  0
LINE
  5
1A6
100
AcDbEntity
  8
0
  6
CONTINUOUS
 62
           7
100
AcDbLine
 10
-105.5
 20
-155.0
 11
-105.5
 21
-205.0
  0
LINE
  5
1A5
100
AcDbEntity
  8
0
  6
CONTINUOUS
 62
           7
100
AcDbLine
 10
-102.5
 20
-205.0
 11
-92.5
 21
-205.0
  0
LINE
  5
1A4
100
AcDbEntity
  8
0
  6
CONTINUOUS
 62
           7
100
AcDbLine
 10
-102.5
 20
-155.0
 11
-102.5
 21
-205.0
  0
LINE
  5
1A3
100
AcDbEntity
  8
0
  6
CONTINUOUS
 62
           7
100
AcDbLine
 10
-102.5
 20
-155.0
 11
-92.5
 21
-155.0
  0
LINE
  5
1A2
100
AcDbEntity
  8
0
  6
CONTINUOUS
 62
           7
100
AcDbLine
 10
-92.5
 20
-155.0
 11
-92.5
 21
-205.0
  0
LINE
  5
1A1
100
AcDbEntity
  8
0
  6
CONTINUOUS
 62
           7
100
AcDbLine
 10
-89.5
 20
-205.0
 11
-79.5
 21
-205.0
  0
LINE
  5
1A0
100
AcDbEntity
  8
0
  6
CONTINUOUS
 62
           7
100
AcDbLine
 10
-89.5
 20
-155.0
 11
-89.5
 21
-205.0
  0
LINE
  5
19F
100
AcDbEntity
  8
0
  6
CONTINUOUS
 62
           7
100
AcDbLine
 10
-89.5
 20
-155.0
 11
-79.5
 21
-155.0
  0
LINE
  5
19E
100
AcDbEntity
  8
0
  6
CONTINUOUS
 62
           7
100
AcDbLine
 10
-79.5
 20
-155.0
 11
-79.5
 21
-205.0
  0
LINE
  5
19D
100
AcDbEntity
  8
0
  6
CONTINUOUS
 62
           7
100
AcDbLine
 10
-76.5
 20
-205.0
 11
-66.5
 21
-205.0
  0
LINE
  5
19C
100
AcDbEntity
  8
0
  6
CONTINUOUS
 62
           7
100
AcDbLine
 10
-76.5
 20
-155.0
 11
-76.5
 21
-205.0
  0
LINE
  5
19B
100
AcDbEntity
  8
0
  6
CONTINUOUS
 62
           7
100
AcDbLine
 10
-76.5
 20
-155.0
 11
-66.5
 21
-155.0
  0
LINE
  5
19A
100
AcDbEntity
  8
0
  6
CONTINUOUS
 62
           7
100
AcDbLine
 10
-66.5
 20
-155.0
 11
-66.5
 21
-205.0
  0
LINE
  5
199
100
AcDbEntity
  8
0
  6
CONTINUOUS
 62
           7
100
AcDbLine
 10
-63.5
 20
-205.0
 11
-53.5
 21
-205.0
  0
LINE
  5
198
100
AcDbEntity
  8
0
  6
CONTINUOUS
 62
           7
100
AcDbLine
 10
-63.5
 20
-155.0
 11
-63.5
 21
-205.0
  0
LINE
  5
197
100
AcDbEntity
  8
0
  6
CONTINUOUS
 62
           7
100
AcDbLine
 10
-63.5
 20
-155.0
 11
-53.5
 21
-155.0
  0
LINE
  5
196
100
AcDbEntity
  8
0
  6
CONTINUOUS
 62
           7
100
AcDbLine
 10
-53.5
 20
-155.0
 11
-53.5
 21
-205.0
  0
LINE
  5
195
100
AcDbEntity
  8
0
  6
CONTINUOUS
 62
           7
100
AcDbLine
 10
-50.5
 20
-205.0
 11
-40.5
 21
-205.0
  0
LINE
  5
194
100
AcDbEntity
  8
0
  6
CONTINUOUS
 62
           7
100
AcDbLine
 10
-50.5
 20
-155.0
 11
-50.5
 21
-205.0
  0
LINE
  5
193
100
AcDbEntity
  8
0
  6
CONTINUOUS
 62
           7
100
AcDbLine
 10
-50.5
 20
-155.0
 11
-40.5
 21
-155.0
  0
LINE
  5
192
100
AcDbEntity
  8
0
  6
CONTINUOUS
 62
           7
100
AcDbLine
 10
-40.5
 20
-155.0
 11
-40.5
 21
-205.0
  0
LINE
  5
191
100
AcDbEntity
  8
0
  6
CONTINUOUS
 62
           7
100
AcDbLine
 10
-37.5
 20
-205.0
 11
-27.5
 21
-205.0
  0
LINE
  5
190
100
AcDbEntity
  8
0
  6
CONTINUOUS
 62
           7
100
AcDbLine
 10
-37.5
 20
-155.0
 11
-37.5
 21
-205.0
  0
LINE
  5
18F
100
AcDbEntity
  8
0
  6
CONTINUOUS
 62
           7
100
AcDbLine
 10
-37.5
 20
-155.0
 11
-27.5
 21
-155.0
  0
LINE
  5
18E
100
AcDbEntity
  8
0
  6
CONTINUOUS
 62
           7
100
AcDbLine
 10
-27.5
 20
-155.0
 11
-27.5
 21
-205.0
  0
LINE
  5
18D
100
AcDbEntity
  8
0
  6
CONTINUOUS
 62
           7
100
AcDbLine
 10
-24.5
 20
-205.0
 11
-14.5
 21
-205.0
  0
LINE
  5
18C
100
AcDbEntity
  8
0
  6
CONTINUOUS
 62
           7
100
AcDbLine
 10
-24.5
 20
-155.0
 11
-24.5
 21
-205.0
  0
LINE
  5
18B
100
AcDbEntity
  8
0
  6
CONTINUOUS
 62
           7
100
AcDbLine
 10
-24.5
 20
-155.0
 11
-14.5
 21
-155.0
  0
LINE
  5
18A
100
AcDbEntity
  8
0
  6
CONTINUOUS
 62
           7
100
AcDbLine
 10
-14.5
 20
-155.0
 11
-14.5
 21
-205.0
  0
LINE
  5
189
100
AcDbEntity
  8
0
  6
CONTINUOUS
 62
           7
100
AcDbLine
 10
-11.5
 20
-205.0
 11
-1.5
 21
-205.0
  0
LINE
  5
188
100
AcDbEntity
  8
0
  6
CONTINUOUS
 62
           7
100
AcDbLine
 10
-11.5
 20
-155.0
 11
-11.5
 21
-205.0
  0
LINE
  5
187
100
AcDbEntity
  8
0
  6
CONTINUOUS
 62
           7
100
AcDbLine
 10
-11.5
 20
-155.0
 11
-1.5
 21
-155.0
  0
LINE
  5
186
100
AcDbEntity
  8
0
  6
CONTINUOUS
 62
           7
100
AcDbLine
 10
-1.5
 20
-155.0
 11
-1.5
 21
-205.0
  0
LINE
  5
185
100
AcDbEntity
  8
0
  6
CONTINUOUS
 62
           7
100
AcDbLine
 10
1.5
 20
-205.0
 11
11.5
 21
-205.0
  0
LINE
  5
184
100
AcDbEntity
  8
0
  6
CONTINUOUS
 62
           7
100
AcDbLine
 10
1.5
 20
-155.0
 11
11.5
 21
-155.0
  0
LINE
  5
183
100
AcDbEntity
  8
0
  6
CONTINUOUS
 62
           7
100
AcDbLine
 10
11.5
 20
-155.0
 11
11.5
 21
-205.0
  0
LINE
  5
182
100
AcDbEntity
  8
0
  6
CONTINUOUS
 62
           7
100
AcDbLine
 10
14.5
 20
-205.0
 11
24.5
 21
-205.0
  0
LINE
  5
181
100
AcDbEntity
  8
0
  6
CONTINUOUS
 62
           7
100
AcDbLine
 10
14.5
 20
-155.0
 11
14.5
 21
-205.0
  0
LINE
  5
180
100
AcDbEntity
  8
0
  6
CONTINUOUS
 62
           7
100
AcDbLine
 10
1.5
 20
-155.0
 11
1.5
 21
-205.0
  0
LINE
  5
17F
100
AcDbEntity
  8
0
  6
CONTINUOUS
 62
           7
100
AcDbLine
 10
14.5
 20
-155.0
 11
24.5
 21
-155.0
  0
LINE
  5
17E
100
AcDbEntity
  8
0
  6
CONTINUOUS
 62
           7
100
AcDbLine
 10
24.5
 20
-155.0
 11
24.5
 21
-205.0
  0
LINE
  5
17D
100
AcDbEntity
  8
0
  6
CONTINUOUS
 62
           7
100
AcDbLine
 10
27.5
 20
-205.0
 11
37.5
 21
-205.0
  0
LINE
  5
17C
100
AcDbEntity
  8
0
  6
CONTINUOUS
 62
           7
100
AcDbLine
 10
27.5
 20
-155.0
 11
27.5
 21
-205.0
  0
LINE
  5
17B
100
AcDbEntity
  8
0
  6
CONTINUOUS
 62
           7
100
AcDbLine
 10
27.5
 20
-155.0
 11
37.5
 21
-155.0
  0
LINE
  5
17A
100
AcDbEntity
  8
0
  6
CONTINUOUS
 62
           7
100
AcDbLine
 10
37.5
 20
-155.0
 11
37.5
 21
-205.0
  0
LINE
  5
179
100
AcDbEntity
  8
0
  6
CONTINUOUS
 62
           7
100
AcDbLine
 10
40.5
 20
-205.0
 11
50.5
 21
-205.0
  0
LINE
  5
178
100
AcDbEntity
  8
0
  6
CONTINUOUS
 62
           7
100
AcDbLine
 10
40.5
 20
-155.0
 11
40.5
 21
-205.0
  0
LINE
  5
177
100
AcDbEntity
  8
0
  6
CONTINUOUS
 62
           7
100
AcDbLine
 10
40.5
 20
-155.0
 11
50.5
 21
-155.0
  0
LINE
  5
176
100
AcDbEntity
  8
0
  6
CONTINUOUS
 62
           7
100
AcDbLine
 10
50.5
 20
-155.0
 11
50.5
 21
-205.0
  0
LINE
  5
175
100
AcDbEntity
  8
0
  6
CONTINUOUS
 62
           7
100
AcDbLine
 10
53.5
 20
-205.0
 11
63.5
 21
-205.0
  0
LINE
  5
174
100
AcDbEntity
  8
0
  6
CONTINUOUS
 62
           7
100
AcDbLine
 10
53.5
 20
-155.0
 11
53.5
 21
-205.0
  0
LINE
  5
173
100
AcDbEntity
  8
0
  6
CONTINUOUS
 62
           7
100
AcDbLine
 10
53.5
 20
-155.0
 11
63.5
 21
-155.0
  0
LINE
  5
172
100
AcDbEntity
  8
0
  6
CONTINUOUS
 62
           7
100
AcDbLine
 10
63.5
 20
-155.0
 11
63.5
 21
-205.0
  0
LINE
  5
171
100
AcDbEntity
  8
0
  6
CONTINUOUS
 62
           7
100
AcDbLine
 10
66.5
 20
-205.0
 11
76.5
 21
-205.0
  0
LINE
  5
170
100
AcDbEntity
  8
0
  6
CONTINUOUS
 62
           7
100
AcDbLine
 10
66.5
 20
-155.0
 11
66.5
 21
-205.0
  0
LINE
  5
16F
100
AcDbEntity
  8
0
  6
CONTINUOUS
 62
           7
100
AcDbLine
 10
66.5
 20
-155.0
 11
76.5
 21
-155.0
  0
LINE
  5
16E
100
AcDbEntity
  8
0
  6
CONTINUOUS
 62
           7
100
AcDbLine
 10
76.5
 20
-155.0
 11
76.5
 21
-205.0
  0
LINE
  5
16D
100
AcDbEntity
  8
0
  6
CONTINUOUS
 62
           7
100
AcDbLine
 10
79.5
 20
-205.0
 11
89.5
 21
-205.0
  0
LINE
  5
16C
100
AcDbEntity
  8
0
  6
CONTINUOUS
 62
           7
100
AcDbLine
 10
79.5
 20
-155.0
 11
79.5
 21
-205.0
  0
LINE
  5
16B
100
AcDbEntity
  8
0
  6
CONTINUOUS
 62
           7
100
AcDbLine
 10
79.5
 20
-155.0
 11
89.5
 21
-155.0
  0
LINE
  5
16A
100
AcDbEntity
  8
0
  6
CONTINUOUS
 62
           7
100
AcDbLine
 10
89.5
 20
-155.0
 11
89.5
 21
-205.0
  0
LINE
  5
169
100
AcDbEntity
  8
0
  6
CONTINUOUS
 62
           7
100
AcDbLine
 10
92.5
 20
-205.0
 11
102.5
 21
-205.0
  0
LINE
  5
168
100
AcDbEntity
  8
0
  6
CONTINUOUS
 62
           7
100
AcDbLine
 10
92.5
 20
-155.0
 11
92.5
 21
-205.0
  0
LINE
  5
167
100
AcDbEntity
  8
0
  6
CONTINUOUS
 62
           7
100
AcDbLine
 10
92.5
 20
-155.0
 11
102.5
 21
-155.0
  0
LINE
  5
166
100
AcDbEntity
  8
0
  6
CONTINUOUS
 62
           7
100
AcDbLine
 10
102.5
 20
-155.0
 11
102.5
 21
-205.0
  0
LINE
  5
165
100
AcDbEntity
  8
0
  6
CONTINUOUS
 62
           7
100
AcDbLine
 10
105.5
 20
-205.0
 11
115.5
 21
-205.0
  0
LINE
  5
164
100
AcDbEntity
  8
0
  6
CONTINUOUS
 62
           7
100
AcDbLine
 10
105.5
 20
-155.0
 11
105.5
 21
-205.0
  0
LINE
  5
163
100
AcDbEntity
  8
0
  6
CONTINUOUS
 62
           7
100
AcDbLine
 10
105.5
 20
-155.0
 11
115.5
 21
-155.0
  0
LINE
  5
162
100
AcDbEntity
  8
0
  6
CONTINUOUS
 62
           7
100
AcDbLine
 10
115.5
 20
-155.0
 11
115.5
 21
-205.0
  0
LINE
  5
161
100
AcDbEntity
  8
0
  6
CONTINUOUS
 62
           7
100
AcDbLine
 10
118.5
 20
-205.0
 11
128.5
 21
-205.0
  0
LINE
  5
160
100
AcDbEntity
  8
0
  6
CONTINUOUS
 62
           7
100
AcDbLine
 10
118.5
 20
-155.0
 11
118.5
 21
-205.0
  0
LINE
  5
15F
100
AcDbEntity
  8
0
  6
CONTINUOUS
 62
           7
100
AcDbLine
 10
118.5
 20
-155.0
 11
128.5
 21
-155.0
  0
LINE
  5
15E
100
AcDbEntity
  8
0
  6
CONTINUOUS
 62
           7
100
AcDbLine
 10
128.5
 20
-155.0
 11
128.5
 21
-205.0
  0
LINE
  5
15D
100
AcDbEntity
  8
0
  6
CONTINUOUS
 62
           7
100
AcDbLine
 10
131.5
 20
-205.0
 11
141.5
 21
-205.0
  0
LINE
  5
15C
100
AcDbEntity
  8
0
  6
CONTINUOUS
 62
           7
100
AcDbLine
 10
131.5
 20
-155.0
 11
131.5
 21
-205.0
  0
LINE
  5
15B
100
AcDbEntity
  8
0
  6
CONTINUOUS
 62
           7
100
AcDbLine
 10
131.5
 20
-155.0
 11
141.5
 21
-155.0
  0
LINE
  5
15A
100
AcDbEntity
  8
0
  6
CONTINUOUS
 62
           7
100
AcDbLine
 10
141.5
 20
-155.0
 11
141.5
 21
-205.0
  0
LINE
  5
159
100
AcDbEntity
  8
0
  6
CONTINUOUS
 62
           7
100
AcDbLine
 10
144.5
 20
-205.0
 11
154.5
 21
-205.0
  0
LINE
  5
158
100
AcDbEntity
  8
0
  6
CONTINUOUS
 62
           7
100
AcDbLine
 10
144.5
 20
-155.0
 11
144.5
 21
-205.0
  0
LINE
  5
157
100
AcDbEntity
  8
0
  6
CONTINUOUS
 62
           7
100
AcDbLine
 10
144.5
 20
-155.0
 11
154.5
 21
-155.0
  0
LINE
  5
156
100
AcDbEntity
  8
0
  6
CONTINUOUS
 62
           7
100
AcDbLine
 10
154.5
 20
-155.0
 11
154.5
 21
-205.0
  0
LINE
  5
155
100
AcDbEntity
  8
0
  6
CONTINUOUS
 62
           7
100
AcDbLine
 10
157.5
 20
-205.0
 11
167.5
 21
-205.0
  0
LINE
  5
154
100
AcDbEntity
  8
0
  6
CONTINUOUS
 62
           7
100
AcDbLine
 10
157.5
 20
-155.0
 11
157.5
 21
-205.0
  0
LINE
  5
153
100
AcDbEntity
  8
0
  6
CONTINUOUS
 62
           7
100
AcDbLine
 10
157.5
 20
-155.0
 11
167.5
 21
-155.0
  0
LINE
  5
152
100
AcDbEntity
  8
0
  6
CONTINUOUS
 62
           7
100
AcDbLine
 10
167.5
 20
-155.0
 11
167.5
 21
-205.0
  0
LINE
  5
151
100
AcDbEntity
  8
0
  6
CONTINUOUS
 62
           7
100
AcDbLine
 10
170.5
 20
-205.0
 11
180.5
 21
-205.0
  0
LINE
  5
150
100
AcDbEntity
  8
0
  6
CONTINUOUS
 62
           7
100
AcDbLine
 10
170.5
 20
-155.0
 11
170.5
 21
-205.0
  0
LINE
  5
14F
100
AcDbEntity
  8
0
  6
CONTINUOUS
 62
           7
100
AcDbLine
 10
170.5
 20
-155.0
 11
180.5
 21
-155.0
  0
LINE
  5
14E
100
AcDbEntity
  8
0
  6
CONTINUOUS
 62
           7
100
AcDbLine
 10
180.5
 20
-155.0
 11
180.5
 21
-205.0
  0
LINE
  5
14D
100
AcDbEntity
  8
0
  6
CONTINUOUS
 62
           7
100
AcDbLine
 10
183.5
 20
-205.0
 11
193.5
 21
-205.0
  0
LINE
  5
14C
100
AcDbEntity
  8
0
  6
CONTINUOUS
 62
           7
100
AcDbLine
 10
183.5
 20
-155.0
 11
183.5
 21
-205.0
  0
LINE
  5
14B
100
AcDbEntity
  8
0
  6
CONTINUOUS
 62
           7
100
AcDbLine
 10
183.5
 20
-155.0
 11
193.5
 21
-155.0
  0
LINE
  5
14A
100
AcDbEntity
  8
0
  6
CONTINUOUS
 62
           7
100
AcDbLine
 10
193.5
 20
-155.0
 11
193.5
 21
-205.0
  0
LINE
  5
149
100
AcDbEntity
  8
0
  6
CONTINUOUS
 62
           7
100
AcDbLine
 10
196.5
 20
-205.0
 11
206.5
 21
-205.0
  0
LINE
  5
148
100
AcDbEntity
  8
0
  6
CONTINUOUS
 62
           7
100
AcDbLine
 10
196.5
 20
-155.0
 11
196.5
 21
-205.0
  0
LINE
  5
147
100
AcDbEntity
  8
0
  6
CONTINUOUS
 62
           7
100
AcDbLine
 10
196.5
 20
-155.0
 11
206.5
 21
-155.0
  0
LINE
  5
146
100
AcDbEntity
  8
0
  6
CONTINUOUS
 62
           7
100
AcDbLine
 10
206.5
 20
-155.0
 11
206.5
 21
-205.0
  0
LINE
  5
145
100
AcDbEntity
  8
0
  6
CONTINUOUS
 62
           7
100
AcDbLine
 10
209.5
 20
-205.0
 11
219.5
 21
-205.0
  0
LINE
  5
144
100
AcDbEntity
  8
0
  6
CONTINUOUS
 62
           7
100
AcDbLine
 10
209.5
 20
-155.0
 11
209.5
 21
-205.0
  0
LINE
  5
143
100
AcDbEntity
  8
0
  6
CONTINUOUS
 62
           7
100
AcDbLine
 10
209.5
 20
-155.0
 11
219.5
 21
-155.0
  0
LINE
  5
142
100
AcDbEntity
  8
0
  6
CONTINUOUS
 62
           7
100
AcDbLine
 10
219.5
 20
-155.0
 11
219.5
 21
-205.0
  0
LINE
  5
141
100
AcDbEntity
  8
0
  6
CONTINUOUS
 62
           7
100
AcDbLine
 10
222.5
 20
-205.0
 11
232.5
 21
-205.0
  0
LINE
  5
140
100
AcDbEntity
  8
0
  6
CONTINUOUS
 62
           7
100
AcDbLine
 10
222.5
 20
-155.0
 11
222.5
 21
-205.0
  0
LINE
  5
13F
100
AcDbEntity
  8
0
  6
CONTINUOUS
 62
           7
100
AcDbLine
 10
222.5
 20
-155.0
 11
232.5
 21
-155.0
  0
LINE
  5
13E
100
AcDbEntity
  8
0
  6
CONTINUOUS
 62
           7
100
AcDbLine
 10
232.5
 20
-155.0
 11
232.5
 21
-205.0
  0
LINE
  5
13D
100
AcDbEntity
  8
0
  6
CONTINUOUS
 62
           7
100
AcDbLine
 10
235.5
 20
-205.0
 11
245.5
 21
-205.0
  0
LINE
  5
13C
100
AcDbEntity
  8
0
  6
CONTINUOUS
 62
           7
100
AcDbLine
 10
235.5
 20
-155.0
 11
235.5
 21
-205.0
  0
LINE
  5
13B
100
AcDbEntity
  8
0
  6
CONTINUOUS
 62
           7
100
AcDbLine
 10
235.5
 20
-155.0
 11
245.5
 21
-155.0
  0
LINE
  5
13A
100
AcDbEntity
  8
0
  6
CONTINUOUS
 62
           7
100
AcDbLine
 10
245.5
 20
-155.0
 11
245.5
 21
-205.0
  0
LINE
  5
139
100
AcDbEntity
  8
0
  6
CONTINUOUS
 62
           7
100
AcDbLine
 10
248.5
 20
-205.0
 11
258.5
 21
-205.0
  0
LINE
  5
138
100
AcDbEntity
  8
0
  6
CONTINUOUS
 62
           7
100
AcDbLine
 10
248.5
 20
-155.0
 11
248.5
 21
-205.0
  0
LINE
  5
137
100
AcDbEntity
  8
0
  6
CONTINUOUS
 62
           7
100
AcDbLine
 10
248.5
 20
-155.0
 11
258.5
 21
-155.0
  0
LINE
  5
136
100
AcDbEntity
  8
0
  6
CONTINUOUS
 62
           7
100
AcDbLine
 10
258.5
 20
-155.0
 11
258.5
 21
-205.0
  0
LINE
  5
135
100
AcDbEntity
  8
0
  6
CONTINUOUS
 62
           7
100
AcDbLine
 10
-248.5
 20
265.0
 11
-248.5
 21
215.0
  0
LINE
  5
134
100
AcDbEntity
  8
0
  6
CONTINUOUS
 62
           7
100
AcDbLine
 10
-258.5
 20
265.0
 11
-248.5
 21
265.0
  0
LINE
  5
133
100
AcDbEntity
  8
0
  6
CONTINUOUS
 62
           7
100
AcDbLine
 10
-258.5
 20
215.0
 11
-248.5
 21
215.0
  0
LINE
  5
132
100
AcDbEntity
  8
0
  6
CONTINUOUS
 62
           7
100
AcDbLine
 10
-258.5
 20
265.0
 11
-258.5
 21
215.0
  0
LINE
  5
131
100
AcDbEntity
  8
0
  6
CONTINUOUS
 62
           7
100
AcDbLine
 10
-248.5
 20
205.0
 11
-248.5
 21
155.0
  0
LINE
  5
130
100
AcDbEntity
  8
0
  6
CONTINUOUS
 62
           7
100
AcDbLine
 10
-258.5
 20
205.0
 11
-248.5
 21
205.0
  0
LINE
  5
12F
100
AcDbEntity
  8
0
  6
CONTINUOUS
 62
           7
100
AcDbLine
 10
-258.5
 20
155.0
 11
-248.5
 21
155.0
  0
LINE
  5
12E
100
AcDbEntity
  8
0
  6
CONTINUOUS
 62
           7
100
AcDbLine
 10
-258.5
 20
205.0
 11
-258.5
 21
155.0
  0
LINE
  5
12D
100
AcDbEntity
  8
0
  6
CONTINUOUS
 62
           7
100
AcDbLine
 10
-248.5
 20
145.0
 11
-248.5
 21
95.0
  0
LINE
  5
12C
100
AcDbEntity
  8
0
  6
CONTINUOUS
 62
           7
100
AcDbLine
 10
-258.5
 20
145.0
 11
-248.5
 21
145.0
  0
LINE
  5
12B
100
AcDbEntity
  8
0
  6
CONTINUOUS
 62
           7
100
AcDbLine
 10
-258.5
 20
95.0
 11
-248.5
 21
95.0
  0
LINE
  5
12A
100
AcDbEntity
  8
0
  6
CONTINUOUS
 62
           7
100
AcDbLine
 10
-258.5
 20
145.0
 11
-258.5
 21
95.0
  0
LINE
  5
129
100
AcDbEntity
  8
0
  6
CONTINUOUS
 62
           7
100
AcDbLine
 10
-248.5
 20
85.0
 11
-248.5
 21
35.0
  0
LINE
  5
128
100
AcDbEntity
  8
0
  6
CONTINUOUS
 62
           7
100
AcDbLine
 10
-258.5
 20
85.0
 11
-248.5
 21
85.0
  0
LINE
  5
127
100
AcDbEntity
  8
0
  6
CONTINUOUS
 62
           7
100
AcDbLine
 10
-258.5
 20
35.0
 11
-248.5
 21
35.0
  0
LINE
  5
126
100
AcDbEntity
  8
0
  6
CONTINUOUS
 62
           7
100
AcDbLine
 10
-258.5
 20
85.0
 11
-258.5
 21
35.0
  0
LINE
  5
125
100
AcDbEntity
  8
0
  6
CONTINUOUS
 62
           7
100
AcDbLine
 10
-248.5
 20
25.0
 11
-248.5
 21
-25.0
  0
LINE
  5
124
100
AcDbEntity
  8
0
  6
CONTINUOUS
 62
           7
100
AcDbLine
 10
-258.5
 20
25.0
 11
-248.5
 21
25.0
  0
LINE
  5
123
100
AcDbEntity
  8
0
  6
CONTINUOUS
 62
           7
100
AcDbLine
 10
-258.5
 20
-25.0
 11
-248.5
 21
-25.0
  0
LINE
  5
122
100
AcDbEntity
  8
0
  6
CONTINUOUS
 62
           7
100
AcDbLine
 10
-258.5
 20
25.0
 11
-258.5
 21
-25.0
  0
LINE
  5
121
100
AcDbEntity
  8
0
  6
CONTINUOUS
 62
           7
100
AcDbLine
 10
-248.5
 20
-35.0
 11
-248.5
 21
-85.0
  0
LINE
  5
120
100
AcDbEntity
  8
0
  6
CONTINUOUS
 62
           7
100
AcDbLine
 10
-258.5
 20
-35.0
 11
-248.5
 21
-35.0
  0
LINE
  5
11F
100
AcDbEntity
  8
0
  6
CONTINUOUS
 62
           7
100
AcDbLine
 10
-258.5
 20
-85.0
 11
-248.5
 21
-85.0
  0
LINE
  5
11E
100
AcDbEntity
  8
0
  6
CONTINUOUS
 62
           7
100
AcDbLine
 10
-258.5
 20
-35.0
 11
-258.5
 21
-85.0
  0
LINE
  5
11D
100
AcDbEntity
  8
0
  6
CONTINUOUS
 62
           7
100
AcDbLine
 10
-248.5
 20
-95.0
 11
-248.5
 21
-145.0
  0
LINE
  5
11C
100
AcDbEntity
  8
0
  6
CONTINUOUS
 62
           7
100
AcDbLine
 10
-258.5
 20
-95.0
 11
-248.5
 21
-95.0
  0
LINE
  5
11B
100
AcDbEntity
  8
0
  6
CONTINUOUS
 62
           7
100
AcDbLine
 10
-258.5
 20
-145.0
 11
-248.5
 21
-145.0
  0
LINE
  5
11A
100
AcDbEntity
  8
0
  6
CONTINUOUS
 62
           7
100
AcDbLine
 10
-258.5
 20
-95.0
 11
-258.5
 21
-145.0
  0
LINE
  5
119
100
AcDbEntity
  8
0
  6
CONTINUOUS
 62
           7
100
AcDbLine
 10
-248.5
 20
-155.0
 11
-248.5
 21
-205.0
  0
LINE
  5
118
100
AcDbEntity
  8
0
  6
CONTINUOUS
 62
           7
100
AcDbLine
 10
-258.5
 20
-155.0
 11
-248.5
 21
-155.0
  0
LINE
  5
117
100
AcDbEntity
  8
0
  6
CONTINUOUS
 62
           7
100
AcDbLine
 10
-258.5
 20
-205.0
 11
-248.5
 21
-205.0
  0
LINE
  5
116
100
AcDbEntity
  8
0
  6
CONTINUOUS
 62
           7
100
AcDbLine
 10
258.5
 20
-215.0
 11
258.5
 21
-265.0
  0
LINE
  5
115
100
AcDbEntity
  8
0
  6
CONTINUOUS
 62
           7
100
AcDbLine
 10
248.5
 20
-215.0
 11
258.5
 21
-215.0
  0
LINE
  5
114
100
AcDbEntity
  8
0
  6
CONTINUOUS
 62
           7
100
AcDbLine
 10
248.5
 20
-215.0
 11
248.5
 21
-265.0
  0
LINE
  5
113
100
AcDbEntity
  8
0
  6
CONTINUOUS
 62
           7
100
AcDbLine
 10
248.5
 20
-265.0
 11
258.5
 21
-265.0
  0
LINE
  5
112
100
AcDbEntity
  8
0
  6
CONTINUOUS
 62
           7
100
AcDbLine
 10
245.5
 20
-215.0
 11
245.5
 21
-265.0
  0
LINE
  5
111
100
AcDbEntity
  8
0
  6
CONTINUOUS
 62
           7
100
AcDbLine
 10
235.5
 20
-215.0
 11
245.5
 21
-215.0
  0
LINE
  5
110
100
AcDbEntity
  8
0
  6
CONTINUOUS
 62
           7
100
AcDbLine
 10
235.5
 20
-215.0
 11
235.5
 21
-265.0
  0
LINE
  5
10F
100
AcDbEntity
  8
0
  6
CONTINUOUS
 62
           7
100
AcDbLine
 10
235.5
 20
-265.0
 11
245.5
 21
-265.0
  0
LINE
  5
10E
100
AcDbEntity
  8
0
  6
CONTINUOUS
 62
           7
100
AcDbLine
 10
232.5
 20
-215.0
 11
232.5
 21
-265.0
  0
LINE
  5
10D
100
AcDbEntity
  8
0
  6
CONTINUOUS
 62
           7
100
AcDbLine
 10
222.5
 20
-215.0
 11
232.5
 21
-215.0
  0
LINE
  5
10C
100
AcDbEntity
  8
0
  6
CONTINUOUS
 62
           7
100
AcDbLine
 10
222.5
 20
-215.0
 11
222.5
 21
-265.0
  0
LINE
  5
10B
100
AcDbEntity
  8
0
  6
CONTINUOUS
 62
           7
100
AcDbLine
 10
222.5
 20
-265.0
 11
232.5
 21
-265.0
  0
LINE
  5
10A
100
AcDbEntity
  8
0
  6
CONTINUOUS
 62
           7
100
AcDbLine
 10
219.5
 20
-215.0
 11
219.5
 21
-265.0
  0
LINE
  5
109
100
AcDbEntity
  8
0
  6
CONTINUOUS
 62
           7
100
AcDbLine
 10
209.5
 20
-215.0
 11
219.5
 21
-215.0
  0
LINE
  5
108
100
AcDbEntity
  8
0
  6
CONTINUOUS
 62
           7
100
AcDbLine
 10
209.5
 20
-215.0
 11
209.5
 21
-265.0
  0
LINE
  5
107
100
AcDbEntity
  8
0
  6
CONTINUOUS
 62
           7
100
AcDbLine
 10
209.5
 20
-265.0
 11
219.5
 21
-265.0
  0
LINE
  5
106
100
AcDbEntity
  8
0
  6
CONTINUOUS
 62
           7
100
AcDbLine
 10
206.5
 20
-215.0
 11
206.5
 21
-265.0
  0
LINE
  5
105
100
AcDbEntity
  8
0
  6
CONTINUOUS
 62
           7
100
AcDbLine
 10
196.5
 20
-215.0
 11
206.5
 21
-215.0
  0
LINE
  5
104
100
AcDbEntity
  8
0
  6
CONTINUOUS
 62
           7
100
AcDbLine
 10
196.5
 20
-215.0
 11
196.5
 21
-265.0
  0
LINE
  5
103
100
AcDbEntity
  8
0
  6
CONTINUOUS
 62
           7
100
AcDbLine
 10
196.5
 20
-265.0
 11
206.5
 21
-265.0
  0
LINE
  5
102
100
AcDbEntity
  8
0
  6
CONTINUOUS
 62
           7
100
AcDbLine
 10
193.5
 20
-215.0
 11
193.5
 21
-265.0
  0
LINE
  5
101
100
AcDbEntity
  8
0
  6
CONTINUOUS
 62
           7
100
AcDbLine
 10
183.5
 20
-215.0
 11
193.5
 21
-215.0
  0
LINE
  5
100
100
AcDbEntity
  8
0
  6
CONTINUOUS
 62
           7
100
AcDbLine
 10
183.5
 20
-215.0
 11
183.5
 21
-265.0
  0
LINE
  5
FF
100
AcDbEntity
  8
0
  6
CONTINUOUS
 62
           7
100
AcDbLine
 10
183.5
 20
-265.0
 11
193.5
 21
-265.0
  0
LINE
  5
FE
100
AcDbEntity
  8
0
  6
CONTINUOUS
 62
           7
100
AcDbLine
 10
180.5
 20
-215.0
 11
180.5
 21
-265.0
  0
LINE
  5
FD
100
AcDbEntity
  8
0
  6
CONTINUOUS
 62
           7
100
AcDbLine
 10
170.5
 20
-215.0
 11
180.5
 21
-215.0
  0
LINE
  5
FC
100
AcDbEntity
  8
0
  6
CONTINUOUS
 62
           7
100
AcDbLine
 10
170.5
 20
-215.0
 11
170.5
 21
-265.0
  0
LINE
  5
FB
100
AcDbEntity
  8
0
  6
CONTINUOUS
 62
           7
100
AcDbLine
 10
170.5
 20
-265.0
 11
180.5
 21
-265.0
  0
LINE
  5
FA
100
AcDbEntity
  8
0
  6
CONTINUOUS
 62
           7
100
AcDbLine
 10
167.5
 20
-215.0
 11
167.5
 21
-265.0
  0
LINE
  5
F9
100
AcDbEntity
  8
0
  6
CONTINUOUS
 62
           7
100
AcDbLine
 10
157.5
 20
-215.0
 11
167.5
 21
-215.0
  0
LINE
  5
F8
100
AcDbEntity
  8
0
  6
CONTINUOUS
 62
           7
100
AcDbLine
 10
157.5
 20
-215.0
 11
157.5
 21
-265.0
  0
LINE
  5
F7
100
AcDbEntity
  8
0
  6
CONTINUOUS
 62
           7
100
AcDbLine
 10
157.5
 20
-265.0
 11
167.5
 21
-265.0
  0
LINE
  5
F6
100
AcDbEntity
  8
0
  6
CONTINUOUS
 62
           7
100
AcDbLine
 10
154.5
 20
-215.0
 11
154.5
 21
-265.0
  0
LINE
  5
F5
100
AcDbEntity
  8
0
  6
CONTINUOUS
 62
           7
100
AcDbLine
 10
144.5
 20
-215.0
 11
154.5
 21
-215.0
  0
LINE
  5
F4
100
AcDbEntity
  8
0
  6
CONTINUOUS
 62
           7
100
AcDbLine
 10
144.5
 20
-215.0
 11
144.5
 21
-265.0
  0
LINE
  5
F3
100
AcDbEntity
  8
0
  6
CONTINUOUS
 62
           7
100
AcDbLine
 10
144.5
 20
-265.0
 11
154.5
 21
-265.0
  0
LINE
  5
F2
100
AcDbEntity
  8
0
  6
CONTINUOUS
 62
           7
100
AcDbLine
 10
141.5
 20
-215.0
 11
141.5
 21
-265.0
  0
LINE
  5
F1
100
AcDbEntity
  8
0
  6
CONTINUOUS
 62
           7
100
AcDbLine
 10
131.5
 20
-215.0
 11
141.5
 21
-215.0
  0
LINE
  5
F0
100
AcDbEntity
  8
0
  6
CONTINUOUS
 62
           7
100
AcDbLine
 10
131.5
 20
-215.0
 11
131.5
 21
-265.0
  0
LINE
  5
EF
100
AcDbEntity
  8
0
  6
CONTINUOUS
 62
           7
100
AcDbLine
 10
131.5
 20
-265.0
 11
141.5
 21
-265.0
  0
LINE
  5
EE
100
AcDbEntity
  8
0
  6
CONTINUOUS
 62
           7
100
AcDbLine
 10
128.5
 20
-215.0
 11
128.5
 21
-265.0
  0
LINE
  5
ED
100
AcDbEntity
  8
0
  6
CONTINUOUS
 62
           7
100
AcDbLine
 10
118.5
 20
-215.0
 11
128.5
 21
-215.0
  0
LINE
  5
EC
100
AcDbEntity
  8
0
  6
CONTINUOUS
 62
           7
100
AcDbLine
 10
118.5
 20
-215.0
 11
118.5
 21
-265.0
  0
LINE
  5
EB
100
AcDbEntity
  8
0
  6
CONTINUOUS
 62
           7
100
AcDbLine
 10
118.5
 20
-265.0
 11
128.5
 21
-265.0
  0
LINE
  5
EA
100
AcDbEntity
  8
0
  6
CONTINUOUS
 62
           7
100
AcDbLine
 10
115.5
 20
-215.0
 11
115.5
 21
-265.0
  0
LINE
  5
E9
100
AcDbEntity
  8
0
  6
CONTINUOUS
 62
           7
100
AcDbLine
 10
105.5
 20
-215.0
 11
115.5
 21
-215.0
  0
LINE
  5
E8
100
AcDbEntity
  8
0
  6
CONTINUOUS
 62
           7
100
AcDbLine
 10
105.5
 20
-215.0
 11
105.5
 21
-265.0
  0
LINE
  5
E7
100
AcDbEntity
  8
0
  6
CONTINUOUS
 62
           7
100
AcDbLine
 10
105.5
 20
-265.0
 11
115.5
 21
-265.0
  0
LINE
  5
E6
100
AcDbEntity
  8
0
  6
CONTINUOUS
 62
           7
100
AcDbLine
 10
102.5
 20
-215.0
 11
102.5
 21
-265.0
  0
LINE
  5
E5
100
AcDbEntity
  8
0
  6
CONTINUOUS
 62
           7
100
AcDbLine
 10
92.5
 20
-215.0
 11
102.5
 21
-215.0
  0
LINE
  5
E4
100
AcDbEntity
  8
0
  6
CONTINUOUS
 62
           7
100
AcDbLine
 10
92.5
 20
-215.0
 11
92.5
 21
-265.0
  0
LINE
  5
E3
100
AcDbEntity
  8
0
  6
CONTINUOUS
 62
           7
100
AcDbLine
 10
92.5
 20
-265.0
 11
102.5
 21
-265.0
  0
LINE
  5
E2
100
AcDbEntity
  8
0
  6
CONTINUOUS
 62
           7
100
AcDbLine
 10
89.5
 20
-215.0
 11
89.5
 21
-265.0
  0
LINE
  5
E1
100
AcDbEntity
  8
0
  6
CONTINUOUS
 62
           7
100
AcDbLine
 10
79.5
 20
-215.0
 11
89.5
 21
-215.0
  0
LINE
  5
E0
100
AcDbEntity
  8
0
  6
CONTINUOUS
 62
           7
100
AcDbLine
 10
79.5
 20
-215.0
 11
79.5
 21
-265.0
  0
LINE
  5
DF
100
AcDbEntity
  8
0
  6
CONTINUOUS
 62
           7
100
AcDbLine
 10
79.5
 20
-265.0
 11
89.5
 21
-265.0
  0
LINE
  5
DE
100
AcDbEntity
  8
0
  6
CONTINUOUS
 62
           7
100
AcDbLine
 10
76.5
 20
-215.0
 11
76.5
 21
-265.0
  0
LINE
  5
DD
100
AcDbEntity
  8
0
  6
CONTINUOUS
 62
           7
100
AcDbLine
 10
66.5
 20
-215.0
 11
76.5
 21
-215.0
  0
LINE
  5
DC
100
AcDbEntity
  8
0
  6
CONTINUOUS
 62
           7
100
AcDbLine
 10
66.5
 20
-215.0
 11
66.5
 21
-265.0
  0
LINE
  5
DB
100
AcDbEntity
  8
0
  6
CONTINUOUS
 62
           7
100
AcDbLine
 10
66.5
 20
-265.0
 11
76.5
 21
-265.0
  0
LINE
  5
DA
100
AcDbEntity
  8
0
  6
CONTINUOUS
 62
           7
100
AcDbLine
 10
63.5
 20
-215.0
 11
63.5
 21
-265.0
  0
LINE
  5
D9
100
AcDbEntity
  8
0
  6
CONTINUOUS
 62
           7
100
AcDbLine
 10
53.5
 20
-215.0
 11
63.5
 21
-215.0
  0
LINE
  5
D8
100
AcDbEntity
  8
0
  6
CONTINUOUS
 62
           7
100
AcDbLine
 10
53.5
 20
-215.0
 11
53.5
 21
-265.0
  0
LINE
  5
D7
100
AcDbEntity
  8
0
  6
CONTINUOUS
 62
           7
100
AcDbLine
 10
53.5
 20
-265.0
 11
63.5
 21
-265.0
  0
LINE
  5
D6
100
AcDbEntity
  8
0
  6
CONTINUOUS
 62
           7
100
AcDbLine
 10
50.5
 20
-215.0
 11
50.5
 21
-265.0
  0
LINE
  5
D5
100
AcDbEntity
  8
0
  6
CONTINUOUS
 62
           7
100
AcDbLine
 10
40.5
 20
-215.0
 11
50.5
 21
-215.0
  0
LINE
  5
D4
100
AcDbEntity
  8
0
  6
CONTINUOUS
 62
           7
100
AcDbLine
 10
40.5
 20
-215.0
 11
40.5
 21
-265.0
  0
LINE
  5
D3
100
AcDbEntity
  8
0
  6
CONTINUOUS
 62
           7
100
AcDbLine
 10
40.5
 20
-265.0
 11
50.5
 21
-265.0
  0
LINE
  5
D2
100
AcDbEntity
  8
0
  6
CONTINUOUS
 62
           7
100
AcDbLine
 10
37.5
 20
-215.0
 11
37.5
 21
-265.0
  0
LINE
  5
D1
100
AcDbEntity
  8
0
  6
CONTINUOUS
 62
           7
100
AcDbLine
 10
27.5
 20
-215.0
 11
37.5
 21
-215.0
  0
LINE
  5
D0
100
AcDbEntity
  8
0
  6
CONTINUOUS
 62
           7
100
AcDbLine
 10
27.5
 20
-215.0
 11
27.5
 21
-265.0
  0
LINE
  5
CF
100
AcDbEntity
  8
0
  6
CONTINUOUS
 62
           7
100
AcDbLine
 10
27.5
 20
-265.0
 11
37.5
 21
-265.0
  0
LINE
  5
CE
100
AcDbEntity
  8
0
  6
CONTINUOUS
 62
           7
100
AcDbLine
 10
24.5
 20
-215.0
 11
24.5
 21
-265.0
  0
LINE
  5
CD
100
AcDbEntity
  8
0
  6
CONTINUOUS
 62
           7
100
AcDbLine
 10
14.5
 20
-215.0
 11
24.5
 21
-215.0
  0
LINE
  5
CC
100
AcDbEntity
  8
0
  6
CONTINUOUS
 62
           7
100
AcDbLine
 10
14.5
 20
-215.0
 11
14.5
 21
-265.0
  0
LINE
  5
CB
100
AcDbEntity
  8
0
  6
CONTINUOUS
 62
           7
100
AcDbLine
 10
14.5
 20
-265.0
 11
24.5
 21
-265.0
  0
LINE
  5
CA
100
AcDbEntity
  8
0
  6
CONTINUOUS
 62
           7
100
AcDbLine
 10
11.5
 20
-215.0
 11
11.5
 21
-265.0
  0
LINE
  5
C9
100
AcDbEntity
  8
0
  6
CONTINUOUS
 62
           7
100
AcDbLine
 10
1.5
 20
-215.0
 11
11.5
 21
-215.0
  0
LINE
  5
C8
100
AcDbEntity
  8
0
  6
CONTINUOUS
 62
           7
100
AcDbLine
 10
1.5
 20
-215.0
 11
1.5
 21
-265.0
  0
LINE
  5
C7
100
AcDbEntity
  8
0
  6
CONTINUOUS
 62
           7
100
AcDbLine
 10
1.5
 20
-265.0
 11
11.5
 21
-265.0
  0
LINE
  5
C6
100
AcDbEntity
  8
0
  6
CONTINUOUS
 62
           7
100
AcDbLine
 10
-1.5
 20
-215.0
 11
-1.5
 21
-265.0
  0
LINE
  5
C5
100
AcDbEntity
  8
0
  6
CONTINUOUS
 62
           7
100
AcDbLine
 10
-11.5
 20
-215.0
 11
-1.5
 21
-215.0
  0
LINE
  5
C4
100
AcDbEntity
  8
0
  6
CONTINUOUS
 62
           7
100
AcDbLine
 10
-11.5
 20
-215.0
 11
-11.5
 21
-265.0
  0
LINE
  5
C3
100
AcDbEntity
  8
0
  6
CONTINUOUS
 62
           7
100
AcDbLine
 10
-11.5
 20
-265.0
 11
-1.5
 21
-265.0
  0
LINE
  5
C2
100
AcDbEntity
  8
0
  6
CONTINUOUS
 62
           7
100
AcDbLine
 10
-14.5
 20
-215.0
 11
-14.5
 21
-265.0
  0
LINE
  5
C1
100
AcDbEntity
  8
0
  6
CONTINUOUS
 62
           7
100
AcDbLine
 10
-24.5
 20
-215.0
 11
-14.5
 21
-215.0
  0
LINE
  5
C0
100
AcDbEntity
  8
0
  6
CONTINUOUS
 62
           7
100
AcDbLine
 10
-24.5
 20
-215.0
 11
-24.5
 21
-265.0
  0
LINE
  5
BF
100
AcDbEntity
  8
0
  6
CONTINUOUS
 62
           7
100
AcDbLine
 10
-24.5
 20
-265.0
 11
-14.5
 21
-265.0
  0
LINE
  5
BE
100
AcDbEntity
  8
0
  6
CONTINUOUS
 62
           7
100
AcDbLine
 10
-27.5
 20
-215.0
 11
-27.5
 21
-265.0
  0
LINE
  5
BD
100
AcDbEntity
  8
0
  6
CONTINUOUS
 62
           7
100
AcDbLine
 10
-37.5
 20
-215.0
 11
-27.5
 21
-215.0
  0
LINE
  5
BC
100
AcDbEntity
  8
0
  6
CONTINUOUS
 62
           7
100
AcDbLine
 10
-37.5
 20
-215.0
 11
-37.5
 21
-265.0
  0
LINE
  5
BB
100
AcDbEntity
  8
0
  6
CONTINUOUS
 62
           7
100
AcDbLine
 10
-37.5
 20
-265.0
 11
-27.5
 21
-265.0
  0
LINE
  5
BA
100
AcDbEntity
  8
0
  6
CONTINUOUS
 62
           7
100
AcDbLine
 10
-40.5
 20
-215.0
 11
-40.5
 21
-265.0
  0
LINE
  5
B9
100
AcDbEntity
  8
0
  6
CONTINUOUS
 62
           7
100
AcDbLine
 10
-50.5
 20
-215.0
 11
-40.5
 21
-215.0
  0
LINE
  5
B8
100
AcDbEntity
  8
0
  6
CONTINUOUS
 62
           7
100
AcDbLine
 10
-50.5
 20
-215.0
 11
-50.5
 21
-265.0
  0
LINE
  5
B7
100
AcDbEntity
  8
0
  6
CONTINUOUS
 62
           7
100
AcDbLine
 10
-50.5
 20
-265.0
 11
-40.5
 21
-265.0
  0
LINE
  5
B6
100
AcDbEntity
  8
0
  6
CONTINUOUS
 62
           7
100
AcDbLine
 10
-53.5
 20
-215.0
 11
-53.5
 21
-265.0
  0
LINE
  5
B5
100
AcDbEntity
  8
0
  6
CONTINUOUS
 62
           7
100
AcDbLine
 10
-63.5
 20
-215.0
 11
-53.5
 21
-215.0
  0
LINE
  5
B4
100
AcDbEntity
  8
0
  6
CONTINUOUS
 62
           7
100
AcDbLine
 10
-63.5
 20
-215.0
 11
-63.5
 21
-265.0
  0
LINE
  5
B3
100
AcDbEntity
  8
0
  6
CONTINUOUS
 62
           7
100
AcDbLine
 10
-63.5
 20
-265.0
 11
-53.5
 21
-265.0
  0
LINE
  5
B2
100
AcDbEntity
  8
0
  6
CONTINUOUS
 62
           7
100
AcDbLine
 10
-66.5
 20
-215.0
 11
-66.5
 21
-265.0
  0
LINE
  5
B1
100
AcDbEntity
  8
0
  6
CONTINUOUS
 62
           7
100
AcDbLine
 10
-76.5
 20
-215.0
 11
-66.5
 21
-215.0
  0
LINE
  5
B0
100
AcDbEntity
  8
0
  6
CONTINUOUS
 62
           7
100
AcDbLine
 10
-76.5
 20
-215.0
 11
-76.5
 21
-265.0
  0
LINE
  5
AF
100
AcDbEntity
  8
0
  6
CONTINUOUS
 62
           7
100
AcDbLine
 10
-76.5
 20
-265.0
 11
-66.5
 21
-265.0
  0
LINE
  5
AE
100
AcDbEntity
  8
0
  6
CONTINUOUS
 62
           7
100
AcDbLine
 10
-79.5
 20
-215.0
 11
-79.5
 21
-265.0
  0
LINE
  5
AD
100
AcDbEntity
  8
0
  6
CONTINUOUS
 62
           7
100
AcDbLine
 10
-89.5
 20
-215.0
 11
-79.5
 21
-215.0
  0
LINE
  5
AC
100
AcDbEntity
  8
0
  6
CONTINUOUS
 62
           7
100
AcDbLine
 10
-89.5
 20
-215.0
 11
-89.5
 21
-265.0
  0
LINE
  5
AB
100
AcDbEntity
  8
0
  6
CONTINUOUS
 62
           7
100
AcDbLine
 10
-89.5
 20
-265.0
 11
-79.5
 21
-265.0
  0
LINE
  5
AA
100
AcDbEntity
  8
0
  6
CONTINUOUS
 62
           7
100
AcDbLine
 10
-92.5
 20
-215.0
 11
-92.5
 21
-265.0
  0
LINE
  5
A9
100
AcDbEntity
  8
0
  6
CONTINUOUS
 62
           7
100
AcDbLine
 10
-102.5
 20
-215.0
 11
-92.5
 21
-215.0
  0
LINE
  5
A8
100
AcDbEntity
  8
0
  6
CONTINUOUS
 62
           7
100
AcDbLine
 10
-102.5
 20
-215.0
 11
-102.5
 21
-265.0
  0
LINE
  5
A7
100
AcDbEntity
  8
0
  6
CONTINUOUS
 62
           7
100
AcDbLine
 10
-102.5
 20
-265.0
 11
-92.5
 21
-265.0
  0
LINE
  5
A6
100
AcDbEntity
  8
0
  6
CONTINUOUS
 62
           7
100
AcDbLine
 10
-105.5
 20
-215.0
 11
-105.5
 21
-265.0
  0
LINE
  5
A5
100
AcDbEntity
  8
0
  6
CONTINUOUS
 62
           7
100
AcDbLine
 10
-115.5
 20
-215.0
 11
-105.5
 21
-215.0
  0
LINE
  5
A4
100
AcDbEntity
  8
0
  6
CONTINUOUS
 62
           7
100
AcDbLine
 10
-115.5
 20
-215.0
 11
-115.5
 21
-265.0
  0
LINE
  5
A3
100
AcDbEntity
  8
0
  6
CONTINUOUS
 62
           7
100
AcDbLine
 10
-115.5
 20
-265.0
 11
-105.5
 21
-265.0
  0
LINE
  5
A2
100
AcDbEntity
  8
0
  6
CONTINUOUS
 62
           7
100
AcDbLine
 10
-118.5
 20
-215.0
 11
-118.5
 21
-265.0
  0
LINE
  5
A1
100
AcDbEntity
  8
0
  6
CONTINUOUS
 62
           7
100
AcDbLine
 10
-128.5
 20
-215.0
 11
-118.5
 21
-215.0
  0
LINE
  5
A0
100
AcDbEntity
  8
0
  6
CONTINUOUS
 62
           7
100
AcDbLine
 10
-128.5
 20
-215.0
 11
-128.5
 21
-265.0
  0
LINE
  5
9F
100
AcDbEntity
  8
0
  6
CONTINUOUS
 62
           7
100
AcDbLine
 10
-128.5
 20
-265.0
 11
-118.5
 21
-265.0
  0
LINE
  5
9E
100
AcDbEntity
  8
0
  6
CONTINUOUS
 62
           7
100
AcDbLine
 10
-131.5
 20
-215.0
 11
-131.5
 21
-265.0
  0
LINE
  5
9D
100
AcDbEntity
  8
0
  6
CONTINUOUS
 62
           7
100
AcDbLine
 10
-141.5
 20
-215.0
 11
-131.5
 21
-215.0
  0
LINE
  5
9C
100
AcDbEntity
  8
0
  6
CONTINUOUS
 62
           7
100
AcDbLine
 10
-141.5
 20
-215.0
 11
-141.5
 21
-265.0
  0
LINE
  5
9B
100
AcDbEntity
  8
0
  6
CONTINUOUS
 62
           7
100
AcDbLine
 10
-141.5
 20
-265.0
 11
-131.5
 21
-265.0
  0
LINE
  5
9A
100
AcDbEntity
  8
0
  6
CONTINUOUS
 62
           7
100
AcDbLine
 10
-144.5
 20
-215.0
 11
-144.5
 21
-265.0
  0
LINE
  5
99
100
AcDbEntity
  8
0
  6
CONTINUOUS
 62
           7
100
AcDbLine
 10
-154.5
 20
-215.0
 11
-144.5
 21
-215.0
  0
LINE
  5
98
100
AcDbEntity
  8
0
  6
CONTINUOUS
 62
           7
100
AcDbLine
 10
-154.5
 20
-215.0
 11
-154.5
 21
-265.0
  0
LINE
  5
97
100
AcDbEntity
  8
0
  6
CONTINUOUS
 62
           7
100
AcDbLine
 10
-154.5
 20
-265.0
 11
-144.5
 21
-265.0
  0
LINE
  5
96
100
AcDbEntity
  8
0
  6
CONTINUOUS
 62
           7
100
AcDbLine
 10
-157.5
 20
-215.0
 11
-157.5
 21
-265.0
  0
LINE
  5
95
100
AcDbEntity
  8
0
  6
CONTINUOUS
 62
           7
100
AcDbLine
 10
-167.5
 20
-215.0
 11
-157.5
 21
-215.0
  0
LINE
  5
94
100
AcDbEntity
  8
0
  6
CONTINUOUS
 62
           7
100
AcDbLine
 10
-167.5
 20
-215.0
 11
-167.5
 21
-265.0
  0
LINE
  5
93
100
AcDbEntity
  8
0
  6
CONTINUOUS
 62
           7
100
AcDbLine
 10
-167.5
 20
-265.0
 11
-157.5
 21
-265.0
  0
LINE
  5
92
100
AcDbEntity
  8
0
  6
CONTINUOUS
 62
           7
100
AcDbLine
 10
-170.5
 20
-215.0
 11
-170.5
 21
-265.0
  0
LINE
  5
91
100
AcDbEntity
  8
0
  6
CONTINUOUS
 62
           7
100
AcDbLine
 10
-180.5
 20
-215.0
 11
-170.5
 21
-215.0
  0
LINE
  5
90
100
AcDbEntity
  8
0
  6
CONTINUOUS
 62
           7
100
AcDbLine
 10
-180.5
 20
-215.0
 11
-180.5
 21
-265.0
  0
LINE
  5
8F
100
AcDbEntity
  8
0
  6
CONTINUOUS
 62
           7
100
AcDbLine
 10
-180.5
 20
-265.0
 11
-170.5
 21
-265.0
  0
LINE
  5
8E
100
AcDbEntity
  8
0
  6
CONTINUOUS
 62
           7
100
AcDbLine
 10
-183.5
 20
-215.0
 11
-183.5
 21
-265.0
  0
LINE
  5
8D
100
AcDbEntity
  8
0
  6
CONTINUOUS
 62
           7
100
AcDbLine
 10
-193.5
 20
-215.0
 11
-183.5
 21
-215.0
  0
LINE
  5
8C
100
AcDbEntity
  8
0
  6
CONTINUOUS
 62
           7
100
AcDbLine
 10
-248.5
 20
-215.0
 11
-248.5
 21
-265.0
  0
LINE
  5
8B
100
AcDbEntity
  8
0
  6
CONTINUOUS
 62
           7
100
AcDbLine
 10
-258.5
 20
-215.0
 11
-248.5
 21
-215.0
  0
LINE
  5
8A
100
AcDbEntity
  8
0
  6
CONTINUOUS
 62
           7
100
AcDbLine
 10
-258.5
 20
-155.0
 11
-258.5
 21
-205.0
  0
LINE
  5
89
100
AcDbEntity
  8
0
  6
CONTINUOUS
 62
           7
100
AcDbLine
 10
-245.5
 20
-215.0
 11
-245.5
 21
-265.0
  0
LINE
  5
88
100
AcDbEntity
  8
0
  6
CONTINUOUS
 62
           7
100
AcDbLine
 10
-245.5
 20
-265.0
 11
-235.5
 21
-265.0
  0
LINE
  5
87
100
AcDbEntity
  8
0
  6
CONTINUOUS
 62
           7
100
AcDbLine
 10
-245.5
 20
-215.0
 11
-235.5
 21
-215.0
  0
LINE
  5
86
100
AcDbEntity
  8
0
  6
CONTINUOUS
 62
           7
100
AcDbLine
 10
-235.5
 20
-215.0
 11
-235.5
 21
-265.0
  0
LINE
  5
85
100
AcDbEntity
  8
0
  6
CONTINUOUS
 62
           7
100
AcDbLine
 10
-222.5
 20
-215.0
 11
-222.5
 21
-265.0
  0
LINE
  5
84
100
AcDbEntity
  8
0
  6
CONTINUOUS
 62
           7
100
AcDbLine
 10
-232.5
 20
-215.0
 11
-222.5
 21
-215.0
  0
LINE
  5
83
100
AcDbEntity
  8
0
  6
CONTINUOUS
 62
           7
100
AcDbLine
 10
-232.5
 20
-265.0
 11
-222.5
 21
-265.0
  0
LINE
  5
82
100
AcDbEntity
  8
0
  6
CONTINUOUS
 62
           7
100
AcDbLine
 10
-232.5
 20
-215.0
 11
-232.5
 21
-265.0
  0
LINE
  5
81
100
AcDbEntity
  8
0
  6
CONTINUOUS
 62
           7
100
AcDbLine
 10
-219.5
 20
-215.0
 11
-219.5
 21
-265.0
  0
LINE
  5
80
100
AcDbEntity
  8
0
  6
CONTINUOUS
 62
           7
100
AcDbLine
 10
-219.5
 20
-265.0
 11
-209.5
 21
-265.0
  0
LINE
  5
7F
100
AcDbEntity
  8
0
  6
CONTINUOUS
 62
           7
100
AcDbLine
 10
-219.5
 20
-215.0
 11
-209.5
 21
-215.0
  0
LINE
  5
7E
100
AcDbEntity
  8
0
  6
CONTINUOUS
 62
           7
100
AcDbLine
 10
-209.5
 20
-215.0
 11
-209.5
 21
-265.0
  0
LINE
  5
7D
100
AcDbEntity
  8
0
  6
CONTINUOUS
 62
           7
100
AcDbLine
 10
-196.5
 20
-215.0
 11
-196.5
 21
-265.0
  0
LINE
  5
7C
100
AcDbEntity
  8
0
  6
CONTINUOUS
 62
           7
100
AcDbLine
 10
-206.5
 20
-215.0
 11
-196.5
 21
-215.0
  0
LINE
  5
7B
100
AcDbEntity
  8
0
  6
CONTINUOUS
 62
           7
100
AcDbLine
 10
-206.5
 20
-265.0
 11
-196.5
 21
-265.0
  0
LINE
  5
7A
100
AcDbEntity
  8
0
  6
CONTINUOUS
 62
           7
100
AcDbLine
 10
-206.5
 20
-215.0
 11
-206.5
 21
-265.0
  0
LINE
  5
79
100
AcDbEntity
  8
0
  6
CONTINUOUS
 62
           7
100
AcDbLine
 10
-193.5
 20
-215.0
 11
-193.5
 21
-265.0
  0
LINE
  5
78
100
AcDbEntity
  8
0
  6
CONTINUOUS
 62
           7
100
AcDbLine
 10
-193.5
 20
-265.0
 11
-183.5
 21
-265.0
  0
LINE
  5
77
100
AcDbEntity
  8
0
  6
CONTINUOUS
 62
           7
100
AcDbLine
 10
-258.5
 20
-265.0
 11
-248.5
 21
-265.0
  0
LINE
  5
76
100
AcDbEntity
  8
0
  6
CONTINUOUS
 62
           7
100
AcDbLine
 10
-258.5
 20
-215.0
 11
-258.5
 21
-265.0
  0
ENDBLK
  5
616
100
AcDbEntity
  8
0
100
AcDbBlockEnd
  0
BLOCK
  5
30
100
AcDbEntity
  8
0
100
AcDbBlockBegin
  2
KOZU0009__S
 70
           0
 10
0.0
 20
0.0
 30
0.0
  3
KOZU0009__S
  1

  0
ARC
  5
63B
100
AcDbEntity
  8
0
  6
CONTINUOUS
 62
         226
100
AcDbCircle
 10
14.583429929982
 20
-7.999999999999
 40
37.383429929983
100
AcDbArc
 50
167.64321860962
 51
-167.64321860962
  0
ARC
  5
63A
100
AcDbEntity
  8
0
  6
CONTINUOUS
 62
         226
100
AcDbCircle
 10
14.583429929982
 20
8.0
 40
37.383429929983
100
AcDbArc
 50
167.64321860962
 51
-167.64321860962
  0
ARC
  5
639
100
AcDbEntity
  8
0
  6
CONTINUOUS
 62
           7
100
AcDbCircle
 10
-173.000000000001
 20
-24.5
 40
7.0
100
AcDbArc
 50
179.999999999998
 51
0.000000000002
  0
ARC
  5
638
100
AcDbEntity
  8
0
  6
CONTINUOUS
 62
           7
100
AcDbCircle
 10
-173.000000000001
 20
24.5
 40
7.0
100
AcDbArc
 50
0.000000000002
 51
179.999999999998
  0
ARC
  5
637
100
AcDbEntity
  8
0
  6
CONTINUOUS
 62
           7
100
AcDbCircle
 10
-96.818824488022
 20
-45.145162474886
 40
60.367903859788
100
AcDbArc
 50
76.279091320917
 51
111.557406407218
  0
ARC
  5
636
100
AcDbEntity
  8
0
  6
CONTINUOUS
 62
           7
100
AcDbCircle
 10
-101.999917546912
 20
0.0
 40
49.999998013179
100
AcDbArc
 50
-175.41143408149
 51
-12.532889917626
  0
ARC
  5
635
100
AcDbEntity
  8
0
  6
CONTINUOUS
 62
           7
100
AcDbCircle
 10
-101.999917546912
 20
0.0
 40
49.000038743018
100
AcDbArc
 50
-175.317586848256
 51
-12.792943440391
  0
ARC
  5
634
100
AcDbEntity
  8
0
  6
CONTINUOUS
 62
           7
100
AcDbCircle
 10
-96.818824488022
 20
45.145162474886
 40
60.367903859788
100
AcDbArc
 50
-111.557406407218
 51
-76.279091320917
  0
ARC
  5
633
100
AcDbEntity
  8
0
  6
CONTINUOUS
 62
           7
100
AcDbCircle
 10
-101.999917546912
 20
0.0
 40
49.000038743018
100
AcDbArc
 50
12.792943440391
 51
175.317586848256
  0
ARC
  5
632
100
AcDbEntity
  8
0
  6
CONTINUOUS
 62
           7
100
AcDbCircle
 10
-101.999917546912
 20
0.0
 40
49.999998013179
100
AcDbArc
 50
12.532889917626
 51
175.41143408149
  0
LINE
  5
631
100
AcDbEntity
  8
0
  6
CONTINUOUS
 62
         226
100
AcDbLine
 10
-21.933974596216
 20
0.0
 11
-2.9
 21
0.0
  0
LINE
  5
630
100
AcDbEntity
  8
0
  6
CONTINUOUS
 62
           7
100
AcDbLine
 10
-82.5
 20
14.0
 11
-74.000000000001
 21
14.0
  0
LINE
  5
62F
100
AcDbEntity
  8
0
  6
CONTINUOUS
 62
           7
100
AcDbLine
 10
-74.0
 20
-10.85
 11
-22.800000000001
 21
-10.85
  0
LINE
  5
62E
100
AcDbEntity
  8
0
  6
CONTINUOUS
 62
           7
100
AcDbLine
 10
-74.0
 20
10.85
 11
-22.800000000001
 21
10.85
  0
LINE
  5
62D
100
AcDbEntity
  8
0
  6
CONTINUOUS
 62
           7
100
AcDbLine
 10
-146.000000000001
 20
-9.0
 11
-134.000000000001
 21
-9.0
  0
LINE
  5
62C
100
AcDbEntity
  8
0
  6
CONTINUOUS
 62
           7
100
AcDbLine
 10
-166.000000000001
 20
-4.0
 11
-146.000000000001
 21
-4.0
  0
LINE
  5
62B
100
AcDbEntity
  8
0
  6
CONTINUOUS
 62
           7
100
AcDbLine
 10
-166.000000000001
 20
4.0
 11
-146.000000000001
 21
4.0
  0
LINE
  5
62A
100
AcDbEntity
  8
0
  6
CONTINUOUS
 62
           7
100
AcDbLine
 10
-166.000000000001
 20
24.5
 11
-166.000000000001
 21
-24.5
  0
LINE
  5
629
100
AcDbEntity
  8
0
  6
CONTINUOUS
 62
           7
100
AcDbLine
 10
-180.000000000001
 20
24.5
 11
-180.000000000001
 21
-24.5
  0
LINE
  5
628
100
AcDbEntity
  8
0
  6
CONTINUOUS
 62
           7
100
AcDbLine
 10
-134.000000000001
 20
9.0
 11
-134.000000000001
 21
-9.0
  0
LINE
  5
627
100
AcDbEntity
  8
0
  6
CONTINUOUS
 62
           7
100
AcDbLine
 10
-146.000000000001
 20
9.0
 11
-146.000000000001
 21
-9.0
  0
LINE
  5
626
100
AcDbEntity
  8
0
  6
CONTINUOUS
 62
           7
100
AcDbLine
 10
-134.000000000001
 20
-8.0
 11
-129.000000000001
 21
-8.0
  0
LINE
  5
625
100
AcDbEntity
  8
0
  6
CONTINUOUS
 62
           7
100
AcDbLine
 10
-134.000000000001
 20
8.0
 11
-129.000000000001
 21
8.0
  0
LINE
  5
624
100
AcDbEntity
  8
0
  6
CONTINUOUS
 62
           7
100
AcDbLine
 10
-129.000000000001
 20
9.0
 11
-129.000000000001
 21
-9.0
  0
LINE
  5
623
100
AcDbEntity
  8
0
  6
CONTINUOUS
 62
           7
100
AcDbLine
 10
-129.000000000001
 20
-9.0
 11
-124.000000000001
 21
-9.0
  0
LINE
  5
622
100
AcDbEntity
  8
0
  6
CONTINUOUS
 62
           7
100
AcDbLine
 10
-124.000000000001
 20
11.5
 11
-119.000000000001
 21
11.5
  0
LINE
  5
621
100
AcDbEntity
  8
0
  6
CONTINUOUS
 62
         226
100
AcDbLine
 10
-21.933974596216
 20
16.0
 11
-2.9
 21
16.0
  0
LINE
  5
620
100
AcDbEntity
  8
0
  6
CONTINUOUS
 62
         226
100
AcDbLine
 10
-21.933974596219
 20
-15.999999999999
 11
-2.9
 21
-15.999999999999
  0
LINE
  5
61F
100
AcDbEntity
  8
0
  6
CONTINUOUS
 62
         226
100
AcDbLine
 10
-22.800000000002
 20
-14.5
 11
-22.800000000001
 21
14.499999999998
  0
LINE
  5
61E
100
AcDbEntity
  8
0
  6
CONTINUOUS
 62
           7
100
AcDbLine
 10
-129.000000000001
 20
9.0
 11
-124.000000000001
 21
9.0
  0
LINE
  5
61D
100
AcDbEntity
  8
0
  6
CONTINUOUS
 62
           7
100
AcDbLine
 10
-82.5
 20
-14.0
 11
-74.000000000001
 21
-14.0
  0
LINE
  5
61C
100
AcDbEntity
  8
0
  6
CONTINUOUS
 62
           7
100
AcDbLine
 10
-124.000000000001
 20
11.5
 11
-124.000000000001
 21
-11.5
  0
LINE
  5
61B
100
AcDbEntity
  8
0
  6
CONTINUOUS
 62
           7
100
AcDbLine
 10
-146.000000000001
 20
9.0
 11
-134.000000000001
 21
9.0
  0
LINE
  5
61A
100
AcDbEntity
  8
0
  6
CONTINUOUS
 62
           7
100
AcDbLine
 10
-74.000000000001
 20
14.0
 11
-74.000000000001
 21
-14.0
  0
LINE
  5
619
100
AcDbEntity
  8
0
  6
CONTINUOUS
 62
           7
100
AcDbLine
 10
-119.000000000001
 20
11.5
 11
-119.000000000001
 21
-11.5
  0
LINE
  5
618
100
AcDbEntity
  8
0
  6
CONTINUOUS
 62
           7
100
AcDbLine
 10
-82.5
 20
14.0
 11
-82.5
 21
-14.0
  0
LINE
  5
617
100
AcDbEntity
  8
0
  6
CONTINUOUS
 62
           7
100
AcDbLine
 10
-124.000000000001
 20
-11.5
 11
-119.000000000001
 21
-11.5
  0
ENDBLK
  5
63C
100
AcDbEntity
  8
0
100
AcDbBlockEnd
  0
BLOCK
  5
32
100
AcDbEntity
  8
0
100
AcDbBlockBegin
  2
TOP
 70
           0
 10
0.0
 20
0.0
 30
0.0
  3
TOP
  1

  0
CIRCLE
  5
818
100
AcDbEntity
  8
0
  6
CONTINUOUS
 62
           5
100
AcDbCircle
 10
-864.888060178114
 20
37.866666120652
 40
40.0
  0
CIRCLE
  5
817
100
AcDbEntity
  8
0
  6
CONTINUOUS
 62
           5
100
AcDbCircle
 10
-1364.888060178114
 20
37.866666120652
 40
40.0
  0
ARC
  5
816
100
AcDbEntity
  8
0
  6
CONTINUOUS
 62
           7
100
AcDbCircle
 10
-392.178421258834
 20
-808.966200588238
 40
25.0
100
AcDbArc
 50
90.0
 51
180.0
  0
ARC
  5
815
100
AcDbEntity
  8
0
  6
CONTINUOUS
 62
           7
100
AcDbCircle
 10
-332.178421258834
 20
-808.966200588238
 40
25.0
100
AcDbArc
 50
0.0
 51
90.0
  0
ARC
  5
814
100
AcDbEntity
  8
0
  6
CONTINUOUS
 62
           7
100
AcDbCircle
 10
-332.178421258834
 20
-913.966200588238
 40
25.0
100
AcDbArc
 50
-90.0
 51
0.0
  0
ARC
  5
813
100
AcDbEntity
  8
0
  6
CONTINUOUS
 62
           7
100
AcDbCircle
 10
-392.178421258834
 20
-913.966200588238
 40
25.0
100
AcDbArc
 50
180.0
 51
-90.0
  0
ARC
  5
812
100
AcDbEntity
  8
0
  6
CONTINUOUS
 62
           7
100
AcDbCircle
 10
-1506.002509038814
 20
-399.133341164358
 40
34.999999668857
100
AcDbArc
 50
90.00003597219
 51
-179.999982013905
  0
ARC
  5
811
100
AcDbEntity
  8
0
  6
CONTINUOUS
 62
           7
100
AcDbCircle
 10
-1506.002509038814
 20
-399.133341164358
 40
24.999996357495
100
AcDbArc
 50
90.000035972198
 51
-179.999982013913
  0
ARC
  5
810
100
AcDbEntity
  8
0
  6
CONTINUOUS
 62
           7
100
AcDbCircle
 10
-836.763060178114
 20
-702.768749156638
 40
26.1025485684
100
AcDbArc
 50
90.0
 51
111.048638072479
  0
ARC
  5
80F
100
AcDbEntity
  8
0
  6
CONTINUOUS
 62
           7
100
AcDbCircle
 10
-864.888060178114
 20
-778.463890235638
 40
101.797689647403
100
AcDbArc
 50
79.386155382078
 51
100.613844617921
  0
ARC
  5
80E
100
AcDbEntity
  8
0
  6
CONTINUOUS
 62
           7
100
AcDbCircle
 10
-893.013060178114
 20
-702.768749156638
 40
26.102548568402
100
AcDbArc
 50
68.951361927521
 51
90.0
  0
ARC
  5
80D
100
AcDbEntity
  8
0
  6
CONTINUOUS
 62
           7
100
AcDbCircle
 10
-1336.763060178114
 20
-702.768749156638
 40
26.1025485684
100
AcDbArc
 50
90.0
 51
111.048638072479
  0
ARC
  5
80C
100
AcDbEntity
  8
0
  6
CONTINUOUS
 62
           7
100
AcDbCircle
 10
-1364.888060178114
 20
-778.463890235638
 40
101.797689647403
100
AcDbArc
 50
79.386155382078
 51
100.613844617921
  0
ARC
  5
80B
100
AcDbEntity
  8
0
  6
CONTINUOUS
 62
           7
100
AcDbCircle
 10
-1393.013060178114
 20
-702.768749156638
 40
26.102548568402
100
AcDbArc
 50
68.951361927521
 51
90.0
  0
ARC
  5
80A
100
AcDbEntity
  8
0
  6
CONTINUOUS
 62
           7
100
AcDbCircle
 10
-97.428421258834
 20
-755.181641764698
 40
78.51544117646
100
AcDbArc
 50
78.055408904068
 51
101.944591095932
  0
ARC
  5
809
100
AcDbEntity
  8
0
  6
CONTINUOUS
 62
           7
100
AcDbCircle
 10
-64.928421258834
 20
-755.181641764698
 40
78.51544117646
100
AcDbArc
 50
78.055408904068
 51
101.944591095932
  0
ARC
  5
808
100
AcDbEntity
  8
0
  6
CONTINUOUS
 62
           7
100
AcDbCircle
 10
-55.093481779004
 20
-1772.013824794781
 40
2.088163375854
100
AcDbArc
 50
-100.622929239947
 51
-40.622941230653
  0
ARC
  5
807
100
AcDbEntity
  8
0
  6
CONTINUOUS
 62
           7
100
AcDbCircle
 10
-43.263354062944
 20
-1772.013831470501
 40
2.088156700137
100
AcDbArc
 50
-139.377142552907
 51
-100.622929239772
  0
ARC
  5
806
100
AcDbEntity
  8
0
  6
CONTINUOUS
 62
           7
100
AcDbCircle
 10
-49.178416490464
 20
-1760.188091609966
 40
13.87810897827
100
AcDbArc
 50
-108.180506235785
 51
-71.819529736352
  0
ARC
  5
805
100
AcDbEntity
  8
0
  6
CONTINUOUS
 62
           7
100
AcDbCircle
 10
-485.093481779004
 20
-1772.013824794781
 40
2.088163375854
100
AcDbArc
 50
-100.622929239945
 51
-40.622941230652
  0
ARC
  5
804
100
AcDbEntity
  8
0
  6
CONTINUOUS
 62
           7
100
AcDbCircle
 10
-473.263354062944
 20
-1772.013831470501
 40
2.088156700137
100
AcDbArc
 50
-139.377142552906
 51
-100.622929239772
  0
ARC
  5
803
100
AcDbEntity
  8
0
  6
CONTINUOUS
 62
           7
100
AcDbCircle
 10
-479.178416490464
 20
-1760.188091609966
 40
13.87810897827
100
AcDbArc
 50
-108.180506235785
 51
-71.819529736352
  0
ARC
  5
802
100
AcDbEntity
  8
0
  6
CONTINUOUS
 62
           7
100
AcDbCircle
 10
-1420.803143182484
 20
-1772.01382479478
 40
2.088163375855
100
AcDbArc
 50
-100.622929239954
 51
-40.622941230668
  0
ARC
  5
801
100
AcDbEntity
  8
0
  6
CONTINUOUS
 62
           7
100
AcDbCircle
 10
-1408.973015466414
 20
-1772.013831470501
 40
2.088156700137
100
AcDbArc
 50
-139.377142552907
 51
-100.62292924006
  0
ARC
  5
800
100
AcDbEntity
  8
0
  6
CONTINUOUS
 62
           7
100
AcDbCircle
 10
-1414.888077893934
 20
-1760.188091609966
 40
13.878108978273
100
AcDbArc
 50
-108.180506235824
 51
-71.81952973639
  0
ARC
  5
7FF
100
AcDbEntity
  8
0
  6
CONTINUOUS
 62
           7
100
AcDbCircle
 10
-790.803144612994
 20
-1772.01382479478
 40
2.088163375855
100
AcDbArc
 50
-100.622929239954
 51
-40.622941230672
  0
ARC
  5
7FE
100
AcDbEntity
  8
0
  6
CONTINUOUS
 62
           7
100
AcDbCircle
 10
-778.973016896934
 20
-1772.013831470501
 40
2.088156700129
100
AcDbArc
 50
-139.377142552728
 51
-100.622929239784
  0
ARC
  5
7FD
100
AcDbEntity
  8
0
  6
CONTINUOUS
 62
           7
100
AcDbCircle
 10
-784.888079324444
 20
-1760.188091609966
 40
13.878108978273
100
AcDbArc
 50
-108.180506235824
 51
-71.81952973639
  0
ARC
  5
7FC
100
AcDbEntity
  8
0
  6
CONTINUOUS
 62
           7
100
AcDbCircle
 10
-1515.887977725024
 20
-1487.766151414407
 40
35.000000993407
100
AcDbArc
 50
179.999964027821
 51
-119.999993321383
  0
ARC
  5
7FB
100
AcDbEntity
  8
0
  6
CONTINUOUS
 62
           7
100
AcDbCircle
 10
-1515.887977725024
 20
-1487.766151414407
 40
35.000000993413
100
AcDbArc
 50
-60.00004265078
 51
0.000017986088
  0
ARC
  5
7FA
100
AcDbEntity
  8
0
  6
CONTINUOUS
 62
           7
100
AcDbCircle
 10
-1510.387947425994
 20
-1510.120721550693
 40
28.145447248402
100
AcDbArc
 50
-89.99998201391
 51
-78.794865435209
  0
ARC
  5
7F9
100
AcDbEntity
  8
0
  6
CONTINUOUS
 62
           7
100
AcDbCircle
 10
-1521.388008024054
 20
-1510.120721550693
 40
28.145447248401
100
AcDbArc
 50
-101.268974521727
 51
-89.99998201391
  0
ARC
  5
7F8
100
AcDbEntity
  8
0
  6
CONTINUOUS
 62
           7
100
AcDbCircle
 10
-1510.706884666134
 20
-1319.411363063123
 40
60.367903859787
100
AcDbArc
 50
76.279091320918
 51
111.557406407219
  0
ARC
  5
7F7
100
AcDbEntity
  8
0
  6
CONTINUOUS
 62
           7
100
AcDbCircle
 10
-1586.888060178114
 20
-1249.766200588237
 40
7.0
100
AcDbArc
 50
0.0
 51
180.0
  0
ARC
  5
7F6
100
AcDbEntity
  8
0
  6
CONTINUOUS
 62
           7
100
AcDbCircle
 10
-1586.888060178114
 20
-1298.766200588237
 40
7.0
100
AcDbArc
 50
179.99999999999
 51
0.000000000009
  0
ARC
  5
7F5
100
AcDbEntity
  8
0
  6
CONTINUOUS
 62
           7
100
AcDbCircle
 10
-332.178421258834
 20
-808.966200588238
 40
20.0
100
AcDbArc
 50
0.0
 51
90.0
  0
ARC
  5
7F4
100
AcDbEntity
  8
0
  6
CONTINUOUS
 62
           7
100
AcDbCircle
 10
-392.178421258834
 20
-808.966200588238
 40
20.0
100
AcDbArc
 50
90.0
 51
180.0
  0
ARC
  5
7F3
100
AcDbEntity
  8
0
  6
CONTINUOUS
 62
           7
100
AcDbCircle
 10
-332.178421258834
 20
-913.966200588238
 40
20.0
100
AcDbArc
 50
-90.0
 51
0.0
  0
ARC
  5
7F2
100
AcDbEntity
  8
0
  6
CONTINUOUS
 62
           7
100
AcDbCircle
 10
-392.178421258834
 20
-913.966200588238
 40
20.0
100
AcDbArc
 50
180.0
 51
-90.0
  0
LINE
  5
7F1
100
AcDbEntity
  8
0
  6
CONTINUOUS
 62
           7
100
AcDbLine
 10
-1518.298390483544
 20
-1710.651546763585
 11
-1516.251229816404
 21
-1717.987174290606
  0
LINE
  5
7F0
100
AcDbEntity
  8
0
  6
CONTINUOUS
 62
           7
100
AcDbLine
 10
-1516.251229816404
 20
-1717.987174290606
 11
-1518.497939798094
 21
-1719.237091991166
  0
LINE
  5
7EF
100
AcDbEntity
  8
0
  6
CONTINUOUS
 62
           7
100
AcDbLine
 10
-1518.497939798094
 20
-1719.237091991166
 11
-1513.359399739444
 21
-1719.048926995332
  0
LINE
  5
7EE
100
AcDbEntity
  8
0
  6
CONTINUOUS
 62
           7
100
AcDbLine
 10
-1513.359399739444
 20
-1719.048926995332
 11
-1515.606109721134
 21
-1720.298844695893
  0
LINE
  5
7ED
100
AcDbEntity
  8
0
  6
CONTINUOUS
 62
           7
100
AcDbLine
 10
-1515.606109721134
 20
-1720.298844695893
 11
-1511.511788386854
 21
-1734.970099749933
  0
LINE
  5
7EC
100
AcDbEntity
  8
0
  6
CONTINUOUS
 62
           7
100
AcDbLine
 10
-1511.511788386854
 20
-1734.970099749933
 11
-1513.758498368544
 21
-1736.220017450494
  0
LINE
  5
7EB
100
AcDbEntity
  8
0
  6
CONTINUOUS
 62
           7
100
AcDbLine
 10
-1513.758498368544
 20
-1736.220017450494
 11
-1508.619958309894
 21
-1736.03185245466
  0
LINE
  5
7EA
100
AcDbEntity
  8
0
  6
CONTINUOUS
 62
           7
100
AcDbLine
 10
-1508.619958309894
 20
-1736.03185245466
 11
-1510.866668291584
 21
-1737.28177015522
  0
LINE
  5
7E9
100
AcDbEntity
  8
0
  6
CONTINUOUS
 62
           7
100
AcDbLine
 10
-1510.866668291584
 20
-1737.28177015522
 11
-1508.819507624454
 21
-1744.617397682241
  0
LINE
  5
7E8
100
AcDbEntity
  8
0
  6
CONTINUOUS
 62
           7
100
AcDbLine
 10
-1514.777904109984
 20
-1723.266234695338
 11
-1451.088060178114
 21
-1723.266234695338
  0
LINE
  5
7E7
100
AcDbEntity
  8
0
  6
CONTINUOUS
 62
           7
100
AcDbLine
 10
-1511.987241243444
 20
-1733.266166481136
 11
-1451.088060178114
 21
-1733.266166481136
  0
LINE
  5
7E6
100
AcDbEntity
  8
0
  6
CONTINUOUS
 62
           7
100
AcDbLine
 10
-1529.478159481034
 20
-432.030256668798
 11
-1522.990113786204
 21
-433.527491808428
  0
LINE
  5
7E5
100
AcDbEntity
  8
0
  6
CONTINUOUS
 62
           7
100
AcDbLine
 10
-1529.500647754664
 20
-429.459362995858
 11
-1529.478159481034
 21
-432.030256668798
  0
LINE
  5
7E4
100
AcDbEntity
  8
0
  6
CONTINUOUS
 62
           7
100
AcDbLine
 10
-1531.794210564684
 20
-434.061489638678
 11
-1529.500647754664
 21
-429.459362995858
  0
LINE
  5
7E3
100
AcDbEntity
  8
0
  6
CONTINUOUS
 62
           7
100
AcDbLine
 10
-1531.816698838314
 20
-431.490595965738
 11
-1531.794210564684
 21
-434.061489638678
  0
LINE
  5
7E2
100
AcDbEntity
  8
0
  6
CONTINUOUS
 62
           7
100
AcDbLine
 10
-1544.792790227954
 20
-428.496125686468
 11
-1531.816698838314
 21
-431.490595965738
  0
LINE
  5
7E1
100
AcDbEntity
  8
0
  6
CONTINUOUS
 62
           7
100
AcDbLine
 10
-1544.815278501594
 20
-425.925232013528
 11
-1544.792790227954
 21
-428.496125686468
  0
LINE
  5
7E0
100
AcDbEntity
  8
0
  6
CONTINUOUS
 62
           7
100
AcDbLine
 10
-1547.108841311614
 20
-430.527358656348
 11
-1544.815278501594
 21
-425.925232013528
  0
LINE
  5
7DF
100
AcDbEntity
  8
0
  6
CONTINUOUS
 62
           7
100
AcDbLine
 10
-1547.131329585244
 20
-427.956464983408
 11
-1547.108841311614
 21
-430.527358656348
  0
LINE
  5
7DE
100
AcDbEntity
  8
0
  6
CONTINUOUS
 62
           7
100
AcDbLine
 10
-1553.619375280064
 20
-426.459229843778
 11
-1547.131329585244
 21
-427.956464983408
  0
LINE
  5
7DD
100
AcDbEntity
  8
0
  6
CONTINUOUS
 62
           7
100
AcDbLine
 10
-1528.353876401744
 20
-427.158201859788
 11
-1521.865841031944
 21
-428.655434616728
  0
LINE
  5
7DC
100
AcDbEntity
  8
0
  6
CONTINUOUS
 62
           7
100
AcDbLine
 10
-1528.376364675384
 20
-424.587308186848
 11
-1528.353876401744
 21
-427.158201859788
  0
LINE
  5
7DB
100
AcDbEntity
  8
0
  6
CONTINUOUS
 62
           7
100
AcDbLine
 10
-1530.669927485394
 20
-429.189434829668
 11
-1528.376364675384
 21
-424.587308186848
  0
LINE
  5
7DA
100
AcDbEntity
  8
0
  6
CONTINUOUS
 62
           7
100
AcDbLine
 10
-1530.692415759034
 20
-426.618541156728
 11
-1530.669927485394
 21
-429.189434829668
  0
LINE
  5
7D9
100
AcDbEntity
  8
0
  6
CONTINUOUS
 62
           7
100
AcDbLine
 10
-1543.668486498634
 20
-423.624075642838
 11
-1530.692415759034
 21
-426.618541156728
  0
LINE
  5
7D8
100
AcDbEntity
  8
0
  6
CONTINUOUS
 62
           7
100
AcDbLine
 10
-1543.690974772264
 20
-421.053181969898
 11
-1543.668486498634
 21
-423.624075642838
  0
LINE
  5
7D7
100
AcDbEntity
  8
0
  6
CONTINUOUS
 62
           7
100
AcDbLine
 10
-1545.984537582284
 20
-425.655308612718
 11
-1543.690974772264
 21
-421.053181969898
  0
LINE
  5
7D6
100
AcDbEntity
  8
0
  6
CONTINUOUS
 62
           7
100
AcDbLine
 10
-1546.007025855914
 20
-423.084414939778
 11
-1545.984537582284
 21
-425.655308612718
  0
LINE
  5
7D5
100
AcDbEntity
  8
0
  6
CONTINUOUS
 62
           7
100
AcDbLine
 10
-1552.495061225714
 20
-421.587182182828
 11
-1546.007025855914
 21
-423.084414939778
  0
LINE
  5
7D4
100
AcDbEntity
  8
0
  6
CONTINUOUS
 62
           7
100
AcDbLine
 10
-392.178421258834
 20
-783.966200588238
 11
-332.178421258834
 21
-783.966200588238
  0
LINE
  5
7D3
100
AcDbEntity
  8
0
  6
CONTINUOUS
 62
           7
100
AcDbLine
 10
-307.178421258834
 20
-808.966200588238
 11
-307.178421258834
 21
-913.966200588238
  0
LINE
  5
7D2
100
AcDbEntity
  8
0
  6
CONTINUOUS
 62
           7
100
AcDbLine
 10
-392.178421258834
 20
-938.966200588238
 11
-332.178421258834
 21
-938.966200588238
  0
LINE
  5
7D1
100
AcDbEntity
  8
0
  6
CONTINUOUS
 62
           7
100
AcDbLine
 10
-417.178421258834
 20
-808.966200588238
 11
-417.178421258834
 21
-913.966200588238
  0
LINE
  5
7D0
100
AcDbEntity
  8
0
  6
CONTINUOUS
 62
           7
100
AcDbLine
 10
-467.178421258834
 20
-1744.266200588237
 11
-61.178421258834
 21
-1744.266200588237
  0
LINE
  5
7CF
100
AcDbEntity
  8
0
  6
CONTINUOUS
 62
           7
100
AcDbLine
 10
-801.888060178114
 20
-1744.266200588237
 11
-1397.888060178114
 21
-1744.266200588237
  0
LINE
  5
7CE
100
AcDbEntity
  8
0
  6
CONTINUOUS
 62
           7
100
AcDbLine
 10
-911.888060178114
 20
-783.066200588238
 11
-811.888060178114
 21
-783.066200588238
  0
LINE
  5
7CD
100
AcDbEntity
  8
0
  6
CONTINUOUS
 62
           7
100
AcDbLine
 10
-911.888060178114
 20
-723.066200588238
 11
-911.888060178114
 21
-783.066200588238
  0
LINE
  5
7CC
100
AcDbEntity
  8
0
  6
CONTINUOUS
 62
           7
100
AcDbLine
 10
-811.888060178114
 20
-723.066200588238
 11
-811.888060178114
 21
-783.066200588238
  0
LINE
  5
7CB
100
AcDbEntity
  8
0
  6
CONTINUOUS
 62
           7
100
AcDbLine
 10
-911.888060178114
 20
-723.066200588238
 11
-811.888060178114
 21
-723.066200588238
  0
LINE
  5
7CA
100
AcDbEntity
  8
0
  6
CONTINUOUS
 62
           7
100
AcDbLine
 10
-1533.002426585734
 20
-465.281930402998
 11
-1533.002426585734
 21
-497.203146311208
  0
LINE
  5
7C9
100
AcDbEntity
  8
0
  6
CONTINUOUS
 62
           7
100
AcDbLine
 10
-1539.002521290884
 20
-465.281930402998
 11
-1539.002521290884
 21
-498.069124941618
  0
LINE
  5
7C8
100
AcDbEntity
  8
0
  6
CONTINUOUS
 62
           7
100
AcDbLine
 10
-1531.002508045404
 20
-431.678470154818
 11
-1531.002508045404
 21
-465.281930402998
  0
LINE
  5
7C7
100
AcDbEntity
  8
0
  6
CONTINUOUS
 62
           7
100
AcDbLine
 10
-1541.002439831204
 20
-465.281930402998
 11
-1531.002423274364
 21
-465.281930402998
  0
LINE
  5
7C6
100
AcDbEntity
  8
0
  6
CONTINUOUS
 62
           7
100
AcDbLine
 10
-1541.002439831204
 20
-399.133341164358
 11
-1541.002439831204
 21
-424.239386927198
  0
LINE
  5
7C5
100
AcDbEntity
  8
0
  6
CONTINUOUS
 62
           7
100
AcDbLine
 10
-1531.002508045404
 20
-399.133341164358
 11
-1531.002508045404
 21
-426.546981693448
  0
LINE
  5
7C4
100
AcDbEntity
  8
0
  6
CONTINUOUS
 62
           7
100
AcDbLine
 10
-1506.002339496724
 20
-364.133325600928
 11
-1452.403807496714
 21
-364.133325600928
  0
LINE
  5
7C3
100
AcDbEntity
  8
0
  6
CONTINUOUS
 62
           7
100
AcDbLine
 10
-1541.002439831204
 20
-429.370747942918
 11
-1541.002439831204
 21
-465.281930402998
  0
LINE
  5
7C2
100
AcDbEntity
  8
0
  6
CONTINUOUS
 62
           7
100
AcDbLine
 10
-1506.002339496724
 20
-374.133342157768
 11
-1449.888060178114
 21
-374.133342157768
  0
LINE
  5
7C1
100
AcDbEntity
  8
0
  6
CONTINUOUS
 62
           7
100
AcDbLine
 10
-895.888060178104
 20
-676.666200588228
 11
-833.888060178104
 21
-676.666200588228
  0
LINE
  5
7C0
100
AcDbEntity
  8
0
  6
CONTINUOUS
 62
           7
100
AcDbLine
 10
-827.388060178104
 20
-678.407870339028
 11
-827.388060178114
 21
-713.066200588238
  0
LINE
  5
7BF
100
AcDbEntity
  8
0
  6
CONTINUOUS
 62
           7
100
AcDbLine
 10
-902.388060178104
 20
-678.407870339038
 11
-902.388060178114
 21
-713.066200588238
  0
LINE
  5
7BE
100
AcDbEntity
  8
0
  6
CONTINUOUS
 62
           7
100
AcDbLine
 10
-902.388060178104
 20
-678.407870339038
 11
-895.888060178104
 21
-676.666200588228
  0
LINE
  5
7BD
100
AcDbEntity
  8
0
  6
CONTINUOUS
 62
           7
100
AcDbLine
 10
-833.888060178104
 20
-676.666200588228
 11
-827.388060178104
 21
-678.407870339028
  0
LINE
  5
7BC
100
AcDbEntity
  8
0
  6
CONTINUOUS
 62
           7
100
AcDbLine
 10
-846.138060178114
 20
-678.407870339038
 11
-846.138060178114
 21
-713.066200588238
  0
LINE
  5
7BB
100
AcDbEntity
  8
0
  6
CONTINUOUS
 62
           7
100
AcDbLine
 10
-883.638060178114
 20
-678.407870339038
 11
-883.638060178114
 21
-713.066200588238
  0
LINE
  5
7BA
100
AcDbEntity
  8
0
  6
CONTINUOUS
 62
           7
100
AcDbLine
 10
-1395.888060178104
 20
-676.666200588228
 11
-1333.888060178104
 21
-676.666200588228
  0
LINE
  5
7B9
100
AcDbEntity
  8
0
  6
CONTINUOUS
 62
           7
100
AcDbLine
 10
-1327.388060178104
 20
-678.407870339028
 11
-1327.388060178114
 21
-713.066200588238
  0
LINE
  5
7B8
100
AcDbEntity
  8
0
  6
CONTINUOUS
 62
           7
100
AcDbLine
 10
-1402.388060178104
 20
-678.407870339038
 11
-1402.388060178114
 21
-714.266200588238
  0
LINE
  5
7B7
100
AcDbEntity
  8
0
  6
CONTINUOUS
 62
           7
100
AcDbLine
 10
-1402.388060178104
 20
-678.407870339038
 11
-1395.888060178104
 21
-676.666200588228
  0
LINE
  5
7B6
100
AcDbEntity
  8
0
  6
CONTINUOUS
 62
           7
100
AcDbLine
 10
-1333.888060178104
 20
-676.666200588228
 11
-1327.388060178104
 21
-678.407870339028
  0
LINE
  5
7B5
100
AcDbEntity
  8
0
  6
CONTINUOUS
 62
           7
100
AcDbLine
 10
-1346.138060178114
 20
-678.407870339038
 11
-1346.138060178114
 21
-713.066200588238
  0
LINE
  5
7B4
100
AcDbEntity
  8
0
  6
CONTINUOUS
 62
           7
100
AcDbLine
 10
-1383.638060178114
 20
-678.407870339038
 11
-1383.638060178114
 21
-713.066200588238
  0
LINE
  5
7B3
100
AcDbEntity
  8
0
  6
CONTINUOUS
 62
           7
100
AcDbLine
 10
-81.178421258834
 20
-678.366200588238
 11
-81.178421258834
 21
-713.066200588238
  0
LINE
  5
7B2
100
AcDbEntity
  8
0
  6
CONTINUOUS
 62
           7
100
AcDbLine
 10
-48.678421258824
 20
-677.068124376868
 11
-48.678421258834
 21
-714.266200588238
  0
LINE
  5
7B1
100
AcDbEntity
  8
0
  6
CONTINUOUS
 62
           7
100
AcDbLine
 10
-113.678421258824
 20
-677.068124376878
 11
-113.678421258834
 21
-713.066200588238
  0
LINE
  5
7B0
100
AcDbEntity
  8
0
  6
CONTINUOUS
 62
           7
100
AcDbLine
 10
-112.178421258834
 20
-676.666200588238
 11
-50.178421258834
 21
-676.666200588238
  0
LINE
  5
7AF
100
AcDbEntity
  8
0
  6
CONTINUOUS
 62
           3
100
AcDbLine
 10
-864.888060178114
 20
-666.666200588238
 11
-864.888060178114
 21
-713.066200588238
  0
LINE
  5
7AE
100
AcDbEntity
  8
0
  6
CONTINUOUS
 62
           3
100
AcDbLine
 10
-1364.888060178114
 20
-666.666200588238
 11
-1364.888060178114
 21
-713.066200588238
  0
LINE
  5
7AD
100
AcDbEntity
  8
0
  6
CONTINUOUS
 62
           3
100
AcDbLine
 10
-81.178421258834
 20
-666.666200588238
 11
-81.178421258834
 21
-713.066200588238
  0
LINE
  5
7AC
100
AcDbEntity
  8
0
  6
CONTINUOUS
 62
           5
100
AcDbLine
 10
-801.888060178114
 20
-713.066200588238
 11
-1397.888060178114
 21
-713.066200588238
  0
LINE
  5
7AB
100
AcDbEntity
  8
0
  6
CONTINUOUS
 62
           5
100
AcDbLine
 10
-775.288060178114
 20
-713.066200588238
 11
-775.288060178114
 21
-714.266200588238
  0
LINE
  5
7AA
100
AcDbEntity
  8
0
  6
CONTINUOUS
 62
           7
100
AcDbLine
 10
-61.178421258834
 20
-714.266200588238
 11
-9.178421258834
 21
-714.266200588238
  0
LINE
  5
7A9
100
AcDbEntity
  8
0
  6
CONTINUOUS
 62
           7
100
AcDbLine
 10
-1397.888060178114
 20
-714.266200588238
 11
-1449.888060178114
 21
-714.266200588238
  0
LINE
  5
7A8
100
AcDbEntity
  8
0
  6
CONTINUOUS
 62
           5
100
AcDbLine
 10
-749.888060178114
 20
-713.066200588238
 11
-775.288060178114
 21
-713.066200588238
  0
LINE
  5
7A7
100
AcDbEntity
  8
0
  6
CONTINUOUS
 62
           5
100
AcDbLine
 10
-61.178421258834
 20
-713.066200588238
 11
-467.178421258834
 21
-713.066200588238
  0
LINE
  5
7A6
100
AcDbEntity
  8
0
  6
CONTINUOUS
 62
           7
100
AcDbLine
 10
-762.188060178114
 20
57.866666120652
 11
-762.188060178114
 21
60.666666120652
  0
LINE
  5
7A5
100
AcDbEntity
  8
0
  6
CONTINUOUS
 62
           7
100
AcDbLine
 10
-1397.888060178114
 20
96.466666120652
 11
-1447.588060178114
 21
96.466666120652
  0
LINE
  5
7A4
100
AcDbEntity
  8
0
  6
CONTINUOUS
 62
           7
100
AcDbLine
 10
-1397.888060178114
 20
-386.733333879348
 11
-1447.588060178114
 21
-386.733333879348
  0
LINE
  5
7A3
100
AcDbEntity
  8
0
  6
CONTINUOUS
 62
           7
100
AcDbLine
 10
-797.588060178114
 20
-387.833333879348
 11
-801.888060178114
 21
-387.833333879348
  0
LINE
  5
7A2
100
AcDbEntity
  8
0
  6
CONTINUOUS
 62
           7
100
AcDbLine
 10
-797.588060178114
 20
-397.833333879348
 11
-797.588060178114
 21
-352.433333879348
  0
LINE
  5
7A1
100
AcDbEntity
  8
0
  6
CONTINUOUS
 62
           7
100
AcDbLine
 10
-752.188060178114
 20
-397.833333879348
 11
-797.588060178114
 21
-397.833333879348
  0
LINE
  5
7A0
100
AcDbEntity
  8
0
  6
CONTINUOUS
 62
           7
100
AcDbLine
 10
-759.888060178114
 20
59.866666120652
 11
-759.888060178114
 21
57.866666120652
  0
LINE
  5
79F
100
AcDbEntity
  8
0
  6
CONTINUOUS
 62
           7
100
AcDbLine
 10
-799.888060178114
 20
-400.133333879348
 11
-799.888060178114
 21
-390.133333879348
  0
LINE
  5
79E
100
AcDbEntity
  8
0
  6
CONTINUOUS
 62
           7
100
AcDbLine
 10
-752.188060178114
 20
-397.833333879348
 11
-752.188060178114
 21
-352.433333879348
  0
LINE
  5
79D
100
AcDbEntity
  8
0
  6
CONTINUOUS
 62
           7
100
AcDbLine
 10
-1449.888060178114
 20
-400.133333879348
 11
-1449.888060178114
 21
-340.133333879348
  0
LINE
  5
79C
100
AcDbEntity
  8
0
  6
CONTINUOUS
 62
           7
100
AcDbLine
 10
-752.188060178114
 20
62.166666120652
 11
-797.588060178114
 21
62.166666120652
  0
LINE
  5
79B
100
AcDbEntity
  8
0
  6
CONTINUOUS
 62
           7
100
AcDbLine
 10
-749.888060178114
 20
109.866666120652
 11
-799.888060178114
 21
109.866666120652
  0
LINE
  5
79A
100
AcDbEntity
  8
0
  6
CONTINUOUS
 62
           7
100
AcDbLine
 10
-762.188060178114
 20
62.166666120652
 11
-762.188060178114
 21
57.866666120652
  0
LINE
  5
799
100
AcDbEntity
  8
0
  6
CONTINUOUS
 62
           7
100
AcDbLine
 10
-1399.888060178114
 20
99.866666120652
 11
-1397.888060178114
 21
99.866666120652
  0
LINE
  5
798
100
AcDbEntity
  8
0
  6
CONTINUOUS
 62
           7
100
AcDbLine
 10
-1449.888060178114
 20
109.866666120652
 11
-1449.888060178114
 21
49.866666120652
  0
LINE
  5
797
100
AcDbEntity
  8
0
  6
CONTINUOUS
 62
           7
100
AcDbLine
 10
-1447.588060178114
 20
97.566666120652
 11
-1397.888060178114
 21
97.566666120652
  0
LINE
  5
796
100
AcDbEntity
  8
0
  6
CONTINUOUS
 62
           7
100
AcDbLine
 10
-1399.888060178114
 20
109.866666120652
 11
-1399.888060178114
 21
99.866666120652
  0
LINE
  5
795
100
AcDbEntity
  8
0
  6
CONTINUOUS
 62
           7
100
AcDbLine
 10
-1447.588060178114
 20
107.566666120652
 11
-1447.588060178114
 21
39.866666120652
  0
LINE
  5
794
100
AcDbEntity
  8
0
  6
CONTINUOUS
 62
           7
100
AcDbLine
 10
-1447.588060178114
 20
107.566666120652
 11
-1402.188060178114
 21
107.566666120652
  0
LINE
  5
793
100
AcDbEntity
  8
0
  6
CONTINUOUS
 62
           7
100
AcDbLine
 10
-1402.188060178114
 20
107.566666120652
 11
-1402.188060178114
 21
97.566666120652
  0
LINE
  5
792
100
AcDbEntity
  8
0
  6
CONTINUOUS
 62
           7
100
AcDbLine
 10
-1449.888060178114
 20
-352.133333879348
 11
-1449.888060178114
 21
61.866666120652
  0
LINE
  5
791
100
AcDbEntity
  8
0
  6
CONTINUOUS
 62
           7
100
AcDbLine
 10
-1449.888060178114
 20
109.866666120652
 11
-1399.888060178114
 21
109.866666120652
  0
LINE
  5
790
100
AcDbEntity
  8
0
  6
CONTINUOUS
 62
           7
100
AcDbLine
 10
-1402.188060178114
 20
-397.833333879348
 11
-1402.188060178114
 21
-387.833333879348
  0
LINE
  5
78F
100
AcDbEntity
  8
0
  6
CONTINUOUS
 62
           7
100
AcDbLine
 10
-1447.588060178114
 20
-387.833333879348
 11
-1397.888060178114
 21
-387.833333879348
  0
LINE
  5
78E
100
AcDbEntity
  8
0
  6
CONTINUOUS
 62
           7
100
AcDbLine
 10
-1447.588060178114
 20
-397.833333879348
 11
-1447.588060178114
 21
-330.133333879348
  0
LINE
  5
78D
100
AcDbEntity
  8
0
  6
CONTINUOUS
 62
           7
100
AcDbLine
 10
-1399.888060178114
 20
-400.133333879348
 11
-1399.888060178114
 21
-390.133333879348
  0
LINE
  5
78C
100
AcDbEntity
  8
0
  6
CONTINUOUS
 62
           7
100
AcDbLine
 10
-1447.588060178114
 20
-397.833333879348
 11
-1402.188060178114
 21
-397.833333879348
  0
LINE
  5
78B
100
AcDbEntity
  8
0
  6
CONTINUOUS
 62
           7
100
AcDbLine
 10
-1449.888060178114
 20
-400.133333879348
 11
-1399.888060178114
 21
-400.133333879348
  0
LINE
  5
78A
100
AcDbEntity
  8
0
  6
CONTINUOUS
 62
           7
100
AcDbLine
 10
-1447.588060178114
 20
-372.433333879348
 11
-1447.588060178114
 21
82.166666120652
  0
LINE
  5
789
100
AcDbEntity
  8
0
  6
CONTINUOUS
 62
           7
100
AcDbLine
 10
-1269.888060178114
 20
83.466666120652
 11
-1299.888060178114
 21
83.466666120652
  0
LINE
  5
788
100
AcDbEntity
  8
0
  6
CONTINUOUS
 62
           7
100
AcDbLine
 10
-899.888060178114
 20
83.466666120652
 11
-899.888060178114
 21
84.466666120652
  0
LINE
  5
787
100
AcDbEntity
  8
0
  6
CONTINUOUS
 62
           7
100
AcDbLine
 10
-899.888060178114
 20
83.466666120652
 11
-929.888060178114
 21
83.466666120652
  0
LINE
  5
786
100
AcDbEntity
  8
0
  6
CONTINUOUS
 62
           7
100
AcDbLine
 10
-1299.888060178114
 20
83.466666120652
 11
-1299.888060178114
 21
84.466666120652
  0
LINE
  5
785
100
AcDbEntity
  8
0
  6
CONTINUOUS
 62
           7
100
AcDbLine
 10
-1269.888060178114
 20
83.466666120652
 11
-1269.888060178114
 21
84.466666120652
  0
LINE
  5
784
100
AcDbEntity
  8
0
  6
CONTINUOUS
 62
           7
100
AcDbLine
 10
-929.888060178114
 20
83.466666120652
 11
-929.888060178114
 21
84.466666120652
  0
LINE
  5
783
100
AcDbEntity
  8
0
  6
CONTINUOUS
 62
           7
100
AcDbLine
 10
-929.888060178114
 20
-374.733333879348
 11
-929.888060178114
 21
-373.733333879348
  0
LINE
  5
782
100
AcDbEntity
  8
0
  6
CONTINUOUS
 62
           7
100
AcDbLine
 10
-1299.888060178114
 20
-374.733333879348
 11
-1299.888060178114
 21
-373.733333879348
  0
LINE
  5
781
100
AcDbEntity
  8
0
  6
CONTINUOUS
 62
           7
100
AcDbLine
 10
-1269.888060178114
 20
-374.733333879348
 11
-1269.888060178114
 21
-373.733333879348
  0
LINE
  5
780
100
AcDbEntity
  8
0
  6
CONTINUOUS
 62
           7
100
AcDbLine
 10
-899.888060178114
 20
-374.733333879348
 11
-899.888060178114
 21
-373.733333879348
  0
LINE
  5
77F
100
AcDbEntity
  8
0
  6
CONTINUOUS
 62
           7
100
AcDbLine
 10
-1269.888060178114
 20
-373.733333879348
 11
-1299.888060178114
 21
-373.733333879348
  0
LINE
  5
77E
100
AcDbEntity
  8
0
  6
CONTINUOUS
 62
           7
100
AcDbLine
 10
-899.888060178114
 20
-373.733333879348
 11
-929.888060178114
 21
-373.733333879348
  0
LINE
  5
77D
100
AcDbEntity
  8
0
  6
CONTINUOUS
 62
           7
100
AcDbLine
 10
-53.508543729694
 20
-1773.373382900249
 11
-53.508543729694
 21
-1768.566200588237
  0
LINE
  5
77C
100
AcDbEntity
  8
0
  6
CONTINUOUS
 62
           7
100
AcDbLine
 10
-44.848289251234
 20
-1773.373382900249
 11
-44.848289251234
 21
-1768.566200588237
  0
LINE
  5
77B
100
AcDbEntity
  8
0
  6
CONTINUOUS
 62
           7
100
AcDbLine
 10
-50.333122286944
 20
-1766.566194990876
 11
-49.178421188783
 21
-1768.566195924544
  0
LINE
  5
77A
100
AcDbEntity
  8
0
  6
CONTINUOUS
 62
           7
100
AcDbLine
 10
-49.178415936234
 20
-1766.566205220061
 11
-48.023714836504
 21
-1768.566206156448
  0
LINE
  5
779
100
AcDbEntity
  8
0
  6
CONTINUOUS
 62
           7
100
AcDbLine
 10
-41.478422880084
 20
-1768.566200588238
 11
-41.478422880084
 21
-1766.566200588237
  0
LINE
  5
778
100
AcDbEntity
  8
0
  6
CONTINUOUS
 62
           7
100
AcDbLine
 10
-56.878419637594
 20
-1768.566200588238
 11
-56.878419637594
 21
-1766.566200588237
  0
LINE
  5
777
100
AcDbEntity
  8
0
  6
CONTINUOUS
 62
           7
100
AcDbLine
 10
-42.878414350364
 20
-1774.066199929878
 11
-41.678418919773
 21
-1773.373382232564
  0
LINE
  5
776
100
AcDbEntity
  8
0
  6
CONTINUOUS
 62
           7
100
AcDbLine
 10
-41.678419828324
 20
-1773.373390529644
 11
-41.678419828324
 21
-1768.566200588237
  0
LINE
  5
775
100
AcDbEntity
  8
0
  6
CONTINUOUS
 62
           7
100
AcDbLine
 10
-41.478422880084
 20
-1768.566200588238
 11
-49.178419828324
 21
-1768.566200588238
  0
LINE
  5
774
100
AcDbEntity
  8
0
  6
CONTINUOUS
 62
           7
100
AcDbLine
 10
-42.878412961863
 20
-1774.066200588238
 11
-49.178419828324
 21
-1774.066200588238
  0
LINE
  5
773
100
AcDbEntity
  8
0
  6
CONTINUOUS
 62
           7
100
AcDbLine
 10
-56.878419637594
 20
-1768.566200588238
 11
-49.178419828324
 21
-1768.566200588238
  0
LINE
  5
772
100
AcDbEntity
  8
0
  6
CONTINUOUS
 62
           7
100
AcDbLine
 10
-55.478424480384
 20
-1774.066200406718
 11
-56.678419910973
 21
-1773.373382709404
  0
LINE
  5
771
100
AcDbEntity
  8
0
  6
CONTINUOUS
 62
           7
100
AcDbLine
 10
-56.678419828324
 20
-1773.373390529644
 11
-56.678419828324
 21
-1768.566200588237
  0
LINE
  5
770
100
AcDbEntity
  8
0
  6
CONTINUOUS
 62
           7
100
AcDbLine
 10
-55.478425741104
 20
-1774.066200588238
 11
-49.178419828324
 21
-1774.066200588238
  0
LINE
  5
76F
100
AcDbEntity
  8
0
  6
CONTINUOUS
 62
           7
100
AcDbLine
 10
-483.508543729694
 20
-1773.373382900249
 11
-483.508543729694
 21
-1768.566200588237
  0
LINE
  5
76E
100
AcDbEntity
  8
0
  6
CONTINUOUS
 62
           7
100
AcDbLine
 10
-474.848289251234
 20
-1773.373382900249
 11
-474.848289251234
 21
-1768.566200588237
  0
LINE
  5
76D
100
AcDbEntity
  8
0
  6
CONTINUOUS
 62
           7
100
AcDbLine
 10
-480.333122286944
 20
-1766.566194990876
 11
-479.178421188783
 21
-1768.566195924544
  0
LINE
  5
76C
100
AcDbEntity
  8
0
  6
CONTINUOUS
 62
           7
100
AcDbLine
 10
-479.178415936224
 20
-1766.566205220061
 11
-478.023714836504
 21
-1768.566206156447
  0
LINE
  5
76B
100
AcDbEntity
  8
0
  6
CONTINUOUS
 62
           7
100
AcDbLine
 10
-471.478422880084
 20
-1768.566200588238
 11
-471.478422880084
 21
-1766.566200588237
  0
LINE
  5
76A
100
AcDbEntity
  8
0
  6
CONTINUOUS
 62
           7
100
AcDbLine
 10
-486.878419637594
 20
-1768.566200588238
 11
-486.878419637594
 21
-1766.566200588237
  0
LINE
  5
769
100
AcDbEntity
  8
0
  6
CONTINUOUS
 62
           7
100
AcDbLine
 10
-472.878414350364
 20
-1774.066199929878
 11
-471.678418919773
 21
-1773.373382232564
  0
LINE
  5
768
100
AcDbEntity
  8
0
  6
CONTINUOUS
 62
           7
100
AcDbLine
 10
-471.678419828324
 20
-1773.373390529644
 11
-471.678419828324
 21
-1768.566200588237
  0
LINE
  5
767
100
AcDbEntity
  8
0
  6
CONTINUOUS
 62
           7
100
AcDbLine
 10
-471.478422880084
 20
-1768.566200588238
 11
-479.178419828324
 21
-1768.566200588238
  0
LINE
  5
766
100
AcDbEntity
  8
0
  6
CONTINUOUS
 62
           7
100
AcDbLine
 10
-472.878412961863
 20
-1774.066200588238
 11
-479.178419828324
 21
-1774.066200588238
  0
LINE
  5
765
100
AcDbEntity
  8
0
  6
CONTINUOUS
 62
           7
100
AcDbLine
 10
-486.878419637594
 20
-1768.566200588238
 11
-479.178419828324
 21
-1768.566200588238
  0
LINE
  5
764
100
AcDbEntity
  8
0
  6
CONTINUOUS
 62
           7
100
AcDbLine
 10
-485.478424480374
 20
-1774.066200406719
 11
-486.678419910973
 21
-1773.373382709404
  0
LINE
  5
763
100
AcDbEntity
  8
0
  6
CONTINUOUS
 62
           7
100
AcDbLine
 10
-486.678419828324
 20
-1773.373390529644
 11
-486.678419828324
 21
-1768.566200588237
  0
LINE
  5
762
100
AcDbEntity
  8
0
  6
CONTINUOUS
 62
           7
100
AcDbLine
 10
-485.478425741104
 20
-1774.066200588238
 11
-479.178419828324
 21
-1774.066200588238
  0
LINE
  5
761
100
AcDbEntity
  8
0
  6
CONTINUOUS
 62
           7
100
AcDbLine
 10
-1419.218205133164
 20
-1773.373382900248
 11
-1419.218205133164
 21
-1768.566200588237
  0
LINE
  5
760
100
AcDbEntity
  8
0
  6
CONTINUOUS
 62
           7
100
AcDbLine
 10
-1410.557950654714
 20
-1773.373382900248
 11
-1410.557950654714
 21
-1768.566200588237
  0
LINE
  5
75F
100
AcDbEntity
  8
0
  6
CONTINUOUS
 62
           7
100
AcDbLine
 10
-1416.042783690424
 20
-1766.566194990878
 11
-1414.888082592264
 21
-1768.566195924546
  0
LINE
  5
75E
100
AcDbEntity
  8
0
  6
CONTINUOUS
 62
           7
100
AcDbLine
 10
-1414.888077339704
 20
-1766.566205220061
 11
-1413.733376239974
 21
-1768.566206156448
  0
LINE
  5
75D
100
AcDbEntity
  8
0
  6
CONTINUOUS
 62
           7
100
AcDbLine
 10
-1407.188084283554
 20
-1768.566200588237
 11
-1407.188084283554
 21
-1766.566200588237
  0
LINE
  5
75C
100
AcDbEntity
  8
0
  6
CONTINUOUS
 62
           7
100
AcDbLine
 10
-1422.588081041064
 20
-1768.566200588237
 11
-1422.588081041064
 21
-1766.566200588237
  0
LINE
  5
75B
100
AcDbEntity
  8
0
  6
CONTINUOUS
 62
           7
100
AcDbLine
 10
-1408.588075753834
 20
-1774.06619992988
 11
-1407.388080323244
 21
-1773.373382232565
  0
LINE
  5
75A
100
AcDbEntity
  8
0
  6
CONTINUOUS
 62
           7
100
AcDbLine
 10
-1407.388081231794
 20
-1773.373390529643
 11
-1407.388081231794
 21
-1768.566200588237
  0
LINE
  5
759
100
AcDbEntity
  8
0
  6
CONTINUOUS
 62
           7
100
AcDbLine
 10
-1407.188084283554
 20
-1768.566200588237
 11
-1414.888081231794
 21
-1768.566200588237
  0
LINE
  5
758
100
AcDbEntity
  8
0
  6
CONTINUOUS
 62
           5
100
AcDbLine
 10
-1397.888060178114
 20
-713.066200588238
 11
-1397.888060178114
 21
-1764.266200588237
  0
LINE
  5
757
100
AcDbEntity
  8
0
  6
CONTINUOUS
 62
           7
100
AcDbLine
 10
-1408.588074365344
 20
-1774.066200588237
 11
-1414.888081231794
 21
-1774.066200588237
  0
LINE
  5
756
100
AcDbEntity
  8
0
  6
CONTINUOUS
 62
           7
100
AcDbLine
 10
-1422.588081041064
 20
-1768.566200588237
 11
-1414.888081231794
 21
-1768.566200588237
  0
LINE
  5
755
100
AcDbEntity
  8
0
  6
CONTINUOUS
 62
           7
100
AcDbLine
 10
-789.218206563674
 20
-1773.373382900248
 11
-789.218206563674
 21
-1768.566200588237
  0
LINE
  5
754
100
AcDbEntity
  8
0
  6
CONTINUOUS
 62
           7
100
AcDbLine
 10
-780.557952085224
 20
-1773.373382900248
 11
-780.557952085224
 21
-1768.566200588237
  0
LINE
  5
753
100
AcDbEntity
  8
0
  6
CONTINUOUS
 62
           7
100
AcDbLine
 10
-786.042785120934
 20
-1766.566194990878
 11
-784.888084022774
 21
-1768.566195924545
  0
LINE
  5
752
100
AcDbEntity
  8
0
  6
CONTINUOUS
 62
           7
100
AcDbLine
 10
-784.888078770214
 20
-1766.56620522006
 11
-783.733377670494
 21
-1768.566206156447
  0
LINE
  5
751
100
AcDbEntity
  8
0
  6
CONTINUOUS
 62
           7
100
AcDbLine
 10
-792.588082471574
 20
-1766.566200588237
 11
-777.188085714064
 21
-1766.566200588237
  0
LINE
  5
750
100
AcDbEntity
  8
0
  6
CONTINUOUS
 62
           7
100
AcDbLine
 10
-777.188085714064
 20
-1768.566200588237
 11
-777.188085714064
 21
-1766.566200588237
  0
LINE
  5
74F
100
AcDbEntity
  8
0
  6
CONTINUOUS
 62
           7
100
AcDbLine
 10
-792.588082471574
 20
-1768.566200588237
 11
-792.588082471574
 21
-1766.566200588237
  0
LINE
  5
74E
100
AcDbEntity
  8
0
  6
CONTINUOUS
 62
           7
100
AcDbLine
 10
-778.588077184344
 20
-1774.066199929878
 11
-777.388081753754
 21
-1773.373382232564
  0
LINE
  5
74D
100
AcDbEntity
  8
0
  6
CONTINUOUS
 62
           7
100
AcDbLine
 10
-1421.188085883854
 20
-1774.066200406718
 11
-1422.388081314444
 21
-1773.373382709404
  0
LINE
  5
74C
100
AcDbEntity
  8
0
  6
CONTINUOUS
 62
           7
100
AcDbLine
 10
-777.388082662314
 20
-1773.373390529643
 11
-777.388082662314
 21
-1768.566200588237
  0
LINE
  5
74B
100
AcDbEntity
  8
0
  6
CONTINUOUS
 62
           7
100
AcDbLine
 10
-777.188085714064
 20
-1768.566200588237
 11
-784.888082662314
 21
-1768.566200588237
  0
LINE
  5
74A
100
AcDbEntity
  8
0
  6
CONTINUOUS
 62
           7
100
AcDbLine
 10
-778.588075795854
 20
-1774.066200588237
 11
-784.888082662314
 21
-1774.066200588237
  0
LINE
  5
749
100
AcDbEntity
  8
0
  6
CONTINUOUS
 62
           7
100
AcDbLine
 10
-792.388082662314
 20
-1773.373390529643
 11
-792.388082662314
 21
-1768.566200588237
  0
LINE
  5
748
100
AcDbEntity
  8
0
  6
CONTINUOUS
 62
           7
100
AcDbLine
 10
-1530.887757677284
 20
-1522.966043789528
 11
-1530.087800229214
 21
-1523.766003125676
  0
LINE
  5
747
100
AcDbEntity
  8
0
  6
CONTINUOUS
 62
           7
100
AcDbLine
 10
-1524.137896016994
 20
-1523.766147440764
 11
-1524.137896016994
 21
-1524.266127075844
  0
LINE
  5
746
100
AcDbEntity
  8
0
  6
CONTINUOUS
 62
           7
100
AcDbLine
 10
-1524.863197094944
 20
-1523.766147440764
 11
-1524.863197094944
 21
-1525.266149924291
  0
LINE
  5
745
100
AcDbEntity
  8
0
  6
CONTINUOUS
 62
           7
100
AcDbLine
 10
-1524.138027446914
 20
-1524.266118679029
 11
-1524.862974761364
 21
-1525.266045509223
  0
LINE
  5
744
100
AcDbEntity
  8
0
  6
CONTINUOUS
 62
           7
100
AcDbLine
 10
-1524.863145882664
 20
-1525.266177798736
 11
-1526.888142125984
 21
-1525.808773911358
  0
LINE
  5
743
100
AcDbEntity
  8
0
  6
CONTINUOUS
 62
           7
100
AcDbLine
 10
-1470.988060178114
 20
-1274.266200588237
 11
-1443.188060178114
 21
-1274.266200588237
  0
LINE
  5
742
100
AcDbEntity
  8
0
  6
CONTINUOUS
 62
           7
100
AcDbLine
 10
-1506.911356119114
 20
-1525.266149924291
 11
-1524.863069938374
 21
-1525.266149924291
  0
LINE
  5
741
100
AcDbEntity
  8
0
  6
CONTINUOUS
 62
           7
100
AcDbLine
 10
-1482.717660439574
 20
-1350.266156878166
 11
-1482.717660439574
 21
-1362.26617674638
  0
LINE
  5
740
100
AcDbEntity
  8
0
  6
CONTINUOUS
 62
           7
100
AcDbLine
 10
-1488.334929096574
 20
-1350.266156878166
 11
-1488.334929096574
 21
-1362.26617674638
  0
LINE
  5
73F
100
AcDbEntity
  8
0
  6
CONTINUOUS
 62
           7
100
AcDbLine
 10
-1501.888039316484
 20
-1350.266156878166
 11
-1501.888039316484
 21
-1362.26617674638
  0
LINE
  5
73E
100
AcDbEntity
  8
0
  6
CONTINUOUS
 62
           7
100
AcDbLine
 10
-1482.717660439574
 20
-1350.266156878166
 11
-1488.334929096574
 21
-1350.266156878166
  0
LINE
  5
73D
100
AcDbEntity
  8
0
  6
CONTINUOUS
 62
           7
100
AcDbLine
 10
-1493.531055192184
 20
-1350.266156878166
 11
-1493.531055192184
 21
-1362.26617674638
  0
LINE
  5
73C
100
AcDbEntity
  8
0
  6
CONTINUOUS
 62
           7
100
AcDbLine
 10
-1493.531055192184
 20
-1350.266156878166
 11
-1501.887912159914
 21
-1350.266156878166
  0
LINE
  5
73B
100
AcDbEntity
  8
0
  6
CONTINUOUS
 62
           7
100
AcDbLine
 10
-1526.888038323074
 20
-1525.808727010478
 11
-1526.888038323074
 21
-1537.723551976478
  0
LINE
  5
73A
100
AcDbEntity
  8
0
  6
CONTINUOUS
 62
           7
100
AcDbLine
 10
-1507.638059433054
 20
-1523.766147440764
 11
-1507.638059433054
 21
-1524.266127075844
  0
LINE
  5
739
100
AcDbEntity
  8
0
  6
CONTINUOUS
 62
           7
100
AcDbLine
 10
-1500.887920888464
 20
-1522.966279389951
 11
-1501.687788962754
 21
-1523.766148273329
  0
LINE
  5
738
100
AcDbEntity
  8
0
  6
CONTINUOUS
 62
           7
100
AcDbLine
 10
-1533.388027892264
 20
-1518.066099856392
 11
-1498.387927557784
 21
-1518.066099856392
  0
LINE
  5
737
100
AcDbEntity
  8
0
  6
CONTINUOUS
 62
           7
100
AcDbLine
 10
-1530.137905951094
 20
-1523.766147440765
 11
-1501.687788130194
 21
-1523.766147440765
  0
LINE
  5
736
100
AcDbEntity
  8
0
  6
CONTINUOUS
 62
           7
100
AcDbLine
 10
-1500.888080046324
 20
-1518.066099856391
 11
-1500.888080046324
 21
-1522.966078299379
  0
LINE
  5
735
100
AcDbEntity
  8
0
  6
CONTINUOUS
 62
           7
100
AcDbLine
 10
-1506.912758355104
 20
-1523.766147440764
 11
-1506.912758355104
 21
-1525.266149924291
  0
LINE
  5
734
100
AcDbEntity
  8
0
  6
CONTINUOUS
 62
           7
100
AcDbLine
 10
-1504.887917126974
 20
-1525.808727010478
 11
-1504.887917126974
 21
-1537.723551976478
  0
LINE
  5
733
100
AcDbEntity
  8
0
  6
CONTINUOUS
 62
           7
100
AcDbLine
 10
-1507.638145707364
 20
-1524.266369167793
 11
-1506.913161074514
 21
-1525.266347471623
  0
LINE
  5
732
100
AcDbEntity
  8
0
  6
CONTINUOUS
 62
           7
100
AcDbLine
 10
-1506.912890436854
 20
-1525.265738805087
 11
-1504.887771369724
 21
-1525.808367828251
  0
LINE
  5
731
100
AcDbEntity
  8
0
  6
CONTINUOUS
 62
           7
100
AcDbLine
 10
-1478.964389447394
 20
-1365.936769986757
 11
-1480.896734504054
 21
-1488.318632694589
  0
LINE
  5
730
100
AcDbEntity
  8
0
  6
CONTINUOUS
 62
           7
100
AcDbLine
 10
-1510.387947425994
 20
-1538.266192640951
 11
-1521.388008024054
 21
-1538.266192640951
  0
LINE
  5
72F
100
AcDbEntity
  8
0
  6
CONTINUOUS
 62
           7
100
AcDbLine
 10
-1535.887926067664
 20
-1330.966205455949
 11
-1535.887926067664
 21
-1332.266127075844
  0
LINE
  5
72E
100
AcDbEntity
  8
0
  6
CONTINUOUS
 62
           7
100
AcDbLine
 10
-1552.811559901604
 20
-1365.93701224444
 11
-1550.879218348494
 21
-1488.318653061218
  0
LINE
  5
72D
100
AcDbEntity
  8
0
  6
CONTINUOUS
 62
           7
100
AcDbLine
 10
-1530.887875403724
 20
-1518.066099856391
 11
-1530.887875403724
 21
-1522.966078299379
  0
LINE
  5
72C
100
AcDbEntity
  8
0
  6
CONTINUOUS
 62
           7
100
AcDbLine
 10
-1465.887956793824
 20
-1362.266192314573
 11
-1480.137966757364
 21
-1366.26619520422
  0
LINE
  5
72B
100
AcDbEntity
  8
0
  6
CONTINUOUS
 62
           7
100
AcDbLine
 10
-1422.388081231794
 20
-1773.373390529643
 11
-1422.388081231794
 21
-1768.566200588237
  0
LINE
  5
72A
100
AcDbEntity
  8
0
  6
CONTINUOUS
 62
           7
100
AcDbLine
 10
-1467.887898252164
 20
-1350.266156878166
 11
-1467.887898252164
 21
-1362.26617674638
  0
LINE
  5
729
100
AcDbEntity
  8
0
  6
CONTINUOUS
 62
           7
100
AcDbLine
 10
-776.288060178114
 20
-5.133333879348
 11
-776.288060178114
 21
24.866666120652
  0
LINE
  5
728
100
AcDbEntity
  8
0
  6
CONTINUOUS
 62
           7
100
AcDbLine
 10
-1465.887979711844
 20
-1362.26617674638
 11
-1465.887979711844
 21
-1346.266192640951
  0
LINE
  5
727
100
AcDbEntity
  8
0
  6
CONTINUOUS
 62
           7
100
AcDbLine
 10
-775.288060178114
 20
-5.133333879348
 11
-776.288060178114
 21
-5.133333879348
  0
LINE
  5
726
100
AcDbEntity
  8
0
  6
CONTINUOUS
 62
           7
100
AcDbLine
 10
-775.288060178114
 20
-285.133333879348
 11
-776.288060178114
 21
-285.133333879348
  0
LINE
  5
725
100
AcDbEntity
  8
0
  6
CONTINUOUS
 62
           7
100
AcDbLine
 10
-775.288060178114
 20
-315.133333879348
 11
-776.288060178114
 21
-315.133333879348
  0
LINE
  5
724
100
AcDbEntity
  8
0
  6
CONTINUOUS
 62
           7
100
AcDbLine
 10
-799.888060178114
 20
99.866666120652
 11
-801.888060178114
 21
99.866666120652
  0
LINE
  5
723
100
AcDbEntity
  8
0
  6
CONTINUOUS
 62
           7
100
AcDbLine
 10
-749.888060178114
 20
-400.133333879348
 11
-799.888060178114
 21
-400.133333879348
  0
LINE
  5
722
100
AcDbEntity
  8
0
  6
CONTINUOUS
 62
           7
100
AcDbLine
 10
-752.188060178114
 20
-352.433333879348
 11
-797.588060178114
 21
-352.433333879348
  0
LINE
  5
721
100
AcDbEntity
  8
0
  6
CONTINUOUS
 62
           7
100
AcDbLine
 10
-749.888060178114
 20
59.866666120652
 11
-759.888060178114
 21
59.866666120652
  0
LINE
  5
720
100
AcDbEntity
  8
0
  6
CONTINUOUS
 62
           7
100
AcDbLine
 10
-762.188060178114
 20
-352.433333879348
 11
-762.188060178114
 21
-348.133333879348
  0
LINE
  5
71F
100
AcDbEntity
  8
0
  6
CONTINUOUS
 62
           7
100
AcDbLine
 10
-775.288060178114
 20
24.866666120652
 11
-776.288060178114
 21
24.866666120652
  0
LINE
  5
71E
100
AcDbEntity
  8
0
  6
CONTINUOUS
 62
           7
100
AcDbLine
 10
-752.188060178114
 20
107.566666120652
 11
-797.588060178114
 21
107.566666120652
  0
LINE
  5
71D
100
AcDbEntity
  8
0
  6
CONTINUOUS
 62
           7
100
AcDbLine
 10
-1447.588060178114
 20
49.866666120652
 11
-1449.888060178114
 21
49.866666120652
  0
LINE
  5
71C
100
AcDbEntity
  8
0
  6
CONTINUOUS
 62
           7
100
AcDbLine
 10
-776.288060178114
 20
-315.133333879348
 11
-776.288060178114
 21
-285.133333879348
  0
LINE
  5
71B
100
AcDbEntity
  8
0
  6
CONTINUOUS
 62
           7
100
AcDbLine
 10
-799.888060178114
 20
-390.133333879348
 11
-801.888060178114
 21
-390.133333879348
  0
LINE
  5
71A
100
AcDbEntity
  8
0
  6
CONTINUOUS
 62
           7
100
AcDbLine
 10
-752.188060178114
 20
107.566666120652
 11
-752.188060178114
 21
62.166666120652
  0
LINE
  5
719
100
AcDbEntity
  8
0
  6
CONTINUOUS
 62
           7
100
AcDbLine
 10
-799.888060178114
 20
109.866666120652
 11
-799.888060178114
 21
99.866666120652
  0
LINE
  5
718
100
AcDbEntity
  8
0
  6
CONTINUOUS
 62
           7
100
AcDbLine
 10
-759.888060178114
 20
-350.133333879348
 11
-759.888060178114
 21
-348.133333879348
  0
LINE
  5
717
100
AcDbEntity
  8
0
  6
CONTINUOUS
 62
           7
100
AcDbLine
 10
-797.588060178114
 20
97.566666120652
 11
-801.888060178114
 21
97.566666120652
  0
LINE
  5
716
100
AcDbEntity
  8
0
  6
CONTINUOUS
 62
           7
100
AcDbLine
 10
-749.888060178114
 20
109.866666120652
 11
-749.888060178114
 21
59.866666120652
  0
LINE
  5
715
100
AcDbEntity
  8
0
  6
CONTINUOUS
 62
           7
100
AcDbLine
 10
-749.888060178114
 20
-350.133333879348
 11
-759.888060178114
 21
-350.133333879348
  0
LINE
  5
714
100
AcDbEntity
  8
0
  6
CONTINUOUS
 62
           7
100
AcDbLine
 10
-749.888060178114
 20
-400.133333879348
 11
-749.888060178114
 21
-350.133333879348
  0
LINE
  5
713
100
AcDbEntity
  8
0
  6
CONTINUOUS
 62
           7
100
AcDbLine
 10
-1399.888060178114
 20
-390.133333879348
 11
-1397.888060178114
 21
-390.133333879348
  0
LINE
  5
712
100
AcDbEntity
  8
0
  6
CONTINUOUS
 62
           7
100
AcDbLine
 10
-797.588060178114
 20
107.566666120652
 11
-797.588060178114
 21
62.166666120652
  0
LINE
  5
711
100
AcDbEntity
  8
0
  6
CONTINUOUS
 62
           7
100
AcDbLine
 10
-762.188060178114
 20
-350.933333879348
 11
-799.088060178114
 21
-350.933333879348
  0
LINE
  5
710
100
AcDbEntity
  8
0
  6
CONTINUOUS
 62
           7
100
AcDbLine
 10
-799.088060178114
 20
-386.733333879348
 11
-799.088060178114
 21
-350.933333879348
  0
LINE
  5
70F
100
AcDbEntity
  8
0
  6
CONTINUOUS
 62
           7
100
AcDbLine
 10
-762.188060178114
 20
-350.933333879348
 11
-762.188060178114
 21
-348.133333879348
  0
LINE
  5
70E
100
AcDbEntity
  8
0
  6
CONTINUOUS
 62
           7
100
AcDbLine
 10
-799.088060178114
 20
96.466666120652
 11
-801.888060178114
 21
96.466666120652
  0
LINE
  5
70D
100
AcDbEntity
  8
0
  6
CONTINUOUS
 62
           7
100
AcDbLine
 10
-762.188060178114
 20
60.666666120652
 11
-799.088060178114
 21
60.666666120652
  0
LINE
  5
70C
100
AcDbEntity
  8
0
  6
CONTINUOUS
 62
           7
100
AcDbLine
 10
-799.088060178114
 20
96.466666120652
 11
-799.088060178114
 21
60.666666120652
  0
LINE
  5
70B
100
AcDbEntity
  8
0
  6
CONTINUOUS
 62
           7
100
AcDbLine
 10
-1451.088060178114
 20
-352.133333879348
 11
-1449.888060178114
 21
-352.133333879348
  0
LINE
  5
70A
100
AcDbEntity
  8
0
  6
CONTINUOUS
 62
           7
100
AcDbLine
 10
-1447.588060178114
 20
-340.133333879348
 11
-1449.888060178114
 21
-340.133333879348
  0
LINE
  5
709
100
AcDbEntity
  8
0
  6
CONTINUOUS
 62
           7
100
AcDbLine
 10
-1451.088060178114
 20
-352.133333879348
 11
-1451.088060178114
 21
61.866666120652
  0
LINE
  5
708
100
AcDbEntity
  8
0
  6
CONTINUOUS
 62
           7
100
AcDbLine
 10
-770.288060178114
 20
-348.133333879348
 11
-775.288060178114
 21
-343.133333879348
  0
LINE
  5
707
100
AcDbEntity
  8
0
  6
CONTINUOUS
 62
           7
100
AcDbLine
 10
-799.088060178114
 20
-386.733333879348
 11
-801.888060178114
 21
-386.733333879348
  0
LINE
  5
706
100
AcDbEntity
  8
0
  6
CONTINUOUS
 62
           7
100
AcDbLine
 10
-775.288060178114
 20
52.866666120652
 11
-770.288060178114
 21
57.866666120652
  0
LINE
  5
705
100
AcDbEntity
  8
0
  6
CONTINUOUS
 62
           7
100
AcDbLine
 10
-749.888060178114
 20
57.866666120652
 11
-770.288060178114
 21
57.866666120652
  0
LINE
  5
704
100
AcDbEntity
  8
0
  6
CONTINUOUS
 62
           7
100
AcDbLine
 10
-749.888060178114
 20
-348.133333879348
 11
-749.888060178114
 21
57.866666120652
  0
LINE
  5
703
100
AcDbEntity
  8
0
  6
CONTINUOUS
 62
           7
100
AcDbLine
 10
-749.888060178114
 20
-348.133333879348
 11
-770.288060178114
 21
-348.133333879348
  0
LINE
  5
702
100
AcDbEntity
  8
0
  6
CONTINUOUS
 62
           7
100
AcDbLine
 10
-775.288060178114
 20
-343.133333879348
 11
-775.288060178114
 21
52.866666120652
  0
LINE
  5
701
100
AcDbEntity
  8
0
  6
CONTINUOUS
 62
           7
100
AcDbLine
 10
-1392.888060178114
 20
-374.733333879348
 11
-1397.888060178114
 21
-379.733333879348
  0
LINE
  5
700
100
AcDbEntity
  8
0
  6
CONTINUOUS
 62
           7
100
AcDbLine
 10
-801.888060178114
 20
-379.733333879348
 11
-806.888060178114
 21
-374.733333879348
  0
LINE
  5
6FF
100
AcDbEntity
  8
0
  6
CONTINUOUS
 62
           7
100
AcDbLine
 10
-806.888060178114
 20
-374.733333879348
 11
-1392.888060178114
 21
-374.733333879348
  0
LINE
  5
6FE
100
AcDbEntity
  8
0
  6
CONTINUOUS
 62
           7
100
AcDbLine
 10
-791.188087314364
 20
-1774.066200406719
 11
-792.388082744954
 21
-1773.373382709404
  0
LINE
  5
6FD
100
AcDbEntity
  8
0
  6
CONTINUOUS
 62
           7
100
AcDbLine
 10
-1478.474954309334
 20
-1350.266156878166
 11
-1478.474954309344
 21
-1362.26617674638
  0
LINE
  5
6FC
100
AcDbEntity
  8
0
  6
CONTINUOUS
 62
           7
100
AcDbLine
 10
-1474.164855196754
 20
-1350.266156878166
 11
-1474.164855196754
 21
-1362.26617674638
  0
LINE
  5
6FB
100
AcDbEntity
  8
0
  6
CONTINUOUS
 62
           7
100
AcDbLine
 10
-1474.164728040184
 20
-1350.266156878166
 11
-1478.474954309334
 21
-1350.266156878166
  0
LINE
  5
6FA
100
AcDbEntity
  8
0
  6
CONTINUOUS
 62
           7
100
AcDbLine
 10
-1470.987975440174
 20
-1350.26609329988
 11
-1470.987975440174
 21
-1362.26617674638
  0
LINE
  5
6F9
100
AcDbEntity
  8
0
  6
CONTINUOUS
 62
           7
100
AcDbLine
 10
-1467.887898252164
 20
-1350.266156878166
 11
-1470.987975440174
 21
-1350.266156878166
  0
LINE
  5
6F8
100
AcDbEntity
  8
0
  6
CONTINUOUS
 62
           7
100
AcDbLine
 10
-1397.888060178114
 20
89.466666120652
 11
-1397.888060178114
 21
109.866666120652
  0
LINE
  5
6F7
100
AcDbEntity
  8
0
  6
CONTINUOUS
 62
           7
100
AcDbLine
 10
-1465.888752392384
 20
-1346.26652518408
 11
-1466.888718435544
 21
-1345.266550290348
  0
LINE
  5
6F6
100
AcDbEntity
  8
0
  6
CONTINUOUS
 62
           7
100
AcDbLine
 10
-1474.387887821354
 20
-1342.266164825451
 11
-1474.387887821354
 21
-1345.266169792505
  0
LINE
  5
6F5
100
AcDbEntity
  8
0
  6
CONTINUOUS
 62
           7
100
AcDbLine
 10
-1551.637920355554
 20
-1366.26620456188
 11
-1480.137907937924
 21
-1366.26620456188
  0
LINE
  5
6F4
100
AcDbEntity
  8
0
  6
CONTINUOUS
 62
           7
100
AcDbLine
 10
-1465.887979711844
 20
-1362.26617674638
 11
-1565.887975738204
 21
-1362.26617674638
  0
LINE
  5
6F3
100
AcDbEntity
  8
0
  6
CONTINUOUS
 62
           7
100
AcDbLine
 10
-1565.888140195794
 20
-1362.266393129274
 11
-1551.638130232244
 21
-1366.26639601892
  0
LINE
  5
6F2
100
AcDbEntity
  8
0
  6
CONTINUOUS
 62
           7
100
AcDbLine
 10
-1466.887938982004
 20
-1339.266159858398
 11
-1466.887938982004
 21
-1342.266164825451
  0
LINE
  5
6F1
100
AcDbEntity
  8
0
  6
CONTINUOUS
 62
           7
100
AcDbLine
 10
-1478.388369668474
 20
-1332.266243862342
 11
-1466.888331763394
 21
-1339.266266586105
  0
LINE
  5
6F0
100
AcDbEntity
  8
0
  6
CONTINUOUS
 62
           7
100
AcDbLine
 10
-1560.610978063774
 20
-1350.266156878166
 11
-1560.610978063774
 21
-1362.26617674638
  0
LINE
  5
6EF
100
AcDbEntity
  8
0
  6
CONTINUOUS
 62
           7
100
AcDbLine
 10
-1529.887916133564
 20
-1350.266156878166
 11
-1529.887916133564
 21
-1362.26617674638
  0
LINE
  5
6EE
100
AcDbEntity
  8
0
  6
CONTINUOUS
 62
           7
100
AcDbLine
 10
-1538.244900257864
 20
-1350.266156878166
 11
-1538.244900257864
 21
-1362.26617674638
  0
LINE
  5
6ED
100
AcDbEntity
  8
0
  6
CONTINUOUS
 62
           7
100
AcDbLine
 10
-1543.440772040334
 20
-1350.266156878166
 11
-1543.440772040334
 21
-1362.26617674638
  0
LINE
  5
6EC
100
AcDbEntity
  8
0
  6
CONTINUOUS
 62
           7
100
AcDbLine
 10
-1549.058422167044
 20
-1350.266156878166
 11
-1543.440899196904
 21
-1350.266156878166
  0
LINE
  5
6EB
100
AcDbEntity
  8
0
  6
CONTINUOUS
 62
           7
100
AcDbLine
 10
-1549.058549323614
 20
-1350.266156878166
 11
-1549.058549323614
 21
-1362.26617674638
  0
LINE
  5
6EA
100
AcDbEntity
  8
0
  6
CONTINUOUS
 62
           7
100
AcDbLine
 10
-1553.301001140704
 20
-1350.266156878166
 11
-1553.301001140704
 21
-1362.26617674638
  0
LINE
  5
6E9
100
AcDbEntity
  8
0
  6
CONTINUOUS
 62
           7
100
AcDbLine
 10
-1557.611100253294
 20
-1350.266156878166
 11
-1553.301001140704
 21
-1350.266156878166
  0
LINE
  5
6E8
100
AcDbEntity
  8
0
  6
CONTINUOUS
 62
           7
100
AcDbLine
 10
-1557.611100253294
 20
-1350.266156878166
 11
-1557.611100253294
 21
-1362.26617674638
  0
LINE
  5
6E7
100
AcDbEntity
  8
0
  6
CONTINUOUS
 62
           7
100
AcDbLine
 10
-1563.887930041304
 20
-1350.266156878166
 11
-1560.611105220344
 21
-1350.266156878166
  0
LINE
  5
6E6
100
AcDbEntity
  8
0
  6
CONTINUOUS
 62
           7
100
AcDbLine
 10
-1563.888057197884
 20
-1350.266156878166
 11
-1563.888057197884
 21
-1362.26617674638
  0
LINE
  5
6E5
100
AcDbEntity
  8
0
  6
CONTINUOUS
 62
           7
100
AcDbLine
 10
-1565.887975738204
 20
-1362.26617674638
 11
-1565.887975738204
 21
-1346.266192640951
  0
LINE
  5
6E4
100
AcDbEntity
  8
0
  6
CONTINUOUS
 62
           7
100
AcDbLine
 10
-1565.888165642434
 20
-1346.266101789067
 11
-1564.888154642834
 21
-1345.266081938498
  0
LINE
  5
6E3
100
AcDbEntity
  8
0
  6
CONTINUOUS
 62
           7
100
AcDbLine
 10
-1466.889083391134
 20
-1345.266169792505
 11
-1564.888016468044
 21
-1345.266169792505
  0
LINE
  5
6E2
100
AcDbEntity
  8
0
  6
CONTINUOUS
 62
           7
100
AcDbLine
 10
-1557.387813315554
 20
-1342.266164825451
 11
-1557.387813315554
 21
-1345.266169792505
  0
LINE
  5
6E1
100
AcDbEntity
  8
0
  6
CONTINUOUS
 62
           7
100
AcDbLine
 10
-1564.888016468044
 20
-1339.266159858398
 11
-1564.888016468044
 21
-1342.266164825451
  0
LINE
  5
6E0
100
AcDbEntity
  8
0
  6
CONTINUOUS
 62
           7
100
AcDbLine
 10
-1564.888016468044
 20
-1339.266159858398
 11
-1466.887938982004
 21
-1339.266159858398
  0
LINE
  5
6DF
100
AcDbEntity
  8
0
  6
CONTINUOUS
 62
           7
100
AcDbLine
 10
-1466.887938982004
 20
-1342.266164825451
 11
-1564.888016468044
 21
-1342.266164825451
  0
LINE
  5
6DE
100
AcDbEntity
  8
0
  6
CONTINUOUS
 62
           7
100
AcDbLine
 10
-1495.888029382384
 20
-1330.966205455949
 11
-1495.888029382384
 21
-1332.266127075844
  0
LINE
  5
6DD
100
AcDbEntity
  8
0
  6
CONTINUOUS
 62
           7
100
AcDbLine
 10
-1495.888029382384
 20
-1330.966205455949
 11
-1535.887926067664
 21
-1330.966205455949
  0
LINE
  5
6DC
100
AcDbEntity
  8
0
  6
CONTINUOUS
 62
           7
100
AcDbLine
 10
-1478.388487841424
 20
-1332.26619065413
 11
-1553.387976234904
 21
-1332.26619065413
  0
LINE
  5
6DB
100
AcDbEntity
  8
0
  6
CONTINUOUS
 62
           7
100
AcDbLine
 10
-1553.388259229394
 20
-1332.266263914394
 11
-1564.888297134474
 21
-1339.266286638156
  0
LINE
  5
6DA
100
AcDbEntity
  8
0
  6
CONTINUOUS
 62
           7
100
AcDbLine
 10
-1515.887977725024
 20
-1254.266188667308
 11
-1515.887977725024
 21
-1538.266192640951
  0
LINE
  5
6D9
100
AcDbEntity
  8
0
  6
CONTINUOUS
 62
           7
100
AcDbLine
 10
-1529.888045055954
 20
-1316.266270997068
 11
-1530.888062757014
 21
-1317.266284146192
  0
LINE
  5
6D8
100
AcDbEntity
  8
0
  6
CONTINUOUS
 62
           7
100
AcDbLine
 10
-1530.887875403724
 20
-1317.266165818862
 11
-1530.887875403724
 21
-1330.966205455949
  0
LINE
  5
6D7
100
AcDbEntity
  8
0
  6
CONTINUOUS
 62
           7
100
AcDbLine
 10
-1522.101102071234
 20
-1316.266142970416
 11
-1522.101102071234
 21
-1330.966205455949
  0
LINE
  5
6D6
100
AcDbEntity
  8
0
  6
CONTINUOUS
 62
           7
100
AcDbLine
 10
-1500.888080046324
 20
-1317.266165818862
 11
-1500.888080046324
 21
-1330.966205455949
  0
LINE
  5
6D5
100
AcDbEntity
  8
0
  6
CONTINUOUS
 62
           7
100
AcDbLine
 10
-1509.674599065674
 20
-1316.266142970416
 11
-1509.674599065674
 21
-1330.966205455949
  0
LINE
  5
6D4
100
AcDbEntity
  8
0
  6
CONTINUOUS
 62
           7
100
AcDbLine
 10
-1501.887912159914
 20
-1316.266206548701
 11
-1529.887916133564
 21
-1316.266206548701
  0
LINE
  5
6D3
100
AcDbEntity
  8
0
  6
CONTINUOUS
 62
           7
100
AcDbLine
 10
-1500.887824787034
 20
-1317.266127641449
 11
-1501.887837936154
 21
-1316.266109940395
  0
LINE
  5
6D2
100
AcDbEntity
  8
0
  6
CONTINUOUS
 62
           7
100
AcDbLine
 10
-1531.637977725024
 20
-1302.26620456188
 11
-1500.137977725024
 21
-1302.26620456188
  0
LINE
  5
6D1
100
AcDbEntity
  8
0
  6
CONTINUOUS
 62
           7
100
AcDbLine
 10
-1593.888060178114
 20
-1274.266200588237
 11
-1436.688060178114
 21
-1274.266200588237
  0
LINE
  5
6D0
100
AcDbEntity
  8
0
  6
CONTINUOUS
 62
           7
100
AcDbLine
 10
-1538.244900257864
 20
-1350.266156878166
 11
-1529.887916133564
 21
-1350.266156878166
  0
LINE
  5
6CF
100
AcDbEntity
  8
0
  6
CONTINUOUS
 62
           7
100
AcDbLine
 10
-1487.888060178114
 20
-1258.516200588237
 11
-1487.888060178114
 21
-1290.016200588237
  0
LINE
  5
6CE
100
AcDbEntity
  8
0
  6
CONTINUOUS
 62
           7
100
AcDbLine
 10
-1496.388060178114
 20
-1258.516200588237
 11
-1496.388060178114
 21
-1290.016200588237
  0
LINE
  5
6CD
100
AcDbEntity
  8
0
  6
CONTINUOUS
 62
           7
100
AcDbLine
 10
-1531.637977725024
 20
-1293.76620456188
 11
-1500.137977725024
 21
-1293.76620456188
  0
LINE
  5
6CC
100
AcDbEntity
  8
0
  6
CONTINUOUS
 62
           7
100
AcDbLine
 10
-1500.137977725024
 20
-1293.76620456188
 11
-1500.137977725024
 21
-1302.26620456188
  0
LINE
  5
6CB
100
AcDbEntity
  8
0
  6
CONTINUOUS
 62
           7
100
AcDbLine
 10
-1531.637977725024
 20
-1293.76620456188
 11
-1531.637977725024
 21
-1302.26620456188
  0
LINE
  5
6CA
100
AcDbEntity
  8
0
  6
CONTINUOUS
 62
           7
100
AcDbLine
 10
-1496.388060178114
 20
-1290.016200588237
 11
-1487.888060178114
 21
-1290.016200588237
  0
LINE
  5
6C9
100
AcDbEntity
  8
0
  6
CONTINUOUS
 62
           7
100
AcDbLine
 10
-1496.388060178114
 20
-1258.516200588237
 11
-1487.888060178114
 21
-1258.516200588237
  0
LINE
  5
6C8
100
AcDbEntity
  8
0
  6
CONTINUOUS
 62
           7
100
AcDbLine
 10
-1537.888060178114
 20
-1262.766200588237
 11
-1537.888060178114
 21
-1285.766200588237
  0
LINE
  5
6C7
100
AcDbEntity
  8
0
  6
CONTINUOUS
 62
           7
100
AcDbLine
 10
-1532.888060178114
 20
-1262.766200588237
 11
-1532.888060178114
 21
-1285.766200588237
  0
LINE
  5
6C6
100
AcDbEntity
  8
0
  6
CONTINUOUS
 62
           7
100
AcDbLine
 10
-1537.888060178114
 20
-1285.766200588237
 11
-1532.888060178114
 21
-1285.766200588237
  0
LINE
  5
6C5
100
AcDbEntity
  8
0
  6
CONTINUOUS
 62
           7
100
AcDbLine
 10
-1421.188087144574
 20
-1774.066200588237
 11
-1414.888081231794
 21
-1774.066200588237
  0
LINE
  5
6C4
100
AcDbEntity
  8
0
  6
CONTINUOUS
 62
           7
100
AcDbLine
 10
-801.888060178114
 20
109.866666120652
 11
-1397.888060178114
 21
109.866666120652
  0
LINE
  5
6C3
100
AcDbEntity
  8
0
  6
CONTINUOUS
 62
           7
100
AcDbLine
 10
-1451.088060178114
 20
61.866666120652
 11
-1449.888060178114
 21
61.866666120652
  0
LINE
  5
6C2
100
AcDbEntity
  8
0
  6
CONTINUOUS
 62
           7
100
AcDbLine
 10
-1537.888060178114
 20
-1262.766200588237
 11
-1532.888060178114
 21
-1262.766200588237
  0
LINE
  5
6C1
100
AcDbEntity
  8
0
  6
CONTINUOUS
 62
           7
100
AcDbLine
 10
-1532.888060178114
 20
-1285.266200588237
 11
-1529.387977725024
 21
-1285.266200588237
  0
LINE
  5
6C0
100
AcDbEntity
  8
0
  6
CONTINUOUS
 62
           7
100
AcDbLine
 10
-1529.387977725024
 20
-1285.266200588237
 11
-1529.387977725024
 21
-1293.76620456188
  0
LINE
  5
6BF
100
AcDbEntity
  8
0
  6
CONTINUOUS
 62
           7
100
AcDbLine
 10
-1502.387977725024
 20
-1287.766200588237
 11
-1502.387977725024
 21
-1293.76620456188
  0
LINE
  5
6BE
100
AcDbEntity
  8
0
  6
CONTINUOUS
 62
           7
100
AcDbLine
 10
-801.888060178114
 20
89.466666120652
 11
-801.888060178114
 21
109.866666120652
  0
LINE
  5
6BD
100
AcDbEntity
  8
0
  6
CONTINUOUS
 62
           7
100
AcDbLine
 10
-801.888060178114
 20
-400.133333879348
 11
-801.888060178114
 21
-379.733333879348
  0
LINE
  5
6BC
100
AcDbEntity
  8
0
  6
CONTINUOUS
 62
           7
100
AcDbLine
 10
-801.888060178114
 20
89.466666120652
 11
-806.888060178114
 21
84.466666120652
  0
LINE
  5
6BB
100
AcDbEntity
  8
0
  6
CONTINUOUS
 62
           7
100
AcDbLine
 10
-1502.387977725024
 20
-1287.766200588237
 11
-1496.388060178114
 21
-1287.766200588237
  0
LINE
  5
6BA
100
AcDbEntity
  8
0
  6
CONTINUOUS
 62
           7
100
AcDbLine
 10
-749.888060178114
 20
-1764.266200588237
 11
-749.888060178114
 21
-1766.566200588237
  0
LINE
  5
6B9
100
AcDbEntity
  8
0
  6
CONTINUOUS
 62
           7
100
AcDbLine
 10
-1523.762977725024
 20
-1293.76620456188
 11
-1523.762977725024
 21
-1302.26620456188
  0
LINE
  5
6B8
100
AcDbEntity
  8
0
  6
CONTINUOUS
 62
           7
100
AcDbLine
 10
-1392.888060178114
 20
84.466666120652
 11
-1397.888060178114
 21
89.466666120652
  0
LINE
  5
6B7
100
AcDbEntity
  8
0
  6
CONTINUOUS
 62
           7
100
AcDbLine
 10
-1508.012977725024
 20
-1293.76620456188
 11
-1508.012977725024
 21
-1302.26620456188
  0
LINE
  5
6B6
100
AcDbEntity
  8
0
  6
CONTINUOUS
 62
           7
100
AcDbLine
 10
-1496.388060178114
 20
-1282.141200588237
 11
-1487.888060178114
 21
-1282.141200588237
  0
LINE
  5
6B5
100
AcDbEntity
  8
0
  6
CONTINUOUS
 62
           7
100
AcDbLine
 10
-1496.388060178114
 20
-1266.391200588237
 11
-1487.888060178114
 21
-1266.391200588237
  0
LINE
  5
6B4
100
AcDbEntity
  8
0
  6
CONTINUOUS
 62
           7
100
AcDbLine
 10
-1542.888060178114
 20
-1264.266200588237
 11
-1542.888060178114
 21
-1284.266200588237
  0
LINE
  5
6B3
100
AcDbEntity
  8
0
  6
CONTINUOUS
 62
           7
100
AcDbLine
 10
-1399.888060178114
 20
-714.266200588238
 11
-1399.888060178114
 21
-1764.266200588237
  0
LINE
  5
6B2
100
AcDbEntity
  8
0
  6
CONTINUOUS
 62
           7
100
AcDbLine
 10
-1559.888060178114
 20
-1284.266200588237
 11
-1547.888060178114
 21
-1284.266200588237
  0
LINE
  5
6B1
100
AcDbEntity
  8
0
  6
CONTINUOUS
 62
           7
100
AcDbLine
 10
-801.888060178114
 20
-400.133333879348
 11
-1397.888060178114
 21
-400.133333879348
  0
LINE
  5
6B0
100
AcDbEntity
  8
0
  6
CONTINUOUS
 62
           7
100
AcDbLine
 10
-806.888060178114
 20
84.466666120652
 11
-1392.888060178114
 21
84.466666120652
  0
LINE
  5
6AF
100
AcDbEntity
  8
0
  6
CONTINUOUS
 62
           7
100
AcDbLine
 10
-1559.888060178114
 20
-1264.266200588236
 11
-1547.888060178114
 21
-1264.266200588236
  0
LINE
  5
6AE
100
AcDbEntity
  8
0
  6
CONTINUOUS
 62
           7
100
AcDbLine
 10
-1547.888060178114
 20
-1266.266200588237
 11
-1542.888060178114
 21
-1266.266200588237
  0
LINE
  5
6AD
100
AcDbEntity
  8
0
  6
CONTINUOUS
 62
           7
100
AcDbLine
 10
-1449.888060178114
 20
-714.266200588238
 11
-1449.888060178114
 21
-1764.266200588237
  0
LINE
  5
6AC
100
AcDbEntity
  8
0
  6
CONTINUOUS
 62
           7
100
AcDbLine
 10
-1547.888060178114
 20
-1282.266200588237
 11
-1542.888060178114
 21
-1282.266200588237
  0
LINE
  5
6AB
100
AcDbEntity
  8
0
  6
CONTINUOUS
 62
           7
100
AcDbLine
 10
-1559.888060178114
 20
-1264.266200588236
 11
-1559.888060178114
 21
-1284.266200588237
  0
LINE
  5
6AA
100
AcDbEntity
  8
0
  6
CONTINUOUS
 62
           7
100
AcDbLine
 10
-1547.888060178114
 20
-1264.266200588236
 11
-1547.888060178114
 21
-1284.266200588237
  0
LINE
  5
6A9
100
AcDbEntity
  8
0
  6
CONTINUOUS
 62
           7
100
AcDbLine
 10
-1542.888060178114
 20
-1284.266200588237
 11
-1537.888060178114
 21
-1284.266200588237
  0
LINE
  5
6A8
100
AcDbEntity
  8
0
  6
CONTINUOUS
 62
           7
100
AcDbLine
 10
-1542.888060178114
 20
-1264.266200588237
 11
-1537.888060178114
 21
-1264.266200588237
  0
LINE
  5
6A7
100
AcDbEntity
  8
0
  6
CONTINUOUS
 62
           7
100
AcDbLine
 10
-1559.888060178114
 20
-1279.266200588237
 11
-1547.888060178114
 21
-1279.266200588237
  0
LINE
  5
6A6
100
AcDbEntity
  8
0
  6
CONTINUOUS
 62
           7
100
AcDbLine
 10
-1397.888060178114
 20
-400.133333879348
 11
-1397.888060178114
 21
-379.733333879348
  0
LINE
  5
6A5
100
AcDbEntity
  8
0
  6
CONTINUOUS
 62
           7
100
AcDbLine
 10
-1559.888060178114
 20
-1269.266200588237
 11
-1547.888060178114
 21
-1269.266200588237
  0
LINE
  5
6A4
100
AcDbEntity
  8
0
  6
CONTINUOUS
 62
           7
100
AcDbLine
 10
-1542.888060178114
 20
-1279.266200588237
 11
-1537.888060178114
 21
-1279.266200588237
  0
LINE
  5
6A3
100
AcDbEntity
  8
0
  6
CONTINUOUS
 62
           7
100
AcDbLine
 10
-1542.888060178114
 20
-1269.266200588237
 11
-1537.888060178114
 21
-1269.266200588237
  0
LINE
  5
6A2
100
AcDbEntity
  8
0
  6
CONTINUOUS
 62
           7
100
AcDbLine
 10
-1593.888060178114
 20
-1249.766200588237
 11
-1593.888060178114
 21
-1298.766200588236
  0
LINE
  5
6A1
100
AcDbEntity
  8
0
  6
CONTINUOUS
 62
           7
100
AcDbLine
 10
-1579.888060178114
 20
-1249.766200588237
 11
-1579.888060178114
 21
-1298.766200588236
  0
LINE
  5
6A0
100
AcDbEntity
  8
0
  6
CONTINUOUS
 62
           7
100
AcDbLine
 10
-1579.888060178114
 20
-1270.266200588237
 11
-1559.888060178114
 21
-1270.266200588237
  0
LINE
  5
69F
100
AcDbEntity
  8
0
  6
CONTINUOUS
 62
           7
100
AcDbLine
 10
-1579.888060178114
 20
-1278.266200588237
 11
-1559.888060178114
 21
-1278.266200588237
  0
LINE
  5
69E
100
AcDbEntity
  8
0
  6
CONTINUOUS
 62
           7
100
AcDbLine
 10
-1505.037977725024
 20
-1302.26620456188
 11
-1505.037977725024
 21
-1316.266206548701
  0
LINE
  5
69D
100
AcDbEntity
  8
0
  6
CONTINUOUS
 62
           7
100
AcDbLine
 10
-1526.737977725024
 20
-1302.26620456188
 11
-1526.737977725024
 21
-1316.266206548701
  0
LINE
  5
69C
100
AcDbEntity
  8
0
  6
CONTINUOUS
 62
           7
100
AcDbLine
 10
-1487.888060178114
 20
-1263.416200588237
 11
-1451.088060178114
 21
-1263.416200588237
  0
LINE
  5
69B
100
AcDbEntity
  8
0
  6
CONTINUOUS
 62
           7
100
AcDbLine
 10
-1487.888060178114
 20
-1285.116200588237
 11
-1451.088060178114
 21
-1285.116200588237
  0
LINE
  5
69A
100
AcDbEntity
  8
0
  6
CONTINUOUS
 62
           7
100
AcDbLine
 10
-1402.188060178114
 20
-1766.566200588237
 11
-1449.888060178114
 21
-1766.566200588237
  0
LINE
  5
699
100
AcDbEntity
  8
0
  6
CONTINUOUS
 62
           7
100
AcDbLine
 10
-1449.888060178114
 20
-1764.266200588237
 11
-1449.888060178114
 21
-1766.566200588237
  0
LINE
  5
698
100
AcDbEntity
  8
0
  6
CONTINUOUS
 62
           7
100
AcDbLine
 10
-759.888060178114
 20
-1764.266200588237
 11
-799.888060178114
 21
-1764.266200588237
  0
LINE
  5
697
100
AcDbEntity
  8
0
  6
CONTINUOUS
 62
           7
100
AcDbLine
 10
-1399.888060178114
 20
-1824.266200588237
 11
-1439.888060178114
 21
-1824.266200588237
  0
LINE
  5
696
100
AcDbEntity
  8
0
  6
CONTINUOUS
 62
           7
100
AcDbLine
 10
-799.888060178114
 20
-1764.266200588237
 11
-799.888060178114
 21
-1824.266200588238
  0
LINE
  5
695
100
AcDbEntity
  8
0
  6
CONTINUOUS
 62
           7
100
AcDbLine
 10
-759.888060178114
 20
-1824.266200588237
 11
-799.888060178114
 21
-1824.266200588238
  0
LINE
  5
694
100
AcDbEntity
  8
0
  6
CONTINUOUS
 62
           7
100
AcDbLine
 10
-1402.188060178114
 20
-1821.966200588237
 11
-1439.888060178114
 21
-1821.966200588237
  0
LINE
  5
693
100
AcDbEntity
  8
0
  6
CONTINUOUS
 62
           7
100
AcDbLine
 10
-749.888060178114
 20
-1766.566200588237
 11
-797.588060178114
 21
-1766.566200588237
  0
LINE
  5
692
100
AcDbEntity
  8
0
  6
CONTINUOUS
 62
           7
100
AcDbLine
 10
-1399.888060178114
 20
-1764.266200588237
 11
-1399.888060178114
 21
-1824.266200588237
  0
LINE
  5
691
100
AcDbEntity
  8
0
  6
CONTINUOUS
 62
           7
100
AcDbLine
 10
-1402.188060178114
 20
-1766.566200588237
 11
-1402.188060178114
 21
-1821.966200588237
  0
LINE
  5
690
100
AcDbEntity
  8
0
  6
CONTINUOUS
 62
           7
100
AcDbLine
 10
-1439.888060178114
 20
-1821.966200588237
 11
-1439.888060178114
 21
-1824.266200588237
  0
LINE
  5
68F
100
AcDbEntity
  8
0
  6
CONTINUOUS
 62
           7
100
AcDbLine
 10
-774.888060178114
 20
-1806.20471109415
 11
-774.888060178114
 21
-1837.727690082324
  0
LINE
  5
68E
100
AcDbEntity
  8
0
  6
CONTINUOUS
 62
           7
100
AcDbLine
 10
-1424.888060178114
 20
-1809.344367969092
 11
-1424.888060178114
 21
-1834.588033207383
  0
LINE
  5
68D
100
AcDbEntity
  8
0
  6
CONTINUOUS
 62
           7
100
AcDbLine
 10
-1451.088060178114
 20
-720.466200588238
 11
-1449.888060178114
 21
-720.466200588238
  0
LINE
  5
68C
100
AcDbEntity
  8
0
  6
CONTINUOUS
 62
           7
100
AcDbLine
 10
-749.888060178114
 20
-1764.266200588237
 11
-1447.588060178114
 21
-1764.266200588237
  0
LINE
  5
68B
100
AcDbEntity
  8
0
  6
CONTINUOUS
 62
           7
100
AcDbLine
 10
-791.188088575084
 20
-1774.066200588237
 11
-784.888082662314
 21
-1774.066200588237
  0
LINE
  5
68A
100
AcDbEntity
  8
0
  6
CONTINUOUS
 62
           7
100
AcDbLine
 10
-792.588082471574
 20
-1768.566200588237
 11
-784.888082662314
 21
-1768.566200588237
  0
LINE
  5
689
100
AcDbEntity
  8
0
  6
CONTINUOUS
 62
           7
100
AcDbLine
 10
-1470.988060178114
 20
-1288.76620058824
 11
-1470.988060178114
 21
-1259.766200588237
  0
LINE
  5
688
100
AcDbEntity
  8
0
  6
CONTINUOUS
 62
           7
100
AcDbLine
 10
-797.588060178114
 20
-1766.566200588237
 11
-797.588060178114
 21
-1821.966200588237
  0
LINE
  5
687
100
AcDbEntity
  8
0
  6
CONTINUOUS
 62
           7
100
AcDbLine
 10
-759.888060178114
 20
-1821.966200588237
 11
-759.888060178114
 21
-1824.266200588237
  0
LINE
  5
686
100
AcDbEntity
  8
0
  6
CONTINUOUS
 62
           7
100
AcDbLine
 10
-759.888060178114
 20
-1821.966200588237
 11
-797.588060178114
 21
-1821.966200588237
  0
LINE
  5
685
100
AcDbEntity
  8
0
  6
CONTINUOUS
 62
           7
100
AcDbLine
 10
-1470.988060178114
 20
-1259.766200588237
 11
-1469.371479424384
 21
-1256.966200588237
  0
LINE
  5
684
100
AcDbEntity
  8
0
  6
CONTINUOUS
 62
           7
100
AcDbLine
 10
-1469.371479424384
 20
-1291.566200588237
 11
-1470.988060178114
 21
-1288.76620058824
  0
LINE
  5
683
100
AcDbEntity
  8
0
  6
CONTINUOUS
 62
           7
100
AcDbLine
 10
-1409.888060178114
 20
-1764.266200588237
 11
-1449.888060178114
 21
-1764.266200588237
  0
LINE
  5
682
100
AcDbEntity
  8
0
  6
CONTINUOUS
 62
           5
100
AcDbLine
 10
-749.888060178114
 20
-713.066200588238
 11
-749.888060178114
 21
-1764.266200588237
  0
LINE
  5
681
100
AcDbEntity
  8
0
  6
CONTINUOUS
 62
           5
100
AcDbLine
 10
-801.888060178114
 20
-713.066200588238
 11
-801.888060178114
 21
-1764.266200588237
  0
LINE
  5
680
100
AcDbEntity
  8
0
  6
CONTINUOUS
 62
           7
100
AcDbLine
 10
-799.888060178114
 20
-714.266200588238
 11
-799.888060178114
 21
-1764.266200588237
  0
LINE
  5
67F
100
AcDbEntity
  8
0
  6
CONTINUOUS
 62
           7
100
AcDbLine
 10
-1469.371479424384
 20
-1256.966200588237
 11
-1451.088060178114
 21
-1256.966200588237
  0
LINE
  5
67E
100
AcDbEntity
  8
0
  6
CONTINUOUS
 62
           7
100
AcDbLine
 10
-1469.371479424384
 20
-1291.566200588237
 11
-1451.088060178114
 21
-1291.566200588237
  0
LINE
  5
67D
100
AcDbEntity
  8
0
  6
CONTINUOUS
 62
           7
100
AcDbLine
 10
-749.888060178114
 20
-714.266200588238
 11
-801.888060178114
 21
-714.266200588238
  0
LINE
  5
67C
100
AcDbEntity
  8
0
  6
CONTINUOUS
 62
           7
100
AcDbLine
 10
-1451.088060178114
 20
-720.466200588238
 11
-1451.088060178114
 21
-1764.266200588237
  0
LINE
  5
67B
100
AcDbEntity
  8
0
  6
CONTINUOUS
 62
           7
100
AcDbLine
 10
-1451.088060178114
 20
-1764.266200588237
 11
-1449.888060178114
 21
-1764.266200588237
  0
LINE
  5
67A
100
AcDbEntity
  8
0
  6
CONTINUOUS
 62
           7
100
AcDbLine
 10
-469.178421258834
 20
-714.266200588238
 11
-469.178421258834
 21
-1764.266200588237
  0
LINE
  5
679
100
AcDbEntity
  8
0
  6
CONTINUOUS
 62
           7
100
AcDbLine
 10
-59.178421258834
 20
-714.266200588238
 11
-59.178421258834
 21
-1764.266200588237
  0
LINE
  5
678
100
AcDbEntity
  8
0
  6
CONTINUOUS
 62
           7
100
AcDbLine
 10
-519.178421258834
 20
-714.266200588238
 11
-467.178421258834
 21
-714.266200588238
  0
LINE
  5
677
100
AcDbEntity
  8
0
  6
CONTINUOUS
 62
           7
100
AcDbLine
 10
-519.178421258834
 20
-714.266200588238
 11
-519.178421258834
 21
-1764.266200588237
  0
LINE
  5
676
100
AcDbEntity
  8
0
  6
CONTINUOUS
 62
           7
100
AcDbLine
 10
-519.178421258834
 20
-1766.566200588238
 11
-9.178421258834
 21
-1766.566200588238
  0
LINE
  5
675
100
AcDbEntity
  8
0
  6
CONTINUOUS
 62
           7
100
AcDbLine
 10
-519.178421258834
 20
-1824.266200588237
 11
-9.178421258834
 21
-1824.266200588237
  0
LINE
  5
674
100
AcDbEntity
  8
0
  6
CONTINUOUS
 62
           7
100
AcDbLine
 10
-9.178421258834
 20
-714.266200588238
 11
-9.178421258834
 21
-1764.266200588237
  0
LINE
  5
673
100
AcDbEntity
  8
0
  6
CONTINUOUS
 62
           5
100
AcDbLine
 10
-467.178421258834
 20
-713.066200588238
 11
-467.178421258834
 21
-1764.266200588237
  0
LINE
  5
672
100
AcDbEntity
  8
0
  6
CONTINUOUS
 62
           7
100
AcDbLine
 10
-519.178421258834
 20
-1821.966200588238
 11
-9.178421258834
 21
-1821.966200588238
  0
LINE
  5
671
100
AcDbEntity
  8
0
  6
CONTINUOUS
 62
           7
100
AcDbLine
 10
-312.178421258834
 20
-808.966200588238
 11
-312.178421258834
 21
-913.966200588238
  0
LINE
  5
670
100
AcDbEntity
  8
0
  6
CONTINUOUS
 62
           5
100
AcDbLine
 10
-61.178421258834
 20
-713.066200588238
 11
-61.178421258834
 21
-1764.266200588237
  0
LINE
  5
66F
100
AcDbEntity
  8
0
  6
CONTINUOUS
 62
           7
100
AcDbLine
 10
-412.178421258834
 20
-808.966200588238
 11
-412.178421258834
 21
-913.966200588238
  0
LINE
  5
66E
100
AcDbEntity
  8
0
  6
CONTINUOUS
 62
           7
100
AcDbLine
 10
-392.178421258834
 20
-933.966200588238
 11
-332.178421258834
 21
-933.966200588238
  0
LINE
  5
66D
100
AcDbEntity
  8
0
  6
CONTINUOUS
 62
           7
100
AcDbLine
 10
-392.178421258834
 20
-788.966200588238
 11
-332.178421258834
 21
-788.966200588238
  0
LINE
  5
66C
100
AcDbEntity
  8
0
  6
CONTINUOUS
 62
           7
100
AcDbLine
 10
-519.178421258834
 20
-1764.266200588237
 11
-9.178421258834
 21
-1764.266200588237
  0
LINE
  5
66B
100
AcDbEntity
  8
0
  6
CONTINUOUS
 62
           7
100
AcDbLine
 10
-494.178421258834
 20
-1808.8094847667
 11
-494.178421258834
 21
-1837.31178862418
  0
LINE
  5
66A
100
AcDbEntity
  8
0
  6
CONTINUOUS
 62
           7
100
AcDbLine
 10
-34.178421258834
 20
-1809.540313070738
 11
-34.178421258834
 21
-1836.580960320141
  0
LINE
  5
669
100
AcDbEntity
  8
0
  6
CONTINUOUS
 62
           7
100
AcDbLine
 10
-519.178421258834
 20
-1764.266200588237
 11
-519.178421258834
 21
-1824.266200588237
  0
LINE
  5
668
100
AcDbEntity
  8
0
  6
CONTINUOUS
 62
           7
100
AcDbLine
 10
-9.178421258834
 20
-1764.266200588237
 11
-9.178421258834
 21
-1824.266200588237
  0
LINE
  5
667
100
AcDbEntity
  8
0
  6
CONTINUOUS
 62
           7
100
AcDbLine
 10
-182.178421258834
 20
-1689.266200588237
 11
-182.178421258834
 21
-1734.266200588237
  0
LINE
  5
666
100
AcDbEntity
  8
0
  6
CONTINUOUS
 62
           7
100
AcDbLine
 10
-72.178421258834
 20
-1689.266200588237
 11
-72.178421258834
 21
-1734.266200588237
  0
LINE
  5
665
100
AcDbEntity
  8
0
  6
CONTINUOUS
 62
           7
100
AcDbLine
 10
-182.178421258834
 20
-1689.266200588237
 11
-72.178421258834
 21
-1689.266200588237
  0
LINE
  5
664
100
AcDbEntity
  8
0
  6
CONTINUOUS
 62
           7
100
AcDbLine
 10
-182.178421258834
 20
-1734.266200588237
 11
-72.178421258834
 21
-1734.266200588237
  0
POINT
  5
663
100
AcDbEntity
  8
0
 62
           7
100
AcDbPoint
 10
-1593.888060178114
 20
-1274.266200588237
  0
POINT
  5
662
100
AcDbEntity
  8
0
 62
           7
100
AcDbPoint
 10
-1521.388008024054
 20
-1538.266192640951
  0
POINT
  5
661
100
AcDbEntity
  8
0
 62
           7
100
AcDbPoint
 10
-1439.888060178114
 20
-1824.266200588237
  0
POINT
  5
660
100
AcDbEntity
  8
0
 62
           7
100
AcDbPoint
 10
-9.178421258834
 20
-714.266200588238
  0
POINT
  5
65F
100
AcDbEntity
  8
0
 62
           7
100
AcDbPoint
 10
-9.178421258834
 20
-1764.266200588237
  0
POINT
  5
65E
100
AcDbEntity
  8
0
 62
           7
100
AcDbPoint
 10
-9.178421258834
 20
-1764.266200588237
  0
POINT
  5
65D
100
AcDbEntity
  8
0
 62
           7
100
AcDbPoint
 10
-9.178421258834
 20
-1824.266200588237
  0
POINT
  5
65C
100
AcDbEntity
  8
0
 62
           7
100
AcDbPoint
 10
-1449.888060178114
 20
-1764.266200588237
  0
POINT
  5
65B
100
AcDbEntity
  8
0
 62
           7
100
AcDbPoint
 10
-774.888060178114
 20
-1837.727690082324
  0
POINT
  5
65A
100
AcDbEntity
  8
0
 62
           7
100
AcDbPoint
 10
-749.888060178114
 20
-1764.266200588237
  0
POINT
  5
659
100
AcDbEntity
  8
0
 62
           7
100
AcDbPoint
 10
-774.888060178114
 20
-1837.727690082324
  0
POINT
  5
658
100
AcDbEntity
  8
0
 62
           7
100
AcDbPoint
 10
-1424.888060178114
 20
-1834.588033207383
  0
POINT
  5
657
100
AcDbEntity
  8
0
 62
           7
100
AcDbPoint
 10
-749.888060178114
 20
-713.066200588238
  0
POINT
  5
656
100
AcDbEntity
  8
0
 62
           7
100
AcDbPoint
 10
-1593.888060178114
 20
-1249.766200588237
  0
POINT
  5
655
100
AcDbEntity
  8
0
 62
           7
100
AcDbPoint
 10
-1449.888060178114
 20
-714.266200588238
  0
POINT
  5
654
100
AcDbEntity
  8
0
 62
           7
100
AcDbPoint
 10
-1364.888060178114
 20
-666.666200588238
  0
POINT
  5
653
100
AcDbEntity
  8
0
 62
           7
100
AcDbPoint
 10
-864.888060178114
 20
-666.666200588238
  0
POINT
  5
652
100
AcDbEntity
  8
0
 62
           7
100
AcDbPoint
 10
-749.888060178114
 20
-713.066200588238
  0
POINT
  5
651
100
AcDbEntity
  8
0
 62
           7
100
AcDbPoint
 10
-1364.888060178114
 20
-666.666200588238
  0
POINT
  5
650
100
AcDbEntity
  8
0
 62
           7
100
AcDbPoint
 10
-864.888060178114
 20
-666.666200588238
  0
POINT
  5
64F
100
AcDbEntity
  8
0
 62
           7
100
AcDbPoint
 10
-519.178421258834
 20
-714.266200588238
  0
POINT
  5
64E
100
AcDbEntity
  8
0
 62
           7
100
AcDbPoint
 10
-9.178421258834
 20
-714.266200588238
  0
POINT
  5
64D
100
AcDbEntity
  8
0
 62
           7
100
AcDbPoint
 10
-519.178421258834
 20
-714.266200588238
  0
POINT
  5
64C
100
AcDbEntity
  8
0
 62
           7
100
AcDbPoint
 10
-9.178421258834
 20
-714.266200588238
  0
POINT
  5
64B
100
AcDbEntity
  8
0
 62
           7
100
AcDbPoint
 10
-81.178421258834
 20
-666.666200588238
  0
POINT
  5
64A
100
AcDbEntity
  8
0
 62
           7
100
AcDbPoint
 10
-494.178421258834
 20
-1837.31178862418
  0
POINT
  5
649
100
AcDbEntity
  8
0
 62
           7
100
AcDbPoint
 10
-519.178421258834
 20
-1824.266200588237
  0
POINT
  5
648
100
AcDbEntity
  8
0
 62
           7
100
AcDbPoint
 10
-34.178421258834
 20
-1836.580960320141
  0
POINT
  5
647
100
AcDbEntity
  8
0
 62
           7
100
AcDbPoint
 10
-9.178421258834
 20
-1824.266200588237
  0
POINT
  5
646
100
AcDbEntity
  8
0
 62
           7
100
AcDbPoint
 10
-34.178421258834
 20
-1836.580960320141
  0
POINT
  5
645
100
AcDbEntity
  8
0
 62
           7
100
AcDbPoint
 10
-494.178421258834
 20
-1837.31178862418
  0
POINT
  5
644
100
AcDbEntity
  8
0
 62
           7
100
AcDbPoint
 10
-1449.888060178114
 20
-1274.266200588237
  0
POINT
  5
643
100
AcDbEntity
  8
0
 62
           7
100
AcDbPoint
 10
-1484.188060178114
 20
-1274.266200588237
  0
POINT
  5
642
100
AcDbEntity
  8
0
 62
           7
100
AcDbPoint
 10
-1449.888060178114
 20
-1764.266200588237
  0
POINT
  5
641
100
AcDbEntity
  8
0
 62
           7
100
AcDbPoint
 10
-61.178421258834
 20
-1744.266200588237
  0
POINT
  5
640
100
AcDbEntity
  8
0
 62
           7
100
AcDbPoint
 10
-749.888060178114
 20
-1764.266200588237
  0
POINT
  5
63F
100
AcDbEntity
  8
0
 62
           7
100
AcDbPoint
 10
-749.888060178114
 20
-713.066200588238
  0
POINT
  5
63E
100
AcDbEntity
  8
0
 62
           7
100
AcDbPoint
 10
-34.178421258834
 20
-1824.266200588238
  0
POINT
  5
63D
100
AcDbEntity
  8
0
 62
           7
100
AcDbPoint
 10
-1449.888060178114
 20
-1728.266200588237
  0
INSERT
  5
33
100
AcDbEntity
  8
0
100
AcDbBlockReference
  2
KOZU0001__S
 10
-1364.888060178114
 20
37.866666120652
  0
INSERT
  5
34
100
AcDbEntity
  8
0
100
AcDbBlockReference
  2
KOZU0001__S
 10
-864.888060178114
 20
37.866666120652
  0
INSERT
  5
35
100
AcDbEntity
  8
0
100
AcDbBlockReference
  2
KOZU0005__S
 10
-180.678330258834
 20
-743.066200588238
  0
INSERT
  5
36
100
AcDbEntity
  8
0
100
AcDbBlockReference
  2
KOZU0006__S
 10
-362.178421258834
 20
-883.966200588238
  0
INSERT
  5
37
100
AcDbEntity
  8
0
100
AcDbBlockReference
  2
KOZU0007__S
 10
-1449.888060178114
 20
70.866666120652
  0
INSERT
  5
38
100
AcDbEntity
  8
0
100
AcDbBlockReference
  2
KOZU0007__S
 10
-1451.088060178114
 20
-346.133333879348
  0
INSERT
  5
39
100
AcDbEntity
  8
0
100
AcDbBlockReference
  2
KOZU0007__S
 10
-1449.888060178114
 20
-361.133333879348
  0
INSERT
  5
3A
100
AcDbEntity
  8
0
100
AcDbBlockReference
  2
KOZU0007__S
 10
-1451.088060178114
 20
55.866666120652
  0
INSERT
  5
3B
100
AcDbEntity
  8
0
100
AcDbBlockReference
  2
KOZU0008__S
 10
-1099.888060178114
 20
-1429.266200588237
  0
INSERT
  5
3C
100
AcDbEntity
  8
0
100
AcDbBlockReference
  2
KOZU0009__S
 10
-1448.188060178114
 20
-300.133333879348
  0
ENDBLK
  5
819
100
AcDbEntity
  8
0
100
AcDbBlockEnd
  0
ENDSEC
  0
SECTION
  2
ENTITIES
  0
TEXT
  5
81B
100
AcDbEntity
  8
1
 62
           2
100
AcDbText
 10
766.066875786138
 20
-1697.836479801505
 40
24.0
  1
RDG-370C
 41
0.9
  7
CONVERTER_1
100
AcDbText
  0
INSERT
  5
3F
100
AcDbEntity
  8
0
100
AcDbBlockReference
  2
TOP
 10
0.0
 20
0.0
  0
ENDSEC
  0
SECTION
  2
OBJECTS
  0
DICTIONARY
  5
19
100
AcDbDictionary
  3
ACAD_GROUP
350
1A
  3
ACAD_MLINESTYLE
350
1B
  0
DICTIONARY
  5
1A
102
{ACAD_REACTORS
330
19
102
}
100
AcDbDictionary
  0
DICTIONARY
  5
1B
102
{ACAD_REACTORS
330
19
102
}
100
AcDbDictionary
  3
STANDARD
350
1C
  0
MLINESTYLE
  5
1C
102
{ACAD_REACTORS
330
1B
102
}
100
AcDbMlineStyle
  2
STANDARD
 70
           0
  3

 62
           0
 51
90.0
 52
90.0
 71
           2
 49
0.5
 62
         256
  6
BYLAYER
 49
-0.5
 62
         256
  6
BYLAYER
  0
ENDSEC
  0
EOF
