  0
SECTION
  2
HEADER
  9
$ACADVER
  1
AC1014
  9
$ACADMAINTVER
 70
           0
  9
$DWGCODEPAGE
  3
DOS932
  9
$INSBASE
 10
0.0
 20
0.0
 30
0.0
  9
$EXTMIN
 10
1.000000000000E+20
 20
1.000000000000E+20
 30
1.000000000000E+20
  9
$EXTMAX
 10
-1.000000000000E+20
 20
-1.000000000000E+20
 30
-1.000000000000E+20
  9
$LIMMIN
 10
0.0
 20
0.0
  9
$LIMMAX
 10
0.0
 20
0.0
  9
$ORTHOMODE
 70
           0
  9
$REGENMODE
 70
           1
  9
$FILLMODE
 70
           1
  9
$QTEXTMODE
 70
           0
  9
$MIRRTEXT
 70
           1
  9
$DRAGMODE
 70
           2
  9
$LTSCALE
 40
1.0
  9
$OSMODE
 70
           0
  9
$ATTMODE
 70
           1
  9
$TEXTSIZE
 40
0.2
  9
$TRACEWID
 40
0.05
  9
$TEXTSTYLE
  7
STANDARD
  9
$CLAYER
  8
0
  9
$CELTYPE
  6
CONTINUOUS
  9
$CECOLOR
 62
         256
  9
$CELTSCALE
 40
1.0
  9
$DELOBJ
 70
           1
  9
$DISPSILH
 70
           0
  9
$DIMSCALE
 40
1.0
  9
$DIMASZ
 40
0.18
  9
$DIMEXO
 40
0.0625
  9
$DIMDLI
 40
0.38
  9
$DIMRND
 40
0.0
  9
$DIMDLE
 40
0.0
  9
$DIMEXE
 40
0.18
  9
$DIMTP
 40
0.0
  9
$DIMTM
 40
0.0
  9
$DIMTXT
 40
0.18
  9
$DIMCEN
 40
0.09
  9
$DIMTSZ
 40
0.0
  9
$DIMTOL
 70
           0
  9
$DIMLIM
 70
           0
  9
$DIMTIH
 70
           1
  9
$DIMTOH
 70
           1
  9
$DIMSE1
 70
           0
  9
$DIMSE2
 70
           0
  9
$DIMTAD
 70
           0
  9
$DIMZIN
 70
           0
  9
$DIMBLK
  1

  9
$DIMASO
 70
           1
  9
$DIMSHO
 70
           1
  9
$DIMPOST
  1

  9
$DIMAPOST
  1

  9
$DIMALT
 70
           0
  9
$DIMALTD
 70
           2
  9
$DIMALTF
 40
25.4
  9
$DIMLFAC
 40
1.0
  9
$DIMTOFL
 70
           0
  9
$DIMTVP
 40
0.0
  9
$DIMTIX
 70
           0
  9
$DIMSOXD
 70
           0
  9
$DIMSAH
 70
           0
  9
$DIMBLK1
  1

  9
$DIMBLK2
  1

  9
$DIMSTYLE
  2
STANDARD
  9
$DIMCLRD
 70
           0
  9
$DIMCLRE
 70
           0
  9
$DIMCLRT
 70
           0
  9
$DIMTFAC
 40
1.0
  9
$DIMGAP
 40
0.09
  9
$DIMJUST
 70
           0
  9
$DIMSD1
 70
           0
  9
$DIMSD2
 70
           0
  9
$DIMTOLJ
 70
           1
  9
$DIMTZIN
 70
           0
  9
$DIMALTZ
 70
           0
  9
$DIMALTTZ
 70
           0
  9
$DIMFIT
 70
           3
  9
$DIMUPT
 70
           0
  9
$DIMUNIT
 70
           2
  9
$DIMDEC
 70
           4
  9
$DIMTDEC
 70
           4
  9
$DIMALTU
 70
           2
  9
$DIMALTTD
 70
           2
  9
$DIMTXSTY
  7
STANDARD
  9
$DIMAUNIT
 70
           0
  9
$LUNITS
 70
           2
  9
$LUPREC
 70
           4
  9
$SKETCHINC
 40
0.1
  9
$FILLETRAD
 40
0.0
  9
$AUNITS
 70
           0
  9
$AUPREC
 70
           0
  9
$MENU
  1
acad
  9
$ELEVATION
 40
0.0
  9
$PELEVATION
 40
0.0
  9
$THICKNESS
 40
0.0
  9
$LIMCHECK
 70
           0
  9
$BLIPMODE
 70
           1
  9
$CHAMFERA
 40
0.0
  9
$CHAMFERB
 40
0.0
  9
$CHAMFERC
 40
0.0
  9
$CHAMFERD
 40
0.0
  9
$SKPOLY
 70
           0
  9
$TDCREATE
 40
0.000000000
  9
$TDUPDATE
 40
0.000000000
  9
$TDINDWG
 40
0.0000000000
  9
$TDUSRTIMER
 40
0.0000000000
  9
$USRTIMER
 70
           1
  9
$ANGBASE
 50
0.0
  9
$ANGDIR
 70
           0
  9
$PDMODE
 70
           0
  9
$PDSIZE
 40
0.0
  9
$PLINEWID
 40
0.0
  9
$COORDS
 70
           0
  9
$SPLFRAME
 70
           0
  9
$SPLINETYPE
 70
           6
  9
$SPLINESEGS
 70
           8
  9
$ATTDIA
 70
           0
  9
$ATTREQ
 70
           1
  9
$HANDLING
 70
           1
  9
$HANDSEED
  5
1B6
  9
$SURFTAB1
 70
           6
  9
$SURFTAB2
 70
           6
  9
$SURFTYPE
 70
           6
  9
$SURFU
 70
           6
  9
$SURFV
 70
           6
  9
$UCSNAME
  2

  9
$UCSORG
 10
0.0
 20
0.0
 30
0.0
  9
$UCSXDIR
 10
1.0
 20
0.0
 30
0.0
  9
$UCSYDIR
 10
0.0
 20
1.0
 30
0.0
  9
$PUCSNAME
  2

  9
$PUCSORG
 10
0.0
 20
0.0
 30
0.0
  9
$PUCSXDIR
 10
1.0
 20
0.0
 30
0.0
  9
$PUCSYDIR
 10
0.0
 20
1.0
 30
0.0
  9
$USERI1
 70
           0
  9
$USERI2
 70
           0
  9
$USERI3
 70
           0
  9
$USERI4
 70
           0
  9
$USERI5
 70
           0
  9
$USERR1
 40
0.0
  9
$USERR2
 40
0.0
  9
$USERR3
 40
0.0
  9
$USERR4
 40
0.0
  9
$USERR5
 40
0.0
  9
$WORLDVIEW
 70
           1
  9
$SHADEDGE
 70
           3
  9
$SHADEDIF
 70
          70
  9
$TILEMODE
 70
           1
  9
$MAXACTVP
 70
          16
  9
$PINSBASE
 10
0.0
 20
0.0
 30
0.0
  9
$PLIMCHECK
 70
           0
  9
$PEXTMIN
 10
1.000000000000E+20
 20
1.000000000000E+20
 30
1.000000000000E+20
  9
$PEXTMAX
 10
-1.000000000000E+20
 20
-1.000000000000E+20
 30
-1.000000000000E+20
  9
$PLIMMIN
 10
0.0
 20
0.0
  9
$PLIMMAX
 10
12.0
 20
9.0
  9
$UNITMODE
 70
           0
  9
$VISRETAIN
 70
           0
  9
$PLINEGEN
 70
           1
  9
$PSLTSCALE
 70
           0
  9
$TREEDEPTH
 70
        3020
  9
$PICKSTYLE
 70
           1
  9
$CMLSTYLE
  2
STANDARD
  9
$CMLJUST
 70
           0
  9
$CMLSCALE
 40
1.0
  9
$PROXYGRAPHICS
 70
           0
  9
$MEASUREMENT
 70
           0
  0
ENDSEC
  0
SECTION
  2
CLASSES
  0
CLASS
  1
LWPOLYLINE
  2
AcDbPolyline
  3
"AutoCAD"
 90
        0
280
           0
281
           1
  0
CLASS
  1
IMAGE
  2
AcDbRasterImage
  3
ISM
 90
      127
280
           0
281
           1
  0
CLASS
  1
OLE2FRAME
  2
AcDbOle2Frame
  3
""
 90
        0
280
           0
281
           1
  0
CLASS
  1
HATCH
  2
AcDbHatch
  3
"ACAD_SEDONA"
 90
        0
280
           0
281
           1
  0
CLASS
  1
DICTIONARYVAR
  2
AcDbDictionaryVar
  3
"AutoCAD"
 90
        0
280
           0
281
           0
  0
CLASS
  1
RASTERVARIABLES
  2
AcDbRasterVariables
  3
ISM
 90
        0
280
           0
281
           0
  0
CLASS
  1
IMAGEDEF
  2
AcDbRasterImageDef
  3
ISM
 90
        0
280
           0
281
           0
  0
CLASS
  1
IMAGEDEF_REACTOR
  2
AcDbRasterImageDefReactor
  3
ISM
 90
        1
280
           0
281
           0
  0
CLASS
  1
IDBUFFER
  2
AcDbIdBuffer
  3
"Acad"
 90
        0
280
           0
281
           0
  0
CLASS
  1
SPATIAL_FILTER
  2
AcDbSpatialFilter
  3
"Acad"
 90
        0
280
           0
281
           0
  0
CLASS
  1
XRECORD
  2
AcDbXrecord
  3
"<Built In>"
 90
        0
280
           0
281
           0
  0
CLASS
  1
SORTENTSTABLE
  2
AcDbSortentsTable
  3
"AutoCAD"
 90
        0
280
           0
281
           0
  0
CLASS
  1
LAYER_INDEX
  2
AcDbLayerIndex
  3
"Acad"
 90
        0
280
           0
281
           0
  0
CLASS
  1
SPATIAL_INDEX
  2
AcDbSpatialIndex
  3
"Acad"
 90
        0
280
           0
281
           0
  0
CLASS
  1
OBJECT_PTR
  2
CAseDLPNTableRecord
  3
"ASE-LPNTableRecord"
 90
        1
280
           0
281
           0
  0
CLASS
  1
LAYOUT
  2
AcDbLayout
  3
"AutoCAD 2000"
 90
        1
280
           0
281
           0
  0
CLASS
  1
PLOTSETTINGS
  2
AcDbPlotSettings
  3
"AutoCAD 2000"
 90
        1
280
           0
281
           0
  0
CLASS
  1
ACDBDICTIONARYWDFLT
  2
AcDbDictionaryWithDefault
  3
"AutoCAD 2000"
 90
        1
280
           0
281
           0
  0
CLASS
  1
ACDBPLACEHOLDER
  2
AcDbPlaceHolder
  3
"AutoCAD 2000"
 90
        1
280
           0
281
           0
  0
CLASS
  1
VBA_PROJECT
  2
AcDbVbaProject
  3
"acadvba"
 90
        1
280
           0
281
           0
  0
CLASS
  1
WIPEOUT
  2
AcDbWipeout
  3
WipeOut|AutoCAD Express Tool|expresstools@autodesk.com
 90
      127
280
           0
281
           1
  0
CLASS
  1
WIPEOUTVARIABLES
  2
AcDbWipeoutVariables
  3
WipeOut|AutoCAD Express Tool|expresstools@autodesk.com
 90
        0
280
           0
281
           0
  0
CLASS
  1
RTEXT
  2
RText
  3
RText|AutoCAD Express Tool|expresstools@autodesk.com
 90
        0
280
           0
281
           1
  0
CLASS
  1
ARCALIGNEDTEXT
  2
AcDbArcAlignedText
  3
ATEXT|AutoCAD Express Tool|expresstools@autodesk.com
 90
        0
280
           0
281
           1
  0
ENDSEC
  0
SECTION
  2
TABLES
  0
TABLE
  2
VPORT
  5
7
100
AcDbSymbolTable
 70
           1
  0
VPORT
  5
15
100
AcDbSymbolTableRecord
100
AcDbViewportTableRecord
  2
*ACTIVE
 70
           0
 10
0.0
 20
0.0
 11
1.0
 21
1.0
 12
6.591288
 22
4.579184
 13
0.0
 23
0.0
 14
1.0
 24
1.0
 15
0.0
 25
0.0
 16
0.0
 26
0.0
 36
1.0
 17
0.0
 27
0.0
 37
0.0
 40
9.158369
 41
0.688564
 42
50.0
 43
0.0
 44
0.0
 50
0.0
 51
0.0
 71
           0
 72
         100
 73
           1
 74
           1
 75
           0
 76
           0
 77
           0
 78
           0
  0
ENDTAB
  0
TABLE
  2
LTYPE
  5
4
100
AcDbSymbolTable
 70
          10
  0
LTYPE
  5
11
100
AcDbSymbolTableRecord
100
AcDbLinetypeTableRecord
  2
BYBLOCK
 70
          64
  3

 72
          65
 73
           0
 40
0.0
  0
LTYPE
  5
12
100
AcDbSymbolTableRecord
100
AcDbLinetypeTableRecord
  2
BYLAYER
 70
          64
  3

 72
          65
 73
           0
 40
0.0
  0
LTYPE
  5
13
100
AcDbSymbolTableRecord
100
AcDbLinetypeTableRecord
  2
CONTINUOUS
 70
          64
  3
Solid line
 72
          65
 73
           0
 40
0.0
  0
LTYPE
  5
1D
100
AcDbSymbolTableRecord
100
AcDbLinetypeTableRecord
  2
DASHED
 70
          64
  3
Dashed
 72
          65
 73
           2
 40
15.0
 49
12.0
 74
           0
 49
-3.0
 74
           0
  0
LTYPE
  5
1E
100
AcDbSymbolTableRecord
100
AcDbLinetypeTableRecord
  2
DOTTED
 70
          64
  3
Dotted
 72
          65
 73
           2
 40
3.5
 49
0.5
 74
           0
 49
-3.0
 74
           0
  0
LTYPE
  5
1F
100
AcDbSymbolTableRecord
100
AcDbLinetypeTableRecord
  2
DOT_CENTER
 70
          64
  3
Dot_Center
 72
          65
 73
           4
 40
2.0
 49
1.25
 74
           0
 49
-0.25
 74
           0
 49
0.25
 74
           0
 49
-0.25
 74
           0
  0
LTYPE
  5
20
100
AcDbSymbolTableRecord
100
AcDbLinetypeTableRecord
  2
LONG_DASHED
 70
          64
  3
Long_Dashed
 72
          65
 73
           2
 40
2.0
 49
1.5
 74
           0
 49
-0.5
 74
           0
  0
LTYPE
  5
21
100
AcDbSymbolTableRecord
100
AcDbLinetypeTableRecord
  2
DASH_CENTER
 70
          64
  3
Dash_Center
 72
          65
 73
           4
 40
36.0
 49
24.0
 74
           0
 49
-3.0
 74
           0
 49
6.0
 74
           0
 49
-3.0
 74
           0
  0
LTYPE
  5
22
100
AcDbSymbolTableRecord
100
AcDbLinetypeTableRecord
  2
PHANTOM
 70
          64
  3
Phantom
 72
          65
 73
           6
 40
2.5
 49
1.25
 74
           0
 49
-0.25
 74
           0
 49
0.25
 74
           0
 49
-0.25
 74
           0
 49
0.25
 74
           0
 49
-0.25
 74
           0
  0
LTYPE
  5
23
100
AcDbSymbolTableRecord
100
AcDbLinetypeTableRecord
  2
CENTER_DASH_DASH
 70
          64
  3
Center_Dash_Dash
 72
          65
 73
           6
 40
22.0
 49
12.0
 74
           0
 49
-3.0
 74
           0
 49
0.5
 74
           0
 49
-3.0
 74
           0
 49
0.5
 74
           0
 49
-3.0
 74
           0
  0
ENDTAB
  0
TABLE
  2
LAYER
  5
2
100
AcDbSymbolTable
 70
           6
  0
LAYER
  5
14
100
AcDbSymbolTableRecord
100
AcDbLayerTableRecord
  2
0
 70
           0
 62
           7
  6
CONTINUOUS
  0
LAYER
  5
24
100
AcDbSymbolTableRecord
100
AcDbLayerTableRecord
  2
AM_0
 70
           0
 62
           7
  6
CONTINUOUS
  0
LAYER
  5
25
100
AcDbSymbolTableRecord
100
AcDbLayerTableRecord
  2
AM_5
 70
           0
 62
           7
  6
CONTINUOUS
  0
LAYER
  5
26
100
AcDbSymbolTableRecord
100
AcDbLayerTableRecord
  2
AM_7
 70
           0
 62
           7
  6
CONTINUOUS
  0
LAYER
  5
27
100
AcDbSymbolTableRecord
100
AcDbLayerTableRecord
  2
976
 70
           0
 62
           7
  6
CONTINUOUS
  0
LAYER
  5
28
100
AcDbSymbolTableRecord
100
AcDbLayerTableRecord
  2
1
 70
           0
 62
           7
  6
CONTINUOUS
  0
ENDTAB
  0
TABLE
  2
STYLE
  5
3
100
AcDbSymbolTable
 70
           2
  0
STYLE
  5
17
100
AcDbSymbolTableRecord
100
AcDbTextStyleTableRecord
  2
STANDARD
 70
           0
 40
0.0
 41
1.0
 50
0.0
 71
           0
 42
0.0
  3
txt
  4

  0
STYLE
  5
1AD
100
AcDbSymbolTableRecord
100
AcDbTextStyleTableRecord
  2
CONVERTER_1
 70
           0
 40
0.0
 41
0.9
 50
0.0
 71
           0
 42
0.0
  3
txt.shx
  4

  0
ENDTAB
  0
TABLE
  2
VIEW
  5
5
100
AcDbSymbolTable
 70
           0
  0
ENDTAB
  0
TABLE
  2
UCS
  5
6
100
AcDbSymbolTable
 70
           0
  0
ENDTAB
  0
TABLE
  2
APPID
  5
8
100
AcDbSymbolTable
 70
           1
  0
APPID
  5
16
100
AcDbSymbolTableRecord
100
AcDbRegAppTableRecord
  2
ACAD
 70
           0
  0
ENDTAB
  0
TABLE
  2
DIMSTYLE
  5
9
100
AcDbSymbolTable
 70
           1
  0
DIMSTYLE
105
18
100
AcDbSymbolTableRecord
100
AcDbDimStyleTableRecord
  2
STANDARD
 70
           0
  3

  4

  5

  6

  7

 40
1.0
 41
0.18
 42
0.0625
 43
0.38
 44
0.18
 45
0.0
 46
0.0
 47
0.0
 48
0.0
 71
           0
 72
           0
 73
           1
 74
           1
 75
           0
 76
           0
 77
           0
 78
           0
140
0.18
141
0.09
142
0.0
143
25.4
144
1.0
145
0.0
146
1.0
147
0.09
170
           0
171
           2
172
           0
173
           0
174
           0
175
           0
176
           0
177
           0
178
           0
270
           2
271
           4
272
           4
273
           2
274
           2
275
           0
280
           0
281
           0
282
           0
283
           1
284
           0
285
           0
286
           0
287
           0
288
           0
340
17
  0
ENDTAB
  0
TABLE
  2
BLOCK_RECORD
  5
1
100
AcDbSymbolTable
 70
           3
  0
BLOCK_RECORD
  5
A
100
AcDbSymbolTableRecord
100
AcDbBlockTableRecord
  2
*MODEL_SPACE
  0
BLOCK_RECORD
  5
B
100
AcDbSymbolTableRecord
100
AcDbBlockTableRecord
  2
*PAPER_SPACE
  0
BLOCK_RECORD
  5
29
100
AcDbSymbolTableRecord
100
AcDbBlockTableRecord
  2
3_AF40_02C_2_A_0
  0
BLOCK_RECORD
  5
2B
100
AcDbSymbolTableRecord
100
AcDbBlockTableRecord
  2
1_AF40_02C_2_A_0
  0
BLOCK_RECORD
  5
2E
100
AcDbSymbolTableRecord
100
AcDbBlockTableRecord
  2
ALF800B_10DDATA
  0
ENDTAB
  0
ENDSEC
  0
SECTION
  2
BLOCKS
  0
BLOCK
  5
D
100
AcDbEntity
  8
0
100
AcDbBlockBegin
  2
*MODEL_SPACE
 70
           0
 10
0.0
 20
0.0
 30
0.0
  3
*MODEL_SPACE
  1

  0
ENDBLK
  5
E
100
AcDbEntity
  8
0
100
AcDbBlockEnd
  0
BLOCK
  5
F
100
AcDbEntity
 67
           1
  8
0
100
AcDbBlockBegin
  2
*PAPER_SPACE
 70
           0
 10
0.0
 20
0.0
 30
0.0
  3
*PAPER_SPACE
  1

  0
ENDBLK
  5
10
100
AcDbEntity
 67
           1
  8
0
100
AcDbBlockEnd
  0
BLOCK
  5
2A
100
AcDbEntity
  8
0
100
AcDbBlockBegin
  2
3_AF40_02C_2_A_0
 70
           0
 10
0.0
 20
0.0
 30
0.0
  3
3_AF40_02C_2_A_0
  1

  0
TEXT
  5
1B0
100
AcDbEntity
  8
976
 62
           2
100
AcDbText
 10
-533.893162876608
 20
240.56535889099
 40
7.0
  1
OUT
 41
0.9
  7
CONVERTER_1
100
AcDbText
  0
TEXT
  5
1AF
100
AcDbEntity
  8
976
 62
           2
100
AcDbText
 10
-621.456267597158
 20
240.052380312101
 40
7.0
  1
IN
 41
0.9
  7
CONVERTER_1
100
AcDbText
  0
TEXT
  5
1AE
100
AcDbEntity
  8
1
 62
           2
100
AcDbText
 10
-186.754621328948
 20
75.465583852842
 40
6.0
  1
ALF800B-10D
 41
0.9
  7
CONVERTER_1
100
AcDbText
  0
LEADER
  5
1AC
100
AcDbEntity
  8
976
  6
CONTINUOUS
 62
           2
100
AcDbLeader
  3
Standard
 71
           0
 73
           3
 74
           0
 75
           0
 40
0.0
 76
           2
 10
-519.343955848171
 20
237.109579235692
 30
0.0
 10
-529.831565237323
 20
237.109579235692
 30
0.0
 77
           2
  0
LEADER
  5
1AA
100
AcDbEntity
  8
976
  6
CONTINUOUS
 62
           2
100
AcDbLeader
  3
Standard
 71
           0
 73
           3
 74
           0
 75
           0
 40
0.0
 76
           2
 10
-612.118831532371
 20
236.719531912329
 30
0.0
 10
-622.606440921523
 20
236.719531912329
 30
0.0
 77
           2
  0
CIRCLE
  5
1A8
100
AcDbEntity
  8
AM_0
  6
CONTINUOUS
 62
           7
100
AcDbCircle
 10
-596.872413631875
 20
406.971189632158
 40
2.067
  0
CIRCLE
  5
1A7
100
AcDbEntity
  8
AM_0
  6
CONTINUOUS
 62
           7
100
AcDbCircle
 10
-549.872413631875
 20
406.971189632158
 40
2.067
  0
CIRCLE
  5
1A6
100
AcDbEntity
  8
AM_0
  6
CONTINUOUS
 62
           7
100
AcDbCircle
 10
-549.872413631875
 20
346.971189632158
 40
2.067
  0
CIRCLE
  5
1A5
100
AcDbEntity
  8
AM_0
  6
CONTINUOUS
 62
           7
100
AcDbCircle
 10
-596.872413631875
 20
346.971189632158
 40
2.067
  0
CIRCLE
  5
1A4
100
AcDbEntity
  8
AM_5
  6
CONTINUOUS
 62
           3
100
AcDbCircle
 10
-549.872413631875
 20
346.971189632158
 40
2.5
  0
CIRCLE
  5
1A3
100
AcDbEntity
  8
AM_5
  6
CONTINUOUS
 62
           3
100
AcDbCircle
 10
-596.872413631875
 20
346.971189632158
 40
2.5
  0
CIRCLE
  5
1A2
100
AcDbEntity
  8
AM_0
  6
CONTINUOUS
 62
           7
100
AcDbCircle
 10
-412.582411953408
 20
233.181187953691
 40
5.7225
  0
CIRCLE
  5
1A1
100
AcDbEntity
  8
AM_5
  6
CONTINUOUS
 62
           3
100
AcDbCircle
 10
-412.582411953408
 20
233.181187953691
 40
6.5785
  0
CIRCLE
  5
1A0
100
AcDbEntity
  8
AM_0
  6
CONTINUOUS
 62
           7
100
AcDbCircle
 10
-734.162415310342
 20
233.181187953691
 40
5.7225
  0
CIRCLE
  5
19F
100
AcDbEntity
  8
AM_5
  6
CONTINUOUS
 62
           3
100
AcDbCircle
 10
-734.162415310342
 20
233.181187953691
 40
6.5785
  0
ARC
  5
19E
100
AcDbEntity
  8
AM_0
  6
CONTINUOUS
 62
           7
100
AcDbCircle
 10
-752.762415310342
 20
92.275495067703
 40
10.2
100
AcDbArc
 50
180.0
 51
-105.000000000001
  0
ARC
  5
19D
100
AcDbEntity
  8
AM_0
  6
CONTINUOUS
 62
           7
100
AcDbCircle
 10
-573.372413631875
 20
376.971189632158
 40
38.4
100
AcDbArc
 50
-102.611754908338
 51
-77.388245091661
  0
ARC
  5
19C
100
AcDbEntity
  8
AM_0
  6
CONTINUOUS
 62
           7
100
AcDbCircle
 10
-550.965486427294
 20
406.471189632158
 40
6.000000000001
100
AcDbArc
 50
14.999999999997
 51
90.0
  0
ARC
  5
19B
100
AcDbEntity
  8
AM_0
  6
CONTINUOUS
 62
           7
100
AcDbCircle
 10
-595.779340836457
 20
406.471189632158
 40
6.0
100
AcDbArc
 50
90.0
 51
165.000000000001
  0
ARC
  5
19A
100
AcDbEntity
  8
AM_0
  6
CONTINUOUS
 62
           7
100
AcDbCircle
 10
-595.779340836457
 20
347.471189632158
 40
6.0
100
AcDbArc
 50
-164.999999999992
 51
-89.999999999999
  0
ARC
  5
199
100
AcDbEntity
  8
AM_0
  6
CONTINUOUS
 62
           7
100
AcDbCircle
 10
-550.965486427294
 20
347.471189632158
 40
6.0
100
AcDbArc
 50
-90.0
 51
-14.999999999997
  0
ARC
  5
198
100
AcDbEntity
  8
AM_0
  6
CONTINUOUS
 62
           7
100
AcDbCircle
 10
-573.372413631875
 20
376.971189632158
 40
27.0
100
AcDbArc
 50
42.343413804063
 51
137.656586195937
  0
ARC
  5
197
100
AcDbEntity
  8
AM_0
  6
CONTINUOUS
 62
           7
100
AcDbCircle
 10
-573.372413631875
 20
376.971189632158
 40
27.0
100
AcDbArc
 50
-137.656586195935
 51
-42.343413804065
  0
ARC
  5
196
100
AcDbEntity
  8
AM_5
  6
CONTINUOUS
 62
           3
100
AcDbCircle
 10
-549.872413631875
 20
406.971189632158
 40
2.499999999999
100
AcDbArc
 50
75.000000000002
 51
14.999999999998
  0
ARC
  5
195
100
AcDbEntity
  8
AM_5
  6
CONTINUOUS
 62
           3
100
AcDbCircle
 10
-596.872413631875
 20
406.971189632158
 40
2.499999999999
100
AcDbArc
 50
74.999999999997
 51
14.999999999995
  0
ARC
  5
194
100
AcDbEntity
  8
AM_5
  6
CONTINUOUS
 62
           3
100
AcDbCircle
 10
-549.872413631875
 20
406.971189632158
 40
2.499999999999
100
AcDbArc
 50
14.999999999998
 51
-75.000000000006
  0
ARC
  5
193
100
AcDbEntity
  8
AM_5
  6
CONTINUOUS
 62
           3
100
AcDbCircle
 10
-596.872413631875
 20
406.971189632158
 40
2.5
100
AcDbArc
 50
14.999999999995
 51
-75.000000000001
  0
ARC
  5
192
100
AcDbEntity
  8
AM_0
  6
CONTINUOUS
 62
           7
100
AcDbCircle
 10
-431.182411953408
 20
92.275495067703
 40
10.2
100
AcDbArc
 50
180.0
 51
-105.000000000001
  0
ARC
  5
191
100
AcDbEntity
  8
AM_0
  6
CONTINUOUS
 62
           7
100
AcDbCircle
 10
-393.982411953408
 20
92.275495067703
 40
10.199999999999
100
AcDbArc
 50
-75.000000000003
 51
0.0
  0
ARC
  5
190
100
AcDbEntity
  8
AM_0
  6
CONTINUOUS
 62
           7
100
AcDbCircle
 10
-591.972413631875
 20
92.275495067703
 40
10.2
100
AcDbArc
 50
180.0
 51
-105.0
  0
ARC
  5
18F
100
AcDbEntity
  8
AM_0
  6
CONTINUOUS
 62
           7
100
AcDbCircle
 10
-554.772413631875
 20
92.275495067703
 40
10.2
100
AcDbArc
 50
-74.999999999998
 51
0.0
  0
ARC
  5
18E
100
AcDbEntity
  8
AM_0
  6
CONTINUOUS
 62
           7
100
AcDbCircle
 10
-715.562415310342
 20
92.275495067703
 40
10.2
100
AcDbArc
 50
-74.999999999999
 51
0.0
  0
LINE
  5
18D
100
AcDbEntity
  8
1
  6
DOT_CENTER
 62
           3
100
AcDbLine
 10
-609.240365410988
 20
233.181187953691
 11
-537.27932939428
 21
233.181187953691
  0
LINE
  5
18C
100
AcDbEntity
  8
AM_0
  6
CONTINUOUS
 62
           7
100
AcDbLine
 10
-723.190570565376
 20
70.327241914694
 11
-722.162415310342
 21
70.606718400285
  0
LINE
  5
18B
100
AcDbEntity
  8
AM_0
  6
CONTINUOUS
 62
           7
100
AcDbLine
 10
-724.224846221181
 20
70.136632058526
 11
-723.190570565376
 21
70.327241914694
  0
LINE
  5
18A
100
AcDbEntity
  8
AM_0
  6
CONTINUOUS
 62
           7
100
AcDbLine
 10
-725.48784222143
 20
70.038299325814
 11
-724.224846221181
 21
70.136632058526
  0
LINE
  5
189
100
AcDbEntity
  8
AM_0
  6
CONTINUOUS
 62
           7
100
AcDbLine
 10
-726.752157126305
 20
70.091269578341
 11
-725.48784222143
 21
70.038299325814
  0
LINE
  5
188
100
AcDbEntity
  8
AM_0
  6
CONTINUOUS
 62
           7
100
AcDbLine
 10
-727.978457442664
 20
70.286477724019
 11
-726.752157126305
 21
70.091269578341
  0
LINE
  5
187
100
AcDbEntity
  8
AM_0
  6
CONTINUOUS
 62
           7
100
AcDbLine
 10
-729.191852561865
 20
70.606718400285
 11
-727.978457442664
 21
70.286477724019
  0
LINE
  5
186
100
AcDbEntity
  8
AM_0
  6
CONTINUOUS
 62
           7
100
AcDbLine
 10
-728.16369730683
 20
76.732099504148
 11
-729.191852561865
 21
76.452623018557
  0
LINE
  5
185
100
AcDbEntity
  8
AM_0
  6
CONTINUOUS
 62
           7
100
AcDbLine
 10
-727.129421651025
 20
76.922709360316
 11
-728.16369730683
 21
76.732099504148
  0
LINE
  5
184
100
AcDbEntity
  8
AM_0
  6
CONTINUOUS
 62
           7
100
AcDbLine
 10
-725.866425650777
 20
77.021042093028
 11
-727.129421651025
 21
76.922709360316
  0
LINE
  5
183
100
AcDbEntity
  8
AM_0
  6
CONTINUOUS
 62
           7
100
AcDbLine
 10
-724.602110745901
 20
76.968071840501
 11
-725.866425650777
 21
77.021042093028
  0
LINE
  5
182
100
AcDbEntity
  8
AM_0
  6
CONTINUOUS
 62
           7
100
AcDbLine
 10
-723.375810429543
 20
76.772863694823
 11
-724.602110745901
 21
76.968071840501
  0
LINE
  5
181
100
AcDbEntity
  8
AM_0
  6
CONTINUOUS
 62
           7
100
AcDbLine
 10
-722.162415310342
 20
76.452623018557
 11
-723.375810429543
 21
76.772863694823
  0
LINE
  5
180
100
AcDbEntity
  8
AM_0
  6
CONTINUOUS
 62
           7
100
AcDbLine
 10
-737.927251169694
 20
76.690481113299
 11
-739.132978058819
 21
76.452623018557
  0
LINE
  5
17F
100
AcDbEntity
  8
AM_0
  6
CONTINUOUS
 62
           7
100
AcDbLine
 10
-736.208859507956
 20
76.922964446779
 11
-737.927251169694
 21
76.690481113299
  0
LINE
  5
17E
100
AcDbEntity
  8
AM_0
  6
CONTINUOUS
 62
           7
100
AcDbLine
 10
-734.477912378553
 20
77.021058818673
 11
-736.208859507956
 21
76.922964446779
  0
LINE
  5
17D
100
AcDbEntity
  8
AM_0
  6
CONTINUOUS
 62
           7
100
AcDbLine
 10
-732.788195930339
 20
76.977682134819
 11
-734.477912378553
 21
77.021058818673
  0
LINE
  5
17C
100
AcDbEntity
  8
AM_0
  6
CONTINUOUS
 62
           7
100
AcDbLine
 10
-731.106824647339
 20
76.802375673441
 11
-732.788195930339
 21
76.977682134819
  0
LINE
  5
17B
100
AcDbEntity
  8
AM_0
  6
CONTINUOUS
 62
           7
100
AcDbLine
 10
-729.191852561865
 20
76.452623018557
 11
-731.106824647339
 21
76.802375673441
  0
LINE
  5
17A
100
AcDbEntity
  8
AM_0
  6
CONTINUOUS
 62
           7
100
AcDbLine
 10
-745.134260055307
 20
76.732099504148
 11
-746.162415310342
 21
76.452623018557
  0
LINE
  5
179
100
AcDbEntity
  8
AM_0
  6
CONTINUOUS
 62
           7
100
AcDbLine
 10
-744.099984399502
 20
76.922709360316
 11
-745.134260055307
 21
76.732099504148
  0
LINE
  5
178
100
AcDbEntity
  8
AM_0
  6
CONTINUOUS
 62
           7
100
AcDbLine
 10
-742.836988399254
 20
77.021042093028
 11
-744.099984399502
 21
76.922709360316
  0
LINE
  5
177
100
AcDbEntity
  8
AM_0
  6
CONTINUOUS
 62
           7
100
AcDbLine
 10
-741.572673494378
 20
76.968071840501
 11
-742.836988399254
 21
77.021042093028
  0
LINE
  5
176
100
AcDbEntity
  8
AM_0
  6
CONTINUOUS
 62
           7
100
AcDbLine
 10
-740.34637317802
 20
76.772863694823
 11
-741.572673494378
 21
76.968071840501
  0
LINE
  5
175
100
AcDbEntity
  8
AM_0
  6
CONTINUOUS
 62
           7
100
AcDbLine
 10
-739.132978058819
 20
76.452623018557
 11
-740.34637317802
 21
76.772863694823
  0
LINE
  5
174
100
AcDbEntity
  8
AM_0
  6
CONTINUOUS
 62
           7
100
AcDbLine
 10
-731.029635812252
 20
70.26809277775
 11
-729.191852561865
 21
70.606718400285
  0
LINE
  5
173
100
AcDbEntity
  8
AM_0
  6
CONTINUOUS
 62
           7
100
AcDbLine
 10
-732.749764237128
 20
70.084261545319
 11
-731.029635812252
 21
70.26809277775
  0
LINE
  5
172
100
AcDbEntity
  8
AM_0
  6
CONTINUOUS
 62
           7
100
AcDbLine
 10
-734.478838903025
 20
70.038296679989
 11
-732.749764237128
 21
70.084261545319
  0
LINE
  5
171
100
AcDbEntity
  8
AM_0
  6
CONTINUOUS
 62
           7
100
AcDbLine
 10
-736.163252059288
 20
70.13195587275
 11
-734.478838903025
 21
70.038296679989
  0
LINE
  5
170
100
AcDbEntity
  8
AM_0
  6
CONTINUOUS
 62
           7
100
AcDbLine
 10
-737.835976317218
 20
70.353259784017
 11
-736.163252059288
 21
70.13195587275
  0
LINE
  5
16F
100
AcDbEntity
  8
AM_0
  6
CONTINUOUS
 62
           7
100
AcDbLine
 10
-739.132978058819
 20
70.606718400285
 11
-737.835976317218
 21
70.353259784017
  0
LINE
  5
16E
100
AcDbEntity
  8
AM_0
  6
CONTINUOUS
 62
           7
100
AcDbLine
 10
-740.161133313854
 20
70.327241914694
 11
-739.132978058819
 21
70.606718400285
  0
LINE
  5
16D
100
AcDbEntity
  8
AM_0
  6
CONTINUOUS
 62
           7
100
AcDbLine
 10
-741.195408969659
 20
70.136632058526
 11
-740.161133313854
 21
70.327241914694
  0
LINE
  5
16C
100
AcDbEntity
  8
AM_0
  6
CONTINUOUS
 62
           7
100
AcDbLine
 10
-742.458404969907
 20
70.038299325814
 11
-741.195408969659
 21
70.136632058526
  0
LINE
  5
16B
100
AcDbEntity
  8
AM_0
  6
CONTINUOUS
 62
           7
100
AcDbLine
 10
-743.722719874783
 20
70.091269578341
 11
-742.458404969907
 21
70.038299325814
  0
LINE
  5
16A
100
AcDbEntity
  8
AM_0
  6
CONTINUOUS
 62
           7
100
AcDbLine
 10
-744.949020191141
 20
70.286477724019
 11
-743.722719874783
 21
70.091269578341
  0
LINE
  5
169
100
AcDbEntity
  8
AM_0
  6
CONTINUOUS
 62
           7
100
AcDbLine
 10
-746.162415310342
 20
70.606718400285
 11
-744.949020191141
 21
70.286477724019
  0
LINE
  5
168
100
AcDbEntity
  8
AM_0
  6
CONTINUOUS
 62
           7
100
AcDbLine
 10
-721.662415310342
 20
80.081187953691
 11
-746.662415310342
 21
80.081187953691
  0
LINE
  5
167
100
AcDbEntity
  8
AM_0
  6
CONTINUOUS
 62
           7
100
AcDbLine
 10
-755.402369570388
 20
82.423051639555
 11
-746.662415310342
 21
80.081187953691
  0
LINE
  5
166
100
AcDbEntity
  8
AM_0
  6
CONTINUOUS
 62
           7
100
AcDbLine
 10
-721.662415310342
 20
80.081187953691
 11
-712.922461050296
 21
82.423051639555
  0
LINE
  5
165
100
AcDbEntity
  8
AM_0
  6
CONTINUOUS
 62
           7
100
AcDbLine
 10
-721.662415310342
 20
77.081187953691
 11
-746.662415310342
 21
77.081187953691
  0
LINE
  5
164
100
AcDbEntity
  8
AM_0
  6
CONTINUOUS
 62
           7
100
AcDbLine
 10
-721.662415310342
 20
77.081187953691
 11
-721.662415310342
 21
80.081187953691
  0
LINE
  5
163
100
AcDbEntity
  8
AM_0
  6
CONTINUOUS
 62
           7
100
AcDbLine
 10
-746.662415310342
 20
80.081187953691
 11
-746.662415310342
 21
77.081187953691
  0
LINE
  5
162
100
AcDbEntity
  8
AM_0
  6
CONTINUOUS
 62
           7
100
AcDbLine
 10
-729.191852561865
 20
70.606718400285
 11
-729.191852561865
 21
76.452623018557
  0
LINE
  5
161
100
AcDbEntity
  8
AM_0
  6
CONTINUOUS
 62
           7
100
AcDbLine
 10
-722.162415310342
 20
77.023452926772
 11
-722.162415310342
 21
70.03588849207
  0
LINE
  5
160
100
AcDbEntity
  8
AM_0
  6
CONTINUOUS
 62
           7
100
AcDbLine
 10
-722.162415310342
 20
77.023452926772
 11
-722.262415310342
 21
77.081187953691
  0
LINE
  5
15F
100
AcDbEntity
  8
AM_0
  6
CONTINUOUS
 62
           7
100
AcDbLine
 10
-746.062415310342
 20
77.081187953691
 11
-746.162415310342
 21
77.023452922931
  0
LINE
  5
15E
100
AcDbEntity
  8
AM_0
  6
CONTINUOUS
 62
           7
100
AcDbLine
 10
-746.162415310342
 20
70.03588849207
 11
-746.162415310342
 21
77.023452922931
  0
LINE
  5
15D
100
AcDbEntity
  8
AM_0
  6
CONTINUOUS
 62
           7
100
AcDbLine
 10
-739.132978058819
 20
70.606718400285
 11
-739.132978058819
 21
76.452623018557
  0
LINE
  5
15C
100
AcDbEntity
  8
AM_0
  6
CONTINUOUS
 62
           7
100
AcDbLine
 10
-724.162415310342
 20
68.881187953691
 11
-744.162415310342
 21
68.881187953691
  0
LINE
  5
15B
100
AcDbEntity
  8
AM_0
  6
CONTINUOUS
 62
           7
100
AcDbLine
 10
-746.162415310342
 20
70.03588849207
 11
-744.162415310342
 21
68.881187953691
  0
LINE
  5
15A
100
AcDbEntity
  8
AM_0
  6
CONTINUOUS
 62
           7
100
AcDbLine
 10
-724.162415310342
 20
68.881187953691
 11
-722.162415310342
 21
70.03588849207
  0
LINE
  5
159
100
AcDbEntity
  8
AM_0
  6
CONTINUOUS
 62
           7
100
AcDbLine
 10
-724.162415310342
 20
47.881187953691
 11
-744.162415310342
 21
47.881187953691
  0
LINE
  5
158
100
AcDbEntity
  8
AM_0
  6
CONTINUOUS
 62
           7
100
AcDbLine
 10
-724.162415310342
 20
47.881187953691
 11
-724.162415310342
 21
68.881187953691
  0
LINE
  5
157
100
AcDbEntity
  8
AM_0
  6
CONTINUOUS
 62
           7
100
AcDbLine
 10
-744.162415310342
 20
68.881187953691
 11
-744.162415310342
 21
47.881187953691
  0
LINE
  5
156
100
AcDbEntity
  8
AM_0
  6
CONTINUOUS
 62
           7
100
AcDbLine
 10
-725.912415310342
 20
45.781187953691
 11
-742.412415310342
 21
45.781187953691
  0
LINE
  5
155
100
AcDbEntity
  8
AM_0
  6
CONTINUOUS
 62
           7
100
AcDbLine
 10
-725.912415310342
 20
44.281187953691
 11
-742.412415310342
 21
44.281187953691
  0
LINE
  5
154
100
AcDbEntity
  8
AM_0
  6
CONTINUOUS
 62
           7
100
AcDbLine
 10
-725.912415310342
 20
44.281187953691
 11
-725.912415310342
 21
45.781187953691
  0
LINE
  5
153
100
AcDbEntity
  8
AM_0
  6
CONTINUOUS
 62
           7
100
AcDbLine
 10
-742.412415310342
 20
45.781187953691
 11
-742.412415310342
 21
44.281187953691
  0
LINE
  5
152
100
AcDbEntity
  8
AM_0
  6
CONTINUOUS
 62
           7
100
AcDbLine
 10
-728.612415310342
 20
45.781187953691
 11
-728.612415310342
 21
47.881187953691
  0
LINE
  5
151
100
AcDbEntity
  8
AM_0
  6
CONTINUOUS
 62
           7
100
AcDbLine
 10
-739.712415310342
 20
47.881187953691
 11
-739.712415310342
 21
45.781187953691
  0
LINE
  5
150
100
AcDbEntity
  8
AM_7
  6
DOT_CENTER
 62
           3
100
AcDbLine
 10
-573.372413631875
 20
346.731189632158
 11
-573.372413631875
 21
407.211189632158
  0
LINE
  5
14F
100
AcDbEntity
  8
AM_7
  6
CONTINUOUS
 62
           4
100
AcDbLine
 10
-552.497413631875
 20
406.971189632158
 11
-547.247413631875
 21
406.971189632158
  0
LINE
  5
14E
100
AcDbEntity
  8
AM_7
  6
CONTINUOUS
 62
           4
100
AcDbLine
 10
-549.872413631875
 20
404.346189632158
 11
-549.872413631875
 21
409.596189632158
  0
LINE
  5
14D
100
AcDbEntity
  8
AM_7
  6
CONTINUOUS
 62
           4
100
AcDbLine
 10
-599.497413631875
 20
406.971189632158
 11
-594.247413631875
 21
406.971189632158
  0
LINE
  5
14C
100
AcDbEntity
  8
AM_7
  6
CONTINUOUS
 62
           4
100
AcDbLine
 10
-596.872413631875
 20
404.346189632158
 11
-596.872413631875
 21
409.596189632158
  0
LINE
  5
14B
100
AcDbEntity
  8
AM_7
  6
CONTINUOUS
 62
           4
100
AcDbLine
 10
-552.497413631875
 20
346.971189632158
 11
-547.247413631875
 21
346.971189632158
  0
LINE
  5
14A
100
AcDbEntity
  8
AM_7
  6
CONTINUOUS
 62
           4
100
AcDbLine
 10
-549.872413631875
 20
344.346189632158
 11
-549.872413631875
 21
349.596189632158
  0
LINE
  5
149
100
AcDbEntity
  8
AM_7
  6
CONTINUOUS
 62
           4
100
AcDbLine
 10
-599.497413631875
 20
346.971189632158
 11
-594.247413631875
 21
346.971189632158
  0
LINE
  5
148
100
AcDbEntity
  8
AM_7
  6
CONTINUOUS
 62
           4
100
AcDbLine
 10
-596.872413631875
 20
344.346189632158
 11
-596.872413631875
 21
349.596189632158
  0
LINE
  5
147
100
AcDbEntity
  8
AM_7
  6
DOT_CENTER
 62
           3
100
AcDbLine
 10
-609.107607977647
 20
376.971189632158
 11
-537.637219286103
 21
376.971189632158
  0
LINE
  5
146
100
AcDbEntity
  8
AM_0
  6
CONTINUOUS
 62
           7
100
AcDbLine
 10
-581.756802407408
 20
339.497705341786
 11
-582.104780933804
 21
341.471189632158
  0
LINE
  5
145
100
AcDbEntity
  8
AM_0
  6
CONTINUOUS
 62
           7
100
AcDbLine
 10
-564.640046329946
 20
341.471189632158
 11
-564.988024856342
 21
339.497705341786
  0
LINE
  5
144
100
AcDbEntity
  8
AM_0
  6
CONTINUOUS
 62
           7
100
AcDbLine
 10
-601.574895794191
 20
408.024103902773
 11
-605.072413631875
 21
394.971189632158
  0
LINE
  5
143
100
AcDbEntity
  8
AM_0
  6
CONTINUOUS
 62
           7
100
AcDbLine
 10
-541.672413631875
 20
394.971189632158
 11
-545.169931469559
 21
408.024103902773
  0
LINE
  5
142
100
AcDbEntity
  8
AM_0
  6
CONTINUOUS
 62
           7
100
AcDbLine
 10
-550.965486427294
 20
412.471189632158
 11
-595.779340836457
 21
412.471189632158
  0
LINE
  5
141
100
AcDbEntity
  8
AM_0
  6
CONTINUOUS
 62
           7
100
AcDbLine
 10
-545.169931469559
 20
345.918275361543
 11
-541.672413631875
 21
358.971189632158
  0
LINE
  5
140
100
AcDbEntity
  8
AM_0
  6
CONTINUOUS
 62
           7
100
AcDbLine
 10
-605.072413631875
 20
358.971189632158
 11
-601.574895794191
 21
345.918275361542
  0
LINE
  5
13F
100
AcDbEntity
  8
AM_0
  6
CONTINUOUS
 62
           7
100
AcDbLine
 10
-595.779340836457
 20
341.471189632158
 11
-550.965486427294
 21
341.471189632158
  0
LINE
  5
13E
100
AcDbEntity
  8
AM_0
  6
CONTINUOUS
 62
           7
100
AcDbLine
 10
-593.328678791054
 20
395.157653854115
 11
-594.272413631875
 21
391.471189632158
  0
LINE
  5
13D
100
AcDbEntity
  8
AM_0
  6
CONTINUOUS
 62
           7
100
AcDbLine
 10
-552.472413631875
 20
391.471189632158
 11
-553.416148472696
 21
395.157653854115
  0
LINE
  5
13C
100
AcDbEntity
  8
AM_0
  6
CONTINUOUS
 62
           7
100
AcDbLine
 10
-594.272413631875
 20
362.471189632158
 11
-593.328678791054
 21
358.7847254102
  0
LINE
  5
13B
100
AcDbEntity
  8
AM_0
  6
CONTINUOUS
 62
           7
100
AcDbLine
 10
-553.416148472696
 20
358.7847254102
 11
-552.472413631875
 21
362.471189632158
  0
LINE
  5
13A
100
AcDbEntity
  8
AM_0
  6
CONTINUOUS
 62
           7
100
AcDbLine
 10
-595.372413631875
 20
376.971189632158
 11
-600.872413631875
 21
380.146616112701
  0
LINE
  5
139
100
AcDbEntity
  8
AM_0
  6
CONTINUOUS
 62
           7
100
AcDbLine
 10
-600.872413631875
 20
380.146616112701
 11
-600.872413631875
 21
378.271189632158
  0
LINE
  5
138
100
AcDbEntity
  8
AM_0
  6
CONTINUOUS
 62
           7
100
AcDbLine
 10
-604.372413631875
 20
378.271189632158
 11
-604.372413631875
 21
375.671189632158
  0
LINE
  5
137
100
AcDbEntity
  8
AM_0
  6
CONTINUOUS
 62
           7
100
AcDbLine
 10
-604.372413631875
 20
375.671189632158
 11
-600.872413631875
 21
375.671189632158
  0
LINE
  5
136
100
AcDbEntity
  8
AM_0
  6
CONTINUOUS
 62
           7
100
AcDbLine
 10
-600.872413631875
 20
375.671189632158
 11
-600.872413631875
 21
373.795763151615
  0
LINE
  5
135
100
AcDbEntity
  8
AM_0
  6
CONTINUOUS
 62
           7
100
AcDbLine
 10
-600.872413631875
 20
373.795763151615
 11
-595.372413631875
 21
376.971189632158
  0
LINE
  5
134
100
AcDbEntity
  8
AM_0
  6
CONTINUOUS
 62
           7
100
AcDbLine
 10
-600.872413631875
 20
378.271189632158
 11
-604.372413631875
 21
378.271189632158
  0
LINE
  5
133
100
AcDbEntity
  8
AM_0
  6
CONTINUOUS
 62
           7
100
AcDbLine
 10
-605.072413631875
 20
358.971189632158
 11
-603.051687689711
 21
362.471189632158
  0
LINE
  5
132
100
AcDbEntity
  8
AM_0
  6
CONTINUOUS
 62
           7
100
AcDbLine
 10
-603.051687689711
 20
362.471189632158
 11
-543.693139574039
 21
362.471189632158
  0
LINE
  5
131
100
AcDbEntity
  8
AM_0
  6
CONTINUOUS
 62
           7
100
AcDbLine
 10
-543.693139574039
 20
362.471189632158
 11
-541.672413631875
 21
358.971189632158
  0
LINE
  5
130
100
AcDbEntity
  8
AM_0
  6
CONTINUOUS
 62
           7
100
AcDbLine
 10
-538.372413631875
 20
358.971189632158
 11
-541.672413631875
 21
358.971189632158
  0
LINE
  5
12F
100
AcDbEntity
  8
AM_0
  6
CONTINUOUS
 62
           7
100
AcDbLine
 10
-538.372413631875
 20
364.471189632158
 11
-608.372413631875
 21
364.471189632158
  0
LINE
  5
12E
100
AcDbEntity
  8
AM_0
  6
CONTINUOUS
 62
           7
100
AcDbLine
 10
-608.372413631875
 20
358.971189632158
 11
-608.372413631875
 21
394.971189632158
  0
LINE
  5
12D
100
AcDbEntity
  8
AM_0
  6
CONTINUOUS
 62
           7
100
AcDbLine
 10
-605.072413631875
 20
358.971189632158
 11
-608.372413631875
 21
358.971189632158
  0
LINE
  5
12C
100
AcDbEntity
  8
AM_0
  6
CONTINUOUS
 62
           7
100
AcDbLine
 10
-541.672413631875
 20
394.971189632158
 11
-543.693139574039
 21
391.471189632158
  0
LINE
  5
12B
100
AcDbEntity
  8
AM_0
  6
CONTINUOUS
 62
           7
100
AcDbLine
 10
-543.693139574039
 20
391.471189632158
 11
-603.051687689711
 21
391.471189632158
  0
LINE
  5
12A
100
AcDbEntity
  8
AM_0
  6
CONTINUOUS
 62
           7
100
AcDbLine
 10
-603.051687689711
 20
391.471189632158
 11
-605.072413631875
 21
394.971189632158
  0
LINE
  5
129
100
AcDbEntity
  8
AM_0
  6
CONTINUOUS
 62
           7
100
AcDbLine
 10
-605.072413631875
 20
394.971189632158
 11
-608.372413631875
 21
394.971189632158
  0
LINE
  5
128
100
AcDbEntity
  8
AM_0
  6
CONTINUOUS
 62
           7
100
AcDbLine
 10
-538.372413631875
 20
389.471189632158
 11
-608.372413631875
 21
389.471189632158
  0
LINE
  5
127
100
AcDbEntity
  8
AM_0
  6
CONTINUOUS
 62
           7
100
AcDbLine
 10
-538.372413631875
 20
358.971189632158
 11
-538.372413631875
 21
394.971189632158
  0
LINE
  5
126
100
AcDbEntity
  8
AM_0
  6
CONTINUOUS
 62
           7
100
AcDbLine
 10
-538.372413631875
 20
394.971189632158
 11
-541.672413631875
 21
394.971189632158
  0
LINE
  5
125
100
AcDbEntity
  8
AM_7
  6
DOT_CENTER
 62
           3
100
AcDbLine
 10
-419.489836953408
 20
233.181187953691
 11
-405.674986953408
 21
233.181187953691
  0
LINE
  5
124
100
AcDbEntity
  8
AM_7
  6
DOT_CENTER
 62
           3
100
AcDbLine
 10
-412.582411953408
 20
20.162271552237
 11
-412.582411953408
 21
260.500409295637
  0
LINE
  5
123
100
AcDbEntity
  8
AM_0
  6
CONTINUOUS
 62
           7
100
AcDbLine
 10
-418.132411953408
 20
47.881187953691
 11
-418.132411953408
 21
45.781187953691
  0
LINE
  5
122
100
AcDbEntity
  8
AM_0
  6
CONTINUOUS
 62
           7
100
AcDbLine
 10
-407.032411953408
 20
45.781187953691
 11
-407.032411953408
 21
47.881187953691
  0
LINE
  5
121
100
AcDbEntity
  8
AM_0
  6
CONTINUOUS
 62
           7
100
AcDbLine
 10
-404.332411953408
 20
45.781187953691
 11
-420.832411953408
 21
45.781187953691
  0
LINE
  5
120
100
AcDbEntity
  8
AM_0
  6
CONTINUOUS
 62
           7
100
AcDbLine
 10
-404.332411953408
 20
44.281187953691
 11
-420.832411953408
 21
44.281187953691
  0
LINE
  5
11F
100
AcDbEntity
  8
AM_0
  6
CONTINUOUS
 62
           7
100
AcDbLine
 10
-420.832411953408
 20
45.781187953691
 11
-420.832411953408
 21
44.281187953691
  0
LINE
  5
11E
100
AcDbEntity
  8
AM_0
  6
CONTINUOUS
 62
           7
100
AcDbLine
 10
-404.332411953408
 20
44.281187953691
 11
-404.332411953408
 21
45.781187953691
  0
LINE
  5
11D
100
AcDbEntity
  8
AM_0
  6
CONTINUOUS
 62
           7
100
AcDbLine
 10
-402.582411953408
 20
47.881187953691
 11
-422.582411953408
 21
47.881187953691
  0
LINE
  5
11C
100
AcDbEntity
  8
AM_0
  6
CONTINUOUS
 62
           7
100
AcDbLine
 10
-422.582411953408
 20
68.881187953691
 11
-422.582411953408
 21
47.881187953691
  0
LINE
  5
11B
100
AcDbEntity
  8
AM_0
  6
CONTINUOUS
 62
           7
100
AcDbLine
 10
-402.582411953408
 20
47.881187953691
 11
-402.582411953408
 21
68.881187953691
  0
LINE
  5
11A
100
AcDbEntity
  8
AM_0
  6
CONTINUOUS
 62
           7
100
AcDbLine
 10
-424.482411953408
 20
77.081187953691
 11
-424.582411953408
 21
77.023452926772
  0
LINE
  5
119
100
AcDbEntity
  8
AM_0
  6
CONTINUOUS
 62
           7
100
AcDbLine
 10
-400.582411953408
 20
77.023452926772
 11
-400.682411953408
 21
77.081187953691
  0
LINE
  5
118
100
AcDbEntity
  8
AM_0
  6
CONTINUOUS
 62
           7
100
AcDbLine
 10
-402.582411953408
 20
68.881187953691
 11
-422.582411953408
 21
68.881187953691
  0
LINE
  5
117
100
AcDbEntity
  8
AM_0
  6
CONTINUOUS
 62
           7
100
AcDbLine
 10
-400.582411953408
 20
77.023452926772
 11
-400.582411953408
 21
70.035888496312
  0
LINE
  5
116
100
AcDbEntity
  8
AM_0
  6
CONTINUOUS
 62
           7
100
AcDbLine
 10
-402.582411953408
 20
68.881187953691
 11
-400.582411953408
 21
70.035888496312
  0
LINE
  5
115
100
AcDbEntity
  8
AM_0
  6
CONTINUOUS
 62
           7
100
AcDbLine
 10
-424.582411953408
 20
70.03588849207
 11
-422.582411953408
 21
68.881187953691
  0
LINE
  5
114
100
AcDbEntity
  8
AM_0
  6
CONTINUOUS
 62
           7
100
AcDbLine
 10
-424.582411953408
 20
70.03588849207
 11
-424.582411953408
 21
77.023452926772
  0
LINE
  5
113
100
AcDbEntity
  8
AM_0
  6
CONTINUOUS
 62
           7
100
AcDbLine
 10
-417.552974701885
 20
70.606718400285
 11
-417.552974701885
 21
76.452623018557
  0
LINE
  5
112
100
AcDbEntity
  8
AM_0
  6
CONTINUOUS
 62
           7
100
AcDbLine
 10
-407.611849204931
 20
70.606718400285
 11
-407.611849204931
 21
76.452623018557
  0
LINE
  5
111
100
AcDbEntity
  8
AM_0
  6
CONTINUOUS
 62
           7
100
AcDbLine
 10
-446.382411953408
 20
167.131187953691
 11
-446.382411953408
 21
174.631187953691
  0
LINE
  5
110
100
AcDbEntity
  8
AM_0
  6
CONTINUOUS
 62
           7
100
AcDbLine
 10
-440.852360662241
 20
167.131187953691
 11
-446.382411953408
 21
167.131187953691
  0
LINE
  5
10F
100
AcDbEntity
  8
AM_0
  6
CONTINUOUS
 62
           7
100
AcDbLine
 10
-447.982411953408
 20
173.381187953691
 11
-450.982411953408
 21
173.381187953691
  0
LINE
  5
10E
100
AcDbEntity
  8
AM_0
  6
CONTINUOUS
 62
           7
100
AcDbLine
 10
-450.982411953408
 20
173.381187953691
 11
-450.982411953408
 21
171.981187953691
  0
LINE
  5
10D
100
AcDbEntity
  8
AM_0
  6
CONTINUOUS
 62
           7
100
AcDbLine
 10
-440.036919779993
 20
174.631187953691
 11
-446.582411953408
 21
174.631187953691
  0
LINE
  5
10C
100
AcDbEntity
  8
AM_0
  6
CONTINUOUS
 62
           7
100
AcDbLine
 10
-440.036919779993
 20
187.641187953691
 11
-446.582411953408
 21
187.641187953691
  0
LINE
  5
10B
100
AcDbEntity
  8
AM_0
  6
CONTINUOUS
 62
           7
100
AcDbLine
 10
-446.582411953408
 20
171.981187953691
 11
-446.582411953408
 21
191.881187953691
  0
LINE
  5
10A
100
AcDbEntity
  8
AM_0
  6
CONTINUOUS
 62
           7
100
AcDbLine
 10
-450.05589624378
 20
171.981187953691
 11
-450.05589624378
 21
173.381187953691
  0
LINE
  5
109
100
AcDbEntity
  8
AM_0
  6
CONTINUOUS
 62
           7
100
AcDbLine
 10
-447.982411953408
 20
190.01612444423
 11
-446.582411953408
 21
190.01612444423
  0
LINE
  5
108
100
AcDbEntity
  8
AM_0
  6
CONTINUOUS
 62
           7
100
AcDbLine
 10
-447.982411953408
 20
171.981187953691
 11
-447.982411953408
 21
191.881187953691
  0
LINE
  5
107
100
AcDbEntity
  8
AM_0
  6
CONTINUOUS
 62
           7
100
AcDbLine
 10
-446.582411953408
 20
171.981187953691
 11
-450.982411953408
 21
171.981187953691
  0
LINE
  5
106
100
AcDbEntity
  8
AM_0
  6
CONTINUOUS
 62
           7
100
AcDbLine
 10
-400.082411953408
 20
77.081187953691
 11
-425.082411953408
 21
77.081187953691
  0
LINE
  5
105
100
AcDbEntity
  8
AM_0
  6
CONTINUOUS
 62
           7
100
AcDbLine
 10
-425.082411953408
 20
80.081187953691
 11
-425.082411953408
 21
77.081187953691
  0
LINE
  5
104
100
AcDbEntity
  8
AM_0
  6
CONTINUOUS
 62
           7
100
AcDbLine
 10
-400.082411953408
 20
77.081187953691
 11
-400.082411953408
 21
80.081187953691
  0
LINE
  5
103
100
AcDbEntity
  8
AM_0
  6
CONTINUOUS
 62
           7
100
AcDbLine
 10
-400.082411953408
 20
80.081187953691
 11
-425.082411953408
 21
80.081187953691
  0
LINE
  5
102
100
AcDbEntity
  8
AM_0
  6
CONTINUOUS
 62
           7
100
AcDbLine
 10
-400.082411953408
 20
80.081187953691
 11
-391.342457693363
 21
82.423051639555
  0
LINE
  5
101
100
AcDbEntity
  8
AM_0
  6
CONTINUOUS
 62
           7
100
AcDbLine
 10
-433.822366213454
 20
82.423051639555
 11
-425.082411953408
 21
80.081187953691
  0
LINE
  5
100
100
AcDbEntity
  8
AM_0
  6
CONTINUOUS
 62
           7
100
AcDbLine
 10
-440.036919779993
 20
187.641187953691
 11
-440.036919779993
 21
174.631187953691
  0
LINE
  5
FF
100
AcDbEntity
  8
AM_0
  6
CONTINUOUS
 62
           7
100
AcDbLine
 10
-440.852360662241
 20
174.631187953691
 11
-440.852360662241
 21
167.131187953691
  0
LINE
  5
FE
100
AcDbEntity
  8
AM_0
  6
CONTINUOUS
 62
           7
100
AcDbLine
 10
-441.382411953409
 20
191.881187953691
 11
-441.382411953409
 21
187.641187953691
  0
LINE
  5
FD
100
AcDbEntity
  8
AM_0
  6
CONTINUOUS
 62
           7
100
AcDbLine
 10
-441.382411953409
 20
167.131187953691
 11
-441.382411953408
 21
92.275495067703
  0
LINE
  5
FC
100
AcDbEntity
  8
AM_0
  6
CONTINUOUS
 62
           7
100
AcDbLine
 10
-383.782411953408
 20
92.275495067703
 11
-383.782411953408
 21
191.881187953691
  0
LINE
  5
FB
100
AcDbEntity
  8
AM_0
  6
CONTINUOUS
 62
           7
100
AcDbLine
 10
-394.582411953408
 20
245.181187953691
 11
-385.582411953408
 21
245.181187953691
  0
LINE
  5
FA
100
AcDbEntity
  8
AM_0
  6
CONTINUOUS
 62
           7
100
AcDbLine
 10
-385.582411953408
 20
221.181187953691
 11
-385.582411953408
 21
245.181187953691
  0
LINE
  5
F9
100
AcDbEntity
  8
AM_0
  6
CONTINUOUS
 62
           7
100
AcDbLine
 10
-439.582411953408
 20
245.181187953691
 11
-439.582411953408
 21
221.181187953691
  0
LINE
  5
F8
100
AcDbEntity
  8
AM_0
  6
CONTINUOUS
 62
           7
100
AcDbLine
 10
-439.582411953408
 20
245.181187953691
 11
-430.582411953408
 21
245.181187953691
  0
LINE
  5
F7
100
AcDbEntity
  8
AM_0
  6
CONTINUOUS
 62
           7
100
AcDbLine
 10
-394.395947731451
 20
245.181187953691
 11
-394.395947731451
 21
221.181187953691
  0
LINE
  5
F6
100
AcDbEntity
  8
AM_0
  6
CONTINUOUS
 62
           7
100
AcDbLine
 10
-430.768876175366
 20
245.181187953691
 11
-430.768876175366
 21
221.181187953691
  0
LINE
  5
F5
100
AcDbEntity
  8
AM_0
  6
CONTINUOUS
 62
           7
100
AcDbLine
 10
-394.582411953408
 20
221.181187953691
 11
-377.082411953408
 21
221.181187953691
  0
LINE
  5
F4
100
AcDbEntity
  8
AM_0
  6
CONTINUOUS
 62
           7
100
AcDbLine
 10
-377.082411953408
 20
221.181187953691
 11
-377.082411953408
 21
191.881187953691
  0
LINE
  5
F3
100
AcDbEntity
  8
AM_0
  6
CONTINUOUS
 62
           7
100
AcDbLine
 10
-448.082411953408
 20
191.881187953691
 11
-377.082411953408
 21
191.881187953691
  0
LINE
  5
F2
100
AcDbEntity
  8
AM_0
  6
CONTINUOUS
 62
           7
100
AcDbLine
 10
-448.082411953408
 20
221.181187953691
 11
-430.582411953408
 21
221.181187953691
  0
LINE
  5
F1
100
AcDbEntity
  8
AM_0
  6
CONTINUOUS
 62
           7
100
AcDbLine
 10
-448.082411953408
 20
221.181187953691
 11
-448.082411953408
 21
191.881187953691
  0
LINE
  5
F0
100
AcDbEntity
  8
AM_0
  6
CONTINUOUS
 62
           7
100
AcDbLine
 10
-400.082411953408
 20
251.181187953691
 11
-394.582411953408
 21
245.681187953691
  0
LINE
  5
EF
100
AcDbEntity
  8
AM_0
  6
CONTINUOUS
 62
           7
100
AcDbLine
 10
-430.582411953408
 20
245.681187953691
 11
-425.082411953408
 21
251.181187953691
  0
LINE
  5
EE
100
AcDbEntity
  8
AM_0
  6
CONTINUOUS
 62
           7
100
AcDbLine
 10
-425.082411953408
 20
251.181187953691
 11
-400.082411953408
 21
251.181187953691
  0
LINE
  5
ED
100
AcDbEntity
  8
AM_0
  6
CONTINUOUS
 62
           7
100
AcDbLine
 10
-394.582411953408
 20
245.681187953691
 11
-394.582411953408
 21
191.881187953691
  0
LINE
  5
EC
100
AcDbEntity
  8
AM_0
  6
CONTINUOUS
 62
           7
100
AcDbLine
 10
-430.582411953408
 20
215.181187953691
 11
-394.582411953408
 21
215.181187953691
  0
LINE
  5
EB
100
AcDbEntity
  8
AM_0
  6
CONTINUOUS
 62
           7
100
AcDbLine
 10
-430.582411953408
 20
245.681187953691
 11
-430.582411953408
 21
191.881187953691
  0
LINE
  5
EA
100
AcDbEntity
  8
AM_0
  6
CONTINUOUS
 62
           7
100
AcDbLine
 10
-430.582411953408
 20
211.981187953691
 11
-394.582411953408
 21
211.981187953691
  0
LINE
  5
E9
100
AcDbEntity
  8
AM_0
  6
CONTINUOUS
 62
           7
100
AcDbLine
 10
-417.552974701885
 20
76.452623018557
 11
-418.766369821086
 21
76.772863694823
  0
LINE
  5
E8
100
AcDbEntity
  8
AM_0
  6
CONTINUOUS
 62
           7
100
AcDbLine
 10
-418.766369821086
 20
76.772863694823
 11
-419.992670137445
 21
76.968071840501
  0
LINE
  5
E7
100
AcDbEntity
  8
AM_0
  6
CONTINUOUS
 62
           7
100
AcDbLine
 10
-419.992670137445
 20
76.968071840501
 11
-421.25698504232
 21
77.021042093028
  0
LINE
  5
E6
100
AcDbEntity
  8
AM_0
  6
CONTINUOUS
 62
           7
100
AcDbLine
 10
-421.25698504232
 20
77.021042093028
 11
-422.519981042569
 21
76.922709360316
  0
LINE
  5
E5
100
AcDbEntity
  8
AM_0
  6
CONTINUOUS
 62
           7
100
AcDbLine
 10
-422.519981042569
 20
76.922709360316
 11
-423.554256698374
 21
76.732099504148
  0
LINE
  5
E4
100
AcDbEntity
  8
AM_0
  6
CONTINUOUS
 62
           7
100
AcDbLine
 10
-423.554256698374
 20
76.732099504148
 11
-424.582411953408
 21
76.452623018557
  0
LINE
  5
E3
100
AcDbEntity
  8
AM_0
  6
CONTINUOUS
 62
           7
100
AcDbLine
 10
-400.582411953408
 20
76.452623018557
 11
-401.795807072609
 21
76.772863694823
  0
LINE
  5
E2
100
AcDbEntity
  8
AM_0
  6
CONTINUOUS
 62
           7
100
AcDbLine
 10
-401.795807072609
 20
76.772863694823
 11
-403.022107388968
 21
76.968071840501
  0
LINE
  5
E1
100
AcDbEntity
  8
AM_0
  6
CONTINUOUS
 62
           7
100
AcDbLine
 10
-403.022107388968
 20
76.968071840501
 11
-404.286422293843
 21
77.021042093028
  0
LINE
  5
E0
100
AcDbEntity
  8
AM_0
  6
CONTINUOUS
 62
           7
100
AcDbLine
 10
-404.286422293843
 20
77.021042093028
 11
-405.549418294092
 21
76.922709360316
  0
LINE
  5
DF
100
AcDbEntity
  8
AM_0
  6
CONTINUOUS
 62
           7
100
AcDbLine
 10
-405.549418294092
 20
76.922709360316
 11
-406.583693949897
 21
76.732099504148
  0
LINE
  5
DE
100
AcDbEntity
  8
AM_0
  6
CONTINUOUS
 62
           7
100
AcDbLine
 10
-406.583693949897
 20
76.732099504148
 11
-407.611849204931
 21
76.452623018557
  0
LINE
  5
DD
100
AcDbEntity
  8
AM_0
  6
CONTINUOUS
 62
           7
100
AcDbLine
 10
-407.611849204931
 20
70.606718400285
 11
-406.39845408573
 21
70.286477724019
  0
LINE
  5
DC
100
AcDbEntity
  8
AM_0
  6
CONTINUOUS
 62
           7
100
AcDbLine
 10
-406.39845408573
 20
70.286477724019
 11
-405.172153769372
 21
70.091269578341
  0
LINE
  5
DB
100
AcDbEntity
  8
AM_0
  6
CONTINUOUS
 62
           7
100
AcDbLine
 10
-405.172153769372
 20
70.091269578341
 11
-403.907838864496
 21
70.038299325814
  0
LINE
  5
DA
100
AcDbEntity
  8
AM_0
  6
CONTINUOUS
 62
           7
100
AcDbLine
 10
-403.907838864496
 20
70.038299325814
 11
-402.644842864248
 21
70.136632058526
  0
LINE
  5
D9
100
AcDbEntity
  8
AM_0
  6
CONTINUOUS
 62
           7
100
AcDbLine
 10
-402.644842864248
 20
70.136632058526
 11
-401.610567208443
 21
70.327241914694
  0
LINE
  5
D8
100
AcDbEntity
  8
AM_0
  6
CONTINUOUS
 62
           7
100
AcDbLine
 10
-401.610567208443
 20
70.327241914694
 11
-400.582411953408
 21
70.606718400285
  0
LINE
  5
D7
100
AcDbEntity
  8
AM_0
  6
CONTINUOUS
 62
           7
100
AcDbLine
 10
-424.582411953408
 20
70.606718400285
 11
-423.369016834208
 21
70.286477724019
  0
LINE
  5
D6
100
AcDbEntity
  8
AM_0
  6
CONTINUOUS
 62
           7
100
AcDbLine
 10
-423.369016834208
 20
70.286477724019
 11
-422.142716517849
 21
70.091269578341
  0
LINE
  5
D5
100
AcDbEntity
  8
AM_0
  6
CONTINUOUS
 62
           7
100
AcDbLine
 10
-422.142716517849
 20
70.091269578341
 11
-420.878401612974
 21
70.038299325814
  0
LINE
  5
D4
100
AcDbEntity
  8
AM_0
  6
CONTINUOUS
 62
           7
100
AcDbLine
 10
-420.878401612974
 20
70.038299325814
 11
-419.615405612725
 21
70.136632058526
  0
LINE
  5
D3
100
AcDbEntity
  8
AM_0
  6
CONTINUOUS
 62
           7
100
AcDbLine
 10
-419.615405612725
 20
70.136632058526
 11
-418.58112995692
 21
70.327241914694
  0
LINE
  5
D2
100
AcDbEntity
  8
AM_0
  6
CONTINUOUS
 62
           7
100
AcDbLine
 10
-418.58112995692
 20
70.327241914694
 11
-417.552974701885
 21
70.606718400285
  0
LINE
  5
D1
100
AcDbEntity
  8
AM_0
  6
CONTINUOUS
 62
           7
100
AcDbLine
 10
-407.611849204931
 20
76.452623018557
 11
-408.817576094056
 21
76.690481113299
  0
LINE
  5
D0
100
AcDbEntity
  8
AM_0
  6
CONTINUOUS
 62
           7
100
AcDbLine
 10
-408.817576094056
 20
76.690481113299
 11
-410.488069737586
 21
76.918727195916
  0
LINE
  5
CF
100
AcDbEntity
  8
AM_0
  6
CONTINUOUS
 62
           7
100
AcDbLine
 10
-410.488069737586
 20
76.918727195916
 11
-412.18058247428
 21
77.019569724371
  0
LINE
  5
CE
100
AcDbEntity
  8
AM_0
  6
CONTINUOUS
 62
           7
100
AcDbLine
 10
-412.18058247428
 20
77.019569724371
 11
-413.907933395619
 21
76.981314054162
  0
LINE
  5
CD
100
AcDbEntity
  8
AM_0
  6
CONTINUOUS
 62
           7
100
AcDbLine
 10
-413.907933395619
 20
76.981314054162
 11
-415.638002616411
 21
76.802375673441
  0
LINE
  5
CC
100
AcDbEntity
  8
AM_0
  6
CONTINUOUS
 62
           7
100
AcDbLine
 10
-415.638002616411
 20
76.802375673441
 11
-417.552974701885
 21
76.452623018557
  0
LINE
  5
CB
100
AcDbEntity
  8
AM_0
  6
CONTINUOUS
 62
           7
100
AcDbLine
 10
-417.552974701885
 20
70.606718400285
 11
-415.715191451498
 21
70.26809277775
  0
LINE
  5
CA
100
AcDbEntity
  8
AM_0
  6
CONTINUOUS
 62
           7
100
AcDbLine
 10
-415.715191451498
 20
70.26809277775
 11
-414.04311765471
 21
70.087027665054
  0
LINE
  5
C9
100
AcDbEntity
  8
AM_0
  6
CONTINUOUS
 62
           7
100
AcDbLine
 10
-414.04311765471
 20
70.087027665054
 11
-412.351909328021
 21
70.037166518481
  0
LINE
  5
C8
100
AcDbEntity
  8
AM_0
  6
CONTINUOUS
 62
           7
100
AcDbLine
 10
-412.351909328021
 20
70.037166518481
 11
-410.629624063098
 21
70.127024749822
  0
LINE
  5
C7
100
AcDbEntity
  8
AM_0
  6
CONTINUOUS
 62
           7
100
AcDbLine
 10
-410.629624063098
 20
70.127024749822
 11
-408.908850946533
 21
70.353259784017
  0
LINE
  5
C6
100
AcDbEntity
  8
AM_0
  6
CONTINUOUS
 62
           7
100
AcDbLine
 10
-408.908850946533
 20
70.353259784017
 11
-407.611849204931
 21
70.606718400285
  0
LINE
  5
C5
100
AcDbEntity
  8
AM_0
  6
CONTINUOUS
 62
           7
100
AcDbLine
 10
-578.922413631875
 20
47.881187953691
 11
-578.922413631875
 21
45.781187953691
  0
LINE
  5
C4
100
AcDbEntity
  8
AM_0
  6
CONTINUOUS
 62
           7
100
AcDbLine
 10
-567.822413631875
 20
45.781187953691
 11
-567.822413631875
 21
47.881187953691
  0
LINE
  5
C3
100
AcDbEntity
  8
AM_0
  6
CONTINUOUS
 62
           7
100
AcDbLine
 10
-581.622413631875
 20
45.781187953691
 11
-581.622413631875
 21
44.281187953691
  0
LINE
  5
C2
100
AcDbEntity
  8
AM_0
  6
CONTINUOUS
 62
           7
100
AcDbLine
 10
-565.122413631875
 20
44.281187953691
 11
-565.122413631875
 21
45.781187953691
  0
LINE
  5
C1
100
AcDbEntity
  8
AM_0
  6
CONTINUOUS
 62
           7
100
AcDbLine
 10
-565.122413631875
 20
44.281187953691
 11
-581.622413631875
 21
44.281187953691
  0
LINE
  5
C0
100
AcDbEntity
  8
AM_0
  6
CONTINUOUS
 62
           7
100
AcDbLine
 10
-565.122413631875
 20
45.781187953691
 11
-581.622413631875
 21
45.781187953691
  0
LINE
  5
BF
100
AcDbEntity
  8
AM_0
  6
CONTINUOUS
 62
           7
100
AcDbLine
 10
-583.372413631875
 20
68.881187953691
 11
-583.372413631875
 21
47.881187953691
  0
LINE
  5
BE
100
AcDbEntity
  8
AM_0
  6
CONTINUOUS
 62
           7
100
AcDbLine
 10
-563.372413631875
 20
47.881187953691
 11
-563.372413631875
 21
68.881187953691
  0
LINE
  5
BD
100
AcDbEntity
  8
AM_0
  6
CONTINUOUS
 62
           7
100
AcDbLine
 10
-563.372413631875
 20
47.881187953691
 11
-583.372413631875
 21
47.881187953691
  0
LINE
  5
BC
100
AcDbEntity
  8
AM_0
  6
CONTINUOUS
 62
           7
100
AcDbLine
 10
-585.372413631875
 20
70.035888496255
 11
-585.372413631875
 21
77.023452922883
  0
LINE
  5
BB
100
AcDbEntity
  8
AM_0
  6
CONTINUOUS
 62
           7
100
AcDbLine
 10
-585.272413631875
 20
77.081187953691
 11
-585.372413631875
 21
77.023452922883
  0
LINE
  5
BA
100
AcDbEntity
  8
AM_0
  6
CONTINUOUS
 62
           7
100
AcDbLine
 10
-561.372413631875
 20
77.023452926772
 11
-561.472413631875
 21
77.081187953691
  0
LINE
  5
B9
100
AcDbEntity
  8
AM_0
  6
CONTINUOUS
 62
           7
100
AcDbLine
 10
-578.342976380352
 20
70.606718400285
 11
-578.342976380352
 21
76.452623018557
  0
LINE
  5
B8
100
AcDbEntity
  8
AM_0
  6
CONTINUOUS
 62
           7
100
AcDbLine
 10
-568.401850883398
 20
70.606718400285
 11
-568.401850883398
 21
76.452623018557
  0
LINE
  5
B7
100
AcDbEntity
  8
AM_0
  6
CONTINUOUS
 62
           7
100
AcDbLine
 10
-561.372413631875
 20
77.023452926772
 11
-561.372413631875
 21
70.035888496076
  0
LINE
  5
B6
100
AcDbEntity
  8
AM_0
  6
CONTINUOUS
 62
           7
100
AcDbLine
 10
-563.372413631875
 20
68.881187953691
 11
-561.372413631875
 21
70.035888496076
  0
LINE
  5
B5
100
AcDbEntity
  8
AM_0
  6
CONTINUOUS
 62
           7
100
AcDbLine
 10
-585.372413631875
 20
70.035888496255
 11
-583.372413631875
 21
68.881187953691
  0
LINE
  5
B4
100
AcDbEntity
  8
AM_0
  6
CONTINUOUS
 62
           7
100
AcDbLine
 10
-563.372413631875
 20
68.881187953691
 11
-583.372413631875
 21
68.881187953691
  0
LINE
  5
B3
100
AcDbEntity
  8
AM_0
  6
CONTINUOUS
 62
           7
100
AcDbLine
 10
-585.872413631875
 20
80.081187953691
 11
-585.872413631875
 21
77.081187953691
  0
LINE
  5
B2
100
AcDbEntity
  8
AM_0
  6
CONTINUOUS
 62
           7
100
AcDbLine
 10
-560.872413631875
 20
77.081187953691
 11
-560.872413631875
 21
80.081187953691
  0
LINE
  5
B1
100
AcDbEntity
  8
AM_0
  6
CONTINUOUS
 62
           7
100
AcDbLine
 10
-560.872413631875
 20
77.081187953691
 11
-585.872413631875
 21
77.081187953691
  0
LINE
  5
B0
100
AcDbEntity
  8
AM_0
  6
CONTINUOUS
 62
           7
100
AcDbLine
 10
-560.872413631875
 20
80.081187953691
 11
-552.132459371829
 21
82.423051639555
  0
LINE
  5
AF
100
AcDbEntity
  8
AM_0
  6
CONTINUOUS
 62
           7
100
AcDbLine
 10
-594.612367891921
 20
82.423051639555
 11
-585.872413631875
 21
80.081187953691
  0
LINE
  5
AE
100
AcDbEntity
  8
AM_0
  6
CONTINUOUS
 62
           7
100
AcDbLine
 10
-560.872413631875
 20
80.081187953691
 11
-585.872413631875
 21
80.081187953691
  0
LINE
  5
AD
100
AcDbEntity
  8
AM_0
  6
CONTINUOUS
 62
           7
100
AcDbLine
 10
-602.172413631875
 20
191.881187953691
 11
-602.172413631875
 21
92.275495067703
  0
LINE
  5
AC
100
AcDbEntity
  8
AM_0
  6
CONTINUOUS
 62
           7
100
AcDbLine
 10
-544.572413631875
 20
92.275495067703
 11
-544.572413631875
 21
191.881187953691
  0
LINE
  5
AB
100
AcDbEntity
  8
AM_0
  6
CONTINUOUS
 62
           7
100
AcDbLine
 10
-578.872413631875
 20
167.131187953691
 11
-576.922413631875
 21
167.131187953691
  0
LINE
  5
AA
100
AcDbEntity
  8
AM_0
  6
CONTINUOUS
 62
           7
100
AcDbLine
 10
-578.872413631875
 20
171.981187953691
 11
-578.872413631875
 21
167.131187953691
  0
LINE
  5
A9
100
AcDbEntity
  8
AM_0
  6
CONTINUOUS
 62
           7
100
AcDbLine
 10
-576.922413631875
 20
171.981187953691
 11
-576.922413631875
 21
167.131187953691
  0
LINE
  5
A8
100
AcDbEntity
  8
AM_0
  6
CONTINUOUS
 62
           7
100
AcDbLine
 10
-569.822413631875
 20
167.131187953691
 11
-569.822413631875
 21
171.981187953691
  0
LINE
  5
A7
100
AcDbEntity
  8
AM_0
  6
CONTINUOUS
 62
           7
100
AcDbLine
 10
-569.822413631875
 20
167.131187953691
 11
-567.872413631875
 21
167.131187953691
  0
LINE
  5
A6
100
AcDbEntity
  8
AM_0
  6
CONTINUOUS
 62
           7
100
AcDbLine
 10
-567.872413631875
 20
167.131187953691
 11
-567.872413631875
 21
171.981187953691
  0
LINE
  5
A5
100
AcDbEntity
  8
AM_0
  6
CONTINUOUS
 62
           7
100
AcDbLine
 10
-564.622413631875
 20
171.981187953691
 11
-564.622413631875
 21
190.01612444423
  0
LINE
  5
A4
100
AcDbEntity
  8
AM_0
  6
CONTINUOUS
 62
           7
100
AcDbLine
 10
-580.872413631875
 20
193.881187953691
 11
-580.872413631875
 21
192.181187953691
  0
LINE
  5
A3
100
AcDbEntity
  8
AM_0
  6
CONTINUOUS
 62
           7
100
AcDbLine
 10
-582.122413631875
 20
190.01612444423
 11
-582.122413631875
 21
171.981187953691
  0
LINE
  5
A2
100
AcDbEntity
  8
AM_0
  6
CONTINUOUS
 62
           7
100
AcDbLine
 10
-564.622413631875
 20
190.01612444423
 11
-565.872413631875
 21
192.181187953691
  0
LINE
  5
A1
100
AcDbEntity
  8
AM_0
  6
CONTINUOUS
 62
           7
100
AcDbLine
 10
-565.872413631875
 20
192.181187953691
 11
-565.872413631875
 21
193.881187953691
  0
LINE
  5
A0
100
AcDbEntity
  8
AM_0
  6
CONTINUOUS
 62
           7
100
AcDbLine
 10
-580.872413631875
 20
192.181187953691
 11
-582.122413631875
 21
190.01612444423
  0
LINE
  5
9F
100
AcDbEntity
  8
AM_0
  6
CONTINUOUS
 62
           7
100
AcDbLine
 10
-564.622413631875
 20
171.981187953691
 11
-582.122413631875
 21
171.981187953691
  0
LINE
  5
9E
100
AcDbEntity
  8
AM_0
  6
CONTINUOUS
 62
           7
100
AcDbLine
 10
-564.622413631875
 20
173.381187953691
 11
-582.122413631875
 21
173.381187953691
  0
LINE
  5
9D
100
AcDbEntity
  8
AM_0
  6
CONTINUOUS
 62
           7
100
AcDbLine
 10
-581.756802407408
 20
171.981187953691
 11
-581.756802407408
 21
173.381187953691
  0
LINE
  5
9C
100
AcDbEntity
  8
AM_0
  6
CONTINUOUS
 62
           7
100
AcDbLine
 10
-564.988024856343
 20
171.981187953691
 11
-564.988024856343
 21
173.381187953691
  0
LINE
  5
9B
100
AcDbEntity
  8
AM_0
  6
CONTINUOUS
 62
           7
100
AcDbLine
 10
-538.372413631875
 20
211.981187953691
 11
-538.372413631875
 21
191.881187953691
  0
LINE
  5
9A
100
AcDbEntity
  8
AM_0
  6
CONTINUOUS
 62
           7
100
AcDbLine
 10
-540.572413631875
 20
215.181187953691
 11
-540.572413631875
 21
211.981187953691
  0
LINE
  5
99
100
AcDbEntity
  8
AM_0
  6
CONTINUOUS
 62
           7
100
AcDbLine
 10
-538.372413631875
 20
251.181187953691
 11
-538.372413631875
 21
215.181187953691
  0
LINE
  5
98
100
AcDbEntity
  8
AM_0
  6
CONTINUOUS
 62
           7
100
AcDbLine
 10
-540.572413631875
 20
211.981187953691
 11
-538.372413631875
 21
211.981187953691
  0
LINE
  5
97
100
AcDbEntity
  8
AM_0
  6
CONTINUOUS
 62
           7
100
AcDbLine
 10
-538.372413631875
 20
215.181187953691
 11
-540.572413631875
 21
215.181187953691
  0
LINE
  5
96
100
AcDbEntity
  8
AM_0
  6
CONTINUOUS
 62
           7
100
AcDbLine
 10
-606.172413631875
 20
211.981187953691
 11
-606.172413631875
 21
215.181187953691
  0
LINE
  5
95
100
AcDbEntity
  8
AM_0
  6
CONTINUOUS
 62
           7
100
AcDbLine
 10
-606.172413631875
 20
215.181187953691
 11
-608.372413631875
 21
215.181187953691
  0
LINE
  5
94
100
AcDbEntity
  8
AM_0
  6
CONTINUOUS
 62
           7
100
AcDbLine
 10
-608.372413631875
 20
211.981187953691
 11
-608.372413631875
 21
191.881187953691
  0
LINE
  5
93
100
AcDbEntity
  8
AM_0
  6
CONTINUOUS
 62
           7
100
AcDbLine
 10
-608.372413631875
 20
251.181187953691
 11
-608.372413631875
 21
215.181187953691
  0
LINE
  5
92
100
AcDbEntity
  8
AM_0
  6
CONTINUOUS
 62
           7
100
AcDbLine
 10
-608.372413631875
 20
211.981187953691
 11
-606.172413631875
 21
211.981187953691
  0
LINE
  5
91
100
AcDbEntity
  8
AM_0
  6
CONTINUOUS
 62
           7
100
AcDbLine
 10
-543.693139574039
 20
249.181187953691
 11
-543.693139574039
 21
221.181187953691
  0
LINE
  5
90
100
AcDbEntity
  8
AM_0
  6
CONTINUOUS
 62
           7
100
AcDbLine
 10
-541.672413631875
 20
245.681187953691
 11
-541.672413631875
 21
191.881187953691
  0
LINE
  5
8F
100
AcDbEntity
  8
AM_0
  6
CONTINUOUS
 62
           7
100
AcDbLine
 10
-603.051687689711
 20
249.181187953691
 11
-543.693139574039
 21
249.181187953691
  0
LINE
  5
8E
100
AcDbEntity
  8
AM_0
  6
CONTINUOUS
 62
           7
100
AcDbLine
 10
-543.693139574039
 20
249.181187953691
 11
-541.672413631875
 21
245.681187953691
  0
LINE
  5
8D
100
AcDbEntity
  8
AM_0
  6
CONTINUOUS
 62
           7
100
AcDbLine
 10
-538.372413631875
 20
245.681187953691
 11
-541.672413631875
 21
245.681187953691
  0
LINE
  5
8C
100
AcDbEntity
  8
AM_0
  6
CONTINUOUS
 62
           7
100
AcDbLine
 10
-538.372413631875
 20
251.181187953691
 11
-608.372413631875
 21
251.181187953691
  0
LINE
  5
8B
100
AcDbEntity
  8
AM_0
  6
CONTINUOUS
 62
           7
100
AcDbLine
 10
-605.072413631875
 20
245.681187953691
 11
-608.372413631875
 21
245.681187953691
  0
LINE
  5
8A
100
AcDbEntity
  8
AM_0
  6
CONTINUOUS
 62
           7
100
AcDbLine
 10
-605.072413631875
 20
245.681187953691
 11
-603.051687689711
 21
249.181187953691
  0
LINE
  5
89
100
AcDbEntity
  8
AM_0
  6
CONTINUOUS
 62
           7
100
AcDbLine
 10
-605.072413631875
 20
245.681187953691
 11
-605.072413631875
 21
191.881187953691
  0
LINE
  5
88
100
AcDbEntity
  8
AM_0
  6
CONTINUOUS
 62
           7
100
AcDbLine
 10
-603.051687689711
 20
249.181187953691
 11
-603.051687689711
 21
221.181187953691
  0
LINE
  5
87
100
AcDbEntity
  8
AM_0
  6
CONTINUOUS
 62
           7
100
AcDbLine
 10
-552.472413631875
 20
245.181187953691
 11
-552.472413631875
 21
221.181187953691
  0
LINE
  5
86
100
AcDbEntity
  8
AM_0
  6
CONTINUOUS
 62
           7
100
AcDbLine
 10
-594.272413631875
 20
245.181187953691
 11
-552.472413631875
 21
245.181187953691
  0
LINE
  5
85
100
AcDbEntity
  8
AM_0
  6
CONTINUOUS
 62
           7
100
AcDbLine
 10
-594.272413631875
 20
245.181187953691
 11
-594.272413631875
 21
221.181187953691
  0
LINE
  5
84
100
AcDbEntity
  8
AM_0
  6
CONTINUOUS
 62
           7
100
AcDbLine
 10
-553.416148472696
 20
245.181187953691
 11
-553.416148472696
 21
221.181187953691
  0
LINE
  5
83
100
AcDbEntity
  8
AM_0
  6
CONTINUOUS
 62
           7
100
AcDbLine
 10
-593.328678791054
 20
245.181187953691
 11
-593.328678791054
 21
221.181187953691
  0
LINE
  5
82
100
AcDbEntity
  8
AM_0
  6
CONTINUOUS
 62
           7
100
AcDbLine
 10
-605.072413631875
 20
221.181187953691
 11
-541.672413631875
 21
221.181187953691
  0
LINE
  5
81
100
AcDbEntity
  8
AM_0
  6
CONTINUOUS
 62
           7
100
AcDbLine
 10
-565.699208551118
 20
191.881187953691
 11
-538.372413631875
 21
191.881187953691
  0
LINE
  5
80
100
AcDbEntity
  8
AM_0
  6
CONTINUOUS
 62
           7
100
AcDbLine
 10
-608.372413631875
 20
191.881187953691
 11
-581.045618712632
 21
191.881187953691
  0
LINE
  5
7F
100
AcDbEntity
  8
AM_0
  6
CONTINUOUS
 62
           7
100
AcDbLine
 10
-581.217713093496
 20
193.881187953691
 11
-582.372413631875
 21
191.881187953691
  0
LINE
  5
7E
100
AcDbEntity
  8
AM_0
  6
CONTINUOUS
 62
           7
100
AcDbLine
 10
-565.527114170255
 20
193.881187953691
 11
-581.217713093496
 21
193.881187953691
  0
LINE
  5
7D
100
AcDbEntity
  8
AM_0
  6
CONTINUOUS
 62
           7
100
AcDbLine
 10
-564.372413631875
 20
191.881187953691
 11
-565.527114170255
 21
193.881187953691
  0
LINE
  5
7C
100
AcDbEntity
  8
AM_0
  6
CONTINUOUS
 62
           7
100
AcDbLine
 10
-578.342976380352
 20
76.452623018557
 11
-579.556371499553
 21
76.772863694823
  0
LINE
  5
7B
100
AcDbEntity
  8
AM_0
  6
CONTINUOUS
 62
           7
100
AcDbLine
 10
-579.556371499553
 20
76.772863694823
 11
-580.782671815912
 21
76.968071840501
  0
LINE
  5
7A
100
AcDbEntity
  8
AM_0
  6
CONTINUOUS
 62
           7
100
AcDbLine
 10
-580.782671815912
 20
76.968071840501
 11
-582.046986720787
 21
77.021042093028
  0
LINE
  5
79
100
AcDbEntity
  8
AM_0
  6
CONTINUOUS
 62
           7
100
AcDbLine
 10
-582.046986720787
 20
77.021042093028
 11
-583.309982721036
 21
76.922709360316
  0
LINE
  5
78
100
AcDbEntity
  8
AM_0
  6
CONTINUOUS
 62
           7
100
AcDbLine
 10
-583.309982721036
 20
76.922709360316
 11
-584.344258376841
 21
76.732099504148
  0
LINE
  5
77
100
AcDbEntity
  8
AM_0
  6
CONTINUOUS
 62
           7
100
AcDbLine
 10
-584.344258376841
 20
76.732099504148
 11
-585.372413631875
 21
76.452623018557
  0
LINE
  5
76
100
AcDbEntity
  8
AM_0
  6
CONTINUOUS
 62
           7
100
AcDbLine
 10
-561.372413631875
 20
76.452623018557
 11
-562.585808751076
 21
76.772863694823
  0
LINE
  5
75
100
AcDbEntity
  8
AM_0
  6
CONTINUOUS
 62
           7
100
AcDbLine
 10
-562.585808751076
 20
76.772863694823
 11
-563.812109067435
 21
76.968071840501
  0
LINE
  5
74
100
AcDbEntity
  8
AM_0
  6
CONTINUOUS
 62
           7
100
AcDbLine
 10
-563.812109067435
 20
76.968071840501
 11
-565.07642397231
 21
77.021042093028
  0
LINE
  5
73
100
AcDbEntity
  8
AM_0
  6
CONTINUOUS
 62
           7
100
AcDbLine
 10
-565.07642397231
 20
77.021042093028
 11
-566.339419972558
 21
76.922709360316
  0
LINE
  5
72
100
AcDbEntity
  8
AM_0
  6
CONTINUOUS
 62
           7
100
AcDbLine
 10
-566.339419972558
 20
76.922709360316
 11
-567.373695628364
 21
76.732099504148
  0
LINE
  5
71
100
AcDbEntity
  8
AM_0
  6
CONTINUOUS
 62
           7
100
AcDbLine
 10
-567.373695628364
 20
76.732099504148
 11
-568.401850883398
 21
76.452623018557
  0
LINE
  5
70
100
AcDbEntity
  8
AM_0
  6
CONTINUOUS
 62
           7
100
AcDbLine
 10
-568.401850883398
 20
76.452623018557
 11
-570.316822968873
 21
76.802375673441
  0
LINE
  5
6F
100
AcDbEntity
  8
AM_0
  6
CONTINUOUS
 62
           7
100
AcDbLine
 10
-570.316822968873
 20
76.802375673441
 11
-571.992948586058
 21
76.977825937036
  0
LINE
  5
6E
100
AcDbEntity
  8
AM_0
  6
CONTINUOUS
 62
           7
100
AcDbLine
 10
-571.992948586058
 20
76.977825937036
 11
-573.687910700087
 21
77.021058818673
  0
LINE
  5
6D
100
AcDbEntity
  8
AM_0
  6
CONTINUOUS
 62
           7
100
AcDbLine
 10
-573.687910700087
 20
77.021058818673
 11
-575.413614473311
 21
76.923937208126
  0
LINE
  5
6C
100
AcDbEntity
  8
AM_0
  6
CONTINUOUS
 62
           7
100
AcDbLine
 10
-575.413614473311
 20
76.923937208126
 11
-577.137249491227
 21
76.690481113299
  0
LINE
  5
6B
100
AcDbEntity
  8
AM_0
  6
CONTINUOUS
 62
           7
100
AcDbLine
 10
-577.137249491227
 20
76.690481113299
 11
-578.342976380352
 21
76.452623018557
  0
LINE
  5
6A
100
AcDbEntity
  8
AM_0
  6
CONTINUOUS
 62
           7
100
AcDbLine
 10
-568.401850883398
 20
70.606718400285
 11
-567.188455764197
 21
70.286477724019
  0
LINE
  5
69
100
AcDbEntity
  8
AM_0
  6
CONTINUOUS
 62
           7
100
AcDbLine
 10
-567.188455764197
 20
70.286477724019
 11
-565.962155447839
 21
70.091269578341
  0
LINE
  5
68
100
AcDbEntity
  8
AM_0
  6
CONTINUOUS
 62
           7
100
AcDbLine
 10
-565.962155447839
 20
70.091269578341
 11
-564.697840542963
 21
70.038299325814
  0
LINE
  5
67
100
AcDbEntity
  8
AM_0
  6
CONTINUOUS
 62
           7
100
AcDbLine
 10
-564.697840542963
 20
70.038299325814
 11
-563.434844542715
 21
70.136632058526
  0
LINE
  5
66
100
AcDbEntity
  8
AM_0
  6
CONTINUOUS
 62
           7
100
AcDbLine
 10
-563.434844542715
 20
70.136632058526
 11
-562.40056888691
 21
70.327241914694
  0
LINE
  5
65
100
AcDbEntity
  8
AM_0
  6
CONTINUOUS
 62
           7
100
AcDbLine
 10
-562.40056888691
 20
70.327241914694
 11
-561.372413631875
 21
70.606718400285
  0
LINE
  5
64
100
AcDbEntity
  8
AM_0
  6
CONTINUOUS
 62
           7
100
AcDbLine
 10
-578.342976380352
 20
70.606718400285
 11
-577.045974638751
 21
70.353259784017
  0
LINE
  5
63
100
AcDbEntity
  8
AM_0
  6
CONTINUOUS
 62
           7
100
AcDbLine
 10
-577.045974638751
 20
70.353259784017
 11
-575.378184121677
 21
70.132002909741
  0
LINE
  5
62
100
AcDbEntity
  8
AM_0
  6
CONTINUOUS
 62
           7
100
AcDbLine
 10
-575.378184121677
 20
70.132002909741
 11
-573.688837224559
 21
70.038296679989
  0
LINE
  5
61
100
AcDbEntity
  8
AM_0
  6
CONTINUOUS
 62
           7
100
AcDbLine
 10
-573.688837224559
 20
70.038296679989
 11
-571.965298520632
 21
70.083356625811
  0
LINE
  5
60
100
AcDbEntity
  8
AM_0
  6
CONTINUOUS
 62
           7
100
AcDbLine
 10
-571.965298520632
 20
70.083356625811
 11
-570.239634133785
 21
70.26809277775
  0
LINE
  5
5F
100
AcDbEntity
  8
AM_0
  6
CONTINUOUS
 62
           7
100
AcDbLine
 10
-570.239634133785
 20
70.26809277775
 11
-568.401850883398
 21
70.606718400285
  0
LINE
  5
5E
100
AcDbEntity
  8
AM_0
  6
CONTINUOUS
 62
           7
100
AcDbLine
 10
-585.372413631875
 20
70.606718400285
 11
-584.159018512674
 21
70.286477724019
  0
LINE
  5
5D
100
AcDbEntity
  8
AM_0
  6
CONTINUOUS
 62
           7
100
AcDbLine
 10
-584.159018512674
 20
70.286477724019
 11
-582.932718196316
 21
70.091269578341
  0
LINE
  5
5C
100
AcDbEntity
  8
AM_0
  6
CONTINUOUS
 62
           7
100
AcDbLine
 10
-582.932718196316
 20
70.091269578341
 11
-581.66840329144
 21
70.038299325814
  0
LINE
  5
5B
100
AcDbEntity
  8
AM_0
  6
CONTINUOUS
 62
           7
100
AcDbLine
 10
-581.66840329144
 20
70.038299325814
 11
-580.405407291192
 21
70.136632058526
  0
LINE
  5
5A
100
AcDbEntity
  8
AM_0
  6
CONTINUOUS
 62
           7
100
AcDbLine
 10
-580.405407291192
 20
70.136632058526
 11
-579.371131635387
 21
70.327241914694
  0
LINE
  5
59
100
AcDbEntity
  8
AM_0
  6
CONTINUOUS
 62
           7
100
AcDbLine
 10
-579.371131635387
 20
70.327241914694
 11
-578.342976380352
 21
70.606718400285
  0
LINE
  5
58
100
AcDbEntity
  8
AM_7
  6
DOT_CENTER
 62
           3
100
AcDbLine
 10
-741.069840310342
 20
233.181187953691
 11
-727.254990310342
 21
233.181187953691
  0
LINE
  5
57
100
AcDbEntity
  8
AM_7
  6
DOT_CENTER
 62
           3
100
AcDbLine
 10
-734.162415310342
 20
22.086641785577
 11
-734.162415310342
 21
262.32429136387
  0
LINE
  5
56
100
AcDbEntity
  8
AM_0
  6
CONTINUOUS
 62
           7
100
AcDbLine
 10
-705.89246660151
 20
167.131187953691
 11
-700.362415310342
 21
167.131187953691
  0
LINE
  5
55
100
AcDbEntity
  8
AM_0
  6
CONTINUOUS
 62
           7
100
AcDbLine
 10
-700.362415310342
 20
174.631187953691
 11
-700.362415310342
 21
167.131187953691
  0
LINE
  5
54
100
AcDbEntity
  8
AM_0
  6
CONTINUOUS
 62
           7
100
AcDbLine
 10
-695.762415310342
 20
171.981187953691
 11
-695.762415310342
 21
173.381187953691
  0
LINE
  5
53
100
AcDbEntity
  8
AM_0
  6
CONTINUOUS
 62
           7
100
AcDbLine
 10
-695.762415310342
 20
173.381187953691
 11
-698.762415310342
 21
173.381187953691
  0
LINE
  5
52
100
AcDbEntity
  8
AM_0
  6
CONTINUOUS
 62
           7
100
AcDbLine
 10
-706.707907483757
 20
174.631187953691
 11
-700.162415310342
 21
174.631187953691
  0
LINE
  5
51
100
AcDbEntity
  8
AM_0
  6
CONTINUOUS
 62
           7
100
AcDbLine
 10
-706.707907483757
 20
187.641187953691
 11
-700.162415310342
 21
187.641187953691
  0
LINE
  5
50
100
AcDbEntity
  8
AM_0
  6
CONTINUOUS
 62
           7
100
AcDbLine
 10
-696.68893101997
 20
171.981187953691
 11
-696.68893101997
 21
173.381187953691
  0
LINE
  5
4F
100
AcDbEntity
  8
AM_0
  6
CONTINUOUS
 62
           7
100
AcDbLine
 10
-695.762415310342
 20
171.981187953691
 11
-700.162415310342
 21
171.981187953691
  0
LINE
  5
4E
100
AcDbEntity
  8
AM_0
  6
CONTINUOUS
 62
           7
100
AcDbLine
 10
-700.162415310342
 20
191.881187953691
 11
-700.162415310342
 21
171.981187953691
  0
LINE
  5
4D
100
AcDbEntity
  8
AM_0
  6
CONTINUOUS
 62
           7
100
AcDbLine
 10
-698.762415310342
 20
190.01612444423
 11
-700.162415310342
 21
190.01612444423
  0
LINE
  5
4C
100
AcDbEntity
  8
AM_0
  6
CONTINUOUS
 62
           7
100
AcDbLine
 10
-698.762415310342
 20
191.881187953691
 11
-698.762415310342
 21
171.981187953691
  0
LINE
  5
4B
100
AcDbEntity
  8
AM_0
  6
CONTINUOUS
 62
           7
100
AcDbLine
 10
-706.707907483757
 20
174.631187953691
 11
-706.707907483757
 21
187.641187953691
  0
LINE
  5
4A
100
AcDbEntity
  8
AM_0
  6
CONTINUOUS
 62
           7
100
AcDbLine
 10
-705.89246660151
 20
167.131187953691
 11
-705.89246660151
 21
174.631187953691
  0
LINE
  5
49
100
AcDbEntity
  8
AM_0
  6
CONTINUOUS
 62
           7
100
AcDbLine
 10
-762.962415310342
 20
191.881187953691
 11
-762.962415310342
 21
92.275495067703
  0
LINE
  5
48
100
AcDbEntity
  8
AM_0
  6
CONTINUOUS
 62
           7
100
AcDbLine
 10
-705.362415310342
 20
92.275495067703
 11
-705.362415310342
 21
167.131187953691
  0
LINE
  5
47
100
AcDbEntity
  8
AM_0
  6
CONTINUOUS
 62
           7
100
AcDbLine
 10
-705.362415310342
 20
187.641187953691
 11
-705.362415310342
 21
191.881187953691
  0
LINE
  5
46
100
AcDbEntity
  8
AM_0
  6
CONTINUOUS
 62
           7
100
AcDbLine
 10
-761.162415310342
 20
245.181187953691
 11
-761.162415310342
 21
221.181187953691
  0
LINE
  5
45
100
AcDbEntity
  8
AM_0
  6
CONTINUOUS
 62
           7
100
AcDbLine
 10
-761.162415310342
 20
245.181187953691
 11
-752.162415310342
 21
245.181187953691
  0
LINE
  5
44
100
AcDbEntity
  8
AM_0
  6
CONTINUOUS
 62
           7
100
AcDbLine
 10
-716.162415310342
 20
245.181187953691
 11
-707.162415310342
 21
245.181187953691
  0
LINE
  5
43
100
AcDbEntity
  8
AM_0
  6
CONTINUOUS
 62
           7
100
AcDbLine
 10
-707.162415310342
 20
221.181187953691
 11
-707.162415310342
 21
245.181187953691
  0
LINE
  5
42
100
AcDbEntity
  8
AM_0
  6
CONTINUOUS
 62
           7
100
AcDbLine
 10
-715.975951088384
 20
245.181187953691
 11
-715.975951088384
 21
221.181187953691
  0
LINE
  5
41
100
AcDbEntity
  8
AM_0
  6
CONTINUOUS
 62
           7
100
AcDbLine
 10
-752.348879532299
 20
245.181187953691
 11
-752.348879532299
 21
221.181187953691
  0
LINE
  5
40
100
AcDbEntity
  8
AM_0
  6
CONTINUOUS
 62
           7
100
AcDbLine
 10
-769.662415310342
 20
221.181187953691
 11
-752.162415310342
 21
221.181187953691
  0
LINE
  5
3F
100
AcDbEntity
  8
AM_0
  6
CONTINUOUS
 62
           7
100
AcDbLine
 10
-769.662415310342
 20
221.181187953691
 11
-769.662415310342
 21
191.881187953691
  0
LINE
  5
3E
100
AcDbEntity
  8
AM_0
  6
CONTINUOUS
 62
           7
100
AcDbLine
 10
-769.662415310342
 20
191.881187953691
 11
-698.662415310342
 21
191.881187953691
  0
LINE
  5
3D
100
AcDbEntity
  8
AM_0
  6
CONTINUOUS
 62
           7
100
AcDbLine
 10
-716.162415310342
 20
221.181187953691
 11
-698.662415310342
 21
221.181187953691
  0
LINE
  5
3C
100
AcDbEntity
  8
AM_0
  6
CONTINUOUS
 62
           7
100
AcDbLine
 10
-698.662415310342
 20
221.181187953691
 11
-698.662415310342
 21
191.881187953691
  0
LINE
  5
3B
100
AcDbEntity
  8
AM_0
  6
CONTINUOUS
 62
           7
100
AcDbLine
 10
-746.662415310342
 20
251.181187953691
 11
-721.662415310342
 21
251.181187953691
  0
LINE
  5
3A
100
AcDbEntity
  8
AM_0
  6
CONTINUOUS
 62
           7
100
AcDbLine
 10
-746.662415310342
 20
251.181187953691
 11
-752.162415310342
 21
245.681187953691
  0
LINE
  5
39
100
AcDbEntity
  8
AM_0
  6
CONTINUOUS
 62
           7
100
AcDbLine
 10
-716.162415310342
 20
245.681187953691
 11
-721.662415310342
 21
251.181187953691
  0
LINE
  5
38
100
AcDbEntity
  8
AM_0
  6
CONTINUOUS
 62
           7
100
AcDbLine
 10
-716.162415310342
 20
245.681187953691
 11
-716.162415310342
 21
191.881187953691
  0
LINE
  5
37
100
AcDbEntity
  8
AM_0
  6
CONTINUOUS
 62
           7
100
AcDbLine
 10
-716.162415310342
 20
215.181187953691
 11
-752.162415310342
 21
215.181187953691
  0
LINE
  5
36
100
AcDbEntity
  8
AM_0
  6
CONTINUOUS
 62
           7
100
AcDbLine
 10
-716.162415310342
 20
211.981187953691
 11
-752.162415310342
 21
211.981187953691
  0
LINE
  5
35
100
AcDbEntity
  8
AM_0
  6
CONTINUOUS
 62
           7
100
AcDbLine
 10
-752.162415310342
 20
245.681187953691
 11
-752.162415310342
 21
191.881187953691
  0
LINE
  5
34
100
AcDbEntity
  8
AM_7
  6
DOT_CENTER
 62
           3
100
AcDbLine
 10
-573.372413631875
 20
20.162271552237
 11
-573.372413631875
 21
260.500409295637
  0
SOLID
  5
1A9
100
AcDbEntity
  8
0
 62
           2
100
AcDbTrace
 10
-617.718831532371
 20
235.98227792584
 11
-617.718831532371
 21
237.456785898818
 12
-612.118831532371
 22
236.719531912329
 13
-612.118831532371
 23
236.719531912329
  0
SOLID
  5
1AB
100
AcDbEntity
  8
0
 62
           2
100
AcDbTrace
 10
-524.943955848171
 20
236.372325249203
 11
-524.943955848171
 21
237.846833222181
 12
-519.343955848171
 22
237.109579235692
 13
-519.343955848171
 23
237.109579235692
  0
ENDBLK
  5
1B1
100
AcDbEntity
  8
0
100
AcDbBlockEnd
  0
BLOCK
  5
2C
100
AcDbEntity
  8
0
100
AcDbBlockBegin
  2
1_AF40_02C_2_A_0
 70
           0
 10
0.0
 20
0.0
 30
0.0
  3
1_AF40_02C_2_A_0
  1

  0
INSERT
  5
2D
100
AcDbEntity
  8
0
100
AcDbBlockReference
  2
3_AF40_02C_2_A_0
 10
0.0
 20
0.0
  0
ENDBLK
  5
1B2
100
AcDbEntity
  8
0
100
AcDbBlockEnd
  0
BLOCK
  5
2F
100
AcDbEntity
  8
0
100
AcDbBlockBegin
  2
ALF800B_10DDATA
 70
           0
 10
0.0
 20
0.0
 30
0.0
  3
ALF800B_10DDATA
  1

  0
INSERT
  5
30
100
AcDbEntity
  8
0
100
AcDbBlockReference
  2
1_AF40_02C_2_A_0
 10
0.0
 20
0.0
  0
ENDBLK
  5
1B3
100
AcDbEntity
  8
0
100
AcDbBlockEnd
  0
ENDSEC
  0
SECTION
  2
ENTITIES
  0
INSERT
  5
33
100
AcDbEntity
  8
0
100
AcDbBlockReference
  2
ALF800B_10DDATA
 10
0.0
 20
0.0
  0
ENDSEC
  0
SECTION
  2
OBJECTS
  0
DICTIONARY
  5
19
100
AcDbDictionary
  3
ACAD_GROUP
350
1A
  3
ACAD_MLINESTYLE
350
1B
  0
DICTIONARY
  5
1A
102
{ACAD_REACTORS
330
19
102
}
100
AcDbDictionary
  0
DICTIONARY
  5
1B
102
{ACAD_REACTORS
330
19
102
}
100
AcDbDictionary
  3
STANDARD
350
1C
  0
MLINESTYLE
  5
1C
102
{ACAD_REACTORS
330
1B
102
}
100
AcDbMlineStyle
  2
STANDARD
 70
           0
  3

 62
           0
 51
90.0
 52
90.0
 71
           2
 49
0.5
 62
         256
  6
BYLAYER
 49
-0.5
 62
         256
  6
BYLAYER
  0
ENDSEC
  0
EOF
