  0
SECTION
  2
HEADER
  9
$ACADVER
  1
AC1014
  9
$ACADMAINTVER
 70
           0
  9
$DWGCODEPAGE
  3
DOS932
  9
$INSBASE
 10
0.0
 20
0.0
 30
0.0
  9
$EXTMIN
 10
1.000000000000E+20
 20
1.000000000000E+20
 30
1.000000000000E+20
  9
$EXTMAX
 10
-1.000000000000E+20
 20
-1.000000000000E+20
 30
-1.000000000000E+20
  9
$LIMMIN
 10
0.0
 20
0.0
  9
$LIMMAX
 10
0.0
 20
0.0
  9
$ORTHOMODE
 70
           0
  9
$REGENMODE
 70
           1
  9
$FILLMODE
 70
           1
  9
$QTEXTMODE
 70
           0
  9
$MIRRTEXT
 70
           1
  9
$DRAGMODE
 70
           2
  9
$LTSCALE
 40
1.0
  9
$OSMODE
 70
           0
  9
$ATTMODE
 70
           1
  9
$TEXTSIZE
 40
0.2
  9
$TRACEWID
 40
0.05
  9
$TEXTSTYLE
  7
STANDARD
  9
$CLAYER
  8
0
  9
$CELTYPE
  6
CONTINUOUS
  9
$CECOLOR
 62
         256
  9
$CELTSCALE
 40
1.0
  9
$DELOBJ
 70
           1
  9
$DISPSILH
 70
           0
  9
$DIMSCALE
 40
1.0
  9
$DIMASZ
 40
0.18
  9
$DIMEXO
 40
0.0625
  9
$DIMDLI
 40
0.38
  9
$DIMRND
 40
0.0
  9
$DIMDLE
 40
0.0
  9
$DIMEXE
 40
0.18
  9
$DIMTP
 40
0.0
  9
$DIMTM
 40
0.0
  9
$DIMTXT
 40
0.18
  9
$DIMCEN
 40
0.09
  9
$DIMTSZ
 40
0.0
  9
$DIMTOL
 70
           0
  9
$DIMLIM
 70
           0
  9
$DIMTIH
 70
           1
  9
$DIMTOH
 70
           1
  9
$DIMSE1
 70
           0
  9
$DIMSE2
 70
           0
  9
$DIMTAD
 70
           0
  9
$DIMZIN
 70
           0
  9
$DIMBLK
  1

  9
$DIMASO
 70
           1
  9
$DIMSHO
 70
           1
  9
$DIMPOST
  1

  9
$DIMAPOST
  1

  9
$DIMALT
 70
           0
  9
$DIMALTD
 70
           2
  9
$DIMALTF
 40
25.4
  9
$DIMLFAC
 40
1.0
  9
$DIMTOFL
 70
           0
  9
$DIMTVP
 40
0.0
  9
$DIMTIX
 70
           0
  9
$DIMSOXD
 70
           0
  9
$DIMSAH
 70
           0
  9
$DIMBLK1
  1

  9
$DIMBLK2
  1

  9
$DIMSTYLE
  2
STANDARD
  9
$DIMCLRD
 70
           0
  9
$DIMCLRE
 70
           0
  9
$DIMCLRT
 70
           0
  9
$DIMTFAC
 40
1.0
  9
$DIMGAP
 40
0.09
  9
$DIMJUST
 70
           0
  9
$DIMSD1
 70
           0
  9
$DIMSD2
 70
           0
  9
$DIMTOLJ
 70
           1
  9
$DIMTZIN
 70
           0
  9
$DIMALTZ
 70
           0
  9
$DIMALTTZ
 70
           0
  9
$DIMFIT
 70
           3
  9
$DIMUPT
 70
           0
  9
$DIMUNIT
 70
           2
  9
$DIMDEC
 70
           4
  9
$DIMTDEC
 70
           4
  9
$DIMALTU
 70
           2
  9
$DIMALTTD
 70
           2
  9
$DIMTXSTY
  7
STANDARD
  9
$DIMAUNIT
 70
           0
  9
$LUNITS
 70
           2
  9
$LUPREC
 70
           4
  9
$SKETCHINC
 40
0.1
  9
$FILLETRAD
 40
0.0
  9
$AUNITS
 70
           0
  9
$AUPREC
 70
           0
  9
$MENU
  1
acad
  9
$ELEVATION
 40
0.0
  9
$PELEVATION
 40
0.0
  9
$THICKNESS
 40
0.0
  9
$LIMCHECK
 70
           0
  9
$BLIPMODE
 70
           1
  9
$CHAMFERA
 40
0.0
  9
$CHAMFERB
 40
0.0
  9
$CHAMFERC
 40
0.0
  9
$CHAMFERD
 40
0.0
  9
$SKPOLY
 70
           0
  9
$TDCREATE
 40
0.000000000
  9
$TDUPDATE
 40
0.000000000
  9
$TDINDWG
 40
0.0000000000
  9
$TDUSRTIMER
 40
0.0000000000
  9
$USRTIMER
 70
           1
  9
$ANGBASE
 50
0.0
  9
$ANGDIR
 70
           0
  9
$PDMODE
 70
           0
  9
$PDSIZE
 40
0.0
  9
$PLINEWID
 40
0.0
  9
$COORDS
 70
           0
  9
$SPLFRAME
 70
           0
  9
$SPLINETYPE
 70
           6
  9
$SPLINESEGS
 70
           8
  9
$ATTDIA
 70
           0
  9
$ATTREQ
 70
           1
  9
$HANDLING
 70
           1
  9
$HANDSEED
  5
1F5
  9
$SURFTAB1
 70
           6
  9
$SURFTAB2
 70
           6
  9
$SURFTYPE
 70
           6
  9
$SURFU
 70
           6
  9
$SURFV
 70
           6
  9
$UCSNAME
  2

  9
$UCSORG
 10
0.0
 20
0.0
 30
0.0
  9
$UCSXDIR
 10
1.0
 20
0.0
 30
0.0
  9
$UCSYDIR
 10
0.0
 20
1.0
 30
0.0
  9
$PUCSNAME
  2

  9
$PUCSORG
 10
0.0
 20
0.0
 30
0.0
  9
$PUCSXDIR
 10
1.0
 20
0.0
 30
0.0
  9
$PUCSYDIR
 10
0.0
 20
1.0
 30
0.0
  9
$USERI1
 70
           0
  9
$USERI2
 70
           0
  9
$USERI3
 70
           0
  9
$USERI4
 70
           0
  9
$USERI5
 70
           0
  9
$USERR1
 40
0.0
  9
$USERR2
 40
0.0
  9
$USERR3
 40
0.0
  9
$USERR4
 40
0.0
  9
$USERR5
 40
0.0
  9
$WORLDVIEW
 70
           1
  9
$SHADEDGE
 70
           3
  9
$SHADEDIF
 70
          70
  9
$TILEMODE
 70
           1
  9
$MAXACTVP
 70
          16
  9
$PINSBASE
 10
0.0
 20
0.0
 30
0.0
  9
$PLIMCHECK
 70
           0
  9
$PEXTMIN
 10
1.000000000000E+20
 20
1.000000000000E+20
 30
1.000000000000E+20
  9
$PEXTMAX
 10
-1.000000000000E+20
 20
-1.000000000000E+20
 30
-1.000000000000E+20
  9
$PLIMMIN
 10
0.0
 20
0.0
  9
$PLIMMAX
 10
12.0
 20
9.0
  9
$UNITMODE
 70
           0
  9
$VISRETAIN
 70
           0
  9
$PLINEGEN
 70
           1
  9
$PSLTSCALE
 70
           0
  9
$TREEDEPTH
 70
        3020
  9
$PICKSTYLE
 70
           1
  9
$CMLSTYLE
  2
STANDARD
  9
$CMLJUST
 70
           0
  9
$CMLSCALE
 40
1.0
  9
$PROXYGRAPHICS
 70
           0
  9
$MEASUREMENT
 70
           0
  0
ENDSEC
  0
SECTION
  2
CLASSES
  0
CLASS
  1
LWPOLYLINE
  2
AcDbPolyline
  3
"AutoCAD"
 90
        0
280
           0
281
           1
  0
CLASS
  1
IMAGE
  2
AcDbRasterImage
  3
ISM
 90
      127
280
           0
281
           1
  0
CLASS
  1
OLE2FRAME
  2
AcDbOle2Frame
  3
""
 90
        0
280
           0
281
           1
  0
CLASS
  1
HATCH
  2
AcDbHatch
  3
"ACAD_SEDONA"
 90
        0
280
           0
281
           1
  0
CLASS
  1
DICTIONARYVAR
  2
AcDbDictionaryVar
  3
"AutoCAD"
 90
        0
280
           0
281
           0
  0
CLASS
  1
RASTERVARIABLES
  2
AcDbRasterVariables
  3
ISM
 90
        0
280
           0
281
           0
  0
CLASS
  1
IMAGEDEF
  2
AcDbRasterImageDef
  3
ISM
 90
        0
280
           0
281
           0
  0
CLASS
  1
IMAGEDEF_REACTOR
  2
AcDbRasterImageDefReactor
  3
ISM
 90
        1
280
           0
281
           0
  0
CLASS
  1
IDBUFFER
  2
AcDbIdBuffer
  3
"Acad"
 90
        0
280
           0
281
           0
  0
CLASS
  1
SPATIAL_FILTER
  2
AcDbSpatialFilter
  3
"Acad"
 90
        0
280
           0
281
           0
  0
CLASS
  1
XRECORD
  2
AcDbXrecord
  3
"<Built In>"
 90
        0
280
           0
281
           0
  0
CLASS
  1
SORTENTSTABLE
  2
AcDbSortentsTable
  3
"AutoCAD"
 90
        0
280
           0
281
           0
  0
CLASS
  1
LAYER_INDEX
  2
AcDbLayerIndex
  3
"Acad"
 90
        0
280
           0
281
           0
  0
CLASS
  1
SPATIAL_INDEX
  2
AcDbSpatialIndex
  3
"Acad"
 90
        0
280
           0
281
           0
  0
CLASS
  1
OBJECT_PTR
  2
CAseDLPNTableRecord
  3
"ASE-LPNTableRecord"
 90
        1
280
           0
281
           0
  0
CLASS
  1
LAYOUT
  2
AcDbLayout
  3
"AutoCAD 2000"
 90
        1
280
           0
281
           0
  0
CLASS
  1
PLOTSETTINGS
  2
AcDbPlotSettings
  3
"AutoCAD 2000"
 90
        1
280
           0
281
           0
  0
CLASS
  1
ACDBDICTIONARYWDFLT
  2
AcDbDictionaryWithDefault
  3
"AutoCAD 2000"
 90
        1
280
           0
281
           0
  0
CLASS
  1
ACDBPLACEHOLDER
  2
AcDbPlaceHolder
  3
"AutoCAD 2000"
 90
        1
280
           0
281
           0
  0
CLASS
  1
VBA_PROJECT
  2
AcDbVbaProject
  3
"acadvba"
 90
        1
280
           0
281
           0
  0
CLASS
  1
WIPEOUT
  2
AcDbWipeout
  3
WipeOut|AutoCAD Express Tool|expresstools@autodesk.com
 90
      127
280
           0
281
           1
  0
CLASS
  1
WIPEOUTVARIABLES
  2
AcDbWipeoutVariables
  3
WipeOut|AutoCAD Express Tool|expresstools@autodesk.com
 90
        0
280
           0
281
           0
  0
CLASS
  1
RTEXT
  2
RText
  3
RText|AutoCAD Express Tool|expresstools@autodesk.com
 90
        0
280
           0
281
           1
  0
CLASS
  1
ARCALIGNEDTEXT
  2
AcDbArcAlignedText
  3
ATEXT|AutoCAD Express Tool|expresstools@autodesk.com
 90
        0
280
           0
281
           1
  0
ENDSEC
  0
SECTION
  2
TABLES
  0
TABLE
  2
VPORT
  5
7
100
AcDbSymbolTable
 70
           1
  0
VPORT
  5
15
100
AcDbSymbolTableRecord
100
AcDbViewportTableRecord
  2
*ACTIVE
 70
           0
 10
0.0
 20
0.0
 11
1.0
 21
1.0
 12
6.591288
 22
4.579184
 13
0.0
 23
0.0
 14
1.0
 24
1.0
 15
0.0
 25
0.0
 16
0.0
 26
0.0
 36
1.0
 17
0.0
 27
0.0
 37
0.0
 40
9.158369
 41
0.688564
 42
50.0
 43
0.0
 44
0.0
 50
0.0
 51
0.0
 71
           0
 72
         100
 73
           1
 74
           1
 75
           0
 76
           0
 77
           0
 78
           0
  0
ENDTAB
  0
TABLE
  2
LTYPE
  5
4
100
AcDbSymbolTable
 70
          10
  0
LTYPE
  5
11
100
AcDbSymbolTableRecord
100
AcDbLinetypeTableRecord
  2
BYBLOCK
 70
          64
  3

 72
          65
 73
           0
 40
0.0
  0
LTYPE
  5
12
100
AcDbSymbolTableRecord
100
AcDbLinetypeTableRecord
  2
BYLAYER
 70
          64
  3

 72
          65
 73
           0
 40
0.0
  0
LTYPE
  5
13
100
AcDbSymbolTableRecord
100
AcDbLinetypeTableRecord
  2
CONTINUOUS
 70
          64
  3
Solid line
 72
          65
 73
           0
 40
0.0
  0
LTYPE
  5
1D
100
AcDbSymbolTableRecord
100
AcDbLinetypeTableRecord
  2
DASHED
 70
          64
  3
Dashed
 72
          65
 73
           2
 40
15.0
 49
12.0
 74
           0
 49
-3.0
 74
           0
  0
LTYPE
  5
1E
100
AcDbSymbolTableRecord
100
AcDbLinetypeTableRecord
  2
DOTTED
 70
          64
  3
Dotted
 72
          65
 73
           2
 40
3.5
 49
0.5
 74
           0
 49
-3.0
 74
           0
  0
LTYPE
  5
1F
100
AcDbSymbolTableRecord
100
AcDbLinetypeTableRecord
  2
DOT_CENTER
 70
          64
  3
Dot_Center
 72
          65
 73
           4
 40
2.0
 49
1.25
 74
           0
 49
-0.25
 74
           0
 49
0.25
 74
           0
 49
-0.25
 74
           0
  0
LTYPE
  5
20
100
AcDbSymbolTableRecord
100
AcDbLinetypeTableRecord
  2
LONG_DASHED
 70
          64
  3
Long_Dashed
 72
          65
 73
           2
 40
2.0
 49
1.5
 74
           0
 49
-0.5
 74
           0
  0
LTYPE
  5
21
100
AcDbSymbolTableRecord
100
AcDbLinetypeTableRecord
  2
DASH_CENTER
 70
          64
  3
Dash_Center
 72
          65
 73
           4
 40
36.0
 49
24.0
 74
           0
 49
-3.0
 74
           0
 49
6.0
 74
           0
 49
-3.0
 74
           0
  0
LTYPE
  5
22
100
AcDbSymbolTableRecord
100
AcDbLinetypeTableRecord
  2
PHANTOM
 70
          64
  3
Phantom
 72
          65
 73
           6
 40
2.5
 49
1.25
 74
           0
 49
-0.25
 74
           0
 49
0.25
 74
           0
 49
-0.25
 74
           0
 49
0.25
 74
           0
 49
-0.25
 74
           0
  0
LTYPE
  5
23
100
AcDbSymbolTableRecord
100
AcDbLinetypeTableRecord
  2
CENTER_DASH_DASH
 70
          64
  3
Center_Dash_Dash
 72
          65
 73
           6
 40
22.0
 49
12.0
 74
           0
 49
-3.0
 74
           0
 49
0.5
 74
           0
 49
-3.0
 74
           0
 49
0.5
 74
           0
 49
-3.0
 74
           0
  0
ENDTAB
  0
TABLE
  2
LAYER
  5
2
100
AcDbSymbolTable
 70
           6
  0
LAYER
  5
14
100
AcDbSymbolTableRecord
100
AcDbLayerTableRecord
  2
0
 70
           0
 62
           7
  6
CONTINUOUS
  0
LAYER
  5
24
100
AcDbSymbolTableRecord
100
AcDbLayerTableRecord
  2
976
 70
           0
 62
           7
  6
CONTINUOUS
  0
LAYER
  5
25
100
AcDbSymbolTableRecord
100
AcDbLayerTableRecord
  2
1
 70
           0
 62
           7
  6
CONTINUOUS
  0
LAYER
  5
26
100
AcDbSymbolTableRecord
100
AcDbLayerTableRecord
  2
2
 70
           0
 62
           7
  6
CONTINUOUS
  0
LAYER
  5
27
100
AcDbSymbolTableRecord
100
AcDbLayerTableRecord
  2
3
 70
           0
 62
           7
  6
CONTINUOUS
  0
LAYER
  5
28
100
AcDbSymbolTableRecord
100
AcDbLayerTableRecord
  2
7
 70
           0
 62
           7
  6
CONTINUOUS
  0
ENDTAB
  0
TABLE
  2
STYLE
  5
3
100
AcDbSymbolTable
 70
           1
  0
STYLE
  5
17
100
AcDbSymbolTableRecord
100
AcDbTextStyleTableRecord
  2
STANDARD
 70
           0
 40
0.0
 41
1.0
 50
0.0
 71
           0
 42
0.0
  3
txt
  4

  0
ENDTAB
  0
TABLE
  2
VIEW
  5
5
100
AcDbSymbolTable
 70
           0
  0
ENDTAB
  0
TABLE
  2
UCS
  5
6
100
AcDbSymbolTable
 70
           0
  0
ENDTAB
  0
TABLE
  2
APPID
  5
8
100
AcDbSymbolTable
 70
           1
  0
APPID
  5
16
100
AcDbSymbolTableRecord
100
AcDbRegAppTableRecord
  2
ACAD
 70
           0
  0
ENDTAB
  0
TABLE
  2
DIMSTYLE
  5
9
100
AcDbSymbolTable
 70
           1
  0
DIMSTYLE
105
18
100
AcDbSymbolTableRecord
100
AcDbDimStyleTableRecord
  2
STANDARD
 70
           0
  3

  4

  5

  6

  7

 40
1.0
 41
0.18
 42
0.0625
 43
0.38
 44
0.18
 45
0.0
 46
0.0
 47
0.0
 48
0.0
 71
           0
 72
           0
 73
           1
 74
           1
 75
           0
 76
           0
 77
           0
 78
           0
140
0.18
141
0.09
142
0.0
143
25.4
144
1.0
145
0.0
146
1.0
147
0.09
170
           0
171
           2
172
           0
173
           0
174
           0
175
           0
176
           0
177
           0
178
           0
270
           2
271
           4
272
           4
273
           2
274
           2
275
           0
280
           0
281
           0
282
           0
283
           1
284
           0
285
           0
286
           0
287
           0
288
           0
340
17
  0
ENDTAB
  0
TABLE
  2
BLOCK_RECORD
  5
1
100
AcDbSymbolTable
 70
           3
  0
BLOCK_RECORD
  5
A
100
AcDbSymbolTableRecord
100
AcDbBlockTableRecord
  2
*MODEL_SPACE
  0
BLOCK_RECORD
  5
B
100
AcDbSymbolTableRecord
100
AcDbBlockTableRecord
  2
*PAPER_SPACE
  0
BLOCK_RECORD
  5
29
100
AcDbSymbolTableRecord
100
AcDbBlockTableRecord
  2
3_AF40_02_2_A_0
  0
BLOCK_RECORD
  5
2B
100
AcDbSymbolTableRecord
100
AcDbBlockTableRecord
  2
1_AF40_02_2_A_0
  0
BLOCK_RECORD
  5
2E
100
AcDbSymbolTableRecord
100
AcDbBlockTableRecord
  2
ALF800B_10DATA
  0
ENDTAB
  0
ENDSEC
  0
SECTION
  2
BLOCKS
  0
BLOCK
  5
D
100
AcDbEntity
  8
0
100
AcDbBlockBegin
  2
*MODEL_SPACE
 70
           0
 10
0.0
 20
0.0
 30
0.0
  3
*MODEL_SPACE
  1

  0
ENDBLK
  5
E
100
AcDbEntity
  8
0
100
AcDbBlockEnd
  0
BLOCK
  5
F
100
AcDbEntity
 67
           1
  8
0
100
AcDbBlockBegin
  2
*PAPER_SPACE
 70
           0
 10
0.0
 20
0.0
 30
0.0
  3
*PAPER_SPACE
  1

  0
ENDBLK
  5
10
100
AcDbEntity
 67
           1
  8
0
100
AcDbBlockEnd
  0
BLOCK
  5
2A
100
AcDbEntity
  8
0
100
AcDbBlockBegin
  2
3_AF40_02_2_A_0
 70
           0
 10
0.0
 20
0.0
 30
0.0
  3
3_AF40_02_2_A_0
  1

  0
LEADER
  5
168
100
AcDbEntity
  8
976
  6
CONTINUOUS
 62
           2
100
AcDbLeader
  3
Standard
 71
           0
 73
           3
 74
           0
 75
           0
 40
0.0
 76
           2
 10
-623.012844335722
 20
202.094881866197
 30
0.0
 10
-634.873672165641
 20
202.094881866197
 30
0.0
 77
           2
  0
LEADER
  5
166
100
AcDbEntity
  8
976
  6
CONTINUOUS
 62
           2
100
AcDbLeader
  3
Standard
 71
           0
 73
           3
 74
           0
 75
           0
 40
0.0
 76
           2
 10
-534.090483781731
 20
202.641266548016
 30
0.0
 10
-545.951311611649
 20
202.641266548016
 30
0.0
 77
           2
  0
CIRCLE
  5
164
100
AcDbEntity
  8
0
  6
CONTINUOUS
 62
           7
100
AcDbCircle
 10
-746.945138096004
 20
198.390412709631
 40
5.7225
  0
CIRCLE
  5
163
100
AcDbEntity
  8
7
  6
CONTINUOUS
 62
           7
100
AcDbCircle
 10
-746.945138096004
 20
198.390412709631
 40
6.5785
  0
CIRCLE
  5
162
100
AcDbEntity
  8
0
  6
CONTINUOUS
 62
           7
100
AcDbCircle
 10
-609.655136417537
 20
372.180414388098
 40
2.067
  0
CIRCLE
  5
161
100
AcDbEntity
  8
0
  6
CONTINUOUS
 62
           7
100
AcDbCircle
 10
-562.655136417537
 20
372.180414388098
 40
2.067
  0
CIRCLE
  5
160
100
AcDbEntity
  8
0
  6
CONTINUOUS
 62
           7
100
AcDbCircle
 10
-609.655136417537
 20
312.180414388098
 40
2.067
  0
CIRCLE
  5
15F
100
AcDbEntity
  8
0
  6
CONTINUOUS
 62
           7
100
AcDbCircle
 10
-562.655136417537
 20
312.180414388098
 40
2.067
  0
CIRCLE
  5
15E
100
AcDbEntity
  8
7
  6
CONTINUOUS
 62
           7
100
AcDbCircle
 10
-562.655136417537
 20
312.180414388098
 40
2.5
  0
CIRCLE
  5
15D
100
AcDbEntity
  8
7
  6
CONTINUOUS
 62
           7
100
AcDbCircle
 10
-609.655136417537
 20
312.180414388098
 40
2.5
  0
CIRCLE
  5
15C
100
AcDbEntity
  8
7
  6
CONTINUOUS
 62
           7
100
AcDbCircle
 10
-425.36513473907
 20
198.390412709631
 40
6.5785
  0
CIRCLE
  5
15B
100
AcDbEntity
  8
0
  6
CONTINUOUS
 62
           7
100
AcDbCircle
 10
-425.36513473907
 20
198.390412709631
 40
5.7225
  0
ARC
  5
15A
100
AcDbEntity
  8
0
  6
CONTINUOUS
 62
           7
100
AcDbCircle
 10
-765.545138096004
 20
77.484719823644
 40
10.2
100
AcDbArc
 50
-179.999999999994
 51
-104.999999999999
  0
ARC
  5
159
100
AcDbEntity
  8
0
  6
CONTINUOUS
 62
           7
100
AcDbCircle
 10
-728.345138096004
 20
77.484719823644
 40
10.200000000001
100
AcDbArc
 50
-75.0
 51
0.0
  0
ARC
  5
158
100
AcDbEntity
  8
0
  6
CONTINUOUS
 62
           7
100
AcDbCircle
 10
-567.555136417537
 20
77.484719823644
 40
10.200000000001
100
AcDbArc
 50
-75.0
 51
0.0
  0
ARC
  5
157
100
AcDbEntity
  8
0
  6
CONTINUOUS
 62
           7
100
AcDbCircle
 10
-604.755136417537
 20
77.484719823644
 40
10.2
100
AcDbArc
 50
-179.999999999994
 51
-104.999999999999
  0
ARC
  5
156
100
AcDbEntity
  8
0
  6
CONTINUOUS
 62
           7
100
AcDbCircle
 10
-443.96513473907
 20
77.484719823644
 40
10.200000000001
100
AcDbArc
 50
-179.999999999994
 51
-105.0
  0
ARC
  5
155
100
AcDbEntity
  8
0
  6
CONTINUOUS
 62
           7
100
AcDbCircle
 10
-406.76513473907
 20
77.484719823644
 40
10.2
100
AcDbArc
 50
-75.000000000004
 51
0.0
  0
ARC
  5
154
100
AcDbEntity
  8
0
  6
CONTINUOUS
 62
           7
100
AcDbCircle
 10
-586.155136417537
 20
342.180414388098
 40
38.4
100
AcDbArc
 50
-102.611754908338
 51
-77.388245091663
  0
ARC
  5
153
100
AcDbEntity
  8
0
  6
CONTINUOUS
 62
           7
100
AcDbCircle
 10
-608.562063622119
 20
371.680414388098
 40
6.0
100
AcDbArc
 50
90.0
 51
164.999999999999
  0
ARC
  5
152
100
AcDbEntity
  8
0
  6
CONTINUOUS
 62
           7
100
AcDbCircle
 10
-563.748209212956
 20
371.680414388098
 40
6.0
100
AcDbArc
 50
14.999999999999
 51
90.0
  0
ARC
  5
151
100
AcDbEntity
  8
0
  6
CONTINUOUS
 62
           7
100
AcDbCircle
 10
-563.748209212956
 20
312.680414388098
 40
6.0
100
AcDbArc
 50
-90.0
 51
-14.999999999997
  0
ARC
  5
150
100
AcDbEntity
  8
0
  6
CONTINUOUS
 62
           7
100
AcDbCircle
 10
-608.562063622119
 20
312.680414388098
 40
6.0
100
AcDbArc
 50
-164.999999999992
 51
-89.999999999999
  0
ARC
  5
14F
100
AcDbEntity
  8
0
  6
CONTINUOUS
 62
           7
100
AcDbCircle
 10
-586.155136417537
 20
342.180414388098
 40
27.0
100
AcDbArc
 50
42.343413804063
 51
137.656586195937
  0
ARC
  5
14E
100
AcDbEntity
  8
0
  6
CONTINUOUS
 62
           7
100
AcDbCircle
 10
-586.155136417537
 20
342.180414388098
 40
27.0
100
AcDbArc
 50
-137.656586195935
 51
-42.343413804065
  0
ARC
  5
14D
100
AcDbEntity
  8
7
  6
CONTINUOUS
 62
           7
100
AcDbCircle
 10
-562.655136417537
 20
372.180414388098
 40
2.499999999999
100
AcDbArc
 50
75.000000000004
 51
14.999999999997
  0
ARC
  5
14C
100
AcDbEntity
  8
7
  6
CONTINUOUS
 62
           7
100
AcDbCircle
 10
-609.655136417537
 20
372.180414388098
 40
2.499999999999
100
AcDbArc
 50
74.999999999996
 51
14.999999999993
  0
ARC
  5
14B
100
AcDbEntity
  8
7
  6
CONTINUOUS
 62
           7
100
AcDbCircle
 10
-562.655136417537
 20
372.180414388098
 40
2.499999999999
100
AcDbArc
 50
14.999999999997
 51
-75.000000000009
  0
ARC
  5
14A
100
AcDbEntity
  8
7
  6
CONTINUOUS
 62
           7
100
AcDbCircle
 10
-609.655136417537
 20
372.180414388098
 40
2.5
100
AcDbArc
 50
14.999999999993
 51
-75.000000000001
  0
LINE
  5
149
100
AcDbEntity
  8
2
  6
DASHED
 62
           7
100
AcDbLine
 10
-743.371968467093
 20
48.790412709631
 11
-743.371968467093
 21
59.790412709631
  0
LINE
  5
148
100
AcDbEntity
  8
2
  6
DASHED
 62
           7
100
AcDbLine
 10
-750.371701928542
 20
48.790412709631
 11
-750.371701928542
 21
59.790412709631
  0
LINE
  5
147
100
AcDbEntity
  8
2
  6
DASHED
 62
           7
100
AcDbLine
 10
-753.125532426863
 20
48.790412709631
 11
-753.125532426863
 21
59.790412709631
  0
LINE
  5
146
100
AcDbEntity
  8
2
  6
DASHED
 62
           7
100
AcDbLine
 10
-740.677033155844
 20
48.790412709631
 11
-740.677033155844
 21
59.790412709631
  0
LINE
  5
145
100
AcDbEntity
  8
2
  6
DASHED
 62
           7
100
AcDbLine
 10
-718.364768959129
 20
139.840412709631
 11
-718.364768959129
 21
132.340412709631
  0
LINE
  5
144
100
AcDbEntity
  8
2
  6
DASHED
 62
           7
100
AcDbLine
 10
-718.145138096004
 20
132.340412709631
 11
-718.145138096004
 21
139.840412709631
  0
LINE
  5
143
100
AcDbEntity
  8
3
  6
DOT_CENTER
 62
           3
100
AcDbLine
 10
-753.852563096004
 20
198.390412709631
 11
-740.037713096004
 21
198.390412709631
  0
LINE
  5
142
100
AcDbEntity
  8
3
  6
DOT_CENTER
 62
           3
100
AcDbLine
 10
-746.945138096004
 20
27.636596885295
 11
-746.945138096004
 21
227.632861328282
  0
LINE
  5
141
100
AcDbEntity
  8
0
  6
CONTINUOUS
 62
           7
100
AcDbLine
 10
-743.545138096004
 20
59.790412709631
 11
-743.545138096004
 21
62.290412709631
  0
LINE
  5
140
100
AcDbEntity
  8
0
  6
CONTINUOUS
 62
           7
100
AcDbLine
 10
-750.345138096004
 20
62.290412709631
 11
-750.345138096004
 21
59.790412709631
  0
LINE
  5
13F
100
AcDbEntity
  8
0
  6
CONTINUOUS
 62
           7
100
AcDbLine
 10
-754.945138096004
 20
59.790412709631
 11
-754.945138096004
 21
48.790412709631
  0
LINE
  5
13E
100
AcDbEntity
  8
0
  6
CONTINUOUS
 62
           7
100
AcDbLine
 10
-738.945138096004
 20
48.790412709631
 11
-738.945138096004
 21
59.790412709631
  0
LINE
  5
13D
100
AcDbEntity
  8
0
  6
CONTINUOUS
 62
           7
100
AcDbLine
 10
-738.945138096004
 20
59.790412709631
 11
-754.945138096004
 21
59.790412709631
  0
LINE
  5
13C
100
AcDbEntity
  8
0
  6
CONTINUOUS
 62
           7
100
AcDbLine
 10
-738.945138096004
 20
48.790412709631
 11
-754.945138096004
 21
48.790412709631
  0
LINE
  5
13B
100
AcDbEntity
  8
1
  6
CONTINUOUS
 62
           7
100
AcDbLine
 10
-753.213243036164
 20
48.790412709631
 11
-753.213243036164
 21
59.790412709631
  0
LINE
  5
13A
100
AcDbEntity
  8
0
  6
CONTINUOUS
 62
           7
100
AcDbLine
 10
-750.518307724915
 20
48.790412709631
 11
-750.518307724915
 21
59.790412709631
  0
LINE
  5
139
100
AcDbEntity
  8
0
  6
CONTINUOUS
 62
           7
100
AcDbLine
 10
-743.518574263466
 20
48.790412709631
 11
-743.518574263466
 21
59.790412709631
  0
LINE
  5
138
100
AcDbEntity
  8
1
  6
CONTINUOUS
 62
           7
100
AcDbLine
 10
-740.764743765145
 20
48.790412709631
 11
-740.764743765145
 21
59.790412709631
  0
LINE
  5
137
100
AcDbEntity
  8
0
  6
CONTINUOUS
 62
           7
100
AcDbLine
 10
-713.145138096004
 20
139.840412709631
 11
-713.145138096004
 21
132.340412709631
  0
LINE
  5
136
100
AcDbEntity
  8
0
  6
CONTINUOUS
 62
           7
100
AcDbLine
 10
-718.675189387172
 20
132.340412709631
 11
-713.145138096004
 21
132.340412709631
  0
LINE
  5
135
100
AcDbEntity
  8
0
  6
CONTINUOUS
 62
           7
100
AcDbLine
 10
-708.545138096004
 20
137.190412709631
 11
-708.545138096004
 21
138.590412709631
  0
LINE
  5
134
100
AcDbEntity
  8
0
  6
CONTINUOUS
 62
           7
100
AcDbLine
 10
-708.545138096004
 20
138.590412709631
 11
-711.545138096004
 21
138.590412709631
  0
LINE
  5
133
100
AcDbEntity
  8
0
  6
CONTINUOUS
 62
           7
100
AcDbLine
 10
-719.490630269419
 20
152.850412709631
 11
-712.945138096004
 21
152.850412709631
  0
LINE
  5
132
100
AcDbEntity
  8
0
  6
CONTINUOUS
 62
           7
100
AcDbLine
 10
-719.490630269419
 20
139.840412709631
 11
-712.945138096004
 21
139.840412709631
  0
LINE
  5
131
100
AcDbEntity
  8
0
  6
CONTINUOUS
 62
           7
100
AcDbLine
 10
-708.545138096004
 20
137.190412709631
 11
-712.945138096004
 21
137.190412709631
  0
LINE
  5
130
100
AcDbEntity
  8
0
  6
CONTINUOUS
 62
           7
100
AcDbLine
 10
-712.945138096004
 20
157.090412709631
 11
-712.945138096004
 21
137.190412709631
  0
LINE
  5
12F
100
AcDbEntity
  8
0
  6
CONTINUOUS
 62
           7
100
AcDbLine
 10
-711.545138096004
 20
155.22534920017
 11
-712.945138096004
 21
155.22534920017
  0
LINE
  5
12E
100
AcDbEntity
  8
0
  6
CONTINUOUS
 62
           7
100
AcDbLine
 10
-711.545138096004
 20
137.190412709631
 11
-711.545138096004
 21
157.090412709631
  0
LINE
  5
12D
100
AcDbEntity
  8
0
  6
CONTINUOUS
 62
           7
100
AcDbLine
 10
-709.471653805632
 20
137.190412709631
 11
-709.471653805632
 21
138.590412709631
  0
LINE
  5
12C
100
AcDbEntity
  8
0
  6
CONTINUOUS
 62
           7
100
AcDbLine
 10
-759.445138096004
 20
65.290412709631
 11
-759.445138096004
 21
62.290412709631
  0
LINE
  5
12B
100
AcDbEntity
  8
0
  6
CONTINUOUS
 62
           7
100
AcDbLine
 10
-734.445138096004
 20
62.290412709631
 11
-734.445138096004
 21
65.290412709631
  0
LINE
  5
12A
100
AcDbEntity
  8
0
  6
CONTINUOUS
 62
           7
100
AcDbLine
 10
-734.445138096004
 20
62.290412709631
 11
-759.445138096004
 21
62.290412709631
  0
LINE
  5
129
100
AcDbEntity
  8
0
  6
CONTINUOUS
 62
           7
100
AcDbLine
 10
-734.445138096004
 20
65.290412709631
 11
-725.705183835958
 21
67.632276395495
  0
LINE
  5
128
100
AcDbEntity
  8
0
  6
CONTINUOUS
 62
           7
100
AcDbLine
 10
-768.18509235605
 20
67.632276395495
 11
-759.445138096004
 21
65.290412709631
  0
LINE
  5
127
100
AcDbEntity
  8
0
  6
CONTINUOUS
 62
           7
100
AcDbLine
 10
-734.445138096004
 20
65.290412709631
 11
-759.445138096004
 21
65.290412709631
  0
LINE
  5
126
100
AcDbEntity
  8
0
  6
CONTINUOUS
 62
           7
100
AcDbLine
 10
-719.490630269419
 20
139.840412709631
 11
-719.490630269419
 21
152.850412709631
  0
LINE
  5
125
100
AcDbEntity
  8
0
  6
CONTINUOUS
 62
           7
100
AcDbLine
 10
-718.675189387172
 20
132.340412709631
 11
-718.675189387172
 21
139.840412709631
  0
LINE
  5
124
100
AcDbEntity
  8
0
  6
CONTINUOUS
 62
           7
100
AcDbLine
 10
-775.745138096004
 20
157.090412709631
 11
-775.745138096004
 21
77.484719823643
  0
LINE
  5
123
100
AcDbEntity
  8
0
  6
CONTINUOUS
 62
           7
100
AcDbLine
 10
-718.145138096004
 20
77.484719823644
 11
-718.145138096004
 21
132.340412709631
  0
LINE
  5
122
100
AcDbEntity
  8
0
  6
CONTINUOUS
 62
           7
100
AcDbLine
 10
-718.145138096004
 20
152.850412709631
 11
-718.145138096004
 21
157.090412709631
  0
LINE
  5
121
100
AcDbEntity
  8
0
  6
CONTINUOUS
 62
           7
100
AcDbLine
 10
-773.945138096004
 20
210.390412709631
 11
-773.945138096004
 21
186.390412709631
  0
LINE
  5
120
100
AcDbEntity
  8
0
  6
CONTINUOUS
 62
           7
100
AcDbLine
 10
-773.945138096004
 20
210.390412709631
 11
-764.945138096004
 21
210.390412709631
  0
LINE
  5
11F
100
AcDbEntity
  8
0
  6
CONTINUOUS
 62
           7
100
AcDbLine
 10
-728.945138096004
 20
210.390412709631
 11
-719.945138096004
 21
210.390412709631
  0
LINE
  5
11E
100
AcDbEntity
  8
0
  6
CONTINUOUS
 62
           7
100
AcDbLine
 10
-719.945138096004
 20
186.390412709631
 11
-719.945138096004
 21
210.390412709631
  0
LINE
  5
11D
100
AcDbEntity
  8
0
  6
CONTINUOUS
 62
           7
100
AcDbLine
 10
-765.131602317962
 20
210.390412709631
 11
-765.131602317962
 21
186.390412709631
  0
LINE
  5
11C
100
AcDbEntity
  8
0
  6
CONTINUOUS
 62
           7
100
AcDbLine
 10
-728.758673874046
 20
210.390412709631
 11
-728.758673874046
 21
186.390412709631
  0
LINE
  5
11B
100
AcDbEntity
  8
0
  6
CONTINUOUS
 62
           7
100
AcDbLine
 10
-782.445138096004
 20
157.090412709631
 11
-711.445138096004
 21
157.090412709631
  0
LINE
  5
11A
100
AcDbEntity
  8
0
  6
CONTINUOUS
 62
           7
100
AcDbLine
 10
-782.445138096004
 20
186.390412709631
 11
-764.945138096004
 21
186.390412709631
  0
LINE
  5
119
100
AcDbEntity
  8
0
  6
CONTINUOUS
 62
           7
100
AcDbLine
 10
-782.445138096004
 20
186.390412709631
 11
-782.445138096004
 21
157.090412709631
  0
LINE
  5
118
100
AcDbEntity
  8
0
  6
CONTINUOUS
 62
           7
100
AcDbLine
 10
-728.945138096004
 20
186.390412709631
 11
-711.445138096004
 21
186.390412709631
  0
LINE
  5
117
100
AcDbEntity
  8
0
  6
CONTINUOUS
 62
           7
100
AcDbLine
 10
-711.445138096004
 20
186.390412709631
 11
-711.445138096004
 21
157.090412709631
  0
LINE
  5
116
100
AcDbEntity
  8
0
  6
CONTINUOUS
 62
           7
100
AcDbLine
 10
-728.945138096004
 20
180.390412709631
 11
-764.945138096004
 21
180.390412709631
  0
LINE
  5
115
100
AcDbEntity
  8
0
  6
CONTINUOUS
 62
           7
100
AcDbLine
 10
-759.445138096004
 20
216.390412709631
 11
-764.945138096004
 21
210.890412709631
  0
LINE
  5
114
100
AcDbEntity
  8
0
  6
CONTINUOUS
 62
           7
100
AcDbLine
 10
-728.945138096004
 20
210.890412709631
 11
-734.445138096004
 21
216.390412709631
  0
LINE
  5
113
100
AcDbEntity
  8
0
  6
CONTINUOUS
 62
           7
100
AcDbLine
 10
-728.945138096004
 20
210.890412709631
 11
-728.945138096004
 21
157.090412709631
  0
LINE
  5
112
100
AcDbEntity
  8
0
  6
CONTINUOUS
 62
           7
100
AcDbLine
 10
-759.445138096004
 20
216.390412709631
 11
-734.445138096004
 21
216.390412709631
  0
LINE
  5
111
100
AcDbEntity
  8
0
  6
CONTINUOUS
 62
           7
100
AcDbLine
 10
-764.945138096004
 20
210.890412709631
 11
-764.945138096004
 21
157.090412709631
  0
LINE
  5
110
100
AcDbEntity
  8
0
  6
CONTINUOUS
 62
           7
100
AcDbLine
 10
-728.945138096004
 20
177.190412709631
 11
-764.945138096004
 21
177.190412709631
  0
LINE
  5
10F
100
AcDbEntity
  8
2
  6
DASHED
 62
           7
100
AcDbLine
 10
-581.07549805294
 20
48.790412709631
 11
-581.07549805294
 21
59.790412709631
  0
LINE
  5
10E
100
AcDbEntity
  8
2
  6
DASHED
 62
           7
100
AcDbLine
 10
-591.126138374803
 20
48.790412709631
 11
-591.126138374803
 21
59.790412709631
  0
LINE
  5
10D
100
AcDbEntity
  8
2
  6
DASHED
 62
           7
100
AcDbLine
 10
-594.524273697032
 20
48.790412709631
 11
-594.524273697032
 21
59.790412709631
  0
LINE
  5
10C
100
AcDbEntity
  8
0
  6
CONTINUOUS
 62
           7
100
AcDbLine
 10
-582.755136417537
 20
59.790412709631
 11
-582.755136417537
 21
62.290412709631
  0
LINE
  5
10B
100
AcDbEntity
  8
0
  6
CONTINUOUS
 62
           7
100
AcDbLine
 10
-589.555136417537
 20
62.290412709631
 11
-589.555136417537
 21
59.790412709631
  0
LINE
  5
10A
100
AcDbEntity
  8
0
  6
CONTINUOUS
 62
           7
100
AcDbLine
 10
-577.724913389554
 20
59.790412709631
 11
-594.585359445521
 21
59.790412709631
  0
LINE
  5
109
100
AcDbEntity
  8
0
  6
CONTINUOUS
 62
           7
100
AcDbLine
 10
-577.724913389554
 20
48.790412709631
 11
-594.585359445521
 21
48.790412709631
  0
LINE
  5
108
100
AcDbEntity
  8
0
  6
CONTINUOUS
 62
           7
100
AcDbLine
 10
-577.724913389554
 20
48.790412709631
 11
-577.724913389554
 21
59.790412709631
  0
LINE
  5
107
100
AcDbEntity
  8
0
  6
CONTINUOUS
 62
           7
100
AcDbLine
 10
-594.585359445521
 20
48.790412709631
 11
-594.585359445521
 21
59.790412709631
  0
LINE
  5
106
100
AcDbEntity
  8
0
  6
CONTINUOUS
 62
           7
100
AcDbLine
 10
-577.785999138042
 20
48.790412709631
 11
-577.785999138042
 21
59.790412709631
  0
LINE
  5
105
100
AcDbEntity
  8
1
  6
CONTINUOUS
 62
           7
100
AcDbLine
 10
-591.234774782134
 20
48.790412709631
 11
-591.234774782134
 21
59.790412709631
  0
LINE
  5
104
100
AcDbEntity
  8
1
  6
CONTINUOUS
 62
           7
100
AcDbLine
 10
-581.184134460272
 20
48.790412709631
 11
-581.184134460272
 21
59.790412709631
  0
LINE
  5
103
100
AcDbEntity
  8
0
  6
CONTINUOUS
 62
           7
100
AcDbLine
 10
-598.655136417537
 20
65.290412709631
 11
-598.655136417537
 21
62.290412709631
  0
LINE
  5
102
100
AcDbEntity
  8
0
  6
CONTINUOUS
 62
           7
100
AcDbLine
 10
-573.655136417537
 20
62.290412709631
 11
-573.655136417537
 21
65.290412709631
  0
LINE
  5
101
100
AcDbEntity
  8
0
  6
CONTINUOUS
 62
           7
100
AcDbLine
 10
-573.655136417537
 20
62.290412709631
 11
-598.655136417537
 21
62.290412709631
  0
LINE
  5
100
100
AcDbEntity
  8
0
  6
CONTINUOUS
 62
           7
100
AcDbLine
 10
-573.655136417537
 20
65.290412709631
 11
-564.915182157491
 21
67.632276395495
  0
LINE
  5
FF
100
AcDbEntity
  8
0
  6
CONTINUOUS
 62
           7
100
AcDbLine
 10
-607.395090677583
 20
67.632276395495
 11
-598.655136417537
 21
65.290412709631
  0
LINE
  5
FE
100
AcDbEntity
  8
0
  6
CONTINUOUS
 62
           7
100
AcDbLine
 10
-573.655136417537
 20
65.290412709631
 11
-598.655136417537
 21
65.290412709631
  0
LINE
  5
FD
100
AcDbEntity
  8
0
  6
CONTINUOUS
 62
           7
100
AcDbLine
 10
-614.955136417537
 20
157.090412709631
 11
-614.955136417537
 21
77.484719823643
  0
LINE
  5
FC
100
AcDbEntity
  8
0
  6
CONTINUOUS
 62
           7
100
AcDbLine
 10
-557.355136417537
 20
77.484719823644
 11
-557.355136417537
 21
157.090412709631
  0
LINE
  5
FB
100
AcDbEntity
  8
0
  6
CONTINUOUS
 62
           7
100
AcDbLine
 10
-582.605136417537
 20
132.340412709631
 11
-582.605136417537
 21
137.190412709631
  0
LINE
  5
FA
100
AcDbEntity
  8
0
  6
CONTINUOUS
 62
           7
100
AcDbLine
 10
-580.655136417537
 20
132.340412709631
 11
-580.655136417537
 21
137.190412709631
  0
LINE
  5
F9
100
AcDbEntity
  8
0
  6
CONTINUOUS
 62
           7
100
AcDbLine
 10
-582.605136417537
 20
132.340412709631
 11
-580.655136417537
 21
132.340412709631
  0
LINE
  5
F8
100
AcDbEntity
  8
0
  6
CONTINUOUS
 62
           7
100
AcDbLine
 10
-591.655136417537
 20
137.190412709631
 11
-591.655136417537
 21
132.340412709631
  0
LINE
  5
F7
100
AcDbEntity
  8
0
  6
CONTINUOUS
 62
           7
100
AcDbLine
 10
-591.655136417537
 20
132.340412709631
 11
-589.705136417537
 21
132.340412709631
  0
LINE
  5
F6
100
AcDbEntity
  8
0
  6
CONTINUOUS
 62
           7
100
AcDbLine
 10
-589.705136417537
 20
137.190412709631
 11
-589.705136417537
 21
132.340412709631
  0
LINE
  5
F5
100
AcDbEntity
  8
0
  6
CONTINUOUS
 62
           7
100
AcDbLine
 10
-577.405136417537
 20
155.22534920017
 11
-578.655136417537
 21
157.390412709631
  0
LINE
  5
F4
100
AcDbEntity
  8
0
  6
CONTINUOUS
 62
           7
100
AcDbLine
 10
-594.905136417537
 20
155.22534920017
 11
-594.905136417537
 21
137.190412709631
  0
LINE
  5
F3
100
AcDbEntity
  8
0
  6
CONTINUOUS
 62
           7
100
AcDbLine
 10
-578.655136417537
 20
157.390412709631
 11
-578.655136417537
 21
159.090412709631
  0
LINE
  5
F2
100
AcDbEntity
  8
0
  6
CONTINUOUS
 62
           7
100
AcDbLine
 10
-577.405136417537
 20
137.190412709631
 11
-577.405136417537
 21
155.22534920017
  0
LINE
  5
F1
100
AcDbEntity
  8
0
  6
CONTINUOUS
 62
           7
100
AcDbLine
 10
-593.655136417537
 20
159.090412709631
 11
-593.655136417537
 21
157.390412709631
  0
LINE
  5
F0
100
AcDbEntity
  8
0
  6
CONTINUOUS
 62
           7
100
AcDbLine
 10
-593.655136417537
 20
157.390412709631
 11
-594.905136417537
 21
155.22534920017
  0
LINE
  5
EF
100
AcDbEntity
  8
0
  6
CONTINUOUS
 62
           7
100
AcDbLine
 10
-577.405136417537
 20
137.190412709631
 11
-594.905136417537
 21
137.190412709631
  0
LINE
  5
EE
100
AcDbEntity
  8
0
  6
CONTINUOUS
 62
           7
100
AcDbLine
 10
-577.405136417537
 20
138.590412709631
 11
-594.905136417537
 21
138.590412709631
  0
LINE
  5
ED
100
AcDbEntity
  8
0
  6
CONTINUOUS
 62
           7
100
AcDbLine
 10
-594.53952519307
 20
137.190412709631
 11
-594.53952519307
 21
138.590412709631
  0
LINE
  5
EC
100
AcDbEntity
  8
0
  6
CONTINUOUS
 62
           7
100
AcDbLine
 10
-577.770747642005
 20
137.190412709631
 11
-577.770747642005
 21
138.590412709631
  0
LINE
  5
EB
100
AcDbEntity
  8
0
  6
CONTINUOUS
 62
           7
100
AcDbLine
 10
-551.155136417537
 20
180.390412709631
 11
-551.155136417537
 21
216.390412709631
  0
LINE
  5
EA
100
AcDbEntity
  8
0
  6
CONTINUOUS
 62
           7
100
AcDbLine
 10
-615.834410475373
 20
214.390412709631
 11
-556.475862359701
 21
214.390412709631
  0
LINE
  5
E9
100
AcDbEntity
  8
0
  6
CONTINUOUS
 62
           7
100
AcDbLine
 10
-551.155136417537
 20
216.390412709631
 11
-621.155136417537
 21
216.390412709631
  0
LINE
  5
E8
100
AcDbEntity
  8
0
  6
CONTINUOUS
 62
           7
100
AcDbLine
 10
-621.155136417537
 20
180.390412709631
 11
-621.155136417537
 21
216.390412709631
  0
LINE
  5
E7
100
AcDbEntity
  8
0
  6
CONTINUOUS
 62
           7
100
AcDbLine
 10
-617.855136417537
 20
210.890412709631
 11
-615.834410475373
 21
214.390412709631
  0
LINE
  5
E6
100
AcDbEntity
  8
0
  6
CONTINUOUS
 62
           7
100
AcDbLine
 10
-615.834410475373
 20
214.390412709631
 11
-615.834410475373
 21
186.390412709631
  0
LINE
  5
E5
100
AcDbEntity
  8
0
  6
CONTINUOUS
 62
           7
100
AcDbLine
 10
-556.475862359701
 20
214.390412709631
 11
-554.455136417537
 21
210.890412709631
  0
LINE
  5
E4
100
AcDbEntity
  8
0
  6
CONTINUOUS
 62
           7
100
AcDbLine
 10
-556.475862359701
 20
214.390412709631
 11
-556.475862359701
 21
186.390412709631
  0
LINE
  5
E3
100
AcDbEntity
  8
0
  6
CONTINUOUS
 62
           7
100
AcDbLine
 10
-618.955136417537
 20
180.390412709631
 11
-621.155136417537
 21
180.390412709631
  0
LINE
  5
E2
100
AcDbEntity
  8
0
  6
CONTINUOUS
 62
           7
100
AcDbLine
 10
-618.955136417537
 20
177.190412709631
 11
-618.955136417537
 21
180.390412709631
  0
LINE
  5
E1
100
AcDbEntity
  8
0
  6
CONTINUOUS
 62
           7
100
AcDbLine
 10
-621.155136417537
 20
177.190412709631
 11
-618.955136417537
 21
177.190412709631
  0
LINE
  5
E0
100
AcDbEntity
  8
0
  6
CONTINUOUS
 62
           7
100
AcDbLine
 10
-621.155136417537
 20
177.190412709631
 11
-621.155136417537
 21
157.090412709631
  0
LINE
  5
DF
100
AcDbEntity
  8
0
  6
CONTINUOUS
 62
           7
100
AcDbLine
 10
-617.855136417537
 20
210.890412709631
 11
-617.855136417537
 21
157.090412709631
  0
LINE
  5
DE
100
AcDbEntity
  8
0
  6
CONTINUOUS
 62
           7
100
AcDbLine
 10
-617.855136417537
 20
210.890412709631
 11
-621.155136417537
 21
210.890412709631
  0
LINE
  5
DD
100
AcDbEntity
  8
0
  6
CONTINUOUS
 62
           7
100
AcDbLine
 10
-551.155136417537
 20
180.390412709631
 11
-553.355136417537
 21
180.390412709631
  0
LINE
  5
DC
100
AcDbEntity
  8
0
  6
CONTINUOUS
 62
           7
100
AcDbLine
 10
-551.155136417537
 20
210.890412709631
 11
-554.455136417537
 21
210.890412709631
  0
LINE
  5
DB
100
AcDbEntity
  8
0
  6
CONTINUOUS
 62
           7
100
AcDbLine
 10
-554.455136417537
 20
210.890412709631
 11
-554.455136417537
 21
157.090412709631
  0
LINE
  5
DA
100
AcDbEntity
  8
0
  6
CONTINUOUS
 62
           7
100
AcDbLine
 10
-551.155136417537
 20
177.190412709631
 11
-551.155136417537
 21
157.090412709631
  0
LINE
  5
D9
100
AcDbEntity
  8
0
  6
CONTINUOUS
 62
           7
100
AcDbLine
 10
-553.355136417537
 20
177.190412709631
 11
-551.155136417537
 21
177.190412709631
  0
LINE
  5
D8
100
AcDbEntity
  8
0
  6
CONTINUOUS
 62
           7
100
AcDbLine
 10
-553.355136417537
 20
180.390412709631
 11
-553.355136417537
 21
177.190412709631
  0
LINE
  5
D7
100
AcDbEntity
  8
0
  6
CONTINUOUS
 62
           7
100
AcDbLine
 10
-565.255136417537
 20
210.390412709631
 11
-565.255136417537
 21
186.390412709631
  0
LINE
  5
D6
100
AcDbEntity
  8
0
  6
CONTINUOUS
 62
           7
100
AcDbLine
 10
-607.055136417537
 20
210.390412709631
 11
-565.255136417537
 21
210.390412709631
  0
LINE
  5
D5
100
AcDbEntity
  8
0
  6
CONTINUOUS
 62
           7
100
AcDbLine
 10
-607.055136417537
 20
210.390412709631
 11
-607.055136417537
 21
186.390412709631
  0
LINE
  5
D4
100
AcDbEntity
  8
0
  6
CONTINUOUS
 62
           7
100
AcDbLine
 10
-566.198871258358
 20
210.390412709631
 11
-566.198871258358
 21
186.390412709631
  0
LINE
  5
D3
100
AcDbEntity
  8
0
  6
CONTINUOUS
 62
           7
100
AcDbLine
 10
-606.111401576716
 20
210.390412709631
 11
-606.111401576716
 21
186.390412709631
  0
LINE
  5
D2
100
AcDbEntity
  8
0
  6
CONTINUOUS
 62
           7
100
AcDbLine
 10
-617.855136417537
 20
186.390412709631
 11
-554.455136417537
 21
186.390412709631
  0
LINE
  5
D1
100
AcDbEntity
  8
0
  6
CONTINUOUS
 62
           7
100
AcDbLine
 10
-578.48193133678
 20
157.090412709631
 11
-551.155136417537
 21
157.090412709631
  0
LINE
  5
D0
100
AcDbEntity
  8
1
  6
CONTINUOUS
 62
           7
100
AcDbLine
 10
-557.952654255221
 20
186.390412709631
 11
-557.952654255221
 21
157.090412709631
  0
LINE
  5
CF
100
AcDbEntity
  8
0
  6
CONTINUOUS
 62
           7
100
AcDbLine
 10
-594.000435879158
 20
159.090412709631
 11
-595.155136417537
 21
157.090412709631
  0
LINE
  5
CE
100
AcDbEntity
  8
0
  6
CONTINUOUS
 62
           7
100
AcDbLine
 10
-578.309836955917
 20
159.090412709631
 11
-594.000435879158
 21
159.090412709631
  0
LINE
  5
CD
100
AcDbEntity
  8
0
  6
CONTINUOUS
 62
           7
100
AcDbLine
 10
-577.155136417537
 20
157.090412709631
 11
-578.309836955917
 21
159.090412709631
  0
LINE
  5
CC
100
AcDbEntity
  8
1
  6
CONTINUOUS
 62
           7
100
AcDbLine
 10
-563.748209212956
 20
186.390412709631
 11
-563.748209212956
 21
157.090412709631
  0
LINE
  5
CB
100
AcDbEntity
  8
0
  6
CONTINUOUS
 62
           7
100
AcDbLine
 10
-621.155136417537
 20
157.090412709631
 11
-593.828341498294
 21
157.090412709631
  0
LINE
  5
CA
100
AcDbEntity
  8
1
  6
CONTINUOUS
 62
           7
100
AcDbLine
 10
-608.562063622119
 20
186.390412709631
 11
-608.562063622119
 21
157.090412709631
  0
LINE
  5
C9
100
AcDbEntity
  8
1
  6
CONTINUOUS
 62
           7
100
AcDbLine
 10
-614.357618579853
 20
186.390412709631
 11
-614.357618579853
 21
157.090412709631
  0
LINE
  5
C8
100
AcDbEntity
  8
2
  6
DASHED
 62
           7
100
AcDbLine
 10
-421.79196511016
 20
48.790412709631
 11
-421.79196511016
 21
59.790412709631
  0
LINE
  5
C7
100
AcDbEntity
  8
2
  6
DASHED
 62
           7
100
AcDbLine
 10
-428.791698571609
 20
48.790412709631
 11
-428.791698571609
 21
59.790412709631
  0
LINE
  5
C6
100
AcDbEntity
  8
2
  6
DASHED
 62
           7
100
AcDbLine
 10
-431.545529069929
 20
48.790412709631
 11
-431.545529069929
 21
59.790412709631
  0
LINE
  5
C5
100
AcDbEntity
  8
2
  6
DASHED
 62
           7
100
AcDbLine
 10
-419.09702979891
 20
48.790412709631
 11
-419.09702979891
 21
59.790412709631
  0
LINE
  5
C4
100
AcDbEntity
  8
2
  6
DASHED
 62
           7
100
AcDbLine
 10
-453.945503875945
 20
132.340412709631
 11
-453.945503875945
 21
139.840412709631
  0
LINE
  5
C3
100
AcDbEntity
  8
2
  6
DASHED
 62
           7
100
AcDbLine
 10
-454.165134739071
 20
139.840412709631
 11
-454.165134739071
 21
132.340412709631
  0
LINE
  5
C2
100
AcDbEntity
  8
0
  6
CONTINUOUS
 62
           7
100
AcDbLine
 10
-421.96513473907
 20
59.790412709631
 11
-421.96513473907
 21
62.290412709631
  0
LINE
  5
C1
100
AcDbEntity
  8
0
  6
CONTINUOUS
 62
           7
100
AcDbLine
 10
-428.76513473907
 20
62.290412709631
 11
-428.76513473907
 21
59.790412709631
  0
LINE
  5
C0
100
AcDbEntity
  8
0
  6
CONTINUOUS
 62
           7
100
AcDbLine
 10
-433.36513473907
 20
59.790412709631
 11
-433.36513473907
 21
48.790412709631
  0
LINE
  5
BF
100
AcDbEntity
  8
0
  6
CONTINUOUS
 62
           7
100
AcDbLine
 10
-417.36513473907
 20
48.790412709631
 11
-417.36513473907
 21
59.790412709631
  0
LINE
  5
BE
100
AcDbEntity
  8
0
  6
CONTINUOUS
 62
           7
100
AcDbLine
 10
-417.36513473907
 20
59.790412709631
 11
-433.36513473907
 21
59.790412709631
  0
LINE
  5
BD
100
AcDbEntity
  8
0
  6
CONTINUOUS
 62
           7
100
AcDbLine
 10
-417.36513473907
 20
48.790412709631
 11
-433.36513473907
 21
48.790412709631
  0
LINE
  5
BC
100
AcDbEntity
  8
1
  6
CONTINUOUS
 62
           7
100
AcDbLine
 10
-431.633239679231
 20
48.790412709631
 11
-431.633239679231
 21
59.790412709631
  0
LINE
  5
BB
100
AcDbEntity
  8
0
  6
CONTINUOUS
 62
           7
100
AcDbLine
 10
-428.938304367981
 20
48.790412709631
 11
-428.938304367981
 21
59.790412709631
  0
LINE
  5
BA
100
AcDbEntity
  8
0
  6
CONTINUOUS
 62
           7
100
AcDbLine
 10
-421.938570906532
 20
48.790412709631
 11
-421.938570906532
 21
59.790412709631
  0
LINE
  5
B9
100
AcDbEntity
  8
1
  6
CONTINUOUS
 62
           7
100
AcDbLine
 10
-419.184740408211
 20
48.790412709631
 11
-419.184740408211
 21
59.790412709631
  0
LINE
  5
B8
100
AcDbEntity
  8
0
  6
CONTINUOUS
 62
           7
100
AcDbLine
 10
-459.16513473907
 20
132.340412709631
 11
-459.16513473907
 21
139.840412709631
  0
LINE
  5
B7
100
AcDbEntity
  8
0
  6
CONTINUOUS
 62
           7
100
AcDbLine
 10
-453.635083447903
 20
132.340412709631
 11
-459.16513473907
 21
132.340412709631
  0
LINE
  5
B6
100
AcDbEntity
  8
0
  6
CONTINUOUS
 62
           7
100
AcDbLine
 10
-412.86513473907
 20
62.290412709631
 11
-437.86513473907
 21
62.290412709631
  0
LINE
  5
B5
100
AcDbEntity
  8
0
  6
CONTINUOUS
 62
           7
100
AcDbLine
 10
-437.86513473907
 20
65.290412709631
 11
-437.86513473907
 21
62.290412709631
  0
LINE
  5
B4
100
AcDbEntity
  8
0
  6
CONTINUOUS
 62
           7
100
AcDbLine
 10
-412.86513473907
 20
62.290412709631
 11
-412.86513473907
 21
65.290412709631
  0
LINE
  5
B3
100
AcDbEntity
  8
0
  6
CONTINUOUS
 62
           7
100
AcDbLine
 10
-412.86513473907
 20
65.290412709631
 11
-437.86513473907
 21
65.290412709631
  0
LINE
  5
B2
100
AcDbEntity
  8
0
  6
CONTINUOUS
 62
           7
100
AcDbLine
 10
-412.86513473907
 20
65.290412709631
 11
-404.125180479025
 21
67.632276395495
  0
LINE
  5
B1
100
AcDbEntity
  8
0
  6
CONTINUOUS
 62
           7
100
AcDbLine
 10
-446.605088999116
 20
67.632276395495
 11
-437.86513473907
 21
65.290412709631
  0
LINE
  5
B0
100
AcDbEntity
  8
0
  6
CONTINUOUS
 62
           7
100
AcDbLine
 10
-453.635083447903
 20
139.840412709631
 11
-453.635083447903
 21
132.340412709631
  0
LINE
  5
AF
100
AcDbEntity
  8
0
  6
CONTINUOUS
 62
           7
100
AcDbLine
 10
-454.165134739071
 20
132.340412709631
 11
-454.165134739071
 21
77.484719823643
  0
LINE
  5
AE
100
AcDbEntity
  8
0
  6
CONTINUOUS
 62
           7
100
AcDbLine
 10
-396.56513473907
 20
77.484719823644
 11
-396.56513473907
 21
157.090412709631
  0
LINE
  5
AD
100
AcDbEntity
  8
2
  6
DASHED
 62
           7
100
AcDbLine
 10
-594.887503719466
 20
306.680414388098
 11
-594.905136417537
 21
306.780414388097
  0
LINE
  5
AC
100
AcDbEntity
  8
2
  6
DASHED
 62
           7
100
AcDbLine
 10
-577.405136417537
 20
306.780414388097
 11
-577.422769115608
 21
306.680414388098
  0
LINE
  5
AB
100
AcDbEntity
  8
3
  6
DOT_CENTER
 62
           3
100
AcDbLine
 10
-586.155136417537
 20
311.940414388098
 11
-586.155136417537
 21
372.420414388098
  0
LINE
  5
AA
100
AcDbEntity
  8
3
  6
CONTINUOUS
 62
           7
100
AcDbLine
 10
-612.280136417537
 20
372.180414388098
 11
-607.030136417537
 21
372.180414388098
  0
LINE
  5
A9
100
AcDbEntity
  8
3
  6
CONTINUOUS
 62
           7
100
AcDbLine
 10
-609.655136417537
 20
369.555414388098
 11
-609.655136417537
 21
374.805414388098
  0
LINE
  5
A8
100
AcDbEntity
  8
3
  6
CONTINUOUS
 62
           7
100
AcDbLine
 10
-565.280136417537
 20
372.180414388098
 11
-560.030136417537
 21
372.180414388098
  0
LINE
  5
A7
100
AcDbEntity
  8
3
  6
CONTINUOUS
 62
           7
100
AcDbLine
 10
-562.655136417537
 20
369.555414388098
 11
-562.655136417537
 21
374.805414388098
  0
LINE
  5
A6
100
AcDbEntity
  8
3
  6
CONTINUOUS
 62
           7
100
AcDbLine
 10
-612.280136417537
 20
312.180414388098
 11
-607.030136417537
 21
312.180414388098
  0
LINE
  5
A5
100
AcDbEntity
  8
3
  6
CONTINUOUS
 62
           7
100
AcDbLine
 10
-609.655136417537
 20
309.555414388098
 11
-609.655136417537
 21
314.805414388098
  0
LINE
  5
A4
100
AcDbEntity
  8
3
  6
CONTINUOUS
 62
           7
100
AcDbLine
 10
-565.280136417537
 20
312.180414388098
 11
-560.030136417537
 21
312.180414388098
  0
LINE
  5
A3
100
AcDbEntity
  8
3
  6
CONTINUOUS
 62
           7
100
AcDbLine
 10
-562.655136417537
 20
309.555414388098
 11
-562.655136417537
 21
314.805414388098
  0
LINE
  5
A2
100
AcDbEntity
  8
3
  6
DOT_CENTER
 62
           3
100
AcDbLine
 10
-621.890330763309
 20
342.180414388098
 11
-550.419942071765
 21
342.180414388098
  0
LINE
  5
A1
100
AcDbEntity
  8
0
  6
CONTINUOUS
 62
           7
100
AcDbLine
 10
-594.53952519307
 20
304.706930097726
 11
-594.887503719466
 21
306.680414388098
  0
LINE
  5
A0
100
AcDbEntity
  8
0
  6
CONTINUOUS
 62
           7
100
AcDbLine
 10
-577.422769115608
 20
306.680414388098
 11
-577.770747642005
 21
304.706930097726
  0
LINE
  5
9F
100
AcDbEntity
  8
0
  6
CONTINUOUS
 62
           7
100
AcDbLine
 10
-554.455136417537
 20
360.180414388098
 11
-557.952654255221
 21
373.233328658713
  0
LINE
  5
9E
100
AcDbEntity
  8
0
  6
CONTINUOUS
 62
           7
100
AcDbLine
 10
-614.357618579853
 20
373.233328658713
 11
-617.855136417537
 21
360.180414388098
  0
LINE
  5
9D
100
AcDbEntity
  8
0
  6
CONTINUOUS
 62
           7
100
AcDbLine
 10
-563.748209212956
 20
377.680414388098
 11
-608.562063622119
 21
377.680414388098
  0
LINE
  5
9C
100
AcDbEntity
  8
0
  6
CONTINUOUS
 62
           7
100
AcDbLine
 10
-608.562063622119
 20
306.680414388098
 11
-563.748209212956
 21
306.680414388098
  0
LINE
  5
9B
100
AcDbEntity
  8
0
  6
CONTINUOUS
 62
           7
100
AcDbLine
 10
-557.952654255221
 20
311.127500117483
 11
-554.455136417537
 21
324.180414388098
  0
LINE
  5
9A
100
AcDbEntity
  8
0
  6
CONTINUOUS
 62
           7
100
AcDbLine
 10
-617.855136417537
 20
324.180414388098
 11
-614.357618579853
 21
311.127500117482
  0
LINE
  5
99
100
AcDbEntity
  8
0
  6
CONTINUOUS
 62
           7
100
AcDbLine
 10
-565.255136417537
 20
356.680414388098
 11
-566.198871258358
 21
360.366878610055
  0
LINE
  5
98
100
AcDbEntity
  8
0
  6
CONTINUOUS
 62
           7
100
AcDbLine
 10
-606.111401576716
 20
360.366878610055
 11
-607.055136417537
 21
356.680414388098
  0
LINE
  5
97
100
AcDbEntity
  8
0
  6
CONTINUOUS
 62
           7
100
AcDbLine
 10
-607.055136417537
 20
327.680414388098
 11
-606.111401576716
 21
323.99395016614
  0
LINE
  5
96
100
AcDbEntity
  8
0
  6
CONTINUOUS
 62
           7
100
AcDbLine
 10
-566.198871258358
 20
323.99395016614
 11
-565.255136417537
 21
327.680414388098
  0
LINE
  5
95
100
AcDbEntity
  8
0
  6
CONTINUOUS
 62
           7
100
AcDbLine
 10
-617.155136417537
 20
343.480414388098
 11
-617.155136417537
 21
340.880414388098
  0
LINE
  5
94
100
AcDbEntity
  8
0
  6
CONTINUOUS
 62
           7
100
AcDbLine
 10
-617.155136417537
 20
340.880414388098
 11
-613.655136417537
 21
340.880414388098
  0
LINE
  5
93
100
AcDbEntity
  8
0
  6
CONTINUOUS
 62
           7
100
AcDbLine
 10
-613.655136417537
 20
340.880414388098
 11
-613.655136417537
 21
339.004987907555
  0
LINE
  5
92
100
AcDbEntity
  8
0
  6
CONTINUOUS
 62
           7
100
AcDbLine
 10
-613.655136417537
 20
339.004987907555
 11
-608.155136417537
 21
342.180414388098
  0
LINE
  5
91
100
AcDbEntity
  8
0
  6
CONTINUOUS
 62
           7
100
AcDbLine
 10
-613.655136417537
 20
343.480414388098
 11
-617.155136417537
 21
343.480414388098
  0
LINE
  5
90
100
AcDbEntity
  8
0
  6
CONTINUOUS
 62
           7
100
AcDbLine
 10
-613.655136417537
 20
345.35584086864
 11
-613.655136417537
 21
343.480414388098
  0
LINE
  5
8F
100
AcDbEntity
  8
0
  6
CONTINUOUS
 62
           7
100
AcDbLine
 10
-608.155136417537
 20
342.180414388098
 11
-613.655136417537
 21
345.35584086864
  0
LINE
  5
8E
100
AcDbEntity
  8
0
  6
CONTINUOUS
 62
           7
100
AcDbLine
 10
-617.855136417537
 20
324.180414388098
 11
-615.834410475373
 21
327.680414388098
  0
LINE
  5
8D
100
AcDbEntity
  8
0
  6
CONTINUOUS
 62
           7
100
AcDbLine
 10
-615.834410475373
 20
327.680414388098
 11
-556.475862359701
 21
327.680414388098
  0
LINE
  5
8C
100
AcDbEntity
  8
0
  6
CONTINUOUS
 62
           7
100
AcDbLine
 10
-556.475862359701
 20
327.680414388098
 11
-554.455136417537
 21
324.180414388098
  0
LINE
  5
8B
100
AcDbEntity
  8
0
  6
CONTINUOUS
 62
           7
100
AcDbLine
 10
-551.155136417537
 20
324.180414388098
 11
-554.455136417537
 21
324.180414388098
  0
LINE
  5
8A
100
AcDbEntity
  8
0
  6
CONTINUOUS
 62
           7
100
AcDbLine
 10
-551.155136417537
 20
329.680414388098
 11
-621.155136417537
 21
329.680414388098
  0
LINE
  5
89
100
AcDbEntity
  8
0
  6
CONTINUOUS
 62
           7
100
AcDbLine
 10
-621.155136417537
 20
324.180414388098
 11
-621.155136417537
 21
360.180414388098
  0
LINE
  5
88
100
AcDbEntity
  8
0
  6
CONTINUOUS
 62
           7
100
AcDbLine
 10
-617.855136417537
 20
324.180414388098
 11
-621.155136417537
 21
324.180414388098
  0
LINE
  5
87
100
AcDbEntity
  8
0
  6
CONTINUOUS
 62
           7
100
AcDbLine
 10
-554.455136417537
 20
360.180414388098
 11
-556.475862359701
 21
356.680414388098
  0
LINE
  5
86
100
AcDbEntity
  8
0
  6
CONTINUOUS
 62
           7
100
AcDbLine
 10
-556.475862359701
 20
356.680414388098
 11
-615.834410475373
 21
356.680414388098
  0
LINE
  5
85
100
AcDbEntity
  8
0
  6
CONTINUOUS
 62
           7
100
AcDbLine
 10
-615.834410475373
 20
356.680414388098
 11
-617.855136417537
 21
360.180414388098
  0
LINE
  5
84
100
AcDbEntity
  8
0
  6
CONTINUOUS
 62
           7
100
AcDbLine
 10
-617.855136417537
 20
360.180414388098
 11
-621.155136417537
 21
360.180414388098
  0
LINE
  5
83
100
AcDbEntity
  8
0
  6
CONTINUOUS
 62
           7
100
AcDbLine
 10
-551.155136417537
 20
354.680414388098
 11
-621.155136417537
 21
354.680414388098
  0
LINE
  5
82
100
AcDbEntity
  8
0
  6
CONTINUOUS
 62
           7
100
AcDbLine
 10
-551.155136417537
 20
324.180414388098
 11
-551.155136417537
 21
360.180414388098
  0
LINE
  5
81
100
AcDbEntity
  8
0
  6
CONTINUOUS
 62
           7
100
AcDbLine
 10
-551.155136417537
 20
360.180414388098
 11
-554.455136417537
 21
360.180414388098
  0
LINE
  5
80
100
AcDbEntity
  8
0
  6
CONTINUOUS
 62
           7
100
AcDbLine
 10
-443.36513473907
 20
177.190412709631
 11
-407.36513473907
 21
177.190412709631
  0
LINE
  5
7F
100
AcDbEntity
  8
0
  6
CONTINUOUS
 62
           7
100
AcDbLine
 10
-443.36513473907
 20
210.890412709631
 11
-443.36513473907
 21
157.090412709631
  0
LINE
  5
7E
100
AcDbEntity
  8
0
  6
CONTINUOUS
 62
           7
100
AcDbLine
 10
-437.86513473907
 20
216.390412709631
 11
-412.86513473907
 21
216.390412709631
  0
LINE
  5
7D
100
AcDbEntity
  8
0
  6
CONTINUOUS
 62
           7
100
AcDbLine
 10
-443.36513473907
 20
180.390412709631
 11
-407.36513473907
 21
180.390412709631
  0
LINE
  5
7C
100
AcDbEntity
  8
0
  6
CONTINUOUS
 62
           7
100
AcDbLine
 10
-443.36513473907
 20
210.890412709631
 11
-437.86513473907
 21
216.390412709631
  0
LINE
  5
7B
100
AcDbEntity
  8
0
  6
CONTINUOUS
 62
           7
100
AcDbLine
 10
-412.86513473907
 20
216.390412709631
 11
-407.36513473907
 21
210.890412709631
  0
LINE
  5
7A
100
AcDbEntity
  8
0
  6
CONTINUOUS
 62
           7
100
AcDbLine
 10
-407.36513473907
 20
210.890412709631
 11
-407.36513473907
 21
157.090412709631
  0
LINE
  5
79
100
AcDbEntity
  8
0
  6
CONTINUOUS
 62
           7
100
AcDbLine
 10
-460.86513473907
 20
186.390412709631
 11
-460.86513473907
 21
157.090412709631
  0
LINE
  5
78
100
AcDbEntity
  8
0
  6
CONTINUOUS
 62
           7
100
AcDbLine
 10
-460.86513473907
 20
186.390412709631
 11
-443.36513473907
 21
186.390412709631
  0
LINE
  5
77
100
AcDbEntity
  8
0
  6
CONTINUOUS
 62
           7
100
AcDbLine
 10
-389.86513473907
 20
186.390412709631
 11
-389.86513473907
 21
157.090412709631
  0
LINE
  5
76
100
AcDbEntity
  8
0
  6
CONTINUOUS
 62
           7
100
AcDbLine
 10
-407.36513473907
 20
186.390412709631
 11
-389.86513473907
 21
186.390412709631
  0
LINE
  5
75
100
AcDbEntity
  8
0
  6
CONTINUOUS
 62
           7
100
AcDbLine
 10
-460.86513473907
 20
157.090412709631
 11
-389.86513473907
 21
157.090412709631
  0
LINE
  5
74
100
AcDbEntity
  8
0
  6
CONTINUOUS
 62
           7
100
AcDbLine
 10
-443.551598961028
 20
210.390412709631
 11
-443.551598961028
 21
186.390412709631
  0
LINE
  5
73
100
AcDbEntity
  8
0
  6
CONTINUOUS
 62
           7
100
AcDbLine
 10
-407.178670517113
 20
210.390412709631
 11
-407.178670517113
 21
186.390412709631
  0
LINE
  5
72
100
AcDbEntity
  8
0
  6
CONTINUOUS
 62
           7
100
AcDbLine
 10
-452.36513473907
 20
210.390412709631
 11
-443.36513473907
 21
210.390412709631
  0
LINE
  5
71
100
AcDbEntity
  8
0
  6
CONTINUOUS
 62
           7
100
AcDbLine
 10
-452.36513473907
 20
210.390412709631
 11
-452.36513473907
 21
186.390412709631
  0
LINE
  5
70
100
AcDbEntity
  8
0
  6
CONTINUOUS
 62
           7
100
AcDbLine
 10
-398.36513473907
 20
186.390412709631
 11
-398.36513473907
 21
210.390412709631
  0
LINE
  5
6F
100
AcDbEntity
  8
0
  6
CONTINUOUS
 62
           7
100
AcDbLine
 10
-407.36513473907
 20
210.390412709631
 11
-398.36513473907
 21
210.390412709631
  0
LINE
  5
6E
100
AcDbEntity
  8
0
  6
CONTINUOUS
 62
           7
100
AcDbLine
 10
-454.165134739071
 20
157.090412709631
 11
-454.165134739071
 21
152.850412709631
  0
LINE
  5
6D
100
AcDbEntity
  8
0
  6
CONTINUOUS
 62
           7
100
AcDbLine
 10
-452.819642565655
 20
152.850412709631
 11
-452.819642565655
 21
139.840412709631
  0
LINE
  5
6C
100
AcDbEntity
  8
0
  6
CONTINUOUS
 62
           7
100
AcDbLine
 10
-459.36513473907
 20
137.190412709631
 11
-463.76513473907
 21
137.190412709631
  0
LINE
  5
6B
100
AcDbEntity
  8
0
  6
CONTINUOUS
 62
           7
100
AcDbLine
 10
-460.76513473907
 20
137.190412709631
 11
-460.76513473907
 21
157.090412709631
  0
LINE
  5
6A
100
AcDbEntity
  8
0
  6
CONTINUOUS
 62
           7
100
AcDbLine
 10
-460.76513473907
 20
155.22534920017
 11
-459.36513473907
 21
155.22534920017
  0
LINE
  5
69
100
AcDbEntity
  8
0
  6
CONTINUOUS
 62
           7
100
AcDbLine
 10
-462.838619029442
 20
137.190412709631
 11
-462.838619029442
 21
138.590412709631
  0
LINE
  5
68
100
AcDbEntity
  8
0
  6
CONTINUOUS
 62
           7
100
AcDbLine
 10
-459.36513473907
 20
137.190412709631
 11
-459.36513473907
 21
157.090412709631
  0
LINE
  5
67
100
AcDbEntity
  8
0
  6
CONTINUOUS
 62
           7
100
AcDbLine
 10
-452.819642565655
 20
139.840412709631
 11
-459.36513473907
 21
139.840412709631
  0
LINE
  5
66
100
AcDbEntity
  8
0
  6
CONTINUOUS
 62
           7
100
AcDbLine
 10
-452.819642565655
 20
152.850412709631
 11
-459.36513473907
 21
152.850412709631
  0
LINE
  5
65
100
AcDbEntity
  8
0
  6
CONTINUOUS
 62
           7
100
AcDbLine
 10
-463.76513473907
 20
138.590412709631
 11
-463.76513473907
 21
137.190412709631
  0
LINE
  5
64
100
AcDbEntity
  8
0
  6
CONTINUOUS
 62
           7
100
AcDbLine
 10
-460.76513473907
 20
138.590412709631
 11
-463.76513473907
 21
138.590412709631
  0
LINE
  5
63
100
AcDbEntity
  8
3
  6
DOT_CENTER
 62
           3
100
AcDbLine
 10
-425.36513473907
 20
35.410819492689
 11
-425.36513473907
 21
219.293993245481
  0
LINE
  5
62
100
AcDbEntity
  8
3
  6
DOT_CENTER
 62
           3
100
AcDbLine
 10
-432.27255973907
 20
198.390412709631
 11
-418.45770973907
 21
198.390412709631
  0
LINE
  5
61
100
AcDbEntity
  8
3
  6
DOT_CENTER
 62
           3
100
AcDbLine
 10
-586.155136417537
 20
27.636596885295
 11
-586.155136417537
 21
227.632861328282
  0
LINE
  5
60
100
AcDbEntity
  8
1
  6
DOT_CENTER
 62
           3
100
AcDbLine
 10
-623.194608594915
 20
198.390412709631
 11
-548.933810203951
 21
198.390412709631
  0
LINE
  5
5F
100
AcDbEntity
  8
1
  6
CONTINUOUS
 62
           2
100
AcDbLine
 10
-631.124957348663
 20
206.996398011855
 11
-631.124957348663
 21
213.996398011855
  0
LINE
  5
5E
100
AcDbEntity
  8
1
  6
CONTINUOUS
 62
           2
100
AcDbLine
 10
-629.024957348663
 20
206.996398011855
 11
-629.024957348663
 21
213.996398011855
  0
LINE
  5
5D
100
AcDbEntity
  8
1
  6
CONTINUOUS
 62
           2
100
AcDbLine
 10
-629.024957348663
 20
213.996398011855
 11
-624.124957348663
 21
206.996398011855
  0
LINE
  5
5C
100
AcDbEntity
  8
1
  6
CONTINUOUS
 62
           2
100
AcDbLine
 10
-624.124957348663
 20
206.996398011855
 11
-624.124957348663
 21
213.996398011855
  0
LINE
  5
5B
100
AcDbEntity
  8
1
  6
CONTINUOUS
 62
           2
100
AcDbLine
 10
-545.213263340197
 20
213.421341244824
 11
-545.738263340197
 21
213.596341244824
  0
LINE
  5
5A
100
AcDbEntity
  8
1
  6
CONTINUOUS
 62
           2
100
AcDbLine
 10
-545.738263340197
 20
213.596341244824
 11
-546.788263340197
 21
213.596341244824
  0
LINE
  5
59
100
AcDbEntity
  8
1
  6
CONTINUOUS
 62
           2
100
AcDbLine
 10
-546.788263340197
 20
213.596341244824
 11
-547.313263340197
 21
213.421341244824
  0
LINE
  5
58
100
AcDbEntity
  8
1
  6
CONTINUOUS
 62
           2
100
AcDbLine
 10
-547.313263340197
 20
213.421341244824
 11
-547.838263340197
 21
213.071341244824
  0
LINE
  5
57
100
AcDbEntity
  8
1
  6
CONTINUOUS
 62
           2
100
AcDbLine
 10
-547.838263340197
 20
213.071341244824
 11
-548.188263340197
 21
212.721341244824
  0
LINE
  5
56
100
AcDbEntity
  8
1
  6
CONTINUOUS
 62
           2
100
AcDbLine
 10
-548.188263340197
 20
212.721341244824
 11
-548.538263340197
 21
212.196341244824
  0
LINE
  5
55
100
AcDbEntity
  8
1
  6
CONTINUOUS
 62
           2
100
AcDbLine
 10
-548.538263340197
 20
212.196341244824
 11
-548.713263340197
 21
211.496341244824
  0
LINE
  5
54
100
AcDbEntity
  8
1
  6
CONTINUOUS
 62
           2
100
AcDbLine
 10
-548.713263340197
 20
211.496341244824
 11
-548.713263340197
 21
208.696341244824
  0
LINE
  5
53
100
AcDbEntity
  8
1
  6
CONTINUOUS
 62
           2
100
AcDbLine
 10
-548.713263340197
 20
208.696341244824
 11
-548.538263340197
 21
207.996341244824
  0
LINE
  5
52
100
AcDbEntity
  8
1
  6
CONTINUOUS
 62
           2
100
AcDbLine
 10
-548.538263340197
 20
207.996341244824
 11
-548.188263340197
 21
207.471341244824
  0
LINE
  5
51
100
AcDbEntity
  8
1
  6
CONTINUOUS
 62
           2
100
AcDbLine
 10
-548.188263340197
 20
207.471341244824
 11
-547.838263340197
 21
207.121341244824
  0
LINE
  5
50
100
AcDbEntity
  8
1
  6
CONTINUOUS
 62
           2
100
AcDbLine
 10
-547.838263340197
 20
207.121341244824
 11
-547.313263340197
 21
206.771341244824
  0
LINE
  5
4F
100
AcDbEntity
  8
1
  6
CONTINUOUS
 62
           2
100
AcDbLine
 10
-547.313263340197
 20
206.771341244824
 11
-546.788263340197
 21
206.596341244824
  0
LINE
  5
4E
100
AcDbEntity
  8
1
  6
CONTINUOUS
 62
           2
100
AcDbLine
 10
-546.788263340197
 20
206.596341244824
 11
-545.738263340197
 21
206.596341244824
  0
LINE
  5
4D
100
AcDbEntity
  8
1
  6
CONTINUOUS
 62
           2
100
AcDbLine
 10
-545.738263340197
 20
206.596341244824
 11
-545.213263340197
 21
206.771341244824
  0
LINE
  5
4C
100
AcDbEntity
  8
1
  6
CONTINUOUS
 62
           2
100
AcDbLine
 10
-545.213263340197
 20
206.771341244824
 11
-544.688263340197
 21
207.121341244824
  0
LINE
  5
4B
100
AcDbEntity
  8
1
  6
CONTINUOUS
 62
           2
100
AcDbLine
 10
-544.688263340197
 20
207.121341244824
 11
-544.338263340197
 21
207.471341244824
  0
LINE
  5
4A
100
AcDbEntity
  8
1
  6
CONTINUOUS
 62
           2
100
AcDbLine
 10
-544.338263340197
 20
207.471341244824
 11
-543.988263340197
 21
207.996341244824
  0
LINE
  5
49
100
AcDbEntity
  8
1
  6
CONTINUOUS
 62
           2
100
AcDbLine
 10
-543.988263340197
 20
207.996341244824
 11
-543.813263340197
 21
208.696341244824
  0
LINE
  5
48
100
AcDbEntity
  8
1
  6
CONTINUOUS
 62
           2
100
AcDbLine
 10
-543.813263340197
 20
208.696341244824
 11
-543.813263340197
 21
211.496341244824
  0
LINE
  5
47
100
AcDbEntity
  8
1
  6
CONTINUOUS
 62
           2
100
AcDbLine
 10
-543.813263340197
 20
211.496341244824
 11
-543.988263340197
 21
212.196341244824
  0
LINE
  5
46
100
AcDbEntity
  8
1
  6
CONTINUOUS
 62
           2
100
AcDbLine
 10
-543.988263340197
 20
212.196341244824
 11
-544.338263340197
 21
212.721341244824
  0
LINE
  5
45
100
AcDbEntity
  8
1
  6
CONTINUOUS
 62
           2
100
AcDbLine
 10
-544.338263340197
 20
212.721341244824
 11
-544.688263340197
 21
213.071341244824
  0
LINE
  5
44
100
AcDbEntity
  8
1
  6
CONTINUOUS
 62
           2
100
AcDbLine
 10
-544.688263340197
 20
213.071341244824
 11
-545.213263340197
 21
213.421341244824
  0
LINE
  5
43
100
AcDbEntity
  8
1
  6
CONTINUOUS
 62
           2
100
AcDbLine
 10
-536.813263340197
 20
213.596341244824
 11
-536.813263340197
 21
208.696341244824
  0
LINE
  5
42
100
AcDbEntity
  8
1
  6
CONTINUOUS
 62
           2
100
AcDbLine
 10
-536.813263340197
 20
208.696341244824
 11
-536.988263340197
 21
207.996341244824
  0
LINE
  5
41
100
AcDbEntity
  8
1
  6
CONTINUOUS
 62
           2
100
AcDbLine
 10
-536.988263340197
 20
207.996341244824
 11
-537.338263340197
 21
207.471341244824
  0
LINE
  5
40
100
AcDbEntity
  8
1
  6
CONTINUOUS
 62
           2
100
AcDbLine
 10
-537.338263340197
 20
207.471341244824
 11
-537.688263340197
 21
207.121341244824
  0
LINE
  5
3F
100
AcDbEntity
  8
1
  6
CONTINUOUS
 62
           2
100
AcDbLine
 10
-537.688263340197
 20
207.121341244824
 11
-538.213263340197
 21
206.771341244824
  0
LINE
  5
3E
100
AcDbEntity
  8
1
  6
CONTINUOUS
 62
           2
100
AcDbLine
 10
-538.213263340197
 20
206.771341244824
 11
-538.738263340197
 21
206.596341244824
  0
LINE
  5
3D
100
AcDbEntity
  8
1
  6
CONTINUOUS
 62
           2
100
AcDbLine
 10
-538.738263340197
 20
206.596341244824
 11
-539.788263340197
 21
206.596341244824
  0
LINE
  5
3C
100
AcDbEntity
  8
1
  6
CONTINUOUS
 62
           2
100
AcDbLine
 10
-539.788263340197
 20
206.596341244824
 11
-540.313263340197
 21
206.771341244824
  0
LINE
  5
3B
100
AcDbEntity
  8
1
  6
CONTINUOUS
 62
           2
100
AcDbLine
 10
-540.313263340197
 20
206.771341244824
 11
-540.838263340197
 21
207.121341244824
  0
LINE
  5
3A
100
AcDbEntity
  8
1
  6
CONTINUOUS
 62
           2
100
AcDbLine
 10
-540.838263340197
 20
207.121341244824
 11
-541.188263340197
 21
207.471341244824
  0
LINE
  5
39
100
AcDbEntity
  8
1
  6
CONTINUOUS
 62
           2
100
AcDbLine
 10
-541.188263340197
 20
207.471341244824
 11
-541.538263340197
 21
207.996341244824
  0
LINE
  5
38
100
AcDbEntity
  8
1
  6
CONTINUOUS
 62
           2
100
AcDbLine
 10
-541.538263340197
 20
207.996341244824
 11
-541.713263340197
 21
208.696341244824
  0
LINE
  5
37
100
AcDbEntity
  8
1
  6
CONTINUOUS
 62
           2
100
AcDbLine
 10
-541.713263340197
 20
208.696341244824
 11
-541.713263340197
 21
213.596341244824
  0
LINE
  5
36
100
AcDbEntity
  8
1
  6
CONTINUOUS
 62
           2
100
AcDbLine
 10
-532.263263340197
 20
213.596341244824
 11
-529.813263340197
 21
213.596341244824
  0
LINE
  5
35
100
AcDbEntity
  8
1
  6
CONTINUOUS
 62
           2
100
AcDbLine
 10
-534.713263340197
 20
213.596341244824
 11
-532.263263340197
 21
213.596341244824
  0
LINE
  5
34
100
AcDbEntity
  8
1
  6
CONTINUOUS
 62
           2
100
AcDbLine
 10
-532.263263340197
 20
213.596341244824
 11
-532.263263340197
 21
206.596341244824
  0
SOLID
  5
165
100
AcDbEntity
  8
0
 62
           2
100
AcDbTrace
 10
-539.690483781731
 20
201.904012561527
 11
-539.690483781731
 21
203.378520534505
 12
-534.090483781731
 22
202.641266548016
 13
-534.090483781731
 23
202.641266548016
  0
SOLID
  5
167
100
AcDbEntity
  8
0
 62
           2
100
AcDbTrace
 10
-628.612844335722
 20
201.357627879708
 11
-628.612844335722
 21
202.832135852686
 12
-623.012844335722
 22
202.094881866197
 13
-623.012844335722
 23
202.094881866197
  0
ENDBLK
  5
169
100
AcDbEntity
  8
0
100
AcDbBlockEnd
  0
BLOCK
  5
2C
100
AcDbEntity
  8
0
100
AcDbBlockBegin
  2
1_AF40_02_2_A_0
 70
           0
 10
0.0
 20
0.0
 30
0.0
  3
1_AF40_02_2_A_0
  1

  0
INSERT
  5
2D
100
AcDbEntity
  8
0
100
AcDbBlockReference
  2
3_AF40_02_2_A_0
 10
0.0
 20
0.0
  0
ENDBLK
  5
16A
100
AcDbEntity
  8
0
100
AcDbBlockEnd
  0
BLOCK
  5
2F
100
AcDbEntity
  8
0
100
AcDbBlockBegin
  2
ALF800B_10DATA
 70
           0
 10
0.0
 20
0.0
 30
0.0
  3
ALF800B_10DATA
  1

  0
INSERT
  5
30
100
AcDbEntity
  8
0
100
AcDbBlockReference
  2
1_AF40_02_2_A_0
 10
0.0
 20
0.0
  0
ENDBLK
  5
16B
100
AcDbEntity
  8
0
100
AcDbBlockEnd
  0
ENDSEC
  0
SECTION
  2
ENTITIES
  0
LINE
  5
1F3
100
AcDbEntity
  8
1
  6
CONTINUOUS
 62
           2
100
AcDbLine
 10
-178.46966386914
 20
82.76282618712
 11
-175.16966386914
 21
82.76282618712
  0
LINE
  5
1F2
100
AcDbEntity
  8
1
  6
CONTINUOUS
 62
           2
100
AcDbLine
 10
-179.21966386914
 20
80.96282618712
 11
-176.81966386914
 21
86.96282618712
  0
LINE
  5
1F1
100
AcDbEntity
  8
1
  6
CONTINUOUS
 62
           2
100
AcDbLine
 10
-176.81966386914
 20
86.96282618712
 11
-174.41966386914
 21
80.96282618712
  0
LINE
  5
1F0
100
AcDbEntity
  8
1
  6
CONTINUOUS
 62
           2
100
AcDbLine
 10
-169.01966386914
 20
80.96282618712
 11
-172.61966386914
 21
80.96282618712
  0
LINE
  5
1EF
100
AcDbEntity
  8
1
  6
CONTINUOUS
 62
           2
100
AcDbLine
 10
-172.61966386914
 20
80.96282618712
 11
-172.61966386914
 21
86.96282618712
  0
LINE
  5
1EE
100
AcDbEntity
  8
1
  6
CONTINUOUS
 62
           2
100
AcDbLine
 10
-167.21966386914
 20
84.26282618712
 11
-163.01966386914
 21
84.26282618712
  0
LINE
  5
1ED
100
AcDbEntity
  8
1
  6
CONTINUOUS
 62
           2
100
AcDbLine
 10
-163.01966386914
 20
86.96282618712
 11
-167.21966386914
 21
86.96282618712
  0
LINE
  5
1EC
100
AcDbEntity
  8
1
  6
CONTINUOUS
 62
           2
100
AcDbLine
 10
-167.21966386914
 20
86.96282618712
 11
-167.21966386914
 21
84.26282618712
  0
LINE
  5
1EB
100
AcDbEntity
  8
1
  6
CONTINUOUS
 62
           2
100
AcDbLine
 10
-167.21966386914
 20
84.26282618712
 11
-167.21966386914
 21
80.96282618712
  0
LINE
  5
1EA
100
AcDbEntity
  8
1
  6
CONTINUOUS
 62
           2
100
AcDbLine
 10
-159.71966386914
 20
84.56282618712
 11
-160.46966386914
 21
84.26282618712
  0
LINE
  5
1E9
100
AcDbEntity
  8
1
  6
CONTINUOUS
 62
           2
100
AcDbLine
 10
-160.46966386914
 20
84.26282618712
 11
-160.91966386914
 21
83.81282618712
  0
LINE
  5
1E8
100
AcDbEntity
  8
1
  6
CONTINUOUS
 62
           2
100
AcDbLine
 10
-160.91966386914
 20
83.81282618712
 11
-161.21966386914
 21
83.21282618712
  0
LINE
  5
1E7
100
AcDbEntity
  8
1
  6
CONTINUOUS
 62
           2
100
AcDbLine
 10
-161.21966386914
 20
83.21282618712
 11
-161.21966386914
 21
82.31282618712
  0
LINE
  5
1E6
100
AcDbEntity
  8
1
  6
CONTINUOUS
 62
           2
100
AcDbLine
 10
-161.21966386914
 20
82.31282618712
 11
-160.91966386914
 21
81.71282618712
  0
LINE
  5
1E5
100
AcDbEntity
  8
1
  6
CONTINUOUS
 62
           2
100
AcDbLine
 10
-160.91966386914
 20
81.71282618712
 11
-160.46966386914
 21
81.26282618712
  0
LINE
  5
1E4
100
AcDbEntity
  8
1
  6
CONTINUOUS
 62
           2
100
AcDbLine
 10
-160.46966386914
 20
81.26282618712
 11
-159.86966386914
 21
80.96282618712
  0
LINE
  5
1E3
100
AcDbEntity
  8
1
  6
CONTINUOUS
 62
           2
100
AcDbLine
 10
-159.86966386914
 20
80.96282618712
 11
-158.96966386914
 21
80.96282618712
  0
LINE
  5
1E2
100
AcDbEntity
  8
1
  6
CONTINUOUS
 62
           2
100
AcDbLine
 10
-158.96966386914
 20
80.96282618712
 11
-158.36966386914
 21
81.26282618712
  0
LINE
  5
1E1
100
AcDbEntity
  8
1
  6
CONTINUOUS
 62
           2
100
AcDbLine
 10
-158.36966386914
 20
81.26282618712
 11
-157.91966386914
 21
81.71282618712
  0
LINE
  5
1E0
100
AcDbEntity
  8
1
  6
CONTINUOUS
 62
           2
100
AcDbLine
 10
-157.91966386914
 20
81.71282618712
 11
-157.61966386914
 21
82.31282618712
  0
LINE
  5
1DF
100
AcDbEntity
  8
1
  6
CONTINUOUS
 62
           2
100
AcDbLine
 10
-157.61966386914
 20
82.31282618712
 11
-157.61966386914
 21
83.21282618712
  0
LINE
  5
1DE
100
AcDbEntity
  8
1
  6
CONTINUOUS
 62
           2
100
AcDbLine
 10
-157.61966386914
 20
83.21282618712
 11
-157.91966386914
 21
83.81282618712
  0
LINE
  5
1DD
100
AcDbEntity
  8
1
  6
CONTINUOUS
 62
           2
100
AcDbLine
 10
-157.91966386914
 20
83.81282618712
 11
-158.36966386914
 21
84.26282618712
  0
LINE
  5
1DC
100
AcDbEntity
  8
1
  6
CONTINUOUS
 62
           2
100
AcDbLine
 10
-158.36966386914
 20
84.26282618712
 11
-159.11966386914
 21
84.56282618712
  0
LINE
  5
1DB
100
AcDbEntity
  8
1
  6
CONTINUOUS
 62
           2
100
AcDbLine
 10
-160.16966386914
 20
86.81282618712
 11
-159.71966386914
 21
86.96282618712
  0
LINE
  5
1DA
100
AcDbEntity
  8
1
  6
CONTINUOUS
 62
           2
100
AcDbLine
 10
-159.71966386914
 20
86.96282618712
 11
-159.11966386914
 21
86.96282618712
  0
LINE
  5
1D9
100
AcDbEntity
  8
1
  6
CONTINUOUS
 62
           2
100
AcDbLine
 10
-159.11966386914
 20
86.96282618712
 11
-158.66966386914
 21
86.81282618712
  0
LINE
  5
1D8
100
AcDbEntity
  8
1
  6
CONTINUOUS
 62
           2
100
AcDbLine
 10
-158.66966386914
 20
86.81282618712
 11
-158.21966386914
 21
86.51282618712
  0
LINE
  5
1D7
100
AcDbEntity
  8
1
  6
CONTINUOUS
 62
           2
100
AcDbLine
 10
-158.21966386914
 20
86.51282618712
 11
-157.91966386914
 21
86.06282618712
  0
LINE
  5
1D6
100
AcDbEntity
  8
1
  6
CONTINUOUS
 62
           2
100
AcDbLine
 10
-157.91966386914
 20
86.06282618712
 11
-157.91966386914
 21
85.46282618712
  0
LINE
  5
1D5
100
AcDbEntity
  8
1
  6
CONTINUOUS
 62
           2
100
AcDbLine
 10
-157.91966386914
 20
85.46282618712
 11
-158.21966386914
 21
85.01282618712
  0
LINE
  5
1D4
100
AcDbEntity
  8
1
  6
CONTINUOUS
 62
           2
100
AcDbLine
 10
-158.21966386914
 20
85.01282618712
 11
-158.66966386914
 21
84.71282618712
  0
LINE
  5
1D3
100
AcDbEntity
  8
1
  6
CONTINUOUS
 62
           2
100
AcDbLine
 10
-158.66966386914
 20
84.71282618712
 11
-159.11966386914
 21
84.56282618712
  0
LINE
  5
1D2
100
AcDbEntity
  8
1
  6
CONTINUOUS
 62
           2
100
AcDbLine
 10
-159.11966386914
 20
84.56282618712
 11
-159.71966386914
 21
84.56282618712
  0
LINE
  5
1D1
100
AcDbEntity
  8
1
  6
CONTINUOUS
 62
           2
100
AcDbLine
 10
-159.71966386914
 20
84.56282618712
 11
-160.16966386914
 21
84.71282618712
  0
LINE
  5
1D0
100
AcDbEntity
  8
1
  6
CONTINUOUS
 62
           2
100
AcDbLine
 10
-160.16966386914
 20
84.71282618712
 11
-160.61966386914
 21
85.01282618712
  0
LINE
  5
1CF
100
AcDbEntity
  8
1
  6
CONTINUOUS
 62
           2
100
AcDbLine
 10
-160.61966386914
 20
85.01282618712
 11
-160.91966386914
 21
85.46282618712
  0
LINE
  5
1CE
100
AcDbEntity
  8
1
  6
CONTINUOUS
 62
           2
100
AcDbLine
 10
-160.91966386914
 20
85.46282618712
 11
-160.91966386914
 21
86.06282618712
  0
LINE
  5
1CD
100
AcDbEntity
  8
1
  6
CONTINUOUS
 62
           2
100
AcDbLine
 10
-160.91966386914
 20
86.06282618712
 11
-160.61966386914
 21
86.51282618712
  0
LINE
  5
1CC
100
AcDbEntity
  8
1
  6
CONTINUOUS
 62
           2
100
AcDbLine
 10
-160.61966386914
 20
86.51282618712
 11
-160.16966386914
 21
86.81282618712
  0
LINE
  5
1CB
100
AcDbEntity
  8
1
  6
CONTINUOUS
 62
           2
100
AcDbLine
 10
-152.21966386914
 20
83.21282618712
 11
-152.36966386914
 21
82.31282618712
  0
LINE
  5
1CA
100
AcDbEntity
  8
1
  6
CONTINUOUS
 62
           2
100
AcDbLine
 10
-152.36966386914
 20
82.31282618712
 11
-152.66966386914
 21
81.71282618712
  0
LINE
  5
1C9
100
AcDbEntity
  8
1
  6
CONTINUOUS
 62
           2
100
AcDbLine
 10
-152.66966386914
 20
81.71282618712
 11
-152.96966386914
 21
81.41282618712
  0
LINE
  5
1C8
100
AcDbEntity
  8
1
  6
CONTINUOUS
 62
           2
100
AcDbLine
 10
-152.96966386914
 20
81.41282618712
 11
-153.41966386914
 21
81.11282618712
  0
LINE
  5
1C7
100
AcDbEntity
  8
1
  6
CONTINUOUS
 62
           2
100
AcDbLine
 10
-153.41966386914
 20
81.11282618712
 11
-153.86966386914
 21
80.96282618712
  0
LINE
  5
1C6
100
AcDbEntity
  8
1
  6
CONTINUOUS
 62
           2
100
AcDbLine
 10
-153.86966386914
 20
80.96282618712
 11
-154.16966386914
 21
80.96282618712
  0
LINE
  5
1C5
100
AcDbEntity
  8
1
  6
CONTINUOUS
 62
           2
100
AcDbLine
 10
-154.16966386914
 20
80.96282618712
 11
-154.61966386914
 21
81.11282618712
  0
LINE
  5
1C4
100
AcDbEntity
  8
1
  6
CONTINUOUS
 62
           2
100
AcDbLine
 10
-154.61966386914
 20
81.11282618712
 11
-155.06966386914
 21
81.41282618712
  0
LINE
  5
1C3
100
AcDbEntity
  8
1
  6
CONTINUOUS
 62
           2
100
AcDbLine
 10
-155.06966386914
 20
81.41282618712
 11
-155.36966386914
 21
81.71282618712
  0
LINE
  5
1C2
100
AcDbEntity
  8
1
  6
CONTINUOUS
 62
           2
100
AcDbLine
 10
-155.36966386914
 20
81.71282618712
 11
-155.66966386914
 21
82.31282618712
  0
LINE
  5
1C1
100
AcDbEntity
  8
1
  6
CONTINUOUS
 62
           2
100
AcDbLine
 10
-155.66966386914
 20
82.31282618712
 11
-155.81966386914
 21
83.21282618712
  0
LINE
  5
1C0
100
AcDbEntity
  8
1
  6
CONTINUOUS
 62
           2
100
AcDbLine
 10
-155.81966386914
 20
83.21282618712
 11
-155.81966386914
 21
84.71282618712
  0
LINE
  5
1BF
100
AcDbEntity
  8
1
  6
CONTINUOUS
 62
           2
100
AcDbLine
 10
-155.81966386914
 20
84.71282618712
 11
-155.66966386914
 21
85.61282618712
  0
LINE
  5
1BE
100
AcDbEntity
  8
1
  6
CONTINUOUS
 62
           2
100
AcDbLine
 10
-155.66966386914
 20
85.61282618712
 11
-155.36966386914
 21
86.21282618712
  0
LINE
  5
1BD
100
AcDbEntity
  8
1
  6
CONTINUOUS
 62
           2
100
AcDbLine
 10
-155.36966386914
 20
86.21282618712
 11
-155.06966386914
 21
86.51282618712
  0
LINE
  5
1BC
100
AcDbEntity
  8
1
  6
CONTINUOUS
 62
           2
100
AcDbLine
 10
-155.06966386914
 20
86.51282618712
 11
-154.61966386914
 21
86.81282618712
  0
LINE
  5
1BB
100
AcDbEntity
  8
1
  6
CONTINUOUS
 62
           2
100
AcDbLine
 10
-154.61966386914
 20
86.81282618712
 11
-154.16966386914
 21
86.96282618712
  0
LINE
  5
1BA
100
AcDbEntity
  8
1
  6
CONTINUOUS
 62
           2
100
AcDbLine
 10
-154.16966386914
 20
86.96282618712
 11
-153.86966386914
 21
86.96282618712
  0
LINE
  5
1B9
100
AcDbEntity
  8
1
  6
CONTINUOUS
 62
           2
100
AcDbLine
 10
-153.86966386914
 20
86.96282618712
 11
-153.41966386914
 21
86.81282618712
  0
LINE
  5
1B8
100
AcDbEntity
  8
1
  6
CONTINUOUS
 62
           2
100
AcDbLine
 10
-153.41966386914
 20
86.81282618712
 11
-152.96966386914
 21
86.51282618712
  0
LINE
  5
1B7
100
AcDbEntity
  8
1
  6
CONTINUOUS
 62
           2
100
AcDbLine
 10
-152.96966386914
 20
86.51282618712
 11
-152.66966386914
 21
86.21282618712
  0
LINE
  5
1B6
100
AcDbEntity
  8
1
  6
CONTINUOUS
 62
           2
100
AcDbLine
 10
-152.66966386914
 20
86.21282618712
 11
-152.36966386914
 21
85.61282618712
  0
LINE
  5
1B5
100
AcDbEntity
  8
1
  6
CONTINUOUS
 62
           2
100
AcDbLine
 10
-152.36966386914
 20
85.61282618712
 11
-152.21966386914
 21
84.71282618712
  0
LINE
  5
1B4
100
AcDbEntity
  8
1
  6
CONTINUOUS
 62
           2
100
AcDbLine
 10
-152.21966386914
 20
84.71282618712
 11
-152.21966386914
 21
83.21282618712
  0
LINE
  5
1B3
100
AcDbEntity
  8
1
  6
CONTINUOUS
 62
           2
100
AcDbLine
 10
-146.81966386914
 20
83.21282618712
 11
-146.96966386914
 21
82.31282618712
  0
LINE
  5
1B2
100
AcDbEntity
  8
1
  6
CONTINUOUS
 62
           2
100
AcDbLine
 10
-146.96966386914
 20
82.31282618712
 11
-147.26966386914
 21
81.71282618712
  0
LINE
  5
1B1
100
AcDbEntity
  8
1
  6
CONTINUOUS
 62
           2
100
AcDbLine
 10
-147.26966386914
 20
81.71282618712
 11
-147.56966386914
 21
81.41282618712
  0
LINE
  5
1B0
100
AcDbEntity
  8
1
  6
CONTINUOUS
 62
           2
100
AcDbLine
 10
-147.56966386914
 20
81.41282618712
 11
-148.01966386914
 21
81.11282618712
  0
LINE
  5
1AF
100
AcDbEntity
  8
1
  6
CONTINUOUS
 62
           2
100
AcDbLine
 10
-148.01966386914
 20
81.11282618712
 11
-148.46966386914
 21
80.96282618712
  0
LINE
  5
1AE
100
AcDbEntity
  8
1
  6
CONTINUOUS
 62
           2
100
AcDbLine
 10
-148.46966386914
 20
80.96282618712
 11
-148.76966386914
 21
80.96282618712
  0
LINE
  5
1AD
100
AcDbEntity
  8
1
  6
CONTINUOUS
 62
           2
100
AcDbLine
 10
-148.76966386914
 20
80.96282618712
 11
-149.21966386914
 21
81.11282618712
  0
LINE
  5
1AC
100
AcDbEntity
  8
1
  6
CONTINUOUS
 62
           2
100
AcDbLine
 10
-149.21966386914
 20
81.11282618712
 11
-149.66966386914
 21
81.41282618712
  0
LINE
  5
1AB
100
AcDbEntity
  8
1
  6
CONTINUOUS
 62
           2
100
AcDbLine
 10
-149.66966386914
 20
81.41282618712
 11
-149.96966386914
 21
81.71282618712
  0
LINE
  5
1AA
100
AcDbEntity
  8
1
  6
CONTINUOUS
 62
           2
100
AcDbLine
 10
-149.96966386914
 20
81.71282618712
 11
-150.26966386914
 21
82.31282618712
  0
LINE
  5
1A9
100
AcDbEntity
  8
1
  6
CONTINUOUS
 62
           2
100
AcDbLine
 10
-150.26966386914
 20
82.31282618712
 11
-150.41966386914
 21
83.21282618712
  0
LINE
  5
1A8
100
AcDbEntity
  8
1
  6
CONTINUOUS
 62
           2
100
AcDbLine
 10
-150.41966386914
 20
83.21282618712
 11
-150.41966386914
 21
84.71282618712
  0
LINE
  5
1A7
100
AcDbEntity
  8
1
  6
CONTINUOUS
 62
           2
100
AcDbLine
 10
-150.41966386914
 20
84.71282618712
 11
-150.26966386914
 21
85.61282618712
  0
LINE
  5
1A6
100
AcDbEntity
  8
1
  6
CONTINUOUS
 62
           2
100
AcDbLine
 10
-150.26966386914
 20
85.61282618712
 11
-149.96966386914
 21
86.21282618712
  0
LINE
  5
1A5
100
AcDbEntity
  8
1
  6
CONTINUOUS
 62
           2
100
AcDbLine
 10
-149.96966386914
 20
86.21282618712
 11
-149.66966386914
 21
86.51282618712
  0
LINE
  5
1A4
100
AcDbEntity
  8
1
  6
CONTINUOUS
 62
           2
100
AcDbLine
 10
-149.66966386914
 20
86.51282618712
 11
-149.21966386914
 21
86.81282618712
  0
LINE
  5
1A3
100
AcDbEntity
  8
1
  6
CONTINUOUS
 62
           2
100
AcDbLine
 10
-149.21966386914
 20
86.81282618712
 11
-148.76966386914
 21
86.96282618712
  0
LINE
  5
1A2
100
AcDbEntity
  8
1
  6
CONTINUOUS
 62
           2
100
AcDbLine
 10
-148.76966386914
 20
86.96282618712
 11
-148.46966386914
 21
86.96282618712
  0
LINE
  5
1A1
100
AcDbEntity
  8
1
  6
CONTINUOUS
 62
           2
100
AcDbLine
 10
-148.46966386914
 20
86.96282618712
 11
-148.01966386914
 21
86.81282618712
  0
LINE
  5
1A0
100
AcDbEntity
  8
1
  6
CONTINUOUS
 62
           2
100
AcDbLine
 10
-148.01966386914
 20
86.81282618712
 11
-147.56966386914
 21
86.51282618712
  0
LINE
  5
19F
100
AcDbEntity
  8
1
  6
CONTINUOUS
 62
           2
100
AcDbLine
 10
-147.56966386914
 20
86.51282618712
 11
-147.26966386914
 21
86.21282618712
  0
LINE
  5
19E
100
AcDbEntity
  8
1
  6
CONTINUOUS
 62
           2
100
AcDbLine
 10
-147.26966386914
 20
86.21282618712
 11
-146.96966386914
 21
85.61282618712
  0
LINE
  5
19D
100
AcDbEntity
  8
1
  6
CONTINUOUS
 62
           2
100
AcDbLine
 10
-146.96966386914
 20
85.61282618712
 11
-146.81966386914
 21
84.71282618712
  0
LINE
  5
19C
100
AcDbEntity
  8
1
  6
CONTINUOUS
 62
           2
100
AcDbLine
 10
-146.81966386914
 20
84.71282618712
 11
-146.81966386914
 21
83.21282618712
  0
LINE
  5
19B
100
AcDbEntity
  8
1
  6
CONTINUOUS
 62
           2
100
AcDbLine
 10
-145.01966386914
 20
84.26282618712
 11
-142.61966386914
 21
84.26282618712
  0
LINE
  5
19A
100
AcDbEntity
  8
1
  6
CONTINUOUS
 62
           2
100
AcDbLine
 10
-142.61966386914
 20
84.26282618712
 11
-142.31966386914
 21
84.26282618712
  0
LINE
  5
199
100
AcDbEntity
  8
1
  6
CONTINUOUS
 62
           2
100
AcDbLine
 10
-142.31966386914
 20
84.26282618712
 11
-141.71966386914
 21
83.96282618712
  0
LINE
  5
198
100
AcDbEntity
  8
1
  6
CONTINUOUS
 62
           2
100
AcDbLine
 10
-141.71966386914
 20
83.96282618712
 11
-141.41966386914
 21
83.66282618712
  0
LINE
  5
197
100
AcDbEntity
  8
1
  6
CONTINUOUS
 62
           2
100
AcDbLine
 10
-141.41966386914
 20
83.66282618712
 11
-141.11966386914
 21
82.91282618712
  0
LINE
  5
196
100
AcDbEntity
  8
1
  6
CONTINUOUS
 62
           2
100
AcDbLine
 10
-141.11966386914
 20
82.91282618712
 11
-141.11966386914
 21
82.16282618712
  0
LINE
  5
195
100
AcDbEntity
  8
1
  6
CONTINUOUS
 62
           2
100
AcDbLine
 10
-141.11966386914
 20
82.16282618712
 11
-141.41966386914
 21
81.56282618712
  0
LINE
  5
194
100
AcDbEntity
  8
1
  6
CONTINUOUS
 62
           2
100
AcDbLine
 10
-141.41966386914
 20
81.56282618712
 11
-141.71966386914
 21
81.26282618712
  0
LINE
  5
193
100
AcDbEntity
  8
1
  6
CONTINUOUS
 62
           2
100
AcDbLine
 10
-141.71966386914
 20
81.26282618712
 11
-142.31966386914
 21
80.96282618712
  0
LINE
  5
192
100
AcDbEntity
  8
1
  6
CONTINUOUS
 62
           2
100
AcDbLine
 10
-142.31966386914
 20
80.96282618712
 11
-145.01966386914
 21
80.96282618712
  0
LINE
  5
191
100
AcDbEntity
  8
1
  6
CONTINUOUS
 62
           2
100
AcDbLine
 10
-145.01966386914
 20
80.96282618712
 11
-145.01966386914
 21
84.26282618712
  0
LINE
  5
190
100
AcDbEntity
  8
1
  6
CONTINUOUS
 62
           2
100
AcDbLine
 10
-145.01966386914
 20
86.96282618712
 11
-142.76966386914
 21
86.96282618712
  0
LINE
  5
18F
100
AcDbEntity
  8
1
  6
CONTINUOUS
 62
           2
100
AcDbLine
 10
-142.76966386914
 20
86.96282618712
 11
-142.01966386914
 21
86.81282618712
  0
LINE
  5
18E
100
AcDbEntity
  8
1
  6
CONTINUOUS
 62
           2
100
AcDbLine
 10
-142.01966386914
 20
86.81282618712
 11
-141.56966386914
 21
86.36282618712
  0
LINE
  5
18D
100
AcDbEntity
  8
1
  6
CONTINUOUS
 62
           2
100
AcDbLine
 10
-141.56966386914
 20
86.36282618712
 11
-141.41966386914
 21
85.76282618712
  0
LINE
  5
18C
100
AcDbEntity
  8
1
  6
CONTINUOUS
 62
           2
100
AcDbLine
 10
-141.41966386914
 20
85.76282618712
 11
-141.41966386914
 21
85.31282618712
  0
LINE
  5
18B
100
AcDbEntity
  8
1
  6
CONTINUOUS
 62
           2
100
AcDbLine
 10
-141.41966386914
 20
85.31282618712
 11
-141.71966386914
 21
84.71282618712
  0
LINE
  5
18A
100
AcDbEntity
  8
1
  6
CONTINUOUS
 62
           2
100
AcDbLine
 10
-141.71966386914
 20
84.71282618712
 11
-142.16966386914
 21
84.41282618712
  0
LINE
  5
189
100
AcDbEntity
  8
1
  6
CONTINUOUS
 62
           2
100
AcDbLine
 10
-142.16966386914
 20
84.41282618712
 11
-142.61966386914
 21
84.26282618712
  0
LINE
  5
188
100
AcDbEntity
  8
1
  6
CONTINUOUS
 62
           2
100
AcDbLine
 10
-145.01966386914
 20
84.26282618712
 11
-145.01966386914
 21
86.96282618712
  0
LINE
  5
187
100
AcDbEntity
  8
1
  6
CONTINUOUS
 62
           2
100
AcDbLine
 10
-139.31966386914
 20
83.06282618712
 11
-136.31966386914
 21
83.06282618712
  0
LINE
  5
186
100
AcDbEntity
  8
1
  6
CONTINUOUS
 62
           2
100
AcDbLine
 10
-134.51966386914
 20
85.16282618712
 11
-132.71966386914
 21
86.96282618712
  0
LINE
  5
185
100
AcDbEntity
  8
1
  6
CONTINUOUS
 62
           2
100
AcDbLine
 10
-132.71966386914
 20
86.96282618712
 11
-132.71966386914
 21
80.96282618712
  0
LINE
  5
184
100
AcDbEntity
  8
1
  6
CONTINUOUS
 62
           2
100
AcDbLine
 10
-127.31966386914
 20
83.21282618712
 11
-127.46966386914
 21
82.31282618712
  0
LINE
  5
183
100
AcDbEntity
  8
1
  6
CONTINUOUS
 62
           2
100
AcDbLine
 10
-127.46966386914
 20
82.31282618712
 11
-127.76966386914
 21
81.71282618712
  0
LINE
  5
182
100
AcDbEntity
  8
1
  6
CONTINUOUS
 62
           2
100
AcDbLine
 10
-127.76966386914
 20
81.71282618712
 11
-128.06966386914
 21
81.41282618712
  0
LINE
  5
181
100
AcDbEntity
  8
1
  6
CONTINUOUS
 62
           2
100
AcDbLine
 10
-128.06966386914
 20
81.41282618712
 11
-128.51966386914
 21
81.11282618712
  0
LINE
  5
180
100
AcDbEntity
  8
1
  6
CONTINUOUS
 62
           2
100
AcDbLine
 10
-128.51966386914
 20
81.11282618712
 11
-128.96966386914
 21
80.96282618712
  0
LINE
  5
17F
100
AcDbEntity
  8
1
  6
CONTINUOUS
 62
           2
100
AcDbLine
 10
-128.96966386914
 20
80.96282618712
 11
-129.26966386914
 21
80.96282618712
  0
LINE
  5
17E
100
AcDbEntity
  8
1
  6
CONTINUOUS
 62
           2
100
AcDbLine
 10
-129.26966386914
 20
80.96282618712
 11
-129.71966386914
 21
81.11282618712
  0
LINE
  5
17D
100
AcDbEntity
  8
1
  6
CONTINUOUS
 62
           2
100
AcDbLine
 10
-129.71966386914
 20
81.11282618712
 11
-130.16966386914
 21
81.41282618712
  0
LINE
  5
17C
100
AcDbEntity
  8
1
  6
CONTINUOUS
 62
           2
100
AcDbLine
 10
-130.16966386914
 20
81.41282618712
 11
-130.46966386914
 21
81.71282618712
  0
LINE
  5
17B
100
AcDbEntity
  8
1
  6
CONTINUOUS
 62
           2
100
AcDbLine
 10
-130.46966386914
 20
81.71282618712
 11
-130.76966386914
 21
82.31282618712
  0
LINE
  5
17A
100
AcDbEntity
  8
1
  6
CONTINUOUS
 62
           2
100
AcDbLine
 10
-130.76966386914
 20
82.31282618712
 11
-130.91966386914
 21
83.21282618712
  0
LINE
  5
179
100
AcDbEntity
  8
1
  6
CONTINUOUS
 62
           2
100
AcDbLine
 10
-130.91966386914
 20
83.21282618712
 11
-130.91966386914
 21
84.71282618712
  0
LINE
  5
178
100
AcDbEntity
  8
1
  6
CONTINUOUS
 62
           2
100
AcDbLine
 10
-130.91966386914
 20
84.71282618712
 11
-130.76966386914
 21
85.61282618712
  0
LINE
  5
177
100
AcDbEntity
  8
1
  6
CONTINUOUS
 62
           2
100
AcDbLine
 10
-130.76966386914
 20
85.61282618712
 11
-130.46966386914
 21
86.21282618712
  0
LINE
  5
176
100
AcDbEntity
  8
1
  6
CONTINUOUS
 62
           2
100
AcDbLine
 10
-130.46966386914
 20
86.21282618712
 11
-130.16966386914
 21
86.51282618712
  0
LINE
  5
175
100
AcDbEntity
  8
1
  6
CONTINUOUS
 62
           2
100
AcDbLine
 10
-130.16966386914
 20
86.51282618712
 11
-129.71966386914
 21
86.81282618712
  0
LINE
  5
174
100
AcDbEntity
  8
1
  6
CONTINUOUS
 62
           2
100
AcDbLine
 10
-129.71966386914
 20
86.81282618712
 11
-129.26966386914
 21
86.96282618712
  0
LINE
  5
173
100
AcDbEntity
  8
1
  6
CONTINUOUS
 62
           2
100
AcDbLine
 10
-129.26966386914
 20
86.96282618712
 11
-128.96966386914
 21
86.96282618712
  0
LINE
  5
172
100
AcDbEntity
  8
1
  6
CONTINUOUS
 62
           2
100
AcDbLine
 10
-128.96966386914
 20
86.96282618712
 11
-128.51966386914
 21
86.81282618712
  0
LINE
  5
171
100
AcDbEntity
  8
1
  6
CONTINUOUS
 62
           2
100
AcDbLine
 10
-128.51966386914
 20
86.81282618712
 11
-128.06966386914
 21
86.51282618712
  0
LINE
  5
170
100
AcDbEntity
  8
1
  6
CONTINUOUS
 62
           2
100
AcDbLine
 10
-128.06966386914
 20
86.51282618712
 11
-127.76966386914
 21
86.21282618712
  0
LINE
  5
16F
100
AcDbEntity
  8
1
  6
CONTINUOUS
 62
           2
100
AcDbLine
 10
-127.76966386914
 20
86.21282618712
 11
-127.46966386914
 21
85.61282618712
  0
LINE
  5
16E
100
AcDbEntity
  8
1
  6
CONTINUOUS
 62
           2
100
AcDbLine
 10
-127.46966386914
 20
85.61282618712
 11
-127.31966386914
 21
84.71282618712
  0
LINE
  5
16D
100
AcDbEntity
  8
1
  6
CONTINUOUS
 62
           2
100
AcDbLine
 10
-127.31966386914
 20
84.71282618712
 11
-127.31966386914
 21
83.21282618712
  0
INSERT
  5
33
100
AcDbEntity
  8
0
100
AcDbBlockReference
  2
ALF800B_10DATA
 10
0.0
 20
0.0
  0
ENDSEC
  0
SECTION
  2
OBJECTS
  0
DICTIONARY
  5
19
100
AcDbDictionary
  3
ACAD_GROUP
350
1A
  3
ACAD_MLINESTYLE
350
1B
  0
DICTIONARY
  5
1A
102
{ACAD_REACTORS
330
19
102
}
100
AcDbDictionary
  0
DICTIONARY
  5
1B
102
{ACAD_REACTORS
330
19
102
}
100
AcDbDictionary
  3
STANDARD
350
1C
  0
MLINESTYLE
  5
1C
102
{ACAD_REACTORS
330
1B
102
}
100
AcDbMlineStyle
  2
STANDARD
 70
           0
  3

 62
           0
 51
90.0
 52
90.0
 71
           2
 49
0.5
 62
         256
  6
BYLAYER
 49
-0.5
 62
         256
  6
BYLAYER
  0
ENDSEC
  0
EOF
