  0
SECTION
  2
HEADER
  9
$ACADVER
  1
AC1014
  9
$ACADMAINTVER
 70
           0
  9
$DWGCODEPAGE
  3
DOS932
  9
$INSBASE
 10
0.0
 20
0.0
 30
0.0
  9
$EXTMIN
 10
1.000000000000E+20
 20
1.000000000000E+20
 30
1.000000000000E+20
  9
$EXTMAX
 10
-1.000000000000E+20
 20
-1.000000000000E+20
 30
-1.000000000000E+20
  9
$LIMMIN
 10
0.0
 20
0.0
  9
$LIMMAX
 10
0.0
 20
0.0
  9
$ORTHOMODE
 70
           0
  9
$REGENMODE
 70
           1
  9
$FILLMODE
 70
           1
  9
$QTEXTMODE
 70
           0
  9
$MIRRTEXT
 70
           1
  9
$DRAGMODE
 70
           2
  9
$LTSCALE
 40
1.0
  9
$OSMODE
 70
           0
  9
$ATTMODE
 70
           1
  9
$TEXTSIZE
 40
0.2
  9
$TRACEWID
 40
0.05
  9
$TEXTSTYLE
  7
STANDARD
  9
$CLAYER
  8
0
  9
$CELTYPE
  6
CONTINUOUS
  9
$CECOLOR
 62
         256
  9
$CELTSCALE
 40
1.0
  9
$DELOBJ
 70
           1
  9
$DISPSILH
 70
           0
  9
$DIMSCALE
 40
1.0
  9
$DIMASZ
 40
0.18
  9
$DIMEXO
 40
0.0625
  9
$DIMDLI
 40
0.38
  9
$DIMRND
 40
0.0
  9
$DIMDLE
 40
0.0
  9
$DIMEXE
 40
0.18
  9
$DIMTP
 40
0.0
  9
$DIMTM
 40
0.0
  9
$DIMTXT
 40
0.18
  9
$DIMCEN
 40
0.09
  9
$DIMTSZ
 40
0.0
  9
$DIMTOL
 70
           0
  9
$DIMLIM
 70
           0
  9
$DIMTIH
 70
           1
  9
$DIMTOH
 70
           1
  9
$DIMSE1
 70
           0
  9
$DIMSE2
 70
           0
  9
$DIMTAD
 70
           0
  9
$DIMZIN
 70
           0
  9
$DIMBLK
  1

  9
$DIMASO
 70
           1
  9
$DIMSHO
 70
           1
  9
$DIMPOST
  1

  9
$DIMAPOST
  1

  9
$DIMALT
 70
           0
  9
$DIMALTD
 70
           2
  9
$DIMALTF
 40
25.4
  9
$DIMLFAC
 40
1.0
  9
$DIMTOFL
 70
           0
  9
$DIMTVP
 40
0.0
  9
$DIMTIX
 70
           0
  9
$DIMSOXD
 70
           0
  9
$DIMSAH
 70
           0
  9
$DIMBLK1
  1

  9
$DIMBLK2
  1

  9
$DIMSTYLE
  2
STANDARD
  9
$DIMCLRD
 70
           0
  9
$DIMCLRE
 70
           0
  9
$DIMCLRT
 70
           0
  9
$DIMTFAC
 40
1.0
  9
$DIMGAP
 40
0.09
  9
$DIMJUST
 70
           0
  9
$DIMSD1
 70
           0
  9
$DIMSD2
 70
           0
  9
$DIMTOLJ
 70
           1
  9
$DIMTZIN
 70
           0
  9
$DIMALTZ
 70
           0
  9
$DIMALTTZ
 70
           0
  9
$DIMFIT
 70
           3
  9
$DIMUPT
 70
           0
  9
$DIMUNIT
 70
           2
  9
$DIMDEC
 70
           4
  9
$DIMTDEC
 70
           4
  9
$DIMALTU
 70
           2
  9
$DIMALTTD
 70
           2
  9
$DIMTXSTY
  7
STANDARD
  9
$DIMAUNIT
 70
           0
  9
$LUNITS
 70
           2
  9
$LUPREC
 70
           4
  9
$SKETCHINC
 40
0.1
  9
$FILLETRAD
 40
0.0
  9
$AUNITS
 70
           0
  9
$AUPREC
 70
           0
  9
$MENU
  1
acad
  9
$ELEVATION
 40
0.0
  9
$PELEVATION
 40
0.0
  9
$THICKNESS
 40
0.0
  9
$LIMCHECK
 70
           0
  9
$BLIPMODE
 70
           1
  9
$CHAMFERA
 40
0.0
  9
$CHAMFERB
 40
0.0
  9
$CHAMFERC
 40
0.0
  9
$CHAMFERD
 40
0.0
  9
$SKPOLY
 70
           0
  9
$TDCREATE
 40
0.000000000
  9
$TDUPDATE
 40
0.000000000
  9
$TDINDWG
 40
0.0000000000
  9
$TDUSRTIMER
 40
0.0000000000
  9
$USRTIMER
 70
           1
  9
$ANGBASE
 50
0.0
  9
$ANGDIR
 70
           0
  9
$PDMODE
 70
           0
  9
$PDSIZE
 40
0.0
  9
$PLINEWID
 40
0.0
  9
$COORDS
 70
           0
  9
$SPLFRAME
 70
           0
  9
$SPLINETYPE
 70
           6
  9
$SPLINESEGS
 70
           8
  9
$ATTDIA
 70
           0
  9
$ATTREQ
 70
           1
  9
$HANDLING
 70
           1
  9
$HANDSEED
  5
1BD
  9
$SURFTAB1
 70
           6
  9
$SURFTAB2
 70
           6
  9
$SURFTYPE
 70
           6
  9
$SURFU
 70
           6
  9
$SURFV
 70
           6
  9
$UCSNAME
  2

  9
$UCSORG
 10
0.0
 20
0.0
 30
0.0
  9
$UCSXDIR
 10
1.0
 20
0.0
 30
0.0
  9
$UCSYDIR
 10
0.0
 20
1.0
 30
0.0
  9
$PUCSNAME
  2

  9
$PUCSORG
 10
0.0
 20
0.0
 30
0.0
  9
$PUCSXDIR
 10
1.0
 20
0.0
 30
0.0
  9
$PUCSYDIR
 10
0.0
 20
1.0
 30
0.0
  9
$USERI1
 70
           0
  9
$USERI2
 70
           0
  9
$USERI3
 70
           0
  9
$USERI4
 70
           0
  9
$USERI5
 70
           0
  9
$USERR1
 40
0.0
  9
$USERR2
 40
0.0
  9
$USERR3
 40
0.0
  9
$USERR4
 40
0.0
  9
$USERR5
 40
0.0
  9
$WORLDVIEW
 70
           1
  9
$SHADEDGE
 70
           3
  9
$SHADEDIF
 70
          70
  9
$TILEMODE
 70
           1
  9
$MAXACTVP
 70
          16
  9
$PINSBASE
 10
0.0
 20
0.0
 30
0.0
  9
$PLIMCHECK
 70
           0
  9
$PEXTMIN
 10
1.000000000000E+20
 20
1.000000000000E+20
 30
1.000000000000E+20
  9
$PEXTMAX
 10
-1.000000000000E+20
 20
-1.000000000000E+20
 30
-1.000000000000E+20
  9
$PLIMMIN
 10
0.0
 20
0.0
  9
$PLIMMAX
 10
12.0
 20
9.0
  9
$UNITMODE
 70
           0
  9
$VISRETAIN
 70
           0
  9
$PLINEGEN
 70
           1
  9
$PSLTSCALE
 70
           0
  9
$TREEDEPTH
 70
        3020
  9
$PICKSTYLE
 70
           1
  9
$CMLSTYLE
  2
STANDARD
  9
$CMLJUST
 70
           0
  9
$CMLSCALE
 40
1.0
  9
$PROXYGRAPHICS
 70
           0
  9
$MEASUREMENT
 70
           0
  0
ENDSEC
  0
SECTION
  2
CLASSES
  0
CLASS
  1
LWPOLYLINE
  2
AcDbPolyline
  3
"AutoCAD"
 90
        0
280
           0
281
           1
  0
CLASS
  1
IMAGE
  2
AcDbRasterImage
  3
ISM
 90
      127
280
           0
281
           1
  0
CLASS
  1
OLE2FRAME
  2
AcDbOle2Frame
  3
""
 90
        0
280
           0
281
           1
  0
CLASS
  1
HATCH
  2
AcDbHatch
  3
"ACAD_SEDONA"
 90
        0
280
           0
281
           1
  0
CLASS
  1
DICTIONARYVAR
  2
AcDbDictionaryVar
  3
"AutoCAD"
 90
        0
280
           0
281
           0
  0
CLASS
  1
RASTERVARIABLES
  2
AcDbRasterVariables
  3
ISM
 90
        0
280
           0
281
           0
  0
CLASS
  1
IMAGEDEF
  2
AcDbRasterImageDef
  3
ISM
 90
        0
280
           0
281
           0
  0
CLASS
  1
IMAGEDEF_REACTOR
  2
AcDbRasterImageDefReactor
  3
ISM
 90
        1
280
           0
281
           0
  0
CLASS
  1
IDBUFFER
  2
AcDbIdBuffer
  3
"Acad"
 90
        0
280
           0
281
           0
  0
CLASS
  1
SPATIAL_FILTER
  2
AcDbSpatialFilter
  3
"Acad"
 90
        0
280
           0
281
           0
  0
CLASS
  1
XRECORD
  2
AcDbXrecord
  3
"<Built In>"
 90
        0
280
           0
281
           0
  0
CLASS
  1
SORTENTSTABLE
  2
AcDbSortentsTable
  3
"AutoCAD"
 90
        0
280
           0
281
           0
  0
CLASS
  1
LAYER_INDEX
  2
AcDbLayerIndex
  3
"Acad"
 90
        0
280
           0
281
           0
  0
CLASS
  1
SPATIAL_INDEX
  2
AcDbSpatialIndex
  3
"Acad"
 90
        0
280
           0
281
           0
  0
CLASS
  1
OBJECT_PTR
  2
CAseDLPNTableRecord
  3
"ASE-LPNTableRecord"
 90
        1
280
           0
281
           0
  0
CLASS
  1
LAYOUT
  2
AcDbLayout
  3
"AutoCAD 2000"
 90
        1
280
           0
281
           0
  0
CLASS
  1
PLOTSETTINGS
  2
AcDbPlotSettings
  3
"AutoCAD 2000"
 90
        1
280
           0
281
           0
  0
CLASS
  1
ACDBDICTIONARYWDFLT
  2
AcDbDictionaryWithDefault
  3
"AutoCAD 2000"
 90
        1
280
           0
281
           0
  0
CLASS
  1
ACDBPLACEHOLDER
  2
AcDbPlaceHolder
  3
"AutoCAD 2000"
 90
        1
280
           0
281
           0
  0
CLASS
  1
VBA_PROJECT
  2
AcDbVbaProject
  3
"acadvba"
 90
        1
280
           0
281
           0
  0
CLASS
  1
WIPEOUT
  2
AcDbWipeout
  3
WipeOut|AutoCAD Express Tool|expresstools@autodesk.com
 90
      127
280
           0
281
           1
  0
CLASS
  1
WIPEOUTVARIABLES
  2
AcDbWipeoutVariables
  3
WipeOut|AutoCAD Express Tool|expresstools@autodesk.com
 90
        0
280
           0
281
           0
  0
CLASS
  1
RTEXT
  2
RText
  3
RText|AutoCAD Express Tool|expresstools@autodesk.com
 90
        0
280
           0
281
           1
  0
CLASS
  1
ARCALIGNEDTEXT
  2
AcDbArcAlignedText
  3
ATEXT|AutoCAD Express Tool|expresstools@autodesk.com
 90
        0
280
           0
281
           1
  0
ENDSEC
  0
SECTION
  2
TABLES
  0
TABLE
  2
VPORT
  5
7
100
AcDbSymbolTable
 70
           1
  0
VPORT
  5
15
100
AcDbSymbolTableRecord
100
AcDbViewportTableRecord
  2
*ACTIVE
 70
           0
 10
0.0
 20
0.0
 11
1.0
 21
1.0
 12
6.591288
 22
4.579184
 13
0.0
 23
0.0
 14
1.0
 24
1.0
 15
0.0
 25
0.0
 16
0.0
 26
0.0
 36
1.0
 17
0.0
 27
0.0
 37
0.0
 40
9.158369
 41
0.688564
 42
50.0
 43
0.0
 44
0.0
 50
0.0
 51
0.0
 71
           0
 72
         100
 73
           1
 74
           1
 75
           0
 76
           0
 77
           0
 78
           0
  0
ENDTAB
  0
TABLE
  2
LTYPE
  5
4
100
AcDbSymbolTable
 70
          10
  0
LTYPE
  5
11
100
AcDbSymbolTableRecord
100
AcDbLinetypeTableRecord
  2
BYBLOCK
 70
          64
  3

 72
          65
 73
           0
 40
0.0
  0
LTYPE
  5
12
100
AcDbSymbolTableRecord
100
AcDbLinetypeTableRecord
  2
BYLAYER
 70
          64
  3

 72
          65
 73
           0
 40
0.0
  0
LTYPE
  5
13
100
AcDbSymbolTableRecord
100
AcDbLinetypeTableRecord
  2
CONTINUOUS
 70
          64
  3
Solid line
 72
          65
 73
           0
 40
0.0
  0
LTYPE
  5
1D
100
AcDbSymbolTableRecord
100
AcDbLinetypeTableRecord
  2
DASHED
 70
          64
  3
Dashed
 72
          65
 73
           2
 40
15.0
 49
12.0
 74
           0
 49
-3.0
 74
           0
  0
LTYPE
  5
1E
100
AcDbSymbolTableRecord
100
AcDbLinetypeTableRecord
  2
DOTTED
 70
          64
  3
Dotted
 72
          65
 73
           2
 40
3.5
 49
0.5
 74
           0
 49
-3.0
 74
           0
  0
LTYPE
  5
1F
100
AcDbSymbolTableRecord
100
AcDbLinetypeTableRecord
  2
DOT_CENTER
 70
          64
  3
Dot_Center
 72
          65
 73
           4
 40
2.0
 49
1.25
 74
           0
 49
-0.25
 74
           0
 49
0.25
 74
           0
 49
-0.25
 74
           0
  0
LTYPE
  5
20
100
AcDbSymbolTableRecord
100
AcDbLinetypeTableRecord
  2
LONG_DASHED
 70
          64
  3
Long_Dashed
 72
          65
 73
           2
 40
2.0
 49
1.5
 74
           0
 49
-0.5
 74
           0
  0
LTYPE
  5
21
100
AcDbSymbolTableRecord
100
AcDbLinetypeTableRecord
  2
DASH_CENTER
 70
          64
  3
Dash_Center
 72
          65
 73
           4
 40
36.0
 49
24.0
 74
           0
 49
-3.0
 74
           0
 49
6.0
 74
           0
 49
-3.0
 74
           0
  0
LTYPE
  5
22
100
AcDbSymbolTableRecord
100
AcDbLinetypeTableRecord
  2
PHANTOM
 70
          64
  3
Phantom
 72
          65
 73
           6
 40
2.5
 49
1.25
 74
           0
 49
-0.25
 74
           0
 49
0.25
 74
           0
 49
-0.25
 74
           0
 49
0.25
 74
           0
 49
-0.25
 74
           0
  0
LTYPE
  5
23
100
AcDbSymbolTableRecord
100
AcDbLinetypeTableRecord
  2
CENTER_DASH_DASH
 70
          64
  3
Center_Dash_Dash
 72
          65
 73
           6
 40
22.0
 49
12.0
 74
           0
 49
-3.0
 74
           0
 49
0.5
 74
           0
 49
-3.0
 74
           0
 49
0.5
 74
           0
 49
-3.0
 74
           0
  0
ENDTAB
  0
TABLE
  2
LAYER
  5
2
100
AcDbSymbolTable
 70
           6
  0
LAYER
  5
14
100
AcDbSymbolTableRecord
100
AcDbLayerTableRecord
  2
0
 70
           0
 62
           7
  6
CONTINUOUS
  0
LAYER
  5
24
100
AcDbSymbolTableRecord
100
AcDbLayerTableRecord
  2
976
 70
           0
 62
           7
  6
CONTINUOUS
  0
LAYER
  5
25
100
AcDbSymbolTableRecord
100
AcDbLayerTableRecord
  2
1
 70
           0
 62
           7
  6
CONTINUOUS
  0
LAYER
  5
26
100
AcDbSymbolTableRecord
100
AcDbLayerTableRecord
  2
2
 70
           0
 62
           7
  6
CONTINUOUS
  0
LAYER
  5
27
100
AcDbSymbolTableRecord
100
AcDbLayerTableRecord
  2
3
 70
           0
 62
           7
  6
CONTINUOUS
  0
LAYER
  5
28
100
AcDbSymbolTableRecord
100
AcDbLayerTableRecord
  2
7
 70
           0
 62
           7
  6
CONTINUOUS
  0
ENDTAB
  0
TABLE
  2
STYLE
  5
3
100
AcDbSymbolTable
 70
           2
  0
STYLE
  5
17
100
AcDbSymbolTableRecord
100
AcDbTextStyleTableRecord
  2
STANDARD
 70
           0
 40
0.0
 41
1.0
 50
0.0
 71
           0
 42
0.0
  3
txt
  4

  0
STYLE
  5
1B4
100
AcDbSymbolTableRecord
100
AcDbTextStyleTableRecord
  2
CONVERTER_1
 70
           0
 40
0.0
 41
0.9
 50
0.0
 71
           0
 42
0.0
  3
txt.shx
  4

  0
ENDTAB
  0
TABLE
  2
VIEW
  5
5
100
AcDbSymbolTable
 70
           0
  0
ENDTAB
  0
TABLE
  2
UCS
  5
6
100
AcDbSymbolTable
 70
           0
  0
ENDTAB
  0
TABLE
  2
APPID
  5
8
100
AcDbSymbolTable
 70
           1
  0
APPID
  5
16
100
AcDbSymbolTableRecord
100
AcDbRegAppTableRecord
  2
ACAD
 70
           0
  0
ENDTAB
  0
TABLE
  2
DIMSTYLE
  5
9
100
AcDbSymbolTable
 70
           1
  0
DIMSTYLE
105
18
100
AcDbSymbolTableRecord
100
AcDbDimStyleTableRecord
  2
STANDARD
 70
           0
  3

  4

  5

  6

  7

 40
1.0
 41
0.18
 42
0.0625
 43
0.38
 44
0.18
 45
0.0
 46
0.0
 47
0.0
 48
0.0
 71
           0
 72
           0
 73
           1
 74
           1
 75
           0
 76
           0
 77
           0
 78
           0
140
0.18
141
0.09
142
0.0
143
25.4
144
1.0
145
0.0
146
1.0
147
0.09
170
           0
171
           2
172
           0
173
           0
174
           0
175
           0
176
           0
177
           0
178
           0
270
           2
271
           4
272
           4
273
           2
274
           2
275
           0
280
           0
281
           0
282
           0
283
           1
284
           0
285
           0
286
           0
287
           0
288
           0
340
17
  0
ENDTAB
  0
TABLE
  2
BLOCK_RECORD
  5
1
100
AcDbSymbolTable
 70
           3
  0
BLOCK_RECORD
  5
A
100
AcDbSymbolTableRecord
100
AcDbBlockTableRecord
  2
*MODEL_SPACE
  0
BLOCK_RECORD
  5
B
100
AcDbSymbolTableRecord
100
AcDbBlockTableRecord
  2
*PAPER_SPACE
  0
BLOCK_RECORD
  5
29
100
AcDbSymbolTableRecord
100
AcDbBlockTableRecord
  2
3_AFD40_02C_2_A_0
  0
BLOCK_RECORD
  5
2B
100
AcDbSymbolTableRecord
100
AcDbBlockTableRecord
  2
1_AFD40_02C_2_A_0
  0
BLOCK_RECORD
  5
2E
100
AcDbSymbolTableRecord
100
AcDbBlockTableRecord
  2
ASF650B_10DDATA
  0
ENDTAB
  0
ENDSEC
  0
SECTION
  2
BLOCKS
  0
BLOCK
  5
D
100
AcDbEntity
  8
0
100
AcDbBlockBegin
  2
*MODEL_SPACE
 70
           0
 10
0.0
 20
0.0
 30
0.0
  3
*MODEL_SPACE
  1

  0
ENDBLK
  5
E
100
AcDbEntity
  8
0
100
AcDbBlockEnd
  0
BLOCK
  5
F
100
AcDbEntity
 67
           1
  8
0
100
AcDbBlockBegin
  2
*PAPER_SPACE
 70
           0
 10
0.0
 20
0.0
 30
0.0
  3
*PAPER_SPACE
  1

  0
ENDBLK
  5
10
100
AcDbEntity
 67
           1
  8
0
100
AcDbBlockEnd
  0
BLOCK
  5
2A
100
AcDbEntity
  8
0
100
AcDbBlockBegin
  2
3_AFD40_02C_2_A_0
 70
           0
 10
0.0
 20
0.0
 30
0.0
  3
3_AFD40_02C_2_A_0
  1

  0
TEXT
  5
1B6
100
AcDbEntity
  8
1
 62
           2
100
AcDbText
 10
-579.425949825374
 20
247.085069354679
 40
7.0
  1
OUT
 41
0.9
  7
CONVERTER_1
100
AcDbText
  0
TEXT
  5
1B5
100
AcDbEntity
  8
1
 62
           2
100
AcDbText
 10
-670.427175886019
 20
247.966987231844
 40
7.0
  1
IN
 41
0.9
  7
CONVERTER_1
100
AcDbText
  0
LEADER
  5
1B3
100
AcDbEntity
  8
976
  6
CONTINUOUS
 62
           2
100
AcDbLeader
  3
Standard
 71
           0
 73
           3
 74
           0
 75
           0
 40
0.0
 76
           2
 10
-564.952506429901
 20
242.957951602979
 30
0.0
 10
-576.695306016651
 20
242.957951602979
 30
0.0
 77
           2
  0
LEADER
  5
1B1
100
AcDbEntity
  8
976
  6
CONTINUOUS
 62
           2
100
AcDbLeader
  3
Standard
 71
           0
 73
           3
 74
           0
 75
           0
 40
0.0
 76
           2
 10
-659.554610965852
 20
243.617659444931
 30
0.0
 10
-672.484884668116
 20
243.617659444931
 30
0.0
 77
           2
  0
CIRCLE
  5
1AF
100
AcDbEntity
  8
0
  6
CONTINUOUS
 62
           7
100
AcDbCircle
 10
-643.482284243705
 20
414.128045667587
 40
2.067
  0
CIRCLE
  5
1AE
100
AcDbEntity
  8
0
  6
CONTINUOUS
 62
           7
100
AcDbCircle
 10
-596.482284243705
 20
414.128045667587
 40
2.067
  0
CIRCLE
  5
1AD
100
AcDbEntity
  8
0
  6
CONTINUOUS
 62
           7
100
AcDbCircle
 10
-596.482284243705
 20
354.128045667587
 40
2.067
  0
CIRCLE
  5
1AC
100
AcDbEntity
  8
0
  6
CONTINUOUS
 62
           7
100
AcDbCircle
 10
-643.482284243705
 20
354.128045667587
 40
2.067
  0
CIRCLE
  5
1AB
100
AcDbEntity
  8
7
  6
CONTINUOUS
 62
           7
100
AcDbCircle
 10
-596.482284243705
 20
354.128045667587
 40
2.5
  0
CIRCLE
  5
1AA
100
AcDbEntity
  8
7
  6
CONTINUOUS
 62
           7
100
AcDbCircle
 10
-643.482284243705
 20
354.128045667587
 40
2.5
  0
CIRCLE
  5
1A9
100
AcDbEntity
  8
0
  6
CONTINUOUS
 62
           7
100
AcDbCircle
 10
-459.192282565238
 20
240.33804398912
 40
5.7225
  0
CIRCLE
  5
1A8
100
AcDbEntity
  8
7
  6
CONTINUOUS
 62
           7
100
AcDbCircle
 10
-459.192282565238
 20
240.33804398912
 40
6.5785
  0
CIRCLE
  5
1A7
100
AcDbEntity
  8
0
  6
CONTINUOUS
 62
           7
100
AcDbCircle
 10
-780.772285922172
 20
240.33804398912
 40
5.7225
  0
CIRCLE
  5
1A6
100
AcDbEntity
  8
7
  6
CONTINUOUS
 62
           7
100
AcDbCircle
 10
-780.772285922172
 20
240.33804398912
 40
6.5785
  0
ARC
  5
1A5
100
AcDbEntity
  8
0
  6
CONTINUOUS
 62
           7
100
AcDbCircle
 10
-619.982284243705
 20
384.128045667587
 40
38.400000000001
100
AcDbArc
 50
-102.611754908338
 51
-77.388245091662
  0
ARC
  5
1A4
100
AcDbEntity
  8
0
  6
CONTINUOUS
 62
           7
100
AcDbCircle
 10
-597.575357039124
 20
413.628045667587
 40
6.000000000001
100
AcDbArc
 50
14.999999999997
 51
90.0
  0
ARC
  5
1A3
100
AcDbEntity
  8
0
  6
CONTINUOUS
 62
           7
100
AcDbCircle
 10
-642.389211448287
 20
413.628045667587
 40
6.0
100
AcDbArc
 50
90.0
 51
165.000000000001
  0
ARC
  5
1A2
100
AcDbEntity
  8
0
  6
CONTINUOUS
 62
           7
100
AcDbCircle
 10
-642.389211448287
 20
354.628045667587
 40
6.0
100
AcDbArc
 50
-164.999999999992
 51
-90.0
  0
ARC
  5
1A1
100
AcDbEntity
  8
0
  6
CONTINUOUS
 62
           7
100
AcDbCircle
 10
-597.575357039124
 20
354.628045667587
 40
6.0
100
AcDbArc
 50
-90.0
 51
-14.999999999998
  0
ARC
  5
1A0
100
AcDbEntity
  8
0
  6
CONTINUOUS
 62
           7
100
AcDbCircle
 10
-619.982284243705
 20
384.128045667587
 40
27.0
100
AcDbArc
 50
42.343413804063
 51
137.656586195937
  0
ARC
  5
19F
100
AcDbEntity
  8
0
  6
CONTINUOUS
 62
           7
100
AcDbCircle
 10
-619.982284243705
 20
384.128045667587
 40
27.0
100
AcDbArc
 50
-137.656586195935
 51
-42.343413804065
  0
ARC
  5
19E
100
AcDbEntity
  8
7
  6
CONTINUOUS
 62
           7
100
AcDbCircle
 10
-596.482284243705
 20
414.128045667587
 40
2.499999999999
100
AcDbArc
 50
75.0
 51
14.999999999997
  0
ARC
  5
19D
100
AcDbEntity
  8
7
  6
CONTINUOUS
 62
           7
100
AcDbCircle
 10
-643.482284243705
 20
414.128045667587
 40
2.499999999999
100
AcDbArc
 50
74.999999999995
 51
14.999999999994
  0
ARC
  5
19C
100
AcDbEntity
  8
7
  6
CONTINUOUS
 62
           7
100
AcDbCircle
 10
-596.482284243705
 20
414.128045667587
 40
2.499999999999
100
AcDbArc
 50
14.999999999997
 51
-75.000000000007
  0
ARC
  5
19B
100
AcDbEntity
  8
7
  6
CONTINUOUS
 62
           7
100
AcDbCircle
 10
-643.482284243705
 20
414.128045667587
 40
2.5
100
AcDbArc
 50
14.999999999994
 51
-75.000000000002
  0
ARC
  5
19A
100
AcDbEntity
  8
0
  6
CONTINUOUS
 62
           7
100
AcDbCircle
 10
-477.792282565238
 20
99.432351103132
 40
10.2
100
AcDbArc
 50
180.0
 51
-105.000000000002
  0
ARC
  5
199
100
AcDbEntity
  8
0
  6
CONTINUOUS
 62
           7
100
AcDbCircle
 10
-440.592282565238
 20
99.432351103132
 40
10.199999999999
100
AcDbArc
 50
-75.000000000003
 51
0.0
  0
ARC
  5
198
100
AcDbEntity
  8
0
  6
CONTINUOUS
 62
           7
100
AcDbCircle
 10
-638.582284243705
 20
99.432351103132
 40
10.2
100
AcDbArc
 50
180.0
 51
-105.0
  0
ARC
  5
197
100
AcDbEntity
  8
0
  6
CONTINUOUS
 62
           7
100
AcDbCircle
 10
-601.382284243705
 20
99.432351103132
 40
10.2
100
AcDbArc
 50
-74.999999999998
 51
0.0
  0
ARC
  5
196
100
AcDbEntity
  8
0
  6
CONTINUOUS
 62
           7
100
AcDbCircle
 10
-799.372285922172
 20
99.432351103132
 40
10.2
100
AcDbArc
 50
180.0
 51
-105.0
  0
ARC
  5
195
100
AcDbEntity
  8
0
  6
CONTINUOUS
 62
           7
100
AcDbCircle
 10
-762.172285922172
 20
99.432351103132
 40
10.2
100
AcDbArc
 50
-74.999999999999
 51
0.0
  0
LINE
  5
194
100
AcDbEntity
  8
1
  6
DOT_CENTER
 62
           3
100
AcDbLine
 10
-655.837251115968
 20
240.33804398912
 11
-583.874958119113
 21
240.33804398912
  0
LINE
  5
193
100
AcDbEntity
  8
0
  6
CONTINUOUS
 62
           7
100
AcDbLine
 10
-651.682284243705
 20
228.33804398912
 11
-588.282284243705
 21
228.33804398912
  0
LINE
  5
192
100
AcDbEntity
  8
2
  6
DASHED
 62
           7
100
AcDbLine
 10
-628.714651545634
 20
348.628045667587
 11
-628.732284243705
 21
348.728045667587
  0
LINE
  5
191
100
AcDbEntity
  8
2
  6
DASHED
 62
           7
100
AcDbLine
 10
-611.232284243705
 20
348.728045667587
 11
-611.249916941776
 21
348.628045667587
  0
LINE
  5
190
100
AcDbEntity
  8
2
  6
DASHED
 62
           7
100
AcDbLine
 10
-611.232284243705
 20
348.728045667587
 11
-628.732284243705
 21
348.728045667587
  0
LINE
  5
18F
100
AcDbEntity
  8
3
  6
DOT_CENTER
 62
           7
100
AcDbLine
 10
-619.982284243705
 20
353.888045667587
 11
-619.982284243705
 21
414.368045667587
  0
LINE
  5
18E
100
AcDbEntity
  8
3
  6
CONTINUOUS
 62
           7
100
AcDbLine
 10
-599.107284243705
 20
414.128045667587
 11
-593.857284243705
 21
414.128045667587
  0
LINE
  5
18D
100
AcDbEntity
  8
3
  6
CONTINUOUS
 62
           7
100
AcDbLine
 10
-596.482284243705
 20
411.503045667587
 11
-596.482284243705
 21
416.753045667587
  0
LINE
  5
18C
100
AcDbEntity
  8
3
  6
CONTINUOUS
 62
           7
100
AcDbLine
 10
-646.107284243705
 20
414.128045667587
 11
-640.857284243705
 21
414.128045667587
  0
LINE
  5
18B
100
AcDbEntity
  8
3
  6
CONTINUOUS
 62
           7
100
AcDbLine
 10
-643.482284243705
 20
411.503045667587
 11
-643.482284243705
 21
416.753045667587
  0
LINE
  5
18A
100
AcDbEntity
  8
3
  6
CONTINUOUS
 62
           7
100
AcDbLine
 10
-599.107284243705
 20
354.128045667587
 11
-593.857284243705
 21
354.128045667587
  0
LINE
  5
189
100
AcDbEntity
  8
3
  6
CONTINUOUS
 62
           7
100
AcDbLine
 10
-596.482284243705
 20
351.503045667587
 11
-596.482284243705
 21
356.753045667587
  0
LINE
  5
188
100
AcDbEntity
  8
3
  6
CONTINUOUS
 62
           7
100
AcDbLine
 10
-646.107284243705
 20
354.128045667587
 11
-640.857284243705
 21
354.128045667587
  0
LINE
  5
187
100
AcDbEntity
  8
3
  6
CONTINUOUS
 62
           7
100
AcDbLine
 10
-643.482284243705
 20
351.503045667587
 11
-643.482284243705
 21
356.753045667587
  0
LINE
  5
186
100
AcDbEntity
  8
3
  6
DOT_CENTER
 62
           3
100
AcDbLine
 10
-655.717478589477
 20
384.128045667587
 11
-584.247089897933
 21
384.128045667587
  0
LINE
  5
185
100
AcDbEntity
  8
0
  6
CONTINUOUS
 62
           7
100
AcDbLine
 10
-628.366673019238
 20
346.654561377215
 11
-628.714651545634
 21
348.628045667587
  0
LINE
  5
184
100
AcDbEntity
  8
0
  6
CONTINUOUS
 62
           7
100
AcDbLine
 10
-611.249916941776
 20
348.628045667587
 11
-611.597895468172
 21
346.654561377215
  0
LINE
  5
183
100
AcDbEntity
  8
0
  6
CONTINUOUS
 62
           7
100
AcDbLine
 10
-648.184766406021
 20
415.180959938202
 11
-651.682284243705
 21
402.128045667587
  0
LINE
  5
182
100
AcDbEntity
  8
0
  6
CONTINUOUS
 62
           7
100
AcDbLine
 10
-588.282284243705
 20
402.128045667587
 11
-591.779802081389
 21
415.180959938202
  0
LINE
  5
181
100
AcDbEntity
  8
0
  6
CONTINUOUS
 62
           7
100
AcDbLine
 10
-597.575357039124
 20
419.628045667587
 11
-642.389211448287
 21
419.628045667587
  0
LINE
  5
180
100
AcDbEntity
  8
0
  6
CONTINUOUS
 62
           7
100
AcDbLine
 10
-591.779802081389
 20
353.075131396972
 11
-588.282284243705
 21
366.128045667587
  0
LINE
  5
17F
100
AcDbEntity
  8
0
  6
CONTINUOUS
 62
           7
100
AcDbLine
 10
-651.682284243705
 20
366.128045667587
 11
-648.184766406021
 21
353.075131396971
  0
LINE
  5
17E
100
AcDbEntity
  8
0
  6
CONTINUOUS
 62
           7
100
AcDbLine
 10
-642.389211448287
 20
348.628045667587
 11
-597.575357039124
 21
348.628045667587
  0
LINE
  5
17D
100
AcDbEntity
  8
0
  6
CONTINUOUS
 62
           7
100
AcDbLine
 10
-639.938549402884
 20
402.314509889544
 11
-640.882284243705
 21
398.628045667587
  0
LINE
  5
17C
100
AcDbEntity
  8
0
  6
CONTINUOUS
 62
           7
100
AcDbLine
 10
-599.082284243705
 20
398.628045667587
 11
-600.026019084526
 21
402.314509889544
  0
LINE
  5
17B
100
AcDbEntity
  8
0
  6
CONTINUOUS
 62
           7
100
AcDbLine
 10
-640.882284243705
 20
369.628045667587
 11
-639.938549402884
 21
365.941581445629
  0
LINE
  5
17A
100
AcDbEntity
  8
0
  6
CONTINUOUS
 62
           7
100
AcDbLine
 10
-600.026019084526
 20
365.941581445629
 11
-599.082284243705
 21
369.628045667587
  0
LINE
  5
179
100
AcDbEntity
  8
0
  6
CONTINUOUS
 62
           7
100
AcDbLine
 10
-641.982284243705
 20
384.128045667587
 11
-647.482284243705
 21
387.30347214813
  0
LINE
  5
178
100
AcDbEntity
  8
0
  6
CONTINUOUS
 62
           7
100
AcDbLine
 10
-647.482284243705
 20
387.30347214813
 11
-647.482284243705
 21
385.428045667587
  0
LINE
  5
177
100
AcDbEntity
  8
0
  6
CONTINUOUS
 62
           7
100
AcDbLine
 10
-650.982284243705
 20
385.428045667587
 11
-650.982284243705
 21
382.828045667587
  0
LINE
  5
176
100
AcDbEntity
  8
0
  6
CONTINUOUS
 62
           7
100
AcDbLine
 10
-650.982284243705
 20
382.828045667587
 11
-647.482284243705
 21
382.828045667587
  0
LINE
  5
175
100
AcDbEntity
  8
0
  6
CONTINUOUS
 62
           7
100
AcDbLine
 10
-647.482284243705
 20
382.828045667587
 11
-647.482284243705
 21
380.952619187044
  0
LINE
  5
174
100
AcDbEntity
  8
0
  6
CONTINUOUS
 62
           7
100
AcDbLine
 10
-647.482284243705
 20
380.952619187044
 11
-641.982284243705
 21
384.128045667587
  0
LINE
  5
173
100
AcDbEntity
  8
0
  6
CONTINUOUS
 62
           7
100
AcDbLine
 10
-647.482284243705
 20
385.428045667587
 11
-650.982284243705
 21
385.428045667587
  0
LINE
  5
172
100
AcDbEntity
  8
0
  6
CONTINUOUS
 62
           7
100
AcDbLine
 10
-651.682284243705
 20
366.128045667587
 11
-649.661558301541
 21
369.628045667587
  0
LINE
  5
171
100
AcDbEntity
  8
0
  6
CONTINUOUS
 62
           7
100
AcDbLine
 10
-649.661558301541
 20
369.628045667587
 11
-590.303010185869
 21
369.628045667587
  0
LINE
  5
170
100
AcDbEntity
  8
0
  6
CONTINUOUS
 62
           7
100
AcDbLine
 10
-590.303010185869
 20
369.628045667587
 11
-588.282284243705
 21
366.128045667587
  0
LINE
  5
16F
100
AcDbEntity
  8
0
  6
CONTINUOUS
 62
           7
100
AcDbLine
 10
-584.982284243705
 20
366.128045667587
 11
-588.282284243705
 21
366.128045667587
  0
LINE
  5
16E
100
AcDbEntity
  8
0
  6
CONTINUOUS
 62
           7
100
AcDbLine
 10
-584.982284243705
 20
371.628045667587
 11
-654.982284243705
 21
371.628045667587
  0
LINE
  5
16D
100
AcDbEntity
  8
0
  6
CONTINUOUS
 62
           7
100
AcDbLine
 10
-654.982284243705
 20
366.128045667587
 11
-654.982284243705
 21
402.128045667587
  0
LINE
  5
16C
100
AcDbEntity
  8
0
  6
CONTINUOUS
 62
           7
100
AcDbLine
 10
-651.682284243705
 20
366.128045667587
 11
-654.982284243705
 21
366.128045667587
  0
LINE
  5
16B
100
AcDbEntity
  8
0
  6
CONTINUOUS
 62
           7
100
AcDbLine
 10
-588.282284243705
 20
402.128045667587
 11
-590.303010185869
 21
398.628045667587
  0
LINE
  5
16A
100
AcDbEntity
  8
0
  6
CONTINUOUS
 62
           7
100
AcDbLine
 10
-590.303010185869
 20
398.628045667587
 11
-649.661558301541
 21
398.628045667587
  0
LINE
  5
169
100
AcDbEntity
  8
0
  6
CONTINUOUS
 62
           7
100
AcDbLine
 10
-649.661558301541
 20
398.628045667587
 11
-651.682284243705
 21
402.128045667587
  0
LINE
  5
168
100
AcDbEntity
  8
0
  6
CONTINUOUS
 62
           7
100
AcDbLine
 10
-651.682284243705
 20
402.128045667587
 11
-654.982284243705
 21
402.128045667587
  0
LINE
  5
167
100
AcDbEntity
  8
0
  6
CONTINUOUS
 62
           7
100
AcDbLine
 10
-584.982284243705
 20
396.628045667587
 11
-654.982284243705
 21
396.628045667587
  0
LINE
  5
166
100
AcDbEntity
  8
0
  6
CONTINUOUS
 62
           7
100
AcDbLine
 10
-584.982284243705
 20
366.128045667587
 11
-584.982284243705
 21
402.128045667587
  0
LINE
  5
165
100
AcDbEntity
  8
0
  6
CONTINUOUS
 62
           7
100
AcDbLine
 10
-584.982284243705
 20
402.128045667587
 11
-588.282284243705
 21
402.128045667587
  0
LINE
  5
164
100
AcDbEntity
  8
3
  6
DOT_CENTER
 62
           3
100
AcDbLine
 10
-471.42498579549
 20
240.33804398912
 11
-449.050155335477
 21
240.33804398912
  0
LINE
  5
163
100
AcDbEntity
  8
0
  6
CONTINUOUS
 62
           7
100
AcDbLine
 10
-464.742282565238
 20
55.03804398912
 11
-464.742282565238
 21
52.93804398912
  0
LINE
  5
162
100
AcDbEntity
  8
0
  6
CONTINUOUS
 62
           7
100
AcDbLine
 10
-453.642282565238
 20
52.93804398912
 11
-453.642282565238
 21
55.03804398912
  0
LINE
  5
161
100
AcDbEntity
  8
0
  6
CONTINUOUS
 62
           7
100
AcDbLine
 10
-450.942282565238
 20
52.93804398912
 11
-467.442282565238
 21
52.93804398912
  0
LINE
  5
160
100
AcDbEntity
  8
0
  6
CONTINUOUS
 62
           7
100
AcDbLine
 10
-450.942282565238
 20
51.43804398912
 11
-467.442282565238
 21
51.43804398912
  0
LINE
  5
15F
100
AcDbEntity
  8
0
  6
CONTINUOUS
 62
           7
100
AcDbLine
 10
-467.442282565238
 20
52.93804398912
 11
-467.442282565238
 21
51.43804398912
  0
LINE
  5
15E
100
AcDbEntity
  8
0
  6
CONTINUOUS
 62
           7
100
AcDbLine
 10
-450.942282565238
 20
51.43804398912
 11
-450.942282565238
 21
52.93804398912
  0
LINE
  5
15D
100
AcDbEntity
  8
0
  6
CONTINUOUS
 62
           7
100
AcDbLine
 10
-449.192282565238
 20
55.03804398912
 11
-469.192282565238
 21
55.03804398912
  0
LINE
  5
15C
100
AcDbEntity
  8
0
  6
CONTINUOUS
 62
           7
100
AcDbLine
 10
-469.192282565238
 20
76.03804398912
 11
-469.192282565238
 21
55.03804398912
  0
LINE
  5
15B
100
AcDbEntity
  8
0
  6
CONTINUOUS
 62
           7
100
AcDbLine
 10
-449.192282565238
 20
55.03804398912
 11
-449.192282565238
 21
76.03804398912
  0
LINE
  5
15A
100
AcDbEntity
  8
0
  6
CONTINUOUS
 62
           7
100
AcDbLine
 10
-471.092282565238
 20
84.23804398912
 11
-471.192282565238
 21
84.180308962201
  0
LINE
  5
159
100
AcDbEntity
  8
0
  6
CONTINUOUS
 62
           7
100
AcDbLine
 10
-447.192282565238
 20
84.180308962201
 11
-447.292282565238
 21
84.23804398912
  0
LINE
  5
158
100
AcDbEntity
  8
0
  6
CONTINUOUS
 62
           7
100
AcDbLine
 10
-449.192282565238
 20
76.03804398912
 11
-469.192282565238
 21
76.03804398912
  0
LINE
  5
157
100
AcDbEntity
  8
0
  6
CONTINUOUS
 62
           7
100
AcDbLine
 10
-447.192282565238
 20
84.180308962201
 11
-447.192282565238
 21
77.192744531741
  0
LINE
  5
156
100
AcDbEntity
  8
0
  6
CONTINUOUS
 62
           7
100
AcDbLine
 10
-449.192282565238
 20
76.03804398912
 11
-447.192282565238
 21
77.192744531741
  0
LINE
  5
155
100
AcDbEntity
  8
0
  6
CONTINUOUS
 62
           7
100
AcDbLine
 10
-471.192282565238
 20
77.192744527499
 11
-469.192282565238
 21
76.03804398912
  0
LINE
  5
154
100
AcDbEntity
  8
0
  6
CONTINUOUS
 62
           7
100
AcDbLine
 10
-471.192282565238
 20
77.192744527499
 11
-471.192282565238
 21
84.180308962201
  0
LINE
  5
153
100
AcDbEntity
  8
0
  6
CONTINUOUS
 62
           7
100
AcDbLine
 10
-464.162845313715
 20
77.763574435714
 11
-464.162845313715
 21
83.609479053986
  0
LINE
  5
152
100
AcDbEntity
  8
0
  6
CONTINUOUS
 62
           7
100
AcDbLine
 10
-454.221719816761
 20
77.763574435714
 11
-454.221719816761
 21
83.609479053986
  0
LINE
  5
151
100
AcDbEntity
  8
0
  6
CONTINUOUS
 62
           7
100
AcDbLine
 10
-492.992282565238
 20
174.28804398912
 11
-492.992282565238
 21
181.78804398912
  0
LINE
  5
150
100
AcDbEntity
  8
0
  6
CONTINUOUS
 62
           7
100
AcDbLine
 10
-487.462231274071
 20
174.28804398912
 11
-492.992282565238
 21
174.28804398912
  0
LINE
  5
14F
100
AcDbEntity
  8
0
  6
CONTINUOUS
 62
           7
100
AcDbLine
 10
-494.592282565238
 20
180.53804398912
 11
-497.592282565238
 21
180.53804398912
  0
LINE
  5
14E
100
AcDbEntity
  8
0
  6
CONTINUOUS
 62
           7
100
AcDbLine
 10
-497.592282565238
 20
180.53804398912
 11
-497.592282565238
 21
179.13804398912
  0
LINE
  5
14D
100
AcDbEntity
  8
0
  6
CONTINUOUS
 62
           7
100
AcDbLine
 10
-486.646790391823
 20
181.78804398912
 11
-493.192282565238
 21
181.78804398912
  0
LINE
  5
14C
100
AcDbEntity
  8
0
  6
CONTINUOUS
 62
           7
100
AcDbLine
 10
-486.646790391823
 20
194.79804398912
 11
-493.192282565238
 21
194.79804398912
  0
LINE
  5
14B
100
AcDbEntity
  8
0
  6
CONTINUOUS
 62
           7
100
AcDbLine
 10
-493.192282565238
 20
179.13804398912
 11
-493.192282565238
 21
199.03804398912
  0
LINE
  5
14A
100
AcDbEntity
  8
0
  6
CONTINUOUS
 62
           7
100
AcDbLine
 10
-496.66576685561
 20
179.13804398912
 11
-496.66576685561
 21
180.53804398912
  0
LINE
  5
149
100
AcDbEntity
  8
0
  6
CONTINUOUS
 62
           7
100
AcDbLine
 10
-494.592282565238
 20
197.172980479659
 11
-493.192282565238
 21
197.172980479659
  0
LINE
  5
148
100
AcDbEntity
  8
0
  6
CONTINUOUS
 62
           7
100
AcDbLine
 10
-494.592282565238
 20
179.13804398912
 11
-494.592282565238
 21
199.03804398912
  0
LINE
  5
147
100
AcDbEntity
  8
0
  6
CONTINUOUS
 62
           7
100
AcDbLine
 10
-493.192282565238
 20
179.13804398912
 11
-497.592282565238
 21
179.13804398912
  0
LINE
  5
146
100
AcDbEntity
  8
0
  6
CONTINUOUS
 62
           7
100
AcDbLine
 10
-446.692282565238
 20
84.23804398912
 11
-471.692282565238
 21
84.23804398912
  0
LINE
  5
145
100
AcDbEntity
  8
0
  6
CONTINUOUS
 62
           7
100
AcDbLine
 10
-471.692282565238
 20
87.23804398912
 11
-471.692282565238
 21
84.23804398912
  0
LINE
  5
144
100
AcDbEntity
  8
0
  6
CONTINUOUS
 62
           7
100
AcDbLine
 10
-446.692282565238
 20
84.23804398912
 11
-446.692282565238
 21
87.23804398912
  0
LINE
  5
143
100
AcDbEntity
  8
0
  6
CONTINUOUS
 62
           7
100
AcDbLine
 10
-446.692282565238
 20
87.23804398912
 11
-471.692282565238
 21
87.23804398912
  0
LINE
  5
142
100
AcDbEntity
  8
0
  6
CONTINUOUS
 62
           7
100
AcDbLine
 10
-446.692282565238
 20
87.23804398912
 11
-437.952328305193
 21
89.579907674984
  0
LINE
  5
141
100
AcDbEntity
  8
0
  6
CONTINUOUS
 62
           7
100
AcDbLine
 10
-480.432236825284
 20
89.579907674984
 11
-471.692282565238
 21
87.23804398912
  0
LINE
  5
140
100
AcDbEntity
  8
0
  6
CONTINUOUS
 62
           7
100
AcDbLine
 10
-486.646790391823
 20
194.79804398912
 11
-486.646790391823
 21
181.78804398912
  0
LINE
  5
13F
100
AcDbEntity
  8
0
  6
CONTINUOUS
 62
           7
100
AcDbLine
 10
-487.462231274071
 20
181.78804398912
 11
-487.462231274071
 21
174.28804398912
  0
LINE
  5
13E
100
AcDbEntity
  8
0
  6
CONTINUOUS
 62
           7
100
AcDbLine
 10
-487.992282565239
 20
199.03804398912
 11
-487.992282565239
 21
194.79804398912
  0
LINE
  5
13D
100
AcDbEntity
  8
0
  6
CONTINUOUS
 62
           7
100
AcDbLine
 10
-487.992282565239
 20
174.28804398912
 11
-487.992282565238
 21
99.432351103132
  0
LINE
  5
13C
100
AcDbEntity
  8
0
  6
CONTINUOUS
 62
           7
100
AcDbLine
 10
-430.392282565238
 20
99.432351103132
 11
-430.392282565238
 21
199.03804398912
  0
LINE
  5
13B
100
AcDbEntity
  8
0
  6
CONTINUOUS
 62
           7
100
AcDbLine
 10
-441.192282565238
 20
252.33804398912
 11
-432.192282565238
 21
252.33804398912
  0
LINE
  5
13A
100
AcDbEntity
  8
0
  6
CONTINUOUS
 62
           7
100
AcDbLine
 10
-432.192282565238
 20
228.33804398912
 11
-432.192282565238
 21
252.33804398912
  0
LINE
  5
139
100
AcDbEntity
  8
0
  6
CONTINUOUS
 62
           7
100
AcDbLine
 10
-486.192282565238
 20
252.33804398912
 11
-486.192282565238
 21
228.33804398912
  0
LINE
  5
138
100
AcDbEntity
  8
0
  6
CONTINUOUS
 62
           7
100
AcDbLine
 10
-486.192282565238
 20
252.33804398912
 11
-477.192282565238
 21
252.33804398912
  0
LINE
  5
137
100
AcDbEntity
  8
0
  6
CONTINUOUS
 62
           7
100
AcDbLine
 10
-441.005818343281
 20
252.33804398912
 11
-441.005818343281
 21
228.33804398912
  0
LINE
  5
136
100
AcDbEntity
  8
0
  6
CONTINUOUS
 62
           7
100
AcDbLine
 10
-477.378746787196
 20
252.33804398912
 11
-477.378746787196
 21
228.33804398912
  0
LINE
  5
135
100
AcDbEntity
  8
0
  6
CONTINUOUS
 62
           7
100
AcDbLine
 10
-441.192282565238
 20
228.33804398912
 11
-423.692282565238
 21
228.33804398912
  0
LINE
  5
134
100
AcDbEntity
  8
0
  6
CONTINUOUS
 62
           7
100
AcDbLine
 10
-423.692282565238
 20
228.33804398912
 11
-423.692282565238
 21
199.03804398912
  0
LINE
  5
133
100
AcDbEntity
  8
0
  6
CONTINUOUS
 62
           7
100
AcDbLine
 10
-494.692282565238
 20
199.03804398912
 11
-423.692282565238
 21
199.03804398912
  0
LINE
  5
132
100
AcDbEntity
  8
0
  6
CONTINUOUS
 62
           7
100
AcDbLine
 10
-494.692282565238
 20
228.33804398912
 11
-477.192282565238
 21
228.33804398912
  0
LINE
  5
131
100
AcDbEntity
  8
0
  6
CONTINUOUS
 62
           7
100
AcDbLine
 10
-494.692282565238
 20
228.33804398912
 11
-494.692282565238
 21
199.03804398912
  0
LINE
  5
130
100
AcDbEntity
  8
0
  6
CONTINUOUS
 62
           7
100
AcDbLine
 10
-446.692282565238
 20
258.33804398912
 11
-441.192282565238
 21
252.83804398912
  0
LINE
  5
12F
100
AcDbEntity
  8
0
  6
CONTINUOUS
 62
           7
100
AcDbLine
 10
-477.192282565238
 20
252.83804398912
 11
-471.692282565238
 21
258.33804398912
  0
LINE
  5
12E
100
AcDbEntity
  8
0
  6
CONTINUOUS
 62
           7
100
AcDbLine
 10
-471.692282565238
 20
258.33804398912
 11
-446.692282565238
 21
258.33804398912
  0
LINE
  5
12D
100
AcDbEntity
  8
0
  6
CONTINUOUS
 62
           7
100
AcDbLine
 10
-441.192282565238
 20
252.83804398912
 11
-441.192282565238
 21
199.03804398912
  0
LINE
  5
12C
100
AcDbEntity
  8
0
  6
CONTINUOUS
 62
           7
100
AcDbLine
 10
-477.192282565238
 20
222.33804398912
 11
-441.192282565238
 21
222.33804398912
  0
LINE
  5
12B
100
AcDbEntity
  8
0
  6
CONTINUOUS
 62
           7
100
AcDbLine
 10
-477.192282565238
 20
252.83804398912
 11
-477.192282565238
 21
199.03804398912
  0
LINE
  5
12A
100
AcDbEntity
  8
0
  6
CONTINUOUS
 62
           7
100
AcDbLine
 10
-477.192282565238
 20
219.13804398912
 11
-441.192282565238
 21
219.13804398912
  0
LINE
  5
129
100
AcDbEntity
  8
0
  6
CONTINUOUS
 62
           7
100
AcDbLine
 10
-464.162845313715
 20
83.609479053986
 11
-465.376240432916
 21
83.929719730252
  0
LINE
  5
128
100
AcDbEntity
  8
0
  6
CONTINUOUS
 62
           7
100
AcDbLine
 10
-465.376240432916
 20
83.929719730252
 11
-466.602540749275
 21
84.12492787593
  0
LINE
  5
127
100
AcDbEntity
  8
0
  6
CONTINUOUS
 62
           7
100
AcDbLine
 10
-466.602540749275
 20
84.12492787593
 11
-467.86685565415
 21
84.177898128457
  0
LINE
  5
126
100
AcDbEntity
  8
0
  6
CONTINUOUS
 62
           7
100
AcDbLine
 10
-467.86685565415
 20
84.177898128457
 11
-469.129851654399
 21
84.079565395745
  0
LINE
  5
125
100
AcDbEntity
  8
0
  6
CONTINUOUS
 62
           7
100
AcDbLine
 10
-469.129851654399
 20
84.079565395745
 11
-470.164127310204
 21
83.888955539577
  0
LINE
  5
124
100
AcDbEntity
  8
0
  6
CONTINUOUS
 62
           7
100
AcDbLine
 10
-470.164127310204
 20
83.888955539577
 11
-471.192282565238
 21
83.609479053986
  0
LINE
  5
123
100
AcDbEntity
  8
0
  6
CONTINUOUS
 62
           7
100
AcDbLine
 10
-447.192282565238
 20
83.609479053986
 11
-448.405677684439
 21
83.929719730252
  0
LINE
  5
122
100
AcDbEntity
  8
0
  6
CONTINUOUS
 62
           7
100
AcDbLine
 10
-448.405677684439
 20
83.929719730252
 11
-449.631978000798
 21
84.12492787593
  0
LINE
  5
121
100
AcDbEntity
  8
0
  6
CONTINUOUS
 62
           7
100
AcDbLine
 10
-449.631978000798
 20
84.12492787593
 11
-450.896292905673
 21
84.177898128457
  0
LINE
  5
120
100
AcDbEntity
  8
0
  6
CONTINUOUS
 62
           7
100
AcDbLine
 10
-450.896292905673
 20
84.177898128457
 11
-452.159288905922
 21
84.079565395745
  0
LINE
  5
11F
100
AcDbEntity
  8
0
  6
CONTINUOUS
 62
           7
100
AcDbLine
 10
-452.159288905922
 20
84.079565395745
 11
-453.193564561727
 21
83.888955539577
  0
LINE
  5
11E
100
AcDbEntity
  8
0
  6
CONTINUOUS
 62
           7
100
AcDbLine
 10
-453.193564561727
 20
83.888955539577
 11
-454.221719816761
 21
83.609479053986
  0
LINE
  5
11D
100
AcDbEntity
  8
0
  6
CONTINUOUS
 62
           7
100
AcDbLine
 10
-454.221719816761
 20
77.763574435714
 11
-453.00832469756
 21
77.443333759448
  0
LINE
  5
11C
100
AcDbEntity
  8
0
  6
CONTINUOUS
 62
           7
100
AcDbLine
 10
-453.00832469756
 20
77.443333759448
 11
-451.782024381202
 21
77.24812561377
  0
LINE
  5
11B
100
AcDbEntity
  8
0
  6
CONTINUOUS
 62
           7
100
AcDbLine
 10
-451.782024381202
 20
77.24812561377
 11
-450.517709476326
 21
77.195155361243
  0
LINE
  5
11A
100
AcDbEntity
  8
0
  6
CONTINUOUS
 62
           7
100
AcDbLine
 10
-450.517709476326
 20
77.195155361243
 11
-449.254713476078
 21
77.293488093955
  0
LINE
  5
119
100
AcDbEntity
  8
0
  6
CONTINUOUS
 62
           7
100
AcDbLine
 10
-449.254713476078
 20
77.293488093955
 11
-448.220437820273
 21
77.484097950123
  0
LINE
  5
118
100
AcDbEntity
  8
0
  6
CONTINUOUS
 62
           7
100
AcDbLine
 10
-448.220437820273
 20
77.484097950123
 11
-447.192282565238
 21
77.763574435714
  0
LINE
  5
117
100
AcDbEntity
  8
0
  6
CONTINUOUS
 62
           7
100
AcDbLine
 10
-471.192282565238
 20
77.763574435714
 11
-469.978887446038
 21
77.443333759448
  0
LINE
  5
116
100
AcDbEntity
  8
0
  6
CONTINUOUS
 62
           7
100
AcDbLine
 10
-469.978887446038
 20
77.443333759448
 11
-468.752587129679
 21
77.24812561377
  0
LINE
  5
115
100
AcDbEntity
  8
0
  6
CONTINUOUS
 62
           7
100
AcDbLine
 10
-468.752587129679
 20
77.24812561377
 11
-467.488272224804
 21
77.195155361243
  0
LINE
  5
114
100
AcDbEntity
  8
0
  6
CONTINUOUS
 62
           7
100
AcDbLine
 10
-467.488272224804
 20
77.195155361243
 11
-466.225276224555
 21
77.293488093955
  0
LINE
  5
113
100
AcDbEntity
  8
0
  6
CONTINUOUS
 62
           7
100
AcDbLine
 10
-466.225276224555
 20
77.293488093955
 11
-465.19100056875
 21
77.484097950123
  0
LINE
  5
112
100
AcDbEntity
  8
0
  6
CONTINUOUS
 62
           7
100
AcDbLine
 10
-465.19100056875
 20
77.484097950123
 11
-464.162845313715
 21
77.763574435714
  0
LINE
  5
111
100
AcDbEntity
  8
0
  6
CONTINUOUS
 62
           7
100
AcDbLine
 10
-454.221719816761
 20
83.609479053986
 11
-455.427446705886
 21
83.847337148728
  0
LINE
  5
110
100
AcDbEntity
  8
0
  6
CONTINUOUS
 62
           7
100
AcDbLine
 10
-455.427446705886
 20
83.847337148728
 11
-457.097940349416
 21
84.075583231345
  0
LINE
  5
10F
100
AcDbEntity
  8
0
  6
CONTINUOUS
 62
           7
100
AcDbLine
 10
-457.097940349416
 20
84.075583231345
 11
-458.79045308611
 21
84.1764257598
  0
LINE
  5
10E
100
AcDbEntity
  8
0
  6
CONTINUOUS
 62
           7
100
AcDbLine
 10
-458.79045308611
 20
84.1764257598
 11
-460.517804007449
 21
84.138170089591
  0
LINE
  5
10D
100
AcDbEntity
  8
0
  6
CONTINUOUS
 62
           7
100
AcDbLine
 10
-460.517804007449
 20
84.138170089591
 11
-462.247873228241
 21
83.95923170887
  0
LINE
  5
10C
100
AcDbEntity
  8
0
  6
CONTINUOUS
 62
           7
100
AcDbLine
 10
-462.247873228241
 20
83.95923170887
 11
-464.162845313715
 21
83.609479053986
  0
LINE
  5
10B
100
AcDbEntity
  8
0
  6
CONTINUOUS
 62
           7
100
AcDbLine
 10
-464.162845313715
 20
77.763574435714
 11
-462.325062063328
 21
77.424948813179
  0
LINE
  5
10A
100
AcDbEntity
  8
0
  6
CONTINUOUS
 62
           7
100
AcDbLine
 10
-462.325062063328
 20
77.424948813179
 11
-460.65298826654
 21
77.243883700483
  0
LINE
  5
109
100
AcDbEntity
  8
0
  6
CONTINUOUS
 62
           7
100
AcDbLine
 10
-460.65298826654
 20
77.243883700483
 11
-458.961779939851
 21
77.19402255391
  0
LINE
  5
108
100
AcDbEntity
  8
0
  6
CONTINUOUS
 62
           7
100
AcDbLine
 10
-458.961779939851
 20
77.19402255391
 11
-457.239494674928
 21
77.283880785251
  0
LINE
  5
107
100
AcDbEntity
  8
0
  6
CONTINUOUS
 62
           7
100
AcDbLine
 10
-457.239494674928
 20
77.283880785251
 11
-455.518721558363
 21
77.510115819446
  0
LINE
  5
106
100
AcDbEntity
  8
0
  6
CONTINUOUS
 62
           7
100
AcDbLine
 10
-455.518721558363
 20
77.510115819446
 11
-454.221719816761
 21
77.763574435714
  0
LINE
  5
105
100
AcDbEntity
  8
0
  6
CONTINUOUS
 62
           7
100
AcDbLine
 10
-625.532284243705
 20
55.03804398912
 11
-625.532284243705
 21
52.93804398912
  0
LINE
  5
104
100
AcDbEntity
  8
0
  6
CONTINUOUS
 62
           7
100
AcDbLine
 10
-614.432284243705
 20
52.93804398912
 11
-614.432284243705
 21
55.03804398912
  0
LINE
  5
103
100
AcDbEntity
  8
0
  6
CONTINUOUS
 62
           7
100
AcDbLine
 10
-628.232284243705
 20
52.93804398912
 11
-628.232284243705
 21
51.43804398912
  0
LINE
  5
102
100
AcDbEntity
  8
0
  6
CONTINUOUS
 62
           7
100
AcDbLine
 10
-611.732284243705
 20
51.43804398912
 11
-611.732284243705
 21
52.93804398912
  0
LINE
  5
101
100
AcDbEntity
  8
0
  6
CONTINUOUS
 62
           7
100
AcDbLine
 10
-611.732284243705
 20
51.43804398912
 11
-628.232284243705
 21
51.43804398912
  0
LINE
  5
100
100
AcDbEntity
  8
0
  6
CONTINUOUS
 62
           7
100
AcDbLine
 10
-611.732284243705
 20
52.93804398912
 11
-628.232284243705
 21
52.93804398912
  0
LINE
  5
FF
100
AcDbEntity
  8
0
  6
CONTINUOUS
 62
           7
100
AcDbLine
 10
-629.982284243705
 20
76.03804398912
 11
-629.982284243705
 21
55.03804398912
  0
LINE
  5
FE
100
AcDbEntity
  8
0
  6
CONTINUOUS
 62
           7
100
AcDbLine
 10
-609.982284243705
 20
55.03804398912
 11
-609.982284243705
 21
76.03804398912
  0
LINE
  5
FD
100
AcDbEntity
  8
0
  6
CONTINUOUS
 62
           7
100
AcDbLine
 10
-609.982284243705
 20
55.03804398912
 11
-629.982284243705
 21
55.03804398912
  0
LINE
  5
FC
100
AcDbEntity
  8
0
  6
CONTINUOUS
 62
           7
100
AcDbLine
 10
-631.982284243705
 20
77.192744531684
 11
-631.982284243705
 21
84.180308958312
  0
LINE
  5
FB
100
AcDbEntity
  8
0
  6
CONTINUOUS
 62
           7
100
AcDbLine
 10
-631.882284243705
 20
84.23804398912
 11
-631.982284243705
 21
84.180308958312
  0
LINE
  5
FA
100
AcDbEntity
  8
0
  6
CONTINUOUS
 62
           7
100
AcDbLine
 10
-607.982284243705
 20
84.180308962201
 11
-608.082284243705
 21
84.23804398912
  0
LINE
  5
F9
100
AcDbEntity
  8
0
  6
CONTINUOUS
 62
           7
100
AcDbLine
 10
-624.952846992182
 20
77.763574435714
 11
-624.952846992182
 21
83.609479053986
  0
LINE
  5
F8
100
AcDbEntity
  8
0
  6
CONTINUOUS
 62
           7
100
AcDbLine
 10
-615.011721495228
 20
77.763574435714
 11
-615.011721495228
 21
83.609479053986
  0
LINE
  5
F7
100
AcDbEntity
  8
0
  6
CONTINUOUS
 62
           7
100
AcDbLine
 10
-607.982284243705
 20
84.180308962201
 11
-607.982284243705
 21
77.192744531505
  0
LINE
  5
F6
100
AcDbEntity
  8
0
  6
CONTINUOUS
 62
           7
100
AcDbLine
 10
-609.982284243705
 20
76.03804398912
 11
-607.982284243705
 21
77.192744531505
  0
LINE
  5
F5
100
AcDbEntity
  8
0
  6
CONTINUOUS
 62
           7
100
AcDbLine
 10
-631.982284243705
 20
77.192744531684
 11
-629.982284243705
 21
76.03804398912
  0
LINE
  5
F4
100
AcDbEntity
  8
0
  6
CONTINUOUS
 62
           7
100
AcDbLine
 10
-609.982284243705
 20
76.03804398912
 11
-629.982284243705
 21
76.03804398912
  0
LINE
  5
F3
100
AcDbEntity
  8
0
  6
CONTINUOUS
 62
           7
100
AcDbLine
 10
-632.482284243705
 20
87.23804398912
 11
-632.482284243705
 21
84.23804398912
  0
LINE
  5
F2
100
AcDbEntity
  8
0
  6
CONTINUOUS
 62
           7
100
AcDbLine
 10
-607.482284243705
 20
84.23804398912
 11
-607.482284243705
 21
87.23804398912
  0
LINE
  5
F1
100
AcDbEntity
  8
0
  6
CONTINUOUS
 62
           7
100
AcDbLine
 10
-607.482284243705
 20
84.23804398912
 11
-632.482284243705
 21
84.23804398912
  0
LINE
  5
F0
100
AcDbEntity
  8
0
  6
CONTINUOUS
 62
           7
100
AcDbLine
 10
-607.482284243705
 20
87.23804398912
 11
-598.742329983659
 21
89.579907674984
  0
LINE
  5
EF
100
AcDbEntity
  8
0
  6
CONTINUOUS
 62
           7
100
AcDbLine
 10
-641.222238503751
 20
89.579907674984
 11
-632.482284243705
 21
87.23804398912
  0
LINE
  5
EE
100
AcDbEntity
  8
0
  6
CONTINUOUS
 62
           7
100
AcDbLine
 10
-607.482284243705
 20
87.23804398912
 11
-632.482284243705
 21
87.23804398912
  0
LINE
  5
ED
100
AcDbEntity
  8
0
  6
CONTINUOUS
 62
           7
100
AcDbLine
 10
-648.782284243705
 20
199.03804398912
 11
-648.782284243705
 21
99.432351103132
  0
LINE
  5
EC
100
AcDbEntity
  8
0
  6
CONTINUOUS
 62
           7
100
AcDbLine
 10
-591.182284243705
 20
99.432351103132
 11
-591.182284243705
 21
199.03804398912
  0
LINE
  5
EB
100
AcDbEntity
  8
0
  6
CONTINUOUS
 62
           7
100
AcDbLine
 10
-625.482284243705
 20
174.28804398912
 11
-623.532284243705
 21
174.28804398912
  0
LINE
  5
EA
100
AcDbEntity
  8
0
  6
CONTINUOUS
 62
           7
100
AcDbLine
 10
-625.482284243705
 20
179.13804398912
 11
-625.482284243705
 21
174.28804398912
  0
LINE
  5
E9
100
AcDbEntity
  8
0
  6
CONTINUOUS
 62
           7
100
AcDbLine
 10
-623.532284243705
 20
179.13804398912
 11
-623.532284243705
 21
174.28804398912
  0
LINE
  5
E8
100
AcDbEntity
  8
0
  6
CONTINUOUS
 62
           7
100
AcDbLine
 10
-616.432284243705
 20
174.28804398912
 11
-616.432284243705
 21
179.13804398912
  0
LINE
  5
E7
100
AcDbEntity
  8
0
  6
CONTINUOUS
 62
           7
100
AcDbLine
 10
-616.432284243705
 20
174.28804398912
 11
-614.482284243705
 21
174.28804398912
  0
LINE
  5
E6
100
AcDbEntity
  8
0
  6
CONTINUOUS
 62
           7
100
AcDbLine
 10
-614.482284243705
 20
174.28804398912
 11
-614.482284243705
 21
179.13804398912
  0
LINE
  5
E5
100
AcDbEntity
  8
0
  6
CONTINUOUS
 62
           7
100
AcDbLine
 10
-611.232284243705
 20
179.13804398912
 11
-611.232284243705
 21
197.172980479659
  0
LINE
  5
E4
100
AcDbEntity
  8
0
  6
CONTINUOUS
 62
           7
100
AcDbLine
 10
-627.482284243705
 20
201.03804398912
 11
-627.482284243705
 21
199.33804398912
  0
LINE
  5
E3
100
AcDbEntity
  8
0
  6
CONTINUOUS
 62
           7
100
AcDbLine
 10
-628.732284243705
 20
197.172980479659
 11
-628.732284243705
 21
179.13804398912
  0
LINE
  5
E2
100
AcDbEntity
  8
0
  6
CONTINUOUS
 62
           7
100
AcDbLine
 10
-611.232284243705
 20
197.172980479659
 11
-612.482284243705
 21
199.33804398912
  0
LINE
  5
E1
100
AcDbEntity
  8
0
  6
CONTINUOUS
 62
           7
100
AcDbLine
 10
-612.482284243705
 20
199.33804398912
 11
-612.482284243705
 21
201.03804398912
  0
LINE
  5
E0
100
AcDbEntity
  8
0
  6
CONTINUOUS
 62
           7
100
AcDbLine
 10
-627.482284243705
 20
199.33804398912
 11
-628.732284243705
 21
197.172980479659
  0
LINE
  5
DF
100
AcDbEntity
  8
0
  6
CONTINUOUS
 62
           7
100
AcDbLine
 10
-611.232284243705
 20
179.13804398912
 11
-628.732284243705
 21
179.13804398912
  0
LINE
  5
DE
100
AcDbEntity
  8
0
  6
CONTINUOUS
 62
           7
100
AcDbLine
 10
-611.232284243705
 20
180.53804398912
 11
-628.732284243705
 21
180.53804398912
  0
LINE
  5
DD
100
AcDbEntity
  8
0
  6
CONTINUOUS
 62
           7
100
AcDbLine
 10
-628.366673019238
 20
179.13804398912
 11
-628.366673019238
 21
180.53804398912
  0
LINE
  5
DC
100
AcDbEntity
  8
0
  6
CONTINUOUS
 62
           7
100
AcDbLine
 10
-611.597895468173
 20
179.13804398912
 11
-611.597895468173
 21
180.53804398912
  0
LINE
  5
DB
100
AcDbEntity
  8
0
  6
CONTINUOUS
 62
           7
100
AcDbLine
 10
-584.982284243705
 20
219.13804398912
 11
-584.982284243705
 21
199.03804398912
  0
LINE
  5
DA
100
AcDbEntity
  8
0
  6
CONTINUOUS
 62
           7
100
AcDbLine
 10
-587.182284243705
 20
222.33804398912
 11
-587.182284243705
 21
219.13804398912
  0
LINE
  5
D9
100
AcDbEntity
  8
0
  6
CONTINUOUS
 62
           7
100
AcDbLine
 10
-584.982284243705
 20
258.33804398912
 11
-584.982284243705
 21
222.33804398912
  0
LINE
  5
D8
100
AcDbEntity
  8
0
  6
CONTINUOUS
 62
           7
100
AcDbLine
 10
-587.182284243705
 20
219.13804398912
 11
-584.982284243705
 21
219.13804398912
  0
LINE
  5
D7
100
AcDbEntity
  8
0
  6
CONTINUOUS
 62
           7
100
AcDbLine
 10
-584.982284243705
 20
222.33804398912
 11
-587.182284243705
 21
222.33804398912
  0
LINE
  5
D6
100
AcDbEntity
  8
0
  6
CONTINUOUS
 62
           7
100
AcDbLine
 10
-652.782284243705
 20
219.13804398912
 11
-652.782284243705
 21
222.33804398912
  0
LINE
  5
D5
100
AcDbEntity
  8
0
  6
CONTINUOUS
 62
           7
100
AcDbLine
 10
-652.782284243705
 20
222.33804398912
 11
-654.982284243705
 21
222.33804398912
  0
LINE
  5
D4
100
AcDbEntity
  8
0
  6
CONTINUOUS
 62
           7
100
AcDbLine
 10
-654.982284243705
 20
219.13804398912
 11
-654.982284243705
 21
199.03804398912
  0
LINE
  5
D3
100
AcDbEntity
  8
0
  6
CONTINUOUS
 62
           7
100
AcDbLine
 10
-654.982284243705
 20
258.33804398912
 11
-654.982284243705
 21
222.33804398912
  0
LINE
  5
D2
100
AcDbEntity
  8
0
  6
CONTINUOUS
 62
           7
100
AcDbLine
 10
-654.982284243705
 20
219.13804398912
 11
-652.782284243705
 21
219.13804398912
  0
LINE
  5
D1
100
AcDbEntity
  8
0
  6
CONTINUOUS
 62
           7
100
AcDbLine
 10
-590.303010185869
 20
256.33804398912
 11
-590.303010185869
 21
228.33804398912
  0
LINE
  5
D0
100
AcDbEntity
  8
0
  6
CONTINUOUS
 62
           7
100
AcDbLine
 10
-588.282284243705
 20
252.83804398912
 11
-588.282284243705
 21
199.03804398912
  0
LINE
  5
CF
100
AcDbEntity
  8
0
  6
CONTINUOUS
 62
           7
100
AcDbLine
 10
-649.661558301541
 20
256.33804398912
 11
-590.303010185869
 21
256.33804398912
  0
LINE
  5
CE
100
AcDbEntity
  8
0
  6
CONTINUOUS
 62
           7
100
AcDbLine
 10
-590.303010185869
 20
256.33804398912
 11
-588.282284243705
 21
252.83804398912
  0
LINE
  5
CD
100
AcDbEntity
  8
0
  6
CONTINUOUS
 62
           7
100
AcDbLine
 10
-584.982284243705
 20
252.83804398912
 11
-588.282284243705
 21
252.83804398912
  0
LINE
  5
CC
100
AcDbEntity
  8
0
  6
CONTINUOUS
 62
           7
100
AcDbLine
 10
-584.982284243705
 20
258.33804398912
 11
-654.982284243705
 21
258.33804398912
  0
LINE
  5
CB
100
AcDbEntity
  8
0
  6
CONTINUOUS
 62
           7
100
AcDbLine
 10
-651.682284243705
 20
252.83804398912
 11
-654.982284243705
 21
252.83804398912
  0
LINE
  5
CA
100
AcDbEntity
  8
0
  6
CONTINUOUS
 62
           7
100
AcDbLine
 10
-651.682284243705
 20
252.83804398912
 11
-649.661558301541
 21
256.33804398912
  0
LINE
  5
C9
100
AcDbEntity
  8
0
  6
CONTINUOUS
 62
           7
100
AcDbLine
 10
-651.682284243705
 20
252.83804398912
 11
-651.682284243705
 21
199.03804398912
  0
LINE
  5
C8
100
AcDbEntity
  8
0
  6
CONTINUOUS
 62
           7
100
AcDbLine
 10
-649.661558301541
 20
256.33804398912
 11
-649.661558301541
 21
228.33804398912
  0
LINE
  5
C7
100
AcDbEntity
  8
0
  6
CONTINUOUS
 62
           7
100
AcDbLine
 10
-599.082284243705
 20
252.33804398912
 11
-599.082284243705
 21
228.33804398912
  0
LINE
  5
C6
100
AcDbEntity
  8
0
  6
CONTINUOUS
 62
           7
100
AcDbLine
 10
-640.882284243705
 20
252.33804398912
 11
-599.082284243705
 21
252.33804398912
  0
LINE
  5
C5
100
AcDbEntity
  8
0
  6
CONTINUOUS
 62
           7
100
AcDbLine
 10
-640.882284243705
 20
252.33804398912
 11
-640.882284243705
 21
228.33804398912
  0
LINE
  5
C4
100
AcDbEntity
  8
0
  6
CONTINUOUS
 62
           7
100
AcDbLine
 10
-600.026019084526
 20
252.33804398912
 11
-600.026019084526
 21
228.33804398912
  0
LINE
  5
C3
100
AcDbEntity
  8
0
  6
CONTINUOUS
 62
           7
100
AcDbLine
 10
-639.938549402884
 20
252.33804398912
 11
-639.938549402884
 21
228.33804398912
  0
LINE
  5
C2
100
AcDbEntity
  8
0
  6
CONTINUOUS
 62
           7
100
AcDbLine
 10
-612.309079162948
 20
199.03804398912
 11
-584.982284243705
 21
199.03804398912
  0
LINE
  5
C1
100
AcDbEntity
  8
1
  6
CONTINUOUS
 62
           7
100
AcDbLine
 10
-591.779802081389
 20
228.33804398912
 11
-591.779802081389
 21
199.03804398912
  0
LINE
  5
C0
100
AcDbEntity
  8
0
  6
CONTINUOUS
 62
           7
100
AcDbLine
 10
-654.982284243705
 20
199.03804398912
 11
-627.655489324462
 21
199.03804398912
  0
LINE
  5
BF
100
AcDbEntity
  8
1
  6
CONTINUOUS
 62
           7
100
AcDbLine
 10
-648.184766406021
 20
228.33804398912
 11
-648.184766406021
 21
199.03804398912
  0
LINE
  5
BE
100
AcDbEntity
  8
0
  6
CONTINUOUS
 62
           7
100
AcDbLine
 10
-627.827583705326
 20
201.03804398912
 11
-628.982284243705
 21
199.03804398912
  0
LINE
  5
BD
100
AcDbEntity
  8
0
  6
CONTINUOUS
 62
           7
100
AcDbLine
 10
-612.136984782085
 20
201.03804398912
 11
-627.827583705326
 21
201.03804398912
  0
LINE
  5
BC
100
AcDbEntity
  8
0
  6
CONTINUOUS
 62
           7
100
AcDbLine
 10
-610.982284243705
 20
199.03804398912
 11
-612.136984782085
 21
201.03804398912
  0
LINE
  5
BB
100
AcDbEntity
  8
1
  6
CONTINUOUS
 62
           7
100
AcDbLine
 10
-597.575357039124
 20
228.33804398912
 11
-597.575357039124
 21
199.03804398912
  0
LINE
  5
BA
100
AcDbEntity
  8
1
  6
CONTINUOUS
 62
           7
100
AcDbLine
 10
-642.389211448287
 20
228.33804398912
 11
-642.389211448287
 21
199.03804398912
  0
LINE
  5
B9
100
AcDbEntity
  8
0
  6
CONTINUOUS
 62
           7
100
AcDbLine
 10
-624.952846992182
 20
83.609479053986
 11
-626.166242111383
 21
83.929719730252
  0
LINE
  5
B8
100
AcDbEntity
  8
0
  6
CONTINUOUS
 62
           7
100
AcDbLine
 10
-626.166242111383
 20
83.929719730252
 11
-627.392542427742
 21
84.12492787593
  0
LINE
  5
B7
100
AcDbEntity
  8
0
  6
CONTINUOUS
 62
           7
100
AcDbLine
 10
-627.392542427742
 20
84.12492787593
 11
-628.656857332617
 21
84.177898128457
  0
LINE
  5
B6
100
AcDbEntity
  8
0
  6
CONTINUOUS
 62
           7
100
AcDbLine
 10
-628.656857332617
 20
84.177898128457
 11
-629.919853332866
 21
84.079565395745
  0
LINE
  5
B5
100
AcDbEntity
  8
0
  6
CONTINUOUS
 62
           7
100
AcDbLine
 10
-629.919853332866
 20
84.079565395745
 11
-630.954128988671
 21
83.888955539577
  0
LINE
  5
B4
100
AcDbEntity
  8
0
  6
CONTINUOUS
 62
           7
100
AcDbLine
 10
-630.954128988671
 20
83.888955539577
 11
-631.982284243705
 21
83.609479053986
  0
LINE
  5
B3
100
AcDbEntity
  8
0
  6
CONTINUOUS
 62
           7
100
AcDbLine
 10
-607.982284243705
 20
83.609479053986
 11
-609.195679362906
 21
83.929719730252
  0
LINE
  5
B2
100
AcDbEntity
  8
0
  6
CONTINUOUS
 62
           7
100
AcDbLine
 10
-609.195679362906
 20
83.929719730252
 11
-610.421979679265
 21
84.12492787593
  0
LINE
  5
B1
100
AcDbEntity
  8
0
  6
CONTINUOUS
 62
           7
100
AcDbLine
 10
-610.421979679265
 20
84.12492787593
 11
-611.68629458414
 21
84.177898128457
  0
LINE
  5
B0
100
AcDbEntity
  8
0
  6
CONTINUOUS
 62
           7
100
AcDbLine
 10
-611.68629458414
 20
84.177898128457
 11
-612.949290584388
 21
84.079565395745
  0
LINE
  5
AF
100
AcDbEntity
  8
0
  6
CONTINUOUS
 62
           7
100
AcDbLine
 10
-612.949290584388
 20
84.079565395745
 11
-613.983566240194
 21
83.888955539577
  0
LINE
  5
AE
100
AcDbEntity
  8
0
  6
CONTINUOUS
 62
           7
100
AcDbLine
 10
-613.983566240194
 20
83.888955539577
 11
-615.011721495228
 21
83.609479053986
  0
LINE
  5
AD
100
AcDbEntity
  8
0
  6
CONTINUOUS
 62
           7
100
AcDbLine
 10
-615.011721495228
 20
83.609479053986
 11
-616.926693580703
 21
83.95923170887
  0
LINE
  5
AC
100
AcDbEntity
  8
0
  6
CONTINUOUS
 62
           7
100
AcDbLine
 10
-616.926693580703
 20
83.95923170887
 11
-618.602819197888
 21
84.134681972465
  0
LINE
  5
AB
100
AcDbEntity
  8
0
  6
CONTINUOUS
 62
           7
100
AcDbLine
 10
-618.602819197888
 20
84.134681972465
 11
-620.297781311917
 21
84.177914854102
  0
LINE
  5
AA
100
AcDbEntity
  8
0
  6
CONTINUOUS
 62
           7
100
AcDbLine
 10
-620.297781311917
 20
84.177914854102
 11
-622.023485085141
 21
84.080793243555
  0
LINE
  5
A9
100
AcDbEntity
  8
0
  6
CONTINUOUS
 62
           7
100
AcDbLine
 10
-622.023485085141
 20
84.080793243555
 11
-623.747120103057
 21
83.847337148728
  0
LINE
  5
A8
100
AcDbEntity
  8
0
  6
CONTINUOUS
 62
           7
100
AcDbLine
 10
-623.747120103057
 20
83.847337148728
 11
-624.952846992182
 21
83.609479053986
  0
LINE
  5
A7
100
AcDbEntity
  8
0
  6
CONTINUOUS
 62
           7
100
AcDbLine
 10
-615.011721495228
 20
77.763574435714
 11
-613.798326376027
 21
77.443333759448
  0
LINE
  5
A6
100
AcDbEntity
  8
0
  6
CONTINUOUS
 62
           7
100
AcDbLine
 10
-613.798326376027
 20
77.443333759448
 11
-612.572026059669
 21
77.24812561377
  0
LINE
  5
A5
100
AcDbEntity
  8
0
  6
CONTINUOUS
 62
           7
100
AcDbLine
 10
-612.572026059669
 20
77.24812561377
 11
-611.307711154793
 21
77.195155361243
  0
LINE
  5
A4
100
AcDbEntity
  8
0
  6
CONTINUOUS
 62
           7
100
AcDbLine
 10
-611.307711154793
 20
77.195155361243
 11
-610.044715154545
 21
77.293488093955
  0
LINE
  5
A3
100
AcDbEntity
  8
0
  6
CONTINUOUS
 62
           7
100
AcDbLine
 10
-610.044715154545
 20
77.293488093955
 11
-609.01043949874
 21
77.484097950123
  0
LINE
  5
A2
100
AcDbEntity
  8
0
  6
CONTINUOUS
 62
           7
100
AcDbLine
 10
-609.01043949874
 20
77.484097950123
 11
-607.982284243705
 21
77.763574435714
  0
LINE
  5
A1
100
AcDbEntity
  8
0
  6
CONTINUOUS
 62
           7
100
AcDbLine
 10
-624.952846992182
 20
77.763574435714
 11
-623.655845250581
 21
77.510115819446
  0
LINE
  5
A0
100
AcDbEntity
  8
0
  6
CONTINUOUS
 62
           7
100
AcDbLine
 10
-623.655845250581
 20
77.510115819446
 11
-621.988054733507
 21
77.28885894517
  0
LINE
  5
9F
100
AcDbEntity
  8
0
  6
CONTINUOUS
 62
           7
100
AcDbLine
 10
-621.988054733507
 20
77.28885894517
 11
-620.298707836389
 21
77.195152715418
  0
LINE
  5
9E
100
AcDbEntity
  8
0
  6
CONTINUOUS
 62
           7
100
AcDbLine
 10
-620.298707836389
 20
77.195152715418
 11
-618.575169132462
 21
77.24021266124
  0
LINE
  5
9D
100
AcDbEntity
  8
0
  6
CONTINUOUS
 62
           7
100
AcDbLine
 10
-618.575169132462
 20
77.24021266124
 11
-616.849504745615
 21
77.424948813179
  0
LINE
  5
9C
100
AcDbEntity
  8
0
  6
CONTINUOUS
 62
           7
100
AcDbLine
 10
-616.849504745615
 20
77.424948813179
 11
-615.011721495228
 21
77.763574435714
  0
LINE
  5
9B
100
AcDbEntity
  8
0
  6
CONTINUOUS
 62
           7
100
AcDbLine
 10
-631.982284243705
 20
77.763574435714
 11
-630.768889124504
 21
77.443333759448
  0
LINE
  5
9A
100
AcDbEntity
  8
0
  6
CONTINUOUS
 62
           7
100
AcDbLine
 10
-630.768889124504
 20
77.443333759448
 11
-629.542588808146
 21
77.24812561377
  0
LINE
  5
99
100
AcDbEntity
  8
0
  6
CONTINUOUS
 62
           7
100
AcDbLine
 10
-629.542588808146
 20
77.24812561377
 11
-628.27827390327
 21
77.195155361243
  0
LINE
  5
98
100
AcDbEntity
  8
0
  6
CONTINUOUS
 62
           7
100
AcDbLine
 10
-628.27827390327
 20
77.195155361243
 11
-627.015277903022
 21
77.293488093955
  0
LINE
  5
97
100
AcDbEntity
  8
0
  6
CONTINUOUS
 62
           7
100
AcDbLine
 10
-627.015277903022
 20
77.293488093955
 11
-625.981002247217
 21
77.484097950123
  0
LINE
  5
96
100
AcDbEntity
  8
0
  6
CONTINUOUS
 62
           7
100
AcDbLine
 10
-625.981002247217
 20
77.484097950123
 11
-624.952846992182
 21
77.763574435714
  0
LINE
  5
95
100
AcDbEntity
  8
3
  6
DOT_CENTER
 62
           3
100
AcDbLine
 10
-793.250977648503
 20
240.33804398912
 11
-772.080757546123
 21
240.33804398912
  0
LINE
  5
94
100
AcDbEntity
  8
3
  6
DOT_CENTER
 62
           3
100
AcDbLine
 10
-780.772285922172
 20
44.921404445236
 11
-780.772285922172
 21
269.685583188941
  0
LINE
  5
93
100
AcDbEntity
  8
0
  6
CONTINUOUS
 62
           7
100
AcDbLine
 10
-786.322285922172
 20
55.03804398912
 11
-786.322285922172
 21
52.93804398912
  0
LINE
  5
92
100
AcDbEntity
  8
0
  6
CONTINUOUS
 62
           7
100
AcDbLine
 10
-775.222285922172
 20
52.93804398912
 11
-775.222285922172
 21
55.03804398912
  0
LINE
  5
91
100
AcDbEntity
  8
0
  6
CONTINUOUS
 62
           7
100
AcDbLine
 10
-789.022285922172
 20
52.93804398912
 11
-789.022285922172
 21
51.43804398912
  0
LINE
  5
90
100
AcDbEntity
  8
0
  6
CONTINUOUS
 62
           7
100
AcDbLine
 10
-772.522285922172
 20
51.43804398912
 11
-772.522285922172
 21
52.93804398912
  0
LINE
  5
8F
100
AcDbEntity
  8
0
  6
CONTINUOUS
 62
           7
100
AcDbLine
 10
-772.522285922172
 20
51.43804398912
 11
-789.022285922172
 21
51.43804398912
  0
LINE
  5
8E
100
AcDbEntity
  8
0
  6
CONTINUOUS
 62
           7
100
AcDbLine
 10
-772.522285922172
 20
52.93804398912
 11
-789.022285922172
 21
52.93804398912
  0
LINE
  5
8D
100
AcDbEntity
  8
0
  6
CONTINUOUS
 62
           7
100
AcDbLine
 10
-790.772285922172
 20
76.03804398912
 11
-790.772285922172
 21
55.03804398912
  0
LINE
  5
8C
100
AcDbEntity
  8
0
  6
CONTINUOUS
 62
           7
100
AcDbLine
 10
-770.772285922172
 20
55.03804398912
 11
-770.772285922172
 21
76.03804398912
  0
LINE
  5
8B
100
AcDbEntity
  8
0
  6
CONTINUOUS
 62
           7
100
AcDbLine
 10
-770.772285922172
 20
55.03804398912
 11
-790.772285922172
 21
55.03804398912
  0
LINE
  5
8A
100
AcDbEntity
  8
0
  6
CONTINUOUS
 62
           7
100
AcDbLine
 10
-770.772285922172
 20
76.03804398912
 11
-768.772285922172
 21
77.192744527499
  0
LINE
  5
89
100
AcDbEntity
  8
0
  6
CONTINUOUS
 62
           7
100
AcDbLine
 10
-792.772285922172
 20
77.192744527499
 11
-790.772285922172
 21
76.03804398912
  0
LINE
  5
88
100
AcDbEntity
  8
0
  6
CONTINUOUS
 62
           7
100
AcDbLine
 10
-770.772285922172
 20
76.03804398912
 11
-790.772285922172
 21
76.03804398912
  0
LINE
  5
87
100
AcDbEntity
  8
0
  6
CONTINUOUS
 62
           7
100
AcDbLine
 10
-785.742848670649
 20
77.763574435714
 11
-785.742848670649
 21
83.609479053986
  0
LINE
  5
86
100
AcDbEntity
  8
0
  6
CONTINUOUS
 62
           7
100
AcDbLine
 10
-792.772285922172
 20
77.192744527499
 11
-792.772285922172
 21
84.18030895836
  0
LINE
  5
85
100
AcDbEntity
  8
0
  6
CONTINUOUS
 62
           7
100
AcDbLine
 10
-792.672285922172
 20
84.23804398912
 11
-792.772285922172
 21
84.18030895836
  0
LINE
  5
84
100
AcDbEntity
  8
0
  6
CONTINUOUS
 62
           7
100
AcDbLine
 10
-768.772285922172
 20
84.180308962201
 11
-768.872285922172
 21
84.23804398912
  0
LINE
  5
83
100
AcDbEntity
  8
0
  6
CONTINUOUS
 62
           7
100
AcDbLine
 10
-768.772285922172
 20
84.180308962201
 11
-768.772285922172
 21
77.192744527499
  0
LINE
  5
82
100
AcDbEntity
  8
0
  6
CONTINUOUS
 62
           7
100
AcDbLine
 10
-775.801723173695
 20
77.763574435714
 11
-775.801723173695
 21
83.609479053986
  0
LINE
  5
81
100
AcDbEntity
  8
0
  6
CONTINUOUS
 62
           7
100
AcDbLine
 10
-752.50233721334
 20
174.28804398912
 11
-746.972285922172
 21
174.28804398912
  0
LINE
  5
80
100
AcDbEntity
  8
0
  6
CONTINUOUS
 62
           7
100
AcDbLine
 10
-746.972285922172
 20
181.78804398912
 11
-746.972285922172
 21
174.28804398912
  0
LINE
  5
7F
100
AcDbEntity
  8
0
  6
CONTINUOUS
 62
           7
100
AcDbLine
 10
-742.372285922172
 20
179.13804398912
 11
-742.372285922172
 21
180.53804398912
  0
LINE
  5
7E
100
AcDbEntity
  8
0
  6
CONTINUOUS
 62
           7
100
AcDbLine
 10
-742.372285922172
 20
180.53804398912
 11
-745.372285922172
 21
180.53804398912
  0
LINE
  5
7D
100
AcDbEntity
  8
0
  6
CONTINUOUS
 62
           7
100
AcDbLine
 10
-753.317778095587
 20
181.78804398912
 11
-746.772285922172
 21
181.78804398912
  0
LINE
  5
7C
100
AcDbEntity
  8
0
  6
CONTINUOUS
 62
           7
100
AcDbLine
 10
-753.317778095587
 20
194.79804398912
 11
-746.772285922172
 21
194.79804398912
  0
LINE
  5
7B
100
AcDbEntity
  8
0
  6
CONTINUOUS
 62
           7
100
AcDbLine
 10
-743.2988016318
 20
179.13804398912
 11
-743.2988016318
 21
180.53804398912
  0
LINE
  5
7A
100
AcDbEntity
  8
0
  6
CONTINUOUS
 62
           7
100
AcDbLine
 10
-742.372285922172
 20
179.13804398912
 11
-746.772285922172
 21
179.13804398912
  0
LINE
  5
79
100
AcDbEntity
  8
0
  6
CONTINUOUS
 62
           7
100
AcDbLine
 10
-746.772285922172
 20
199.03804398912
 11
-746.772285922172
 21
179.13804398912
  0
LINE
  5
78
100
AcDbEntity
  8
0
  6
CONTINUOUS
 62
           7
100
AcDbLine
 10
-745.372285922172
 20
197.172980479659
 11
-746.772285922172
 21
197.172980479659
  0
LINE
  5
77
100
AcDbEntity
  8
0
  6
CONTINUOUS
 62
           7
100
AcDbLine
 10
-745.372285922172
 20
199.03804398912
 11
-745.372285922172
 21
179.13804398912
  0
LINE
  5
76
100
AcDbEntity
  8
0
  6
CONTINUOUS
 62
           7
100
AcDbLine
 10
-793.272285922172
 20
87.23804398912
 11
-793.272285922172
 21
84.23804398912
  0
LINE
  5
75
100
AcDbEntity
  8
0
  6
CONTINUOUS
 62
           7
100
AcDbLine
 10
-768.272285922172
 20
84.23804398912
 11
-768.272285922172
 21
87.23804398912
  0
LINE
  5
74
100
AcDbEntity
  8
0
  6
CONTINUOUS
 62
           7
100
AcDbLine
 10
-768.272285922172
 20
84.23804398912
 11
-793.272285922172
 21
84.23804398912
  0
LINE
  5
73
100
AcDbEntity
  8
0
  6
CONTINUOUS
 62
           7
100
AcDbLine
 10
-768.272285922172
 20
87.23804398912
 11
-759.532331662126
 21
89.579907674984
  0
LINE
  5
72
100
AcDbEntity
  8
0
  6
CONTINUOUS
 62
           7
100
AcDbLine
 10
-802.012240182218
 20
89.579907674984
 11
-793.272285922172
 21
87.23804398912
  0
LINE
  5
71
100
AcDbEntity
  8
0
  6
CONTINUOUS
 62
           7
100
AcDbLine
 10
-768.272285922172
 20
87.23804398912
 11
-793.272285922172
 21
87.23804398912
  0
LINE
  5
70
100
AcDbEntity
  8
0
  6
CONTINUOUS
 62
           7
100
AcDbLine
 10
-753.317778095587
 20
181.78804398912
 11
-753.317778095587
 21
194.79804398912
  0
LINE
  5
6F
100
AcDbEntity
  8
0
  6
CONTINUOUS
 62
           7
100
AcDbLine
 10
-752.50233721334
 20
174.28804398912
 11
-752.50233721334
 21
181.78804398912
  0
LINE
  5
6E
100
AcDbEntity
  8
0
  6
CONTINUOUS
 62
           7
100
AcDbLine
 10
-809.572285922172
 20
199.03804398912
 11
-809.572285922172
 21
99.432351103132
  0
LINE
  5
6D
100
AcDbEntity
  8
0
  6
CONTINUOUS
 62
           7
100
AcDbLine
 10
-751.972285922172
 20
99.432351103132
 11
-751.972285922172
 21
174.28804398912
  0
LINE
  5
6C
100
AcDbEntity
  8
0
  6
CONTINUOUS
 62
           7
100
AcDbLine
 10
-751.972285922172
 20
194.79804398912
 11
-751.972285922172
 21
199.03804398912
  0
LINE
  5
6B
100
AcDbEntity
  8
0
  6
CONTINUOUS
 62
           7
100
AcDbLine
 10
-807.772285922172
 20
252.33804398912
 11
-807.772285922172
 21
228.33804398912
  0
LINE
  5
6A
100
AcDbEntity
  8
0
  6
CONTINUOUS
 62
           7
100
AcDbLine
 10
-807.772285922172
 20
252.33804398912
 11
-798.772285922172
 21
252.33804398912
  0
LINE
  5
69
100
AcDbEntity
  8
0
  6
CONTINUOUS
 62
           7
100
AcDbLine
 10
-762.772285922172
 20
252.33804398912
 11
-753.772285922172
 21
252.33804398912
  0
LINE
  5
68
100
AcDbEntity
  8
0
  6
CONTINUOUS
 62
           7
100
AcDbLine
 10
-753.772285922172
 20
228.33804398912
 11
-753.772285922172
 21
252.33804398912
  0
LINE
  5
67
100
AcDbEntity
  8
0
  6
CONTINUOUS
 62
           7
100
AcDbLine
 10
-762.585821700214
 20
252.33804398912
 11
-762.585821700214
 21
228.33804398912
  0
LINE
  5
66
100
AcDbEntity
  8
0
  6
CONTINUOUS
 62
           7
100
AcDbLine
 10
-798.95875014413
 20
252.33804398912
 11
-798.95875014413
 21
228.33804398912
  0
LINE
  5
65
100
AcDbEntity
  8
0
  6
CONTINUOUS
 62
           7
100
AcDbLine
 10
-816.272285922172
 20
228.33804398912
 11
-798.772285922172
 21
228.33804398912
  0
LINE
  5
64
100
AcDbEntity
  8
0
  6
CONTINUOUS
 62
           7
100
AcDbLine
 10
-816.272285922172
 20
228.33804398912
 11
-816.272285922172
 21
199.03804398912
  0
LINE
  5
63
100
AcDbEntity
  8
0
  6
CONTINUOUS
 62
           7
100
AcDbLine
 10
-816.272285922172
 20
199.03804398912
 11
-745.272285922172
 21
199.03804398912
  0
LINE
  5
62
100
AcDbEntity
  8
0
  6
CONTINUOUS
 62
           7
100
AcDbLine
 10
-762.772285922172
 20
228.33804398912
 11
-745.272285922172
 21
228.33804398912
  0
LINE
  5
61
100
AcDbEntity
  8
0
  6
CONTINUOUS
 62
           7
100
AcDbLine
 10
-745.272285922172
 20
228.33804398912
 11
-745.272285922172
 21
199.03804398912
  0
LINE
  5
60
100
AcDbEntity
  8
0
  6
CONTINUOUS
 62
           7
100
AcDbLine
 10
-793.272285922172
 20
258.33804398912
 11
-768.272285922172
 21
258.33804398912
  0
LINE
  5
5F
100
AcDbEntity
  8
0
  6
CONTINUOUS
 62
           7
100
AcDbLine
 10
-793.272285922172
 20
258.33804398912
 11
-798.772285922172
 21
252.83804398912
  0
LINE
  5
5E
100
AcDbEntity
  8
0
  6
CONTINUOUS
 62
           7
100
AcDbLine
 10
-762.772285922172
 20
252.83804398912
 11
-768.272285922172
 21
258.33804398912
  0
LINE
  5
5D
100
AcDbEntity
  8
0
  6
CONTINUOUS
 62
           7
100
AcDbLine
 10
-762.772285922172
 20
252.83804398912
 11
-762.772285922172
 21
199.03804398912
  0
LINE
  5
5C
100
AcDbEntity
  8
0
  6
CONTINUOUS
 62
           7
100
AcDbLine
 10
-762.772285922172
 20
222.33804398912
 11
-798.772285922172
 21
222.33804398912
  0
LINE
  5
5B
100
AcDbEntity
  8
0
  6
CONTINUOUS
 62
           7
100
AcDbLine
 10
-762.772285922172
 20
219.13804398912
 11
-798.772285922172
 21
219.13804398912
  0
LINE
  5
5A
100
AcDbEntity
  8
0
  6
CONTINUOUS
 62
           7
100
AcDbLine
 10
-798.772285922172
 20
252.83804398912
 11
-798.772285922172
 21
199.03804398912
  0
LINE
  5
59
100
AcDbEntity
  8
0
  6
CONTINUOUS
 62
           7
100
AcDbLine
 10
-792.772285922172
 20
77.763574435714
 11
-791.558890802971
 21
77.443333759448
  0
LINE
  5
58
100
AcDbEntity
  8
0
  6
CONTINUOUS
 62
           7
100
AcDbLine
 10
-791.558890802971
 20
77.443333759448
 11
-790.332590486613
 21
77.24812561377
  0
LINE
  5
57
100
AcDbEntity
  8
0
  6
CONTINUOUS
 62
           7
100
AcDbLine
 10
-790.332590486613
 20
77.24812561377
 11
-789.068275581737
 21
77.195155361243
  0
LINE
  5
56
100
AcDbEntity
  8
0
  6
CONTINUOUS
 62
           7
100
AcDbLine
 10
-789.068275581737
 20
77.195155361243
 11
-787.805279581489
 21
77.293488093955
  0
LINE
  5
55
100
AcDbEntity
  8
0
  6
CONTINUOUS
 62
           7
100
AcDbLine
 10
-787.805279581489
 20
77.293488093955
 11
-786.771003925684
 21
77.484097950123
  0
LINE
  5
54
100
AcDbEntity
  8
0
  6
CONTINUOUS
 62
           7
100
AcDbLine
 10
-786.771003925684
 20
77.484097950123
 11
-785.742848670649
 21
77.763574435714
  0
LINE
  5
53
100
AcDbEntity
  8
0
  6
CONTINUOUS
 62
           7
100
AcDbLine
 10
-785.742848670649
 20
77.763574435714
 11
-784.445846929048
 21
77.510115819446
  0
LINE
  5
52
100
AcDbEntity
  8
0
  6
CONTINUOUS
 62
           7
100
AcDbLine
 10
-784.445846929048
 20
77.510115819446
 11
-782.773122671118
 21
77.288811908179
  0
LINE
  5
51
100
AcDbEntity
  8
0
  6
CONTINUOUS
 62
           7
100
AcDbLine
 10
-782.773122671118
 20
77.288811908179
 11
-781.088709514856
 21
77.195152715418
  0
LINE
  5
50
100
AcDbEntity
  8
0
  6
CONTINUOUS
 62
           7
100
AcDbLine
 10
-781.088709514856
 20
77.195152715418
 11
-779.359634848958
 21
77.241117580748
  0
LINE
  5
4F
100
AcDbEntity
  8
0
  6
CONTINUOUS
 62
           7
100
AcDbLine
 10
-779.359634848958
 20
77.241117580748
 11
-777.639506424082
 21
77.424948813179
  0
LINE
  5
4E
100
AcDbEntity
  8
0
  6
CONTINUOUS
 62
           7
100
AcDbLine
 10
-777.639506424082
 20
77.424948813179
 11
-775.801723173695
 21
77.763574435714
  0
LINE
  5
4D
100
AcDbEntity
  8
0
  6
CONTINUOUS
 62
           7
100
AcDbLine
 10
-785.742848670649
 20
83.609479053986
 11
-786.95624378985
 21
83.929719730252
  0
LINE
  5
4C
100
AcDbEntity
  8
0
  6
CONTINUOUS
 62
           7
100
AcDbLine
 10
-786.95624378985
 20
83.929719730252
 11
-788.182544106208
 21
84.12492787593
  0
LINE
  5
4B
100
AcDbEntity
  8
0
  6
CONTINUOUS
 62
           7
100
AcDbLine
 10
-788.182544106208
 20
84.12492787593
 11
-789.446859011084
 21
84.177898128457
  0
LINE
  5
4A
100
AcDbEntity
  8
0
  6
CONTINUOUS
 62
           7
100
AcDbLine
 10
-789.446859011084
 20
84.177898128457
 11
-790.709855011332
 21
84.079565395745
  0
LINE
  5
49
100
AcDbEntity
  8
0
  6
CONTINUOUS
 62
           7
100
AcDbLine
 10
-790.709855011332
 20
84.079565395745
 11
-791.744130667137
 21
83.888955539577
  0
LINE
  5
48
100
AcDbEntity
  8
0
  6
CONTINUOUS
 62
           7
100
AcDbLine
 10
-791.744130667137
 20
83.888955539577
 11
-792.772285922172
 21
83.609479053986
  0
LINE
  5
47
100
AcDbEntity
  8
0
  6
CONTINUOUS
 62
           7
100
AcDbLine
 10
-775.801723173695
 20
83.609479053986
 11
-777.716695259169
 21
83.95923170887
  0
LINE
  5
46
100
AcDbEntity
  8
0
  6
CONTINUOUS
 62
           7
100
AcDbLine
 10
-777.716695259169
 20
83.95923170887
 11
-779.398066542169
 21
84.134538170248
  0
LINE
  5
45
100
AcDbEntity
  8
0
  6
CONTINUOUS
 62
           7
100
AcDbLine
 10
-779.398066542169
 20
84.134538170248
 11
-781.087782990383
 21
84.177914854102
  0
LINE
  5
44
100
AcDbEntity
  8
0
  6
CONTINUOUS
 62
           7
100
AcDbLine
 10
-781.087782990383
 20
84.177914854102
 11
-782.818730119786
 21
84.079820482208
  0
LINE
  5
43
100
AcDbEntity
  8
0
  6
CONTINUOUS
 62
           7
100
AcDbLine
 10
-782.818730119786
 20
84.079820482208
 11
-784.537121781524
 21
83.847337148728
  0
LINE
  5
42
100
AcDbEntity
  8
0
  6
CONTINUOUS
 62
           7
100
AcDbLine
 10
-784.537121781524
 20
83.847337148728
 11
-785.742848670649
 21
83.609479053986
  0
LINE
  5
41
100
AcDbEntity
  8
0
  6
CONTINUOUS
 62
           7
100
AcDbLine
 10
-768.772285922172
 20
83.609479053986
 11
-769.985681041373
 21
83.929719730252
  0
LINE
  5
40
100
AcDbEntity
  8
0
  6
CONTINUOUS
 62
           7
100
AcDbLine
 10
-769.985681041373
 20
83.929719730252
 11
-771.211981357731
 21
84.12492787593
  0
LINE
  5
3F
100
AcDbEntity
  8
0
  6
CONTINUOUS
 62
           7
100
AcDbLine
 10
-771.211981357731
 20
84.12492787593
 11
-772.476296262607
 21
84.177898128457
  0
LINE
  5
3E
100
AcDbEntity
  8
0
  6
CONTINUOUS
 62
           7
100
AcDbLine
 10
-772.476296262607
 20
84.177898128457
 11
-773.739292262855
 21
84.079565395745
  0
LINE
  5
3D
100
AcDbEntity
  8
0
  6
CONTINUOUS
 62
           7
100
AcDbLine
 10
-773.739292262855
 20
84.079565395745
 11
-774.77356791866
 21
83.888955539577
  0
LINE
  5
3C
100
AcDbEntity
  8
0
  6
CONTINUOUS
 62
           7
100
AcDbLine
 10
-774.77356791866
 20
83.888955539577
 11
-775.801723173695
 21
83.609479053986
  0
LINE
  5
3B
100
AcDbEntity
  8
0
  6
CONTINUOUS
 62
           7
100
AcDbLine
 10
-775.801723173695
 20
77.763574435714
 11
-774.588328054494
 21
77.443333759448
  0
LINE
  5
3A
100
AcDbEntity
  8
0
  6
CONTINUOUS
 62
           7
100
AcDbLine
 10
-774.588328054494
 20
77.443333759448
 11
-773.362027738136
 21
77.24812561377
  0
LINE
  5
39
100
AcDbEntity
  8
0
  6
CONTINUOUS
 62
           7
100
AcDbLine
 10
-773.362027738136
 20
77.24812561377
 11
-772.09771283326
 21
77.195155361243
  0
LINE
  5
38
100
AcDbEntity
  8
0
  6
CONTINUOUS
 62
           7
100
AcDbLine
 10
-772.09771283326
 20
77.195155361243
 11
-770.834716833012
 21
77.293488093955
  0
LINE
  5
37
100
AcDbEntity
  8
0
  6
CONTINUOUS
 62
           7
100
AcDbLine
 10
-770.834716833012
 20
77.293488093955
 11
-769.800441177206
 21
77.484097950123
  0
LINE
  5
36
100
AcDbEntity
  8
0
  6
CONTINUOUS
 62
           7
100
AcDbLine
 10
-769.800441177206
 20
77.484097950123
 11
-768.772285922172
 21
77.763574435714
  0
LINE
  5
35
100
AcDbEntity
  8
3
  6
DOT_CENTER
 62
           3
100
AcDbLine
 10
-459.192282565238
 20
44.921404445236
 11
-459.192282565238
 21
269.685583188941
  0
LINE
  5
34
100
AcDbEntity
  8
3
  6
DOT_CENTER
 62
           3
100
AcDbLine
 10
-619.982284243705
 20
44.921404445236
 11
-619.982284243705
 21
269.685583188941
  0
SOLID
  5
1B0
100
AcDbEntity
  8
0
 62
           2
100
AcDbTrace
 10
-665.154610965852
 20
242.880405458442
 11
-665.154610965852
 21
244.35491343142
 12
-659.554610965852
 22
243.617659444931
 13
-659.554610965852
 23
243.617659444931
  0
SOLID
  5
1B2
100
AcDbEntity
  8
0
 62
           2
100
AcDbTrace
 10
-570.552506429901
 20
242.22069761649
 11
-570.552506429901
 21
243.695205589468
 12
-564.952506429901
 22
242.957951602979
 13
-564.952506429901
 23
242.957951602979
  0
ENDBLK
  5
1B7
100
AcDbEntity
  8
0
100
AcDbBlockEnd
  0
BLOCK
  5
2C
100
AcDbEntity
  8
0
100
AcDbBlockBegin
  2
1_AFD40_02C_2_A_0
 70
           0
 10
0.0
 20
0.0
 30
0.0
  3
1_AFD40_02C_2_A_0
  1

  0
INSERT
  5
2D
100
AcDbEntity
  8
0
100
AcDbBlockReference
  2
3_AFD40_02C_2_A_0
 10
0.0
 20
0.0
  0
ENDBLK
  5
1B8
100
AcDbEntity
  8
0
100
AcDbBlockEnd
  0
BLOCK
  5
2F
100
AcDbEntity
  8
0
100
AcDbBlockBegin
  2
ASF650B_10DDATA
 70
           0
 10
0.0
 20
0.0
 30
0.0
  3
ASF650B_10DDATA
  1

  0
INSERT
  5
30
100
AcDbEntity
  8
0
100
AcDbBlockReference
  2
1_AFD40_02C_2_A_0
 10
0.0
 20
0.0
  0
ENDBLK
  5
1B9
100
AcDbEntity
  8
0
100
AcDbBlockEnd
  0
ENDSEC
  0
SECTION
  2
ENTITIES
  0
TEXT
  5
1BB
100
AcDbEntity
  8
1
 62
           2
100
AcDbText
 10
-241.24145087632
 20
83.384413575972
 40
6.0
  1
ASF650B-10D
 41
0.9
  7
CONVERTER_1
100
AcDbText
  0
INSERT
  5
33
100
AcDbEntity
  8
0
100
AcDbBlockReference
  2
ASF650B_10DDATA
 10
0.0
 20
0.0
  0
ENDSEC
  0
SECTION
  2
OBJECTS
  0
DICTIONARY
  5
19
100
AcDbDictionary
  3
ACAD_GROUP
350
1A
  3
ACAD_MLINESTYLE
350
1B
  0
DICTIONARY
  5
1A
102
{ACAD_REACTORS
330
19
102
}
100
AcDbDictionary
  0
DICTIONARY
  5
1B
102
{ACAD_REACTORS
330
19
102
}
100
AcDbDictionary
  3
STANDARD
350
1C
  0
MLINESTYLE
  5
1C
102
{ACAD_REACTORS
330
1B
102
}
100
AcDbMlineStyle
  2
STANDARD
 70
           0
  3

 62
           0
 51
90.0
 52
90.0
 71
           2
 49
0.5
 62
         256
  6
BYLAYER
 49
-0.5
 62
         256
  6
BYLAYER
  0
ENDSEC
  0
EOF
