  0
SECTION
  2
HEADER
  9
$ACADVER
  1
AC1014
  9
$ACADMAINTVER
 70
           0
  9
$DWGCODEPAGE
  3
DOS932
  9
$INSBASE
 10
0.0
 20
0.0
 30
0.0
  9
$EXTMIN
 10
1.000000000000E+20
 20
1.000000000000E+20
 30
1.000000000000E+20
  9
$EXTMAX
 10
-1.000000000000E+20
 20
-1.000000000000E+20
 30
-1.000000000000E+20
  9
$LIMMIN
 10
0.0
 20
0.0
  9
$LIMMAX
 10
0.0
 20
0.0
  9
$ORTHOMODE
 70
           0
  9
$REGENMODE
 70
           1
  9
$FILLMODE
 70
           1
  9
$QTEXTMODE
 70
           0
  9
$MIRRTEXT
 70
           1
  9
$DRAGMODE
 70
           2
  9
$LTSCALE
 40
1.0
  9
$OSMODE
 70
           0
  9
$ATTMODE
 70
           1
  9
$TEXTSIZE
 40
0.2
  9
$TRACEWID
 40
0.05
  9
$TEXTSTYLE
  7
STANDARD
  9
$CLAYER
  8
0
  9
$CELTYPE
  6
CONTINUOUS
  9
$CECOLOR
 62
         256
  9
$CELTSCALE
 40
1.0
  9
$DELOBJ
 70
           1
  9
$DISPSILH
 70
           0
  9
$DIMSCALE
 40
1.0
  9
$DIMASZ
 40
0.18
  9
$DIMEXO
 40
0.0625
  9
$DIMDLI
 40
0.38
  9
$DIMRND
 40
0.0
  9
$DIMDLE
 40
0.0
  9
$DIMEXE
 40
0.18
  9
$DIMTP
 40
0.0
  9
$DIMTM
 40
0.0
  9
$DIMTXT
 40
0.18
  9
$DIMCEN
 40
0.09
  9
$DIMTSZ
 40
0.0
  9
$DIMTOL
 70
           0
  9
$DIMLIM
 70
           0
  9
$DIMTIH
 70
           1
  9
$DIMTOH
 70
           1
  9
$DIMSE1
 70
           0
  9
$DIMSE2
 70
           0
  9
$DIMTAD
 70
           0
  9
$DIMZIN
 70
           0
  9
$DIMBLK
  1

  9
$DIMASO
 70
           1
  9
$DIMSHO
 70
           1
  9
$DIMPOST
  1

  9
$DIMAPOST
  1

  9
$DIMALT
 70
           0
  9
$DIMALTD
 70
           2
  9
$DIMALTF
 40
25.4
  9
$DIMLFAC
 40
1.0
  9
$DIMTOFL
 70
           0
  9
$DIMTVP
 40
0.0
  9
$DIMTIX
 70
           0
  9
$DIMSOXD
 70
           0
  9
$DIMSAH
 70
           0
  9
$DIMBLK1
  1

  9
$DIMBLK2
  1

  9
$DIMSTYLE
  2
STANDARD
  9
$DIMCLRD
 70
           0
  9
$DIMCLRE
 70
           0
  9
$DIMCLRT
 70
           0
  9
$DIMTFAC
 40
1.0
  9
$DIMGAP
 40
0.09
  9
$DIMJUST
 70
           0
  9
$DIMSD1
 70
           0
  9
$DIMSD2
 70
           0
  9
$DIMTOLJ
 70
           1
  9
$DIMTZIN
 70
           0
  9
$DIMALTZ
 70
           0
  9
$DIMALTTZ
 70
           0
  9
$DIMFIT
 70
           3
  9
$DIMUPT
 70
           0
  9
$DIMUNIT
 70
           2
  9
$DIMDEC
 70
           4
  9
$DIMTDEC
 70
           4
  9
$DIMALTU
 70
           2
  9
$DIMALTTD
 70
           2
  9
$DIMTXSTY
  7
STANDARD
  9
$DIMAUNIT
 70
           0
  9
$LUNITS
 70
           2
  9
$LUPREC
 70
           4
  9
$SKETCHINC
 40
0.1
  9
$FILLETRAD
 40
0.0
  9
$AUNITS
 70
           0
  9
$AUPREC
 70
           0
  9
$MENU
  1
acad
  9
$ELEVATION
 40
0.0
  9
$PELEVATION
 40
0.0
  9
$THICKNESS
 40
0.0
  9
$LIMCHECK
 70
           0
  9
$BLIPMODE
 70
           1
  9
$CHAMFERA
 40
0.0
  9
$CHAMFERB
 40
0.0
  9
$CHAMFERC
 40
0.0
  9
$CHAMFERD
 40
0.0
  9
$SKPOLY
 70
           0
  9
$TDCREATE
 40
0.000000000
  9
$TDUPDATE
 40
0.000000000
  9
$TDINDWG
 40
0.0000000000
  9
$TDUSRTIMER
 40
0.0000000000
  9
$USRTIMER
 70
           1
  9
$ANGBASE
 50
0.0
  9
$ANGDIR
 70
           0
  9
$PDMODE
 70
           0
  9
$PDSIZE
 40
0.0
  9
$PLINEWID
 40
0.0
  9
$COORDS
 70
           0
  9
$SPLFRAME
 70
           0
  9
$SPLINETYPE
 70
           6
  9
$SPLINESEGS
 70
           8
  9
$ATTDIA
 70
           0
  9
$ATTREQ
 70
           1
  9
$HANDLING
 70
           1
  9
$HANDSEED
  5
393
  9
$SURFTAB1
 70
           6
  9
$SURFTAB2
 70
           6
  9
$SURFTYPE
 70
           6
  9
$SURFU
 70
           6
  9
$SURFV
 70
           6
  9
$UCSNAME
  2

  9
$UCSORG
 10
0.0
 20
0.0
 30
0.0
  9
$UCSXDIR
 10
1.0
 20
0.0
 30
0.0
  9
$UCSYDIR
 10
0.0
 20
1.0
 30
0.0
  9
$PUCSNAME
  2

  9
$PUCSORG
 10
0.0
 20
0.0
 30
0.0
  9
$PUCSXDIR
 10
1.0
 20
0.0
 30
0.0
  9
$PUCSYDIR
 10
0.0
 20
1.0
 30
0.0
  9
$USERI1
 70
           0
  9
$USERI2
 70
           0
  9
$USERI3
 70
           0
  9
$USERI4
 70
           0
  9
$USERI5
 70
           0
  9
$USERR1
 40
0.0
  9
$USERR2
 40
0.0
  9
$USERR3
 40
0.0
  9
$USERR4
 40
0.0
  9
$USERR5
 40
0.0
  9
$WORLDVIEW
 70
           1
  9
$SHADEDGE
 70
           3
  9
$SHADEDIF
 70
          70
  9
$TILEMODE
 70
           1
  9
$MAXACTVP
 70
          16
  9
$PINSBASE
 10
0.0
 20
0.0
 30
0.0
  9
$PLIMCHECK
 70
           0
  9
$PEXTMIN
 10
1.000000000000E+20
 20
1.000000000000E+20
 30
1.000000000000E+20
  9
$PEXTMAX
 10
-1.000000000000E+20
 20
-1.000000000000E+20
 30
-1.000000000000E+20
  9
$PLIMMIN
 10
0.0
 20
0.0
  9
$PLIMMAX
 10
12.0
 20
9.0
  9
$UNITMODE
 70
           0
  9
$VISRETAIN
 70
           0
  9
$PLINEGEN
 70
           1
  9
$PSLTSCALE
 70
           0
  9
$TREEDEPTH
 70
        3020
  9
$PICKSTYLE
 70
           1
  9
$CMLSTYLE
  2
STANDARD
  9
$CMLJUST
 70
           0
  9
$CMLSCALE
 40
1.0
  9
$PROXYGRAPHICS
 70
           0
  9
$MEASUREMENT
 70
           0
  0
ENDSEC
  0
SECTION
  2
CLASSES
  0
CLASS
  1
LWPOLYLINE
  2
AcDbPolyline
  3
"AutoCAD"
 90
        0
280
           0
281
           1
  0
CLASS
  1
IMAGE
  2
AcDbRasterImage
  3
ISM
 90
      127
280
           0
281
           1
  0
CLASS
  1
OLE2FRAME
  2
AcDbOle2Frame
  3
""
 90
        0
280
           0
281
           1
  0
CLASS
  1
HATCH
  2
AcDbHatch
  3
"ACAD_SEDONA"
 90
        0
280
           0
281
           1
  0
CLASS
  1
DICTIONARYVAR
  2
AcDbDictionaryVar
  3
"AutoCAD"
 90
        0
280
           0
281
           0
  0
CLASS
  1
RASTERVARIABLES
  2
AcDbRasterVariables
  3
ISM
 90
        0
280
           0
281
           0
  0
CLASS
  1
IMAGEDEF
  2
AcDbRasterImageDef
  3
ISM
 90
        0
280
           0
281
           0
  0
CLASS
  1
IMAGEDEF_REACTOR
  2
AcDbRasterImageDefReactor
  3
ISM
 90
        1
280
           0
281
           0
  0
CLASS
  1
IDBUFFER
  2
AcDbIdBuffer
  3
"Acad"
 90
        0
280
           0
281
           0
  0
CLASS
  1
SPATIAL_FILTER
  2
AcDbSpatialFilter
  3
"Acad"
 90
        0
280
           0
281
           0
  0
CLASS
  1
XRECORD
  2
AcDbXrecord
  3
"<Built In>"
 90
        0
280
           0
281
           0
  0
CLASS
  1
SORTENTSTABLE
  2
AcDbSortentsTable
  3
"AutoCAD"
 90
        0
280
           0
281
           0
  0
CLASS
  1
LAYER_INDEX
  2
AcDbLayerIndex
  3
"Acad"
 90
        0
280
           0
281
           0
  0
CLASS
  1
SPATIAL_INDEX
  2
AcDbSpatialIndex
  3
"Acad"
 90
        0
280
           0
281
           0
  0
CLASS
  1
OBJECT_PTR
  2
CAseDLPNTableRecord
  3
"ASE-LPNTableRecord"
 90
        1
280
           0
281
           0
  0
CLASS
  1
LAYOUT
  2
AcDbLayout
  3
"AutoCAD 2000"
 90
        1
280
           0
281
           0
  0
CLASS
  1
PLOTSETTINGS
  2
AcDbPlotSettings
  3
"AutoCAD 2000"
 90
        1
280
           0
281
           0
  0
CLASS
  1
ACDBDICTIONARYWDFLT
  2
AcDbDictionaryWithDefault
  3
"AutoCAD 2000"
 90
        1
280
           0
281
           0
  0
CLASS
  1
ACDBPLACEHOLDER
  2
AcDbPlaceHolder
  3
"AutoCAD 2000"
 90
        1
280
           0
281
           0
  0
CLASS
  1
VBA_PROJECT
  2
AcDbVbaProject
  3
"acadvba"
 90
        1
280
           0
281
           0
  0
CLASS
  1
WIPEOUT
  2
AcDbWipeout
  3
WipeOut|AutoCAD Express Tool|expresstools@autodesk.com
 90
      127
280
           0
281
           1
  0
CLASS
  1
WIPEOUTVARIABLES
  2
AcDbWipeoutVariables
  3
WipeOut|AutoCAD Express Tool|expresstools@autodesk.com
 90
        0
280
           0
281
           0
  0
CLASS
  1
RTEXT
  2
RText
  3
RText|AutoCAD Express Tool|expresstools@autodesk.com
 90
        0
280
           0
281
           1
  0
CLASS
  1
ARCALIGNEDTEXT
  2
AcDbArcAlignedText
  3
ATEXT|AutoCAD Express Tool|expresstools@autodesk.com
 90
        0
280
           0
281
           1
  0
ENDSEC
  0
SECTION
  2
TABLES
  0
TABLE
  2
VPORT
  5
7
100
AcDbSymbolTable
 70
           1
  0
VPORT
  5
15
100
AcDbSymbolTableRecord
100
AcDbViewportTableRecord
  2
*ACTIVE
 70
           0
 10
0.0
 20
0.0
 11
1.0
 21
1.0
 12
6.591288
 22
4.579184
 13
0.0
 23
0.0
 14
1.0
 24
1.0
 15
0.0
 25
0.0
 16
0.0
 26
0.0
 36
1.0
 17
0.0
 27
0.0
 37
0.0
 40
9.158369
 41
0.688564
 42
50.0
 43
0.0
 44
0.0
 50
0.0
 51
0.0
 71
           0
 72
         100
 73
           1
 74
           1
 75
           0
 76
           0
 77
           0
 78
           0
  0
ENDTAB
  0
TABLE
  2
LTYPE
  5
4
100
AcDbSymbolTable
 70
          10
  0
LTYPE
  5
11
100
AcDbSymbolTableRecord
100
AcDbLinetypeTableRecord
  2
BYBLOCK
 70
          64
  3

 72
          65
 73
           0
 40
0.0
  0
LTYPE
  5
12
100
AcDbSymbolTableRecord
100
AcDbLinetypeTableRecord
  2
BYLAYER
 70
          64
  3

 72
          65
 73
           0
 40
0.0
  0
LTYPE
  5
13
100
AcDbSymbolTableRecord
100
AcDbLinetypeTableRecord
  2
CONTINUOUS
 70
          64
  3
Solid line
 72
          65
 73
           0
 40
0.0
  0
LTYPE
  5
1D
100
AcDbSymbolTableRecord
100
AcDbLinetypeTableRecord
  2
DASHED
 70
          64
  3
Dashed
 72
          65
 73
           2
 40
15.0
 49
12.0
 74
           0
 49
-3.0
 74
           0
  0
LTYPE
  5
1E
100
AcDbSymbolTableRecord
100
AcDbLinetypeTableRecord
  2
DOTTED
 70
          64
  3
Dotted
 72
          65
 73
           2
 40
3.5
 49
0.5
 74
           0
 49
-3.0
 74
           0
  0
LTYPE
  5
1F
100
AcDbSymbolTableRecord
100
AcDbLinetypeTableRecord
  2
DOT_CENTER
 70
          64
  3
Dot_Center
 72
          65
 73
           4
 40
2.0
 49
1.25
 74
           0
 49
-0.25
 74
           0
 49
0.25
 74
           0
 49
-0.25
 74
           0
  0
LTYPE
  5
20
100
AcDbSymbolTableRecord
100
AcDbLinetypeTableRecord
  2
LONG_DASHED
 70
          64
  3
Long_Dashed
 72
          65
 73
           2
 40
2.0
 49
1.5
 74
           0
 49
-0.5
 74
           0
  0
LTYPE
  5
21
100
AcDbSymbolTableRecord
100
AcDbLinetypeTableRecord
  2
DASH_CENTER
 70
          64
  3
Dash_Center
 72
          65
 73
           4
 40
36.0
 49
24.0
 74
           0
 49
-3.0
 74
           0
 49
6.0
 74
           0
 49
-3.0
 74
           0
  0
LTYPE
  5
22
100
AcDbSymbolTableRecord
100
AcDbLinetypeTableRecord
  2
PHANTOM
 70
          64
  3
Phantom
 72
          65
 73
           6
 40
2.5
 49
1.25
 74
           0
 49
-0.25
 74
           0
 49
0.25
 74
           0
 49
-0.25
 74
           0
 49
0.25
 74
           0
 49
-0.25
 74
           0
  0
LTYPE
  5
23
100
AcDbSymbolTableRecord
100
AcDbLinetypeTableRecord
  2
CENTER_DASH_DASH
 70
          64
  3
Center_Dash_Dash
 72
          65
 73
           6
 40
22.0
 49
12.0
 74
           0
 49
-3.0
 74
           0
 49
0.5
 74
           0
 49
-3.0
 74
           0
 49
0.5
 74
           0
 49
-3.0
 74
           0
  0
ENDTAB
  0
TABLE
  2
LAYER
  5
2
100
AcDbSymbolTable
 70
           5
  0
LAYER
  5
14
100
AcDbSymbolTableRecord
100
AcDbLayerTableRecord
  2
0
 70
           0
 62
           7
  6
CONTINUOUS
  0
LAYER
  5
24
100
AcDbSymbolTableRecord
100
AcDbLayerTableRecord
  2
AM_0_4
 70
           0
 62
           7
  6
CONTINUOUS
  0
LAYER
  5
25
100
AcDbSymbolTableRecord
100
AcDbLayerTableRecord
  2
AM_7
 70
           0
 62
           7
  6
CONTINUOUS
  0
LAYER
  5
26
100
AcDbSymbolTableRecord
100
AcDbLayerTableRecord
  2
1
 70
           0
 62
           7
  6
CONTINUOUS
  0
LAYER
  5
27
100
AcDbSymbolTableRecord
100
AcDbLayerTableRecord
  2
AM_0_10
 70
           0
 62
           7
  6
CONTINUOUS
  0
ENDTAB
  0
TABLE
  2
STYLE
  5
3
100
AcDbSymbolTable
 70
           3
  0
STYLE
  5
17
100
AcDbSymbolTableRecord
100
AcDbTextStyleTableRecord
  2
STANDARD
 70
           0
 40
0.0
 41
1.0
 50
0.0
 71
           0
 42
0.0
  3
txt
  4

  0
STYLE
  5
38D
100
AcDbSymbolTableRecord
100
AcDbTextStyleTableRecord
  2
CONVERTER_1
 70
           0
 40
0.0
 41
0.9
 50
0.0
 71
           0
 42
0.0
  3
txt.shx
  4

  0
STYLE
  5
38F
100
AcDbSymbolTableRecord
100
AcDbTextStyleTableRecord
  2
CONVERTER_2
 70
           0
 40
0.0
 41
0.89
 50
0.0
 71
           0
 42
0.0
  3
MS Mincho.ttf
  4

1001
ACAD
1000
MS Mincho
1071
    32785
  0
ENDTAB
  0
TABLE
  2
VIEW
  5
5
100
AcDbSymbolTable
 70
           0
  0
ENDTAB
  0
TABLE
  2
UCS
  5
6
100
AcDbSymbolTable
 70
           0
  0
ENDTAB
  0
TABLE
  2
APPID
  5
8
100
AcDbSymbolTable
 70
           1
  0
APPID
  5
16
100
AcDbSymbolTableRecord
100
AcDbRegAppTableRecord
  2
ACAD
 70
           0
  0
ENDTAB
  0
TABLE
  2
DIMSTYLE
  5
9
100
AcDbSymbolTable
 70
           1
  0
DIMSTYLE
105
18
100
AcDbSymbolTableRecord
100
AcDbDimStyleTableRecord
  2
STANDARD
 70
           0
  3

  4

  5

  6

  7

 40
1.0
 41
0.18
 42
0.0625
 43
0.38
 44
0.18
 45
0.0
 46
0.0
 47
0.0
 48
0.0
 71
           0
 72
           0
 73
           1
 74
           1
 75
           0
 76
           0
 77
           0
 78
           0
140
0.18
141
0.09
142
0.0
143
25.4
144
1.0
145
0.0
146
1.0
147
0.09
170
           0
171
           2
172
           0
173
           0
174
           0
175
           0
176
           0
177
           0
178
           0
270
           2
271
           4
272
           4
273
           2
274
           2
275
           0
280
           0
281
           0
282
           0
283
           1
284
           0
285
           0
286
           0
287
           0
288
           0
340
17
  0
ENDTAB
  0
TABLE
  2
BLOCK_RECORD
  5
1
100
AcDbSymbolTable
 70
           0
  0
BLOCK_RECORD
  5
A
100
AcDbSymbolTableRecord
100
AcDbBlockTableRecord
  2
*MODEL_SPACE
  0
BLOCK_RECORD
  5
B
100
AcDbSymbolTableRecord
100
AcDbBlockTableRecord
  2
*PAPER_SPACE
  0
ENDTAB
  0
ENDSEC
  0
SECTION
  2
BLOCKS
  0
BLOCK
  5
D
100
AcDbEntity
  8
0
100
AcDbBlockBegin
  2
*MODEL_SPACE
 70
           0
 10
0.0
 20
0.0
 30
0.0
  3
*MODEL_SPACE
  1

  0
ENDBLK
  5
E
100
AcDbEntity
  8
0
100
AcDbBlockEnd
  0
BLOCK
  5
F
100
AcDbEntity
 67
           1
  8
0
100
AcDbBlockBegin
  2
*PAPER_SPACE
 70
           0
 10
0.0
 20
0.0
 30
0.0
  3
*PAPER_SPACE
  1

  0
ENDBLK
  5
10
100
AcDbEntity
 67
           1
  8
0
100
AcDbBlockEnd
  0
ENDSEC
  0
SECTION
  2
ENTITIES
  0
TEXT
  5
391
100
AcDbEntity
  8
1
 62
           2
100
AcDbText
 10
314.062123922872
 20
80.994517902326
 40
3.5
  1
ＩＮ
 41
0.89
  7
CONVERTER_2
100
AcDbText
  0
TEXT
  5
390
100
AcDbEntity
  8
1
 62
           2
100
AcDbText
 10
404.643457256205
 20
80.994517902326
 40
3.5
  1
ＯＵＴ
 41
0.89
  7
CONVERTER_2
100
AcDbText
  0
MTEXT
  5
38E
100
AcDbEntity
  8
1
 62
           2
100
AcDbMText
 10
592.652162775546
 20
-25.543748558634
 30
0.0
 40
3.5
 41
0.0
 71
           7
 72
           1
  1
NAR-202\PNAR-203
  7
CONVERTER_1
  0
SPLINE
  5
38C
100
AcDbEntity
  8
AM_0_10
  6
CONTINUOUS
 62
           7
100
AcDbSpline
210
0.0
220
0.0
230
1.0
 70
           0
 71
           4
 72
          41
 73
          37
 74
          69
 42
0.00000000001
 43
0.00000000001
 44
0.00000000001
 40
0.0
 40
0.0
 40
0.0
 40
0.0
 40
0.0813503446910656
 40
0.1465741539764162
 40
0.196505398105689
 40
0.24729125490159
 40
0.2989188945338499
 40
0.3512773675159949
 40
0.4041724858579653
 40
0.4573512252913373
 40
0.5105299622769353
 40
0.5634250871411851
 40
0.6157835397780105
 40
0.6674112399891391
 40
0.7181969336645161
 40
0.768128537023657
 40
0.8172987946218581
 40
0.86589759826184
 40
0.9141900914620518
 40
0.9624825846632537
 40
1.0110813883032084
 40
1.0602516459014093
 40
1.1101832492605503
 40
1.1609689429359273
 40
1.2125966431470561
 40
1.2649550957838924
 40
1.3178502206481357
 40
1.3710289576336558
 40
1.4242076970669497
 40
1.4771028154091463
 40
1.5294612883913024
 40
1.5810889280230327
 40
1.6318747848189337
 40
1.6818060289489909
 40
1.7470298382343414
 40
1.8283801829253981
 40
1.8283801829253981
 40
1.8283801829253981
 40
1.8283801829253981
 10
375.37166393348508
 20
82.103386009803188
 30
0.0
 10
375.37172229975698
 20
82.135490665668215
 30
0.0
 10
375.36204290936809
 20
82.183775674151207
 30
0.0
 10
375.33197537875611
 20
82.241655626644189
 30
0.0
 10
375.30127297554009
 20
82.281031908554212
 30
0.0
 10
375.26348800631911
 20
82.314965658000204
 30
0.0
 10
375.21978507763112
 20
82.342451421553193
 30
0.0
 10
375.17149208567912
 20
82.362680030535188
 30
0.0
 10
375.12006582293611
 20
82.375058764101198
 30
0.0
 10
375.0670505812451
 20
82.37922559457121
 30
0.0
 10
375.01403534205798
 20
82.375058763483196
 30
0.0
 10
374.96260907186911
 20
82.362680032980194
 30
0.0
 10
374.91431610677211
 20
82.342451412546211
 30
0.0
 10
374.87061308020009
 20
82.314965690843195
 30
0.0
 10
374.8328284669231
 20
82.28103178918721
 30
0.0
 10
374.80212477000208
 20
82.241656060503203
 30
0.0
 10
374.7794623057581
 20
82.198019757421207
 30
0.0
 10
374.76556353885309
 20
82.151450797869188
 30
0.0
 10
374.76087941164911
 20
82.103386009803188
 30
0.0
 10
374.76556353885309
 20
82.055321221736193
 30
0.0
 10
374.7794623057581
 20
82.008752262184203
 30
0.0
 10
374.80212477000208
 20
81.965115959102206
 30
0.0
 10
374.8328284669231
 20
81.925740230418199
 30
0.0
 10
374.87061308020009
 20
81.891806328762215
 30
0.0
 10
374.91431610677211
 20
81.864320607059199
 30
0.0
 10
374.96260907186911
 20
81.844091986625187
 30
0.0
 10
375.01403534205798
 20
81.831713256122214
 30
0.0
 10
375.0670505812451
 20
81.827546425035194
 30
0.0
 10
375.12006582293611
 20
81.831713255504212
 30
0.0
 10
375.17149208567912
 20
81.844091989071188
 30
0.0
 10
375.21978507763112
 20
81.864320598053212
 30
0.0
 10
375.26348800631911
 20
81.891806361605205
 30
0.0
 10
375.30127297554009
 20
81.925740111051198
 30
0.0
 10
375.33197537875611
 20
81.965116392962216
 30
0.0
 10
375.36204290936809
 20
82.022996345455198
 30
0.0
 10
375.37172229975698
 20
82.071281353937195
 30
0.0
 10
375.37166393348508
 20
82.103386009803188
 30
0.0
 11
375.37166393348508
 21
82.103386009803188
 31
0.0
 11
375.36786653365118
 21
82.148029952917057
 31
0.0
 11
375.35705105683849
 21
82.187513410978255
 31
0.0
 11
375.34414205562985
 21
82.216951910505131
 31
0.0
 11
375.32845294851001
 21
82.244044824237648
 31
0.0
 11
375.31500695227209
 21
82.26285680259933
 31
0.0
 11
375.29987154086524
 21
82.280469003091639
 31
0.0
 11
375.28228106331039
 21
82.297621137502929
 31
0.0
 11
375.26283178574943
 21
82.313640978770934
 31
0.0
 11
375.24166525157727
 21
82.328266135728228
 31
0.0
 11
375.21933879710605
 21
82.341074705313446
 31
0.0
 11
375.19569518438823
 21
82.35215827847442
 31
0.0
 11
375.17122067827455
 21
82.361287460646153
 31
0.0
 11
375.14582899614027
 21
82.368497179470822
 31
0.0
 11
375.11993880307335
 21
82.373665859919441
 31
0.0
 11
375.09357773088124
 21
82.376791356342636
 31
0.0
 11
375.06705058121076
 21
82.377834177376684
 31
0.0
 11
375.04052343336923
 21
82.376791356172177
 31
0.0
 11
375.01416236196189
 21
82.373665860092515
 31
0.0
 11
374.98827216299884
 21
82.368497179484393
 31
0.0
 11
374.96288047980249
 21
82.361287459267984
 31
0.0
 11
374.93840599236955
 21
82.352158279340998
 31
0.0
 11
374.91476238210367
 21
82.341074712531224
 31
0.0
 11
374.89243587174678
 21
82.328266132348034
 31
0.0
 11
374.87126933385468
 21
82.31364094845884
 31
0.0
 11
374.85175678127649
 21
82.297539787202822
 31
0.0
 11
374.83372227304767
 21
82.279818294181638
 31
0.0
 11
374.81760642518714
 21
82.26090515164033
 31
0.0
 11
374.80326215906308
 21
82.240632503710145
 31
0.0
 11
374.79102820839182
 21
82.219468889011679
 31
0.0
 11
374.78081577551183
 21
82.197272431335989
 31
0.0
 11
374.77283877875988
 21
82.174487440245372
 31
0.0
 11
374.76706749679033
 21
82.151055000403986
 31
0.0
 11
374.76360052419938
 21
82.127330901285973
 31
0.0
 11
374.76243749317524
 21
82.103386009803359
 31
0.0
 11
374.76360052419932
 21
82.079441118320048
 31
0.0
 11
374.76706749679033
 21
82.055717019201282
 31
0.0
 11
374.77283877875999
 21
82.032284579359896
 31
0.0
 11
374.78081577551183
 21
82.009499588269364
 31
0.0
 11
374.79102820839188
 21
81.987303130593716
 31
0.0
 11
374.80326215906308
 21
81.96613951589525
 31
0.0
 11
374.81760642518719
 21
81.945866867965066
 31
0.0
 11
374.83372227304767
 21
81.926953725423743
 31
0.0
 11
374.85175678127655
 21
81.909232232402587
 31
0.0
 11
374.87126933385474
 21
81.893131071146556
 31
0.0
 11
374.89243587174678
 21
81.87850588725739
 31
0.0
 11
374.91476238210362
 21
81.865697307074186
 31
0.0
 11
374.93840599236955
 21
81.854613740264398
 31
0.0
 11
374.96288047980249
 21
81.845484560337397
 31
0.0
 11
374.98827216299884
 21
81.838274840121016
 31
0.0
 11
375.01416236196195
 21
81.833106159513051
 31
0.0
 11
375.04052343336929
 21
81.829980663433702
 31
0.0
 11
375.06705058121082
 21
81.828937842229379
 31
0.0
 11
375.09357773088118
 21
81.829980663263271
 31
0.0
 11
375.1199388030733
 21
81.833106159686281
 31
0.0
 11
375.14582899614032
 21
81.838274840135099
 31
0.0
 11
375.17122067827461
 21
81.845484558960095
 31
0.0
 11
375.19569518438828
 21
81.854613741131985
 31
0.0
 11
375.21933879710627
 21
81.865697314292888
 31
0.0
 11
375.24166525157733
 21
81.878505883877679
 31
0.0
 11
375.26283178574931
 21
81.89313104083449
 31
0.0
 11
375.28228106331022
 21
81.909150882102367
 31
0.0
 11
375.29987154086501
 21
81.926303016513728
 31
0.0
 11
375.31500695227203
 21
81.943915217006563
 31
0.0
 11
375.32845294851018
 21
81.962727195368785
 31
0.0
 11
375.34414205562985
 21
81.989820109101331
 31
0.0
 11
375.3570510568386
 21
82.019258608628007
 31
0.0
 11
375.36786653365124
 21
82.058742066688779
 31
0.0
 11
375.37166393348508
 21
82.103386009803188
 31
0.0
  0
SPLINE
  5
38B
100
AcDbEntity
  8
AM_0_10
  6
CONTINUOUS
 62
           7
100
AcDbSpline
210
0.0
220
0.0
230
1.0
 70
           0
 71
           4
 72
          41
 73
          37
 74
          69
 42
0.00000000001
 43
0.00000000001
 44
0.00000000001
 40
0.0
 40
0.0
 40
0.0
 40
0.0
 40
0.0969629685941239
 40
0.1747548892316039
 40
0.2344114841132717
 40
0.2951732603060344
 40
0.3570224248692325
 40
0.4198146572153309
 40
0.4832988104208806
 40
0.5471484565761218
 40
0.6109980996494062
 40
0.6744822610386386
 40
0.7372744679441607
 40
0.7991237079021792
 40
0.8598852826548281
 40
0.9195423134968003
 40
0.978213645239576
 40
1.0361444417527799
 40
1.0936780544056881
 40
1.1512116670584416
 40
1.2091424635718448
 40
1.2678137953129398
 40
1.327470826155938
 40
1.3882324009086333
 40
1.450081640867017
 40
1.5128738477711678
 40
1.5763580091612657
 40
1.6402076522346969
 40
1.7040572983897142
 40
1.7675414515951064
 40
1.8303336839408064
 40
1.8921828485049044
 40
1.9529446246963098
 40
2.0126012195786842
 40
2.0903931402169507
 40
2.187356108809678
 40
2.187356108809678
 40
2.187356108809678
 40
2.187356108809678
 10
375.42919397899408
 20
81.269091184010193
 30
0.0
 10
375.4292665838891
 20
81.307342469190189
 30
0.0
 10
375.41761511816412
 20
81.364886339625201
 30
0.0
 10
375.38150667793212
 20
81.433790355912208
 30
0.0
 10
375.34462582479711
 20
81.480680781213209
 30
0.0
 10
375.29924394536312
 20
81.521084722421193
 30
0.0
 10
375.24676053603008
 20
81.553807969539207
 30
0.0
 10
375.1887696580261
 20
81.577889549872197
 30
0.0
 10
375.12701943552611
 20
81.592625483145213
 30
0.0
 10
375.0633627493151
 20
81.597585686244201
 30
0.0
 10
374.99970606545008
 20
81.592625492710198
 30
0.0
 10
374.93795583118208
 20
81.57788957349419
 30
0.0
 10
374.87996498299611
 20
81.55380798769221
 30
0.0
 10
374.82748144555308
 20
81.521084803543204
 30
0.0
 10
374.78210000510211
 20
81.4806806722072
 30
0.0
 10
374.74521752838911
 20
81.4337909692822
 30
0.0
 10
374.7179899081201
 20
81.381819997933206
 30
0.0
 10
374.70128883733207
 20
81.32634882146121
 30
0.0
 10
374.69565977155611
 20
81.269091243767207
 30
0.0
 10
374.70128882800299
 20
81.211833665156206
 30
0.0
 10
374.71798988975411
 20
81.1563624859632
 30
0.0
 10
374.74521750155412
 20
81.104391510179198
 30
0.0
 10
374.78209997062811
 20
81.0575018012442
 30
0.0
 10
374.8274814044961
 20
81.017097662514203
 30
0.0
 10
374.87996493660808
 20
80.984374469814213
 30
0.0
 10
374.93795578086912
 20
80.960292874564203
 30
0.0
 10
374.99970601273708
 20
80.945556945287194
 30
0.0
 10
375.06336269579413
 20
80.940596741382194
 30
0.0
 10
375.1270193828131
 20
80.945556934109192
 30
0.0
 10
375.18876960771411
 20
80.960292857320212
 30
0.0
 10
375.24676048964108
 20
80.9843744282052
 30
0.0
 10
375.29924390430608
 20
81.017097666773196
 30
0.0
 10
375.34462579032208
 20
81.057501600586193
 30
0.0
 10
375.38150665109811
 20
81.10439201987819
 30
0.0
 10
375.41761510255611
 20
81.173296030283211
 30
0.0
 10
375.42926657765707
 20
81.230839898819198
 30
0.0
 10
375.42919397899408
 20
81.269091184010193
 30
0.0
 11
375.42919397899408
 21
81.269091184010193
 31
0.0
 11
375.42462945600562
 21
81.322278586533912
 31
0.0
 11
375.41163665665385
 21
81.369297827935853
 31
0.0
 11
375.39613313264221
 21
81.404352619126087
 31
0.0
 11
375.37730289209759
 21
81.43659500458287
 31
0.0
 11
375.36114575749536
 21
81.459009242459246
 31
0.0
 11
375.34297202159303
 21
81.479979107176277
 31
0.0
 11
375.3218384007198
 21
81.50041260907949
 31
0.0
 11
375.29848812290385
 21
81.519483360458864
 31
0.0
 11
375.27306007886335
 21
81.536904958021182
 31
0.0
 11
375.24625473635399
 21
81.552153340795684
 31
0.0
 11
375.21785301677545
 21
81.565355265886566
 31
0.0
 11
375.1884668292418
 21
81.576224103069151
 31
0.0
 11
375.15796797333655
 21
81.58481106513166
 31
0.0
 11
375.12687937803821
 21
81.590965187094085
 31
0.0
 11
375.09521922045428
 21
81.59468742170472
 31
0.0
 11
375.06336274913571
 21
81.595929125985052
 31
0.0
 11
375.03150627991738
 21
81.594687426668969
 31
0.0
 11
374.99984612271965
 21
81.590965197659884
 31
0.0
 11
374.9687575190174
 21
81.584811080606812
 31
0.0
 11
374.93825866037037
 21
81.576224121734313
 31
0.0
 11
374.9088724944616
 21
81.565355291965417
 31
0.0
 11
374.88047077582763
 21
81.552153379574207
 31
0.0
 11
374.85366536104709
 21
81.536904988684952
 31
0.0
 11
374.82823730945347
 21
81.51948336116557
 31
0.0
 11
374.80481109024566
 21
81.500315854632518
 31
0.0
 11
374.78314452337702
 21
81.479204919143342
 31
0.0
 11
374.76379603333891
 21
81.456689672016566
 31
0.0
 11
374.74656256113298
 21
81.432539347944456
 31
0.0
 11
374.73187367575133
 21
81.40734342219956
 31
0.0
 11
374.71960451510267
 21
81.380902096737003
 31
0.0
 11
374.7100257496503
 21
81.353772820969738
 31
0.0
 11
374.70309259601032
 21
81.32586127871572
 31
0.0
 11
374.69892893361833
 21
81.297609793409919
 31
0.0
 11
374.69753181736439
 21
81.269091243614682
 31
0.0
 11
374.6989289289719
 21
81.240572693591943
 31
0.0
 11
374.70309258676082
 21
81.212321207607815
 31
0.0
 11
374.71002573585366
 21
81.184409664223992
 31
0.0
 11
374.71960449688595
 21
81.157280386896005
 31
0.0
 11
374.73187365322605
 21
81.130839059435445
 31
0.0
 11
374.74656253450172
 21
81.105643131298194
 31
0.0
 11
374.76379600277329
 21
81.081492804417692
 31
0.0
 11
374.78314448914352
 21
81.05897755413784
 31
0.0
 11
374.80481105257252
 21
81.037866615118475
 31
0.0
 11
374.82823726865752
 21
81.018699104768686
 31
0.0
 11
374.853665317413
 21
81.001277473106271
 31
0.0
 11
374.88047072970937
 21
80.986029077849608
 31
0.0
 11
374.90887244619137
 21
80.972827160831329
 31
0.0
 11
374.93825861032849
 21
80.961958326274882
 31
0.0
 11
374.96875746757684
 21
80.953371362433103
 31
0.0
 11
374.99984607027721
 21
80.947217240314771
 31
0.0
 11
375.03150622686871
 21
80.943495006147501
 31
0.0
 11
375.06336269588479
 21
80.942253301641188
 31
0.0
 11
375.09521916740545
 21
80.943495000731048
 31
0.0
 11
375.12687932559572
 21
80.947217230183028
 31
0.0
 11
375.15796792189684
 21
80.953371347079809
 31
0.0
 11
375.18846677920112
 21
80.961958304172839
 31
0.0
 11
375.21785296850521
 21
80.972827136567503
 31
0.0
 11
375.24625469023442
 21
80.986029057031061
 31
0.0
 11
375.2730600352287
 21
81.001277435438865
 31
0.0
 11
375.29848808210807
 21
81.018699028858734
 31
0.0
 11
375.32183836303039
 21
81.03776977643308
 31
0.0
 11
375.3429719872322
 21
81.05820327489225
 31
0.0
 11
375.36114572655157
 21
81.079173136648365
 31
0.0
 11
375.37730286480621
 21
81.101587371892592
 31
0.0
 11
375.3961331106043
 21
81.133829754282033
 31
0.0
 11
375.41163664032752
 21
81.168884542946955
 31
0.0
 11
375.42462944734001
 21
81.21590378223128
 31
0.0
 11
375.42919397899408
 21
81.269091184010193
 31
0.0
  0
SPLINE
  5
38A
100
AcDbEntity
  8
AM_0_10
  6
CONTINUOUS
 62
           7
100
AcDbSpline
210
0.0
220
0.0
230
1.0
 70
           0
 71
           4
 72
          18
 73
          14
 74
          23
 42
0.00000000001
 43
0.00000000001
 44
0.00000000001
 40
0.0
 40
0.0
 40
0.0
 40
0.0
 40
0.156829163419374
 40
0.2749019336153458
 40
0.3537185085359524
 40
0.4295874725771041
 40
0.505803984158304
 40
0.5856014700565644
 40
0.6715535837726268
 40
0.7651547230812436
 40
0.8667509905912638
 40
1.0026291864938477
 40
1.1701495335294387
 40
1.1701495335294387
 40
1.1701495335294387
 40
1.1701495335294387
 10
371.64581428488412
 20
85.5514549772642
 30
0.0
 10
371.61632093389608
 20
85.607621530903202
 30
0.0
 10
371.56317132973709
 20
85.684412115914199
 30
0.0
 10
371.46904541038208
 20
85.755696689051206
 30
0.0
 10
371.39651463765711
 20
85.786540480811198
 30
0.0
 10
371.32117689160413
 20
85.795502831191214
 30
0.0
 10
371.24617987897409
 20
85.781923260720191
 30
0.0
 10
371.17454775653613
 20
85.746759674573212
 30
0.0
 10
371.10843924842709
 20
85.691828526689193
 30
0.0
 10
371.04947721115309
 20
85.619132918566208
 30
0.0
 10
370.99912019291708
 20
85.530894761931194
 30
0.0
 10
370.94873218932412
 20
85.404704694114201
 30
0.0
 10
370.92694597379608
 20
85.304800189623194
 30
0.0
 10
370.91850046986008
 20
85.240080942167197
 30
0.0
 11
371.64581428488412
 21
85.5514549772642
 31
0.0
 11
371.60024296670014
 21
85.627110744184961
 31
0.0
 11
371.54916800677859
 21
85.688276707159588
 31
0.0
 11
371.50526904180924
 21
85.726639217416178
 31
0.0
 11
371.45861249907995
 21
85.757345196723904
 31
0.0
 11
371.42686643351863
 21
85.772783171207138
 31
0.0
 11
371.39330681492123
 21
85.783891313170145
 31
0.0
 11
371.35815431623041
 21
85.790265982288787
 31
0.0
 11
371.32139814020053
 21
85.791803848564925
 31
0.0
 11
371.28445473529388
 21
85.787959351933878
 31
0.0
 11
371.24835767036132
 21
85.778902502823556
 31
0.0
 11
371.21214217011487
 21
85.764286994837022
 31
0.0
 11
371.17795034373825
 21
85.745100187625397
 31
0.0
 11
371.14371437947165
 21
85.720145033527018
 31
0.0
 11
371.1122480226237
 21
85.691524529823099
 31
0.0
 11
371.08119749234862
 21
85.657173395865797
 31
0.0
 11
371.05373996848817
 21
85.620843179020667
 31
0.0
 11
371.02804514983262
 21
85.58035025700336
 31
0.0
 11
371.00553783650071
 21
85.538072835433553
 31
0.0
 11
370.97869644308213
 21
85.477497589621478
 31
0.0
 11
370.95587044794428
 21
85.413486767741105
 31
0.0
 11
370.93401678596717
 21
85.330981814966776
 31
0.0
 11
370.91850046986008
 21
85.240080942167197
 31
0.0
  0
SPLINE
  5
389
100
AcDbEntity
  8
AM_0_10
  6
CONTINUOUS
 62
           7
100
AcDbSpline
210
0.0
220
0.0
230
1.0
 70
           0
 71
           4
 72
          41
 73
          37
 74
          69
 42
0.00000000001
 43
0.00000000001
 44
0.00000000001
 40
0.0
 40
0.0
 40
0.0
 40
0.0
 40
0.2194086942150998
 40
0.3987633818549953
 40
0.5431838281731368
 40
0.6956017531517365
 40
0.8556650308820409
 40
1.0221922228972491
 40
1.1933719261164952
 40
1.3669803204357158
 40
1.5405886935600761
 40
1.7117684502071266
 40
1.8782954871197994
 40
2.0383591798747465
 40
2.1907761879473
 40
2.3351977056036848
 40
2.4722727241085609
 40
2.6036924669754065
 40
2.7320312264385125
 40
2.8603699859007774
 40
2.991789728767952
 40
3.1288647472722144
 40
3.2732862649291139
 40
3.4257032730013508
 40
3.5857669657571449
 40
3.752294002669927
 40
3.9234737593171243
 40
4.0970821324406765
 40
4.2706905267607098
 40
4.4418702299799921
 40
4.6083974219941508
 40
4.768460699724467
 40
4.920878624703704
 40
5.0652990710223822
 40
5.2446537586619684
 40
5.4640624528767923
 40
5.4640624528767923
 40
5.4640624528767923
 40
5.4640624528767923
 10
374.70887621391608
 20
75.442116702666198
 30
0.0
 10
374.79447742562212
 20
75.441744683056214
 30
0.0
 10
374.92387712717812
 20
75.475802623050214
 30
0.0
 10
375.07383228271613
 20
75.574197517765214
 30
0.0
 10
375.17682008072512
 20
75.675443647449214
 30
0.0
 10
375.26530464453913
 20
75.7995472566692
 30
0.0
 10
375.33685995351709
 20
75.942725783812193
 30
0.0
 10
375.38948017428407
 20
76.100720777552198
 30
0.0
 10
375.42167039111609
 20
76.268846565980198
 30
0.0
 10
375.43250484140009
 20
76.442116555491197
 30
0.0
 10
375.42167039588611
 20
76.615386524064206
 30
0.0
 10
375.38948024446398
 20
76.783512379414191
 30
0.0
 10
375.33685985309711
 20
76.941507152857213
 30
0.0
 10
375.2653052040751
 20
77.084686473786206
 30
0.0
 10
375.17681841298412
 20
77.208787368836198
 30
0.0
 10
375.07383830203912
 20
77.310042845290212
 30
0.0
 10
374.95920972923511
 20
77.385208336009214
 30
0.0
 10
374.83625059232298
 20
77.431600139865196
 30
0.0
 10
374.70887630156511
 20
77.447304509781191
 30
0.0
 10
374.5815020094351
 20
77.431600151001192
 30
0.0
 10
374.45854286846708
 20
77.385208357894214
 30
0.0
 10
374.34391428909208
 20
77.310042877197191
 30
0.0
 10
374.24093416929509
 20
77.208787409745213
 30
0.0
 10
374.15244736735508
 20
77.084686522431213
 30
0.0
 10
374.08089270581507
 20
76.941507207757212
 30
0.0
 10
374.0282723006361
 20
76.783512438914215
 30
0.0
 10
373.99608213451609
 20
76.615386586378207
 30
0.0
 10
373.98524767385408
 20
76.442116618753204
 30
0.0
 10
373.99608210899009
 20
76.268846628294199
 30
0.0
 10
374.02827231112508
 20
76.100720837052194
 30
0.0
 10
374.08089251808008
 20
75.942725838713216
 30
0.0
 10
374.1524478145401
 20
75.799547305314206
 30
0.0
 10
374.24093236750508
 20
75.6754436883582
 30
0.0
 10
374.3439201566631
 20
75.574197549670203
 30
0.0
 10
374.49387530359911
 20
75.475802641846201
 30
0.0
 10
374.6232750021781
 20
75.44174469054019
 30
0.0
 10
374.70887621391608
 20
75.442116702666198
 30
0.0
 11
374.70887621391608
 21
75.442116702666198
 31
0.0
 11
374.82754552572959
 21
75.454948042136238
 31
0.0
 11
374.93102744987482
 21
75.490781173404983
 31
0.0
 11
375.00797459953969
 21
75.533148148923786
 31
0.0
 11
375.07753576424193
 21
75.583652414958962
 31
0.0
 11
375.12755895458793
 21
75.628455827828645
 31
0.0
 11
375.1735016823356
 21
75.677889174531757
 31
0.0
 11
375.21891495538921
 21
75.736201795967347
 31
0.0
 11
375.26053205891054
 21
75.799499196742275
 31
0.0
 11
375.29914642051216
 21
75.869488899566406
 31
0.0
 11
375.33246852940391
 21
75.94224491594332
 31
0.0
 11
375.36168010749145
 21
76.020272491421963
 31
0.0
 11
375.38547736183443
 21
76.100180575318745
 31
0.0
 11
375.4044418687771
 21
76.183800888448829
 31
0.0
 11
375.41794329852752
 21
76.268509620708144
 31
0.0
 11
375.42614914477309
 21
76.355135031138332
 31
0.0
 11
375.42887643920642
 21
76.442116556079142
 31
0.0
 11
375.4261491488831
 21
76.529098065404625
 31
0.0
 11
375.41794331499364
 21
76.615723469262974
 31
0.0
 11
375.40444189862887
 21
76.700432251450735
 31
0.0
 11
375.38547738222678
 21
76.784052576324655
 31
0.0
 11
375.36168012325408
 21
76.863960515154133
 31
0.0
 11
375.33246862036765
 21
76.941988069855157
 31
0.0
 11
375.29914655118523
 21
77.014744500770362
 31
0.0
 11
375.26053192773543
 21
77.084734248154746
 31
0.0
 11
375.21870844902691
 21
77.148233308646837
 31
0.0
 11
375.17185292334534
 21
77.207964806713221
 31
0.0
 11
375.12275126191105
 21
77.260393815563177
 31
0.0
 11
375.06911030738945
 21
77.307954729894405
 31
0.0
 11
375.01410119928539
 21
77.347811064044805
 31
0.0
 11
374.95538335580329
 21
77.381679878285127
 31
0.0
 11
374.89596491202997
 21
77.407755891365724
 31
0.0
 11
374.83407578321845
 21
77.426877889175714
 31
0.0
 11
374.77191240145447
 21
77.43825964168164
 31
0.0
 11
374.70887630133802
 21
77.44211127901923
 31
0.0
 11
374.64584020088529
 21
77.438259647192709
 31
0.0
 11
374.58367681812695
 21
77.426877900121468
 31
0.0
 11
374.52178768764355
 21
77.407755907721921
 31
0.0
 11
374.46236924159024
 21
77.381679899835717
 31
0.0
 11
374.40365139514751
 21
77.347811090728982
 31
0.0
 11
374.3486422835594
 21
77.30795476138799
 31
0.0
 11
374.29500132487982
 21
77.260393851745917
 31
0.0
 11
374.24589965886196
 21
77.207964847188151
 31
0.0
 11
374.19904412795864
 21
77.14823335321816
 31
0.0
 11
374.15722064369902
 21
77.084734296382649
 31
0.0
 11
374.11860601413002
 21
77.014744552373685
 31
0.0
 11
374.08528393858671
 21
76.941988124371122
 31
0.0
 11
374.05607242887885
 21
76.863960572223789
 31
0.0
 11
374.03227516292043
 21
76.784052635474666
 31
0.0
 11
374.01331063920821
 21
76.700432312258542
 31
0.0
 11
373.99980921543789
 21
76.615723531251021
 31
0.0
 11
373.99160337397541
 21
76.529098128110689
 31
0.0
 11
373.98887607604775
 21
76.442116619024205
 31
0.0
 11
373.99160336287679
 21
76.35513509384441
 31
0.0
 11
373.99980920154945
 21
76.268509682696191
 31
0.0
 11
374.01331062389477
 21
76.183800949256479
 31
0.0
 11
374.03227512352748
 21
76.100180634468586
 31
0.0
 11
374.05607237088475
 21
76.020272548492201
 31
0.0
 11
374.0852839421508
 21
75.942244970460507
 31
0.0
 11
374.11860604468188
 21
75.869488951170382
 31
0.0
 11
374.15722040016453
 21
75.799499244970292
 31
0.0
 11
374.19883749815233
 21
75.736201840556703
 31
0.0
 11
374.24425076610834
 21
75.6778892151506
 31
0.0
 11
374.29019348953472
 21
75.628455864430748
 31
0.0
 11
374.34021667596403
 21
75.583652447187688
 31
0.0
 11
374.40977783625107
 21
75.533148175071489
 31
0.0
 11
374.48672498221202
 21
75.490781192826034
 31
0.0
 11
374.59020690322455
 21
75.4549480525109
 31
0.0
 11
374.70887621391608
 21
75.442116702666198
 31
0.0
  0
SPLINE
  5
388
100
AcDbEntity
  8
AM_0_10
  6
CONTINUOUS
 62
           7
100
AcDbSpline
210
0.0
220
0.0
230
1.0
 70
           0
 71
           4
 72
          41
 73
          37
 74
          69
 42
0.00000000001
 43
0.00000000001
 44
0.00000000001
 40
0.0
 40
0.0
 40
0.0
 40
0.0
 40
0.1320371660244378
 40
0.2420153422849751
 40
0.3347939973445243
 40
0.4355804896888327
 40
0.5438443574855442
 40
0.6583123086858045
 40
0.7771877381967551
 40
0.8983465165049041
 40
1.0195052706281742
 40
1.1383807582312178
 40
1.2528485519970647
 40
1.3611127933907603
 40
1.4618986836873862
 40
1.554676772722585
 40
1.6399049798555825
 40
1.71919873333341
 40
1.7952237033514549
 40
1.8712486733704654
 40
1.9505424268479705
 40
2.0357706339817003
 40
2.1285487230175906
 40
2.2293346133136693
 40
2.3375988547063744
 40
2.4520666484735472
 40
2.5709421360760873
 40
2.6921008901997956
 40
2.8132596685074702
 40
2.9321350980188372
 40
3.0466030492193155
 40
3.1548669170149246
 40
3.25565340935972
 40
3.3484320644189172
 40
3.4584102406803146
 40
3.5904474067045697
 40
3.5904474067045697
 40
3.5904474067045697
 40
3.5904474067045697
 10
374.70887608397811
 20
77.142116511931192
 30
0.0
 10
374.65790953952711
 20
77.142449635490209
 30
0.0
 10
374.58095491059709
 20
77.116949552086197
 30
0.0
 10
374.49485016289913
 20
77.048530463540203
 30
0.0
 10
374.43506978084611
 20
76.977578474447199
 30
0.0
 10
374.38376572415109
 20
76.89082704330221
 30
0.0
 10
374.34226828686309
 20
76.790831904576208
 30
0.0
 10
374.3117391411821
 20
76.680510179082205
 30
0.0
 10
374.2930555908041
 20
76.56311216936021
 30
0.0
 10
374.28676583936311
 20
76.442116762059214
 30
0.0
 10
374.29305550457309
 20
76.321121374493202
 30
0.0
 10
374.31173886316611
 20
76.203723275426199
 30
0.0
 10
374.34226823569912
 20
76.093401776060205
 30
0.0
 10
374.38376448227211
 20
75.993405738714188
 30
0.0
 10
374.43507214959209
 20
75.906657142431214
 30
0.0
 10
374.49484038117612
 20
75.835695657819201
 30
0.0
 10
374.56159799457407
 20
75.782711996710191
 30
0.0
 10
374.6336912161911
 20
75.749695837977214
 30
0.0
 10
374.70887547600108
 20
75.73842094804121
 30
0.0
 10
374.78405974557899
 20
75.749695772848213
 30
0.0
 10
374.85615299579598
 20
75.782711869130196
 30
0.0
 10
374.9229106550921
 20
75.835695472410208
 30
0.0
 10
374.98267894814609
 20
75.906656905249207
 30
0.0
 10
375.0339866906121
 20
75.993405457086197
 30
0.0
 10
375.0754830238061
 20
76.093401458485204
 30
0.0
 10
375.10601249190609
 20
76.20372293140619
 30
0.0
 10
375.12469595219511
 20
76.321121014288195
 30
0.0
 10
375.13098572221708
 20
76.442116396406192
 30
0.0
 10
375.1246960755891
 20
76.563111809155203
 30
0.0
 10
375.1060126269071
 20
76.680509835062196
 30
0.0
 10
375.07548357679212
 20
76.790831587002202
 30
0.0
 10
375.03398622612508
 20
76.890826761674191
 30
0.0
 10
374.98268224457911
 20
76.977578237262207
 30
0.0
 10
374.92290192398912
 20
77.048530278140191
 30
0.0
 10
374.83679723555798
 20
77.116949441274215
 30
0.0
 10
374.7598426287181
 20
77.14244959134021
 30
0.0
 10
374.70887608397811
 20
77.142116511931192
 30
0.0
 11
374.70887608397811
 21
77.142116511931192
 31
0.0
 11
374.63858745769471
 21
77.132821477402103
 31
0.0
 11
374.57831956743678
 21
77.107494006347295
 31
0.0
 11
374.5336831187937
 21
77.077890988491916
 31
0.0
 11
374.49402052791902
 21
77.043262669196423
 31
0.0
 11
374.46452445733678
 21
77.011525917686825
 31
0.0
 11
374.4378459810934
 21
76.977063411963314
 31
0.0
 11
374.41116402852049
 21
76.935944444280025
 31
0.0
 11
374.38706333187696
 21
76.891923350189401
 31
0.0
 11
374.36444265699697
 21
76.842700806948116
 31
0.0
 11
374.34511116141744
 21
76.792019999545985
 31
0.0
 11
374.32802129913239
 21
76.737224944983964
 31
0.0
 11
374.3141919091043
 21
76.681472329040972
 31
0.0
 11
374.30311094017515
 21
76.622828720912509
 31
0.0
 11
374.29525352372377
 21
76.563643129163054
 31
0.0
 11
374.29046409511238
 21
76.502967668109122
 31
0.0
 11
374.28887566242054
 21
76.442116760531391
 31
0.0
 11
374.29046404902601
 21
76.381265869669292
 31
0.0
 11
374.29525341715151
 21
76.320590413267112
 31
0.0
 11
374.30311076679288
 21
76.261404761339037
 31
0.0
 11
374.31419171078159
 21
76.202761131212867
 31
0.0
 11
374.32802109945476
 21
76.147008657043187
 31
0.0
 11
374.34511081559197
 21
76.092213615980896
 31
0.0
 11
374.36444210331183
 21
76.041532391716316
 31
0.0
 11
374.38706310104862
 21
75.992309777055638
 31
0.0
 11
374.41127918676915
 21
75.94815334826086
 31
0.0
 11
374.43876304162092
 21
75.906081013425862
 31
0.0
 11
374.46714312292625
 21
75.869673028706785
 31
0.0
 11
374.49863845345868
 21
75.836124592042211
 31
0.0
 11
374.53042051730768
 21
75.808442388415529
 31
0.0
 11
374.56491484978778
 21
75.784521703200994
 31
0.0
 11
374.59934396001336
 21
75.766348269127718
 31
0.0
 11
374.63569441757375
 21
75.75283050403695
 31
0.0
 11
374.67193211652187
 21
75.744853633185372
 31
0.0
 11
374.70887547760577
 21
75.742126130925641
 31
0.0
 11
374.74581884105299
 21
75.744853601182868
 31
0.0
 11
374.7820565469118
 21
75.752830440643393
 31
0.0
 11
374.81840701618188
 21
75.766348174245294
 31
0.0
 11
374.85283614214978
 21
75.784521578494065
 31
0.0
 11
374.88733049535182
 21
75.80844223382789
 31
0.0
 11
374.91911258318083
 21
75.836124409923542
 31
0.0
 11
374.9506079427747
 21
75.869672819305791
 31
0.0
 11
374.97898805561852
 21
75.906080779441169
 31
0.0
 11
375.00647194691527
 21
75.94815309046804
 31
0.0
 11
375.03068807088613
 21
75.992309498285167
 31
0.0
 11
375.05330911126168
 21
76.041532093349616
 31
0.0
 11
375.07264044288399
 21
76.092213300867883
 31
0.0
 11
375.0897302064879
 21
76.147008327127054
 31
0.0
 11
375.10355964345706
 21
76.202760789317892
 31
0.0
 11
375.11464063824587
 21
76.261404409844815
 31
0.0
 11
375.12249803915665
 21
76.320590054965976
 31
0.0
 11
375.12728745984225
 21
76.381265507219652
 31
0.0
 11
375.12887589915977
 21
76.442116396706112
 31
0.0
 11
375.12728751918024
 21
76.502967305659453
 31
0.0
 11
375.12249814312929
 21
76.563642770861861
 31
0.0
 11
375.11464077794739
 21
76.622828369418031
 31
0.0
 11
375.10355985981829
 21
76.681471987145741
 31
0.0
 11
375.08973051808573
 21
76.737224615068655
 31
0.0
 11
375.07264070326687
 21
76.792019684434806
 31
0.0
 11
375.05330925158978
 21
76.842700508582055
 31
0.0
 11
375.03068861934923
 21
76.891923071417835
 31
0.0
 11
375.006587960839
 21
76.93594418638618
 31
0.0
 11
374.97990604388559
 21
76.977063177183254
 31
0.0
 11
374.95322759749581
 21
77.011525706016968
 31
0.0
 11
374.92373155440589
 21
77.043262483077427
 31
0.0
 11
374.88406899352748
 21
77.077890836730816
 31
0.0
 11
374.83943257052761
 21
77.107493893252652
 31
0.0
 11
374.77916470220975
 21
77.132821416514417
 31
0.0
 11
374.70887608397811
 21
77.142116511931192
 31
0.0
  0
SPLINE
  5
387
100
AcDbEntity
  8
AM_0_10
  6
CONTINUOUS
 62
           7
100
AcDbSpline
210
0.0
220
0.0
230
1.0
 70
           0
 71
           4
 72
          35
 73
          31
 74
          57
 42
0.00000000001
 43
0.00000000001
 44
0.00000000001
 40
0.0
 40
0.0
 40
0.0
 40
0.0
 40
0.192980295219867
 40
0.3437232191876442
 40
0.4523446505479021
 40
0.5588756235391758
 40
0.6643109585781216
 40
0.7698061921617259
 40
0.8765073506103704
 40
0.9853880161875008
 40
1.0971199474901709
 40
1.2120000709117527
 40
1.3299371851165718
 40
1.450487839761506
 40
1.5729254624993019
 40
1.6963287425020386
 40
1.8196796921055611
 40
1.9419655123863735
 40
2.0622802707073076
 40
2.179922297701661
 40
2.2944811300319645
 40
2.4059039713388182
 40
2.514527296454276
 40
2.6210578084099274
 40
2.7264932670805075
 40
2.8319883998181954
 40
2.9386898908375536
 40
3.0475692184923728
 40
3.1946852255976581
 40
3.3799274202475873
 40
3.3799274202475873
 40
3.3799274202475873
 40
3.3799274202475873
 10
374.70760792774809
 20
81.754081621838196
 30
0.0
 10
374.63856773118812
 20
81.719799275412214
 30
0.0
 10
374.54394778214009
 20
81.652872528514195
 30
0.0
 10
374.44844303707009
 20
81.536243746494193
 30
0.0
 10
374.39660094522111
 20
81.440792120717191
 30
0.0
 10
374.36521984745008
 20
81.338988020067205
 30
0.0
 10
374.35538135403408
 20
81.234012718581198
 30
0.0
 10
374.36743205035611
 20
81.129208019130203
 30
0.0
 10
374.40094752151998
 20
81.027907227391211
 30
0.0
 10
374.45477899342109
 20
80.933264890303207
 30
0.0
 10
374.52715503279609
 20
80.84814301651619
 30
0.0
 10
374.6157844735751
 20
80.775052216927207
 30
0.0
 10
374.71793985598612
 20
80.716116313172193
 30
0.0
 10
374.83053059147011
 20
80.673037471283209
 30
0.0
 10
374.95018039773612
 20
80.647058723773199
 30
0.0
 10
375.07331568805512
 20
80.638930391011201
 30
0.0
 10
375.19626410802113
 20
80.648887438563207
 30
0.0
 10
375.31535862176008
 20
80.676642053297201
 30
0.0
 10
375.42704129391399
 20
80.721392715978197
 30
0.0
 10
375.52796096978608
 20
80.781848199908211
 30
0.0
 10
375.61506049601411
 20
80.856261898887198
 30
0.0
 10
375.68565326356509
 20
80.942469269421196
 30
0.0
 10
375.73749667375012
 20
81.037922334220212
 30
0.0
 10
375.76887743340512
 20
81.139726056652194
 30
0.0
 10
375.77871600117311
 20
81.244701475343192
 30
0.0
 10
375.7666653396771
 20
81.349506077288197
 30
0.0
 10
375.73314965070813
 20
81.450807147266204
 30
0.0
 10
375.67931904267709
 20
81.54544843650919
 30
0.0
 10
375.58402250671412
 20
81.657527380919191
 30
0.0
 10
375.49212172525108
 20
81.721483428343191
 30
0.0
 10
375.42649352438809
 20
81.754079550527194
 30
0.0
 11
374.70760792774809
 21
81.754081621838196
 31
0.0
 11
374.61486432299188
 21
81.699745067714872
 31
0.0
 11
374.53927081502331
 21
81.637809519113944
 31
0.0
 11
374.48858059288824
 21
81.583128044564958
 31
0.0
 11
374.44563421323517
 21
81.525117175620593
 31
0.0
 11
374.42008502763554
 21
81.482345280259068
 31
0.0
 11
374.3987066487399
 21
81.437138365180601
 31
0.0
 11
374.38149095193739
 21
81.388922668000433
 31
0.0
 11
374.36869421280034
 21
81.337937834779368
 31
0.0
 11
374.36117719329951
 21
81.286247844209726
 31
0.0
 11
374.35901602536239
 21
81.23407016967586
 31
0.0
 11
374.36227292214318
 21
81.181918670664828
 31
0.0
 11
374.3708712116275
 21
81.130363981966951
 31
0.0
 11
374.38485533445726
 21
81.079362592412579
 31
0.0
 11
374.40389290837612
 21
81.029986675386155
 31
0.0
 11
374.42820690501685
 21
80.98173249966456
 31
0.0
 11
374.45706493658344
 21
80.935993045004778
 31
0.0
 11
374.49096830664575
 21
80.892002021546958
 31
0.0
 11
374.52876223750559
 21
80.851232824129937
 31
0.0
 11
374.5711995268548
 21
80.812879875898972
 31
0.0
 11
374.61680399297865
 21
80.77827148078245
 31
0.0
 11
374.66644707609578
 21
80.746741571409899
 31
0.0
 11
374.71851752115901
 21
80.719318248514952
 31
0.0
 11
374.7738166182167
 21
80.695568948931665
 31
0.0
 11
374.83081588534509
 21
80.676160492847046
 31
0.0
 11
374.89005548335246
 21
80.660895519635702
 31
0.0
 11
374.95028969673967
 21
80.650108288609147
 31
0.0
 11
375.01164680699043
 21
80.643761132968123
 31
0.0
 11
375.07331035812638
 21
80.641953105848799
 31
0.0
 11
375.13491342689059
 21
80.644679979763751
 31
0.0
 11
375.19614079887538
 21
80.651942793196014
 31
0.0
 11
375.25612787888224
 21
80.663624479838234
 31
0.0
 11
375.31504976727319
 21
80.679773754510563
 31
0.0
 11
375.37162430819615
 21
80.700026150324817
 31
0.0
 11
375.42642593485226
 21
80.724600532968083
 31
0.0
 11
375.47790803428268
 21
80.752793399287796
 31
0.0
 11
375.52688805511684
 21
80.785062536018572
 31
0.0
 11
375.57175860898963
 21
80.820345017717955
 31
0.0
 11
375.61338722179818
 21
80.859326907491223
 31
0.0
 11
375.65032281544103
 21
80.90065665728973
 31
0.0
 11
375.68329731987097
 21
80.945145187572678
 31
0.0
 11
375.71119602885301
 21
80.99131619666386
 31
0.0
 11
375.73449115580496
 21
81.039919729321426
 31
0.0
 11
375.7524940922118
 21
81.089584759850183
 31
0.0
 11
375.76540313118829
 21
81.140776238246715
 31
0.0
 11
375.77292012757363
 21
81.192466245675163
 31
0.0
 11
375.77508132207515
 21
81.24464401919397
 31
0.0
 11
375.77182444794505
 21
81.296795448093675
 31
0.0
 11
375.76322614271697
 21
81.348350112457354
 31
0.0
 11
375.74934780859166
 21
81.399165603599144
 31
0.0
 11
375.73105157174246
 21
81.447238233985473
 31
0.0
 11
375.70853973507423
 21
81.492439777646766
 31
0.0
 11
375.6818655470264
 21
81.535150253073454
 31
0.0
 11
375.63871031250716
 21
81.591214962104033
 31
0.0
 11
375.58831475898336
 21
81.643832890622946
 31
0.0
 11
375.51515041083445
 21
81.702484243119301
 31
0.0
 11
375.42649352438809
 21
81.754079550527194
 31
0.0
  0
SPLINE
  5
386
100
AcDbEntity
  8
AM_0_10
  6
CONTINUOUS
 62
           7
100
AcDbSpline
210
0.0
220
0.0
230
1.0
 70
           0
 71
           4
 72
          35
 73
          31
 74
          57
 42
0.00000000001
 43
0.00000000001
 44
0.00000000001
 40
0.0
 40
0.0
 40
0.0
 40
0.0
 40
0.1640027627827824
 40
0.2908062853927193
 40
0.3802546130495912
 40
0.4673398050034494
 40
0.5535387218483451
 40
0.6404715746521676
 40
0.7296419212101346
 40
0.8222098823793742
 40
0.9188447759910452
 40
1.0196793123748142
 40
1.1243478990667126
 40
1.2320748007746085
 40
1.3417843176949849
 40
1.4522178863938289
 40
1.5620522769899654
 40
1.6700176947262251
 40
1.7750159774656609
 40
1.8762379480498848
 40
1.9732747158785267
 40
2.066208926592497
 40
2.1556593036761682
 40
2.2427440663520359
 40
2.3289430351874243
 40
2.4158760402984458
 40
2.5050456012980944
 40
2.5976170728179087
 40
2.6974774158251282
 40
2.8033672922791468
 40
2.8033672922791468
 40
2.8033672922791468
 40
2.8033672922791468
 10
375.42655063600711
 20
81.7539836598352
 30
0.0
 10
375.48469730628108
 20
81.784678229138194
 30
0.0
 10
375.56399478460708
 20
81.842689624892188
 30
0.0
 10
375.64160321150212
 20
81.942969560179193
 30
0.0
 10
375.68105419165909
 20
82.023247972503214
 30
0.0
 10
375.70165885035613
 20
82.107860493430195
 30
0.0
 10
375.70260080694408
 20
82.194054263408191
 30
0.0
 10
375.68384228173909
 20
82.2789391185282
 30
0.0
 10
375.64612799523809
 20
82.359741242875202
 30
0.0
 10
375.59083372601413
 20
82.433979852951211
 30
0.0
 10
375.51980197615711
 20
82.49949926362919
 30
0.0
 10
375.43525431325111
 20
82.554447388482203
 30
0.0
 10
375.33974931739198
 20
82.597276219963192
 30
0.0
 10
375.23613875452298
 20
82.626770907850215
 30
0.0
 10
375.12750373672208
 20
82.642087924867212
 30
0.0
 10
375.01707237866208
 20
82.642786675600206
 30
0.0
 10
374.90812615665112
 20
82.628847017528216
 30
0.0
 10
374.80390240092709
 20
82.600670073589214
 30
0.0
 10
374.7074999769751
 20
82.559062237375201
 30
0.0
 10
374.62179553572912
 20
82.505204683776213
 30
0.0
 10
374.54937768503208
 20
82.440615294469211
 30
0.0
 10
374.49250159374913
 20
82.367117826748199
 30
0.0
 10
374.4530484339441
 20
82.286838202049211
 30
0.0
 10
374.43244434783509
 20
82.202225983511198
 30
0.0
 10
374.4315021876161
 20
82.116032163765198
 30
0.0
 10
374.45026096961612
 20
82.031147209412211
 30
0.0
 10
374.48797439894008
 20
81.950345551895197
 30
0.0
 10
374.54327202791109
 20
81.876105067188206
 30
0.0
 10
374.61667214206909
 20
81.808396047500196
 30
0.0
 10
374.6749727088341
 20
81.7711906938342
 30
0.0
 10
374.70745047762313
 20
81.754037525469215
 30
0.0
 11
375.42655063600711
 21
81.7539836598352
 31
0.0
 11
375.5045863506179
 21
81.802031553542946
 31
0.0
 11
375.56779479987563
 21
81.85605128284638
 31
0.0
 11
375.60924496440708
 21
81.903112876576643
 31
0.0
 11
375.6437221520253
 21
81.952890164840056
 31
0.0
 11
375.66327658402162
 21
81.988694003346239
 31
0.0
 11
375.67902141918893
 21
82.026474791516051
 31
0.0
 11
375.69079744445105
 21
82.066435962942506
 31
0.0
 11
375.69845451016585
 21
82.108548113043966
 31
0.0
 11
375.70132609286355
 21
82.150990969425663
 31
0.0
 11
375.69937360648885
 21
82.193483990257704
 31
0.0
 11
375.69254845888508
 21
82.235851628883196
 31
0.0
 11
375.68104729351649
 21
82.277233691175766
 31
0.0
 11
375.66467339166883
 21
82.318177473148992
 31
0.0
 11
375.64405595080166
 21
82.357229240573005
 31
0.0
 11
375.61861689833086
 21
82.395433556625136
 31
0.0
 11
375.58954594268067
 21
82.431048025662392
 31
0.0
 11
375.55583818686279
 21
82.465293906225085
 31
0.0
 11
375.51917885670764
 21
82.49646812934283
 31
0.0
 11
375.47827233256487
 21
82.525680264627795
 31
0.0
 11
375.43508670013529
 21
82.55151715772493
 31
0.0
 11
375.38827740744546
 21
82.574798648235884
 31
0.0
 11
375.33981714427648
 21
82.59452844092209
 31
0.0
 11
375.28857579039402
 21
82.611185071262071
 31
0.0
 11
375.2362604598498
 21
82.624195517730513
 31
0.0
 11
375.18218001031556
 21
82.633751043156991
 31
0.0
 11
375.1275617030791
 21
82.639615669348956
 31
0.0
 11
375.07230491688262
 21
82.641819751521737
 31
0.0
 11
375.01702391391206
 21
82.640319334709233
 31
0.0
 11
374.96227105421423
 21
82.635148879788602
 31
0.0
 11
374.90800657729466
 21
82.626285082001559
 31
0.0
 11
374.85540379679702
 21
82.613938776831901
 31
0.0
 11
374.80382251379456
 21
82.597940286306979
 31
0.0
 11
374.75493229785968
 21
82.578825702895216
 31
0.0
 11
374.70763606477851
 21
82.556147522748176
 31
0.0
 11
374.66389227456182
 21
82.530860373657305
 31
0.0
 11
374.62236568154185
 21
82.502176527839651
 31
0.0
 11
374.58503712879713
 21
82.471472936717518
 31
0.0
 11
374.55059502744649
 21
82.437661945076186
 31
0.0
 11
374.52076231312975
 21
82.402428056028285
 31
0.0
 11
374.4944982605216
 21
82.364549587895695
 31
0.0
 11
374.47304534010078
 21
82.325778698644768
 31
0.0
 11
374.45578364017859
 21
82.285039872992868
 31
0.0
 11
374.44339319910955
 21
82.243828686717222
 31
0.0
 11
374.43564855138504
 21
82.201538363836931
 31
0.0
 11
374.43277699762194
 21
82.159095555722374
 31
0.0
 11
374.43472947163167
 21
82.11660244398935
 31
0.0
 11
374.4415546751207
 21
82.074234644848829
 31
0.0
 11
374.45305579310912
 21
82.032852602459229
 31
0.0
 11
374.46941679805792
 21
81.991926261126196
 31
0.0
 11
374.48994687853281
 21
81.952992025961805
 31
0.0
 11
374.5151801301277
 21
81.91505737983907
 31
0.0
 11
374.54405287919201
 21
81.879659704919135
 31
0.0
 11
374.5788814634667
 21
81.844279036821206
 31
0.0
 11
374.61699703965212
 21
81.812000751716042
 31
0.0
 11
374.66053377038497
 21
81.78132824141673
 31
0.0
 11
374.70745047762313
 21
81.754037525469215
 31
0.0
  0
SPLINE
  5
385
100
AcDbEntity
  8
AM_0_10
  6
CONTINUOUS
 62
           7
100
AcDbSpline
210
0.0
220
0.0
230
1.0
 70
           0
 71
           4
 72
          30
 73
          26
 74
          47
 42
0.00000000001
 43
0.00000000001
 44
0.00000000001
 40
0.0
 40
0.0
 40
0.0
 40
0.0
 40
0.2613186172556828
 40
0.4620747146862245
 40
0.6009585731819096
 40
0.73364852545713
 40
0.8625116982832224
 40
0.9905422383327258
 40
1.1208726146801502
 40
1.2562544214435796
 40
1.398636291248609
 40
1.5489442628320391
 40
1.7070795466572879
 40
1.8720592057119061
 40
2.0422168993436518
 40
2.2154168515660859
 40
2.3892643193987224
 40
2.5613109511212033
 40
2.7292587671596489
 40
2.8911677791759569
 40
3.0456687854428233
 40
3.1921738992277784
 40
3.3310643964502926
 40
3.4805510814901255
 40
3.6436043245134115
 40
3.6436043245134115
 40
3.6436043245134115
 40
3.6436043245134115
 10
371.96839718690109
 20
85.551631662610191
 30
0.0
 10
371.93159661081012
 20
85.650162068797215
 30
0.0
 10
371.85853522554009
 20
85.788153954706189
 30
0.0
 10
371.72230474341012
 20
85.935613326718197
 30
0.0
 10
371.61044206264108
 20
86.017926550454206
 30
0.0
 10
371.4893217140401
 20
86.072115890638202
 30
0.0
 10
371.36269571195709
 20
86.0960234816352
 30
0.0
 10
371.23488206178808
 20
86.088574319545188
 30
0.0
 10
371.11035563307013
 20
86.0501142681982
 30
0.0
 10
370.99319020292808
 20
85.9822873149852
 30
0.0
 10
370.88685122593512
 20
85.88760564399621
 30
0.0
 10
370.79429679944712
 20
85.769173534925216
 30
0.0
 10
370.71807253289808
 20
85.630621634254197
 30
0.0
 10
370.66030166523711
 20
85.476087447902188
 30
0.0
 10
370.62262031730808
 20
85.3101544592582
 30
0.0
 10
370.60610922327209
 20
85.137743301778215
 30
0.0
 10
370.61124527520712
 20
84.963971718824212
 30
0.0
 10
370.63787988841011
 20
84.79399924791619
 30
0.0
 10
370.68524589218111
 20
84.632869081284213
 30
0.0
 10
370.75199161782012
 20
84.485357941769195
 30
0.0
 10
370.83624238888109
 20
84.355849762440215
 30
0.0
 10
370.93566428999009
 20
84.248243842784206
 30
0.0
 10
371.04753612209612
 20
84.165931854593197
 30
0.0
 10
371.18397569547608
 20
84.104853938616202
 30
0.0
 10
371.28715258094712
 20
84.090200804100192
 30
0.0
 10
371.34595945218513
 20
84.092205657893203
 30
0.0
 11
371.96839718690109
 21
85.551631662610191
 31
0.0
 11
371.90910578458818
 21
85.68563623491697
 31
0.0
 11
371.83882535393121
 21
85.798368802911057
 31
0.0
 11
371.77564461895912
 21
85.875269400367344
 31
0.0
 11
371.70707539803988
 21
85.942357781073923
 31
0.0
 11
371.65765853356743
 21
85.981850382730897
 31
0.0
 11
371.60431310875026
 21
86.01623986226025
 31
0.0
 11
371.54764465432544
 21
86.044761316923513
 31
0.0
 11
371.48664567926858
 21
86.067655186567521
 31
0.0
 11
371.42503167790494
 21
86.082974422987903
 31
0.0
 11
371.36209879873388
 21
86.090864277698799
 31
0.0
 11
371.29910032018074
 21
86.091048026198266
 31
0.0
 11
371.2365175723798
 21
86.083641853060016
 31
0.0
 11
371.17412784257721
 21
86.068511106301614
 31
0.0
 11
371.11381727293048
 21
86.046227060252306
 31
0.0
 11
371.05407347324376
 21
86.016157986839431
 31
0.0
 11
370.99775290952005
 21
85.979823057750679
 31
0.0
 11
370.9426008976788
 21
85.935736143550784
 31
0.0
 11
370.89180638180085
 21
85.886483024311829
 31
0.0
 11
370.84301263533717
 21
85.8297839036032
 31
0.0
 11
370.7991480940903
 21
85.769035365608161
 31
0.0
 11
370.75823925524645
 21
85.701541363179757
 31
0.0
 11
370.72257123039537
 21
85.631028588725442
 31
0.0
 11
370.69078969366535
 21
85.554887202127418
 31
0.0
 11
370.66439962007428
 21
85.476642513347684
 31
0.0
 11
370.64267477412778
 21
85.394247672556489
 31
0.0
 11
370.62640459661645
 21
85.310563267325634
 31
0.0
 11
370.6153363953436
 21
85.224472999632809
 31
0.0
 11
370.60974457080465
 21
85.137837470113482
 31
0.0
 11
370.60959624427147
 21
85.050692524545227
 31
0.0
 11
370.61492765416739
 21
84.963715918874286
 31
0.0
 11
370.62562704010321
 21
84.87815830198879
 31
0.0
 11
370.64179576362892
 21
84.793492189613801
 31
0.0
 11
370.66294659686002
 21
84.712084226746768
 31
0.0
 11
370.68952952468868
 21
84.632340325297406
 31
0.0
 11
370.72043441521652
 21
84.557486356411559
 31
0.0
 11
370.75667425459841
 21
84.485155131340463
 31
0.0
 11
370.79637183691511
 21
84.419031254508653
 31
0.0
 11
370.84118787051915
 21
84.356400279481633
 31
0.0
 11
370.88840333906802
 21
84.300971080088459
 31
0.0
 11
370.93973431970142
 21
84.250543304356555
 31
0.0
 11
370.99185681684082
 21
84.208288931838425
 31
0.0
 11
371.0478199726806
 21
84.171548054892298
 31
0.0
 11
371.11278948122032
 21
84.138340502061524
 31
0.0
 11
371.18186914746485
 21
84.113011023097982
 31
0.0
 11
371.26115759881537
 21
84.096169411242371
 31
0.0
 11
371.34595945218513
 21
84.092205657893203
 31
0.0
  0
SPLINE
  5
384
100
AcDbEntity
  8
AM_0_10
  6
CONTINUOUS
 62
           7
100
AcDbSpline
210
0.0
220
0.0
230
1.0
 70
           0
 71
           4
 72
          41
 73
          37
 74
          69
 42
0.00000000001
 43
0.00000000001
 44
0.00000000001
 40
0.0
 40
0.0
 40
0.0
 40
0.0
 40
0.2194086942140766
 40
0.3987633818534264
 40
0.5431838281722654
 40
0.695601753151426
 40
0.855665030881324
 40
1.0221922228958848
 40
1.193371926115131
 40
1.3669803204353443
 40
1.5405886935587154
 40
1.7117684502057338
 40
1.8782954871184605
 40
2.0383591798747291
 40
2.1907761879464727
 40
2.3351977056028659
 40
2.472272724107742
 40
2.6036924669744277
 40
2.7320312264375812
 40
2.8603699859008054
 40
2.9917897287666713
 40
3.1288647472714795
 40
3.2732862649283789
 40
3.425703272999872
 40
3.585766965756505
 40
3.7522940026683429
 40
3.9234737593155407
 40
4.0970821324390929
 40
4.2706905267591262
 40
4.4418702299791928
 40
4.6083974219933515
 40
4.768460699724125
 40
4.920878624702552
 40
5.0652990710212302
 40
5.2446537586607693
 40
5.4640624528759396
 40
5.4640624528759396
 40
5.4640624528759396
 40
5.4640624528759396
 10
362.4490943764531
 20
75.642113889327192
 30
0.0
 10
362.53469558815812
 20
75.641741869717208
 30
0.0
 10
362.66409528971411
 20
75.675799809711208
 30
0.0
 10
362.81405044525212
 20
75.774194704425213
 30
0.0
 10
362.91703824326112
 20
75.875440834110208
 30
0.0
 10
363.00552280707609
 20
75.999544443330194
 30
0.0
 10
363.07707811605309
 20
76.142722970473216
 30
0.0
 10
363.12969833682109
 20
76.300717964212197
 30
0.0
 10
363.16188855365311
 20
76.468843752640197
 30
0.0
 10
363.17272300393711
 20
76.642113742152191
 30
0.0
 10
363.16188855842307
 20
76.815383710724205
 30
0.0
 10
363.12969840700111
 20
76.98350956607419
 30
0.0
 10
363.07707801563407
 20
77.141504339517212
 30
0.0
 10
363.0055233666111
 20
77.2846836604472
 30
0.0
 10
362.91703657552011
 20
77.408784555496197
 30
0.0
 10
362.81405646457608
 20
77.510040031951206
 30
0.0
 10
362.69942789177207
 20
77.585205522670208
 30
0.0
 10
362.57646875486012
 20
77.63159732652619
 30
0.0
 10
362.44909446410207
 20
77.64730169644119
 30
0.0
 10
362.32172017197109
 20
77.631597337661191
 30
0.0
 10
362.1987610310041
 20
77.585205544555208
 30
0.0
 10
362.0841324516291
 20
77.51004006385719
 30
0.0
 10
361.98115233183211
 20
77.408784596405212
 30
0.0
 10
361.89266552989199
 20
77.284683709092207
 30
0.0
 10
361.82111086835209
 20
77.141504394417211
 30
0.0
 10
361.76849046317312
 20
76.983509625575209
 30
0.0
 10
361.73630029705311
 20
76.815383773039201
 30
0.0
 10
361.72546583639109
 20
76.642113805414198
 30
0.0
 10
361.73630027152711
 20
76.468843814955193
 30
0.0
 10
361.76849047366107
 20
76.300718023712193
 30
0.0
 10
361.82111068061607
 20
76.142723025373215
 30
0.0
 10
361.89266597707712
 20
75.999544491974206
 30
0.0
 10
361.9811505300421
 20
75.875440875019194
 30
0.0
 10
362.08413831920012
 20
75.774194736331197
 30
0.0
 10
362.23409346613607
 20
75.675799828507195
 30
0.0
 10
362.3634931647141
 20
75.641741877200189
 30
0.0
 10
362.4490943764531
 20
75.642113889327192
 30
0.0
 11
362.4490943764531
 21
75.642113889327192
 31
0.0
 11
362.56776368826576
 21
75.654945228797175
 31
0.0
 11
362.67124561241053
 21
75.69077836006565
 31
0.0
 11
362.74819276207546
 21
75.733145335584084
 31
0.0
 11
362.81775392677758
 21
75.78364960161899
 31
0.0
 11
362.86777711712375
 21
75.828453014489057
 31
0.0
 11
362.91371984487182
 21
75.877886361192637
 31
0.0
 11
362.95913311792583
 21
75.936198982628483
 31
0.0
 11
363.00075022144739
 21
75.999496383403624
 31
0.0
 11
363.03936458304884
 21
76.06948608622757
 31
0.0
 11
363.07268669194036
 21
76.142242102604285
 31
0.0
 11
363.10189827002796
 21
76.220269678082389
 31
0.0
 11
363.12569552437111
 21
76.300177761978617
 31
0.0
 11
363.14466003131406
 21
76.383798075108587
 31
0.0
 11
363.15816146106454
 21
76.468506807368001
 31
0.0
 11
363.16636730731017
 21
76.55513221779897
 31
0.0
 11
363.1690946017435
 21
76.642113742740477
 31
0.0
 11
363.16636731142
 21
76.729095252065264
 31
0.0
 11
363.15816147753065
 21
76.81572065592286
 31
0.0
 11
363.14466006116589
 21
76.900429438110592
 31
0.0
 11
363.12569554476391
 21
76.984049762984498
 31
0.0
 11
363.10189828579121
 21
77.063957701813933
 31
0.0
 11
363.07268678290467
 21
77.141985256514985
 31
0.0
 11
363.03936471372168
 21
77.214741687430987
 31
0.0
 11
363.0007500902712
 21
77.28473143481601
 31
0.0
 11
362.95892661156279
 21
77.348230495307504
 31
0.0
 11
362.91207108588156
 21
77.407961993373405
 31
0.0
 11
362.86296942444761
 21
77.460391002223645
 31
0.0
 11
362.80932846992636
 21
77.507951916555243
 31
0.0
 11
362.75431936182224
 21
77.547808250705785
 31
0.0
 11
362.69560151834025
 21
77.581677064946149
 31
0.0
 11
362.63618307456704
 21
77.60775307802669
 31
0.0
 11
362.57429394575564
 21
77.626875075836509
 31
0.0
 11
362.5121305639916
 21
77.638256828342108
 31
0.0
 11
362.44909446387504
 21
77.642108465679371
 31
0.0
 11
362.38605836342157
 21
77.638256833852694
 31
0.0
 11
362.3238949806626
 21
77.626875086781482
 31
0.0
 11
362.26200585018
 21
77.607753094382375
 31
0.0
 11
362.2025874041276
 21
77.581677086496654
 31
0.0
 11
362.1438695576847
 21
77.547808277389578
 31
0.0
 11
362.08886044609631
 21
77.507951948048088
 31
0.0
 11
362.03521948741661
 21
77.460391038405817
 31
0.0
 11
361.98611782139881
 21
77.40796203384815
 31
0.0
 11
361.93926229049566
 21
77.348230539878742
 31
0.0
 11
361.89743880623621
 21
77.284731483043714
 31
0.0
 11
361.85882417666699
 21
77.214741739034153
 31
0.0
 11
361.82550210112345
 21
77.14198531103095
 31
0.0
 11
361.79629059141575
 21
77.063957758884158
 31
0.0
 11
361.7724933254575
 21
76.984049822135759
 31
0.0
 11
361.75352880174523
 21
76.900429498919664
 31
0.0
 11
361.74002737797491
 21
76.815720717912072
 31
0.0
 11
361.73182153651237
 21
76.729095314771683
 31
0.0
 11
361.72909423858482
 21
76.642113805685256
 31
0.0
 11
361.73182152541381
 21
76.555132280505518
 31
0.0
 11
361.74002736408619
 21
76.468506869357284
 31
0.0
 11
361.75352878643116
 21
76.383798135916962
 31
0.0
 11
361.77249328606376
 21
76.300177821128528
 31
0.0
 11
361.79629053342092
 21
76.220269735152158
 31
0.0
 11
361.82550210468696
 21
76.142242157120563
 31
0.0
 11
361.85882420721845
 21
76.069486137830296
 31
0.0
 11
361.89743856270161
 21
75.999496431630106
 31
0.0
 11
361.93905566068941
 21
75.936199027217143
 31
0.0
 11
361.98446892864519
 21
75.877886401811608
 31
0.0
 11
362.03041165207168
 21
75.828453051091799
 31
0.0
 11
362.08043483850099
 21
75.783649633848725
 31
0.0
 11
362.14999599878792
 21
75.733145361732454
 31
0.0
 11
362.2269431447487
 21
75.690778379486886
 31
0.0
 11
362.33042506576101
 21
75.65494523917134
 31
0.0
 11
362.4490943764531
 21
75.642113889327192
 31
0.0
  0
SPLINE
  5
383
100
AcDbEntity
  8
AM_0_10
  6
CONTINUOUS
 62
           7
100
AcDbSpline
210
0.0
220
0.0
230
1.0
 70
           0
 71
           4
 72
          41
 73
          37
 74
          69
 42
0.00000000001
 43
0.00000000001
 44
0.00000000001
 40
0.0
 40
0.0
 40
0.0
 40
0.0
 40
0.1320371660243837
 40
0.2420153422857221
 40
0.334793997346032
 40
0.4355804896903404
 40
0.5438443574857408
 40
0.658312308686001
 40
0.7771877381981127
 40
0.8983465165052121
 40
1.0195052706294254
 40
1.1383807582316385
 40
1.2528485519984442
 40
1.3611127933921137
 40
1.4618986836874157
 40
1.5546767727233752
 40
1.6399049798571741
 40
1.7191987333350016
 40
1.795223703352899
 40
1.8712486733710101
 40
1.9505424268485152
 40
2.035770633982156
 40
2.1285487230172855
 40
2.2293346133133642
 40
2.3375988547073803
 40
2.4520666484733216
 40
2.5709421360760136
 40
2.6921008902007468
 40
2.813259668508393
 40
2.9321350980189385
 40
3.0466030492194167
 40
3.1548669170156223
 40
3.2556534093595082
 40
3.3484320644201104
 40
3.4584102406806001
 40
3.5904474067049676
 40
3.5904474067049676
 40
3.5904474067049676
 40
3.5904474067049676
 10
362.44909424651507
 20
77.342113698592215
 30
0.0
 10
362.39812770206407
 20
77.342446822151203
 30
0.0
 10
362.3211730731341
 20
77.316946738747191
 30
0.0
 10
362.23506832543512
 20
77.248527650201197
 30
0.0
 10
362.1752879433821
 20
77.177575661107198
 30
0.0
 10
362.12398388668709
 20
77.090824229962209
 30
0.0
 10
362.08248644940011
 20
76.990829091237202
 30
0.0
 10
362.05195730371912
 20
76.880507365743199
 30
0.0
 10
362.03327375333998
 20
76.763109356020209
 30
0.0
 10
362.02698400190008
 20
76.642113948720208
 30
0.0
 10
362.03327366710909
 20
76.521118561153202
 30
0.0
 10
362.05195702570308
 20
76.403720462087193
 30
0.0
 10
362.08248639823609
 20
76.293398962720204
 30
0.0
 10
362.12398264480908
 20
76.193402925374215
 30
0.0
 10
362.17529031212808
 20
76.106654329092208
 30
0.0
 10
362.23505854371211
 20
76.0356928444792
 30
0.0
 10
362.30181615711109
 20
75.98270918337019
 30
0.0
 10
362.37390937872811
 20
75.949693024637213
 30
0.0
 10
362.4490936385381
 20
75.938418134702204
 30
0.0
 10
362.5242779081151
 20
75.949692959509207
 30
0.0
 10
362.59637115833209
 20
75.98270905579119
 30
0.0
 10
362.66312881762809
 20
76.035692659071202
 30
0.0
 10
362.72289711068208
 20
76.106654091909206
 30
0.0
 10
362.77420485314809
 20
76.193402643746197
 30
0.0
 10
362.81570118634312
 20
76.293398645146198
 30
0.0
 10
362.84623065444208
 20
76.40372011806619
 30
0.0
 10
362.86491411473207
 20
76.521118200948194
 30
0.0
 10
362.8712038847541
 20
76.642113583067214
 30
0.0
 10
362.86491423812612
 20
76.763108995816197
 30
0.0
 10
362.8462307894431
 20
76.880507021722195
 30
0.0
 10
362.81570173932812
 20
76.990828773662201
 30
0.0
 10
362.77420438866199
 20
77.090823948335213
 30
0.0
 10
362.72290040711607
 20
77.177575423922207
 30
0.0
 10
362.66312008652511
 20
77.248527464801214
 30
0.0
 10
362.57701539809511
 20
77.316946627935209
 30
0.0
 10
362.5000607912541
 20
77.342446778001204
 30
0.0
 10
362.44909424651507
 20
77.342113698592215
 30
0.0
 11
362.44909424651507
 21
77.342113698592215
 31
0.0
 11
362.37880562023179
 21
77.33281866406314
 31
0.0
 11
362.31853772997385
 21
77.30749119300846
 31
0.0
 11
362.27390128133032
 21
77.277888175152952
 31
0.0
 11
362.23423869045519
 21
77.243259855857232
 31
0.0
 11
362.20474261987277
 21
77.211523104347208
 31
0.0
 11
362.17806414362923
 21
77.177060598623214
 31
0.0
 11
362.15138219105626
 21
77.135941630939769
 31
0.0
 11
362.12728149441284
 21
77.09192053684913
 31
0.0
 11
362.10466081953354
 21
77.042697993608598
 31
0.0
 11
362.08532932395445
 21
76.992017186207292
 31
0.0
 11
362.06823946166952
 21
76.937222131645328
 31
0.0
 11
362.05441007164126
 21
76.881469515702207
 31
0.0
 11
362.04332910271165
 21
76.822825907572849
 31
0.0
 11
362.03547168625994
 21
76.763640315822698
 31
0.0
 11
362.03068225764883
 21
76.702964854769533
 31
0.0
 11
362.02909382495722
 21
76.642113947192598
 31
0.0
 11
362.03068221156252
 21
76.581263056329831
 31
0.0
 11
362.03547157968791
 21
76.520587599926955
 31
0.0
 11
362.04332892932939
 21
76.461401947999548
 31
0.0
 11
362.05440987331838
 21
76.40275831787406
 31
0.0
 11
362.06823926199172
 21
76.347005843703798
 31
0.0
 11
362.08532897812916
 21
76.292210802640724
 31
0.0
 11
362.10466026584896
 21
76.241529578376003
 31
0.0
 11
362.12728126358564
 21
76.192306963715424
 31
0.0
 11
362.15149734930549
 21
76.14815053492147
 31
0.0
 11
362.17898120415663
 21
76.10607820008714
 31
0.0
 11
362.20736128546213
 21
76.069670215367552
 31
0.0
 11
362.23885661599485
 21
76.036121778702437
 31
0.0
 11
362.2706386798443
 21
76.008439575075485
 31
0.0
 11
362.30513301232497
 21
75.984518889860837
 31
0.0
 11
362.33956212255049
 21
75.966345455787661
 31
0.0
 11
362.37591258011093
 21
75.952827690697077
 31
0.0
 11
362.41215027905906
 21
75.94485081984584
 31
0.0
 11
362.44909364014291
 21
75.942123317586464
 31
0.0
 11
362.48603700358956
 21
75.944850787843833
 31
0.0
 11
362.52227470944774
 21
75.952827627304288
 31
0.0
 11
362.55862517871782
 21
75.966345360906232
 31
0.0
 11
362.59305430468595
 21
75.984518765155087
 31
0.0
 11
362.62754865788793
 21
76.008439420488941
 31
0.0
 11
362.659330745717
 21
76.03612159658455
 31
0.0
 11
362.69082610531075
 21
76.069670005966302
 31
0.0
 11
362.7192062181544
 21
76.106077966101083
 31
0.0
 11
362.74669010945115
 21
76.148150277127783
 31
0.0
 11
362.77090623342207
 21
76.192306684944953
 31
0.0
 11
362.79352727379825
 21
76.241529280010269
 31
0.0
 11
362.8128586054209
 21
76.292210487529331
 31
0.0
 11
362.82994836902441
 21
76.347005513787721
 31
0.0
 11
362.84377780599334
 21
76.402757975977636
 31
0.0
 11
362.85485880078227
 21
76.461401596504473
 31
0.0
 11
362.86271620169344
 21
76.520587241625805
 31
0.0
 11
362.86750562237921
 21
76.581262693880191
 31
0.0
 11
362.86909406169684
 21
76.642113583367362
 31
0.0
 11
362.86750568171726
 21
76.70296449232076
 31
0.0
 11
362.86271630566608
 21
76.763639957522997
 31
0.0
 11
362.85485894048389
 21
76.822825556078513
 31
0.0
 11
362.84377802235451
 21
76.881469173805598
 31
0.0
 11
362.8299486806219
 21
76.937221801728469
 31
0.0
 11
362.81285886580304
 21
76.992016871094805
 31
0.0
 11
362.79352741412612
 21
77.042697695242694
 31
0.0
 11
362.77090678188586
 21
77.0919202580789
 31
0.0
 11
362.7468061233759
 21
77.135941373046535
 31
0.0
 11
362.72012420642272
 21
77.17706036384304
 31
0.0
 11
362.69344576003232
 21
77.211522892677493
 31
0.0
 11
362.66394971694172
 21
77.243259669738705
 31
0.0
 11
362.62428715606382
 21
77.277888023391966
 31
0.0
 11
362.57965073306445
 21
77.307491079913547
 31
0.0
 11
362.51938286474632
 21
77.332818603175383
 31
0.0
 11
362.44909424651507
 21
77.342113698592215
 31
0.0
  0
SPLINE
  5
382
100
AcDbEntity
  8
AM_0_10
  6
CONTINUOUS
 62
           7
100
AcDbSpline
210
0.0
220
0.0
230
1.0
 70
           0
 71
           3
 72
           6
 73
           3
 74
           3
 42
0.00000000001
 43
0.00000000001
 44
0.00000000001
 40
0.0
 40
0.0
 40
0.0
 40
0.0898680877703681
 40
0.0898680877703681
 40
0.0898680877703681
 10
370.43311036178409
 20
74.111748779883214
 30
0.0
 10
370.44569218704009
 20
74.068612183204209
 30
0.0
 10
370.45827401229712
 20
74.025475586524209
 30
0.0
 11
370.43311036178409
 21
74.111748779883214
 31
0.0
 11
370.44569218704038
 21
74.068612183203953
 31
0.0
 11
370.45827401229712
 21
74.025475586524209
 31
0.0
  0
SPLINE
  5
381
100
AcDbEntity
  8
AM_0_10
  6
CONTINUOUS
 62
           7
100
AcDbSpline
210
0.0
220
0.0
230
1.0
 70
           0
 71
           3
 72
           6
 73
           3
 74
           3
 42
0.00000000001
 43
0.00000000001
 44
0.00000000001
 40
0.0
 40
0.0
 40
0.0
 40
0.2528305053709801
 40
0.2528305053709801
 40
0.2528305053709801
 10
370.45827401229712
 20
74.025475586524209
 30
0.0
 10
370.5846892649821
 20
74.025475586524209
 30
0.0
 10
370.7111045176681
 20
74.025475586524209
 30
0.0
 11
370.45827401229712
 21
74.025475586524209
 31
0.0
 11
370.58468926498233
 21
74.025475586524209
 31
0.0
 11
370.7111045176681
 21
74.025475586524209
 31
0.0
  0
SPLINE
  5
380
100
AcDbEntity
  8
AM_0_10
  6
CONTINUOUS
 62
           7
100
AcDbSpline
210
0.0
220
0.0
230
1.0
 70
           0
 71
           3
 72
          12
 73
           9
 74
          15
 42
0.00000000001
 43
0.00000000001
 44
0.00000000001
 40
0.0
 40
0.0
 40
0.0
 40
0.1664293503555797
 40
0.2822984415766693
 40
0.382013654101205
 40
0.4944215051022082
 40
0.5973538363153194
 40
0.7653380656623938
 40
1.1703563315076413
 40
1.1703563315076413
 40
1.1703563315076413
 10
370.43311036178409
 20
74.477227295508214
 30
0.0
 10
370.34548537901412
 20
74.439520395903202
 30
0.0
 10
370.20787626380007
 20
74.40419312557421
 30
0.0
 10
370.12236920124911
 20
74.377199183382203
 30
0.0
 10
370.05523648870508
 20
74.290358768661207
 30
0.0
 10
370.11933888633911
 20
74.194818947471191
 30
0.0
 10
370.20726127649408
 20
74.172090476194199
 30
0.0
 10
370.45130896474399
 20
74.195373863212211
 30
0.0
 10
370.43311036178409
 20
74.477227295508214
 30
0.0
 11
370.43311036178409
 21
74.477227295508214
 31
0.0
 11
370.34710972417594
 21
74.443740313234201
 31
0.0
 11
370.26435777689147
 21
74.418693165622187
 31
0.0
 11
370.21050737145049
 21
74.40419105850323
 31
0.0
 11
370.16191918131017
 21
74.389684817242298
 31
0.0
 11
370.12436722801488
 21
74.370115065081649
 31
0.0
 11
370.09081132825116
 21
74.336377076319906
 31
0.0
 11
370.07249558201414
 21
74.289395368310124
 31
0.0
 11
370.08869802239548
 21
74.240486859598221
 31
0.0
 11
370.12003000237013
 21
74.204077055509345
 31
0.0
 11
370.15274421440677
 21
74.186183467496789
 31
0.0
 11
370.21151856608265
 21
74.177320192079605
 31
0.0
 11
370.27880749693566
 21
74.178916348433205
 31
0.0
 11
370.40363394705196
 21
74.261722842591453
 31
0.0
 11
370.43311036178409
 21
74.477227295508214
 31
0.0
  0
SPLINE
  5
37F
100
AcDbEntity
  8
AM_0_10
  6
CONTINUOUS
 62
           7
100
AcDbSpline
210
0.0
220
0.0
230
1.0
 70
           0
 71
           3
 72
          28
 73
          25
 74
          47
 42
0.00000000001
 43
0.00000000001
 44
0.00000000001
 40
0.0
 40
0.0
 40
0.0
 40
0.0770777316933811
 40
0.1375320931413082
 40
0.189596241144822
 40
0.2423869951737738
 40
0.2911049080402114
 40
0.3392378931090027
 40
0.3954808967621676
 40
0.4560428022656538
 40
0.5166649995253512
 40
0.5883791481540155
 40
0.6887501165820401
 40
0.8135503439695933
 40
0.9375759859469234
 40
1.0524180137000663
 40
1.186061869456047
 40
1.3458723926149616
 40
1.4821426055800933
 40
1.5712950329136157
 40
1.6459949114078709
 40
1.7386389417454082
 40
1.8465622837050364
 40
1.956869735147089
 40
2.0791325529194546
 40
2.0791325529194546
 40
2.0791325529194546
 10
370.10359204360708
 20
74.638985718360203
 30
0.0
 10
370.11686968520411
 20
74.679089088704188
 30
0.0
 10
370.1540223431391
 20
74.738022675942204
 30
0.0
 10
370.19849899164598
 20
74.763469566738195
 30
0.0
 10
370.2505733440571
 20
74.772702605933205
 30
0.0
 10
370.30316821352898
 20
74.775948879046211
 30
0.0
 10
370.34759294238398
 20
74.770639573615199
 30
0.0
 10
370.39749340260909
 20
74.757802898316214
 30
0.0
 10
370.4329915996841
 20
74.708243742271208
 30
0.0
 10
370.43299116931212
 20
74.648080836307201
 30
0.0
 10
370.39748866481608
 20
74.598376506330197
 30
0.0
 10
370.31748228358413
 20
74.5788835366792
 30
0.0
 10
370.19939577881013
 20
74.570340483330199
 30
0.0
 10
370.07112937238509
 20
74.542725872760201
 30
0.0
 10
369.96251189645409
 20
74.499653588548199
 30
0.0
 10
369.87620565350812
 20
74.426964739141198
 30
0.0
 10
369.81710798261508
 20
74.284268739354189
 30
0.0
 10
369.87267948147212
 20
74.128726427466205
 30
0.0
 10
369.94875644914208
 20
74.052961028785205
 30
0.0
 10
370.01205527391409
 20
74.020942982936191
 30
0.0
 10
370.08734343054311
 20
73.998846007292201
 30
0.0
 10
370.19365675116512
 20
73.988411441060208
 30
0.0
 10
370.30170154287009
 20
74.002979643728196
 30
0.0
 10
370.40124411843908
 20
74.053419071739199
 30
0.0
 10
370.43311036178409
 20
74.111748779883214
 30
0.0
 11
370.10359204360708
 21
74.638985718360203
 31
0.0
 11
370.11875568274746
 21
74.677320350189518
 31
0.0
 11
370.13769131697461
 21
74.712117504989493
 31
0.0
 11
370.15591373120299
 21
74.734964433135119
 31
0.0
 11
370.1779189215593
 21
74.751694875666573
 31
0.0
 11
370.19981816115461
 21
74.761672026172619
 31
0.0
 11
370.22435573976713
 21
74.768054095547569
 31
0.0
 11
370.25085708523983
 21
74.771962543788604
 31
0.0
 11
370.27792591307798
 21
74.774390867740408
 31
0.0
 11
370.30244426723328
 21
74.774891704869049
 31
0.0
 11
370.32551472879743
 21
74.77327819364335
 31
0.0
 11
370.34782628804089
 21
74.769819320484203
 31
0.0
 11
370.37060453859829
 21
74.764719941063078
 31
0.0
 11
370.39504439147896
 21
74.75356632286082
 31
0.0
 11
370.41458622209916
 21
74.733939553747803
 31
0.0
 11
370.42839020151814
 21
74.707151073440954
 31
0.0
 11
370.4329913846052
 21
74.678177255473614
 31
0.0
 11
370.42892537142944
 21
74.649912654379875
 31
0.0
 11
370.41672776248822
 21
74.625311689431499
 31
0.0
 11
370.39396304449883
 21
74.603079444140178
 31
0.0
 11
370.36414708587517
 21
74.590253074468833
 31
0.0
 11
370.31598910024951
 21
74.580773896007599
 31
0.0
 11
370.26484474795473
 21
74.575075436203178
 31
0.0
 11
370.19967480924129
 21
74.568061649823946
 31
0.0
 11
370.13506293139
 21
74.556490196432165
 31
0.0
 11
370.07301358308302
 21
74.540575921092199
 31
0.0
 11
370.01473265617187
 21
74.520361742416185
 31
0.0
 11
369.96559510748506
 21
74.496432026314963
 31
0.0
 11
369.92262398086029
 21
74.466059185747298
 31
0.0
 11
369.88108172729528
 21
74.420491836016737
 31
0.0
 11
369.8492916213047
 21
74.361978680037197
 31
0.0
 11
369.83265261579561
 21
74.282707609593785
 31
0.0
 11
369.84710287664745
 21
74.200314279629566
 31
0.0
 11
369.87778264989237
 21
74.135173157513634
 31
0.0
 11
369.91866875997755
 21
74.082925495492518
 31
0.0
 11
369.94984478693743
 21
74.056096871833915
 31
0.0
 11
369.98319748948796
 21
74.035539934272705
 31
0.0
 11
370.01324271137702
 21
74.022126278915579
 31
0.0
 11
370.04566280819188
 21
74.011079215517242
 31
0.0
 11
370.08920006552722
 21
74.000699352306484
 31
0.0
 11
370.13645059283067
 21
73.994026179124319
 31
0.0
 11
370.1927132657089
 21
73.991616256724768
 31
0.0
 11
370.24708896767481
 21
73.995615965654395
 31
0.0
 11
370.29985159285229
 21
74.007119545377122
 31
0.0
 11
370.34891431799429
 21
74.026902928397732
 31
0.0
 11
370.39612822916411
 21
74.061372462939843
 31
0.0
 11
370.43311036178409
 21
74.111748779883214
 31
0.0
  0
SPLINE
  5
37E
100
AcDbEntity
  8
AM_0_10
  6
CONTINUOUS
 62
           7
100
AcDbSpline
210
0.0
220
0.0
230
1.0
 70
           0
 71
           3
 72
          18
 73
          15
 74
          27
 42
0.00000000001
 43
0.00000000001
 44
0.00000000001
 40
0.0
 40
0.0
 40
0.0
 40
0.2653124233020247
 40
0.4366862679616427
 40
0.5617709243429201
 40
0.6842520288556979
 40
0.8124128669016231
 40
0.9559059018089171
 40
1.1101351231013772
 40
1.2457993325854242
 40
1.3523376147525776
 40
1.4482252989273463
 40
1.5440478901952743
 40
1.6514829181749935
 40
1.7836342472392597
 40
1.7836342472392597
 40
1.7836342472392597
 10
369.88551056930311
 20
74.644982422461197
 30
0.0
 10
369.89016155971598
 20
74.803278053638195
 30
0.0
 10
370.06578413632212
 20
74.925378913669192
 30
0.0
 10
370.19268432516412
 20
74.947713921079213
 30
0.0
 10
370.31390871090809
 20
74.9524937698082
 30
0.0
 10
370.43572874712311
 20
74.931336620657191
 30
0.0
 10
370.55991981681808
 20
74.884645687320216
 30
0.0
 10
370.65828116894409
 20
74.765750736732201
 30
0.0
 10
370.67397309438212
 20
74.61240108258221
 30
0.0
 10
370.67259705302212
 20
74.495231166570193
 30
0.0
 10
370.67277840961708
 20
74.399332769556196
 30
0.0
 10
370.67281352884208
 20
74.303455976137201
 30
0.0
 10
370.67242128448311
 20
74.207688396725189
 30
0.0
 10
370.67527872325007
 20
74.088621005637208
 30
0.0
 10
370.7111045176681
 20
74.025475586524209
 30
0.0
 11
369.88551056930311
 21
74.644982422461197
 31
0.0
 11
369.91567405633526
 21
74.782249997545051
 31
0.0
 11
369.99686253660593
 21
74.877461460442575
 31
0.0
 11
370.06689304288415
 21
74.916627351283182
 31
0.0
 11
370.13914136228641
 21
74.938290117351727
 31
0.0
 11
370.194610991319
 21
74.945961734712427
 31
0.0
 11
370.25393395266133
 21
74.950128979339539
 31
0.0
 11
370.31379745925273
 21
74.949317858146458
 31
0.0
 11
370.37343846253339
 21
74.942154913629935
 31
0.0
 11
370.4348038887037
 21
74.928534232890982
 31
0.0
 11
370.4943195980353
 21
74.909308776619639
 31
0.0
 11
370.55537155405284
 21
74.876485525876475
 31
0.0
 11
370.60732698453978
 21
74.827341952245803
 31
0.0
 11
370.64762972898615
 21
74.760752254222112
 31
0.0
 11
370.66662959351657
 21
74.684165591178299
 31
0.0
 11
370.67194452960865
 21
74.613934694760275
 31
0.0
 11
370.67320233615396
 21
74.54677102269838
 31
0.0
 11
370.67277223613416
 21
74.495498121824653
 31
0.0
 11
370.67269250233835
 21
74.444759131459847
 31
0.0
 11
370.67276132419113
 21
74.398700691628946
 31
0.0
 11
370.67279597519172
 21
74.351378095943517
 31
0.0
 11
370.67276291107902
 21
74.304149478260896
 31
0.0
 11
370.67262861144008
 21
74.258307864825639
 31
0.0
 11
370.67279344854182
 21
74.206995249436332
 31
0.0
 11
370.67370261376107
 21
74.154296339469354
 31
0.0
 11
370.68384114448236
 21
74.089253484316998
 31
0.0
 11
370.7111045176681
 21
74.025475586524209
 31
0.0
  0
CIRCLE
  5
37D
100
AcDbEntity
  8
AM_0_4
  6
CONTINUOUS
 62
           7
100
AcDbCircle
 10
368.708985453336
 20
212.58972632382
 40
16.5
  0
CIRCLE
  5
37C
100
AcDbEntity
  8
AM_0_4
  6
CONTINUOUS
 62
           7
100
AcDbCircle
 10
368.708985453336
 20
212.58972632382
 40
6.0
  0
CIRCLE
  5
37B
100
AcDbEntity
  8
AM_0_4
  6
CONTINUOUS
 62
           7
100
AcDbCircle
 10
368.708985453336
 20
212.58972632382
 40
11.5
  0
CIRCLE
  5
37A
100
AcDbEntity
  8
AM_0_4
  6
CONTINUOUS
 62
           7
100
AcDbCircle
 10
368.708985453336
 20
212.58972632382
 40
12.5
  0
CIRCLE
  5
379
100
AcDbEntity
  8
AM_0_4
  6
CONTINUOUS
 62
           7
100
AcDbCircle
 10
368.708985453336
 20
212.58972632382
 40
14.5
  0
CIRCLE
  5
378
100
AcDbEntity
  8
AM_0_4
  6
CONTINUOUS
 62
           7
100
AcDbCircle
 10
368.708985453336
 20
212.58972632382
 40
16.0
  0
CIRCLE
  5
377
100
AcDbEntity
  8
AM_0_10
  6
CONTINUOUS
 62
           7
100
AcDbCircle
 10
378.709031229704
 20
89.141884888282
 40
2.75
  0
CIRCLE
  5
376
100
AcDbEntity
  8
AM_0_10
  6
CONTINUOUS
 62
           7
100
AcDbCircle
 10
374.108986025541
 20
80.841930593123
 40
0.199999928475
  0
CIRCLE
  5
375
100
AcDbEntity
  8
AM_0_10
  6
CONTINUOUS
 62
           7
100
AcDbCircle
 10
370.458985572546
 20
84.291927422156
 40
0.199999928474
  0
CIRCLE
  5
374
100
AcDbEntity
  8
AM_0_10
  6
CONTINUOUS
 62
           7
100
AcDbCircle
 10
368.708925141894
 20
79.141948546042
 40
0.34999999404
  0
CIRCLE
  5
373
100
AcDbEntity
  8
AM_0_10
  6
CONTINUOUS
 62
           7
100
AcDbCircle
 10
371.365497475355
 20
84.753006542792
 40
0.359808325767
  0
CIRCLE
  5
372
100
AcDbEntity
  8
AM_0_10
  6
CONTINUOUS
 62
           7
100
AcDbCircle
 10
373.688876276701
 20
75.642116631141
 40
0.199999928474
  0
CIRCLE
  5
371
100
AcDbEntity
  8
AM_0_10
  6
CONTINUOUS
 62
           7
100
AcDbCircle
 10
364.908985262602
 20
84.291927422156
 40
0.199999928474
  0
CIRCLE
  5
370
100
AcDbEntity
  8
AM_0_10
  6
CONTINUOUS
 62
           7
100
AcDbCircle
 10
361.458985453337
 20
80.841930593123
 40
0.199999928474
  0
CIRCLE
  5
36F
100
AcDbEntity
  8
AM_0_10
  6
CONTINUOUS
 62
           7
100
AcDbCircle
 10
358.708985453337
 20
69.141930664649
 40
2.75
  0
CIRCLE
  5
36E
100
AcDbEntity
  8
AM_0_10
  6
CONTINUOUS
 62
           7
100
AcDbCircle
 10
368.708985453336
 20
79.141930664649
 40
10.0
  0
CIRCLE
  5
36D
100
AcDbEntity
  8
AM_0_10
  6
CONTINUOUS
 62
           7
100
AcDbCircle
 10
368.708925141894
 20
79.141948546042
 40
1.75
  0
CIRCLE
  5
36C
100
AcDbEntity
  8
AM_0_4
  6
CONTINUOUS
 62
           7
100
AcDbCircle
 10
533.208985451286
 20
86.641932336604
 40
1.849999427795
  0
CIRCLE
  5
36B
100
AcDbEntity
  8
AM_0_4
  6
CONTINUOUS
 62
           7
100
AcDbCircle
 10
504.208985451286
 20
86.64193328433
 40
1.849999427795
  0
CIRCLE
  5
36A
100
AcDbEntity
  8
AM_0_4
  6
CONTINUOUS
 62
           7
100
AcDbCircle
 10
518.708985453337
 20
76.641933287304
 40
8.89999961853
  0
CIRCLE
  5
369
100
AcDbEntity
  8
AM_0_4
  6
CONTINUOUS
 62
           7
100
AcDbCircle
 10
518.708985453337
 20
76.641933287304
 40
7.39999961853
  0
CIRCLE
  5
368
100
AcDbEntity
  8
AM_0_4
  6
CONTINUOUS
 62
           7
100
AcDbCircle
 10
518.708985453337
 20
76.641933287304
 40
12.699999809265
  0
ARC
  5
367
100
AcDbEntity
  8
AM_0_4
  6
CONTINUOUS
 62
           7
100
AcDbCircle
 10
357.025224821202
 20
239.089726328613
 40
4.999999999999
100
AcDbArc
 50
109.994869685039
 51
134.999944082739
  0
ARC
  5
366
100
AcDbEntity
  8
AM_0_4
  6
CONTINUOUS
 62
           7
100
AcDbCircle
 10
380.392762319675
 20
239.089711060237
 40
5.000000000001
100
AcDbArc
 50
77.96023046521
 51
89.999983811639
  0
ARC
  5
365
100
AcDbEntity
  8
AM_0_4
  6
CONTINUOUS
 62
           7
100
AcDbCircle
 10
380.392698401755
 20
186.089726319028
 40
5.0
100
AcDbArc
 50
-70.005914879704
 51
-45.00002700264
  0
ARC
  5
364
100
AcDbEntity
  8
AM_0_4
  6
CONTINUOUS
 62
           7
100
AcDbCircle
 10
356.818260306458
 20
185.589741587488
 40
4.500000000001
100
AcDbArc
 50
-103.130924939519
 51
-89.999983858646
  0
ARC
  5
363
100
AcDbEntity
  8
AM_0_4
  6
CONTINUOUS
 62
           7
100
AcDbCircle
 10
381.708954947859
 20
243.479741577277
 40
0.5
100
AcDbArc
 50
0.000032306111
 51
89.999973339017
  0
ARC
  5
362
100
AcDbEntity
  8
AM_0_4
  6
CONTINUOUS
 62
           7
100
AcDbCircle
 10
380.392762319675
 20
239.089726319028
 40
4.5
100
AcDbArc
 50
45.0001089179
 51
66.196252253186
  0
ARC
  5
361
100
AcDbEntity
  8
AM_0_4
  6
CONTINUOUS
 62
           7
100
AcDbCircle
 10
380.392762319675
 20
239.089711060237
 40
5.0
100
AcDbArc
 50
45.000054276394
 51
70.006376087156
  0
ARC
  5
360
100
AcDbEntity
  8
AM_0_4
  6
CONTINUOUS
 62
           7
100
AcDbCircle
 10
399.708985462156
 20
234.089711052314
 40
0.5
100
AcDbArc
 50
0.000032306228
 51
89.99997333901
  0
ARC
  5
35F
100
AcDbEntity
  8
AM_0_4
  6
CONTINUOUS
 62
           7
100
AcDbCircle
 10
398.714966907468
 20
234.089711052722
 40
0.5
100
AcDbArc
 50
89.999983811651
 51
160.000077397963
  0
ARC
  5
35E
100
AcDbEntity
  8
AM_0_4
  6
CONTINUOUS
 62
           7
100
AcDbCircle
 10
399.608979356835
 20
229.689717155871
 40
0.5
100
AcDbArc
 50
0.000032306225
 51
89.999973339017
  0
ARC
  5
35D
100
AcDbEntity
  8
AM_0_4
  6
CONTINUOUS
 62
           7
100
AcDbCircle
 10
399.708985460515
 20
230.089711052314
 40
0.5
100
AcDbArc
 50
0.000032306228
 51
89.999973339017
  0
ARC
  5
35C
100
AcDbEntity
  8
AM_0_4
  6
CONTINUOUS
 62
           7
100
AcDbCircle
 10
395.708985460515
 20
230.089711053955
 40
0.5
100
AcDbArc
 50
89.999983811651
 51
125.452978868536
  0
ARC
  5
35B
100
AcDbEntity
  8
AM_0_4
  6
CONTINUOUS
 62
           7
100
AcDbCircle
 10
395.863831652167
 20
230.689717157407
 40
0.5
100
AcDbArc
 50
-134.999998771284
 51
-89.999983858635
  0
ARC
  5
35A
100
AcDbEntity
  8
AM_0_4
  6
CONTINUOUS
 62
           7
100
AcDbCircle
 10
397.408982401579
 20
212.589695794469
 40
0.349999964237
100
AcDbArc
 50
-60.000201589869
 51
59.999050428665
  0
ARC
  5
359
100
AcDbEntity
  8
AM_0_4
  6
CONTINUOUS
 62
           7
100
AcDbCircle
 10
393.458970193611
 20
210.309162959176
 40
0.349999964237
100
AcDbArc
 50
-179.99848873035
 51
-60.000693363533
  0
ARC
  5
358
100
AcDbEntity
  8
AM_0_4
  6
CONTINUOUS
 62
           7
100
AcDbCircle
 10
393.458985454272
 20
214.870227679329
 40
0.349999964238
100
AcDbArc
 50
59.99965512781
 51
-179.999434939143
  0
ARC
  5
357
100
AcDbEntity
  8
AM_0_4
  6
CONTINUOUS
 62
           7
100
AcDbCircle
 10
389.508988504847
 20
211.989720211772
 40
0.399999976158
100
AcDbArc
 50
179.999964004212
 51
-90.000052160505
  0
ARC
  5
356
100
AcDbEntity
  8
AM_0_4
  6
CONTINUOUS
 62
           7
100
AcDbCircle
 10
389.50898850534
 20
213.18971710041
 40
0.399999976158
100
AcDbArc
 50
89.999983811645
 51
179.999964004354
  0
ARC
  5
355
100
AcDbEntity
  8
AM_0_4
  6
CONTINUOUS
 62
           7
100
AcDbCircle
 10
392.708970193972
 20
211.189717158702
 40
0.399999976158
100
AcDbArc
 50
0.000032306226
 51
89.999973338983
  0
ARC
  5
354
100
AcDbEntity
  8
AM_0_4
  6
CONTINUOUS
 62
           7
100
AcDbCircle
 10
392.708985453911
 20
213.989719256785
 40
0.399999976158
100
AcDbArc
 50
-89.99998385865
 51
-0.000035995645
  0
ARC
  5
353
100
AcDbEntity
  8
AM_0_4
  6
CONTINUOUS
 62
           7
100
AcDbCircle
 10
399.608964084017
 20
195.489750725208
 40
0.5
100
AcDbArc
 50
-89.999983858628
 51
-0.000035995732
  0
ARC
  5
352
100
AcDbEntity
  8
AM_0_4
  6
CONTINUOUS
 62
           7
100
AcDbCircle
 10
395.863816378529
 20
194.489750726744
 40
0.5
100
AcDbArc
 50
89.999983811651
 51
134.999397667588
  0
ARC
  5
351
100
AcDbEntity
  8
AM_0_4
  6
CONTINUOUS
 62
           7
100
AcDbCircle
 10
395.708970187368
 20
195.089726312745
 40
0.5
100
AcDbArc
 50
-131.362185377731
 51
-89.999983858635
  0
ARC
  5
350
100
AcDbEntity
  8
AM_0_4
  6
CONTINUOUS
 62
           7
100
AcDbCircle
 10
399.708970185727
 20
191.089726311104
 40
0.5
100
AcDbArc
 50
-89.999983858628
 51
-0.000035995729
  0
ARC
  5
34F
100
AcDbEntity
  8
AM_0_4
  6
CONTINUOUS
 62
           7
100
AcDbCircle
 10
398.71495163104
 20
191.089726311512
 40
0.5
100
AcDbArc
 50
-160.000077444943
 51
-89.999983858635
  0
ARC
  5
34E
100
AcDbEntity
  8
AM_0_4
  6
CONTINUOUS
 62
           7
100
AcDbCircle
 10
399.708970187368
 20
195.089726311104
 40
0.5
100
AcDbArc
 50
-89.999983858635
 51
-0.000035995729
  0
ARC
  5
34D
100
AcDbEntity
  8
AM_0_4
  6
CONTINUOUS
 62
           7
100
AcDbCircle
 10
387.221146698989
 20
190.089726316226
 40
2.499999999999
100
AcDbArc
 50
-89.999983858656
 51
-44.999890398851
  0
ARC
  5
34C
100
AcDbEntity
  8
AM_0_4
  6
CONTINUOUS
 62
           7
100
AcDbCircle
 10
381.708953969982
 20
181.699741577278
 40
0.5
100
AcDbArc
 50
-89.999983858628
 51
-0.000035995729
  0
ARC
  5
34B
100
AcDbEntity
  8
AM_0_4
  6
CONTINUOUS
 62
           7
100
AcDbCircle
 10
380.392698401755
 20
186.089726319028
 40
5.0
100
AcDbArc
 50
-89.999983858645
 51
-76.61331525468
  0
ARC
  5
34A
100
AcDbEntity
  8
AM_0_4
  6
CONTINUOUS
 62
           7
100
AcDbCircle
 10
380.392725104636
 20
186.089726319028
 40
4.5
100
AcDbArc
 50
-66.195960310496
 51
-44.999999681881
  0
ARC
  5
349
100
AcDbEntity
  8
AM_0_4
  6
CONTINUOUS
 62
           7
100
AcDbCircle
 10
387.221192493816
 20
235.089726316226
 40
2.5
100
AcDbArc
 50
45.000054276383
 51
89.999983811625
  0
ARC
  5
348
100
AcDbEntity
  8
AM_0_4
  6
CONTINUOUS
 62
           7
100
AcDbCircle
 10
355.708971160324
 20
243.47977210552
 40
0.5
100
AcDbArc
 50
89.999983811638
 51
179.999964004385
  0
ARC
  5
347
100
AcDbEntity
  8
AM_0_4
  6
CONTINUOUS
 62
           7
100
AcDbCircle
 10
357.025209562413
 20
239.089741587402
 40
4.5
100
AcDbArc
 50
113.803535371451
 51
134.999998724261
  0
ARC
  5
346
100
AcDbEntity
  8
AM_0_4
  6
CONTINUOUS
 62
           7
100
AcDbCircle
 10
357.025224821202
 20
239.089726328613
 40
5.0
100
AcDbArc
 50
89.999983811639
 51
103.385416216804
  0
ARC
  5
345
100
AcDbEntity
  8
AM_0_4
  6
CONTINUOUS
 62
           7
100
AcDbCircle
 10
355.708954923657
 20
181.699772105521
 40
0.499999999999
100
AcDbArc
 50
179.999964004268
 51
-90.000052160468
  0
ARC
  5
344
100
AcDbEntity
  8
AM_0_4
  6
CONTINUOUS
 62
           7
100
AcDbCircle
 10
341.709000719305
 20
230.089726334896
 40
0.5
100
AcDbArc
 50
49.887628363385
 51
89.999983811651
  0
ARC
  5
343
100
AcDbEntity
  8
AM_0_4
  6
CONTINUOUS
 62
           7
100
AcDbCircle
 10
338.703019275633
 20
234.089726336129
 40
0.5
100
AcDbArc
 50
19.999977310286
 51
90.000038453158
  0
ARC
  5
342
100
AcDbEntity
  8
AM_0_4
  6
CONTINUOUS
 62
           7
100
AcDbCircle
 10
341.554154528144
 20
230.689732438474
 40
0.5
100
AcDbArc
 50
-89.999983858635
 51
-44.999398625185
  0
ARC
  5
341
100
AcDbEntity
  8
AM_0_4
  6
CONTINUOUS
 62
           7
100
AcDbCircle
 10
350.196808930436
 20
190.089741590204
 40
2.5
100
AcDbArc
 50
-134.999998771267
 51
-89.999983858656
  0
ARC
  5
340
100
AcDbEntity
  8
AM_0_4
  6
CONTINUOUS
 62
           7
100
AcDbCircle
 10
341.554169772084
 20
194.489766007811
 40
0.5
100
AcDbArc
 50
45.000054276434
 51
89.999983811651
  0
ARC
  5
33F
100
AcDbEntity
  8
AM_0_4
  6
CONTINUOUS
 62
           7
100
AcDbCircle
 10
341.708985446158
 20
195.089741593686
 40
0.5
100
AcDbArc
 50
-89.999983858635
 51
-44.022572290978
  0
ARC
  5
33E
100
AcDbEntity
  8
AM_0_4
  6
CONTINUOUS
 62
           7
100
AcDbCircle
 10
338.703003999205
 20
191.089741594919
 40
0.5
100
AcDbArc
 50
-89.999983858641
 51
-19.999922715791
  0
ARC
  5
33D
100
AcDbEntity
  8
AM_0_4
  6
CONTINUOUS
 62
           7
100
AcDbCircle
 10
357.02553378994
 20
186.089741587403
 40
4.5
100
AcDbArc
 50
-135.000108054289
 51
-113.808260143229
  0
ARC
  5
33C
100
AcDbEntity
  8
AM_0_4
  6
CONTINUOUS
 62
           7
100
AcDbCircle
 10
356.818260306458
 20
185.589741587488
 40
4.5
100
AcDbArc
 50
-135.000108054289
 51
-108.702271126435
  0
ARC
  5
33B
100
AcDbEntity
  8
AM_0_4
  6
CONTINUOUS
 62
           7
100
AcDbCircle
 10
350.196793690106
 20
235.089741590203
 40
2.5
100
AcDbArc
 50
89.999983811628
 51
134.999998724256
  0
ARC
  5
33A
100
AcDbEntity
  8
AM_0_4
  6
CONTINUOUS
 62
           7
100
AcDbCircle
 10
337.709000720946
 20
234.089726336537
 40
0.5
100
AcDbArc
 50
90.000038453158
 51
179.999964004385
  0
ARC
  5
339
100
AcDbEntity
  8
AM_0_4
  6
CONTINUOUS
 62
           7
100
AcDbCircle
 10
337.809006822656
 20
229.689732440011
 40
0.5
100
AcDbArc
 50
89.999983811638
 51
179.999964004385
  0
ARC
  5
338
100
AcDbEntity
  8
AM_0_4
  6
CONTINUOUS
 62
           7
100
AcDbCircle
 10
337.709000719305
 20
230.089726336537
 40
0.5
100
AcDbArc
 50
90.000038453171
 51
179.999964004385
  0
ARC
  5
337
100
AcDbEntity
  8
AM_0_4
  6
CONTINUOUS
 62
           7
100
AcDbCircle
 10
337.808991549838
 20
195.489766009348
 40
0.5
100
AcDbArc
 50
-179.999964051255
 51
-89.999983858641
  0
ARC
  5
336
100
AcDbEntity
  8
AM_0_4
  6
CONTINUOUS
 62
           7
100
AcDbCircle
 10
337.708985444517
 20
191.089741595327
 40
0.5
100
AcDbArc
 50
-179.999964051252
 51
-89.999983858648
  0
ARC
  5
335
100
AcDbEntity
  8
AM_0_4
  6
CONTINUOUS
 62
           7
100
AcDbCircle
 10
337.708985446158
 20
195.089741595327
 40
0.5
100
AcDbArc
 50
-179.999964051252
 51
-89.999983858648
  0
ARC
  5
334
100
AcDbEntity
  8
AM_0_10
  6
CONTINUOUS
 62
           7
100
AcDbCircle
 10
371.365497475355
 20
84.753006542792
 40
0.661080956459
100
AcDbArc
 50
-91.681356021531
 51
132.544793221835
  0
ARC
  5
333
100
AcDbEntity
  8
AM_0_10
  6
CONTINUOUS
 62
           7
100
AcDbCircle
 10
372.488876467436
 20
77.442116702666
 40
0.471226811409
100
AcDbArc
 50
-89.999982014016
 51
0.0
  0
ARC
  5
332
100
AcDbEntity
  8
AM_0_10
  6
CONTINUOUS
 62
           7
100
AcDbCircle
 10
369.233984237402
 20
75.019436443915
 40
0.247500211
100
AcDbArc
 50
-89.999982014006
 51
89.999982014006
  0
ARC
  5
331
100
AcDbEntity
  8
AM_0_10
  6
CONTINUOUS
 62
           7
100
AcDbCircle
 10
369.233984237402
 20
75.019436443915
 40
0.472500175237
100
AcDbArc
 50
-89.999982013982
 51
89.999982013982
  0
ARC
  5
330
100
AcDbEntity
  8
AM_0_10
  6
CONTINUOUS
 62
           7
100
AcDbCircle
 10
380.708985453336
 20
91.141926849951
 40
2.0
100
AcDbArc
 50
0.0
 51
89.999982013909
  0
ARC
  5
32F
100
AcDbEntity
  8
AM_0_10
  6
CONTINUOUS
 62
           7
100
AcDbCircle
 10
380.708985453336
 20
91.141944969763
 40
1.5
100
AcDbArc
 50
0.000035972163
 51
89.999982013899
  0
ARC
  5
32E
100
AcDbEntity
  8
AM_0_10
  6
CONTINUOUS
 62
           7
100
AcDbCircle
 10
380.708985453336
 20
67.141930664649
 40
2.0
100
AcDbArc
 50
-89.99998201388
 51
0.0
  0
ARC
  5
32D
100
AcDbEntity
  8
AM_0_10
  6
CONTINUOUS
 62
           7
100
AcDbCircle
 10
380.708969240872
 20
67.141945923439
 40
1.5
100
AcDbArc
 50
-89.999982013899
 51
-0.000035972163
  0
ARC
  5
32C
100
AcDbEntity
  8
AM_0_10
  6
CONTINUOUS
 62
           7
100
AcDbCircle
 10
356.708986407012
 20
91.141961182227
 40
1.5
100
AcDbArc
 50
89.999982013938
 51
179.999909386304
  0
ARC
  5
32B
100
AcDbEntity
  8
AM_0_10
  6
CONTINUOUS
 62
           7
100
AcDbCircle
 10
356.708985453337
 20
91.141926849951
 40
2.0
100
AcDbArc
 50
89.999982013909
 51
179.999964027818
  0
ARC
  5
32A
100
AcDbEntity
  8
AM_0_10
  6
CONTINUOUS
 62
           7
100
AcDbCircle
 10
361.558606272428
 20
82.920041168799
 40
1.922685146332
100
AcDbArc
 50
-57.852685817247
 51
-43.94272211967
  0
ARC
  5
329
100
AcDbEntity
  8
AM_0_10
  6
CONTINUOUS
 62
           7
100
AcDbCircle
 10
362.435705786436
 20
81.991963232627
 40
0.649853348732
100
AcDbArc
 50
-38.68093562835
 51
-174.614513773838
  0
ARC
  5
328
100
AcDbEntity
  8
AM_0_10
  6
CONTINUOUS
 62
           7
100
AcDbCircle
 10
363.121638899534
 20
80.391698087325
 40
1.049938082695
100
AcDbArc
 50
120.950246577411
 51
148.394875568239
  0
ARC
  5
327
100
AcDbEntity
  8
AM_0_10
  6
CONTINUOUS
 62
           7
100
AcDbCircle
 10
363.054561739652
 20
80.387107099166
 40
1.320398807525
100
AcDbArc
 50
118.622927919571
 51
168.872656964141
  0
ARC
  5
326
100
AcDbEntity
  8
AM_0_10
  6
CONTINUOUS
 62
           7
100
AcDbCircle
 10
362.435705786436
 20
81.991963232627
 40
0.349853277207
100
AcDbArc
 50
-36.674318257861
 51
-170.203031192672
  0
ARC
  5
325
100
AcDbEntity
  8
AM_0_10
  6
CONTINUOUS
 62
           7
100
AcDbCircle
 10
361.558606272428
 20
82.920041168799
 40
1.622685074806
100
AcDbArc
 50
-57.852651666279
 51
-44.484069252876
  0
ARC
  5
324
100
AcDbEntity
  8
AM_0_10
  6
CONTINUOUS
 62
           7
100
AcDbCircle
 10
360.509687548368
 20
76.157682264914
 40
0.099999964237
100
AcDbArc
 50
114.499508566623
 51
-74.499649976338
  0
ARC
  5
323
100
AcDbEntity
  8
AM_0_10
  6
CONTINUOUS
 62
           7
100
AcDbCircle
 10
356.708985453337
 20
67.141930664649
 40
2.0
100
AcDbArc
 50
179.999977688193
 51
-89.999971996
  0
ARC
  5
322
100
AcDbEntity
  8
AM_0_10
  6
CONTINUOUS
 62
           7
100
AcDbCircle
 10
356.708970194548
 20
67.141961182228
 40
1.500000000001
100
AcDbArc
 50
179.999909386305
 51
-90.000108599794
  0
ARC
  5
321
100
AcDbEntity
  8
AM_0_10
  6
CONTINUOUS
 62
           7
100
AcDbCircle
 10
368.708925141894
 20
79.141948546042
 40
2.000000000001
100
AcDbArc
 50
47.597310457721
 51
-178.597442965745
  0
ARC
  5
320
100
AcDbEntity
  8
AM_0_10
  6
CONTINUOUS
 62
           7
100
AcDbCircle
 10
368.708925141894
 20
79.141948546042
 40
1.999999999999
100
AcDbArc
 50
-141.402756273369
 51
-7.597409805329
  0
ARC
  5
31F
100
AcDbEntity
  8
AM_0_4
  6
CONTINUOUS
 62
           7
100
AcDbCircle
 10
549.602219703092
 20
92.113857121766
 40
0.500000000001
100
AcDbArc
 50
0.000093129937
 51
90.000036667113
  0
ARC
  5
31E
100
AcDbEntity
  8
AM_0_4
  6
CONTINUOUS
 62
           7
100
AcDbCircle
 10
549.602189190847
 20
66.113857121766
 40
0.500000000001
100
AcDbArc
 50
-89.999813751929
 51
0.000093129937
  0
ARC
  5
31D
100
AcDbEntity
  8
AM_0_4
  6
CONTINUOUS
 62
           7
100
AcDbCircle
 10
548.70900071491
 20
63.06460175049
 40
1.0
100
AcDbArc
 50
-0.000016153112
 51
59.999988931627
  0
ARC
  5
31C
100
AcDbEntity
  8
AM_0_4
  6
CONTINUOUS
 62
           7
100
AcDbCircle
 10
549.708970200084
 20
49.641933293663
 40
0.5
100
AcDbArc
 50
-89.999977676417
 51
-0.000036643744
  0
ARC
  5
31B
100
AcDbEntity
  8
AM_0_4
  6
CONTINUOUS
 62
           7
100
AcDbCircle
 10
549.708970199264
 20
53.641933293663
 40
0.5
100
AcDbArc
 50
-0.000016153171
 51
89.999982025626
  0
ARC
  5
31A
100
AcDbEntity
  8
AM_0_4
  6
CONTINUOUS
 62
           7
100
AcDbCircle
 10
534.217652440498
 20
101.141933290485
 40
0.5
100
AcDbArc
 50
1.000012333918
 51
89.99943561044
  0
ARC
  5
319
100
AcDbEntity
  8
AM_0_4
  6
CONTINUOUS
 62
           7
100
AcDbCircle
 10
532.009003757303
 20
108.720500794914
 40
0.199999988079
100
AcDbArc
 50
-0.000036643518
 51
74.999683698093
  0
ARC
  5
318
100
AcDbEntity
  8
AM_0_4
  6
CONTINUOUS
 62
           7
100
AcDbCircle
 10
533.008988499374
 20
104.526454774612
 40
0.199999988079
100
AcDbArc
 50
-0.000036643518
 51
60.000043573179
  0
ARC
  5
317
100
AcDbEntity
  8
AM_0_4
  6
CONTINUOUS
 62
           7
100
AcDbCircle
 10
532.709000706205
 20
105.507945863418
 40
0.5
100
AcDbArc
 50
-179.999963332763
 51
-119.999920681971
  0
ARC
  5
316
100
AcDbEntity
  8
AM_0_4
  6
CONTINUOUS
 62
           7
100
AcDbCircle
 10
525.45898545479
 20
69.556361999626
 40
39.317626953125
100
AcDbArc
 50
83.306724544971
 51
96.693239620041
  0
ARC
  5
315
100
AcDbEntity
  8
AM_0_4
  6
CONTINUOUS
 62
           7
100
AcDbCircle
 10
525.458985443821
 20
123.036693420524
 40
18.394744873047
100
AcDbArc
 50
-104.4258326196
 51
-75.574130018225
  0
ARC
  5
314
100
AcDbEntity
  8
AM_0_4
  6
CONTINUOUS
 62
           7
100
AcDbCircle
 10
533.709000706485
 20
104.141918031591
 40
0.5
100
AcDbArc
 50
-179.999963332878
 51
-89.999981318933
  0
ARC
  5
313
100
AcDbEntity
  8
AM_0_4
  6
CONTINUOUS
 62
           7
100
AcDbCircle
 10
537.208985451222
 20
86.950938074729
 40
0.5
100
AcDbArc
 50
179.999906893558
 51
-116.564677038922
  0
ARC
  5
312
100
AcDbEntity
  8
AM_0_4
  6
CONTINUOUS
 62
           7
100
AcDbCircle
 10
540.208985451759
 20
84.332911341946
 40
0.5
100
AcDbArc
 50
-0.000016153057
 51
63.435353810586
  0
ARC
  5
311
100
AcDbEntity
  8
AM_0_4
  6
CONTINUOUS
 62
           7
100
AcDbCircle
 10
547.243790752851
 20
68.529323429876
 40
3.0
100
AcDbArc
 50
-178.999914355296
 51
-120.000029965038
  0
ARC
  5
310
100
AcDbEntity
  8
AM_0_4
  6
CONTINUOUS
 62
           7
100
AcDbCircle
 10
547.718918926736
 20
68.255031437786
 40
3.0
100
AcDbArc
 50
-178.999914355295
 51
-120.000193889607
  0
ARC
  5
30F
100
AcDbEntity
  8
AM_0_4
  6
CONTINUOUS
 62
           7
100
AcDbCircle
 10
540.208970196124
 20
68.950939029019
 40
0.5
100
AcDbArc
 50
-63.435459541249
 51
-0.000036643631
  0
ARC
  5
30E
100
AcDbEntity
  8
AM_0_4
  6
CONTINUOUS
 62
           7
100
AcDbCircle
 10
537.208970196661
 20
66.332912295006
 40
0.5
100
AcDbArc
 50
116.564499363904
 51
179.999906893554
  0
ARC
  5
30D
100
AcDbEntity
  8
AM_0_4
  6
CONTINUOUS
 62
           7
100
AcDbCircle
 10
533.208985451286
 20
86.641918031489
 40
1.75
100
AcDbArc
 50
-91.269194391259
 51
-89.999981318922
  0
ARC
  5
30C
100
AcDbEntity
  8
AM_0_4
  6
CONTINUOUS
 62
           7
100
AcDbCircle
 10
543.217621923433
 20
98.641918033541
 40
0.5
100
AcDbArc
 50
1.000196748998
 51
89.999927384125
  0
ARC
  5
30B
100
AcDbEntity
  8
AM_0_4
  6
CONTINUOUS
 62
           7
100
AcDbCircle
 10
549.143616805505
 20
54.641933293547
 40
0.500000000001
100
AcDbArc
 50
-179.998214804345
 51
-89.999981318946
  0
ARC
  5
30A
100
AcDbEntity
  8
AM_0_4
  6
CONTINUOUS
 62
           7
100
AcDbCircle
 10
505.409012912578
 20
108.720516048248
 40
0.199999988079
100
AcDbArc
 50
105.000551966932
 51
179.999961535336
  0
ARC
  5
309
100
AcDbEntity
  8
AM_0_4
  6
CONTINUOUS
 62
           7
100
AcDbCircle
 10
504.709000706206
 20
105.507945857675
 40
0.5
100
AcDbArc
 50
-60.00009295483
 51
-0.00003664363
  0
ARC
  5
308
100
AcDbEntity
  8
AM_0_4
  6
CONTINUOUS
 62
           7
100
AcDbCircle
 10
504.409012913438
 20
104.526454768746
 40
0.19999998808
100
AcDbArc
 50
120.000632638811
 51
179.999961535051
  0
ARC
  5
307
100
AcDbEntity
  8
AM_0_4
  6
CONTINUOUS
 62
           7
100
AcDbCircle
 10
503.200318456125
 20
101.141918025334
 40
0.5
100
AcDbArc
 50
90.001184139096
 51
179.000021840657
  0
ARC
  5
306
100
AcDbEntity
  8
AM_0_4
  6
CONTINUOUS
 62
           7
100
AcDbCircle
 10
503.709000706486
 20
104.141918025438
 40
0.5
100
AcDbArc
 50
-89.999977676417
 51
-0.000036643631
  0
ARC
  5
305
100
AcDbEntity
  8
AM_0_4
  6
CONTINUOUS
 62
           7
100
AcDbCircle
 10
511.95898545479
 20
69.556361996858
 40
39.317626953124
100
AcDbArc
 50
83.306724544971
 51
96.693239620041
  0
ARC
  5
304
100
AcDbEntity
  8
AM_0_4
  6
CONTINUOUS
 62
           7
100
AcDbCircle
 10
511.958985443821
 20
123.036693417755
 40
18.394744873046
100
AcDbArc
 50
-104.425832619601
 51
-75.574130018224
  0
ARC
  5
303
100
AcDbEntity
  8
AM_0_4
  6
CONTINUOUS
 62
           7
100
AcDbCircle
 10
500.209000710012
 20
86.950939020814
 40
0.5
100
AcDbArc
 50
-63.435404899707
 51
-0.000036643628
  0
ARC
  5
302
100
AcDbEntity
  8
AM_0_4
  6
CONTINUOUS
 62
           7
100
AcDbCircle
 10
497.209000710549
 20
84.332912286801
 40
0.5
100
AcDbArc
 50
116.564499363904
 51
179.999906893554
  0
ARC
  5
301
100
AcDbEntity
  8
AM_0_4
  6
CONTINUOUS
 62
           7
100
AcDbCircle
 10
487.819046485826
 20
92.141918975854
 40
0.5
100
AcDbArc
 50
90.00003666712
 51
-179.99998382334
  0
ARC
  5
300
100
AcDbEntity
  8
AM_0_4
  6
CONTINUOUS
 62
           7
100
AcDbCircle
 10
500.208985455451
 20
66.332927546206
 40
0.5
100
AcDbArc
 50
-0.000016153057
 51
63.435299169044
  0
ARC
  5
2FF
100
AcDbEntity
  8
AM_0_4
  6
CONTINUOUS
 62
           7
100
AcDbCircle
 10
497.208985454914
 20
68.950954278988
 40
0.5
100
AcDbArc
 50
179.999906893558
 51
-116.564677039072
  0
ARC
  5
2FE
100
AcDbEntity
  8
AM_0_4
  6
CONTINUOUS
 62
           7
100
AcDbCircle
 10
490.17418015715
 20
68.52932341817
 40
2.999999999999
100
AcDbArc
 50
-59.999929030304
 51
-1.000051470243
  0
ARC
  5
2FD
100
AcDbEntity
  8
AM_0_4
  6
CONTINUOUS
 62
           7
100
AcDbCircle
 10
489.699051983378
 20
68.255031425886
 40
3.0
100
AcDbArc
 50
-59.999765105763
 51
-1.000051470262
  0
ARC
  5
2FC
100
AcDbEntity
  8
AM_0_4
  6
CONTINUOUS
 62
           7
100
AcDbCircle
 10
487.819061749948
 20
66.141918975854
 40
0.500000000001
100
AcDbArc
 50
-179.999908691269
 51
-89.999926677446
  0
ARC
  5
2FB
100
AcDbEntity
  8
AM_0_4
  6
CONTINUOUS
 62
           7
100
AcDbCircle
 10
488.708985456121
 20
63.064651329247
 40
1.0
100
AcDbArc
 50
120.000072563517
 51
-179.999999988254
  0
ARC
  5
2FA
100
AcDbEntity
  8
AM_0_4
  6
CONTINUOUS
 62
           7
100
AcDbCircle
 10
487.708985458874
 20
49.641948539736
 40
0.5
100
AcDbArc
 50
-179.999963332876
 51
-89.999981318829
  0
ARC
  5
2F9
100
AcDbEntity
  8
AM_0_4
  6
CONTINUOUS
 62
           7
100
AcDbCircle
 10
487.708985458054
 20
53.641948539736
 40
0.5
100
AcDbArc
 50
89.999982025639
 51
179.999961535052
  0
ARC
  5
2F8
100
AcDbEntity
  8
AM_0_4
  6
CONTINUOUS
 62
           7
100
AcDbCircle
 10
488.274338851404
 20
54.641948539852
 40
0.5
100
AcDbArc
 50
-89.999977676417
 51
-0.003499549551
  0
ARC
  5
2F7
100
AcDbEntity
  8
AM_0_4
  6
CONTINUOUS
 62
           7
100
AcDbCircle
 10
494.200348974215
 20
98.641902764699
 40
0.499999999999
100
AcDbArc
 50
89.999927384145
 51
178.999748633041
  0
ARC
  5
2F6
100
AcDbEntity
  8
AM_0_4
  6
CONTINUOUS
 62
           7
100
AcDbCircle
 10
549.208970201823
 20
41.163204045514
 40
0.5
100
AcDbArc
 50
-60.000147596345
 51
-0.000091285125
  0
ARC
  5
2F5
100
AcDbEntity
  8
AM_0_4
  6
CONTINUOUS
 62
           7
100
AcDbCircle
 10
549.708970202001
 20
40.297176213585
 40
0.5
100
AcDbArc
 50
119.999922299471
 51
179.999961535166
  0
ARC
  5
2F4
100
AcDbEntity
  8
AM_0_4
  6
CONTINUOUS
 62
           7
100
AcDbCircle
 10
548.908982410547
 20
32.913493962445
 40
0.300000011922
100
AcDbArc
 50
-79.680381463132
 51
-0.000002492746
  0
ARC
  5
2F3
100
AcDbEntity
  8
AM_0_4
  6
CONTINUOUS
 62
           7
100
AcDbCircle
 10
548.908967151758
 20
32.913509221234
 40
0.300000011922
100
AcDbArc
 50
-79.680326821679
 51
0.000017997752
  0
ARC
  5
2F2
100
AcDbEntity
  8
AM_0_4
  6
CONTINUOUS
 62
           7
100
AcDbCircle
 10
546.615006579598
 20
37.163188786193
 40
0.5
100
AcDbArc
 50
179.999961535048
 51
-90.000158903878
  0
ARC
  5
2F1
100
AcDbEntity
  8
AM_0_4
  6
CONTINUOUS
 62
           7
100
AcDbCircle
 10
536.593720568855
 20
37.163204042927
 40
0.500000000001
100
AcDbArc
 50
-90.000090601934
 51
-0.000081267302
  0
ARC
  5
2F0
100
AcDbEntity
  8
AM_0_4
  6
CONTINUOUS
 62
           7
100
AcDbCircle
 10
541.262253895333
 20
30.91131195404
 40
0.300000011921
100
AcDbArc
 50
100.319523654247
 51
177.999972863046
  0
ARC
  5
2EF
100
AcDbEntity
  8
AM_0_4
  6
CONTINUOUS
 62
           7
100
AcDbCircle
 10
539.854127062626
 20
38.963207095352
 40
1.599999427795
100
AcDbArc
 50
-90.000090601917
 51
-5.000052947266
  0
ARC
  5
2EE
100
AcDbEntity
  8
AM_0_4
  6
CONTINUOUS
 62
           7
100
AcDbCircle
 10
537.686127802492
 20
2.673381655455
 40
0.5
100
AcDbArc
 50
105.000005551806
 51
176.50858739753
  0
ARC
  5
2ED
100
AcDbEntity
  8
AM_0_4
  6
CONTINUOUS
 62
           7
100
AcDbCircle
 10
534.917435791829
 20
-26.282917173231
 40
0.5
100
AcDbArc
 50
-70.000200239492
 51
-3.491246856841
  0
ARC
  5
2EC
100
AcDbEntity
  8
AM_0_4
  6
CONTINUOUS
 62
           7
100
AcDbCircle
 10
548.708970202644
 20
37.163204045412
 40
0.500000000001
100
AcDbArc
 50
-90.000090601934
 51
-0.000081267302
  0
ARC
  5
2EB
100
AcDbEntity
  8
AM_0_4
  6
CONTINUOUS
 62
           7
100
AcDbCircle
 10
500.824250354013
 20
37.16320403559
 40
0.500000000001
100
AcDbArc
 50
-179.999908691383
 51
-89.999872035946
  0
ARC
  5
2EA
100
AcDbEntity
  8
AM_0_4
  6
CONTINUOUS
 62
           7
100
AcDbCircle
 10
497.563843859503
 20
38.963207086678
 40
1.599999427796
100
AcDbArc
 50
-174.999937011318
 51
-89.999872035882
  0
ARC
  5
2E9
100
AcDbEntity
  8
AM_0_4
  6
CONTINUOUS
 62
           7
100
AcDbCircle
 10
496.15570177131
 20
30.911311944789
 40
0.30000001192
100
AcDbArc
 50
35.71289150725
 51
79.680495152298
  0
ARC
  5
2E8
100
AcDbEntity
  8
AM_0_4
  6
CONTINUOUS
 62
           7
100
AcDbCircle
 10
496.15570177131
 20
30.911327203578
 40
0.300000011921
100
AcDbArc
 50
2.000061311214
 51
79.680495152264
  0
ARC
  5
2E7
100
AcDbEntity
  8
AM_0_4
  6
CONTINUOUS
 62
           7
100
AcDbCircle
 10
490.80296434327
 20
37.163188774746
 40
0.5
100
AcDbArc
 50
-89.999868393429
 51
0.000017997866
  0
ARC
  5
2E6
100
AcDbEntity
  8
AM_0_4
  6
CONTINUOUS
 62
           7
100
AcDbCircle
 10
488.209000719403
 20
41.163204033003
 40
0.5
100
AcDbArc
 50
-179.999908691265
 51
-119.999811398991
  0
ARC
  5
2E5
100
AcDbEntity
  8
AM_0_4
  6
CONTINUOUS
 62
           7
100
AcDbCircle
 10
487.709000719581
 20
40.297176200868
 40
0.5
100
AcDbArc
 50
0.000017997866
 51
60.00004357316
  0
ARC
  5
2E4
100
AcDbEntity
  8
AM_0_4
  6
CONTINUOUS
 62
           7
100
AcDbCircle
 10
488.709000720224
 20
37.163204033105
 40
0.500000000001
100
AcDbArc
 50
-179.999908691383
 51
-89.999872035946
  0
ARC
  5
2E3
100
AcDbEntity
  8
AM_0_4
  6
CONTINUOUS
 62
           7
100
AcDbCircle
 10
488.508988514063
 20
32.913493950056
 40
0.300000011921
100
AcDbArc
 50
-179.999854049893
 51
-100.319413607498
  0
ARC
  5
2E2
100
AcDbEntity
  8
AM_0_4
  6
CONTINUOUS
 62
           7
100
AcDbCircle
 10
488.508988514063
 20
32.913509208845
 40
0.300000011921
100
AcDbArc
 50
-179.999854049891
 51
-100.319358966069
  0
ARC
  5
2E1
100
AcDbEntity
  8
AM_0_4
  6
CONTINUOUS
 62
           7
100
AcDbCircle
 10
499.731858393313
 20
2.67338164767
 40
0.5
100
AcDbArc
 50
3.491392135558
 51
74.999956905676
  0
ARC
  5
2E0
100
AcDbEntity
  8
AM_0_4
  6
CONTINUOUS
 62
           7
100
AcDbCircle
 10
502.500535157065
 20
-26.28291717988
 40
0.500000000001
100
AcDbArc
 50
-176.508534553645
 51
-109.999594831399
  0
ARC
  5
2DF
100
AcDbEntity
  8
AM_0_4
  6
CONTINUOUS
 62
           7
100
AcDbCircle
 10
382.708909883104
 20
108.22237762319
 40
0.5
100
AcDbArc
 50
0.000017986061
 51
74.999957690792
  0
ARC
  5
2DE
100
AcDbEntity
  8
AM_0_4
  6
CONTINUOUS
 62
           7
100
AcDbCircle
 10
384.217576875292
 20
101.141933287252
 40
0.5
100
AcDbArc
 50
1.000010344307
 51
89.999435598767
  0
ARC
  5
2DD
100
AcDbEntity
  8
AM_0_4
  6
CONTINUOUS
 62
           7
100
AcDbCircle
 10
383.708909883104
 20
104.141933287252
 40
0.5
100
AcDbArc
 50
-179.99990938638
 51
-89.999872730835
  0
ARC
  5
2DC
100
AcDbEntity
  8
AM_0_4
  6
CONTINUOUS
 62
           7
100
AcDbCircle
 10
380.337755097948
 20
96.287502134909
 40
12.5864944458
100
AcDbArc
 50
78.156488634624
 51
101.843530034714
  0
ARC
  5
2DB
100
AcDbEntity
  8
AM_0_4
  6
CONTINUOUS
 62
           7
100
AcDbCircle
 10
380.337770356737
 20
110.684657896627
 40
6.042729377747
100
AcDbArc
 50
-115.308619605987
 51
-64.691071214265
  0
ARC
  5
2DA
100
AcDbEntity
  8
AM_0_4
  6
CONTINUOUS
 62
           7
100
AcDbCircle
 10
399.708925141894
 20
89.541927183737
 40
0.5
100
AcDbArc
 50
0.000054641494
 51
90.000036655421
  0
ARC
  5
2D9
100
AcDbEntity
  8
AM_0_4
  6
CONTINUOUS
 62
           7
100
AcDbCircle
 10
399.208925141894
 20
91.541927183737
 40
1.5
100
AcDbArc
 50
-179.999909386304
 51
-89.999927372362
  0
ARC
  5
2D8
100
AcDbEntity
  8
AM_0_4
  6
CONTINUOUS
 62
           7
100
AcDbCircle
 10
399.208925141894
 20
59.541927183738
 40
1.5
100
AcDbArc
 50
-179.999909386304
 51
-89.999927372362
  0
ARC
  5
2D7
100
AcDbEntity
  8
AM_0_4
  6
CONTINUOUS
 62
           7
100
AcDbCircle
 10
399.208925141894
 20
61.741939390769
 40
1.5
100
AcDbArc
 50
90.00003665539
 51
-179.999981330667
  0
ARC
  5
2D6
100
AcDbEntity
  8
AM_0_4
  6
CONTINUOUS
 62
           7
100
AcDbCircle
 10
399.208925141894
 20
49.641933287253
 40
0.499999999999
100
AcDbArc
 50
-89.999927372316
 51
0.0
  0
ARC
  5
2D5
100
AcDbEntity
  8
AM_0_4
  6
CONTINUOUS
 62
           7
100
AcDbCircle
 10
395.463930024706
 20
53.641933287253
 40
0.5
100
AcDbArc
 50
0.0
 51
89.999982013823
  0
ARC
  5
2D4
100
AcDbEntity
  8
AM_0_4
  6
CONTINUOUS
 62
           7
100
AcDbCircle
 10
384.049547090136
 20
67.965144957175
 40
3.000000000001
100
AcDbArc
 50
-62.390281011208
 51
0.0
  0
ARC
  5
2D3
100
AcDbEntity
  8
AM_0_4
  6
CONTINUOUS
 62
           7
100
AcDbCircle
 10
385.256654634081
 20
68.596446837058
 40
3.000000000001
100
AcDbArc
 50
-62.390281011206
 51
0.0
  0
ARC
  5
2D2
100
AcDbEntity
  8
AM_0_4
  6
CONTINUOUS
 62
           7
100
AcDbCircle
 10
392.143571748339
 20
54.641933287253
 40
0.5
100
AcDbArc
 50
-179.999964027874
 51
-89.999927372329
  0
ARC
  5
2D1
100
AcDbEntity
  8
AM_0_4
  6
CONTINUOUS
 62
           7
100
AcDbCircle
 10
380.708925141894
 20
91.141918028463
 40
3.299999237061
100
AcDbArc
 50
0.0
 51
89.999982013894
  0
ARC
  5
2D0
100
AcDbEntity
  8
AM_0_4
  6
CONTINUOUS
 62
           7
100
AcDbCircle
 10
384.049547090136
 20
94.441921080221
 40
3.0
100
AcDbArc
 50
0.0
 51
89.9999820139
  0
ARC
  5
2CF
100
AcDbEntity
  8
AM_0_4
  6
CONTINUOUS
 62
           7
100
AcDbCircle
 10
399.608919038378
 20
98.641918028463
 40
0.5
100
AcDbArc
 50
0.0
 51
89.999982013823
  0
ARC
  5
2CE
100
AcDbEntity
  8
AM_0_4
  6
CONTINUOUS
 62
           7
100
AcDbCircle
 10
354.708925141894
 20
108.22237762319
 40
0.5
100
AcDbArc
 50
104.999787770865
 51
179.999964027761
  0
ARC
  5
2CD
100
AcDbEntity
  8
AM_0_4
  6
CONTINUOUS
 62
           7
100
AcDbCircle
 10
357.080079927051
 20
110.684657896627
 40
6.042729377746
100
AcDbArc
 50
-115.3086742475
 51
-64.691125855774
  0
ARC
  5
2CC
100
AcDbEntity
  8
AM_0_4
  6
CONTINUOUS
 62
           7
100
AcDbCircle
 10
357.080079927051
 20
96.287517393698
 40
12.586494445801
100
AcDbArc
 50
78.156433993112
 51
101.8434753932
  0
ARC
  5
2CB
100
AcDbEntity
  8
AM_0_4
  6
CONTINUOUS
 62
           7
100
AcDbCircle
 10
353.200273408496
 20
101.141933287252
 40
0.5
100
AcDbArc
 50
89.998452051501
 51
178.999969691833
  0
ARC
  5
2CA
100
AcDbEntity
  8
AM_0_4
  6
CONTINUOUS
 62
           7
100
AcDbCircle
 10
353.708925141894
 20
104.141948546042
 40
0.499999999999
100
AcDbArc
 50
-89.999872730822
 51
0.000072627557
  0
ARC
  5
2C9
100
AcDbEntity
  8
AM_0_4
  6
CONTINUOUS
 62
           7
100
AcDbCircle
 10
353.368272676074
 20
94.441921080221
 40
3.0
100
AcDbArc
 50
89.9999820139
 51
179.999964027818
  0
ARC
  5
2C8
100
AcDbEntity
  8
AM_0_4
  6
CONTINUOUS
 62
           7
100
AcDbCircle
 10
352.161195649707
 20
68.596446837058
 40
3.0
100
AcDbArc
 50
179.999964027819
 51
-117.609645677942
  0
ARC
  5
2C7
100
AcDbEntity
  8
AM_0_4
  6
CONTINUOUS
 62
           7
100
AcDbCircle
 10
353.368272676074
 20
67.965144957175
 40
3.0
100
AcDbArc
 50
179.999964027818
 51
-117.609645677944
  0
ARC
  5
2C6
100
AcDbEntity
  8
AM_0_4
  6
CONTINUOUS
 62
           7
100
AcDbCircle
 10
345.274278535449
 20
54.641933287253
 40
0.499999999999
100
AcDbArc
 50
-89.999927372329
 51
0.0
  0
ARC
  5
2C5
100
AcDbEntity
  8
AM_0_4
  6
CONTINUOUS
 62
           7
100
AcDbCircle
 10
341.953935517871
 20
53.641933287253
 40
0.5
100
AcDbArc
 50
89.999982013823
 51
-179.999981330628
  0
ARC
  5
2C4
100
AcDbEntity
  8
AM_0_4
  6
CONTINUOUS
 62
           7
100
AcDbCircle
 10
356.708925141894
 20
91.141918028463
 40
3.299999237061
100
AcDbArc
 50
89.999982013911
 51
179.999964027808
  0
ARC
  5
2C3
100
AcDbEntity
  8
AM_0_4
  6
CONTINUOUS
 62
           7
100
AcDbCircle
 10
337.708925141894
 20
89.541927183737
 40
0.5
100
AcDbArc
 50
90.000036655421
 51
-179.999981330742
  0
ARC
  5
2C2
100
AcDbEntity
  8
AM_0_4
  6
CONTINUOUS
 62
           7
100
AcDbCircle
 10
338.208925141894
 20
49.641933287253
 40
0.5
100
AcDbArc
 50
-179.99990938638
 51
-89.999927372394
  0
ARC
  5
2C1
100
AcDbEntity
  8
AM_0_4
  6
CONTINUOUS
 62
           7
100
AcDbCircle
 10
337.80893124541
 20
98.641918028463
 40
0.5
100
AcDbArc
 50
89.999982013901
 51
179.999964027763
  0
ARC
  5
2C0
100
AcDbEntity
  8
AM_0_4
  6
CONTINUOUS
 62
           7
100
AcDbCircle
 10
338.208925141894
 20
61.741939390769
 40
1.5
100
AcDbArc
 50
0.000054641533
 51
90.000036655421
  0
ARC
  5
2BF
100
AcDbEntity
  8
AM_0_4
  6
CONTINUOUS
 62
           7
100
AcDbCircle
 10
338.208925141894
 20
91.541927183737
 40
1.5
100
AcDbArc
 50
-89.999872730881
 51
0.000054641533
  0
ARC
  5
2BE
100
AcDbEntity
  8
AM_0_4
  6
CONTINUOUS
 62
           7
100
AcDbCircle
 10
338.208925141894
 20
59.541927183738
 40
1.5
100
AcDbArc
 50
-89.999872730881
 51
0.000054641533
  0
ARC
  5
2BD
100
AcDbEntity
  8
AM_0_4
  6
CONTINUOUS
 62
           7
100
AcDbCircle
 10
368.708925141894
 20
129.06986602651
 40
24.427917480468
100
AcDbArc
 50
-102.510265780732
 51
-77.489479681033
  0
ARC
  5
2BC
100
AcDbEntity
  8
AM_0_4
  6
CONTINUOUS
 62
           7
100
AcDbCircle
 10
368.708909883105
 20
56.490382994285
 40
52.383605957031
100
AcDbArc
 50
84.202408163377
 51
95.797555864447
  0
ARC
  5
2BB
100
AcDbEntity
  8
AM_0_4
  6
CONTINUOUS
 62
           7
100
AcDbCircle
 10
399.708909883104
 20
40.297160948386
 40
0.5
100
AcDbArc
 50
119.999976018531
 51
179.999964027759
  0
ARC
  5
2BA
100
AcDbEntity
  8
AM_0_4
  6
CONTINUOUS
 62
           7
100
AcDbCircle
 10
399.208909883104
 20
41.163188780417
 40
0.5
100
AcDbArc
 50
-59.99993336775
 51
0.000072627556
  0
ARC
  5
2B9
100
AcDbEntity
  8
AM_0_4
  6
CONTINUOUS
 62
           7
100
AcDbCircle
 10
398.708909883104
 20
37.163188780417
 40
0.5
100
AcDbArc
 50
-89.999872730835
 51
0.000072627556
  0
ARC
  5
2B8
100
AcDbEntity
  8
AM_0_4
  6
CONTINUOUS
 62
           7
100
AcDbCircle
 10
398.908906831347
 20
32.913509214988
 40
0.30000001192
100
AcDbArc
 50
-79.680331159175
 51
0.000017986098
  0
ARC
  5
2B7
100
AcDbEntity
  8
AM_0_4
  6
CONTINUOUS
 62
           7
100
AcDbCircle
 10
393.533586396776
 20
37.163188780417
 40
0.5
100
AcDbArc
 50
-179.999854744768
 51
-89.999872730848
  0
ARC
  5
2B6
100
AcDbEntity
  8
AM_0_4
  6
CONTINUOUS
 62
           7
100
AcDbCircle
 10
390.308778657519
 20
38.963207090964
 40
1.599999427795
100
AcDbArc
 50
-89.999982013876
 51
-5.000002415854
  0
ARC
  5
2B5
100
AcDbEntity
  8
AM_0_4
  6
CONTINUOUS
 62
           7
100
AcDbCircle
 10
391.262193574511
 20
30.911311949363
 40
0.300000011921
100
AcDbArc
 50
100.319523585515
 51
177.999975355783
  0
ARC
  5
2B4
100
AcDbEntity
  8
AM_0_4
  6
CONTINUOUS
 62
           7
100
AcDbCircle
 10
381.59390438994
 20
37.163188780417
 40
0.5
100
AcDbArc
 50
-89.999872730835
 51
0.000072627556
  0
ARC
  5
2B3
100
AcDbEntity
  8
AM_0_4
  6
CONTINUOUS
 62
           7
100
AcDbCircle
 10
384.818467988573
 20
38.963191832175
 40
1.599999427795
100
AcDbArc
 50
-174.999992347829
 51
-89.999927372385
  0
ARC
  5
2B2
100
AcDbEntity
  8
AM_0_4
  6
CONTINUOUS
 62
           7
100
AcDbCircle
 10
387.923509492479
 20
-24.443836366058
 40
1.199999809265
100
AcDbArc
 50
-69.999986010819
 51
-1.000536268794
  0
ARC
  5
2B1
100
AcDbEntity
  8
AM_0_4
  6
CONTINUOUS
 62
           7
100
AcDbCircle
 10
355.823915376269
 20
37.163204039207
 40
0.499999999999
100
AcDbArc
 50
-179.999909386379
 51
-89.999872730822
  0
ARC
  5
2B0
100
AcDbEntity
  8
AM_0_4
  6
CONTINUOUS
 62
           7
100
AcDbCircle
 10
346.155641450488
 20
30.911327208152
 40
0.300000011921
100
AcDbArc
 50
2.000061242797
 51
79.680495083781
  0
ARC
  5
2AF
100
AcDbEntity
  8
AM_0_4
  6
CONTINUOUS
 62
           7
100
AcDbCircle
 10
343.884248628223
 20
37.163204039207
 40
0.5
100
AcDbArc
 50
-89.999872730829
 51
0.00001798606
  0
ARC
  5
2AE
100
AcDbEntity
  8
AM_0_4
  6
CONTINUOUS
 62
           7
100
AcDbCircle
 10
347.109071626269
 20
38.963207090964
 40
1.599999427795
100
AcDbArc
 50
-174.99993770631
 51
-89.999872730876
  0
ARC
  5
2AD
100
AcDbEntity
  8
AM_0_4
  6
CONTINUOUS
 62
           7
100
AcDbCircle
 10
352.599382295215
 20
38.963191832175
 40
1.599999427795
100
AcDbArc
 50
-89.999927372381
 51
-4.999947774342
  0
ARC
  5
2AC
100
AcDbEntity
  8
AM_0_4
  6
CONTINUOUS
 62
           7
100
AcDbCircle
 10
349.494340791309
 20
-24.443821107278
 40
1.199999809265
100
AcDbArc
 50
-178.999423276693
 51
-109.999814092437
  0
ARC
  5
2AB
100
AcDbEntity
  8
AM_0_4
  6
CONTINUOUS
 62
           7
100
AcDbCircle
 10
337.708925141894
 20
40.297176207175
 40
0.5
100
AcDbArc
 50
0.000017986063
 51
60.000042650772
  0
ARC
  5
2AA
100
AcDbEntity
  8
AM_0_4
  6
CONTINUOUS
 62
           7
100
AcDbCircle
 10
338.208925141894
 20
41.163204039207
 40
0.5
100
AcDbArc
 50
-179.999909386379
 51
-119.999812094028
  0
ARC
  5
2A9
100
AcDbEntity
  8
AM_0_4
  6
CONTINUOUS
 62
           7
100
AcDbCircle
 10
338.708925141894
 20
37.163204039207
 40
0.5
100
AcDbArc
 50
-179.999909386379
 51
-89.999872730874
  0
ARC
  5
2A8
100
AcDbEntity
  8
AM_0_4
  6
CONTINUOUS
 62
           7
100
AcDbCircle
 10
338.508928193652
 20
32.913509214988
 40
0.300000011921
100
AcDbArc
 50
-179.999854744891
 51
-100.319359661065
  0
LINE
  5
2A7
100
AcDbEntity
  8
AM_0_4
  6
CONTINUOUS
 62
           7
100
AcDbLine
 10
358.819010727083
 20
181.089726327877
 11
356.818261258287
 21
181.089726328698
  0
LINE
  5
2A6
100
AcDbEntity
  8
AM_0_4
  6
CONTINUOUS
 62
           7
100
AcDbLine
 10
359.209003560946
 20
180.699745395358
 11
358.708984487356
 21
181.199749209952
  0
LINE
  5
2A5
100
AcDbEntity
  8
AM_0_4
  6
CONTINUOUS
 62
           7
100
AcDbLine
 10
378.708967798055
 20
181.199775916935
 11
378.208959691926
 21
180.699783546227
  0
LINE
  5
2A4
100
AcDbEntity
  8
AM_0_4
  6
CONTINUOUS
 62
           7
100
AcDbLine
 10
378.208938711091
 20
180.699726325769
 11
359.209021680758
 21
180.699726321872
  0
LINE
  5
2A3
100
AcDbEntity
  8
AM_0_4
  6
CONTINUOUS
 62
           7
100
AcDbLine
 10
382.208985465438
 20
243.479695800703
 11
382.208985464457
 21
241.089726318283
  0
LINE
  5
2A2
100
AcDbEntity
  8
AM_0_4
  6
CONTINUOUS
 62
           7
100
AcDbLine
 10
384.049631255127
 20
241.089695799949
 11
387.049613134085
 21
238.089714872205
  0
LINE
  5
2A1
100
AcDbEntity
  8
AM_0_4
  6
CONTINUOUS
 62
           7
100
AcDbLine
 10
398.245127811469
 20
234.260680062314
 11
396.908980501613
 21
230.589663369747
  0
LINE
  5
2A0
100
AcDbEntity
  8
AM_0_4
  6
CONTINUOUS
 62
           7
100
AcDbLine
 10
398.714951648884
 20
234.589726311512
 11
399.708970203571
 21
234.589726311104
  0
LINE
  5
29F
100
AcDbEntity
  8
AM_0_4
  6
CONTINUOUS
 62
           7
100
AcDbLine
 10
397.70898546072
 20
230.589711053134
 11
397.708985460573
 21
230.231846673252
  0
LINE
  5
29E
100
AcDbEntity
  8
AM_0_4
  6
CONTINUOUS
 62
           7
100
AcDbLine
 10
399.608964098251
 20
230.18973241466
 11
395.863816393173
 21
230.189732416196
  0
LINE
  5
29D
100
AcDbEntity
  8
AM_0_4
  6
CONTINUOUS
 62
           7
100
AcDbLine
 10
395.70897020193
 20
230.589726312745
 11
399.70897020193
 21
230.589726311104
  0
LINE
  5
29C
100
AcDbEntity
  8
AM_0_4
  6
CONTINUOUS
 62
           7
100
AcDbLine
 10
393.108979349246
 20
211.189718112212
 11
393.108979348885
 21
210.309163912993
  0
LINE
  5
29B
100
AcDbEntity
  8
AM_0_4
  6
CONTINUOUS
 62
           7
100
AcDbLine
 10
393.108979350756
 20
214.870227679473
 11
393.108979350395
 21
213.989719256621
  0
LINE
  5
29A
100
AcDbEntity
  8
AM_0_4
  6
CONTINUOUS
 62
           7
100
AcDbLine
 10
393.63395226441
 20
210.005995615964
 11
397.583951120936
 21
212.286528034025
  0
LINE
  5
299
100
AcDbEntity
  8
AM_0_4
  6
CONTINUOUS
 62
           7
100
AcDbLine
 10
393.63397896941
 20
215.173316821103
 11
397.583977824066
 21
212.892784042173
  0
LINE
  5
298
100
AcDbEntity
  8
AM_0_4
  6
CONTINUOUS
 62
           7
100
AcDbLine
 10
389.108979350067
 20
213.189717100574
 11
389.108979349574
 21
211.989720271541
  0
LINE
  5
297
100
AcDbEntity
  8
AM_0_4
  6
CONTINUOUS
 62
           7
100
AcDbLine
 10
389.508988504683
 20
211.589726315288
 11
392.708985452926
 21
211.589726313975
  0
LINE
  5
296
100
AcDbEntity
  8
AM_0_4
  6
CONTINUOUS
 62
           7
100
AcDbLine
 10
389.508988505504
 20
213.589726315288
 11
392.708985453747
 21
213.589726313975
  0
LINE
  5
295
100
AcDbEntity
  8
AM_0_4
  6
CONTINUOUS
 62
           7
100
AcDbLine
 10
397.708985446117
 20
194.989765984776
 11
397.708985445953
 21
194.589741570714
  0
LINE
  5
294
100
AcDbEntity
  8
AM_0_4
  6
CONTINUOUS
 62
           7
100
AcDbLine
 10
395.863816378734
 20
194.989750726744
 11
399.608964083812
 21
194.989750725208
  0
LINE
  5
293
100
AcDbEntity
  8
AM_0_4
  6
CONTINUOUS
 62
           7
100
AcDbLine
 10
395.708970187163
 20
194.589726312745
 11
399.708970187163
 21
194.589726311104
  0
LINE
  5
292
100
AcDbEntity
  8
AM_0_4
  6
CONTINUOUS
 62
           7
100
AcDbLine
 10
398.714951630835
 20
190.589726311512
 11
399.708970185522
 21
190.589726311104
  0
LINE
  5
291
100
AcDbEntity
  8
AM_0_4
  6
CONTINUOUS
 62
           7
100
AcDbLine
 10
398.245148774525
 20
190.9186943598
 11
396.909012911773
 21
194.589714868161
  0
LINE
  5
290
100
AcDbEntity
  8
AM_0_4
  6
CONTINUOUS
 62
           7
100
AcDbLine
 10
387.049607391323
 20
187.589726316297
 11
387.049607391118
 21
187.089726316297
  0
LINE
  5
28F
100
AcDbEntity
  8
AM_0_4
  6
CONTINUOUS
 62
           7
100
AcDbLine
 10
400.108979356835
 20
229.689717155666
 11
400.108979342806
 21
195.489765983792
  0
LINE
  5
28E
100
AcDbEntity
  8
AM_0_4
  6
CONTINUOUS
 62
           7
100
AcDbLine
 10
400.208985462156
 20
234.089711052109
 11
400.208985444517
 21
191.089741569689
  0
LINE
  5
28D
100
AcDbEntity
  8
AM_0_4
  6
CONTINUOUS
 62
           7
100
AcDbLine
 10
383.046117908144
 20
214.757140029487
 11
377.754616866677
 21
223.922291627727
  0
LINE
  5
28C
100
AcDbEntity
  8
AM_0_4
  6
CONTINUOUS
 62
           7
100
AcDbLine
 10
382.208969229752
 20
184.089726318283
 11
382.208969228771
 21
181.699756835861
  0
LINE
  5
28B
100
AcDbEntity
  8
AM_0_4
  6
CONTINUOUS
 62
           7
100
AcDbLine
 10
377.754624486774
 20
201.257209649883
 11
383.046126489434
 21
210.422341693458
  0
LINE
  5
28A
100
AcDbEntity
  8
AM_0_4
  6
CONTINUOUS
 62
           7
100
AcDbLine
 10
384.049581640681
 20
184.089730132225
 11
387.049553985356
 21
187.089701520765
  0
LINE
  5
289
100
AcDbEntity
  8
AM_0_4
  6
CONTINUOUS
 62
           7
100
AcDbLine
 10
383.574705236388
 20
182.907746184666
 11
395.510272143444
 21
194.843312128256
  0
LINE
  5
288
100
AcDbEntity
  8
AM_0_4
  6
CONTINUOUS
 62
           7
100
AcDbLine
 10
395.963811037994
 20
194.589762552264
 11
383.928230397986
 21
182.554192412548
  0
LINE
  5
287
100
AcDbEntity
  8
AM_0_4
  6
CONTINUOUS
 62
           7
100
AcDbLine
 10
387.049607412039
 20
238.089726316297
 11
387.049607411834
 21
237.589726316297
  0
LINE
  5
286
100
AcDbEntity
  8
AM_0_4
  6
CONTINUOUS
 62
           7
100
AcDbLine
 10
383.574749129757
 20
242.271685469943
 11
395.510270250655
 21
230.336163385579
  0
LINE
  5
285
100
AcDbEntity
  8
AM_0_4
  6
CONTINUOUS
 62
           7
100
AcDbLine
 10
395.963799608669
 20
230.58968435097
 11
383.928280013691
 21
242.625182021312
  0
LINE
  5
284
100
AcDbEntity
  8
AM_0_4
  6
CONTINUOUS
 62
           7
100
AcDbLine
 10
355.209001677902
 20
243.479695811779
 11
355.209001676921
 21
241.089726329358
  0
LINE
  5
283
100
AcDbEntity
  8
AM_0_4
  6
CONTINUOUS
 62
           7
100
AcDbLine
 10
350.368399755179
 20
238.089726331344
 11
353.368409293152
 21
241.089720608067
  0
LINE
  5
282
100
AcDbEntity
  8
AM_0_4
  6
CONTINUOUS
 62
           7
100
AcDbLine
 10
350.368348256766
 20
238.089741590133
 11
368.709000722586
 21
238.089741582609
  0
LINE
  5
281
100
AcDbEntity
  8
AM_0_4
  6
CONTINUOUS
 62
           7
100
AcDbLine
 10
359.663453231423
 20
223.92231643068
 11
354.371949321414
 21
214.757165790456
  0
LINE
  5
280
100
AcDbEntity
  8
AM_0_4
  6
CONTINUOUS
 62
           7
100
AcDbLine
 10
355.208986395891
 20
184.089726329358
 11
355.20898639491
 21
181.699756846937
  0
LINE
  5
27F
100
AcDbEntity
  8
AM_0_4
  6
CONTINUOUS
 62
           7
100
AcDbLine
 10
354.371920709405
 20
210.422288776296
 11
359.663421750873
 21
201.257137178056
  0
LINE
  5
27E
100
AcDbEntity
  8
AM_0_4
  6
CONTINUOUS
 62
           7
100
AcDbLine
 10
339.172907962837
 20
234.260744936399
 11
340.509043825589
 21
230.589724428039
  0
LINE
  5
27D
100
AcDbEntity
  8
AM_0_4
  6
CONTINUOUS
 62
           7
100
AcDbLine
 10
339.70898546072
 20
230.589711076926
 11
339.708985460573
 21
230.231816179466
  0
LINE
  5
27C
100
AcDbEntity
  8
AM_0_4
  6
CONTINUOUS
 62
           7
100
AcDbLine
 10
350.368575210333
 20
187.089747312179
 11
353.368600958309
 21
184.089722515416
  0
LINE
  5
27B
100
AcDbEntity
  8
AM_0_4
  6
CONTINUOUS
 62
           7
100
AcDbLine
 10
350.368332977261
 20
187.589726331344
 11
350.368332977056
 21
187.089726331344
  0
LINE
  5
27A
100
AcDbEntity
  8
AM_0_4
  6
CONTINUOUS
 62
           7
100
AcDbLine
 10
339.70898544613
 20
195.021260149193
 11
339.708985445953
 21
194.589741594506
  0
LINE
  5
279
100
AcDbEntity
  8
AM_0_4
  6
CONTINUOUS
 62
           7
100
AcDbLine
 10
339.172875520131
 20
190.91875351184
 11
340.509011385895
 21
194.589774019104
  0
LINE
  5
278
100
AcDbEntity
  8
AM_0_4
  6
CONTINUOUS
 62
           7
100
AcDbLine
 10
341.907895205579
 20
194.843407517676
 11
353.843546026183
 21
182.907755733605
  0
LINE
  5
277
100
AcDbEntity
  8
AM_0_4
  6
CONTINUOUS
 62
           7
100
AcDbLine
 10
353.636273496376
 20
182.407753826341
 11
341.454230425812
 21
194.589789277505
  0
LINE
  5
276
100
AcDbEntity
  8
AM_0_4
  6
CONTINUOUS
 62
           7
100
AcDbLine
 10
350.368561858892
 20
187.089726331344
 11
368.709000701665
 21
187.08972632382
  0
LINE
  5
275
100
AcDbEntity
  8
AM_0_4
  6
CONTINUOUS
 62
           7
100
AcDbLine
 10
350.368332997977
 20
238.089726331344
 11
350.368332997772
 21
237.589726331344
  0
LINE
  5
274
100
AcDbEntity
  8
AM_0_4
  6
CONTINUOUS
 62
           7
100
AcDbLine
 10
341.907691133834
 20
230.336178666357
 11
353.843243735776
 21
242.271693111534
  0
LINE
  5
273
100
AcDbEntity
  8
AM_0_4
  6
CONTINUOUS
 62
           7
100
AcDbLine
 10
353.489730971944
 20
242.62526214244
 11
341.454207552395
 21
230.589749223183
  0
LINE
  5
272
100
AcDbEntity
  8
AM_0_4
  6
CONTINUOUS
 62
           7
100
AcDbLine
 10
337.308991563867
 20
229.689717181427
 11
337.308991549838
 21
195.489766009553
  0
LINE
  5
271
100
AcDbEntity
  8
AM_0_4
  6
CONTINUOUS
 62
           7
100
AcDbLine
 10
337.208985462156
 20
234.089711077952
 11
337.208985444517
 21
191.089741595532
  0
LINE
  5
270
100
AcDbEntity
  8
AM_0_4
  6
CONTINUOUS
 62
           7
100
AcDbLine
 10
337.809006808422
 20
194.989750750559
 11
341.554185031078
 21
194.989750749022
  0
LINE
  5
26F
100
AcDbEntity
  8
AM_0_4
  6
CONTINUOUS
 62
           7
100
AcDbLine
 10
337.809006822861
 20
230.189732440011
 11
341.554154527939
 21
230.189732438474
  0
LINE
  5
26E
100
AcDbEntity
  8
AM_0_4
  6
CONTINUOUS
 62
           7
100
AcDbLine
 10
338.703019275838
 20
234.589726336129
 11
337.709000721151
 21
234.589726336537
  0
LINE
  5
26D
100
AcDbEntity
  8
AM_0_4
  6
CONTINUOUS
 62
           7
100
AcDbLine
 10
341.70900071951
 20
230.589726334896
 11
337.70900071951
 21
230.589726336537
  0
LINE
  5
26C
100
AcDbEntity
  8
AM_0_4
  6
CONTINUOUS
 62
           7
100
AcDbLine
 10
338.703019257789
 20
190.589726336129
 11
337.709000703102
 21
190.589726336537
  0
LINE
  5
26B
100
AcDbEntity
  8
AM_0_4
  6
CONTINUOUS
 62
           7
100
AcDbLine
 10
341.709000704743
 20
194.589726334896
 11
337.709000704743
 21
194.589726336537
  0
LINE
  5
26A
100
AcDbEntity
  8
AM_7
  6
DOT_CENTER
 62
           2
100
AcDbLine
 10
368.708985468309
 20
249.08972632382
 11
368.708985438364
 21
176.08972632382
  0
LINE
  5
269
100
AcDbEntity
  8
AM_0_4
  6
CONTINUOUS
 62
           7
100
AcDbLine
 10
380.392698399704
 20
181.089726319028
 11
378.598914737477
 21
181.089726319763
  0
LINE
  5
268
100
AcDbEntity
  8
AM_0_4
  6
CONTINUOUS
 62
           7
100
AcDbLine
 10
384.049591177424
 20
184.089726317527
 11
353.368593328915
 21
184.089726330113
  0
LINE
  5
267
100
AcDbEntity
  8
AM_0_4
  6
CONTINUOUS
 62
           7
100
AcDbLine
 10
384.049652235962
 20
241.089726317527
 11
353.368394988038
 21
241.089726330113
  0
LINE
  5
266
100
AcDbEntity
  8
AM_0_4
  6
CONTINUOUS
 62
           7
100
AcDbLine
 10
368.709000722586
 20
238.089741582609
 11
387.04959215325
 21
238.089741575086
  0
LINE
  5
265
100
AcDbEntity
  8
AM_0_4
  6
CONTINUOUS
 62
           7
100
AcDbLine
 10
368.709000701665
 20
187.08972632382
 11
387.049561614751
 21
187.089726316297
  0
LINE
  5
264
100
AcDbEntity
  8
AM_0_4
  6
CONTINUOUS
 62
           7
100
AcDbLine
 10
355.709002607168
 20
181.199726329153
 11
381.708968274892
 21
181.199726318488
  0
LINE
  5
263
100
AcDbEntity
  8
AM_0_4
  6
CONTINUOUS
 62
           7
100
AcDbLine
 10
355.70901789057
 20
243.979726329153
 11
381.708984511968
 21
243.979726318487
  0
LINE
  5
262
100
AcDbEntity
  8
AM_0_4
  6
CONTINUOUS
 62
           7
100
AcDbLine
 10
350.196793691132
 20
237.589741590203
 11
387.221177236052
 21
237.589741575016
  0
LINE
  5
261
100
AcDbEntity
  8
AM_0_4
  6
CONTINUOUS
 62
           7
100
AcDbLine
 10
350.196824188199
 20
187.589726331414
 11
387.221146697963
 21
187.589726316226
  0
LINE
  5
260
100
AcDbEntity
  8
AM_0_4
  6
CONTINUOUS
 62
           7
100
AcDbLine
 10
380.392761368052
 20
244.089726319028
 11
357.025224823253
 21
244.089726328613
  0
LINE
  5
25F
100
AcDbEntity
  8
AM_0_4
  6
CONTINUOUS
 62
           7
100
AcDbLine
 10
374.000538002514
 20
226.089721553278
 11
363.417533051037
 21
226.089725372316
  0
LINE
  5
25E
100
AcDbEntity
  8
AM_0_4
  6
CONTINUOUS
 62
           7
100
AcDbLine
 10
363.417523503219
 20
199.089699623111
 11
374.000528454696
 21
199.089695804072
  0
LINE
  5
25D
100
AcDbEntity
  8
AM_7
  6
DOT_CENTER
 62
           2
100
AcDbLine
 10
405.208985453336
 20
212.589726308848
 11
332.208985453337
 21
212.589726338793
  0
LINE
  5
25C
100
AcDbEntity
  8
AM_0_10
  6
CONTINUOUS
 62
           7
100
AcDbLine
 10
379.459020739285
 20
89.891914452185
 11
379.459022646634
 21
91.141919220557
  0
LINE
  5
25B
100
AcDbEntity
  8
AM_7
  6
CONTINUOUS
 62
           7
100
AcDbLine
 10
378.709031229704
 20
89.141884888282
 11
378.709031229704
 21
89.141884888282
  0
LINE
  5
25A
100
AcDbEntity
  8
AM_7
  6
CONTINUOUS
 62
           7
100
AcDbLine
 10
378.709031229704
 20
89.141884888282
 11
378.709031229704
 21
89.141884888282
  0
LINE
  5
259
100
AcDbEntity
  8
AM_0_10
  6
CONTINUOUS
 62
           7
100
AcDbLine
 10
380.709014063566
 20
88.391900147071
 11
380.709014063566
 21
89.89190014707
  0
LINE
  5
258
100
AcDbEntity
  8
AM_0_10
  6
CONTINUOUS
 62
           7
100
AcDbLine
 10
379.459016924589
 20
87.141899193396
 11
379.459018831938
 21
88.391899193396
  0
LINE
  5
257
100
AcDbEntity
  8
AM_0_10
  6
CONTINUOUS
 62
           7
100
AcDbLine
 10
380.709020739285
 20
89.891912544837
 11
379.459020739285
 21
89.891914452185
  0
LINE
  5
256
100
AcDbEntity
  8
AM_0_10
  6
CONTINUOUS
 62
           7
100
AcDbLine
 10
380.70901501724
 20
88.391921127906
 11
379.45901501724
 21
88.39192208158
  0
LINE
  5
255
100
AcDbEntity
  8
AM_0_10
  6
CONTINUOUS
 62
           7
100
AcDbLine
 10
376.709014063566
 20
88.391900147071
 11
376.709014063566
 21
89.89190014707
  0
LINE
  5
254
100
AcDbEntity
  8
AM_0_10
  6
CONTINUOUS
 62
           7
100
AcDbLine
 10
377.959020739286
 20
89.891901100745
 11
377.959022646635
 21
91.141905869116
  0
LINE
  5
253
100
AcDbEntity
  8
AM_0_10
  6
CONTINUOUS
 62
           7
100
AcDbLine
 10
377.959016924589
 20
87.141901100745
 11
377.959018831938
 21
88.391901100745
  0
LINE
  5
252
100
AcDbEntity
  8
AM_0_10
  6
CONTINUOUS
 62
           7
100
AcDbLine
 10
377.959009295194
 20
88.391904915442
 11
376.709009295194
 21
88.391905869117
  0
LINE
  5
251
100
AcDbEntity
  8
AM_0_10
  6
CONTINUOUS
 62
           7
100
AcDbLine
 10
377.959020739286
 20
89.891901100745
 11
376.709020739286
 21
89.891903008093
  0
LINE
  5
250
100
AcDbEntity
  8
AM_0_10
  6
CONTINUOUS
 62
           7
100
AcDbLine
 10
379.459022646634
 20
87.14190873014
 11
377.959022646635
 21
87.141909683814
  0
LINE
  5
24F
100
AcDbEntity
  8
AM_0_10
  6
CONTINUOUS
 62
           7
100
AcDbLine
 10
379.459013109892
 20
91.14190014707
 11
377.959013109892
 21
91.14190014707
  0
LINE
  5
24E
100
AcDbEntity
  8
AM_7
  6
CONTINUOUS
 62
           2
100
AcDbLine
 10
378.709031229704
 20
89.141884888282
 11
378.709031229704
 21
93.435884888282
  0
LINE
  5
24D
100
AcDbEntity
  8
AM_0_10
  6
CONTINUOUS
 62
           7
100
AcDbLine
 10
370.303926830976
 20
86.981320942511
 11
370.702665572851
 21
88.941185082068
  0
LINE
  5
24C
100
AcDbEntity
  8
AM_7
  6
CONTINUOUS
 62
           2
100
AcDbLine
 10
378.709031229704
 20
89.141884888282
 11
374.415031229704
 21
89.141884888282
  0
LINE
  5
24B
100
AcDbEntity
  8
AM_0_10
  6
CONTINUOUS
 62
           7
100
AcDbLine
 10
375.456119185179
 20
83.440324867835
 11
377.14290249893
 21
84.514924610724
  0
LINE
  5
24A
100
AcDbEntity
  8
AM_0_10
  6
CONTINUOUS
 62
           7
100
AcDbLine
 10
376.599269991606
 20
80.462317074408
 11
378.571842318266
 21
80.792412603965
  0
LINE
  5
249
100
AcDbEntity
  8
AM_0_10
  6
CONTINUOUS
 62
           7
100
AcDbLine
 10
374.706875448912
 20
75.442120636573
 11
374.710876112669
 21
75.442120636573
  0
LINE
  5
248
100
AcDbEntity
  8
AM_0_10
  6
CONTINUOUS
 62
           7
100
AcDbLine
 10
374.710876112669
 20
77.142108644118
 11
374.706875925749
 21
77.142108644118
  0
LINE
  5
247
100
AcDbEntity
  8
AM_0_10
  6
CONTINUOUS
 62
           7
100
AcDbLine
 10
376.487945204466
 20
77.274367416968
 11
378.432690745085
 21
76.807475174537
  0
LINE
  5
246
100
AcDbEntity
  8
AM_0_10
  6
CONTINUOUS
 62
           7
100
AcDbLine
 10
373.407373553007
 20
80.852033103576
 11
372.821044092863
 21
81.878166521659
  0
LINE
  5
245
100
AcDbEntity
  8
AM_0_10
  6
CONTINUOUS
 62
           7
100
AcDbLine
 10
371.645791416853
 20
85.551498497596
 11
371.96844685623
 21
85.551498497596
  0
LINE
  5
244
100
AcDbEntity
  8
AM_0_10
  6
CONTINUOUS
 62
           7
100
AcDbLine
 10
373.617809897154
 20
79.689093078246
 11
373.407381182401
 21
80.852042521109
  0
LINE
  5
243
100
AcDbEntity
  8
AM_0_10
  6
CONTINUOUS
 62
           7
100
AcDbLine
 10
372.821009760588
 20
81.878148640265
 11
370.057591920584
 21
80.618791307082
  0
LINE
  5
242
100
AcDbEntity
  8
AM_0_10
  6
CONTINUOUS
 62
           7
100
AcDbLine
 10
370.691367393224
 20
78.87752580153
 11
373.617784147947
 21
79.689088965525
  0
LINE
  5
241
100
AcDbEntity
  8
AM_0_10
  6
CONTINUOUS
 62
           7
100
AcDbLine
 10
373.617796545713
 20
79.689089561572
 11
370.691365128248
 21
78.877522433867
  0
LINE
  5
240
100
AcDbEntity
  8
AM_0_10
  6
CONTINUOUS
 62
           7
100
AcDbLine
 10
373.208876257627
 20
77.442116702666
 11
373.208876257627
 21
75.442116821875
  0
LINE
  5
23F
100
AcDbEntity
  8
AM_0_10
  6
CONTINUOUS
 62
           7
100
AcDbLine
 10
372.960103159635
 20
77.442116702666
 11
373.208876257627
 21
77.442116702666
  0
LINE
  5
23E
100
AcDbEntity
  8
AM_0_10
  6
CONTINUOUS
 62
           7
100
AcDbLine
 10
372.908876066892
 20
75.442116821875
 11
373.208876257627
 21
75.442116821875
  0
LINE
  5
23D
100
AcDbEntity
  8
AM_0_10
  6
CONTINUOUS
 62
           7
100
AcDbLine
 10
372.488876467436
 20
76.970889891257
 11
372.488876467436
 21
76.842116678824
  0
LINE
  5
23C
100
AcDbEntity
  8
AM_0_10
  6
CONTINUOUS
 62
           7
100
AcDbLine
 10
372.488876467436
 20
76.842116678824
 11
372.908876066892
 21
76.842116678824
  0
LINE
  5
23B
100
AcDbEntity
  8
AM_0_10
  6
CONTINUOUS
 62
           7
100
AcDbLine
 10
372.908876066892
 20
76.842116678824
 11
372.908876066892
 21
75.442116821875
  0
LINE
  5
23A
100
AcDbEntity
  8
AM_0_10
  6
CONTINUOUS
 62
           7
100
AcDbLine
 10
368.543984537809
 20
75.491936768164
 11
369.233984237402
 21
75.491936768164
  0
LINE
  5
239
100
AcDbEntity
  8
AM_0_10
  6
CONTINUOUS
 62
           7
100
AcDbLine
 10
368.768984502046
 20
75.266936625113
 11
369.233984315096
 21
75.266936654916
  0
LINE
  5
238
100
AcDbEntity
  8
AM_0_10
  6
CONTINUOUS
 62
           7
100
AcDbLine
 10
368.768984502046
 20
74.771936501136
 11
369.233984237402
 21
74.771936501136
  0
LINE
  5
237
100
AcDbEntity
  8
AM_0_10
  6
CONTINUOUS
 62
           7
100
AcDbLine
 10
368.768984502046
 20
74.546936119666
 11
369.233984237402
 21
74.546936119666
  0
LINE
  5
236
100
AcDbEntity
  8
AM_0_10
  6
CONTINUOUS
 62
           7
100
AcDbLine
 10
367.975335007398
 20
75.491936768164
 11
368.273985152929
 21
75.491936768164
  0
LINE
  5
235
100
AcDbEntity
  8
AM_0_10
  6
CONTINUOUS
 62
           7
100
AcDbLine
 10
368.048985188692
 20
73.991936768164
 11
368.273985152929
 21
73.991936768164
  0
LINE
  5
234
100
AcDbEntity
  8
AM_0_10
  6
CONTINUOUS
 62
           7
100
AcDbLine
 10
368.048985129087
 20
75.036432827582
 11
368.048985188692
 21
73.991936768164
  0
LINE
  5
233
100
AcDbEntity
  8
AM_0_10
  6
CONTINUOUS
 62
           7
100
AcDbLine
 10
368.543984537809
 20
73.991936768164
 11
368.768984502046
 21
73.991936768164
  0
LINE
  5
232
100
AcDbEntity
  8
AM_0_10
  6
CONTINUOUS
 62
           7
100
AcDbLine
 10
368.768984502046
 20
74.546936119666
 11
368.768984502046
 21
73.991936768164
  0
LINE
  5
231
100
AcDbEntity
  8
AM_0_10
  6
CONTINUOUS
 62
           7
100
AcDbLine
 10
367.668819432943
 20
73.991936768164
 11
368.048985129087
 21
75.036432827582
  0
LINE
  5
230
100
AcDbEntity
  8
AM_0_10
  6
CONTINUOUS
 62
           7
100
AcDbLine
 10
368.273985152929
 20
75.491936768164
 11
368.273985152929
 21
73.991936768164
  0
LINE
  5
22F
100
AcDbEntity
  8
AM_0_10
  6
CONTINUOUS
 62
           7
100
AcDbLine
 10
368.543984537809
 20
75.491936768164
 11
368.543984537809
 21
73.991936768164
  0
LINE
  5
22E
100
AcDbEntity
  8
AM_0_10
  6
CONTINUOUS
 62
           7
100
AcDbLine
 10
368.768984502046
 20
75.266936625113
 11
368.768984502046
 21
74.771936501136
  0
LINE
  5
22D
100
AcDbEntity
  8
AM_0_10
  6
CONTINUOUS
 62
           7
100
AcDbLine
 10
367.553985124319
 20
74.334287727942
 11
367.975334709375
 21
75.491935576072
  0
LINE
  5
22C
100
AcDbEntity
  8
AM_0_10
  6
CONTINUOUS
 62
           7
100
AcDbLine
 10
369.885510211675
 20
74.644977177253
 11
370.103591447561
 21
74.63898571836
  0
LINE
  5
22B
100
AcDbEntity
  8
AM_0_10
  6
CONTINUOUS
 62
           7
100
AcDbLine
 10
373.240234499662
 20
85.734940613379
 11
374.373047953336
 21
87.383194054236
  0
LINE
  5
22A
100
AcDbEntity
  8
AM_7
  6
CONTINUOUS
 62
           2
100
AcDbLine
 10
378.709031229704
 20
89.141884888282
 11
378.709031229704
 21
84.847884888282
  0
LINE
  5
229
100
AcDbEntity
  8
AM_7
  6
CONTINUOUS
 62
           2
100
AcDbLine
 10
378.709031229704
 20
89.141884888282
 11
383.003031229703
 21
89.141884888282
  0
LINE
  5
228
100
AcDbEntity
  8
AM_0_10
  6
CONTINUOUS
 62
           7
100
AcDbLine
 10
382.708985453336
 20
91.141926849951
 11
382.708985453336
 21
67.141930664649
  0
LINE
  5
227
100
AcDbEntity
  8
AM_0_10
  6
CONTINUOUS
 62
           7
100
AcDbLine
 10
382.208990221708
 20
91.1419287573
 11
382.208971148221
 21
67.141935433021
  0
LINE
  5
226
100
AcDbEntity
  8
AM_0_10
  6
CONTINUOUS
 62
           7
100
AcDbLine
 10
367.114039903372
 20
86.981334770789
 11
366.715303903311
 21
88.941184128394
  0
LINE
  5
225
100
AcDbEntity
  8
AM_0_10
  6
CONTINUOUS
 62
           7
100
AcDbLine
 10
366.084953671186
 20
86.084114636054
 11
366.357422953337
 21
86.084114636054
  0
LINE
  5
224
100
AcDbEntity
  8
AM_0_10
  6
CONTINUOUS
 62
           7
100
AcDbLine
 10
366.076172714918
 20
85.673958862891
 11
366.076172714918
 21
84.766927326789
  0
LINE
  5
223
100
AcDbEntity
  8
AM_0_10
  6
CONTINUOUS
 62
           7
100
AcDbLine
 10
365.476172810285
 20
84.766927326789
 11
366.076172714918
 21
85.673958862891
  0
LINE
  5
222
100
AcDbEntity
  8
AM_0_10
  6
CONTINUOUS
 62
           7
100
AcDbLine
 10
366.076172714918
 20
84.091927612891
 11
366.357422953337
 21
84.091927612891
  0
LINE
  5
221
100
AcDbEntity
  8
AM_0_10
  6
CONTINUOUS
 62
           7
100
AcDbLine
 10
366.076172714918
 20
84.537239636054
 11
366.076172714918
 21
84.091927612891
  0
LINE
  5
220
100
AcDbEntity
  8
AM_0_10
  6
CONTINUOUS
 62
           7
100
AcDbLine
 10
366.357422953337
 20
84.759896362891
 11
366.657422905653
 21
84.759896362891
  0
LINE
  5
21F
100
AcDbEntity
  8
AM_0_10
  6
CONTINUOUS
 62
           7
100
AcDbLine
 10
366.357422953337
 20
84.537239636054
 11
366.357422953337
 21
84.091927612891
  0
LINE
  5
21E
100
AcDbEntity
  8
AM_0_10
  6
CONTINUOUS
 62
           7
100
AcDbLine
 10
366.657422905653
 20
84.759896362891
 11
366.657422905653
 21
84.537239636054
  0
LINE
  5
21D
100
AcDbEntity
  8
AM_0_10
  6
CONTINUOUS
 62
           7
100
AcDbLine
 10
366.357422953337
 20
84.537239636054
 11
366.657422905653
 21
84.537239636054
  0
LINE
  5
21C
100
AcDbEntity
  8
AM_0_10
  6
CONTINUOUS
 62
           7
100
AcDbLine
 10
365.208985453337
 20
84.759896362891
 11
365.208985453337
 21
84.537239636054
  0
LINE
  5
21B
100
AcDbEntity
  8
AM_0_10
  6
CONTINUOUS
 62
           7
100
AcDbLine
 10
365.476172810285
 20
84.766927326789
 11
366.076172714918
 21
84.766927326789
  0
LINE
  5
21A
100
AcDbEntity
  8
AM_0_10
  6
CONTINUOUS
 62
           7
100
AcDbLine
 10
365.208985453337
 20
84.537239636054
 11
366.076172714918
 21
84.537239636054
  0
LINE
  5
219
100
AcDbEntity
  8
AM_0_10
  6
CONTINUOUS
 62
           7
100
AcDbLine
 10
361.758981829374
 20
80.641930664649
 11
363.120274191587
 21
80.641930664649
  0
LINE
  5
218
100
AcDbEntity
  8
AM_0_10
  6
CONTINUOUS
 62
           7
100
AcDbLine
 10
362.227427607267
 20
80.941930616965
 11
363.120274191587
 21
80.941930616965
  0
LINE
  5
217
100
AcDbEntity
  8
AM_0_10
  6
CONTINUOUS
 62
           7
100
AcDbLine
 10
362.090954428404
 20
81.932432974448
 11
361.788802748411
 21
81.930970753302
  0
LINE
  5
216
100
AcDbEntity
  8
AM_0_10
  6
CONTINUOUS
 62
           7
100
AcDbLine
 10
363.120274191587
 20
80.941930616965
 11
363.120274191587
 21
80.641930664649
  0
LINE
  5
215
100
AcDbEntity
  8
AM_0_10
  6
CONTINUOUS
 62
           7
100
AcDbLine
 10
366.833985453336
 20
75.491936768164
 11
367.13263512203
 21
75.491936768164
  0
LINE
  5
214
100
AcDbEntity
  8
AM_0_10
  6
CONTINUOUS
 62
           7
100
AcDbLine
 10
366.833985453336
 20
73.991936768164
 11
367.058985357969
 21
73.991936768164
  0
LINE
  5
213
100
AcDbEntity
  8
AM_0_10
  6
CONTINUOUS
 62
           7
100
AcDbLine
 10
366.833985453336
 20
75.491936768164
 11
366.833985453336
 21
73.991936768164
  0
LINE
  5
212
100
AcDbEntity
  8
AM_0_10
  6
CONTINUOUS
 62
           7
100
AcDbLine
 10
367.058985357969
 20
75.036431873908
 11
367.439150815695
 21
73.991937245002
  0
LINE
  5
211
100
AcDbEntity
  8
AM_0_10
  6
CONTINUOUS
 62
           7
100
AcDbLine
 10
367.058985357969
 20
75.036432350745
 11
367.058985357969
 21
73.991936768164
  0
LINE
  5
210
100
AcDbEntity
  8
AM_0_10
  6
CONTINUOUS
 62
           7
100
AcDbLine
 10
362.451094275205
 20
77.34210559236
 11
362.447094088285
 21
77.34210559236
  0
LINE
  5
20F
100
AcDbEntity
  8
AM_0_10
  6
CONTINUOUS
 62
           7
100
AcDbLine
 10
362.447093611448
 20
75.642117584815
 11
362.451094275205
 21
75.642117584815
  0
LINE
  5
20E
100
AcDbEntity
  8
AM_0_10
  6
CONTINUOUS
 62
           7
100
AcDbLine
 10
367.145814781874
 20
77.894259298911
 11
360.536412363737
 21
76.061319197287
  0
LINE
  5
20D
100
AcDbEntity
  8
AM_0_10
  6
CONTINUOUS
 62
           7
100
AcDbLine
 10
366.709523087232
 20
79.092994163503
 11
360.468219881742
 21
76.248679007163
  0
LINE
  5
20C
100
AcDbEntity
  8
AM_0_10
  6
CONTINUOUS
 62
           7
100
AcDbLine
 10
360.930026655882
 20
77.274365748038
 11
358.985283022611
 21
76.807473744025
  0
LINE
  5
20B
100
AcDbEntity
  8
AM_0_10
  6
CONTINUOUS
 62
           7
100
AcDbLine
 10
361.961852198332
 20
83.440325821509
 11
360.275068407743
 21
84.514925564399
  0
LINE
  5
20A
100
AcDbEntity
  8
AM_0_10
  6
CONTINUOUS
 62
           7
100
AcDbLine
 10
360.818701868742
 20
80.462316597571
 11
358.846129542082
 21
80.792411888709
  0
LINE
  5
209
100
AcDbEntity
  8
AM_0_10
  6
CONTINUOUS
 62
           7
100
AcDbLine
 10
364.177734499662
 20
85.734940136542
 11
363.044921522825
 21
87.383193100562
  0
LINE
  5
208
100
AcDbEntity
  8
AM_0_10
  6
CONTINUOUS
 62
           7
100
AcDbLine
 10
365.208985453337
 20
84.759896362891
 11
366.084953909605
 21
86.084114636054
  0
LINE
  5
207
100
AcDbEntity
  8
AM_0_10
  6
CONTINUOUS
 62
           7
100
AcDbLine
 10
366.357422953337
 20
86.084114636054
 11
366.357422953337
 21
84.759896362891
  0
LINE
  5
206
100
AcDbEntity
  8
AM_0_10
  6
CONTINUOUS
 62
           7
100
AcDbLine
 10
360.709002619474
 20
68.39191540586
 11
360.709002619474
 21
69.89191540586
  0
LINE
  5
205
100
AcDbEntity
  8
AM_0_10
  6
CONTINUOUS
 62
           7
100
AcDbLine
 10
359.459005480497
 20
67.141929710975
 11
359.459007387846
 21
68.391929710975
  0
LINE
  5
204
100
AcDbEntity
  8
AM_0_10
  6
CONTINUOUS
 62
           7
100
AcDbLine
 10
357.959005480498
 20
67.141916359535
 11
357.959007387846
 21
68.391916359535
  0
LINE
  5
203
100
AcDbEntity
  8
AM_7
  6
DOT_CENTER
 62
           2
100
AcDbLine
 10
358.708985453337
 20
69.141930664649
 11
358.708985453337
 21
64.847930664649
  0
LINE
  5
202
100
AcDbEntity
  8
AM_0_10
  6
CONTINUOUS
 62
           7
100
AcDbLine
 10
359.459003573149
 20
67.14191540586
 11
357.959003573149
 21
67.14191540586
  0
LINE
  5
201
100
AcDbEntity
  8
AM_0_10
  6
CONTINUOUS
 62
           7
100
AcDbLine
 10
359.459003573149
 20
71.14191540586
 11
357.959003573149
 21
71.14191540586
  0
LINE
  5
200
100
AcDbEntity
  8
AM_0_10
  6
CONTINUOUS
 62
           7
100
AcDbLine
 10
357.959009295195
 20
69.891916359534
 11
357.959011202544
 21
71.141916359534
  0
LINE
  5
1FF
100
AcDbEntity
  8
AM_0_10
  6
CONTINUOUS
 62
           7
100
AcDbLine
 10
359.458995943754
 20
69.891929710975
 11
359.458997851103
 21
71.141929710975
  0
LINE
  5
1FE
100
AcDbEntity
  8
AM_0_10
  6
CONTINUOUS
 62
           7
100
AcDbLine
 10
359.459009295194
 20
69.891929710975
 11
359.459011202543
 21
71.141929710975
  0
LINE
  5
1FD
100
AcDbEntity
  8
AM_0_10
  6
CONTINUOUS
 62
           7
100
AcDbLine
 10
359.458995943754
 20
69.891929710975
 11
359.458997851103
 21
71.141929710975
  0
LINE
  5
1FC
100
AcDbEntity
  8
AM_0_10
  6
CONTINUOUS
 62
           7
100
AcDbLine
 10
356.709002619475
 20
68.39191540586
 11
356.709002619475
 21
69.89191540586
  0
LINE
  5
1FB
100
AcDbEntity
  8
AM_0_10
  6
CONTINUOUS
 62
           7
100
AcDbLine
 10
357.959009295195
 20
69.891916359534
 11
356.709009295195
 21
69.891918266883
  0
LINE
  5
1FA
100
AcDbEntity
  8
AM_0_10
  6
CONTINUOUS
 62
           7
100
AcDbLine
 10
357.959007387846
 20
68.391916359535
 11
356.709007387846
 21
68.391918266883
  0
LINE
  5
1F9
100
AcDbEntity
  8
AM_7
  6
DOT_CENTER
 62
           2
100
AcDbLine
 10
358.708985453337
 20
69.141930664649
 11
354.414985453336
 21
69.141930664649
  0
LINE
  5
1F8
100
AcDbEntity
  8
AM_7
  6
DOT_CENTER
 62
           2
100
AcDbLine
 10
358.708985453337
 20
69.141930664649
 11
363.002985453337
 21
69.141930664649
  0
LINE
  5
1F7
100
AcDbEntity
  8
AM_0_10
  6
CONTINUOUS
 62
           7
100
AcDbLine
 10
360.708995943754
 20
69.891927803626
 11
359.458995943754
 21
69.891929710975
  0
LINE
  5
1F6
100
AcDbEntity
  8
AM_0_10
  6
CONTINUOUS
 62
           7
100
AcDbLine
 10
360.709009295194
 20
69.891927803626
 11
359.459009295194
 21
69.891929710975
  0
LINE
  5
1F5
100
AcDbEntity
  8
AM_0_10
  6
CONTINUOUS
 62
           7
100
AcDbLine
 10
360.708995943754
 20
69.891927803626
 11
359.458995943754
 21
69.891929710975
  0
LINE
  5
1F4
100
AcDbEntity
  8
AM_0_10
  6
CONTINUOUS
 62
           7
100
AcDbLine
 10
360.709007387846
 20
68.391927803627
 11
359.459007387846
 21
68.391929710975
  0
LINE
  5
1F3
100
AcDbEntity
  8
AM_0_10
  6
CONTINUOUS
 62
           7
100
AcDbLine
 10
354.708985453337
 20
91.141926849951
 11
354.708985453337
 21
67.141930664649
  0
LINE
  5
1F2
100
AcDbEntity
  8
AM_0_10
  6
CONTINUOUS
 62
           7
100
AcDbLine
 10
355.208992129058
 20
91.141949738135
 11
355.208973055571
 21
67.141956413856
  0
LINE
  5
1F1
100
AcDbEntity
  8
AM_7
  6
DOT_CENTER
 62
           2
100
AcDbLine
 10
358.708985453337
 20
69.141930664649
 11
358.708985453337
 21
73.435930664649
  0
LINE
  5
1F0
100
AcDbEntity
  8
AM_0_10
  6
CONTINUOUS
 62
           7
100
AcDbLine
 10
356.708985453337
 20
65.141930664649
 11
380.708985453336
 21
65.141930664649
  0
LINE
  5
1EF
100
AcDbEntity
  8
AM_0_10
  6
CONTINUOUS
 62
           7
100
AcDbLine
 10
356.708972101897
 20
65.641955460182
 11
380.708970194546
 21
65.641936386695
  0
LINE
  5
1EE
100
AcDbEntity
  8
AM_0_10
  6
CONTINUOUS
 62
           7
100
AcDbLine
 10
356.708985453337
 20
93.141915405859
 11
380.708985453336
 21
93.141915405859
  0
LINE
  5
1ED
100
AcDbEntity
  8
AM_0_10
  6
CONTINUOUS
 62
           7
100
AcDbLine
 10
356.708983545989
 20
92.641938294043
 11
380.708981638638
 21
92.641923035254
  0
LINE
  5
1EC
100
AcDbEntity
  8
AM_0_10
  6
CONTINUOUS
 62
           7
100
AcDbLine
 10
367.439150696485
 20
73.991936768164
 11
367.668819313734
 21
73.991936768164
  0
LINE
  5
1EB
100
AcDbEntity
  8
AM_0_10
  6
CONTINUOUS
 62
           7
100
AcDbLine
 10
367.132635241239
 20
75.491936529746
 11
367.553985124319
 21
74.334287727942
  0
LINE
  5
1EA
100
AcDbEntity
  8
AM_0_4
  6
CONTINUOUS
 62
           7
100
AcDbLine
 10
550.208954940475
 20
53.641963811344
 11
550.208954941295
 21
49.641963811344
  0
LINE
  5
1E9
100
AcDbEntity
  8
AM_0_4
  6
CONTINUOUS
 62
           7
100
AcDbLine
 10
549.709000716638
 20
54.641933293663
 11
549.70900071491
 21
63.064601750695
  0
LINE
  5
1E8
100
AcDbEntity
  8
AM_0_4
  6
CONTINUOUS
 62
           7
100
AcDbLine
 10
550.102122433645
 20
66.113865704937
 11
550.102175834074
 21
92.113850446147
  0
LINE
  5
1E7
100
AcDbEntity
  8
AM_0_4
  6
CONTINUOUS
 62
           7
100
AcDbLine
 10
534.75242722118
 20
99.149234621161
 11
534.717492223212
 21
101.150623170959
  0
LINE
  5
1E6
100
AcDbEntity
  8
AM_0_4
  6
CONTINUOUS
 62
           7
100
AcDbLine
 10
534.708985448106
 20
102.141918031796
 11
534.70898544784
 21
103.441921083554
  0
LINE
  5
1E5
100
AcDbEntity
  8
AM_0_4
  6
CONTINUOUS
 62
           7
100
AcDbLine
 10
534.208985448209
 20
101.641918031694
 11
534.208985448106
 21
102.141918031694
  0
LINE
  5
1E4
100
AcDbEntity
  8
AM_0_4
  6
CONTINUOUS
 62
           7
100
AcDbLine
 10
534.708966374353
 20
103.441921083554
 11
534.508968472396
 21
103.641916124407
  0
LINE
  5
1E3
100
AcDbEntity
  8
AM_0_4
  6
CONTINUOUS
 62
           7
100
AcDbLine
 10
532.060734866884
 20
108.913673249759
 11
531.208960651138
 21
109.141902772289
  0
LINE
  5
1E2
100
AcDbEntity
  8
AM_0_4
  6
CONTINUOUS
 62
           7
100
AcDbLine
 10
530.041581271976
 20
108.606029358964
 11
532.208970187991
 21
108.606029359408
  0
LINE
  5
1E1
100
AcDbEntity
  8
AM_0_4
  6
CONTINUOUS
 62
           7
100
AcDbLine
 10
533.208985447696
 20
104.141918031488
 11
533.208985447617
 21
104.526454774653
  0
LINE
  5
1E0
100
AcDbEntity
  8
AM_0_4
  6
CONTINUOUS
 62
           7
100
AcDbLine
 10
533.108982205089
 20
104.69967254807
 11
532.458988308527
 21
105.074949113489
  0
LINE
  5
1DF
100
AcDbEntity
  8
AM_0_4
  6
CONTINUOUS
 62
           7
100
AcDbLine
 10
532.208985447416
 20
105.507945863315
 11
532.208985446757
 21
108.720500794955
  0
LINE
  5
1DE
100
AcDbEntity
  8
AM_0_4
  6
CONTINUOUS
 62
           7
100
AcDbLine
 10
530.041611789554
 20
108.606014100175
 11
530.041611790248
 21
105.221904603105
  0
LINE
  5
1DD
100
AcDbEntity
  8
AM_0_4
  6
CONTINUOUS
 62
           7
100
AcDbLine
 10
520.876359104007
 20
108.606014098295
 11
520.876359104701
 21
105.221904601225
  0
LINE
  5
1DC
100
AcDbEntity
  8
AM_0_4
  6
CONTINUOUS
 62
           7
100
AcDbLine
 10
520.876328587123
 20
105.221919860014
 11
530.04158127267
 21
105.221919861894
  0
LINE
  5
1DB
100
AcDbEntity
  8
AM_0_4
  6
CONTINUOUS
 62
           7
100
AcDbLine
 10
531.208985446671
 20
109.141918031078
 11
518.708970187882
 21
109.141918028514
  0
LINE
  5
1DA
100
AcDbEntity
  8
AM_0_4
  6
CONTINUOUS
 62
           7
100
AcDbLine
 10
534.708970189316
 20
102.141918031796
 11
518.708954930528
 21
102.141918028514
  0
LINE
  5
1D9
100
AcDbEntity
  8
AM_0_4
  6
CONTINUOUS
 62
           7
100
AcDbLine
 10
544.209031225437
 20
97.441875309136
 11
543.738648535007
 21
97.441875309039
  0
LINE
  5
1D8
100
AcDbEntity
  8
AM_0_4
  6
CONTINUOUS
 62
           7
100
AcDbLine
 10
544.208947302097
 20
97.441907734063
 11
547.208962561502
 21
94.441894383237
  0
LINE
  5
1D7
100
AcDbEntity
  8
AM_0_4
  6
CONTINUOUS
 62
           7
100
AcDbLine
 10
540.432620171515
 20
84.779994815198
 11
536.98527443752
 21
86.503663866615
  0
LINE
  5
1D6
100
AcDbEntity
  8
AM_0_4
  6
CONTINUOUS
 62
           7
100
AcDbLine
 10
540.432564861744
 20
68.503764956799
 11
536.985358364904
 21
66.780159800147
  0
LINE
  5
1D5
100
AcDbEntity
  8
AM_0_4
  6
CONTINUOUS
 62
           7
100
AcDbLine
 10
536.708954937872
 20
66.332927553692
 11
536.708954940578
 21
53.141963808575
  0
LINE
  5
1D4
100
AcDbEntity
  8
AM_0_4
  6
CONTINUOUS
 62
           7
100
AcDbLine
 10
540.70895493418
 20
84.332912295723
 11
540.708954937335
 21
68.95095428791
  0
LINE
  5
1D3
100
AcDbEntity
  8
AM_0_4
  6
CONTINUOUS
 62
           7
100
AcDbLine
 10
543.717532278045
 20
98.650609821364
 11
544.244315273736
 21
68.476972431336
  0
LINE
  5
1D2
100
AcDbEntity
  8
AM_0_4
  6
CONTINUOUS
 62
           7
100
AcDbLine
 10
547.208998801126
 20
94.441905827329
 11
547.726637967364
 21
64.786393971357
  0
LINE
  5
1D1
100
AcDbEntity
  8
AM_0_4
  6
CONTINUOUS
 62
           7
100
AcDbLine
 10
544.719361431629
 20
68.202676624549
 11
544.20897019028
 21
97.441915363457
  0
LINE
  5
1D0
100
AcDbEntity
  8
AM_7
  6
DOT_CENTER
 62
           2
100
AcDbLine
 10
533.208954932886
 20
90.641933290278
 11
533.208954934527
 21
82.641933290278
  0
LINE
  5
1CF
100
AcDbEntity
  8
AM_0_4
  6
CONTINUOUS
 62
           7
100
AcDbLine
 10
532.96395982339
 20
53.141963807807
 11
532.963959824211
 21
49.141963807807
  0
LINE
  5
1CE
100
AcDbEntity
  8
AM_0_4
  6
CONTINUOUS
 62
           7
100
AcDbLine
 10
536.708939681788
 20
53.141948549786
 11
532.963944564601
 21
53.141948549018
  0
LINE
  5
1CD
100
AcDbEntity
  8
AM_7
  6
DOT_CENTER
 62
           2
100
AcDbLine
 10
537.208939674918
 20
86.641934244773
 11
529.208939674918
 21
86.641934243132
  0
LINE
  5
1CC
100
AcDbEntity
  8
AM_0_4
  6
CONTINUOUS
 62
           7
100
AcDbLine
 10
536.708954931143
 20
99.141902773417
 11
536.708954933643
 21
86.9509390283
  0
LINE
  5
1CB
100
AcDbEntity
  8
AM_0_4
  6
CONTINUOUS
 62
           7
100
AcDbLine
 10
549.602112897004
 20
65.613878102601
 11
547.712189801301
 21
65.613880963236
  0
LINE
  5
1CA
100
AcDbEntity
  8
AM_0_4
  6
CONTINUOUS
 62
           7
100
AcDbLine
 10
549.602147223742
 20
92.613859982788
 11
547.240895392688
 21
92.613862843326
  0
LINE
  5
1C9
100
AcDbEntity
  8
AM_0_4
  6
CONTINUOUS
 62
           7
100
AcDbLine
 10
549.708939681583
 20
54.141948552453
 11
536.708939681583
 21
54.141948549786
  0
LINE
  5
1C8
100
AcDbEntity
  8
AM_0_4
  6
CONTINUOUS
 62
           7
100
AcDbLine
 10
549.708985457849
 20
54.641918034874
 11
536.70895494027
 21
54.641918032207
  0
LINE
  5
1C7
100
AcDbEntity
  8
AM_0_4
  6
CONTINUOUS
 62
           7
100
AcDbLine
 10
545.743744977017
 20
65.931255192264
 11
549.208972104503
 21
63.930579037884
  0
LINE
  5
1C6
100
AcDbEntity
  8
AM_0_4
  6
CONTINUOUS
 62
           7
100
AcDbLine
 10
518.709000717905
 20
48.463237608594
 11
549.708970200326
 21
48.463237614953
  0
LINE
  5
1C5
100
AcDbEntity
  8
AM_0_4
  6
CONTINUOUS
 62
           7
100
AcDbLine
 10
516.541611790248
 20
105.221904600336
 11
516.541611789554
 21
108.606014097406
  0
LINE
  5
1C4
100
AcDbEntity
  8
AM_0_4
  6
CONTINUOUS
 62
           7
100
AcDbLine
 10
507.376359104702
 20
105.221904598456
 11
507.376359104008
 21
108.606014095526
  0
LINE
  5
1C3
100
AcDbEntity
  8
AM_0_4
  6
CONTINUOUS
 62
           7
100
AcDbLine
 10
504.208970188907
 20
104.14191802554
 11
504.208970188828
 21
104.526454768705
  0
LINE
  5
1C2
100
AcDbEntity
  8
AM_0_4
  6
CONTINUOUS
 62
           7
100
AcDbLine
 10
504.308988690075
 20
104.699661098071
 11
504.958994030574
 21
105.074947200499
  0
LINE
  5
1C1
100
AcDbEntity
  8
AM_0_4
  6
CONTINUOUS
 62
           7
100
AcDbLine
 10
502.708970189317
 20
102.141918025233
 11
502.708970189051
 21
103.441921076991
  0
LINE
  5
1C0
100
AcDbEntity
  8
AM_0_4
  6
CONTINUOUS
 62
           7
100
AcDbLine
 10
503.20897018942
 20
101.641918025335
 11
503.208970189317
 21
102.141918025335
  0
LINE
  5
1BF
100
AcDbEntity
  8
AM_0_4
  6
CONTINUOUS
 62
           7
100
AcDbLine
 10
502.7089720964
 20
103.441911540248
 11
502.908979535019
 21
103.641918025274
  0
LINE
  5
1BE
100
AcDbEntity
  8
AM_0_4
  6
CONTINUOUS
 62
           7
100
AcDbLine
 10
502.700459599922
 20
101.150619349694
 11
502.665524602773
 21
99.149230799883
  0
LINE
  5
1BD
100
AcDbEntity
  8
AM_0_4
  6
CONTINUOUS
 62
           7
100
AcDbLine
 10
505.208970188627
 20
105.507945857778
 11
505.208970187968
 21
108.720516048206
  0
LINE
  5
1BC
100
AcDbEntity
  8
AM_0_4
  6
CONTINUOUS
 62
           7
100
AcDbLine
 10
503.208985448209
 20
101.641918025335
 11
506.708985448209
 21
101.641918026053
  0
LINE
  5
1BB
100
AcDbEntity
  8
AM_0_4
  6
CONTINUOUS
 62
           7
100
AcDbLine
 10
505.357220767762
 20
108.91370376186
 11
506.208977817277
 21
109.141933284741
  0
LINE
  5
1BA
100
AcDbEntity
  8
AM_0_4
  6
CONTINUOUS
 62
           7
100
AcDbLine
 10
505.20898544678
 20
108.606014095081
 11
507.376374362797
 21
108.606014095526
  0
LINE
  5
1B9
100
AcDbEntity
  8
AM_0_4
  6
CONTINUOUS
 62
           7
100
AcDbLine
 10
507.376374363491
 20
105.221904598456
 11
516.541627049037
 21
105.221904600336
  0
LINE
  5
1B8
100
AcDbEntity
  8
AM_7
  6
DOT_CENTER
 62
           2
100
AcDbLine
 10
504.208954932887
 20
90.64193328433
 11
504.208954934528
 21
82.64193328433
  0
LINE
  5
1B7
100
AcDbEntity
  8
AM_0_4
  6
CONTINUOUS
 62
           7
100
AcDbLine
 10
504.453950057766
 20
53.14196380196
 11
504.453950058587
 21
49.14196380196
  0
LINE
  5
1B6
100
AcDbEntity
  8
AM_0_4
  6
CONTINUOUS
 62
           7
100
AcDbLine
 10
500.432616356466
 20
86.503661951769
 11
496.985423211067
 21
84.780062517163
  0
LINE
  5
1B5
100
AcDbEntity
  8
AM_0_4
  6
CONTINUOUS
 62
           7
100
AcDbLine
 10
493.679337621922
 20
97.441875298772
 11
493.20898544907
 21
97.441875298675
  0
LINE
  5
1B4
100
AcDbEntity
  8
AM_0_4
  6
CONTINUOUS
 62
           7
100
AcDbLine
 10
490.208985450055
 20
92.641918022669
 11
487.818985450568
 21
92.641918022179
  0
LINE
  5
1B3
100
AcDbEntity
  8
AM_0_4
  6
CONTINUOUS
 62
           7
100
AcDbLine
 10
486.819004524874
 20
88.64193041974
 11
487.319008339469
 21
89.141949493329
  0
LINE
  5
1B2
100
AcDbEntity
  8
AM_0_4
  6
CONTINUOUS
 62
           7
100
AcDbLine
 10
493.208996893162
 20
97.441871483978
 11
490.208996893778
 21
94.441886742152
  0
LINE
  5
1B1
100
AcDbEntity
  8
AM_0_4
  6
CONTINUOUS
 62
           7
100
AcDbLine
 10
487.318985453337
 20
79.141948539655
 11
487.31898545067
 21
92.141933280866
  0
LINE
  5
1B0
100
AcDbEntity
  8
AM_0_4
  6
CONTINUOUS
 62
           7
100
AcDbLine
 10
500.432555325355
 20
66.780090174425
 11
496.9854308438
 21
68.503655275342
  0
LINE
  5
1AF
100
AcDbEntity
  8
AM_0_4
  6
CONTINUOUS
 62
           7
100
AcDbLine
 10
500.708954937873
 20
66.332927546308
 11
500.708954940578
 21
53.141963801192
  0
LINE
  5
1AE
100
AcDbEntity
  8
AM_0_4
  6
CONTINUOUS
 62
           7
100
AcDbLine
 10
487.319035046452
 20
69.14196618263
 11
486.819042675743
 21
69.641974288759
  0
LINE
  5
1AD
100
AcDbEntity
  8
AM_0_4
  6
CONTINUOUS
 62
           7
100
AcDbLine
 10
487.818985456105
 20
65.641949493433
 11
490.208985455593
 21
65.641949493923
  0
LINE
  5
1AC
100
AcDbEntity
  8
AM_0_4
  6
CONTINUOUS
 62
           7
100
AcDbLine
 10
491.674136288663
 20
65.931287606101
 11
488.208985455944
 21
63.930676300153
  0
LINE
  5
1AB
100
AcDbEntity
  8
AM_0_4
  6
CONTINUOUS
 62
           7
100
AcDbLine
 10
487.208954940476
 20
53.641963798423
 11
487.208954941296
 21
49.641963798423
  0
LINE
  5
1AA
100
AcDbEntity
  8
AM_0_4
  6
CONTINUOUS
 62
           7
100
AcDbLine
 10
487.709000717767
 20
49.141933280946
 11
487.709000717906
 21
48.463207084657
  0
LINE
  5
1A9
100
AcDbEntity
  8
AM_0_4
  6
CONTINUOUS
 62
           7
100
AcDbLine
 10
487.708985457849
 20
54.641933280946
 11
487.708985456121
 21
63.064651329042
  0
LINE
  5
1A8
100
AcDbEntity
  8
AM_0_4
  6
CONTINUOUS
 62
           7
100
AcDbLine
 10
500.708970199162
 20
54.141948542403
 11
487.708970199162
 21
54.141948539736
  0
LINE
  5
1A7
100
AcDbEntity
  8
AM_0_4
  6
CONTINUOUS
 62
           7
100
AcDbLine
 10
500.708954940271
 20
54.641918024823
 11
487.709000716639
 21
54.641918022157
  0
LINE
  5
1A6
100
AcDbEntity
  8
AM_0_4
  6
CONTINUOUS
 62
           7
100
AcDbLine
 10
487.318985456003
 20
66.141964752119
 11
487.318985453337
 21
79.141948539655
  0
LINE
  5
1A5
100
AcDbEntity
  8
AM_0_4
  6
CONTINUOUS
 62
           7
100
AcDbLine
 10
496.708954934181
 20
84.332912286699
 11
496.708954937336
 21
68.950954278886
  0
LINE
  5
1A4
100
AcDbEntity
  8
AM_0_4
  6
CONTINUOUS
 62
           7
100
AcDbLine
 10
493.700430990205
 20
98.650632699289
 11
493.173728115534
 21
68.476966698815
  0
LINE
  5
1A3
100
AcDbEntity
  8
AM_0_4
  6
CONTINUOUS
 62
           7
100
AcDbLine
 10
493.208983541722
 20
97.441911538299
 11
492.698592312367
 21
68.202673752856
  0
LINE
  5
1A2
100
AcDbEntity
  8
AM_0_4
  6
CONTINUOUS
 62
           7
100
AcDbLine
 10
490.208985455707
 20
65.085338432827
 11
490.208985449686
 21
94.441905815638
  0
LINE
  5
1A1
100
AcDbEntity
  8
AM_0_4
  6
CONTINUOUS
 62
           7
100
AcDbLine
 10
486.818985455285
 20
69.641995269594
 11
486.818985451388
 21
88.641912299928
  0
LINE
  5
1A0
100
AcDbEntity
  8
AM_0_4
  6
CONTINUOUS
 62
           7
100
AcDbLine
 10
504.453950057766
 20
53.141948543171
 11
500.708970199367
 21
53.141948542403
  0
LINE
  5
19F
100
AcDbEntity
  8
AM_7
  6
DOT_CENTER
 62
           2
100
AcDbLine
 10
500.208970192496
 20
86.641934237184
 11
508.208954933707
 21
86.641934238825
  0
LINE
  5
19E
100
AcDbEntity
  8
AM_0_4
  6
CONTINUOUS
 62
           7
100
AcDbLine
 10
500.708954931144
 20
99.141902766034
 11
500.708954933644
 21
86.950939020917
  0
LINE
  5
19D
100
AcDbEntity
  8
AM_7
  6
DOT_CENTER
 62
           2
100
AcDbLine
 10
481.816178446501
 20
76.641948538527
 11
555.102143412321
 21
76.641948553558
  0
LINE
  5
19C
100
AcDbEntity
  8
AM_0_4
  6
CONTINUOUS
 62
           7
100
AcDbLine
 10
516.541581271976
 20
108.606029356195
 11
520.876328586429
 21
108.606029357084
  0
LINE
  5
19B
100
AcDbEntity
  8
AM_0_4
  6
CONTINUOUS
 62
           7
100
AcDbLine
 10
534.20895493063
 20
101.641918031694
 11
503.208985448209
 21
101.641918025335
  0
LINE
  5
19A
100
AcDbEntity
  8
AM_0_4
  6
CONTINUOUS
 62
           7
100
AcDbLine
 10
487.708985459116
 20
48.463237602236
 11
518.708954941538
 21
48.463237608594
  0
LINE
  5
199
100
AcDbEntity
  8
AM_0_4
  6
CONTINUOUS
 62
           7
100
AcDbLine
 10
536.70893967422
 20
90.041928141154
 11
500.708970191799
 21
90.041928133771
  0
LINE
  5
198
100
AcDbEntity
  8
AM_0_4
  6
CONTINUOUS
 62
           7
100
AcDbLine
 10
536.708939673154
 20
95.241924135722
 11
500.708970190733
 21
95.241924128338
  0
LINE
  5
197
100
AcDbEntity
  8
AM_0_4
  6
CONTINUOUS
 62
           7
100
AcDbLine
 10
536.708939679717
 20
63.241939394512
 11
500.708970197296
 21
63.241939387129
  0
LINE
  5
196
100
AcDbEntity
  8
AM_0_4
  6
CONTINUOUS
 62
           7
100
AcDbLine
 10
536.708939680783
 20
58.04194244627
 11
500.708970198362
 21
58.041942438887
  0
LINE
  5
195
100
AcDbEntity
  8
AM_0_4
  6
CONTINUOUS
 62
           7
100
AcDbLine
 10
549.708939682609
 20
49.141948552453
 11
487.708970200188
 21
49.141948539736
  0
LINE
  5
194
100
AcDbEntity
  8
AM_0_4
  6
CONTINUOUS
 62
           7
100
AcDbLine
 10
506.208970187882
 20
109.141918025951
 11
518.708970187882
 21
109.141918028514
  0
LINE
  5
193
100
AcDbEntity
  8
AM_0_4
  6
CONTINUOUS
 62
           7
100
AcDbLine
 10
502.708985448106
 20
102.141918025233
 11
518.708954930528
 21
102.141918028514
  0
LINE
  5
192
100
AcDbEntity
  8
AM_0_4
  6
CONTINUOUS
 62
           7
100
AcDbLine
 10
502.908997654831
 20
103.641918025274
 11
534.508973240767
 21
103.641918031755
  0
LINE
  5
191
100
AcDbEntity
  8
AM_0_4
  6
CONTINUOUS
 62
           7
100
AcDbLine
 10
543.217621923331
 20
99.141902774752
 11
494.200348974113
 21
99.141902764699
  0
LINE
  5
190
100
AcDbEntity
  8
AM_7
  6
CONTINUOUS
 62
           7
100
AcDbLine
 10
538.70893968025
 20
60.641948550197
 11
498.708970197829
 21
60.641948541992
  0
LINE
  5
18F
100
AcDbEntity
  8
AM_0_4
  6
CONTINUOUS
 62
           7
100
AcDbLine
 10
549.208970202644
 20
37.163249821881
 11
549.208970202001
 21
40.29722198985
  0
LINE
  5
18E
100
AcDbEntity
  8
AM_0_4
  6
CONTINUOUS
 62
           7
100
AcDbLine
 10
549.208985461536
 20
36.663188786725
 11
549.208985462305
 21
32.913493962506
  0
LINE
  5
18D
100
AcDbEntity
  8
AM_0_4
  6
CONTINUOUS
 62
           7
100
AcDbLine
 10
549.208939685168
 20
36.663234563092
 11
549.208939685937
 21
32.913539738873
  0
LINE
  5
18C
100
AcDbEntity
  8
AM_0_4
  6
CONTINUOUS
 62
           7
100
AcDbLine
 10
546.115021838387
 20
37.16320404488
 11
546.115021837669
 21
40.663234562457
  0
LINE
  5
18B
100
AcDbEntity
  8
AM_0_4
  6
CONTINUOUS
 62
           7
100
AcDbLine
 10
541.609069002586
 20
40.663314670175
 11
541.448140276766
 21
38.823890536841
  0
LINE
  5
18A
100
AcDbEntity
  8
AM_0_4
  6
CONTINUOUS
 62
           7
100
AcDbLine
 10
539.177430286985
 20
30.663219302246
 11
539.45892442761
 21
30.663219302303
  0
LINE
  5
189
100
AcDbEntity
  8
AM_0_4
  6
CONTINUOUS
 62
           7
100
AcDbLine
 10
539.458871021849
 20
30.663223117
 11
540.970776691912
 21
31.163219302613
  0
LINE
  5
188
100
AcDbEntity
  8
AM_0_4
  6
CONTINUOUS
 62
           7
100
AcDbLine
 10
537.093720568855
 20
37.163204043029
 11
537.093720568137
 21
40.663234560607
  0
LINE
  5
187
100
AcDbEntity
  8
AM_0_4
  6
CONTINUOUS
 62
           7
100
AcDbLine
 10
534.83209718762
 20
30.663230745445
 11
535.927394047258
 21
31.163234560368
  0
LINE
  5
186
100
AcDbEntity
  8
AM_0_4
  6
CONTINUOUS
 62
           7
100
AcDbLine
 10
535.927430286882
 20
31.163219301579
 11
539.177430286882
 21
31.163219302245
  0
LINE
  5
185
100
AcDbEntity
  8
AM_0_4
  6
CONTINUOUS
 62
           7
100
AcDbLine
 10
537.108964099088
 20
37.363246767641
 11
539.854127062955
 21
37.363246768204
  0
LINE
  5
184
100
AcDbEntity
  8
AM_0_4
  6
CONTINUOUS
 62
           7
100
AcDbLine
 10
540.726338521961
 20
24.16322311726
 11
540.208878652679
 21
23.663223117154
  0
LINE
  5
183
100
AcDbEntity
  8
AM_0_4
  6
CONTINUOUS
 62
           7
100
AcDbLine
 10
538.739491598236
 20
23.663211672761
 11
539.177424566272
 21
24.163215487548
  0
LINE
  5
182
100
AcDbEntity
  8
AM_0_4
  6
CONTINUOUS
 62
           7
100
AcDbLine
 10
535.489493505584
 20
23.663215486791
 11
535.927418844227
 21
24.163207857487
  0
LINE
  5
181
100
AcDbEntity
  8
AM_0_4
  6
CONTINUOUS
 62
           7
100
AcDbLine
 10
536.708985464203
 20
23.663219301739
 11
536.708985466349
 21
13.200511782207
  0
LINE
  5
180
100
AcDbEntity
  8
AM_0_4
  6
CONTINUOUS
 62
           7
100
AcDbLine
 10
535.927430288318
 20
24.163219301579
 11
539.177430288318
 21
24.163219302246
  0
LINE
  5
17F
100
AcDbEntity
  8
AM_0_4
  6
CONTINUOUS
 62
           7
100
AcDbLine
 10
540.96236719184
 20
30.921878665405
 11
540.726351873401
 21
24.163272708324
  0
LINE
  5
17E
100
AcDbEntity
  8
AM_0_4
  6
CONTINUOUS
 62
           7
100
AcDbLine
 10
539.177445545671
 20
31.163234561035
 11
539.177445547107
 21
24.163234561035
  0
LINE
  5
17D
100
AcDbEntity
  8
AM_0_4
  6
CONTINUOUS
 62
           7
100
AcDbLine
 10
535.927445545671
 20
31.163234560368
 11
535.927445547107
 21
24.163234560368
  0
LINE
  5
17C
100
AcDbEntity
  8
AM_0_4
  6
CONTINUOUS
 62
           7
100
AcDbLine
 10
534.832169666868
 20
30.663234560143
 11
534.832169668304
 21
23.663234560143
  0
LINE
  5
17B
100
AcDbEntity
  8
AM_0_4
  6
CONTINUOUS
 62
           7
100
AcDbLine
 10
539.708922525785
 20
3.733104556261
 11
537.5566531625
 21
3.156406252596
  0
LINE
  5
17A
100
AcDbEntity
  8
AM_0_4
  6
CONTINUOUS
 62
           7
100
AcDbLine
 10
539.70892443204
 20
9.063213198839
 11
539.708924433133
 21
3.733089297472
  0
LINE
  5
179
100
AcDbEntity
  8
AM_0_4
  6
CONTINUOUS
 62
           7
100
AcDbLine
 10
535.458985467183
 20
9.134563295623
 11
535.458985466605
 21
11.95052704074
  0
LINE
  5
178
100
AcDbEntity
  8
AM_0_4
  6
CONTINUOUS
 62
           7
100
AcDbLine
 10
534.349721094648
 20
3.063274232895
 11
534.394063135459
 21
4.063266603511
  0
LINE
  5
177
100
AcDbEntity
  8
AM_0_4
  6
CONTINUOUS
 62
           7
100
AcDbLine
 10
535.458981651907
 20
11.950404970428
 11
536.708985466349
 21
13.200439302959
  0
LINE
  5
176
100
AcDbEntity
  8
AM_0_4
  6
CONTINUOUS
 62
           7
100
AcDbLine
 10
535.458985466605
 20
11.95052704074
 11
535.458985464203
 21
23.663219301483
  0
LINE
  5
175
100
AcDbEntity
  8
AM_0_4
  6
CONTINUOUS
 62
           7
100
AcDbLine
 10
526.141253605467
 20
30.663226928966
 11
526.773615017413
 21
31.163226929096
  0
LINE
  5
174
100
AcDbEntity
  8
AM_0_4
  6
CONTINUOUS
 62
           7
100
AcDbLine
 10
526.773652210711
 20
31.163219299701
 11
532.402817860124
 21
31.163219300856
  0
LINE
  5
173
100
AcDbEntity
  8
AM_0_4
  6
CONTINUOUS
 62
           7
100
AcDbLine
 10
532.149925367462
 20
23.663253633079
 11
532.402768270496
 21
24.163261262526
  0
LINE
  5
172
100
AcDbEntity
  8
AM_0_4
  6
CONTINUOUS
 62
           7
100
AcDbLine
 10
526.520804063904
 20
23.663242187833
 11
526.773640768055
 21
24.163234558491
  0
LINE
  5
171
100
AcDbEntity
  8
AM_0_4
  6
CONTINUOUS
 62
           7
100
AcDbLine
 10
526.773652212147
 20
24.163219299701
 11
532.40281786156
 21
24.163219300856
  0
LINE
  5
170
100
AcDbEntity
  8
AM_0_4
  6
CONTINUOUS
 62
           7
100
AcDbLine
 10
532.402817860124
 20
31.163234559645
 11
532.40281786156
 21
24.163234559645
  0
LINE
  5
16F
100
AcDbEntity
  8
AM_0_4
  6
CONTINUOUS
 62
           7
100
AcDbLine
 10
526.773652210711
 20
31.163219299701
 11
526.773652212147
 21
24.163219299701
  0
LINE
  5
16E
100
AcDbEntity
  8
AM_0_4
  6
CONTINUOUS
 62
           7
100
AcDbLine
 10
526.141282215697
 20
30.663234558361
 11
526.141282217132
 21
23.663234558361
  0
LINE
  5
16D
100
AcDbEntity
  8
AM_0_4
  6
CONTINUOUS
 62
           7
100
AcDbLine
 10
518.708939686297
 20
31.163219298047
 11
521.958924427508
 21
31.163219298714
  0
LINE
  5
16C
100
AcDbEntity
  8
AM_0_4
  6
CONTINUOUS
 62
           7
100
AcDbLine
 10
518.708939687733
 20
24.163219298047
 11
521.958924428944
 21
24.163219298714
  0
LINE
  5
16B
100
AcDbEntity
  8
AM_0_4
  6
CONTINUOUS
 62
           7
100
AcDbLine
 10
521.958924427508
 20
31.163234557503
 11
521.958924429047
 21
23.663234557503
  0
LINE
  5
16A
100
AcDbEntity
  8
AM_0_4
  6
CONTINUOUS
 62
           7
100
AcDbLine
 10
521.958924427611
 20
30.663219298714
 11
526.141282215697
 21
30.663219299572
  0
LINE
  5
169
100
AcDbEntity
  8
AM_0_4
  6
CONTINUOUS
 62
           7
100
AcDbLine
 10
522.95895495085
 20
3.063228454192
 11
521.859226604774
 21
4.063228453967
  0
LINE
  5
168
100
AcDbEntity
  8
AM_0_4
  6
CONTINUOUS
 62
           7
100
AcDbLine
 10
536.708985466349
 20
13.200511782207
 11
518.708985466348
 21
13.200511778515
  0
LINE
  5
167
100
AcDbEntity
  8
AM_0_4
  6
CONTINUOUS
 62
           7
100
AcDbLine
 10
518.708939687835
 20
23.663219298047
 11
540.208909170257
 21
23.663219302457
  0
LINE
  5
166
100
AcDbEntity
  8
AM_0_4
  6
CONTINUOUS
 62
           7
100
AcDbLine
 10
532.402817860227
 20
30.663219300856
 11
534.832154408079
 21
30.663219301354
  0
LINE
  5
165
100
AcDbEntity
  8
AM_0_4
  6
CONTINUOUS
 62
           7
100
AcDbLine
 10
534.39408983834
 20
4.063213197748
 11
521.859223505332
 21
4.063213195177
  0
LINE
  5
164
100
AcDbEntity
  8
AM_0_4
  6
CONTINUOUS
 62
           7
100
AcDbLine
 10
534.349747797529
 20
3.063213197739
 11
522.958909174483
 21
3.063213195403
  0
LINE
  5
163
100
AcDbEntity
  8
AM_0_4
  6
CONTINUOUS
 62
           7
100
AcDbLine
 10
531.591742661408
 20
-26.636760862883
 11
532.958882477426
 21
-25.336757810843
  0
LINE
  5
162
100
AcDbEntity
  8
AM_0_4
  6
CONTINUOUS
 62
           7
100
AcDbLine
 10
522.95888629239
 20
-26.636737976464
 11
522.526083614969
 21
-25.336727295403
  0
LINE
  5
161
100
AcDbEntity
  8
AM_0_4
  6
CONTINUOUS
 62
           7
100
AcDbLine
 10
522.526108887339
 20
-25.336780701163
 11
518.708939697885
 21
-25.336780701946
  0
LINE
  5
160
100
AcDbEntity
  8
AM_0_4
  6
CONTINUOUS
 62
           7
100
AcDbLine
 10
531.591782715729
 20
-26.636783751063
 11
522.958909180574
 21
-26.636783752834
  0
LINE
  5
15F
100
AcDbEntity
  8
AM_0_4
  6
CONTINUOUS
 62
           7
100
AcDbLine
 10
535.088359024958
 20
-26.752681882666
 11
533.208901551343
 21
-27.436748655522
  0
LINE
  5
15E
100
AcDbEntity
  8
AM_0_4
  6
CONTINUOUS
 62
           7
100
AcDbLine
 10
535.476060059213
 20
-25.336780698507
 11
532.958909180307
 21
-25.336780699023
  0
LINE
  5
15D
100
AcDbEntity
  8
AM_0_4
  6
CONTINUOUS
 62
           7
100
AcDbLine
 10
522.958880093507
 20
-26.636707458894
 11
522.958941122572
 21
3.063274230559
  0
LINE
  5
15C
100
AcDbEntity
  8
AM_0_4
  6
CONTINUOUS
 62
           7
100
AcDbLine
 10
537.186909815425
 20
2.703922121661
 11
535.416373398647
 21
-26.313236386999
  0
LINE
  5
15B
100
AcDbEntity
  8
AM_0_4
  6
CONTINUOUS
 62
           7
100
AcDbLine
 10
522.526104118967
 20
-25.336719666013
 11
521.859234234168
 21
4.06326660094
  0
LINE
  5
15A
100
AcDbEntity
  8
AM_0_4
  6
CONTINUOUS
 62
           7
100
AcDbLine
 10
531.591723587922
 20
-26.636699827723
 11
534.349716326277
 21
3.063274232895
  0
LINE
  5
159
100
AcDbEntity
  8
AM_0_4
  6
CONTINUOUS
 62
           7
100
AcDbLine
 10
532.958851959848
 20
-25.336719663873
 11
534.394048830344
 21
4.063281862299
  0
LINE
  5
158
100
AcDbEntity
  8
AM_0_4
  6
CONTINUOUS
 62
           7
100
AcDbLine
 10
541.208415165413
 20
31.20653900481
 11
548.962609424768
 21
32.618419499565
  0
LINE
  5
157
100
AcDbEntity
  8
AM_0_4
  6
CONTINUOUS
 62
           7
100
AcDbLine
 10
518.708939685989
 20
32.663219298047
 11
549.074280872513
 21
32.663219304275
  0
LINE
  5
156
100
AcDbEntity
  8
AM_0_4
  6
CONTINUOUS
 62
           7
100
AcDbLine
 10
541.208459034432
 20
31.206516116626
 11
548.962638034997
 21
32.618404240776
  0
LINE
  5
155
100
AcDbEntity
  8
AM_0_4
  6
CONTINUOUS
 62
           7
100
AcDbLine
 10
518.709000720325
 20
36.663234556836
 11
549.208924426379
 21
36.663234563092
  0
LINE
  5
154
100
AcDbEntity
  8
AM_0_4
  6
CONTINUOUS
 62
           7
100
AcDbLine
 10
518.709000719505
 20
40.663234556836
 11
549.368332994895
 21
40.663234563125
  0
LINE
  5
153
100
AcDbEntity
  8
AM_0_4
  6
CONTINUOUS
 62
           7
100
AcDbLine
 10
511.276542797667
 20
30.663219296523
 11
510.644181385516
 21
31.163219296393
  0
LINE
  5
152
100
AcDbEntity
  8
AM_0_4
  6
CONTINUOUS
 62
           7
100
AcDbLine
 10
515.458954945189
 20
30.663219297381
 11
511.276597157103
 21
30.663219296523
  0
LINE
  5
151
100
AcDbEntity
  8
AM_0_4
  6
CONTINUOUS
 62
           7
100
AcDbLine
 10
510.89702619754
 20
23.663238369931
 11
510.644189016346
 21
24.163230740484
  0
LINE
  5
150
100
AcDbEntity
  8
AM_0_4
  6
CONTINUOUS
 62
           7
100
AcDbLine
 10
511.276597157103
 20
30.663234555312
 11
511.276597158538
 21
23.663234555312
  0
LINE
  5
14F
100
AcDbEntity
  8
AM_0_4
  6
CONTINUOUS
 62
           7
100
AcDbLine
 10
515.458954945086
 20
31.16323455617
 11
515.458954946625
 21
23.66323455617
  0
LINE
  5
14E
100
AcDbEntity
  8
AM_0_4
  6
CONTINUOUS
 62
           7
100
AcDbLine
 10
510.644227161883
 20
31.163234555182
 11
510.644227163319
 21
24.163234555182
  0
LINE
  5
14D
100
AcDbEntity
  8
AM_0_4
  6
CONTINUOUS
 62
           7
100
AcDbLine
 10
505.015061512572
 20
30.663219295239
 11
502.58574022351
 21
30.663219294741
  0
LINE
  5
14C
100
AcDbEntity
  8
AM_0_4
  6
CONTINUOUS
 62
           7
100
AcDbLine
 10
505.267897741425
 20
23.663265071658
 11
505.015062467579
 21
24.163261256909
  0
LINE
  5
14B
100
AcDbEntity
  8
AM_0_4
  6
CONTINUOUS
 62
           7
100
AcDbLine
 10
502.585724964721
 20
30.663234553529
 11
502.585724966157
 21
23.663234553529
  0
LINE
  5
14A
100
AcDbEntity
  8
AM_0_4
  6
CONTINUOUS
 62
           7
100
AcDbLine
 10
505.015061512469
 20
31.163234554028
 11
505.015061513905
 21
24.163234554028
  0
LINE
  5
149
100
AcDbEntity
  8
AM_0_4
  6
CONTINUOUS
 62
           7
100
AcDbLine
 10
510.644227163319
 20
24.163219296393
 11
505.015061513905
 21
24.163219295239
  0
LINE
  5
148
100
AcDbEntity
  8
AM_0_4
  6
CONTINUOUS
 62
           7
100
AcDbLine
 10
510.644227161883
 20
31.163219296393
 11
505.015061512469
 21
31.163219295239
  0
LINE
  5
147
100
AcDbEntity
  8
AM_0_4
  6
CONTINUOUS
 62
           7
100
AcDbLine
 10
515.558606287315
 20
4.06322082328
 11
514.45887770323
 21
3.063228452449
  0
LINE
  5
146
100
AcDbEntity
  8
AM_0_4
  6
CONTINUOUS
 62
           7
100
AcDbLine
 10
503.023773332909
 20
4.063228450103
 11
503.068115374129
 21
3.063236079507
  0
LINE
  5
145
100
AcDbEntity
  8
AM_0_4
  6
CONTINUOUS
 62
           7
100
AcDbLine
 10
515.558655878379
 20
4.063197935096
 11
503.023789545372
 21
4.063197932525
  0
LINE
  5
144
100
AcDbEntity
  8
AM_0_4
  6
CONTINUOUS
 62
           7
100
AcDbLine
 10
514.458970209639
 20
3.063197934871
 11
503.068131586593
 21
3.063197932534
  0
LINE
  5
143
100
AcDbEntity
  8
AM_0_4
  6
CONTINUOUS
 62
           7
100
AcDbLine
 10
500.324250353295
 20
40.663234553066
 11
500.324250354013
 21
37.163204035488
  0
LINE
  5
142
100
AcDbEntity
  8
AM_0_4
  6
CONTINUOUS
 62
           7
100
AcDbLine
 10
495.969805849887
 20
38.82388289812
 11
495.808877123314
 21
40.663307031387
  0
LINE
  5
141
100
AcDbEntity
  8
AM_0_4
  6
CONTINUOUS
 62
           7
100
AcDbLine
 10
497.958960667235
 20
30.663276514251
 11
496.447054996966
 21
31.16327651394
  0
LINE
  5
140
100
AcDbEntity
  8
AM_0_4
  6
CONTINUOUS
 62
           7
100
AcDbLine
 10
498.240464344603
 20
30.663219293849
 11
497.958970203978
 21
30.663219293792
  0
LINE
  5
13F
100
AcDbEntity
  8
AM_0_4
  6
CONTINUOUS
 62
           7
100
AcDbLine
 10
497.563828601042
 20
37.363246759531
 11
500.308991564909
 21
37.363246760093
  0
LINE
  5
13E
100
AcDbEntity
  8
AM_0_4
  6
CONTINUOUS
 62
           7
100
AcDbLine
 10
501.4904643445
 20
31.163219294516
 11
498.2404643445
 21
31.163219293849
  0
LINE
  5
13D
100
AcDbEntity
  8
AM_0_4
  6
CONTINUOUS
 62
           7
100
AcDbLine
 10
501.928338186371
 20
23.663238368092
 11
501.49040331078
 21
24.163242182699
  0
LINE
  5
13C
100
AcDbEntity
  8
AM_0_4
  6
CONTINUOUS
 62
           7
100
AcDbLine
 10
500.708993093598
 20
23.663230738447
 11
500.708985466349
 21
13.200523218916
  0
LINE
  5
13B
100
AcDbEntity
  8
AM_0_4
  6
CONTINUOUS
 62
           7
100
AcDbLine
 10
496.691460744862
 20
24.163272699292
 11
497.208922521699
 21
23.663276514097
  0
LINE
  5
13A
100
AcDbEntity
  8
AM_0_4
  6
CONTINUOUS
 62
           7
100
AcDbLine
 10
498.678296224701
 20
23.663223108636
 11
498.240363256459
 21
24.163226923243
  0
LINE
  5
139
100
AcDbEntity
  8
AM_0_4
  6
CONTINUOUS
 62
           7
100
AcDbLine
 10
501.490464345936
 20
24.163219294516
 11
498.240464345936
 21
24.163219293849
  0
LINE
  5
138
100
AcDbEntity
  8
AM_0_4
  6
CONTINUOUS
 62
           7
100
AcDbLine
 10
501.490449085711
 20
31.163234553305
 11
501.490449087147
 21
24.163234553305
  0
LINE
  5
137
100
AcDbEntity
  8
AM_0_4
  6
CONTINUOUS
 62
           7
100
AcDbLine
 10
498.240449085711
 20
31.163234552638
 11
498.240449087147
 21
24.163234552638
  0
LINE
  5
136
100
AcDbEntity
  8
AM_0_4
  6
CONTINUOUS
 62
           7
100
AcDbLine
 10
496.455474033881
 20
30.921840509303
 11
496.691489355092
 21
24.163249811109
  0
LINE
  5
135
100
AcDbEntity
  8
AM_0_4
  6
CONTINUOUS
 62
           7
100
AcDbLine
 10
491.302949083763
 20
40.663234551215
 11
491.302949084481
 21
37.163204033637
  0
LINE
  5
134
100
AcDbEntity
  8
AM_0_4
  6
CONTINUOUS
 62
           7
100
AcDbLine
 10
488.208985460791
 20
40.297221977339
 11
488.208985461434
 21
37.16324980937
  0
LINE
  5
133
100
AcDbEntity
  8
AM_0_4
  6
CONTINUOUS
 62
           7
100
AcDbLine
 10
488.208985461536
 20
36.663188774214
 11
488.208985462305
 21
32.913493949995
  0
LINE
  5
132
100
AcDbEntity
  8
AM_0_4
  6
CONTINUOUS
 62
           7
100
AcDbLine
 10
496.20938409852
 20
31.206546624976
 11
488.455208912073
 21
32.61843856064
  0
LINE
  5
131
100
AcDbEntity
  8
AM_0_4
  6
CONTINUOUS
 62
           7
100
AcDbLine
 10
496.20938409852
 20
31.20655425437
 11
488.455191745936
 21
32.618446190035
  0
LINE
  5
130
100
AcDbEntity
  8
AM_0_4
  6
CONTINUOUS
 62
           7
100
AcDbLine
 10
501.958985466605
 20
11.950527033869
 11
501.958985467183
 21
9.134563288752
  0
LINE
  5
12F
100
AcDbEntity
  8
AM_0_4
  6
CONTINUOUS
 62
           7
100
AcDbLine
 10
497.708954949619
 20
9.063213190224
 11
497.708954950712
 21
3.733089288857
  0
LINE
  5
12E
100
AcDbEntity
  8
AM_0_4
  6
CONTINUOUS
 62
           7
100
AcDbLine
 10
497.708882471464
 20
3.733135065224
 11
499.861169001124
 21
3.156444391838
  0
LINE
  5
12D
100
AcDbEntity
  8
AM_0_4
  6
CONTINUOUS
 62
           7
100
AcDbLine
 10
501.958981651908
 20
11.950488886897
 11
500.708972114909
 21
13.200534663008
  0
LINE
  5
12C
100
AcDbEntity
  8
AM_0_4
  6
CONTINUOUS
 62
           7
100
AcDbLine
 10
501.958985464203
 20
23.663219294612
 11
501.958985466605
 21
11.950527033869
  0
LINE
  5
12B
100
AcDbEntity
  8
AM_0_4
  6
CONTINUOUS
 62
           7
100
AcDbLine
 10
502.585702076537
 20
30.663226924135
 11
501.490407124041
 21
31.163234553305
  0
LINE
  5
12A
100
AcDbEntity
  8
AM_0_4
  6
CONTINUOUS
 62
           7
100
AcDbLine
 10
514.891757872248
 20
-25.336734926368
 11
514.458954956941
 21
-26.636745607607
  0
LINE
  5
129
100
AcDbEntity
  8
AM_0_4
  6
CONTINUOUS
 62
           7
100
AcDbLine
 10
504.458982613231
 20
-25.336765446078
 11
505.826122429781
 21
-26.636768497558
  0
LINE
  5
128
100
AcDbEntity
  8
AM_0_4
  6
CONTINUOUS
 62
           7
100
AcDbLine
 10
502.329461243586
 20
-26.752643742415
 11
504.208917763807
 21
-27.43671051449
  0
LINE
  5
127
100
AcDbEntity
  8
AM_0_4
  6
CONTINUOUS
 62
           7
100
AcDbLine
 10
514.458985474519
 20
-26.636799013367
 11
505.826111939363
 21
-26.636799015138
  0
LINE
  5
126
100
AcDbEntity
  8
AM_0_4
  6
CONTINUOUS
 62
           7
100
AcDbLine
 10
504.458985474253
 20
-25.336795963658
 11
501.941834595347
 21
-25.336795964175
  0
LINE
  5
125
100
AcDbEntity
  8
AM_0_4
  6
CONTINUOUS
 62
           7
100
AcDbLine
 10
500.230853220577
 20
2.703914484686
 11
502.001389649258
 21
-26.313251652642
  0
LINE
  5
124
100
AcDbEntity
  8
AM_0_4
  6
CONTINUOUS
 62
           7
100
AcDbLine
 10
515.558612486198
 20
4.063274229041
 11
514.891742613459
 21
-25.336712038179
  0
LINE
  5
123
100
AcDbEntity
  8
AM_0_4
  6
CONTINUOUS
 62
           7
100
AcDbLine
 10
514.458877226393
 20
3.063243711238
 11
514.458938267641
 21
-26.636753236997
  0
LINE
  5
122
100
AcDbEntity
  8
AM_0_4
  6
CONTINUOUS
 62
           7
100
AcDbLine
 10
503.068077227156
 20
3.063243708901
 11
505.826071885042
 21
-26.636753238768
  0
LINE
  5
121
100
AcDbEntity
  8
AM_0_4
  6
CONTINUOUS
 62
           7
100
AcDbLine
 10
503.02377810128
 20
4.063258967681
 11
504.458974030162
 21
-25.336742557898
  0
LINE
  5
120
100
AcDbEntity
  8
AM_0_4
  6
CONTINUOUS
 62
           7
100
AcDbLine
 10
488.208985461536
 20
36.663234550581
 11
518.708954943958
 21
36.663234556836
  0
LINE
  5
11F
100
AcDbEntity
  8
AM_0_4
  6
CONTINUOUS
 62
           7
100
AcDbLine
 10
488.049622667748
 20
40.663234550548
 11
518.708954943138
 21
40.663234556836
  0
LINE
  5
11E
100
AcDbEntity
  8
AM_0_4
  6
CONTINUOUS
 62
           7
100
AcDbLine
 10
518.708985466348
 20
13.200511778515
 11
500.70897020756
 21
13.200511774823
  0
LINE
  5
11D
100
AcDbEntity
  8
AM_0_4
  6
CONTINUOUS
 62
           7
100
AcDbLine
 10
535.459168572073
 20
11.95052704074
 11
501.958985466605
 21
11.950527033869
  0
LINE
  5
11C
100
AcDbEntity
  8
AM_0_4
  6
CONTINUOUS
 62
           7
100
AcDbLine
 10
518.708939685989
 20
32.663219298047
 11
488.343613758256
 21
32.663219291819
  0
LINE
  5
11B
100
AcDbEntity
  8
AM_0_4
  6
CONTINUOUS
 62
           7
100
AcDbLine
 10
518.708939687835
 20
23.663219298047
 11
497.208985464203
 21
23.663219293638
  0
LINE
  5
11A
100
AcDbEntity
  8
AM_0_4
  6
CONTINUOUS
 62
           7
100
AcDbLine
 10
518.708939687733
 20
24.163219298047
 11
515.458954946522
 21
24.163219297381
  0
LINE
  5
119
100
AcDbEntity
  8
AM_0_4
  6
CONTINUOUS
 62
           7
100
AcDbLine
 10
539.70892443204
 20
9.063197940049
 11
497.708954949619
 21
9.063197931435
  0
LINE
  5
118
100
AcDbEntity
  8
AM_0_4
  6
CONTINUOUS
 62
           7
100
AcDbLine
 10
533.208924439526
 20
-27.436802061282
 11
504.20904650984
 21
-27.43680206723
  0
LINE
  5
117
100
AcDbEntity
  8
AM_0_4
  6
CONTINUOUS
 62
           7
100
AcDbLine
 10
518.708939697885
 20
-25.336795960736
 11
514.891785767221
 21
-25.336795961519
  0
LINE
  5
116
100
AcDbEntity
  8
AM_0_4
  6
CONTINUOUS
 62
           7
100
AcDbLine
 10
518.708939686297
 20
31.163219298047
 11
515.458954945086
 21
31.163219297381
  0
LINE
  5
115
100
AcDbEntity
  8
AM_7
  6
DOT_CENTER
 62
           2
100
AcDbLine
 10
518.708985445645
 20
114.141918028514
 11
518.708985475709
 21
-32.436802064256
  0
LINE
  5
114
100
AcDbEntity
  8
AM_0_4
  6
CONTINUOUS
 62
           7
100
AcDbLine
 10
487.708985459116
 20
48.463252861025
 11
487.708985460613
 21
41.163249809267
  0
LINE
  5
113
100
AcDbEntity
  8
AM_0_4
  6
CONTINUOUS
 62
           7
100
AcDbLine
 10
505.161255967052
 20
47.863246761089
 11
505.161255968529
 21
40.663249812847
  0
LINE
  5
112
100
AcDbEntity
  8
AM_0_4
  6
CONTINUOUS
 62
           7
100
AcDbLine
 10
532.256699692637
 20
47.863246766646
 11
532.256699694114
 21
40.663249818404
  0
LINE
  5
111
100
AcDbEntity
  8
AM_0_4
  6
CONTINUOUS
 62
           7
100
AcDbLine
 10
549.708970201823
 20
41.163249821984
 11
549.708970200187
 21
49.141948552453
  0
LINE
  5
110
100
AcDbEntity
  8
AM_0_4
  6
CONTINUOUS
 62
           7
100
AcDbLine
 10
384.752361192309
 20
99.149225081076
 11
384.71742619475
 21
101.15061363088
  0
LINE
  5
10F
100
AcDbEntity
  8
AM_0_4
  6
CONTINUOUS
 62
           7
100
AcDbLine
 10
384.508806123339
 20
103.641914213766
 11
384.708803071581
 21
103.441919172873
  0
LINE
  5
10E
100
AcDbEntity
  8
AM_0_4
  6
CONTINUOUS
 62
           7
100
AcDbLine
 10
384.208907022082
 20
102.141933287252
 11
384.208907022082
 21
101.641933287252
  0
LINE
  5
10D
100
AcDbEntity
  8
AM_0_4
  6
CONTINUOUS
 62
           7
100
AcDbLine
 10
384.708907022082
 20
103.44193633901
 11
384.708907022082
 21
102.141933287252
  0
LINE
  5
10C
100
AcDbEntity
  8
AM_0_4
  6
CONTINUOUS
 62
           7
100
AcDbLine
 10
382.92100419005
 20
108.606044615377
 11
382.92100419005
 21
105.221935118307
  0
LINE
  5
10B
100
AcDbEntity
  8
AM_0_4
  6
CONTINUOUS
 62
           7
100
AcDbLine
 10
383.208907022082
 20
108.22237762319
 11
383.208907022082
 21
104.141933287252
  0
LINE
  5
10A
100
AcDbEntity
  8
AM_0_4
  6
CONTINUOUS
 62
           7
100
AcDbLine
 10
377.75451554259
 20
108.606044615377
 11
377.75451554259
 21
105.221935118307
  0
LINE
  5
109
100
AcDbEntity
  8
AM_0_4
  6
CONTINUOUS
 62
           7
100
AcDbLine
 10
382.92100419005
 20
105.221919859518
 11
377.75451554259
 21
105.221919859518
  0
LINE
  5
108
100
AcDbEntity
  8
AM_0_4
  6
CONTINUOUS
 62
           7
100
AcDbLine
 10
382.838292016588
 20
108.705291594137
 11
381.208880319201
 21
109.141883696188
  0
LINE
  5
107
100
AcDbEntity
  8
AM_0_4
  6
CONTINUOUS
 62
           7
100
AcDbLine
 10
374.000410928332
 20
108.606044615377
 11
374.000410928332
 21
105.221935118307
  0
LINE
  5
106
100
AcDbEntity
  8
AM_0_4
  6
CONTINUOUS
 62
           7
100
AcDbLine
 10
374.000410928332
 20
108.606029356588
 11
377.75451554259
 21
108.606029356588
  0
LINE
  5
105
100
AcDbEntity
  8
AM_0_4
  6
CONTINUOUS
 62
           7
100
AcDbLine
 10
374.000410928332
 20
108.606029356588
 11
377.75451554259
 21
108.606029356588
  0
LINE
  5
104
100
AcDbEntity
  8
AM_0_4
  6
CONTINUOUS
 62
           7
100
AcDbLine
 10
400.108919038378
 20
98.641918028463
 11
400.108919038378
 21
95.24190887319
  0
LINE
  5
103
100
AcDbEntity
  8
AM_0_4
  6
CONTINUOUS
 62
           7
100
AcDbLine
 10
399.208925141894
 20
90.041927183737
 11
399.708925141894
 21
90.041927183737
  0
LINE
  5
102
100
AcDbEntity
  8
AM_0_4
  6
CONTINUOUS
 62
           7
100
AcDbLine
 10
396.908861054979
 20
86.641959990133
 11
398.364757432543
 21
84.641947592368
  0
LINE
  5
101
100
AcDbEntity
  8
AM_0_4
  6
CONTINUOUS
 62
           7
100
AcDbLine
 10
398.364824189745
 20
84.641933287253
 11
400.208925141894
 21
84.641933287253
  0
LINE
  5
100
100
AcDbEntity
  8
AM_0_4
  6
CONTINUOUS
 62
           7
100
AcDbLine
 10
396.908937348925
 20
86.641933287253
 11
400.208925141894
 21
86.641933287253
  0
LINE
  5
FF
100
AcDbEntity
  8
AM_0_4
  6
CONTINUOUS
 62
           7
100
AcDbLine
 10
397.708925141894
 20
91.541927183737
 11
397.708925141894
 21
95.241939390768
  0
LINE
  5
FE
100
AcDbEntity
  8
AM_0_4
  6
CONTINUOUS
 62
           7
100
AcDbLine
 10
400.108919038378
 20
95.24190887319
 11
395.108919038378
 21
95.24190887319
  0
LINE
  5
FD
100
AcDbEntity
  8
AM_0_4
  6
CONTINUOUS
 62
           7
100
AcDbLine
 10
395.108919038378
 20
95.24190887319
 11
400.108919038378
 21
95.24190887319
  0
LINE
  5
FC
100
AcDbEntity
  8
AM_0_4
  6
CONTINUOUS
 62
           7
100
AcDbLine
 10
395.04751767119
 20
95.241939390768
 11
397.708925141894
 21
95.241939390768
  0
LINE
  5
FB
100
AcDbEntity
  8
AM_0_4
  6
CONTINUOUS
 62
           7
100
AcDbLine
 10
399.208925141894
 20
63.241939390769
 11
400.208925141894
 21
63.241939390769
  0
LINE
  5
FA
100
AcDbEntity
  8
AM_0_4
  6
CONTINUOUS
 62
           7
100
AcDbLine
 10
396.908821000658
 20
66.64196571218
 11
398.36471928557
 21
68.641958559623
  0
LINE
  5
F9
100
AcDbEntity
  8
AM_0_4
  6
CONTINUOUS
 62
           7
100
AcDbLine
 10
398.364824189745
 20
68.641933287253
 11
400.208925141894
 21
68.641933287253
  0
LINE
  5
F8
100
AcDbEntity
  8
AM_0_4
  6
CONTINUOUS
 62
           7
100
AcDbLine
 10
396.908937348925
 20
66.641933287253
 11
400.208925141894
 21
66.641933287253
  0
LINE
  5
F7
100
AcDbEntity
  8
AM_0_4
  6
CONTINUOUS
 62
           7
100
AcDbLine
 10
399.208925141894
 20
58.041927183738
 11
399.708925141894
 21
58.041927183738
  0
LINE
  5
F6
100
AcDbEntity
  8
AM_0_4
  6
CONTINUOUS
 62
           7
100
AcDbLine
 10
397.708925141894
 20
59.541927183738
 11
397.708925141894
 21
61.741939390769
  0
LINE
  5
F5
100
AcDbEntity
  8
AM_0_4
  6
CONTINUOUS
 62
           7
100
AcDbLine
 10
399.708925141894
 20
49.141933287253
 11
399.708925141894
 21
48.463207090964
  0
LINE
  5
F4
100
AcDbEntity
  8
AM_0_4
  6
CONTINUOUS
 62
           7
100
AcDbLine
 10
395.963930024706
 20
53.141933287253
 11
395.963930024706
 21
53.641933287253
  0
LINE
  5
F3
100
AcDbEntity
  8
AM_0_4
  6
CONTINUOUS
 62
           7
100
AcDbLine
 10
394.525430574022
 20
54.142017210593
 11
394.533744706713
 21
54.64200767385
  0
LINE
  5
F2
100
AcDbEntity
  8
AM_0_4
  6
CONTINUOUS
 62
           7
100
AcDbLine
 10
395.963930024706
 20
53.141933287253
 11
399.708925141894
 21
53.141933287253
  0
LINE
  5
F1
100
AcDbEntity
  8
AM_0_4
  6
CONTINUOUS
 62
           7
100
AcDbLine
 10
399.708925141894
 20
49.641933287253
 11
399.708925141894
 21
58.041927183738
  0
LINE
  5
F0
100
AcDbEntity
  8
AM_0_4
  6
CONTINUOUS
 62
           7
100
AcDbLine
 10
387.049547090136
 20
94.441921080221
 11
387.049547090136
 21
67.965144957175
  0
LINE
  5
EF
100
AcDbEntity
  8
AM_0_4
  6
CONTINUOUS
 62
           7
100
AcDbLine
 10
396.908937348925
 20
66.641933287253
 11
396.908937348925
 21
86.641933287253
  0
LINE
  5
EE
100
AcDbEntity
  8
AM_0_4
  6
CONTINUOUS
 62
           7
100
AcDbLine
 10
398.364824189745
 20
68.641933287253
 11
398.364824189745
 21
84.641933287253
  0
LINE
  5
ED
100
AcDbEntity
  8
AM_0_4
  6
CONTINUOUS
 62
           7
100
AcDbLine
 10
400.208925141894
 20
63.241939390769
 11
400.208925141894
 21
89.541927183737
  0
LINE
  5
EC
100
AcDbEntity
  8
AM_0_4
  6
CONTINUOUS
 62
           7
100
AcDbLine
 10
381.842424287401
 20
54.141933287253
 11
381.842424287401
 21
54.641933287253
  0
LINE
  5
EB
100
AcDbEntity
  8
AM_0_4
  6
CONTINUOUS
 62
           7
100
AcDbLine
 10
382.463930024706
 20
49.141933287253
 11
382.463930024706
 21
54.141933287253
  0
LINE
  5
EA
100
AcDbEntity
  8
AM_0_4
  6
CONTINUOUS
 62
           7
100
AcDbLine
 10
382.256654634081
 20
63.641933287253
 11
382.256654634081
 21
54.641933287253
  0
LINE
  5
E9
100
AcDbEntity
  8
AM_0_4
  6
CONTINUOUS
 62
           7
100
AcDbLine
 10
384.008928193651
 20
91.141918028463
 11
384.008928193651
 21
64.841930235496
  0
LINE
  5
E8
100
AcDbEntity
  8
AM_0_4
  6
CONTINUOUS
 62
           7
100
AcDbLine
 10
382.256593598925
 20
63.641981924644
 11
386.646926774584
 21
65.938130224814
  0
LINE
  5
E7
100
AcDbEntity
  8
AM_0_4
  6
CONTINUOUS
 62
           7
100
AcDbLine
 10
394.408830537401
 20
54.642000044456
 11
395.108840837084
 21
99.141925657858
  0
LINE
  5
E6
100
AcDbEntity
  8
AM_0_4
  6
CONTINUOUS
 62
           7
100
AcDbLine
 10
388.256654634081
 20
99.141918028463
 11
388.256654634081
 21
68.596446837058
  0
LINE
  5
E5
100
AcDbEntity
  8
AM_0_4
  6
CONTINUOUS
 62
           7
100
AcDbLine
 10
363.417407884204
 20
108.606044615377
 11
363.417407884204
 21
105.221935118307
  0
LINE
  5
E4
100
AcDbEntity
  8
AM_0_4
  6
CONTINUOUS
 62
           7
100
AcDbLine
 10
368.708909883107
 20
105.221919859518
 11
363.417423142993
 21
105.221919859518
  0
LINE
  5
E3
100
AcDbEntity
  8
AM_0_4
  6
CONTINUOUS
 62
           7
100
AcDbLine
 10
359.663318528735
 20
108.606044615377
 11
359.663318528735
 21
105.221935118307
  0
LINE
  5
E2
100
AcDbEntity
  8
AM_0_4
  6
CONTINUOUS
 62
           7
100
AcDbLine
 10
354.579511537158
 20
108.705360258688
 11
356.208922280872
 21
109.141952360739
  0
LINE
  5
E1
100
AcDbEntity
  8
AM_0_4
  6
CONTINUOUS
 62
           7
100
AcDbLine
 10
354.496814622485
 20
108.606044615377
 11
354.496814622485
 21
105.221935118307
  0
LINE
  5
E0
100
AcDbEntity
  8
AM_0_4
  6
CONTINUOUS
 62
           7
100
AcDbLine
 10
354.208911790454
 20
108.22237762319
 11
354.208911790454
 21
104.141933287252
  0
LINE
  5
DF
100
AcDbEntity
  8
AM_0_4
  6
CONTINUOUS
 62
           7
100
AcDbLine
 10
354.496829881274
 20
105.221919859518
 11
359.663333787524
 21
105.221919859518
  0
LINE
  5
DE
100
AcDbEntity
  8
AM_0_4
  6
CONTINUOUS
 62
           7
100
AcDbLine
 10
363.417423142993
 20
108.606029356588
 11
359.663333787524
 21
108.606029356588
  0
LINE
  5
DD
100
AcDbEntity
  8
AM_0_4
  6
CONTINUOUS
 62
           7
100
AcDbLine
 10
363.417423142993
 20
108.606029356588
 11
359.663333787524
 21
108.606029356588
  0
LINE
  5
DC
100
AcDbEntity
  8
AM_0_4
  6
CONTINUOUS
 62
           7
100
AcDbLine
 10
352.908879174792
 20
103.641914213766
 11
352.70887555083
 21
103.441905821432
  0
LINE
  5
DB
100
AcDbEntity
  8
AM_0_4
  6
CONTINUOUS
 62
           7
100
AcDbLine
 10
353.208927049243
 20
102.141933287252
 11
353.208927049243
 21
101.641933287252
  0
LINE
  5
DA
100
AcDbEntity
  8
AM_0_4
  6
CONTINUOUS
 62
           7
100
AcDbLine
 10
352.708927049243
 20
103.44193633901
 11
352.708927049243
 21
102.141933287252
  0
LINE
  5
D9
100
AcDbEntity
  8
AM_0_4
  6
CONTINUOUS
 62
           7
100
AcDbLine
 10
352.6653212448
 20
99.141897047628
 11
352.700384034717
 21
101.150625074972
  0
LINE
  5
D8
100
AcDbEntity
  8
AM_0_4
  6
CONTINUOUS
 62
           7
100
AcDbLine
 10
355.575425996387
 20
54.141933287253
 11
355.575425996387
 21
54.641933287253
  0
LINE
  5
D7
100
AcDbEntity
  8
AM_0_4
  6
CONTINUOUS
 62
           7
100
AcDbLine
 10
354.953920259082
 20
49.141933287253
 11
354.953920259082
 21
54.141933287253
  0
LINE
  5
D6
100
AcDbEntity
  8
AM_0_4
  6
CONTINUOUS
 62
           7
100
AcDbLine
 10
355.161165132129
 20
63.641933287253
 11
355.161165132129
 21
54.641933287253
  0
LINE
  5
D5
100
AcDbEntity
  8
AM_0_4
  6
CONTINUOUS
 62
           7
100
AcDbLine
 10
340.508977784717
 20
86.641948546042
 11
339.053064241016
 21
84.641928995719
  0
LINE
  5
D4
100
AcDbEntity
  8
AM_0_4
  6
CONTINUOUS
 62
           7
100
AcDbLine
 10
339.708925141894
 20
91.541927183737
 11
339.708925141894
 21
95.241939390768
  0
LINE
  5
D3
100
AcDbEntity
  8
AM_0_4
  6
CONTINUOUS
 62
           7
100
AcDbLine
 10
339.708925141894
 20
95.241939390768
 11
342.370256318652
 21
95.241939390768
  0
LINE
  5
D2
100
AcDbEntity
  8
AM_0_4
  6
CONTINUOUS
 62
           7
100
AcDbLine
 10
340.50894535979
 20
66.64194568502
 11
339.053052796924
 21
68.641943777671
  0
LINE
  5
D1
100
AcDbEntity
  8
AM_0_4
  6
CONTINUOUS
 62
           7
100
AcDbLine
 10
339.708925141894
 20
59.541927183738
 11
339.708925141894
 21
61.741939390769
  0
LINE
  5
D0
100
AcDbEntity
  8
AM_0_4
  6
CONTINUOUS
 62
           7
100
AcDbLine
 10
342.89233006438
 20
54.141996229758
 11
342.884015931689
 21
54.641988600364
  0
LINE
  5
CF
100
AcDbEntity
  8
AM_0_4
  6
CONTINUOUS
 62
           7
100
AcDbLine
 10
341.453935517871
 20
53.141933287253
 11
341.453935517871
 21
53.641933287253
  0
LINE
  5
CE
100
AcDbEntity
  8
AM_0_4
  6
CONTINUOUS
 62
           7
100
AcDbLine
 10
350.368272676074
 20
94.441921080221
 11
350.368272676074
 21
67.965144957175
  0
LINE
  5
CD
100
AcDbEntity
  8
AM_0_4
  6
CONTINUOUS
 62
           7
100
AcDbLine
 10
353.408922090137
 20
91.141918028463
 11
353.408922090137
 21
64.841930235496
  0
LINE
  5
CC
100
AcDbEntity
  8
AM_0_4
  6
CONTINUOUS
 62
           7
100
AcDbLine
 10
340.508928193652
 20
66.641933287253
 11
340.508928193652
 21
86.641933287253
  0
LINE
  5
CB
100
AcDbEntity
  8
AM_0_4
  6
CONTINUOUS
 62
           7
100
AcDbLine
 10
339.053026094043
 20
68.641933287253
 11
339.053026094043
 21
84.641933287253
  0
LINE
  5
CA
100
AcDbEntity
  8
AM_0_4
  6
CONTINUOUS
 62
           7
100
AcDbLine
 10
355.161176576221
 20
63.64195903646
 11
350.770885362231
 21
65.938090170493
  0
LINE
  5
C9
100
AcDbEntity
  8
AM_0_4
  6
CONTINUOUS
 62
           7
100
AcDbLine
 10
349.161195649707
 20
99.141918028463
 11
349.161195649707
 21
68.596446837058
  0
LINE
  5
C8
100
AcDbEntity
  8
AM_0_4
  6
CONTINUOUS
 62
           7
100
AcDbLine
 10
343.008914842212
 20
54.642000044456
 11
342.308933152759
 21
99.141927565207
  0
LINE
  5
C7
100
AcDbEntity
  8
AM_0_4
  6
CONTINUOUS
 62
           7
100
AcDbLine
 10
337.30893124541
 20
98.641918028463
 11
337.30893124541
 21
95.24190887319
  0
LINE
  5
C6
100
AcDbEntity
  8
AM_0_4
  6
CONTINUOUS
 62
           7
100
AcDbLine
 10
338.208925141894
 20
90.041927183737
 11
337.708925141894
 21
90.041927183737
  0
LINE
  5
C5
100
AcDbEntity
  8
AM_0_4
  6
CONTINUOUS
 62
           7
100
AcDbLine
 10
338.208925141894
 20
63.241939390769
 11
337.208925141894
 21
63.241939390769
  0
LINE
  5
C4
100
AcDbEntity
  8
AM_0_4
  6
CONTINUOUS
 62
           7
100
AcDbLine
 10
338.208925141894
 20
58.041927183738
 11
337.708925141894
 21
58.041927183738
  0
LINE
  5
C3
100
AcDbEntity
  8
AM_0_4
  6
CONTINUOUS
 62
           7
100
AcDbLine
 10
337.708925141894
 20
49.141933287253
 11
337.708925141894
 21
48.463207090964
  0
LINE
  5
C2
100
AcDbEntity
  8
AM_0_4
  6
CONTINUOUS
 62
           7
100
AcDbLine
 10
337.708925141894
 20
49.641933287253
 11
337.708925141894
 21
58.041927183738
  0
LINE
  5
C1
100
AcDbEntity
  8
AM_0_4
  6
CONTINUOUS
 62
           7
100
AcDbLine
 10
337.208925141894
 20
63.241939390769
 11
337.208925141894
 21
89.541927183737
  0
LINE
  5
C0
100
AcDbEntity
  8
AM_0_4
  6
CONTINUOUS
 62
           7
100
AcDbLine
 10
342.30893124541
 20
95.24190887319
 11
337.30893124541
 21
95.24190887319
  0
LINE
  5
BF
100
AcDbEntity
  8
AM_0_4
  6
CONTINUOUS
 62
           7
100
AcDbLine
 10
368.708925141894
 20
99.141918028463
 11
337.80893124541
 21
99.141918028463
  0
LINE
  5
BE
100
AcDbEntity
  8
AM_0_4
  6
CONTINUOUS
 62
           7
100
AcDbLine
 10
340.508928193652
 20
66.641933287253
 11
337.208925141894
 21
66.641933287253
  0
LINE
  5
BD
100
AcDbEntity
  8
AM_0_4
  6
CONTINUOUS
 62
           7
100
AcDbLine
 10
339.053026094043
 20
84.641933287253
 11
337.208925141894
 21
84.641933287253
  0
LINE
  5
BC
100
AcDbEntity
  8
AM_0_4
  6
CONTINUOUS
 62
           7
100
AcDbLine
 10
339.053026094043
 20
68.641933287253
 11
337.208925141894
 21
68.641933287253
  0
LINE
  5
BB
100
AcDbEntity
  8
AM_0_4
  6
CONTINUOUS
 62
           7
100
AcDbLine
 10
340.508928193652
 20
86.641933287253
 11
337.208925141894
 21
86.641933287253
  0
LINE
  5
BA
100
AcDbEntity
  8
AM_0_4
  6
CONTINUOUS
 62
           7
100
AcDbLine
 10
337.708925141894
 20
53.141933287253
 11
341.453935517871
 21
53.141933287253
  0
LINE
  5
B9
100
AcDbEntity
  8
AM_0_4
  6
CONTINUOUS
 62
           7
100
AcDbLine
 10
384.208907022082
 20
101.641918028463
 11
353.208927049243
 21
101.641918028463
  0
LINE
  5
B8
100
AcDbEntity
  8
AM_0_4
  6
CONTINUOUS
 62
           7
100
AcDbLine
 10
368.708909883107
 20
105.221919859518
 11
374.000410928332
 21
105.221919859518
  0
LINE
  5
B7
100
AcDbEntity
  8
AM_0_4
  6
CONTINUOUS
 62
           7
100
AcDbLine
 10
337.708955659473
 20
48.463222349753
 11
399.708879365526
 21
48.463222349753
  0
LINE
  5
B6
100
AcDbEntity
  8
AM_0_4
  6
CONTINUOUS
 62
           7
100
AcDbLine
 10
381.208891763292
 20
109.141918028463
 11
356.208911790454
 21
109.141918028463
  0
LINE
  5
B5
100
AcDbEntity
  8
AM_0_4
  6
CONTINUOUS
 62
           7
100
AcDbLine
 10
384.508910073839
 20
103.641918028463
 11
352.908923997485
 21
103.641918028463
  0
LINE
  5
B4
100
AcDbEntity
  8
AM_0_4
  6
CONTINUOUS
 62
           7
100
AcDbLine
 10
384.708907022082
 20
102.141918028463
 11
352.708927049243
 21
102.141918028463
  0
LINE
  5
B3
100
AcDbEntity
  8
AM_0_4
  6
CONTINUOUS
 62
           7
100
AcDbLine
 10
399.608919038378
 20
99.141918028463
 11
368.708925141894
 21
99.141918028463
  0
LINE
  5
B2
100
AcDbEntity
  8
AM_0_4
  6
CONTINUOUS
 62
           7
100
AcDbLine
 10
384.049547090136
 20
97.441921080221
 11
353.368272676074
 21
97.441921080221
  0
LINE
  5
B1
100
AcDbEntity
  8
AM_0_4
  6
CONTINUOUS
 62
           7
100
AcDbLine
 10
353.408922090137
 20
64.841930235496
 11
384.008928193651
 21
64.841930235496
  0
LINE
  5
B0
100
AcDbEntity
  8
AM_0_4
  6
CONTINUOUS
 62
           7
100
AcDbLine
 10
356.708925141894
 20
94.441921080221
 11
380.708925141894
 21
94.441921080221
  0
LINE
  5
AF
100
AcDbEntity
  8
AM_0_4
  6
CONTINUOUS
 62
           7
100
AcDbLine
 10
381.256654634081
 20
63.641933287253
 11
356.161165132129
 21
63.641933287253
  0
LINE
  5
AE
100
AcDbEntity
  8
AM_0_4
  6
CONTINUOUS
 62
           7
100
AcDbLine
 10
394.533815278612
 20
54.641933287253
 11
342.883973970019
 21
54.641933287253
  0
LINE
  5
AD
100
AcDbEntity
  8
AM_0_4
  6
CONTINUOUS
 62
           7
100
AcDbLine
 10
341.953935517871
 20
54.141933287253
 11
395.463930024706
 21
54.141933287253
  0
LINE
  5
AC
100
AcDbEntity
  8
AM_0_4
  6
CONTINUOUS
 62
           7
100
AcDbLine
 10
337.708925141894
 20
49.141933287253
 11
399.708925141894
 21
49.141933287253
  0
LINE
  5
AB
100
AcDbEntity
  8
AM_0_4
  6
CONTINUOUS
 62
           7
100
AcDbLine
 10
353.200273408496
 20
101.641933287252
 11
384.217576875292
 21
101.641933287252
  0
LINE
  5
AA
100
AcDbEntity
  8
AM_7
  6
DOT_CENTER
 62
           2
100
AcDbLine
 10
332.208925141894
 20
76.641948546042
 11
405.208925141894
 21
76.641948546042
  0
LINE
  5
A9
100
AcDbEntity
  8
AM_0_4
  6
CONTINUOUS
 62
           7
100
AcDbLine
 10
399.208879365526
 20
40.297206724753
 11
399.208879365526
 21
37.163234556785
  0
LINE
  5
A8
100
AcDbEntity
  8
AM_0_4
  6
CONTINUOUS
 62
           7
100
AcDbLine
 10
399.208879365526
 20
36.663234556785
 11
399.208879365526
 21
32.913539732566
  0
LINE
  5
A7
100
AcDbEntity
  8
AM_0_4
  6
CONTINUOUS
 62
           7
100
AcDbLine
 10
393.033555879198
 20
40.663234556785
 11
393.033555879198
 21
37.163234556785
  0
LINE
  5
A6
100
AcDbEntity
  8
AM_0_4
  6
CONTINUOUS
 62
           7
100
AcDbLine
 10
392.063606156908
 20
40.663318480124
 11
391.902677430712
 21
38.823894346824
  0
LINE
  5
A5
100
AcDbEntity
  8
AM_0_4
  6
CONTINUOUS
 62
           7
100
AcDbLine
 10
389.177369966112
 20
30.663219297996
 11
389.458864106737
 21
30.663219297996
  0
LINE
  5
A4
100
AcDbEntity
  8
AM_0_4
  6
CONTINUOUS
 62
           7
100
AcDbLine
 10
389.458841218554
 20
30.66322692739
 11
390.97074688872
 21
31.16322692739
  0
LINE
  5
A3
100
AcDbEntity
  8
AM_0_4
  6
CONTINUOUS
 62
           7
100
AcDbLine
 10
387.563569917284
 20
37.363246763816
 11
390.308732881151
 21
37.363246763816
  0
LINE
  5
A2
100
AcDbEntity
  8
AM_0_4
  6
CONTINUOUS
 62
           7
100
AcDbLine
 10
385.927369966112
 20
31.163219297996
 11
389.177369966112
 21
31.163219297996
  0
LINE
  5
A1
100
AcDbEntity
  8
AM_0_4
  6
CONTINUOUS
 62
           7
100
AcDbLine
 10
390.726224793993
 20
24.163348997703
 11
390.208764924608
 21
23.6633528124
  0
LINE
  5
A0
100
AcDbEntity
  8
AM_0_4
  6
CONTINUOUS
 62
           7
100
AcDbLine
 10
385.489408387743
 20
23.663284147849
 11
385.927343263231
 21
24.163287962546
  0
LINE
  5
9F
100
AcDbEntity
  8
AM_0_4
  6
CONTINUOUS
 62
           7
100
AcDbLine
 10
386.708925141894
 20
23.663219297996
 11
386.708925141894
 21
13.200511778464
  0
LINE
  5
9E
100
AcDbEntity
  8
AM_0_4
  6
CONTINUOUS
 62
           7
100
AcDbLine
 10
388.739375962816
 20
23.663326109519
 11
389.177308930956
 21
24.163329924216
  0
LINE
  5
9D
100
AcDbEntity
  8
AM_0_4
  6
CONTINUOUS
 62
           7
100
AcDbLine
 10
385.927369966112
 20
24.163219297996
 11
389.177369966112
 21
24.163219297996
  0
LINE
  5
9C
100
AcDbEntity
  8
AM_0_4
  6
CONTINUOUS
 62
           7
100
AcDbLine
 10
385.927385224901
 20
31.163234556785
 11
385.927385224901
 21
24.163234556785
  0
LINE
  5
9B
100
AcDbEntity
  8
AM_0_4
  6
CONTINUOUS
 62
           7
100
AcDbLine
 10
389.177385224901
 20
31.163234556785
 11
389.177385224901
 21
24.163234556785
  0
LINE
  5
9A
100
AcDbEntity
  8
AM_0_4
  6
CONTINUOUS
 62
           7
100
AcDbLine
 10
390.962322129809
 20
30.921859587302
 11
390.726306809984
 21
24.16326888906
  0
LINE
  5
99
100
AcDbEntity
  8
AM_0_4
  6
CONTINUOUS
 62
           7
100
AcDbLine
 10
391.208417787157
 20
31.206519926658
 11
398.962575807177
 21
32.618404234519
  0
LINE
  5
98
100
AcDbEntity
  8
AM_0_4
  6
CONTINUOUS
 62
           7
100
AcDbLine
 10
385.458925141894
 20
9.113582457175
 11
385.458925141894
 21
11.950511778464
  0
LINE
  5
97
100
AcDbEntity
  8
AM_0_4
  6
CONTINUOUS
 62
           7
100
AcDbLine
 10
389.622133149706
 20
4.09323486196
 11
387.617198838793
 21
3.063236082664
  0
LINE
  5
96
100
AcDbEntity
  8
AM_0_4
  6
CONTINUOUS
 62
           7
100
AcDbLine
 10
385.458925141894
 20
11.950511778464
 11
385.458925141894
 21
23.663219297996
  0
LINE
  5
95
100
AcDbEntity
  8
AM_0_4
  6
CONTINUOUS
 62
           7
100
AcDbLine
 10
385.458768739306
 20
11.950603331199
 11
386.708770646654
 21
13.200633848777
  0
LINE
  5
94
100
AcDbEntity
  8
AM_0_4
  6
CONTINUOUS
 62
           7
100
AcDbLine
 10
382.093916787707
 20
40.663234556785
 11
382.093916787707
 21
37.163234556785
  0
LINE
  5
93
100
AcDbEntity
  8
AM_0_4
  6
CONTINUOUS
 62
           7
100
AcDbLine
 10
383.224592103563
 20
38.823894346824
 11
383.063663377367
 21
40.663318480124
  0
LINE
  5
92
100
AcDbEntity
  8
AM_0_4
  6
CONTINUOUS
 62
           7
100
AcDbLine
 10
382.402799501024
 20
30.663219297996
 11
384.832094087206
 21
30.663219297996
  0
LINE
  5
91
100
AcDbEntity
  8
AM_0_4
  6
CONTINUOUS
 62
           7
100
AcDbLine
 10
382.14987553557
 20
23.663272703757
 11
382.402710809313
 21
24.16326888906
  0
LINE
  5
90
100
AcDbEntity
  8
AM_0_4
  6
CONTINUOUS
 62
           7
100
AcDbLine
 10
384.832109345995
 20
30.663234556785
 11
384.832109345995
 21
23.663234556785
  0
LINE
  5
8F
100
AcDbEntity
  8
AM_0_4
  6
CONTINUOUS
 62
           7
100
AcDbLine
 10
382.402799501024
 20
31.163234556785
 11
382.402799501024
 21
24.163234556785
  0
LINE
  5
8E
100
AcDbEntity
  8
AM_0_4
  6
CONTINUOUS
 62
           7
100
AcDbLine
 10
376.141251458728
 20
30.663261259665
 11
376.773612870776
 21
31.163265074363
  0
LINE
  5
8D
100
AcDbEntity
  8
AM_0_4
  6
CONTINUOUS
 62
           7
100
AcDbLine
 10
371.958906068408
 20
30.663219297996
 11
376.141263856494
 21
30.663219297996
  0
LINE
  5
8C
100
AcDbEntity
  8
AM_0_4
  6
CONTINUOUS
 62
           7
100
AcDbLine
 10
376.520731820666
 20
23.663261259665
 11
376.773569001758
 21
24.163257444968
  0
LINE
  5
8B
100
AcDbEntity
  8
AM_0_4
  6
CONTINUOUS
 62
           7
100
AcDbLine
 10
376.141263856494
 20
30.663234556785
 11
376.141263856494
 21
23.663234556785
  0
LINE
  5
8A
100
AcDbEntity
  8
AM_0_4
  6
CONTINUOUS
 62
           7
100
AcDbLine
 10
371.958906068408
 20
31.163219297996
 11
371.958906068408
 21
23.663219297996
  0
LINE
  5
89
100
AcDbEntity
  8
AM_0_4
  6
CONTINUOUS
 62
           7
100
AcDbLine
 10
376.773633851611
 20
31.163234556785
 11
376.773633851611
 21
24.163234556785
  0
LINE
  5
88
100
AcDbEntity
  8
AM_0_4
  6
CONTINUOUS
 62
           7
100
AcDbLine
 10
376.773633851611
 20
24.163219297996
 11
382.402799501024
 21
24.163219297996
  0
LINE
  5
87
100
AcDbEntity
  8
AM_0_4
  6
CONTINUOUS
 62
           7
100
AcDbLine
 10
376.773633851611
 20
31.163219297996
 11
382.402799501024
 21
31.163219297996
  0
LINE
  5
86
100
AcDbEntity
  8
AM_0_4
  6
CONTINUOUS
 62
           7
100
AcDbLine
 10
375.311019792163
 20
4.093227232566
 11
374.482429875934
 21
3.063228453269
  0
LINE
  5
85
100
AcDbEntity
  8
AM_0_4
  6
CONTINUOUS
 62
           7
100
AcDbLine
 10
384.818422212206
 20
37.363246763816
 11
387.563569917284
 21
37.363246763816
  0
LINE
  5
84
100
AcDbEntity
  8
AM_0_4
  6
CONTINUOUS
 62
           7
100
AcDbLine
 10
382.629167451464
 20
3.063182676902
 11
387.61718930205
 21
3.063182676902
  0
LINE
  5
83
100
AcDbEntity
  8
AM_0_4
  6
CONTINUOUS
 62
           7
100
AcDbLine
 10
382.672243012987
 20
4.093181456199
 11
389.622117890917
 21
4.093181456199
  0
LINE
  5
82
100
AcDbEntity
  8
AM_0_4
  6
CONTINUOUS
 62
           7
100
AcDbLine
 10
384.832090272509
 20
30.663253630271
 11
385.92737378081
 21
31.163249815574
  0
LINE
  5
81
100
AcDbEntity
  8
AM_0_4
  6
CONTINUOUS
 62
           7
100
AcDbLine
 10
381.443437470995
 20
-25.289287721038
 11
380.554414643847
 21
-26.636715089208
  0
LINE
  5
80
100
AcDbEntity
  8
AM_0_4
  6
CONTINUOUS
 62
           7
100
AcDbLine
 10
375.920206441485
 20
-25.289180909518
 11
373.942855252826
 21
-26.636600648288
  0
LINE
  5
7F
100
AcDbEntity
  8
AM_0_4
  6
CONTINUOUS
 62
           7
100
AcDbLine
 10
375.920335664355
 20
-25.289386903168
 11
381.443574800097
 21
-25.289386903168
  0
LINE
  5
7E
100
AcDbEntity
  8
AM_0_4
  6
CONTINUOUS
 62
           7
100
AcDbLine
 10
388.333942308031
 20
-25.571422730808
 11
383.208948030077
 21
-27.436763917328
  0
LINE
  5
7D
100
AcDbEntity
  8
AM_0_4
  6
CONTINUOUS
 62
           7
100
AcDbLine
 10
380.554536714159
 20
-26.636814271338
 11
385.406907929979
 21
-26.636814271338
  0
LINE
  5
7C
100
AcDbEntity
  8
AM_0_4
  6
CONTINUOUS
 62
           7
100
AcDbLine
 10
387.617109193407
 20
3.063228453269
 11
385.7885054489
 21
-26.497837220558
  0
LINE
  5
7B
100
AcDbEntity
  8
AM_0_4
  6
CONTINUOUS
 62
           7
100
AcDbLine
 10
373.942987336719
 20
-26.636799012548
 11
374.482453717792
 21
3.063197935691
  0
LINE
  5
7A
100
AcDbEntity
  8
AM_0_4
  6
CONTINUOUS
 62
           7
100
AcDbLine
 10
375.311037435138
 20
4.093219603171
 11
375.920335664355
 21
-25.289348756198
  0
LINE
  5
79
100
AcDbEntity
  8
AM_0_4
  6
CONTINUOUS
 62
           7
100
AcDbLine
 10
382.672209634386
 20
4.09323486196
 11
381.443526162707
 21
-25.289348756198
  0
LINE
  5
78
100
AcDbEntity
  8
AM_0_4
  6
CONTINUOUS
 62
           7
100
AcDbLine
 10
389.708793534838
 20
9.063251341453
 11
389.123191728197
 21
-24.464740907078
  0
LINE
  5
77
100
AcDbEntity
  8
AM_0_4
  6
CONTINUOUS
 62
           7
100
AcDbLine
 10
368.708925141894
 20
31.163219297996
 11
365.458927049243
 21
31.163219297996
  0
LINE
  5
76
100
AcDbEntity
  8
AM_0_4
  6
CONTINUOUS
 62
           7
100
AcDbLine
 10
368.708925141894
 20
24.163219297996
 11
365.458927049243
 21
24.163219297996
  0
LINE
  5
75
100
AcDbEntity
  8
AM_0_4
  6
CONTINUOUS
 62
           7
100
AcDbLine
 10
365.458927049243
 20
31.163234556785
 11
365.458927049243
 21
23.663234556785
  0
LINE
  5
74
100
AcDbEntity
  8
AM_0_4
  6
CONTINUOUS
 62
           7
100
AcDbLine
 10
361.276497258746
 20
30.663261259665
 11
360.644136323535
 21
31.163265074363
  0
LINE
  5
73
100
AcDbEntity
  8
AM_0_4
  6
CONTINUOUS
 62
           7
100
AcDbLine
 10
354.354106797778
 20
40.663291777244
 11
354.193178071582
 21
38.823867643943
  0
LINE
  5
72
100
AcDbEntity
  8
AM_0_4
  6
CONTINUOUS
 62
           7
100
AcDbLine
 10
355.323917283618
 20
40.663234556785
 11
355.323917283618
 21
37.163234556785
  0
LINE
  5
71
100
AcDbEntity
  8
AM_0_4
  6
CONTINUOUS
 62
           7
100
AcDbLine
 10
360.64419926604
 20
31.163219297996
 11
355.015033616626
 21
31.163219297996
  0
LINE
  5
70
100
AcDbEntity
  8
AM_0_4
  6
CONTINUOUS
 62
           7
100
AcDbLine
 10
360.897011651599
 20
23.663261259665
 11
360.644175424182
 21
24.163257444968
  0
LINE
  5
6F
100
AcDbEntity
  8
AM_0_4
  6
CONTINUOUS
 62
           7
100
AcDbLine
 10
355.267868890369
 20
23.663272703757
 11
355.015032662952
 21
24.16326888906
  0
LINE
  5
6E
100
AcDbEntity
  8
AM_0_4
  6
CONTINUOUS
 62
           7
100
AcDbLine
 10
360.64419926604
 20
24.163219297996
 11
355.015033616626
 21
24.163219297996
  0
LINE
  5
6D
100
AcDbEntity
  8
AM_0_4
  6
CONTINUOUS
 62
           7
100
AcDbLine
 10
361.276569261157
 20
30.663234556785
 11
361.276569261157
 21
23.663234556785
  0
LINE
  5
6C
100
AcDbEntity
  8
AM_0_4
  6
CONTINUOUS
 62
           7
100
AcDbLine
 10
360.64419926604
 20
31.163234556785
 11
360.64419926604
 21
24.163234556785
  0
LINE
  5
6B
100
AcDbEntity
  8
AM_0_4
  6
CONTINUOUS
 62
           7
100
AcDbLine
 10
355.015033616626
 20
31.163234556785
 11
355.015033616626
 21
24.163234556785
  0
LINE
  5
6A
100
AcDbEntity
  8
AM_0_4
  6
CONTINUOUS
 62
           7
100
AcDbLine
 10
365.458927049243
 20
30.663219297996
 11
361.276569261157
 21
30.663219297996
  0
LINE
  5
69
100
AcDbEntity
  8
AM_0_4
  6
CONTINUOUS
 62
           7
100
AcDbLine
 10
362.106852426135
 20
4.09323486196
 11
362.935433282458
 21
3.063228453269
  0
LINE
  5
68
100
AcDbEntity
  8
AM_0_4
  6
CONTINUOUS
 62
           7
100
AcDbLine
 10
368.708925141894
 20
4.093181456199
 11
362.106828584277
 21
4.093181456199
  0
LINE
  5
67
100
AcDbEntity
  8
AM_0_4
  6
CONTINUOUS
 62
           7
100
AcDbLine
 10
368.708925141894
 20
3.063182676902
 11
362.935411347949
 21
3.063182676902
  0
LINE
  5
66
100
AcDbEntity
  8
AM_0_4
  6
CONTINUOUS
 62
           7
100
AcDbLine
 10
352.585681809985
 20
30.663234556785
 11
351.490384950244
 21
31.163238371482
  0
LINE
  5
65
100
AcDbEntity
  8
AM_0_4
  6
CONTINUOUS
 62
           7
100
AcDbLine
 10
347.109102143848
 20
37.363231505027
 11
349.854265107715
 21
37.363231505027
  0
LINE
  5
64
100
AcDbEntity
  8
AM_0_4
  6
CONTINUOUS
 62
           7
100
AcDbLine
 10
347.958911790454
 20
30.663242186179
 11
346.447008027637
 21
31.163242186179
  0
LINE
  5
63
100
AcDbEntity
  8
AM_0_4
  6
CONTINUOUS
 62
           7
100
AcDbLine
 10
348.240465058887
 20
30.663219297996
 11
347.958970918262
 21
30.663219297996
  0
LINE
  5
62
100
AcDbEntity
  8
AM_0_4
  6
CONTINUOUS
 62
           7
100
AcDbLine
 10
349.854265107715
 20
37.363231505027
 11
352.599412812793
 21
37.363231505027
  0
LINE
  5
61
100
AcDbEntity
  8
AM_0_4
  6
CONTINUOUS
 62
           7
100
AcDbLine
 10
351.490465058887
 20
31.163219297996
 11
348.240465058887
 21
31.163219297996
  0
LINE
  5
60
100
AcDbEntity
  8
AM_0_4
  6
CONTINUOUS
 62
           7
100
AcDbLine
 10
351.928316011035
 20
23.663261259665
 11
351.490392579639
 21
24.163253630271
  0
LINE
  5
5F
100
AcDbEntity
  8
AM_0_4
  6
CONTINUOUS
 62
           7
100
AcDbLine
 10
350.709009065234
 20
23.663230742087
 11
350.70900143584
 21
13.200523222556
  0
LINE
  5
5E
100
AcDbEntity
  8
AM_0_4
  6
CONTINUOUS
 62
           7
100
AcDbLine
 10
348.67828167876
 20
23.663242186179
 11
348.240360154712
 21
24.163234556785
  0
LINE
  5
5D
100
AcDbEntity
  8
AM_0_4
  6
CONTINUOUS
 62
           7
100
AcDbLine
 10
346.691427125537
 20
24.163284147849
 11
347.20888890227
 21
23.663284147849
  0
LINE
  5
5C
100
AcDbEntity
  8
AM_0_4
  6
CONTINUOUS
 62
           7
100
AcDbLine
 10
351.490465058887
 20
24.163219297996
 11
348.240465058887
 21
24.163219297996
  0
LINE
  5
5B
100
AcDbEntity
  8
AM_0_4
  6
CONTINUOUS
 62
           7
100
AcDbLine
 10
352.585725679004
 20
30.663234556785
 11
352.585725679004
 21
23.663234556785
  0
LINE
  5
5A
100
AcDbEntity
  8
AM_0_4
  6
CONTINUOUS
 62
           7
100
AcDbLine
 10
351.490449800098
 20
31.163219297996
 11
351.490449800098
 21
24.163219297996
  0
LINE
  5
59
100
AcDbEntity
  8
AM_0_4
  6
CONTINUOUS
 62
           7
100
AcDbLine
 10
348.240449800098
 20
31.163234556785
 11
348.240449800098
 21
24.163234556785
  0
LINE
  5
58
100
AcDbEntity
  8
AM_0_4
  6
CONTINUOUS
 62
           7
100
AcDbLine
 10
346.455467118823
 20
30.921859587302
 11
346.691482438647
 21
24.16326888906
  0
LINE
  5
57
100
AcDbEntity
  8
AM_0_4
  6
CONTINUOUS
 62
           7
100
AcDbLine
 10
345.515113725268
 20
38.82387145864
 11
345.354184999072
 21
40.663299406638
  0
LINE
  5
56
100
AcDbEntity
  8
AM_0_4
  6
CONTINUOUS
 62
           7
100
AcDbLine
 10
344.384279145801
 20
40.663234556785
 11
344.384279145801
 21
37.163234556785
  0
LINE
  5
55
100
AcDbEntity
  8
AM_0_4
  6
CONTINUOUS
 62
           7
100
AcDbLine
 10
346.209361924731
 20
31.206519926658
 11
338.45520581206
 21
32.618404234519
  0
LINE
  5
54
100
AcDbEntity
  8
AM_0_4
  6
CONTINUOUS
 62
           7
100
AcDbLine
 10
351.958925141894
 20
11.950511778464
 11
351.958925141894
 21
9.113582457175
  0
LINE
  5
53
100
AcDbEntity
  8
AM_0_4
  6
CONTINUOUS
 62
           7
100
AcDbLine
 10
347.795778169238
 20
4.093227232566
 11
349.800695314014
 21
3.063236082664
  0
LINE
  5
52
100
AcDbEntity
  8
AM_0_4
  6
CONTINUOUS
 62
           7
100
AcDbLine
 10
351.958925141894
 20
23.663234556785
 11
351.958925141894
 21
11.950511778464
  0
LINE
  5
51
100
AcDbEntity
  8
AM_0_4
  6
CONTINUOUS
 62
           7
100
AcDbLine
 10
351.958907975757
 20
11.95058807241
 11
350.708951844775
 21
13.200580443015
  0
LINE
  5
50
100
AcDbEntity
  8
AM_0_4
  6
CONTINUOUS
 62
           7
100
AcDbLine
 10
354.745607270801
 20
4.093181456199
 11
347.795732392871
 21
4.093181456199
  0
LINE
  5
4F
100
AcDbEntity
  8
AM_0_4
  6
CONTINUOUS
 62
           7
100
AcDbLine
 10
354.788682832324
 20
3.063182676902
 11
349.800660981738
 21
3.063182676902
  0
LINE
  5
4E
100
AcDbEntity
  8
AM_0_4
  6
CONTINUOUS
 62
           7
100
AcDbLine
 10
368.708925141894
 20
13.200511778464
 11
350.708909883105
 21
13.200511778464
  0
LINE
  5
4D
100
AcDbEntity
  8
AM_0_4
  6
CONTINUOUS
 62
           7
100
AcDbLine
 10
368.708925141894
 20
23.663219297996
 11
347.208970918262
 21
23.663219297996
  0
LINE
  5
4C
100
AcDbEntity
  8
AM_0_4
  6
CONTINUOUS
 62
           7
100
AcDbLine
 10
355.015033616626
 20
30.663219297996
 11
352.585740937793
 21
30.663219297996
  0
LINE
  5
4B
100
AcDbEntity
  8
AM_0_4
  6
CONTINUOUS
 62
           7
100
AcDbLine
 10
368.708925141894
 20
-26.636814271338
 11
363.474870576465
 21
-26.636814271338
  0
LINE
  5
4A
100
AcDbEntity
  8
AM_0_4
  6
CONTINUOUS
 62
           7
100
AcDbLine
 10
355.974197282397
 20
-25.289180909518
 11
356.863195314014
 21
-26.636593018898
  0
LINE
  5
49
100
AcDbEntity
  8
AM_0_4
  6
CONTINUOUS
 62
           7
100
AcDbLine
 10
361.497529878222
 20
-25.289386903168
 11
355.974275483691
 21
-25.289386903168
  0
LINE
  5
48
100
AcDbEntity
  8
AM_0_4
  6
CONTINUOUS
 62
           7
100
AcDbLine
 10
361.497434033954
 20
-25.289295350438
 11
363.474809064471
 21
-26.636730347998
  0
LINE
  5
47
100
AcDbEntity
  8
AM_0_4
  6
CONTINUOUS
 62
           7
100
AcDbLine
 10
349.083879365527
 20
-25.571392213228
 11
354.208885087573
 21
-27.436741029148
  0
LINE
  5
46
100
AcDbEntity
  8
AM_0_4
  6
CONTINUOUS
 62
           7
100
AcDbLine
 10
356.863313569629
 20
-26.636814271338
 11
352.010942353809
 21
-26.636814271338
  0
LINE
  5
45
100
AcDbEntity
  8
AM_0_4
  6
CONTINUOUS
 62
           7
100
AcDbLine
 10
354.745611085498
 20
4.093219603171
 11
355.974293603503
 21
-25.289341126808
  0
LINE
  5
44
100
AcDbEntity
  8
AM_0_4
  6
CONTINUOUS
 62
           7
100
AcDbLine
 10
349.800697221362
 20
3.063220823874
 11
351.629310502612
 21
-26.497860108738
  0
LINE
  5
43
100
AcDbEntity
  8
AM_0_4
  6
CONTINUOUS
 62
           7
100
AcDbLine
 10
362.106784238421
 20
4.093219603171
 11
361.497486009204
 21
-25.289348756198
  0
LINE
  5
42
100
AcDbEntity
  8
AM_0_4
  6
CONTINUOUS
 62
           7
100
AcDbLine
 10
363.474838628375
 20
-26.636783753758
 11
362.935372247302
 21
3.06321319448
  0
LINE
  5
41
100
AcDbEntity
  8
AM_0_4
  6
CONTINUOUS
 62
           7
100
AcDbLine
 10
347.708890809619
 20
9.063197935691
 11
348.294475450122
 21
-24.464763795258
  0
LINE
  5
40
100
AcDbEntity
  8
AM_0_4
  6
CONTINUOUS
 62
           7
100
AcDbLine
 10
338.208955659473
 20
40.297206724753
 11
338.208955659473
 21
37.163234556785
  0
LINE
  5
3F
100
AcDbEntity
  8
AM_0_4
  6
CONTINUOUS
 62
           7
100
AcDbLine
 10
338.208955659473
 20
36.663234556785
 11
338.208955659473
 21
32.913539732566
  0
LINE
  5
3E
100
AcDbEntity
  8
AM_0_4
  6
CONTINUOUS
 62
           7
100
AcDbLine
 10
368.708925141894
 20
32.663219297996
 11
338.343614472949
 21
32.663219297996
  0
LINE
  5
3D
100
AcDbEntity
  8
AM_0_4
  6
CONTINUOUS
 62
           7
100
AcDbLine
 10
383.208925141894
 20
-27.436817323098
 11
354.208925141894
 21
-27.436817323098
  0
LINE
  5
3C
100
AcDbEntity
  8
AM_0_4
  6
CONTINUOUS
 62
           7
100
AcDbLine
 10
338.049592866504
 20
40.663219297996
 11
399.368226899706
 21
40.663219297996
  0
LINE
  5
3B
100
AcDbEntity
  8
AM_0_4
  6
CONTINUOUS
 62
           7
100
AcDbLine
 10
338.208970918262
 20
36.663219297996
 11
399.208864106737
 21
36.663219297996
  0
LINE
  5
3A
100
AcDbEntity
  8
AM_0_4
  6
CONTINUOUS
 62
           7
100
AcDbLine
 10
368.708925141894
 20
4.093181456199
 11
375.311036958301
 21
4.093181456199
  0
LINE
  5
39
100
AcDbEntity
  8
AM_0_4
  6
CONTINUOUS
 62
           7
100
AcDbLine
 10
368.708925141894
 20
3.063182676902
 11
374.48243893584
 21
3.063182676902
  0
LINE
  5
38
100
AcDbEntity
  8
AM_0_4
  6
CONTINUOUS
 62
           7
100
AcDbLine
 10
368.708925141894
 20
-26.636814271338
 11
373.942979707324
 21
-26.636814271338
  0
LINE
  5
37
100
AcDbEntity
  8
AM_0_4
  6
CONTINUOUS
 62
           7
100
AcDbLine
 10
389.708925141894
 20
9.063182676902
 11
347.708925141894
 21
9.063182676902
  0
LINE
  5
36
100
AcDbEntity
  8
AM_0_4
  6
CONTINUOUS
 62
           7
100
AcDbLine
 10
385.458925141894
 20
11.950511778464
 11
351.958925141894
 21
11.950511778464
  0
LINE
  5
35
100
AcDbEntity
  8
AM_0_4
  6
CONTINUOUS
 62
           7
100
AcDbLine
 10
386.708925141894
 20
13.200511778464
 11
368.708925141894
 21
13.200511778464
  0
LINE
  5
34
100
AcDbEntity
  8
AM_0_4
  6
CONTINUOUS
 62
           7
100
AcDbLine
 10
368.708925141894
 20
24.163219297996
 11
371.958906068408
 21
24.163219297996
  0
LINE
  5
33
100
AcDbEntity
  8
AM_0_4
  6
CONTINUOUS
 62
           7
100
AcDbLine
 10
368.708925141894
 20
31.163219297996
 11
371.958906068408
 21
31.163219297996
  0
LINE
  5
32
100
AcDbEntity
  8
AM_0_4
  6
CONTINUOUS
 62
           7
100
AcDbLine
 10
368.708925141894
 20
23.663219297996
 11
390.208848847948
 21
23.663219297996
  0
LINE
  5
31
100
AcDbEntity
  8
AM_0_4
  6
CONTINUOUS
 62
           7
100
AcDbLine
 10
368.708925141894
 20
32.663219297996
 11
399.07422055205
 21
32.663219297996
  0
LINE
  5
30
100
AcDbEntity
  8
AM_0_4
  6
CONTINUOUS
 62
           7
100
AcDbLine
 10
382.256651773058
 20
47.863231505027
 11
382.256651773058
 21
40.663234556785
  0
LINE
  5
2F
100
AcDbEntity
  8
AM_0_4
  6
CONTINUOUS
 62
           7
100
AcDbLine
 10
355.161197557056
 20
47.863231505027
 11
355.161197557056
 21
40.663234556785
  0
LINE
  5
2E
100
AcDbEntity
  8
AM_0_4
  6
CONTINUOUS
 62
           7
100
AcDbLine
 10
337.708955659473
 20
48.463237608542
 11
337.708955659473
 21
41.163234556785
  0
LINE
  5
2D
100
AcDbEntity
  8
AM_0_4
  6
CONTINUOUS
 62
           7
100
AcDbLine
 10
399.708820237719
 20
48.463264311423
 11
399.70880497893
 21
41.163261259665
  0
LINE
  5
2C
100
AcDbEntity
  8
AM_7
  6
DOT_CENTER
 62
           2
100
AcDbLine
 10
368.708925141894
 20
114.141918028463
 11
368.708925141894
 21
-35.436817323098
  0
LINE
  5
2B
100
AcDbEntity
  8
AM_7
  6
DOT_CENTER
 62
           2
100
AcDbLine
 10
352.208925141894
 20
79.141948546042
 11
385.208925141894
 21
79.141948546042
  0
ENDSEC
  0
SECTION
  2
OBJECTS
  0
DICTIONARY
  5
19
100
AcDbDictionary
  3
ACAD_GROUP
350
1A
  3
ACAD_MLINESTYLE
350
1B
  0
DICTIONARY
  5
1A
102
{ACAD_REACTORS
330
19
102
}
100
AcDbDictionary
  0
DICTIONARY
  5
1B
102
{ACAD_REACTORS
330
19
102
}
100
AcDbDictionary
  3
STANDARD
350
1C
  0
MLINESTYLE
  5
1C
102
{ACAD_REACTORS
330
1B
102
}
100
AcDbMlineStyle
  2
STANDARD
 70
           0
  3

 62
           0
 51
90.0
 52
90.0
 71
           2
 49
0.5
 62
         256
  6
BYLAYER
 49
-0.5
 62
         256
  6
BYLAYER
  0
ENDSEC
  0
EOF
