  0
SECTION
  2
HEADER
  9
$ACADVER
  1
AC1027
  9
$ACADMAINTVER
 70
   105
  9
$DWGCODEPAGE
  3
ANSI_932
  9
$REQUIREDVERSIONS
160
                 0
  9
$LASTSAVEDBY
  1
kurimoto
  9
$INSBASE
 10
0.0
 20
0.0
 30
0.0
  9
$EXTMIN
 10
10889.12652386332
 20
-3640.578531819732
 30
0.0
  9
$EXTMAX
 10
15752.6221358269
 20
-435.0928109601909
 30
0.0
  9
$LIMMIN
 10
0.0
 20
0.0
  9
$LIMMAX
 10
0.0
 20
0.0
  9
$ORTHOMODE
 70
     0
  9
$REGENMODE
 70
     1
  9
$FILLMODE
 70
     1
  9
$QTEXTMODE
 70
     0
  9
$MIRRTEXT
 70
     1
  9
$LTSCALE
 40
1.0
  9
$ATTMODE
 70
     1
  9
$TEXTSIZE
 40
0.0
  9
$TRACEWID
 40
0.05
  9
$TEXTSTYLE
  7
STANDARD
  9
$CLAYER
  8
0
  9
$CELTYPE
  6
CONTINUOUS
  9
$CECOLOR
 62
   256
  9
$CELTSCALE
 40
1.0
  9
$DISPSILH
 70
     0
  9
$DIMSCALE
 40
1.0
  9
$DIMASZ
 40
0.18
  9
$DIMEXO
 40
0.0625
  9
$DIMDLI
 40
0.38
  9
$DIMRND
 40
0.0
  9
$DIMDLE
 40
0.0
  9
$DIMEXE
 40
0.18
  9
$DIMTP
 40
0.0
  9
$DIMTM
 40
0.0
  9
$DIMTXT
 40
0.18
  9
$DIMCEN
 40
0.09
  9
$DIMTSZ
 40
0.0
  9
$DIMTOL
 70
     0
  9
$DIMLIM
 70
     0
  9
$DIMTIH
 70
     1
  9
$DIMTOH
 70
     1
  9
$DIMSE1
 70
     0
  9
$DIMSE2
 70
     0
  9
$DIMTAD
 70
     0
  9
$DIMZIN
 70
     0
  9
$DIMBLK
  1

  9
$DIMASO
 70
     1
  9
$DIMSHO
 70
     1
  9
$DIMPOST
  1

  9
$DIMAPOST
  1

  9
$DIMALT
 70
     0
  9
$DIMALTD
 70
     2
  9
$DIMALTF
 40
25.4
  9
$DIMLFAC
 40
1.0
  9
$DIMTOFL
 70
     0
  9
$DIMTVP
 40
0.0
  9
$DIMTIX
 70
     0
  9
$DIMSOXD
 70
     0
  9
$DIMSAH
 70
     0
  9
$DIMBLK1
  1

  9
$DIMBLK2
  1

  9
$DIMSTYLE
  2
STANDARD
  9
$DIMCLRD
 70
     0
  9
$DIMCLRE
 70
     0
  9
$DIMCLRT
 70
     0
  9
$DIMTFAC
 40
1.0
  9
$DIMGAP
 40
0.09
  9
$DIMJUST
 70
     0
  9
$DIMSD1
 70
     0
  9
$DIMSD2
 70
     0
  9
$DIMTOLJ
 70
     1
  9
$DIMTZIN
 70
     0
  9
$DIMALTZ
 70
     0
  9
$DIMALTTZ
 70
     0
  9
$DIMUPT
 70
     0
  9
$DIMDEC
 70
     4
  9
$DIMTDEC
 70
     4
  9
$DIMALTU
 70
     2
  9
$DIMALTTD
 70
     2
  9
$DIMTXSTY
  7
STANDARD
  9
$DIMAUNIT
 70
     0
  9
$DIMADEC
 70
     0
  9
$DIMALTRND
 40
0.0
  9
$DIMAZIN
 70
     0
  9
$DIMDSEP
 70
    46
  9
$DIMATFIT
 70
     3
  9
$DIMFRAC
 70
     0
  9
$DIMLDRBLK
  1

  9
$DIMLUNIT
 70
     2
  9
$DIMLWD
 70
    -2
  9
$DIMLWE
 70
    -2
  9
$DIMTMOVE
 70
     2
  9
$DIMFXL
 40
1.0
  9
$DIMFXLON
 70
     0
  9
$DIMJOGANG
 40
0.7853981633974483
  9
$DIMTFILL
 70
     0
  9
$DIMTFILLCLR
 70
     0
  9
$DIMARCSYM
 70
     0
  9
$DIMLTYPE
  6

  9
$DIMLTEX1
  6

  9
$DIMLTEX2
  6

  9
$DIMTXTDIRECTION
 70
     0
  9
$LUNITS
 70
     2
  9
$LUPREC
 70
     4
  9
$SKETCHINC
 40
0.1
  9
$FILLETRAD
 40
0.0
  9
$AUNITS
 70
     0
  9
$AUPREC
 70
     0
  9
$MENU
  1
acad
  9
$ELEVATION
 40
0.0
  9
$PELEVATION
 40
0.0
  9
$THICKNESS
 40
0.0
  9
$LIMCHECK
 70
     0
  9
$CHAMFERA
 40
0.0
  9
$CHAMFERB
 40
0.0
  9
$CHAMFERC
 40
0.0
  9
$CHAMFERD
 40
0.0
  9
$SKPOLY
 70
     0
  9
$TDCREATE
 40
2447893.0
  9
$TDUCREATE
 40
2447892.625
  9
$TDUPDATE
 40
2458621.697785289
  9
$TDUUPDATE
 40
2458621.322785289
  9
$TDINDWG
 40
0.0297649537
  9
$TDUSRTIMER
 40
0.0027520718
  9
$USRTIMER
 70
     1
  9
$ANGBASE
 50
0.0
  9
$ANGDIR
 70
     0
  9
$PDMODE
 70
     0
  9
$PDSIZE
 40
0.0
  9
$PLINEWID
 40
0.0
  9
$SPLFRAME
 70
     0
  9
$SPLINETYPE
 70
     6
  9
$SPLINESEGS
 70
     8
  9
$HANDSEED
  5
321E
  9
$SURFTAB1
 70
     6
  9
$SURFTAB2
 70
     6
  9
$SURFTYPE
 70
     6
  9
$SURFU
 70
     6
  9
$SURFV
 70
     6
  9
$UCSBASE
  2

  9
$UCSNAME
  2

  9
$UCSORG
 10
0.0
 20
0.0
 30
0.0
  9
$UCSXDIR
 10
1.0
 20
0.0
 30
0.0
  9
$UCSYDIR
 10
0.0
 20
1.0
 30
0.0
  9
$UCSORTHOREF
  2

  9
$UCSORTHOVIEW
 70
     0
  9
$UCSORGTOP
 10
0.0
 20
0.0
 30
0.0
  9
$UCSORGBOTTOM
 10
0.0
 20
0.0
 30
0.0
  9
$UCSORGLEFT
 10
0.0
 20
0.0
 30
0.0
  9
$UCSORGRIGHT
 10
0.0
 20
0.0
 30
0.0
  9
$UCSORGFRONT
 10
0.0
 20
0.0
 30
0.0
  9
$UCSORGBACK
 10
0.0
 20
0.0
 30
0.0
  9
$PUCSBASE
  2

  9
$PUCSNAME
  2

  9
$PUCSORG
 10
0.0
 20
0.0
 30
0.0
  9
$PUCSXDIR
 10
1.0
 20
0.0
 30
0.0
  9
$PUCSYDIR
 10
0.0
 20
1.0
 30
0.0
  9
$PUCSORTHOREF
  2

  9
$PUCSORTHOVIEW
 70
     0
  9
$PUCSORGTOP
 10
0.0
 20
0.0
 30
0.0
  9
$PUCSORGBOTTOM
 10
0.0
 20
0.0
 30
0.0
  9
$PUCSORGLEFT
 10
0.0
 20
0.0
 30
0.0
  9
$PUCSORGRIGHT
 10
0.0
 20
0.0
 30
0.0
  9
$PUCSORGFRONT
 10
0.0
 20
0.0
 30
0.0
  9
$PUCSORGBACK
 10
0.0
 20
0.0
 30
0.0
  9
$USERI1
 70
     0
  9
$USERI2
 70
     0
  9
$USERI3
 70
     0
  9
$USERI4
 70
     0
  9
$USERI5
 70
     0
  9
$USERR1
 40
0.0
  9
$USERR2
 40
0.0
  9
$USERR3
 40
0.0
  9
$USERR4
 40
0.0
  9
$USERR5
 40
0.0
  9
$WORLDVIEW
 70
     1
  9
$SHADEDGE
 70
     3
  9
$SHADEDIF
 70
    70
  9
$TILEMODE
 70
     1
  9
$MAXACTVP
 70
    16
  9
$PINSBASE
 10
0.0
 20
0.0
 30
0.0
  9
$PLIMCHECK
 70
     0
  9
$PEXTMIN
 10
1.05
 20
0.6999999999999997
 30
0.0
  9
$PEXTMAX
 10
9.45
 20
6.300000000000001
 30
0.0
  9
$PLIMMIN
 10
-0.25
 20
-0.7500000000000001
  9
$PLIMMAX
 10
10.75
 20
7.75
  9
$UNITMODE
 70
     0
  9
$VISRETAIN
 70
     0
  9
$PLINEGEN
 70
     1
  9
$PSLTSCALE
 70
     1
  9
$TREEDEPTH
 70
  3020
  9
$CMLSTYLE
  2
STANDARD
  9
$CMLJUST
 70
     0
  9
$CMLSCALE
 40
1.0
  9
$PROXYGRAPHICS
 70
     0
  9
$MEASUREMENT
 70
     0
  9
$CELWEIGHT
370
    -1
  9
$ENDCAPS
280
     0
  9
$JOINSTYLE
280
     0
  9
$LWDISPLAY
290
     0
  9
$INSUNITS
 70
     0
  9
$HYPERLINKBASE
  1

  9
$STYLESHEET
  1

  9
$XEDIT
290
     1
  9
$CEPSNTYPE
380
     0
  9
$PSTYLEMODE
290
     1
  9
$FINGERPRINTGUID
  2
{E11F45BF-83E2-4460-B213-EAE09BEAD574}
  9
$VERSIONGUID
  2
{FAEB1C32-E019-11D5-929B-00C0DF256EC4}
  9
$EXTNAMES
290
     1
  9
$PSVPSCALE
 40
0.0
  9
$OLESTARTUP
290
     0
  9
$SORTENTS
280
   127
  9
$INDEXCTL
280
     0
  9
$HIDETEXT
280
     1
  9
$XCLIPFRAME
280
     2
  9
$HALOGAP
280
     0
  9
$OBSCOLOR
 70
   257
  9
$OBSLTYPE
280
     0
  9
$INTERSECTIONDISPLAY
280
     0
  9
$INTERSECTIONCOLOR
 70
   257
  9
$DIMASSOC
280
     2
  9
$PROJECTNAME
  1

  9
$CAMERADISPLAY
290
     0
  9
$LENSLENGTH
 40
50.0
  9
$CAMERAHEIGHT
 40
0.0
  9
$STEPSPERSEC
 40
2.0
  9
$STEPSIZE
 40
6.0
  9
$3DDWFPREC
 40
2.0
  9
$PSOLWIDTH
 40
0.25
  9
$PSOLHEIGHT
 40
4.0
  9
$LOFTANG1
 40
1.570796326794897
  9
$LOFTANG2
 40
1.570796326794897
  9
$LOFTMAG1
 40
0.0
  9
$LOFTMAG2
 40
0.0
  9
$LOFTPARAM
 70
     7
  9
$LOFTNORMALS
280
     1
  9
$LATITUDE
 40
37.795
  9
$LONGITUDE
 40
-122.394
  9
$NORTHDIRECTION
 40
0.0
  9
$TIMEZONE
 70
 -8000
  9
$LIGHTGLYPHDISPLAY
280
     1
  9
$TILEMODELIGHTSYNCH
280
     1
  9
$SOLIDHIST
280
     0
  9
$SHOWHIST
280
     1
  9
$DWFFRAME
280
     2
  9
$DGNFRAME
280
     2
  9
$REALWORLDSCALE
290
     1
  9
$INTERFERECOLOR
 62
   256
  9
$CSHADOW
280
     0
  9
$SHADOWPLANELOCATION
 40
0.0
  0
ENDSEC
  0
SECTION
  2
CLASSES
  0
CLASS
  1
LWPOLYLINE
  2
AcDbPolyline
  3
ObjectDBX Classes
 90
        0
 91
        1
280
     0
281
     1
  0
CLASS
  1
IMAGE
  2
AcDbRasterImage
  3
ISM
 90
      127
 91
        5
280
     0
281
     1
  0
CLASS
  1
OLE2FRAME
  2
AcDbOle2Frame
  3
ObjectDBX Classes
 90
        0
 91
        1
280
     0
281
     1
  0
CLASS
  1
HATCH
  2
AcDbHatch
  3
ObjectDBX Classes
 90
        0
 91
        1
280
     0
281
     1
  0
CLASS
  1
DICTIONARYVAR
  2
AcDbDictionaryVar
  3
ObjectDBX Classes
 90
        0
 91
        4
280
     0
281
     0
  0
CLASS
  1
RASTERVARIABLES
  2
AcDbRasterVariables
  3
ISM
 90
        0
 91
        4
280
     0
281
     0
  0
CLASS
  1
IMAGEDEF
  2
AcDbRasterImageDef
  3
ISM
 90
        0
 91
        4
280
     0
281
     0
  0
CLASS
  1
IMAGEDEF_REACTOR
  2
AcDbRasterImageDefReactor
  3
ISM
 90
        1
 91
        4
280
     0
281
     0
  0
CLASS
  1
IDBUFFER
  2
AcDbIdBuffer
  3
ObjectDBX Classes
 90
        0
 91
        4
280
     0
281
     0
  0
CLASS
  1
SPATIAL_FILTER
  2
AcDbSpatialFilter
  3
ObjectDBX Classes
 90
        0
 91
        4
280
     0
281
     0
  0
CLASS
  1
XRECORD
  2
AcDbXrecord
  3
ObjectDBX Classes
 90
        0
 91
        1
280
     0
281
     0
  0
CLASS
  1
SORTENTSTABLE
  2
AcDbSortentsTable
  3
ObjectDBX Classes
 90
        0
 91
        4
280
     0
281
     0
  0
CLASS
  1
LAYER_INDEX
  2
AcDbLayerIndex
  3
ObjectDBX Classes
 90
        0
 91
        4
280
     0
281
     0
  0
CLASS
  1
SPATIAL_INDEX
  2
AcDbSpatialIndex
  3
AutoCAD 2000
 90
        0
 91
        4
280
     0
281
     0
  0
CLASS
  1
OBJECT_PTR
  2
CAseDLPNTableRecord
  3
ASE-LPNTableRecord
 90
        1
 91
        4
280
     0
281
     0
  0
CLASS
  1
LAYOUT
  2
AcDbLayout
  3
ObjectDBX Classes
 90
        0
 91
        1
280
     0
281
     0
  0
CLASS
  1
PLOTSETTINGS
  2
AcDbPlotSettings
  3
ObjectDBX Classes
 90
        0
 91
        4
280
     0
281
     0
  0
CLASS
  1
ACDBDICTIONARYWDFLT
  2
AcDbDictionaryWithDefault
  3
ObjectDBX Classes
 90
        0
 91
        4
280
     0
281
     0
  0
CLASS
  1
ACDBPLACEHOLDER
  2
AcDbPlaceHolder
  3
ObjectDBX Classes
 90
        0
 91
        1
280
     0
281
     0
  0
CLASS
  1
VBA_PROJECT
  2
AcDbVbaProject
  3
ObjectDBX Classes
 90
        0
 91
        1
280
     0
281
     0
  0
CLASS
  1
WIPEOUT
  2
AcDbWipeout
  3
WipeOut|AutoCAD Express Tool|expresstools@autodesk.com
 90
      127
 91
        4
280
     0
281
     1
  0
CLASS
  1
WIPEOUTVARIABLES
  2
AcDbWipeoutVariables
  3
WipeOut|AutoCAD Express Tool|expresstools@autodesk.com
 90
        0
 91
        4
280
     0
281
     0
  0
CLASS
  1
RTEXT
  2
RText
  3
RText|AutoCAD Express Tool|expresstools@autodesk.com
 90
        0
 91
        4
280
     0
281
     1
  0
CLASS
  1
ARCALIGNEDTEXT
  2
AcDbArcAlignedText
  3
ATEXT|AutoCAD Express Tool|expresstools@autodesk.com
 90
        0
 91
        4
280
     0
281
     1
  0
CLASS
  1
SCALE
  2
AcDbScale
  3
ObjectDBX Classes
 90
     1153
 91
        4
280
     0
281
     0
  0
CLASS
  1
VISUALSTYLE
  2
AcDbVisualStyle
  3
ObjectDBX Classes
 90
     4095
 91
        4
280
     0
281
     0
  0
CLASS
  1
MATERIAL
  2
AcDbMaterial
  3
ObjectDBX Classes
 90
     1153
 91
        4
280
     0
281
     0
  0
CLASS
  1
TABLESTYLE
  2
AcDbTableStyle
  3
ObjectDBX Classes
 90
     4095
 91
        4
280
     0
281
     0
  0
CLASS
  1
MLEADERSTYLE
  2
AcDbMLeaderStyle
  3
ACDB_MLEADERSTYLE_CLASS
 90
     4095
 91
        4
280
     0
281
     0
  0
CLASS
  1
DIMASSOC
  2
AcDbDimAssoc
  3
"AcDbDimAssoc|Product Desc:     AcDim ARX App For Dimension|Company:          Autodesk, Inc.|WEB Address:      www.autodesk.com"
 90
        0
 91
        4
280
     0
281
     0
  0
CLASS
  1
CELLSTYLEMAP
  2
AcDbCellStyleMap
  3
ObjectDBX Classes
 90
     1152
 91
        4
280
     0
281
     0
  0
CLASS
  1
SUN
  2
AcDbSun
  3
SCENEOE
 90
     1153
 91
        4
280
     0
281
     0
  0
ENDSEC
  0
SECTION
  2
TABLES
  0
TABLE
  2
VPORT
  5
7
330
0
100
AcDbSymbolTable
 70
     1
  0
VPORT
  5
15
330
7
100
AcDbSymbolTableRecord
100
AcDbViewportTableRecord
  2
*ACTIVE
 70
     0
 10
0.0
 20
0.0
 11
1.0
 21
1.0
 12
13320.87432984511
 22
-2037.835659957596
 13
0.0
 23
0.0
 14
1.0
 24
1.0
 15
0.0
 25
0.0
 16
0.0
 26
0.0
 36
1.0
 17
0.0
 27
0.0
 37
0.0
 40
3269.595411954707
 41
2.085858585858586
 42
50.0
 43
0.0
 44
0.0
 50
0.0
 51
0.0
 71
    16
 72
   100
 73
     1
 74
     1
 75
     0
 76
     0
 77
     0
 78
     0
281
     0
 65
     1
110
0.0
120
0.0
130
0.0
111
1.0
121
0.0
131
0.0
112
0.0
122
1.0
132
0.0
 79
     0
146
0.0
348
4B3
 60
     3
 61
     5
292
     1
282
     1
141
0.0
142
0.0
 63
   256
361
EC9
  0
ENDTAB
  0
TABLE
  2
LTYPE
  5
4
330
0
100
AcDbSymbolTable
 70
     8
  0
LTYPE
  5
11
330
4
100
AcDbSymbolTableRecord
100
AcDbLinetypeTableRecord
  2
BYBLOCK
 70
     0
  3

 72
    65
 73
     0
 40
0.0
  0
LTYPE
  5
12
330
4
100
AcDbSymbolTableRecord
100
AcDbLinetypeTableRecord
  2
BYLAYER
 70
     0
  3

 72
    65
 73
     0
 40
0.0
  0
LTYPE
  5
13
330
4
100
AcDbSymbolTableRecord
100
AcDbLinetypeTableRecord
  2
CONTINUOUS
 70
     0
  3
Solid line
 72
    65
 73
     0
 40
0.0
  0
LTYPE
  5
1D
330
4
100
AcDbSymbolTableRecord
100
AcDbLinetypeTableRecord
  2
DASHED
 70
     0
  3
Dashed
 72
    65
 73
     2
 40
15.0
 49
12.0
 74
     0
 49
-3.0
 74
     0
  0
LTYPE
  5
1E
330
4
100
AcDbSymbolTableRecord
100
AcDbLinetypeTableRecord
  2
DOTTED
 70
     0
  3
Dotted
 72
    65
 73
     2
 40
3.5
 49
0.5
 74
     0
 49
-3.0
 74
     0
  0
LTYPE
  5
1F
330
4
100
AcDbSymbolTableRecord
100
AcDbLinetypeTableRecord
  2
DOT_CENTER
 70
     0
  3
Dot_Center
 72
    65
 73
     4
 40
2.0
 49
1.25
 74
     0
 49
-0.25
 74
     0
 49
0.25
 74
     0
 49
-0.25
 74
     0
  0
LTYPE
  5
20
330
4
100
AcDbSymbolTableRecord
100
AcDbLinetypeTableRecord
  2
LONG_DASHED
 70
     0
  3
Long_Dashed
 72
    65
 73
     2
 40
2.0
 49
1.5
 74
     0
 49
-0.5
 74
     0
  0
LTYPE
  5
21
330
4
100
AcDbSymbolTableRecord
100
AcDbLinetypeTableRecord
  2
DASH_CENTER
 70
     0
  3
Dash_Center
 72
    65
 73
     4
 40
36.0
 49
24.0
 74
     0
 49
-3.0
 74
     0
 49
6.0
 74
     0
 49
-3.0
 74
     0
  0
LTYPE
  5
22
330
4
100
AcDbSymbolTableRecord
100
AcDbLinetypeTableRecord
  2
PHANTOM
 70
     0
  3
Phantom
 72
    65
 73
     6
 40
2.5
 49
1.25
 74
     0
 49
-0.25
 74
     0
 49
0.25
 74
     0
 49
-0.25
 74
     0
 49
0.25
 74
     0
 49
-0.25
 74
     0
  0
LTYPE
  5
23
330
4
100
AcDbSymbolTableRecord
100
AcDbLinetypeTableRecord
  2
CENTER_DASH_DASH
 70
     0
  3
Center_Dash_Dash
 72
    65
 73
     6
 40
22.0
 49
12.0
 74
     0
 49
-3.0
 74
     0
 49
0.5
 74
     0
 49
-3.0
 74
     0
 49
0.5
 74
     0
 49
-3.0
 74
     0
  0
ENDTAB
  0
TABLE
  2
LAYER
  5
2
330
0
100
AcDbSymbolTable
 70
     3
  0
LAYER
  5
14
330
2
100
AcDbSymbolTableRecord
100
AcDbLayerTableRecord
  2
0
 70
     0
 62
     7
  6
CONTINUOUS
370
    -3
390
488
347
4CA
348
0
  0
LAYER
  5
24
330
2
100
AcDbSymbolTableRecord
100
AcDbLayerTableRecord
  2
1
 70
     0
 62
     7
  6
CONTINUOUS
370
    -3
390
488
347
4CA
348
0
  0
LAYER
  5
4D7
330
2
100
AcDbSymbolTableRecord
100
AcDbLayerTableRecord
  2
Defpoints
 70
     0
 62
     7
  6
CONTINUOUS
290
     0
370
    -3
390
488
347
4CA
348
0
  0
ENDTAB
  0
TABLE
  2
STYLE
  5
3
330
0
100
AcDbSymbolTable
 70
     2
  0
STYLE
  5
17
330
3
100
AcDbSymbolTableRecord
100
AcDbTextStyleTableRecord
  2
STANDARD
 70
     0
 40
0.0
 41
1.0
 50
0.0
 71
     0
 42
0.0
  3
txt
  4

  0
STYLE
  5
483
330
3
100
AcDbSymbolTableRecord
100
AcDbTextStyleTableRecord
  2
CONVERTER_1
 70
     0
 40
0.0
 41
0.9
 50
0.0
 71
     0
 42
0.0
  3
txt.shx
  4

  0
ENDTAB
  0
TABLE
  2
VIEW
  5
5
330
0
100
AcDbSymbolTable
 70
     0
  0
ENDTAB
  0
TABLE
  2
UCS
  5
6
330
0
100
AcDbSymbolTable
 70
     0
  0
ENDTAB
  0
TABLE
  2
APPID
  5
8
330
0
100
AcDbSymbolTable
 70
     1
  0
APPID
  5
16
330
8
100
AcDbSymbolTableRecord
100
AcDbRegAppTableRecord
  2
ACAD
 70
     0
  0
ENDTAB
  0
TABLE
  2
DIMSTYLE
  5
9
330
0
100
AcDbSymbolTable
 70
     1
100
AcDbDimStyleTable
  0
DIMSTYLE
105
18
330
9
100
AcDbSymbolTableRecord
100
AcDbDimStyleTableRecord
  2
STANDARD
 70
     0
178
     0
289
     0
340
17
  0
ENDTAB
  0
TABLE
  2
BLOCK_RECORD
  5
1
330
0
100
AcDbSymbolTable
 70
     3
  0
BLOCK_RECORD
  5
A
330
1
100
AcDbSymbolTableRecord
100
AcDbBlockTableRecord
  2
*MODEL_SPACE
340
4AC
 70
     0
280
     1
281
     0
  0
BLOCK_RECORD
  5
320F
330
1
100
AcDbSymbolTableRecord
100
AcDbBlockTableRecord
  2
*Paper_Space
340
3210
 70
     0
280
     1
281
     0
  0
BLOCK_RECORD
  5
25
330
1
100
AcDbSymbolTableRecord
100
AcDbBlockTableRecord
  2
SAT1000C100__1
340
0
102
{BLKREFS
331
29
102
}
 70
     0
280
     1
281
     0
  0
BLOCK_RECORD
  5
A14
330
1
100
AcDbSymbolTableRecord
100
AcDbBlockTableRecord
  2
*D1
340
0
 70
     0
280
     1
281
     0
  0
BLOCK_RECORD
  5
A24
330
1
100
AcDbSymbolTableRecord
100
AcDbBlockTableRecord
  2
*D2
340
0
 70
     0
280
     1
281
     0
  0
ENDTAB
  0
ENDSEC
  0
SECTION
  2
BLOCKS
  0
BLOCK
  5
D
330
A
100
AcDbEntity
  8
0
100
AcDbBlockBegin
  2
*MODEL_SPACE
 70
     0
 10
0.0
 20
0.0
 30
0.0
  3
*MODEL_SPACE
  1

  0
ENDBLK
  5
E
330
A
100
AcDbEntity
  8
0
100
AcDbBlockEnd
  0
BLOCK
  5
3211
330
320F
100
AcDbEntity
 67
     1
  8
0
100
AcDbBlockBegin
  2
*Paper_Space
 70
     0
 10
0.0
 20
0.0
 30
0.0
  3
*Paper_Space
  1

  0
ENDBLK
  5
3212
330
320F
100
AcDbEntity
 67
     1
  8
0
100
AcDbBlockEnd
  0
BLOCK
  5
26
330
25
100
AcDbEntity
  8
0
100
AcDbBlockBegin
  2
SAT1000C100__1
 70
     0
 10
0.0
 20
0.0
 30
0.0
  3
SAT1000C100__1
  1

  0
ARC
  5
480
330
25
100
AcDbEntity
  8
1
  6
Continuous
 62
     0
100
AcDbCircle
 10
11497.78507643026
 20
-3635.578508955002
 30
0.0
 40
2.0
100
AcDbArc
 50
180.0
 51
270.0
  0
ARC
  5
47F
330
25
100
AcDbEntity
  8
1
  6
Continuous
 62
     0
100
AcDbCircle
 10
11501.78507643026
 20
-3635.578508955002
 30
0.0
 40
2.0
100
AcDbArc
 50
270.0
 51
0.0
  0
ARC
  5
47E
330
25
100
AcDbEntity
  8
1
  6
Continuous
 62
     0
100
AcDbCircle
 10
11497.78507643026
 20
-3635.578508955002
 30
0.0
 40
2.0
100
AcDbArc
 50
180.0
 51
270.0
  0
ARC
  5
47D
330
25
100
AcDbEntity
  8
1
  6
Continuous
 62
     0
100
AcDbCircle
 10
11501.78507643026
 20
-3635.578508955002
 30
0.0
 40
2.0
100
AcDbArc
 50
270.0
 51
0.0
  0
ARC
  5
474
330
25
100
AcDbEntity
  8
1
  6
Continuous
 62
     0
100
AcDbCircle
 10
11550.28507643026
 20
-1177.965522899734
 30
0.0
 40
30.0
100
AcDbArc
 50
180.0
 51
218.4706455406043
  0
ARC
  5
473
330
25
100
AcDbEntity
  8
1
  6
Continuous
 62
     0
100
AcDbCircle
 10
11449.28507643026
 20
-1177.965522899735
 30
0.0
 40
30.000000000005
100
AcDbArc
 50
321.5293544594064
 51
0.0
  0
ARC
  5
472
330
25
100
AcDbEntity
  8
1
  6
Continuous
 62
     0
100
AcDbCircle
 10
13174.53620668944
 20
-1177.591266427625
 30
0.0
 40
6.0
100
AcDbArc
 50
180.0
 51
270.0
  0
ARC
  5
471
330
25
100
AcDbEntity
  8
1
  6
Continuous
 62
     0
100
AcDbCircle
 10
13172.53620668944
 20
-1207.594355492768
 30
0.0
 40
45.0
100
AcDbArc
 50
179.999999999998
 51
270.0
  0
ARC
  5
470
330
25
100
AcDbEntity
  8
1
  6
Continuous
 62
     0
100
AcDbCircle
 10
13129.17812112445
 20
-998.372139621611
 30
0.0
 40
1.0
100
AcDbArc
 50
90.0
 51
180.0
  0
ARC
  5
46F
330
25
100
AcDbEntity
  8
1
  6
Continuous
 62
     0
100
AcDbCircle
 10
13167.17812112445
 20
-998.372139621611
 30
0.0
 40
1.0
100
AcDbArc
 50
0.0
 51
90.0
  0
ARC
  5
46E
330
25
100
AcDbEntity
  8
1
  6
Continuous
 62
     0
100
AcDbCircle
 10
13171.17812112445
 20
-1004.372139621611
 30
0.0
 40
2.0
100
AcDbArc
 50
0.0
 51
90.0
  0
ARC
  5
46D
330
25
100
AcDbEntity
  8
1
  6
Continuous
 62
     0
100
AcDbCircle
 10
13125.17812112445
 20
-1004.372139621611
 30
0.0
 40
2.0
100
AcDbArc
 50
90.0
 51
180.0
  0
ARC
  5
46C
330
25
100
AcDbEntity
  8
1
  6
Continuous
 62
     0
100
AcDbCircle
 10
13126.17812112445
 20
-1000.372139621611
 30
0.0
 40
2.0
100
AcDbArc
 50
270.0
 51
0.0
  0
ARC
  5
46B
330
25
100
AcDbEntity
  8
1
  6
Continuous
 62
     0
100
AcDbCircle
 10
13170.17812112445
 20
-1000.372139621611
 30
0.0
 40
2.0
100
AcDbArc
 50
180.0
 51
270.0
  0
ARC
  5
46A
330
25
100
AcDbEntity
  8
1
  6
Continuous
 62
     0
100
AcDbCircle
 10
13173.17812112445
 20
-1045.795460691006
 30
0.0
 40
2.0
100
AcDbArc
 50
180.0
 51
239.9999999999994
  0
ARC
  5
469
330
25
100
AcDbEntity
  8
1
  6
Continuous
 62
     0
100
AcDbCircle
 10
13168.17812112445
 20
-1045.372810960196
 30
0.0
 40
1.0
100
AcDbArc
 50
270.0
 51
0.0
  0
ARC
  5
468
330
25
100
AcDbEntity
  8
1
  6
Continuous
 62
     0
100
AcDbCircle
 10
13157.51145445779
 20
-1045.372810960196
 30
0.0
 40
1.0
100
AcDbArc
 50
180.0
 51
270.0
  0
ARC
  5
467
330
25
100
AcDbEntity
  8
1
  6
Continuous
 62
     0
100
AcDbCircle
 10
13153.51145445779
 20
-1045.372810960196
 30
0.0
 40
1.0
100
AcDbArc
 50
270.0
 51
0.0
  0
ARC
  5
466
330
25
100
AcDbEntity
  8
1
  6
Continuous
 62
     0
100
AcDbCircle
 10
13142.84478779112
 20
-1045.372810960196
 30
0.0
 40
1.0
100
AcDbArc
 50
180.0
 51
270.0
  0
ARC
  5
465
330
25
100
AcDbEntity
  8
1
  6
Continuous
 62
     0
100
AcDbCircle
 10
13138.84478779112
 20
-1045.372810960196
 30
0.0
 40
1.0
100
AcDbArc
 50
270.0
 51
0.0
  0
ARC
  5
464
330
25
100
AcDbEntity
  8
1
  6
Continuous
 62
     0
100
AcDbCircle
 10
13123.17812112445
 20
-1045.795460691006
 30
0.0
 40
2.0
100
AcDbArc
 50
300.0000000000005
 51
0.0
  0
ARC
  5
463
330
25
100
AcDbEntity
  8
1
  6
Continuous
 62
     0
100
AcDbCircle
 10
13128.17812112445
 20
-1045.372810960196
 30
0.0
 40
1.0
100
AcDbArc
 50
180.0
 51
270.0
  0
ARC
  5
462
330
25
100
AcDbEntity
  8
1
  6
Continuous
 62
     0
100
AcDbCircle
 10
13113.17812112445
 20
-1061.372810960196
 30
0.0
 40
5.0
100
AcDbArc
 50
90.0
 51
180.0
  0
ARC
  5
461
330
25
100
AcDbEntity
  8
1
  6
Continuous
 62
     0
100
AcDbCircle
 10
13183.17812112445
 20
-1061.372810960196
 30
0.0
 40
5.0
100
AcDbArc
 50
0.0
 51
90.0
  0
ARC
  5
460
330
25
100
AcDbEntity
  8
1
  6
Continuous
 62
     0
100
AcDbCircle
 10
13113.17812112445
 20
-1114.872810960196
 30
0.0
 40
5.0
100
AcDbArc
 50
180.0
 51
270.0
  0
ARC
  5
45F
330
25
100
AcDbEntity
  8
1
  6
Continuous
 62
     0
100
AcDbCircle
 10
13180.17812112445
 20
-1127.872810960196
 30
0.0
 40
3.0
100
AcDbArc
 50
270.0
 51
0.0
  0
ARC
  5
45E
330
25
100
AcDbEntity
  8
1
  6
Continuous
 62
     0
100
AcDbCircle
 10
13116.17812112445
 20
-1127.872810960196
 30
0.0
 40
3.0
100
AcDbArc
 50
180.0
 51
270.0
  0
ARC
  5
45D
330
25
100
AcDbEntity
  8
1
  6
Continuous
 62
     0
100
AcDbCircle
 10
13183.17812112445
 20
-1114.872810960196
 30
0.0
 40
5.0
100
AcDbArc
 50
270.0
 51
0.0
  0
ARC
  5
45C
330
25
100
AcDbEntity
  8
1
  6
Continuous
 62
     0
100
AcDbCircle
 10
11467.78507643026
 20
-1127.872810960196
 30
0.0
 40
3.0
100
AcDbArc
 50
180.0
 51
270.0
  0
ARC
  5
45B
330
25
100
AcDbEntity
  8
1
  6
Continuous
 62
     0
100
AcDbCircle
 10
11531.78507643026
 20
-1127.872810960196
 30
0.0
 40
3.0
100
AcDbArc
 50
270.0
 51
0.0
  0
ARC
  5
45A
330
25
100
AcDbEntity
  8
1
  6
Continuous
 62
     0
100
AcDbCircle
 10
11545.78507643026
 20
-1119.372810960196
 30
0.0
 40
1.0
100
AcDbArc
 50
0.0
 51
90.0
  0
ARC
  5
459
330
25
100
AcDbEntity
  8
1
  6
Continuous
 62
     0
100
AcDbCircle
 10
11540.78507643026
 20
-1119.372810960196
 30
0.0
 40
1.0
100
AcDbArc
 50
90.0
 51
180.0
  0
ARC
  5
458
330
25
100
AcDbEntity
  8
1
  6
Continuous
 62
     0
100
AcDbCircle
 10
11545.78507643026
 20
-1062.372810960196
 30
0.0
 40
1.0
100
AcDbArc
 50
270.0
 51
0.0
  0
ARC
  5
457
330
25
100
AcDbEntity
  8
1
  6
Continuous
 62
     0
100
AcDbCircle
 10
11540.78507643026
 20
-1062.372810960196
 30
0.0
 40
1.0
100
AcDbArc
 50
180.0
 51
270.0
  0
ARC
  5
456
330
25
100
AcDbEntity
  8
1
  6
Continuous
 62
     0
100
AcDbCircle
 10
11464.78507643026
 20
-1114.872810960196
 30
0.0
 40
5.0
100
AcDbArc
 50
180.0
 51
270.0
  0
ARC
  5
455
330
25
100
AcDbEntity
  8
1
  6
Continuous
 62
     0
100
AcDbCircle
 10
11534.78507643026
 20
-1061.372810960196
 30
0.0
 40
5.0
100
AcDbArc
 50
0.0
 51
90.0
  0
ARC
  5
454
330
25
100
AcDbEntity
  8
1
  6
Continuous
 62
     0
100
AcDbCircle
 10
11464.78507643026
 20
-1061.372810960196
 30
0.0
 40
5.0
100
AcDbArc
 50
90.0
 51
180.0
  0
ARC
  5
453
330
25
100
AcDbEntity
  8
1
  6
Continuous
 62
     0
100
AcDbCircle
 10
11479.78507643026
 20
-1045.372810960196
 30
0.0
 40
1.0
100
AcDbArc
 50
180.0
 51
270.0
  0
ARC
  5
452
330
25
100
AcDbEntity
  8
1
  6
Continuous
 62
     0
100
AcDbCircle
 10
11474.78507643026
 20
-1045.795460691006
 30
0.0
 40
2.0
100
AcDbArc
 50
300.0000000000005
 51
0.0
  0
ARC
  5
451
330
25
100
AcDbEntity
  8
1
  6
Continuous
 62
     0
100
AcDbCircle
 10
11490.45174309693
 20
-1045.372810960196
 30
0.0
 40
1.0
100
AcDbArc
 50
270.0
 51
0.0
  0
ARC
  5
450
330
25
100
AcDbEntity
  8
1
  6
Continuous
 62
     0
100
AcDbCircle
 10
11494.45174309693
 20
-1045.372810960196
 30
0.0
 40
1.0
100
AcDbArc
 50
180.0
 51
270.0
  0
ARC
  5
44F
330
25
100
AcDbEntity
  8
1
  6
Continuous
 62
     0
100
AcDbCircle
 10
11505.1184097636
 20
-1045.372810960196
 30
0.0
 40
1.0
100
AcDbArc
 50
270.0
 51
0.0
  0
ARC
  5
44E
330
25
100
AcDbEntity
  8
1
  6
Continuous
 62
     0
100
AcDbCircle
 10
11509.1184097636
 20
-1045.372810960196
 30
0.0
 40
1.0
100
AcDbArc
 50
180.0
 51
270.0
  0
ARC
  5
44D
330
25
100
AcDbEntity
  8
1
  6
Continuous
 62
     0
100
AcDbCircle
 10
11519.78507643026
 20
-1045.372810960196
 30
0.0
 40
1.0
100
AcDbArc
 50
270.0
 51
0.0
  0
ARC
  5
44C
330
25
100
AcDbEntity
  8
1
  6
Continuous
 62
     0
100
AcDbCircle
 10
11524.78507643026
 20
-1045.795460691006
 30
0.0
 40
2.0
100
AcDbArc
 50
180.0
 51
239.9999999999994
  0
ARC
  5
44B
330
25
100
AcDbEntity
  8
1
  6
Continuous
 62
     0
100
AcDbCircle
 10
11521.78507643026
 20
-1000.372810960196
 30
0.0
 40
2.0
100
AcDbArc
 50
180.0
 51
270.0
  0
ARC
  5
44A
330
25
100
AcDbEntity
  8
1
  6
Continuous
 62
     0
100
AcDbCircle
 10
11477.78507643026
 20
-1000.372810960196
 30
0.0
 40
2.0
100
AcDbArc
 50
270.0
 51
0.0
  0
ARC
  5
449
330
25
100
AcDbEntity
  8
1
  6
Continuous
 62
     0
100
AcDbCircle
 10
11476.78507643026
 20
-1004.372810960196
 30
0.0
 40
2.0
100
AcDbArc
 50
90.0
 51
180.0
  0
ARC
  5
448
330
25
100
AcDbEntity
  8
1
  6
Continuous
 62
     0
100
AcDbCircle
 10
11522.78507643026
 20
-1004.372810960196
 30
0.0
 40
2.0
100
AcDbArc
 50
0.0
 51
90.0
  0
ARC
  5
447
330
25
100
AcDbEntity
  8
1
  6
Continuous
 62
     0
100
AcDbCircle
 10
11518.78507643026
 20
-998.372810960196
 30
0.0
 40
1.0
100
AcDbArc
 50
0.0
 51
90.0
  0
ARC
  5
446
330
25
100
AcDbEntity
  8
1
  6
Continuous
 62
     0
100
AcDbCircle
 10
11480.78507643026
 20
-998.372810960196
 30
0.0
 40
1.0
100
AcDbArc
 50
90.0
 51
180.0
  0
ARC
  5
445
330
25
100
AcDbEntity
  8
1
  6
Continuous
 62
     0
100
AcDbCircle
 10
10906.96614832373
 20
-1152.370625176753
 30
0.0
 40
0.144444444438
100
AcDbArc
 50
137.7821654151628
 51
312.2178345820283
  0
ARC
  5
444
330
25
100
AcDbEntity
  8
1
  6
Continuous
 62
     0
100
AcDbCircle
 10
13690.52152418465
 20
-2261.272810960196
 30
0.0
 40
2.0
100
AcDbArc
 50
90.0
 51
180.0
  0
ARC
  5
443
330
25
100
AcDbEntity
  8
1
  6
Continuous
 62
     0
100
AcDbCircle
 10
13710.11432372369
 20
-2281.022810960197
 30
0.0
 40
2.0
100
AcDbArc
 50
90.0
 51
148.891077489551
  0
ARC
  5
442
330
25
100
AcDbEntity
  8
1
  6
Continuous
 62
     0
100
AcDbCircle
 10
13710.11432372369
 20
-2265.522810960197
 30
0.0
 40
2.000000000001
100
AcDbArc
 50
211.1089225107036
 51
270.0
  0
ARC
  5
441
330
25
100
AcDbEntity
  8
1
  6
Continuous
 62
     0
100
AcDbCircle
 10
13684.4287246456
 20
-2281.022810960197
 30
0.0
 40
2.000000000004
100
AcDbArc
 50
31.10892251032362
 51
90.0
  0
ARC
  5
440
330
25
100
AcDbEntity
  8
1
  6
Continuous
 62
     0
100
AcDbCircle
 10
13684.4287246456
 20
-2265.522810960197
 30
0.0
 40
2.0
100
AcDbArc
 50
270.0
 51
328.891077489446
  0
ARC
  5
43F
330
25
100
AcDbEntity
  8
1
  6
Continuous
 62
     0
100
AcDbCircle
 10
11527.78507643026
 20
-2261.68618073394
 30
0.0
 40
3.000000000002
100
AcDbArc
 50
321.9080428947923
 51
0.0
  0
ARC
  5
43E
330
25
100
AcDbEntity
  8
1
  6
Continuous
 62
     0
100
AcDbCircle
 10
11527.78507643026
 20
-2284.859441186455
 30
0.0
 40
3.0
100
AcDbArc
 50
0.0
 51
38.09195710522228
  0
ARC
  5
43D
330
25
100
AcDbEntity
  8
1
  6
Continuous
 62
     0
100
AcDbCircle
 10
11488.76033257667
 20
-486.815069164519
 30
0.0
 40
3.0
100
AcDbArc
 50
96.23461097289623
 51
173.4165619719507
  0
ARC
  5
43C
330
25
100
AcDbEntity
  8
1
  6
Continuous
 62
     0
100
AcDbCircle
 10
11510.80982028386
 20
-486.815069164519
 30
0.0
 40
3.000000000002
100
AcDbArc
 50
6.583438028050747
 51
83.76538902710789
  0
ARC
  5
43B
330
25
100
AcDbEntity
  8
1
  6
Continuous
 62
     0
100
AcDbCircle
 10
11482.01804489664
 20
-492.901669089991
 30
0.0
 40
2.999999999991
100
AcDbArc
 50
353.4165619719103
 51
57.42556090088885
  0
ARC
  5
43A
330
25
100
AcDbEntity
  8
1
  6
Continuous
 62
     0
100
AcDbCircle
 10
11517.55210796389
 20
-492.901669089991
 30
0.0
 40
2.999999999996
100
AcDbArc
 50
122.5744390990931
 51
186.5834380280681
  0
ARC
  5
439
330
25
100
AcDbEntity
  8
1
  6
Continuous
 62
     0
100
AcDbCircle
 10
13708.29626803824
 20
-486.815069164519
 30
0.0
 40
3.0
100
AcDbArc
 50
6.583438028053652
 51
83.76538902710374
  0
ARC
  5
438
330
25
100
AcDbEntity
  8
1
  6
Continuous
 62
     0
100
AcDbCircle
 10
13686.24678033105
 20
-486.815069164519
 30
0.0
 40
3.0
100
AcDbArc
 50
96.23461097289623
 51
173.4165619719507
  0
ARC
  5
437
330
25
100
AcDbEntity
  8
1
  6
Continuous
 62
     0
100
AcDbCircle
 10
10977.82279099108
 20
-1225.442810960195
 30
0.0
 40
2.999999999998
100
AcDbArc
 50
34.42900395086972
 51
90.0
  0
ARC
  5
436
330
25
100
AcDbEntity
  8
1
  6
Continuous
 62
     0
100
AcDbCircle
 10
10977.82279099108
 20
-1210.742810960194
 30
0.0
 40
3.0
100
AcDbArc
 50
270.0
 51
325.570996049073
  0
ARC
  5
435
330
25
100
AcDbEntity
  8
1
  6
Continuous
 62
     0
100
AcDbCircle
 10
10999.26830334215
 20
-1210.742810960194
 30
0.0
 40
3.000000000002
100
AcDbArc
 50
214.4290039509146
 51
270.0
  0
ARC
  5
434
330
25
100
AcDbEntity
  8
1
  6
Continuous
 62
     0
100
AcDbCircle
 10
10999.26830334215
 20
-1225.442810960195
 30
0.0
 40
3.0
100
AcDbArc
 50
90.0
 51
145.5709960491428
  0
ARC
  5
433
330
25
100
AcDbEntity
  8
1
  6
Continuous
 62
     0
100
AcDbCircle
 10
10942.7468203082
 20
-1232.592810960196
 30
0.0
 40
3.0
100
AcDbArc
 50
90.0
 51
180.0
  0
ARC
  5
432
330
25
100
AcDbEntity
  8
1
  6
Continuous
 62
     0
100
AcDbCircle
 10
10942.7468203082
 20
-1203.592810960196
 30
0.0
 40
3.0
100
AcDbArc
 50
180.0
 51
270.0
  0
ARC
  5
431
330
25
100
AcDbEntity
  8
1
  6
Continuous
 62
     0
100
AcDbCircle
 10
11545.78507643026
 20
-2628.8431914598
 30
0.0
 40
1.0
100
AcDbArc
 50
0.0
 51
90.0
  0
ARC
  5
430
330
25
100
AcDbEntity
  8
1
  6
Continuous
 62
     0
100
AcDbCircle
 10
11545.78507643026
 20
-2571.843191459801
 30
0.0
 40
1.0
100
AcDbArc
 50
270.0
 51
0.0
  0
ARC
  5
42F
330
25
100
AcDbEntity
  8
1
  6
Continuous
 62
     0
100
AcDbCircle
 10
10979.04507643026
 20
-3126.578508955002
 30
0.0
 40
3.000000000003
100
AcDbArc
 50
54.94886325256117
 51
90.0
  0
ARC
  5
42E
330
25
100
AcDbEntity
  8
1
  6
Continuous
 62
     0
100
AcDbCircle
 10
10998.04507643026
 20
-3126.578508955002
 30
0.0
 40
3.0
100
AcDbArc
 50
90.0
 51
125.0511367473101
  0
ARC
  5
42D
330
25
100
AcDbEntity
  8
1
  6
Continuous
 62
     0
100
AcDbCircle
 10
10892.28634957185
 20
-3130.578508955002
 30
0.0
 40
2.0
100
AcDbArc
 50
90.0
 51
180.0
  0
ARC
  5
42C
330
25
100
AcDbEntity
  8
1
  6
Continuous
 62
     0
100
AcDbCircle
 10
10892.28634957185
 20
-3161.578508955002
 30
0.0
 40
2.0
100
AcDbArc
 50
180.0
 51
270.0
  0
ARC
  5
42B
330
25
100
AcDbEntity
  8
1
  6
Continuous
 62
     0
100
AcDbCircle
 10
10966.28634957185
 20
-3130.578508955002
 30
0.0
 40
2.0
100
AcDbArc
 50
0.0
 51
90.0
  0
ARC
  5
42A
330
25
100
AcDbEntity
  8
1
  6
Continuous
 62
     0
100
AcDbCircle
 10
10966.28634957185
 20
-3161.578508955002
 30
0.0
 40
2.0
100
AcDbArc
 50
270.0
 51
0.0
  0
CIRCLE
  5
429
330
25
100
AcDbEntity
  8
1
  6
Continuous
 62
     0
100
AcDbCircle
 10
13148.03620668945
 20
-1090.872810960196
 30
0.0
 40
29.0
  0
CIRCLE
  5
428
330
25
100
AcDbEntity
  8
1
  6
Continuous
 62
     0
100
AcDbCircle
 10
13148.03620668945
 20
-1090.872810960196
 30
0.0
 40
21.0
  0
CIRCLE
  5
427
330
25
100
AcDbEntity
  8
1
  6
Continuous
 62
     0
100
AcDbCircle
 10
13148.03620668945
 20
-1090.872810960196
 30
0.0
 40
19.5
  0
CIRCLE
  5
426
330
25
100
AcDbEntity
  8
1
  6
Continuous
 62
     0
100
AcDbCircle
 10
10928.2468203082
 20
-1144.081865537185
 30
0.0
 40
2.247127062102
  0
CIRCLE
  5
425
330
25
100
AcDbEntity
  8
1
  6
Continuous
 62
     0
100
AcDbCircle
 10
10912.35717563498
 20
-1148.868671476494
 30
0.0
 40
0.722222222219
  0
CIRCLE
  5
424
330
25
100
AcDbEntity
  8
1
  6
Continuous
 62
     0
100
AcDbCircle
 10
10928.2468203082
 20
-1131.444084101779
 30
0.0
 40
2.88888888888
  0
CIRCLE
  5
423
330
25
100
AcDbEntity
  8
1
  6
Continuous
 62
     0
100
AcDbCircle
 10
10928.25000982409
 20
-1131.44824272171
 30
0.0
 40
36.092093524161
  0
CIRCLE
  5
422
330
25
100
AcDbEntity
  8
1
  6
Continuous
 62
     0
100
AcDbCircle
 10
13697.27152418465
 20
-2273.272810960197
 30
0.0
 40
3.600000000001
  0
CIRCLE
  5
421
330
25
100
AcDbEntity
  8
1
  6
Continuous
 62
     0
100
AcDbCircle
 10
13697.27152418465
 20
-2273.272810960197
 30
0.0
 40
7.5
  0
CIRCLE
  5
420
330
25
100
AcDbEntity
  8
1
  6
Continuous
 62
     0
100
AcDbCircle
 10
13697.27152418465
 20
-2273.272810960197
 30
0.0
 40
6.0
  0
CIRCLE
  5
41F
330
25
100
AcDbEntity
  8
1
  6
Continuous
 62
     0
100
AcDbCircle
 10
13697.27152418465
 20
-2273.272810960197
 30
0.0
 40
11.100000000001
  0
CIRCLE
  5
41D
330
25
100
AcDbEntity
  8
1
  6
Continuous
 62
     0
100
AcDbCircle
 10
13697.27152418465
 20
-1218.092810960196
 30
0.0
 40
36.112999999999
  0
CIRCLE
  5
41C
330
25
100
AcDbEntity
  8
1
  6
Continuous
 62
     0
100
AcDbCircle
 10
13697.27152418465
 20
-1218.092810960196
 30
0.0
 40
41.0
  0
CIRCLE
  5
41B
330
25
100
AcDbEntity
  8
1
  6
Continuous
 62
     0
100
AcDbCircle
 10
11499.78507643026
 20
-3149.578508955002
 30
0.0
 40
459.0
  0
CIRCLE
  5
41A
330
25
100
AcDbEntity
  8
1
  6
Continuous
 62
     0
100
AcDbCircle
 10
11499.78507643026
 20
-465.092810960196
 30
0.0
 40
17.5
  0
CIRCLE
  5
40C
330
25
100
AcDbEntity
  8
1
  6
Continuous
 62
     0
100
AcDbCircle
 10
10988.54554716661
 20
-1218.092810960196
 30
0.0
 40
6.25
  0
CIRCLE
  5
40B
330
25
100
AcDbEntity
  8
1
  6
Continuous
 62
     0
100
AcDbCircle
 10
10988.54554716661
 20
-1218.092810960196
 30
0.0
 40
3.0
  0
CIRCLE
  5
40A
330
25
100
AcDbEntity
  8
1
  6
Continuous
 62
     0
100
AcDbCircle
 10
10988.54554716661
 20
-1218.092810960196
 30
0.0
 40
5.0
  0
CIRCLE
  5
409
330
25
100
AcDbEntity
  8
1
  6
Continuous
 62
     0
100
AcDbCircle
 10
10988.54554716661
 20
-1218.092810960196
 30
0.0
 40
8.5
  0
CIRCLE
  5
407
330
25
100
AcDbEntity
  8
1
  6
Continuous
 62
     0
100
AcDbCircle
 10
11499.78507643026
 20
-3149.578508955002
 30
0.0
 40
450.0
  0
CIRCLE
  5
405
330
25
100
AcDbEntity
  8
1
  6
Continuous
 62
     0
100
AcDbCircle
 10
11782.62778890488
 20
-3432.421221429622
 30
0.0
 40
11.499999999999
  0
CIRCLE
  5
404
330
25
100
AcDbEntity
  8
1
  6
Continuous
 62
     0
100
AcDbCircle
 10
11216.94236395564
 20
-3432.421221429622
 30
0.0
 40
11.5
  0
CIRCLE
  5
403
330
25
100
AcDbEntity
  8
1
  6
Continuous
 62
     0
100
AcDbCircle
 10
11216.94236395564
 20
-2866.735796480384
 30
0.0
 40
11.5
  0
CIRCLE
  5
402
330
25
100
AcDbEntity
  8
1
  6
Continuous
 62
     0
100
AcDbCircle
 10
11782.62778890488
 20
-2866.735796480384
 30
0.0
 40
11.5
  0
CIRCLE
  5
401
330
25
100
AcDbEntity
  8
1
  6
Continuous
 62
     0
100
AcDbCircle
 10
10929.28634957185
 20
-3149.578508955002
 30
0.0
 40
7.475000000001
  0
CIRCLE
  5
400
330
25
100
AcDbEntity
  8
1
  6
Continuous
 62
     0
100
AcDbCircle
 10
10929.28634957185
 20
-3149.578508955002
 30
0.0
 40
8.331
  0
ARC
  5
3FD
330
25
100
AcDbEntity
  8
1
  6
Continuous
 62
     0
100
AcDbCircle
 10
11499.78507643026
 20
-1218.092810960196
 30
0.0
 40
36.001544532572
100
AcDbArc
 50
270.0
 51
49.62608675774435
  0
ARC
  5
3FC
330
25
100
AcDbEntity
  8
1
  6
Continuous
 62
     0
100
AcDbCircle
 10
11499.78507643026
 20
-1218.092810960196
 30
0.0
 40
34.501544532572
100
AcDbArc
 50
270.0
 51
38.47064554059775
  0
ARC
  5
3FB
330
25
100
AcDbEntity
  8
1
  6
Continuous
 62
     0
100
AcDbCircle
 10
11499.78507643026
 20
-1218.092810960196
 30
0.0
 40
34.501544532566
100
AcDbArc
 50
141.5293544593914
 51
270.0
  0
ARC
  5
3FA
330
25
100
AcDbEntity
  8
1
  6
Continuous
 62
     0
100
AcDbCircle
 10
11499.78507643026
 20
-1218.092810960196
 30
0.0
 40
36.001544532569
100
AcDbArc
 50
130.3739132422445
 51
270.0
  0
ARC
  5
3F9
330
25
100
AcDbEntity
  8
1
  6
Continuous
 62
     0
100
AcDbCircle
 10
11526.77479527025
 20
-1176.25789214246
 30
0.0
 40
6.489718839986
100
AcDbArc
 50
140.0740622145675
 51
180.0
  0
ARC
  5
3F8
330
25
100
AcDbEntity
  8
1
  6
Continuous
 62
     0
100
AcDbCircle
 10
11472.79535759028
 20
-1176.25789214246
 30
0.0
 40
6.489718839981
100
AcDbArc
 50
0.0
 51
39.925937785427
  0
ARC
  5
3F7
330
25
100
AcDbEntity
  8
1
  6
Continuous
 62
     0
100
AcDbCircle
 10
11526.42699086527
 20
-1117.316525380199
 30
0.0
 40
28.556285579997
100
AcDbArc
 50
246.7989471040667
 51
270.0
  0
ARC
  5
3F6
330
25
100
AcDbEntity
  8
1
  6
Continuous
 62
     0
100
AcDbCircle
 10
11473.42699086527
 20
-1117.316525380199
 30
0.0
 40
28.556285579997
100
AcDbArc
 50
270.0
 51
293.2010528959333
  0
ARC
  5
3F5
330
25
100
AcDbEntity
  8
1
  6
Continuous
 62
     0
100
AcDbCircle
 10
11499.92699086527
 20
-1094.366852179912
 30
0.0
 40
51.505958780284
100
AcDbArc
 50
252.7775550278672
 51
287.2224449721328
  0
ARC
  5
3F4
330
25
100
AcDbEntity
  8
1
  6
Continuous
 62
     0
100
AcDbCircle
 10
13181.6467006499
 20
-1173.175824927526
 30
0.0
 40
10.415441500099
100
AcDbArc
 50
270.0
 51
301.1314905660818
  0
ARC
  5
3F3
330
25
100
AcDbEntity
  8
1
  6
Continuous
 62
     0
100
AcDbCircle
 10
13181.6467006499
 20
-1263.009796992867
 30
0.0
 40
10.415441500098
100
AcDbArc
 50
58.86850943391497
 51
90.0
  0
ARC
  5
3F2
330
25
100
AcDbEntity
  8
1
  6
Continuous
 62
     0
100
AcDbCircle
 10
13175.02592552943
 20
-1176.25789214246
 30
0.0
 40
6.489718839986
100
AcDbArc
 50
140.0740622145675
 51
180.0
  0
ARC
  5
3F1
330
25
100
AcDbEntity
  8
1
  6
Continuous
 62
     0
100
AcDbCircle
 10
13121.04648784946
 20
-1176.25789214246
 30
0.0
 40
6.489718839979
100
AcDbArc
 50
0.0
 51
39.92593778543269
  0
ARC
  5
3F0
330
25
100
AcDbEntity
  8
1
  6
Continuous
 62
     0
100
AcDbCircle
 10
13148.17812112445
 20
-1014.937931229163
 30
0.0
 40
25.565791607552
100
AcDbArc
 50
68.78850558533622
 51
111.2114944146638
  0
ARC
  5
3EF
330
25
100
AcDbEntity
  8
1
  6
Continuous
 62
     0
100
AcDbCircle
 10
13163.67812112445
 20
-1001.514537470505
 30
0.0
 40
12.142397848894
100
AcDbArc
 50
90.0
 51
120.979098861628
  0
ARC
  5
3EE
330
25
100
AcDbEntity
  8
1
  6
Continuous
 62
     0
100
AcDbCircle
 10
13132.67812112445
 20
-1001.514537470505
 30
0.0
 40
12.142397848894
100
AcDbArc
 50
59.02090113837195
 51
90.0
  0
ARC
  5
3ED
330
25
100
AcDbEntity
  8
1
  6
Continuous
 62
     0
100
AcDbCircle
 10
13148.17812112445
 20
-980.872139621611
 30
0.0
 40
15.0
100
AcDbArc
 50
0.0
 51
180.0
  0
ARC
  5
3EC
330
25
100
AcDbEntity
  8
1
  6
Continuous
 62
     0
100
AcDbCircle
 10
13148.17812112445
 20
-1081.458867944073
 30
0.0
 40
35.086056983877
100
AcDbArc
 50
67.81224586875872
 51
112.1877541312413
  0
ARC
  5
3EB
330
25
100
AcDbEntity
  8
1
  6
Continuous
 62
     0
100
AcDbCircle
 10
13126.17812112445
 20
-1062.406309060815
 30
0.0
 40
16.033498100619
100
AcDbArc
 50
56.92526993279299
 51
90.0
  0
ARC
  5
3EA
330
25
100
AcDbEntity
  8
1
  6
Continuous
 62
     0
100
AcDbCircle
 10
13170.17812112445
 20
-1003.372139621611
 30
0.0
 40
1.0
100
AcDbArc
 50
0.0
 51
180.0
  0
ARC
  5
3E9
330
25
100
AcDbEntity
  8
1
  6
Continuous
 62
     0
100
AcDbCircle
 10
13155.51145445779
 20
-1003.372139621611
 30
0.0
 40
1.0
100
AcDbArc
 50
0.0
 51
180.0
  0
ARC
  5
3E8
330
25
100
AcDbEntity
  8
1
  6
Continuous
 62
     0
100
AcDbCircle
 10
13140.84478779112
 20
-1003.372139621611
 30
0.0
 40
1.0
100
AcDbArc
 50
0.0
 51
180.0
  0
ARC
  5
3E7
330
25
100
AcDbEntity
  8
1
  6
Continuous
 62
     0
100
AcDbCircle
 10
13126.17812112445
 20
-1003.372139621611
 30
0.0
 40
1.0
100
AcDbArc
 50
0.0
 51
180.0
  0
ARC
  5
3E6
330
25
100
AcDbEntity
  8
1
  6
Continuous
 62
     0
100
AcDbCircle
 10
13170.17812112445
 20
-1062.406309060815
 30
0.0
 40
16.033498100619
100
AcDbArc
 50
90.0
 51
123.074730067207
  0
ARC
  5
3E5
330
25
100
AcDbEntity
  8
1
  6
Continuous
 62
     0
100
AcDbCircle
 10
13148.17812112445
 20
-1094.366852179912
 30
0.0
 40
51.505958780284
100
AcDbArc
 50
252.7775550278672
 51
287.2224449721328
  0
ARC
  5
3E4
330
25
100
AcDbEntity
  8
1
  6
Continuous
 62
     0
100
AcDbCircle
 10
13121.67812112445
 20
-1117.316525380199
 30
0.0
 40
28.556285579997
100
AcDbArc
 50
270.0
 51
293.2010528959333
  0
ARC
  5
3E3
330
25
100
AcDbEntity
  8
1
  6
Continuous
 62
     0
100
AcDbCircle
 10
13174.67812112445
 20
-1117.316525380199
 30
0.0
 40
28.556285579997
100
AcDbArc
 50
246.7989471040667
 51
270.0
  0
ARC
  5
3E2
330
25
100
AcDbEntity
  8
1
  6
Continuous
 62
     0
100
AcDbCircle
 10
11526.28507643026
 20
-1117.316525380199
 30
0.0
 40
28.556285579997
100
AcDbArc
 50
246.7989471040667
 51
270.0
  0
ARC
  5
3E1
330
25
100
AcDbEntity
  8
1
  6
Continuous
 62
     0
100
AcDbCircle
 10
11473.28507643026
 20
-1117.316525380199
 30
0.0
 40
28.556285579997
100
AcDbArc
 50
270.0
 51
293.2010528959333
  0
ARC
  5
3E0
330
25
100
AcDbEntity
  8
1
  6
Continuous
 62
     0
100
AcDbCircle
 10
11499.78507643026
 20
-1094.366852179912
 30
0.0
 40
51.505958780284
100
AcDbArc
 50
252.7775550278672
 51
287.2224449721328
  0
ARC
  5
3DF
330
25
100
AcDbEntity
  8
1
  6
Continuous
 62
     0
100
AcDbCircle
 10
11521.78507643026
 20
-1062.406309060815
 30
0.0
 40
16.033498100619
100
AcDbArc
 50
90.0
 51
123.074730067207
  0
ARC
  5
3DE
330
25
100
AcDbEntity
  8
1
  6
Continuous
 62
     0
100
AcDbCircle
 10
11477.78507643026
 20
-1003.372810960196
 30
0.0
 40
1.0
100
AcDbArc
 50
0.0
 51
180.0
  0
ARC
  5
3DD
330
25
100
AcDbEntity
  8
1
  6
Continuous
 62
     0
100
AcDbCircle
 10
11492.45174309693
 20
-1003.372810960196
 30
0.0
 40
1.0
100
AcDbArc
 50
0.0
 51
180.0
  0
ARC
  5
3DC
330
25
100
AcDbEntity
  8
1
  6
Continuous
 62
     0
100
AcDbCircle
 10
11507.1184097636
 20
-1003.372810960196
 30
0.0
 40
1.0
100
AcDbArc
 50
0.0
 51
180.0
  0
ARC
  5
3DB
330
25
100
AcDbEntity
  8
1
  6
Continuous
 62
     0
100
AcDbCircle
 10
11521.78507643026
 20
-1003.372810960196
 30
0.0
 40
1.0
100
AcDbArc
 50
0.0
 51
180.0
  0
ARC
  5
3DA
330
25
100
AcDbEntity
  8
1
  6
Continuous
 62
     0
100
AcDbCircle
 10
11477.78507643026
 20
-1062.406309060815
 30
0.0
 40
16.033498100619
100
AcDbArc
 50
56.92526993279299
 51
90.0
  0
ARC
  5
3D9
330
25
100
AcDbEntity
  8
1
  6
Continuous
 62
     0
100
AcDbCircle
 10
11499.78507643026
 20
-1081.458867944073
 30
0.0
 40
35.086056983877
100
AcDbArc
 50
67.81224586875872
 51
112.1877541312413
  0
ARC
  5
3D8
330
25
100
AcDbEntity
  8
1
  6
Continuous
 62
     0
100
AcDbCircle
 10
11499.78507643026
 20
-980.872810960196
 30
0.0
 40
15.0
100
AcDbArc
 50
0.0
 51
180.0
  0
ARC
  5
3D7
330
25
100
AcDbEntity
  8
1
  6
Continuous
 62
     0
100
AcDbCircle
 10
11484.28507643026
 20
-1001.51520880909
 30
0.0
 40
12.142397848894
100
AcDbArc
 50
59.02090113837195
 51
90.0
  0
ARC
  5
3D6
330
25
100
AcDbEntity
  8
1
  6
Continuous
 62
     0
100
AcDbCircle
 10
11515.28507643026
 20
-1001.51520880909
 30
0.0
 40
12.142397848894
100
AcDbArc
 50
90.0
 51
120.979098861628
  0
ARC
  5
3D5
330
25
100
AcDbEntity
  8
1
  6
Continuous
 62
     0
100
AcDbCircle
 10
11499.78507643026
 20
-1014.938602567749
 30
0.0
 40
25.565791607552
100
AcDbArc
 50
68.78850558533622
 51
111.2114944146638
  0
ARC
  5
3D4
330
25
100
AcDbEntity
  8
1
  6
Continuous
 62
     0
100
AcDbCircle
 10
10930.34962344128
 20
-1129.341280968693
 30
0.0
 40
13.711205269314
100
AcDbArc
 50
30.1390234855926
 51
59.86097651441295
  0
ARC
  5
3D3
330
25
100
AcDbEntity
  8
1
  6
Continuous
 62
     0
100
AcDbCircle
 10
10936.90756282623
 20
-1118.045979704417
 30
0.0
 40
0.650179290189
100
AcDbArc
 50
59.86097651471089
 51
153.4176955808788
  0
ARC
  5
3D2
330
25
100
AcDbEntity
  8
1
  6
Continuous
 62
     0
100
AcDbCircle
 10
10897.96320837153
 20
-1098.559141327873
 30
0.0
 40
42.89749129971
100
AcDbArc
 50
316.7330883773001
 51
333.4176955808171
  0
ARC
  5
3D1
330
25
100
AcDbEntity
  8
1
  6
Continuous
 62
     0
100
AcDbCircle
 10
10941.64492470556
 20
-1122.783341583747
 30
0.0
 40
0.650179290188
100
AcDbArc
 50
296.5823044187807
 51
30.13902348594812
  0
ARC
  5
3D0
330
25
100
AcDbEntity
  8
1
  6
Continuous
 62
     0
100
AcDbCircle
 10
10961.1317630821
 20
-1161.727696038445
 30
0.0
 40
42.897491299712
100
AcDbArc
 50
116.5823044191848
 51
133.266911622695
  0
ARC
  5
3CF
330
25
100
AcDbEntity
  8
1
  6
Continuous
 62
     0
100
AcDbCircle
 10
10928.24569167555
 20
-1131.443100321766
 30
0.0
 40
32.087775151113
100
AcDbArc
 50
179.9269078913232
 51
224.5555346917913
  0
ARC
  5
3CE
330
25
100
AcDbEntity
  8
1
  6
Continuous
 62
     0
100
AcDbCircle
 10
10928.2468203082
 20
-1131.112950011357
 30
0.0
 40
39.342857142856
100
AcDbArc
 50
254.973886240879
 51
285.0261137591182
  0
ARC
  5
3CD
330
25
100
AcDbEntity
  8
1
  6
Continuous
 62
     0
100
AcDbCircle
 10
10928.20237586375
 20
-1131.409996768941
 30
0.0
 40
39.044459324232
100
AcDbArc
 50
214.0413943255924
 51
254.9238647887205
  0
ARC
  5
3CC
330
25
100
AcDbEntity
  8
1
  6
Continuous
 62
     0
100
AcDbCircle
 10
10928.29126475264
 20
-1131.502032567603
 30
0.0
 40
38.955598656252
100
AcDbArc
 50
334.0155658970773
 51
0.0852304639130457
  0
ARC
  5
3CB
330
25
100
AcDbEntity
  8
1
  6
Continuous
 62
     0
100
AcDbCircle
 10
10928.2468203082
 20
-1131.444084101779
 30
0.0
 40
3.611111111109
100
AcDbArc
 50
0.0
 51
15.30203171437842
  0
ARC
  5
3CA
330
25
100
AcDbEntity
  8
1
  6
Continuous
 62
     0
100
AcDbCircle
 10
10928.2468203082
 20
-1131.444084101779
 30
0.0
 40
3.611111111115
100
AcDbArc
 50
248.578178478058
 51
0.0
  0
ARC
  5
3C9
330
25
100
AcDbEntity
  8
1
  6
Continuous
 62
     0
100
AcDbCircle
 10
10928.2468203082
 20
-1131.444084101779
 30
0.0
 40
3.611111111109
100
AcDbArc
 50
74.69796828574593
 51
201.4218215217799
  0
ARC
  5
3C8
330
25
100
AcDbEntity
  8
1
  6
Continuous
 62
     0
100
AcDbCircle
 10
10928.24569167555
 20
-1131.443100321766
 30
0.0
 40
32.087775151116
100
AcDbArc
 50
314.999168816242
 51
179.9269078913232
  0
ARC
  5
3C7
330
25
100
AcDbEntity
  8
1
  6
Continuous
 62
     0
100
AcDbCircle
 10
10928.24951059672
 20
-1131.447591808865
 30
0.0
 40
28.591593842013
100
AcDbArc
 50
315.0000000000041
 51
180.0
  0
ARC
  5
3C6
330
25
100
AcDbEntity
  8
1
  6
Continuous
 62
     0
100
AcDbCircle
 10
10928.24951059672
 20
-1131.447591808865
 30
0.0
 40
28.591593842009
100
AcDbArc
 50
180.0
 51
224.4894078670362
  0
ARC
  5
3C5
330
25
100
AcDbEntity
  8
1
  6
Continuous
 62
     0
100
AcDbCircle
 10
10928.20237586375
 20
-1131.409996768941
 30
0.0
 40
39.044459324238
100
AcDbArc
 50
359.9499785478301
 51
85.96934215079789
  0
ARC
  5
3C4
330
25
100
AcDbEntity
  8
1
  6
Continuous
 62
     0
100
AcDbCircle
 10
10928.20237586375
 20
-1131.409996768941
 30
0.0
 40
39.04445932423
100
AcDbArc
 50
85.96934215079706
 51
93.89990484408628
  0
ARC
  5
3C3
330
25
100
AcDbEntity
  8
1
  6
Continuous
 62
     0
100
AcDbCircle
 10
10928.2468203082
 20
-1093.60303744471
 30
0.0
 40
3.637499999992
100
AcDbArc
 50
42.07502205094583
 51
137.9249779491782
  0
ARC
  5
3C2
330
25
100
AcDbEntity
  8
1
  6
Continuous
 62
     0
100
AcDbCircle
 10
10895.47551259738
 20
-1150.364607430314
 30
0.0
 40
3.637499999997
100
AcDbArc
 50
162.075022050843
 51
257.924977949062
  0
ARC
  5
3C1
330
25
100
AcDbEntity
  8
1
  6
Continuous
 62
     0
100
AcDbCircle
 10
10960.97425642788
 20
-1150.339278155364
 30
0.0
 40
3.637499999999
100
AcDbArc
 50
282.0750220507556
 51
17.92497794917882
  0
ARC
  5
3C0
330
25
100
AcDbEntity
  8
1
  6
Continuous
 62
     0
100
AcDbCircle
 10
10928.29126475264
 20
-1131.502032567603
 30
0.0
 40
38.955598656249
100
AcDbArc
 50
285.1113442230395
 51
326.0668870753436
  0
ARC
  5
3BF
330
25
100
AcDbEntity
  8
1
  6
Continuous
 62
     0
100
AcDbCircle
 10
10928.29126475264
 20
-1131.502032567603
 30
0.0
 40
38.95559865625
100
AcDbArc
 50
326.0668870753425
 51
334.0155658970773
  0
ARC
  5
3BE
330
25
100
AcDbEntity
  8
1
  6
Continuous
 62
     0
100
AcDbCircle
 10
10928.20237586375
 20
-1131.409996768941
 30
0.0
 40
39.044459324229
100
AcDbArc
 50
206.1108297946179
 51
214.041394325594
  0
ARC
  5
3BD
330
25
100
AcDbEntity
  8
1
  6
Continuous
 62
     0
100
AcDbCircle
 10
10928.20237586375
 20
-1131.409996768941
 30
0.0
 40
39.04445932423
100
AcDbArc
 50
93.89990484408628
 51
206.1108297946188
  0
ARC
  5
3BC
330
25
100
AcDbEntity
  8
1
  6
Continuous
 62
     0
100
AcDbCircle
 10
13697.27152418465
 20
-2273.272810960197
 30
0.0
 40
13.000000000004
100
AcDbArc
 50
211.1089225105397
 51
328.8910774894568
  0
ARC
  5
3BB
330
25
100
AcDbEntity
  8
1
  6
Continuous
 62
     0
100
AcDbCircle
 10
13697.27152418465
 20
-2273.272810960197
 30
0.0
 40
12.999999999997
100
AcDbArc
 50
31.1089225105044
 51
148.8910774894973
  0
ARC
  5
3BA
330
25
100
AcDbEntity
  8
1
  6
Continuous
 62
     0
100
AcDbCircle
 10
13697.27152418465
 20
-2278.389265928657
 30
0.0
 40
23.883545031539
100
AcDbArc
 50
252.4120462260076
 51
256.0690995158483
  0
ARC
  5
3B9
330
25
100
AcDbEntity
  8
1
  6
Continuous
 62
     0
100
AcDbCircle
 10
13697.27152418465
 20
-2269.656355991736
 30
0.0
 40
23.883545031543
100
AcDbArc
 50
72.41204622598782
 51
76.0690995158507
  0
ARC
  5
3B8
330
25
100
AcDbEntity
  8
1
  6
Continuous
 62
     0
100
AcDbCircle
 10
13697.27152418465
 20
-2316.156355991737
 30
0.0
 40
23.883545031541
100
AcDbArc
 50
72.41204622598617
 51
76.06909951584966
  0
ARC
  5
3B7
330
25
100
AcDbEntity
  8
1
  6
Continuous
 62
     0
100
AcDbCircle
 10
13697.27152418465
 20
-2231.889265928659
 30
0.0
 40
23.88354503154
100
AcDbArc
 50
252.4120462260083
 51
256.0690995158491
  0
ARC
  5
3B6
330
25
100
AcDbEntity
  8
1
  6
Continuous
 62
     0
100
AcDbCircle
 10
13708.11436497285
 20
-2298.719003836119
 30
0.0
 40
6.446216693343
100
AcDbArc
 50
97.51291575571659
 51
124.2284958030434
  0
ARC
  5
3B5
330
25
100
AcDbEntity
  8
1
  6
Continuous
 62
     0
100
AcDbCircle
 10
13686.42868339646
 20
-2298.71900383612
 30
0.0
 40
6.446216693348
100
AcDbArc
 50
100.3412096385187
 51
114.020677081035
  0
ARC
  5
3B4
330
25
100
AcDbEntity
  8
1
  6
Continuous
 62
     0
100
AcDbCircle
 10
13697.27152418465
 20
-2316.156355991737
 30
0.0
 40
23.88354503154
100
AcDbArc
 50
103.9309004841509
 51
107.5879537739917
  0
ARC
  5
3B3
330
25
100
AcDbEntity
  8
1
  6
Continuous
 62
     0
100
AcDbCircle
 10
13708.11436497285
 20
-2249.326618084277
 30
0.0
 40
6.446216693345
100
AcDbArc
 50
280.3412096384579
 51
294.0206770810646
  0
ARC
  5
3B2
330
25
100
AcDbEntity
  8
1
  6
Continuous
 62
     0
100
AcDbCircle
 10
13686.42868339646
 20
-2249.326618084276
 30
0.0
 40
6.446216693346
100
AcDbArc
 50
277.5129157556477
 51
304.2284958030431
  0
ARC
  5
3B1
330
25
100
AcDbEntity
  8
1
  6
Continuous
 62
     0
100
AcDbCircle
 10
13697.27152418465
 20
-2231.889265928659
 30
0.0
 40
23.88354503154
100
AcDbArc
 50
283.9309004841509
 51
287.5879537740146
  0
ARC
  5
3B0
330
25
100
AcDbEntity
  8
1
  6
Continuous
 62
     0
100
AcDbCircle
 10
13686.42868339646
 20
-2252.219003836118
 30
0.0
 40
6.446216693344
100
AcDbArc
 50
55.7715041969634
 51
114.0206770810334
  0
ARC
  5
3AF
330
25
100
AcDbEntity
  8
1
  6
Continuous
 62
     0
100
AcDbCircle
 10
13697.27152418465
 20
-2269.656355991736
 30
0.0
 40
23.88354503154
100
AcDbArc
 50
103.9309004841509
 51
107.5879537739917
  0
ARC
  5
3AE
330
25
100
AcDbEntity
  8
1
  6
Continuous
 62
     0
100
AcDbCircle
 10
13708.11436497285
 20
-2252.219003836117
 30
0.0
 40
6.446216693346
100
AcDbArc
 50
65.97932291893866
 51
124.2284958030252
  0
ARC
  5
3AD
330
25
100
AcDbEntity
  8
1
  6
Continuous
 62
     0
100
AcDbCircle
 10
13686.42868339646
 20
-2295.826618084274
 30
0.0
 40
6.446216693345
100
AcDbArc
 50
245.9793229189534
 51
304.228495803032
  0
ARC
  5
3AC
330
25
100
AcDbEntity
  8
1
  6
Continuous
 62
     0
100
AcDbCircle
 10
13697.27152418465
 20
-2278.389265928657
 30
0.0
 40
23.88354503154
100
AcDbArc
 50
283.9309004841509
 51
287.5879537740146
  0
ARC
  5
3AB
330
25
100
AcDbEntity
  8
1
  6
Continuous
 62
     0
100
AcDbCircle
 10
13708.11436497285
 20
-2295.826618084275
 30
0.0
 40
6.446216693342
100
AcDbArc
 50
235.7715041969699
 51
294.0206770810581
  0
ARC
  5
3AA
330
25
100
AcDbEntity
  8
1
  6
Continuous
 62
     0
100
AcDbCircle
 10
13686.42868339646
 20
-2249.326618084276
 30
0.0
 40
6.446216693346
100
AcDbArc
 50
245.9793229189567
 51
259.6587903614784
  0
ARC
  5
3A9
330
25
100
AcDbEntity
  8
1
  6
Continuous
 62
     0
100
AcDbCircle
 10
13708.11436497285
 20
-2249.326618084277
 30
0.0
 40
6.446216693342
100
AcDbArc
 50
235.7715041969722
 51
262.4870842442824
  0
ARC
  5
3A8
330
25
100
AcDbEntity
  8
1
  6
Continuous
 62
     0
100
AcDbCircle
 10
13686.42868339646
 20
-2298.71900383612
 30
0.0
 40
6.446216693343
100
AcDbArc
 50
55.77150419695658
 51
82.48708424434913
  0
ARC
  5
3A7
330
25
100
AcDbEntity
  8
1
  6
Continuous
 62
     0
100
AcDbCircle
 10
13708.11436497285
 20
-2298.719003836119
 30
0.0
 40
6.446216693346
100
AcDbArc
 50
65.97932291894031
 51
79.65879036154351
  0
ARC
  5
3A6
330
25
100
AcDbEntity
  8
1
  6
Continuous
 62
     0
100
AcDbCircle
 10
13697.27152418465
 20
-2269.656355991775
 30
0.0
 40
23.88354503158
100
AcDbArc
 50
72.41204622601585
 51
107.5879537739611
  0
ARC
  5
3A5
330
25
100
AcDbEntity
  8
1
  6
Continuous
 62
     0
100
AcDbCircle
 10
13697.27152418465
 20
-2234.280876500408
 30
0.0
 40
21.615815918786
100
AcDbArc
 50
250.4961455205435
 51
289.5038544794772
  0
ARC
  5
3A4
330
25
100
AcDbEntity
  8
1
  6
Continuous
 62
     0
100
AcDbCircle
 10
13697.27152418465
 20
-2278.38926592864
 30
0.0
 40
23.883545031555
100
AcDbArc
 50
252.4120462260198
 51
287.5879537740029
  0
ARC
  5
3A3
330
25
100
AcDbEntity
  8
1
  6
Continuous
 62
     0
100
AcDbCircle
 10
13697.27152418465
 20
-2318.117917674482
 30
0.0
 40
25.760231957409
100
AcDbArc
 50
73.7304965073435
 51
106.2695034926354
  0
ARC
  5
3A2
330
25
100
AcDbEntity
  8
1
  6
Continuous
 62
     0
100
AcDbCircle
 10
11493.53507643026
 20
-2309.908359938234
 30
0.0
 40
18.052215644708
100
AcDbArc
 50
98.76231806800313
 51
110.2561580004196
  0
ARC
  5
3A1
330
25
100
AcDbEntity
  8
1
  6
Continuous
 62
     0
100
AcDbCircle
 10
11506.03507643026
 20
-2238.137261982161
 30
0.0
 40
18.052215644708
100
AcDbArc
 50
278.7623180680031
 51
290.2561580004195
  0
ARC
  5
3A0
330
25
100
AcDbEntity
  8
1
  6
Continuous
 62
     0
100
AcDbCircle
 10
11506.03507643026
 20
-2309.908359938234
 30
0.0
 40
18.052215644708
100
AcDbArc
 50
98.76231806800313
 51
110.2561580004196
  0
ARC
  5
39F
330
25
100
AcDbEntity
  8
1
  6
Continuous
 62
     0
100
AcDbCircle
 10
11493.53507643026
 20
-2238.137261982161
 30
0.0
 40
18.052215644708
100
AcDbArc
 50
278.7623180680031
 51
290.2561580004195
  0
ARC
  5
39E
330
25
100
AcDbEntity
  8
1
  6
Continuous
 62
     0
100
AcDbCircle
 10
11493.53507643026
 20
-2309.908359938234
 30
0.0
 40
18.052215644709
100
AcDbArc
 50
69.74384199958187
 51
81.23768193199732
  0
ARC
  5
39D
330
25
100
AcDbEntity
  8
1
  6
Continuous
 62
     0
100
AcDbCircle
 10
11506.03507643026
 20
-2309.908359938234
 30
0.0
 40
18.052215644708
100
AcDbArc
 50
69.74384199958037
 51
81.23768193199686
  0
ARC
  5
39C
330
25
100
AcDbEntity
  8
1
  6
Continuous
 62
     0
100
AcDbCircle
 10
11493.53507643026
 20
-2238.137261982161
 30
0.0
 40
18.052215644707
100
AcDbArc
 50
249.7438419995794
 51
261.2376819319964
  0
ARC
  5
39B
330
25
100
AcDbEntity
  8
1
  6
Continuous
 62
     0
100
AcDbCircle
 10
11506.03507643026
 20
-2238.137261982161
 30
0.0
 40
18.052215644708
100
AcDbArc
 50
249.7438419995804
 51
261.2376819319969
  0
ARC
  5
39A
330
25
100
AcDbEntity
  8
1
  6
Continuous
 62
     0
100
AcDbCircle
 10
11506.03507643026
 20
-2263.825026604903
 30
0.0
 40
18.052215644707
100
AcDbArc
 50
69.74384199957936
 51
110.2561580004206
  0
ARC
  5
399
330
25
100
AcDbEntity
  8
1
  6
Continuous
 62
     0
100
AcDbCircle
 10
11493.53507643026
 20
-2263.825026604903
 30
0.0
 40
18.052215644708
100
AcDbArc
 50
69.74384199958037
 51
110.2561580004196
  0
ARC
  5
398
330
25
100
AcDbEntity
  8
1
  6
Continuous
 62
     0
100
AcDbCircle
 10
11506.03507643026
 20
-2284.22059531549
 30
0.0
 40
18.052215644708
100
AcDbArc
 50
249.7438419995804
 51
290.2561580004195
  0
ARC
  5
397
330
25
100
AcDbEntity
  8
1
  6
Continuous
 62
     0
100
AcDbCircle
 10
11493.53507643026
 20
-2284.22059531549
 30
0.0
 40
18.052215644707
100
AcDbArc
 50
249.7438419995794
 51
290.2561580004206
  0
ARC
  5
396
330
25
100
AcDbEntity
  8
1
  6
Continuous
 62
     0
100
AcDbCircle
 10
11542.56632643026
 20
-2273.272810960197
 30
0.0
 40
15.781249999998
100
AcDbArc
 50
141.9080428947602
 51
218.0919571052385
  0
ARC
  5
395
330
25
100
AcDbEntity
  8
1
  6
Continuous
 62
     0
100
AcDbCircle
 10
11523.93507643026
 20
-2273.022810960196
 30
0.0
 40
14.252192813739
100
AcDbArc
 50
158.3852210572138
 51
201.6147789427863
  0
ARC
  5
394
330
25
100
AcDbEntity
  8
1
  6
Continuous
 62
     0
100
AcDbCircle
 10
14182.08317902376
 20
-1861.426154585486
 30
0.0
 40
6.18836802561
100
AcDbArc
 50
325.7715041969321
 51
24.02067708104288
  0
ARC
  5
393
330
25
100
AcDbEntity
  8
1
  6
Continuous
 62
     0
100
AcDbCircle
 10
14182.08317902376
 20
-1882.244408898818
 30
0.0
 40
6.188368025608
100
AcDbArc
 50
335.979322918958
 51
34.2284958030686
  0
ARC
  5
392
330
25
100
AcDbEntity
  8
1
  6
Continuous
 62
     0
100
AcDbCircle
 10
14165.34332095437
 20
-1871.835281742152
 30
0.0
 40
22.928203230275
100
AcDbArc
 50
342.4120462260054
 51
17.58795377399472
  0
ARC
  5
391
330
25
100
AcDbEntity
  8
1
  6
Continuous
 62
     0
100
AcDbCircle
 10
14165.34332095437
 20
-1838.010525483014
 30
0.0
 40
22.928203230275
100
AcDbArc
 50
342.4120462260054
 51
17.5879537739931
  0
ARC
  5
390
330
25
100
AcDbEntity
  8
1
  6
Continuous
 62
     0
100
AcDbCircle
 10
14182.08317902376
 20
-1848.41965263968
 30
0.0
 40
6.188368025608
100
AcDbArc
 50
335.979322918958
 51
34.2284958030686
  0
ARC
  5
38F
330
25
100
AcDbEntity
  8
1
  6
Continuous
 62
     0
100
AcDbCircle
 10
14182.08317902376
 20
-1827.601398326349
 30
0.0
 40
6.18836802561
100
AcDbArc
 50
325.7715041969321
 51
24.02067708104288
  0
ARC
  5
38E
330
25
100
AcDbEntity
  8
1
  6
Continuous
 62
     0
100
AcDbCircle
 10
14182.08317902376
 20
-1800.584223594044
 30
0.0
 40
6.188368025608
100
AcDbArc
 50
335.979322918958
 51
34.2284958030686
  0
ARC
  5
38D
330
25
100
AcDbEntity
  8
1
  6
Continuous
 62
     0
100
AcDbCircle
 10
14182.08317902376
 20
-1779.765969280713
 30
0.0
 40
6.18836802561
100
AcDbArc
 50
325.7715041969321
 51
24.02067708104288
  0
ARC
  5
38C
330
25
100
AcDbEntity
  8
1
  6
Continuous
 62
     0
100
AcDbCircle
 10
14165.34332095437
 20
-1790.175096437378
 30
0.0
 40
22.928203230275
100
AcDbArc
 50
342.4120462260054
 51
17.5879537739931
  0
ARC
  5
38B
330
25
100
AcDbEntity
  8
1
  6
Continuous
 62
     0
100
AcDbCircle
 10
14165.34332095437
 20
-1756.350340178241
 30
0.0
 40
22.928203230275
100
AcDbArc
 50
342.4120462260054
 51
17.58795377399472
  0
ARC
  5
38A
330
25
100
AcDbEntity
  8
1
  6
Continuous
 62
     0
100
AcDbCircle
 10
14182.08317902376
 20
-1745.941213021575
 30
0.0
 40
6.18836802561
100
AcDbArc
 50
325.7715041969321
 51
24.02067708104288
  0
ARC
  5
389
330
25
100
AcDbEntity
  8
1
  6
Continuous
 62
     0
100
AcDbCircle
 10
14182.08317902376
 20
-1766.759467334907
 30
0.0
 40
6.188368025608
100
AcDbArc
 50
335.979322918958
 51
34.2284958030686
  0
ARC
  5
388
330
25
100
AcDbEntity
  8
1
  6
Continuous
 62
     0
100
AcDbCircle
 10
11139.78550517802
 20
-2034.695891007494
 30
0.0
 40
99.000429050305
100
AcDbArc
 50
180.148517568771
 51
243.5125760998004
  0
ARC
  5
387
330
25
100
AcDbEntity
  8
1
  6
Continuous
 62
     0
100
AcDbCircle
 10
11859.7846476825
 20
-2034.695891007494
 30
0.0
 40
99.000429050306
100
AcDbArc
 50
296.4874239002052
 51
359.8514824312289
  0
ARC
  5
386
330
25
100
AcDbEntity
  8
1
  6
Continuous
 62
     0
100
AcDbCircle
 10
11499.78507643026
 20
-1309.092810960198
 30
0.0
 40
908.999999999998
100
AcDbArc
 50
290.948935124583
 51
296.398629211983
  0
ARC
  5
385
330
25
100
AcDbEntity
  8
1
  6
Continuous
 62
     0
100
AcDbCircle
 10
11499.78507643026
 20
-1409.092810960194
 30
0.0
 40
908.999999999999
100
AcDbArc
 50
63.60137078801703
 51
116.398629211982
  0
ARC
  5
384
330
25
100
AcDbEntity
  8
1
  6
Continuous
 62
     0
100
AcDbCircle
 10
11859.7846476825
 20
-683.489730912899
 30
0.0
 40
99.000429050303
100
AcDbArc
 50
0.1485175687709979
 51
63.51257609979513
  0
ARC
  5
383
330
25
100
AcDbEntity
  8
1
  6
Continuous
 62
     0
100
AcDbCircle
 10
11139.78550517802
 20
-683.489730912899
 30
0.0
 40
99.000429050302
100
AcDbArc
 50
116.4874239002005
 51
179.851482431228
  0
ARC
  5
382
330
25
100
AcDbEntity
  8
1
  6
Continuous
 62
     0
100
AcDbCircle
 10
11499.78507643026
 20
-2318.092810960196
 30
0.0
 40
100.0
100
AcDbArc
 50
0.0
 51
180.0
  0
ARC
  5
381
330
25
100
AcDbEntity
  8
1
  6
Continuous
 62
     0
100
AcDbCircle
 10
11499.78507643026
 20
-1309.092810960198
 30
0.0
 40
908.999999999996
100
AcDbArc
 50
243.601370788018
 51
249.0510648754181
  0
ARC
  5
37F
330
25
100
AcDbEntity
  8
1
  6
Continuous
 62
     0
100
AcDbCircle
 10
10583.61989840373
 20
-1818.092810960196
 30
0.0
 40
459.000000000033
100
AcDbArc
 50
354.8752458970268
 51
5.12475410297301
  0
ARC
  5
37E
330
25
100
AcDbEntity
  8
1
  6
Continuous
 62
     0
100
AcDbCircle
 10
11038.33056766942
 20
-2285.627572749901
 30
0.0
 40
152.252346488176
100
AcDbArc
 50
358.8482621745439
 51
26.3319631530312
  0
ARC
  5
37D
330
25
100
AcDbEntity
  8
1
  6
Continuous
 62
     0
100
AcDbCircle
 10
11961.2395851911
 20
-2285.627572749901
 30
0.0
 40
152.252346488172
100
AcDbArc
 50
153.6680368469681
 51
181.151737825457
  0
ARC
  5
37C
330
25
100
AcDbEntity
  8
1
  6
Continuous
 62
     0
100
AcDbCircle
 10
12415.95025445679
 20
-1218.092810960196
 30
0.0
 40
459.000000000031
100
AcDbArc
 50
174.875245897026
 51
185.124754102974
  0
ARC
  5
37B
330
25
100
AcDbEntity
  8
1
  6
Continuous
 62
     0
100
AcDbCircle
 10
11499.78507643026
 20
-465.092810960196
 30
0.0
 40
30.000000000005
100
AcDbArc
 50
302.5744390991781
 51
237.4255609008383
  0
ARC
  5
37A
330
25
100
AcDbEntity
  8
1
  6
Continuous
 62
     0
100
AcDbCircle
 10
14158.72603294548
 20
-2285.627572749901
 30
0.0
 40
152.252346488162
100
AcDbArc
 50
153.6680368469664
 51
181.151737825457
  0
ARC
  5
379
330
25
100
AcDbEntity
  8
1
  6
Continuous
 62
     0
100
AcDbCircle
 10
13235.81701542381
 20
-2285.627572749901
 30
0.0
 40
152.252346488165
100
AcDbArc
 50
358.8482621745441
 51
26.33196315303103
  0
ARC
  5
377
330
25
100
AcDbEntity
  8
1
  6
Continuous
 62
     0
100
AcDbCircle
 10
13697.27152418465
 20
-1309.092810960198
 30
0.0
 40
909.000000000001
100
AcDbArc
 50
243.601370788017
 51
249.0510648754181
  0
ARC
  5
376
330
25
100
AcDbEntity
  8
1
  6
Continuous
 62
     0
100
AcDbCircle
 10
13697.27152418465
 20
-2318.092810960196
 30
0.0
 40
100.0
100
AcDbArc
 50
0.0
 51
180.0
  0
ARC
  5
375
330
25
100
AcDbEntity
  8
1
  6
Continuous
 62
     0
100
AcDbCircle
 10
13337.2719529324
 20
-683.489730912899
 30
0.0
 40
99.000429050302
100
AcDbArc
 50
116.4874239002005
 51
179.851482431228
  0
ARC
  5
374
330
25
100
AcDbEntity
  8
1
  6
Continuous
 62
     0
100
AcDbCircle
 10
14057.27109543689
 20
-683.489730912899
 30
0.0
 40
99.000429050303
100
AcDbArc
 50
0.1485175687709979
 51
63.51257609979984
  0
ARC
  5
373
330
25
100
AcDbEntity
  8
1
  6
Continuous
 62
     0
100
AcDbCircle
 10
13697.27152418465
 20
-1409.092810960194
 30
0.0
 40
908.999999999994
100
AcDbArc
 50
63.60137078801699
 51
116.398629211983
  0
ARC
  5
372
330
25
100
AcDbEntity
  8
1
  6
Continuous
 62
     0
100
AcDbCircle
 10
13697.27152418465
 20
-1309.092810960198
 30
0.0
 40
908.999999999998
100
AcDbArc
 50
290.948935124583
 51
296.398629211983
  0
ARC
  5
371
330
25
100
AcDbEntity
  8
1
  6
Continuous
 62
     0
100
AcDbCircle
 10
14057.27109543689
 20
-2034.695891007494
 30
0.0
 40
99.000429050301
100
AcDbArc
 50
296.4874239001996
 51
359.851482431229
  0
ARC
  5
370
330
25
100
AcDbEntity
  8
1
  6
Continuous
 62
     0
100
AcDbCircle
 10
13337.2719529324
 20
-2034.695891007494
 30
0.0
 40
99.000429050303
100
AcDbArc
 50
180.148517568771
 51
243.5125760997998
  0
ARC
  5
36F
330
25
100
AcDbEntity
  8
1
  6
Continuous
 62
     0
100
AcDbCircle
 10
13697.27152418465
 20
-441.342810960196
 30
0.0
 40
6.25
100
AcDbArc
 50
0.0
 51
180.0
  0
ARC
  5
36E
330
25
100
AcDbEntity
  8
1
  6
Continuous
 62
     0
100
AcDbCircle
 10
14608.39396944013
 20
-1814.092810960196
 30
0.0
 40
458.97244525548
100
AcDbArc
 50
170.088686020986
 51
189.911313979014
  0
ARC
  5
36D
330
25
100
AcDbEntity
  8
1
  6
Continuous
 62
     0
100
AcDbCircle
 10
11022.30772499309
 20
-1218.092810960196
 30
0.0
 40
20.062177826479
100
AcDbArc
 50
162.4120462259981
 51
163.9040367899452
  0
ARC
  5
36C
330
25
100
AcDbEntity
  8
1
  6
Continuous
 62
     0
100
AcDbCircle
 10
10954.52119151364
 20
-1218.092810960196
 30
0.0
 40
20.062177826479
100
AcDbArc
 50
342.4120462259963
 51
343.9040367899421
  0
ARC
  5
36B
330
25
100
AcDbEntity
  8
1
  6
Continuous
 62
     0
100
AcDbCircle
 10
10994.44842522706
 20
-1214.103981393266
 30
0.0
 40
6.80671071391
100
AcDbArc
 50
3.041596008610572
 51
41.51019968794234
  0
ARC
  5
36A
330
25
100
AcDbEntity
  8
1
  6
Continuous
 62
     0
100
AcDbCircle
 10
10969.16856732435
 20
-1227.200797222275
 30
0.0
 40
5.414822022412
100
AcDbArc
 50
335.9793229189408
 51
34.22849580305749
  0
ARC
  5
369
330
25
100
AcDbEntity
  8
1
  6
Continuous
 62
     0
100
AcDbCircle
 10
10969.16856732435
 20
-1208.984824698118
 30
0.0
 40
5.414822022403
100
AcDbArc
 50
325.771504196945
 51
24.02067708105096
  0
ARC
  5
368
330
25
100
AcDbEntity
  8
1
  6
Continuous
 62
     0
100
AcDbCircle
 10
10954.52119151364
 20
-1218.092810960196
 30
0.0
 40
20.06217782648
100
AcDbArc
 50
16.09596321005463
 51
17.58795377399969
  0
ARC
  5
367
330
25
100
AcDbEntity
  8
1
  6
Continuous
 62
     0
100
AcDbCircle
 10
11007.66034918238
 20
-1208.984824698118
 30
0.0
 40
5.414822022403
100
AcDbArc
 50
155.979322918906
 51
214.228495803055
  0
ARC
  5
366
330
25
100
AcDbEntity
  8
1
  6
Continuous
 62
     0
100
AcDbCircle
 10
11007.66034918238
 20
-1227.200797222275
 30
0.0
 40
5.414822022403
100
AcDbArc
 50
145.771504196945
 51
204.020677081094
  0
ARC
  5
365
330
25
100
AcDbEntity
  8
1
  6
Continuous
 62
     0
100
AcDbCircle
 10
11022.30772499309
 20
-1218.092810960196
 30
0.0
 40
20.062177826482
100
AcDbArc
 50
196.0959632100563
 51
197.5879537740065
  0
ARC
  5
364
330
25
100
AcDbEntity
  8
1
  6
Continuous
 62
     0
100
AcDbCircle
 10
10988.54554716661
 20
-1218.092810960196
 30
0.0
 40
10.000000000003
100
AcDbArc
 50
34.42900395069982
 51
145.5709960492659
  0
ARC
  5
363
330
25
100
AcDbEntity
  8
1
  6
Continuous
 62
     0
100
AcDbCircle
 10
10988.54554716661
 20
-1218.092810960196
 30
0.0
 40
9.999999999996
100
AcDbArc
 50
214.4290039507335
 51
325.5709960492999
  0
ARC
  5
362
330
25
100
AcDbEntity
  8
1
  6
Continuous
 62
     0
100
AcDbCircle
 10
11005.13074515084
 20
-1208.984824698118
 30
0.0
 40
5.414822022403
100
AcDbArc
 50
325.771504196945
 51
24.02067708105096
  0
ARC
  5
361
330
25
100
AcDbEntity
  8
1
  6
Continuous
 62
     0
100
AcDbCircle
 10
10990.48336934013
 20
-1218.092810960196
 30
0.0
 40
20.062177826479
100
AcDbArc
 50
342.4120462259963
 51
17.58795377400126
  0
ARC
  5
360
330
25
100
AcDbEntity
  8
1
  6
Continuous
 62
     0
100
AcDbCircle
 10
11005.13074515084
 20
-1227.200797222275
 30
0.0
 40
5.414822022412
100
AcDbArc
 50
335.9793229189408
 51
34.22849580305749
  0
ARC
  5
35F
330
25
100
AcDbEntity
  8
1
  6
Continuous
 62
     0
100
AcDbCircle
 10
10971.96034918238
 20
-1208.984824698118
 30
0.0
 40
5.414822022402
100
AcDbArc
 50
155.9793229188938
 51
214.2284958030659
  0
ARC
  5
35E
330
25
100
AcDbEntity
  8
1
  6
Continuous
 62
     0
100
AcDbCircle
 10
10986.60772499309
 20
-1218.092810960196
 30
0.0
 40
20.062177826479
100
AcDbArc
 50
162.4120462259981
 51
197.5879537740043
  0
ARC
  5
35D
330
25
100
AcDbEntity
  8
1
  6
Continuous
 62
     0
100
AcDbCircle
 10
10971.96034918238
 20
-1227.200797222275
 30
0.0
 40
5.414822022403
100
AcDbArc
 50
145.771504196945
 51
204.0206770810983
  0
ARC
  5
35C
330
25
100
AcDbEntity
  8
1
  6
Continuous
 62
     0
100
AcDbCircle
 10
11452.45173280497
 20
-3634.390163794119
 30
0.0
 40
6.188368025609
100
AcDbArc
 50
235.7715041969274
 51
294.0206770810294
  0
ARC
  5
35B
330
25
100
AcDbEntity
  8
1
  6
Continuous
 62
     0
100
AcDbCircle
 10
11431.63347849164
 20
-3634.390163794119
 30
0.0
 40
6.188368025609
100
AcDbArc
 50
245.9793229189706
 51
304.2284958030726
  0
ARC
  5
35A
330
25
100
AcDbEntity
  8
1
  6
Continuous
 62
     0
100
AcDbCircle
 10
11442.04260564831
 20
-3617.650305724728
 30
0.0
 40
22.928203230275
100
AcDbArc
 50
252.4120462259941
 51
287.5879537739818
  0
ARC
  5
359
330
25
100
AcDbEntity
  8
1
  6
Continuous
 62
     0
100
AcDbCircle
 10
11475.86736190744
 20
-3617.650305724728
 30
0.0
 40
22.928203230272
100
AcDbArc
 50
252.4120462260205
 51
287.5879537740079
  0
ARC
  5
358
330
25
100
AcDbEntity
  8
1
  6
Continuous
 62
     0
100
AcDbCircle
 10
11465.45823475078
 20
-3634.390163794119
 30
0.0
 40
6.188368025609
100
AcDbArc
 50
245.9793229189706
 51
304.2284958030726
  0
ARC
  5
357
330
25
100
AcDbEntity
  8
1
  6
Continuous
 62
     0
100
AcDbCircle
 10
11486.27648906411
 20
-3634.390163794119
 30
0.0
 40
6.188368025609
100
AcDbArc
 50
235.7715041969274
 51
294.0206770810294
  0
ARC
  5
356
330
25
100
AcDbEntity
  8
1
  6
Continuous
 62
     0
100
AcDbCircle
 10
11513.29366379642
 20
-3634.390163794119
 30
0.0
 40
6.188368025613
100
AcDbArc
 50
245.9793229188937
 51
304.2284958030068
  0
ARC
  5
355
330
25
100
AcDbEntity
  8
1
  6
Continuous
 62
     0
100
AcDbCircle
 10
11534.11191810975
 20
-3634.390163794119
 30
0.0
 40
6.188368025608
100
AcDbArc
 50
235.7715041969414
 51
294.0206770810516
  0
ARC
  5
354
330
25
100
AcDbEntity
  8
1
  6
Continuous
 62
     0
100
AcDbCircle
 10
11523.70279095308
 20
-3617.650305724728
 30
0.0
 40
22.928203230275
100
AcDbArc
 50
252.4120462259941
 51
287.5879537740058
  0
ARC
  5
353
330
25
100
AcDbEntity
  8
1
  6
Continuous
 62
     0
100
AcDbCircle
 10
11557.52754721222
 20
-3617.650305724728
 30
0.0
 40
22.928203230275
100
AcDbArc
 50
252.4120462259941
 51
287.5879537740058
  0
ARC
  5
352
330
25
100
AcDbEntity
  8
1
  6
Continuous
 62
     0
100
AcDbCircle
 10
11567.93667436888
 20
-3634.390163794119
 30
0.0
 40
6.188368025604
100
AcDbArc
 50
235.771504196997
 51
294.0206770811064
  0
ARC
  5
351
330
25
100
AcDbEntity
  8
1
  6
Continuous
 62
     0
100
AcDbCircle
 10
11547.11842005555
 20
-3634.390163794119
 30
0.0
 40
6.18836802561
100
AcDbArc
 50
245.9793229189552
 51
304.2284958030655
  0
ARC
  5
350
330
25
100
AcDbEntity
  8
1
  6
Continuous
 62
     0
100
AcDbCircle
 10
11544.70206246293
 20
-2633.953685420262
 30
0.0
 40
10.415441500099
100
AcDbArc
 50
180.0
 51
211.1314905660867
  0
ARC
  5
34F
330
25
100
AcDbEntity
  8
1
  6
Continuous
 62
     0
100
AcDbCircle
 10
11454.8680903976
 20
-2633.953685420262
 30
0.0
 40
10.415441500092
100
AcDbArc
 50
328.8685094338854
 51
0.0
  0
ARC
  5
34E
330
25
100
AcDbEntity
  8
1
  6
Continuous
 62
     0
100
AcDbCircle
 10
11499.81374533412
 20
-2607.95094697715
 30
0.0
 40
34.787361012411
100
AcDbArc
 50
7.710008218944374
 51
173.0291458909444
  0
ARC
  5
34D
330
25
100
AcDbEntity
  8
1
  6
Continuous
 62
     0
100
AcDbCircle
 10
11499.78507643026
 20
-2600.3431914598
 30
0.0
 40
40.141914435009
100
AcDbArc
 50
329.2592858702315
 51
210.7407141297681
  0
ARC
  5
34C
330
25
100
AcDbEntity
  8
1
  6
Continuous
 62
     0
100
AcDbCircle
 10
10988.54507643026
 20
-3113.036842288331
 30
0.0
 40
13.541666666667
100
AcDbArc
 50
234.9488632525634
 51
305.0511367474654
  0
ARC
  5
34B
330
25
100
AcDbEntity
  8
1
  6
Continuous
 62
     0
100
AcDbCircle
 10
10982.70893757182
 20
-3154.828508955002
 30
0.0
 40
15.163861141559
100
AcDbArc
 50
159.7438419995869
 51
200.2561580004131
  0
ARC
  5
34A
330
25
100
AcDbEntity
  8
1
  6
Continuous
 62
     0
100
AcDbCircle
 10
10982.70893757182
 20
-3144.328508955002
 30
0.0
 40
15.163861141559
100
AcDbArc
 50
159.7438419995869
 51
200.2561580004131
  0
ARC
  5
349
330
25
100
AcDbEntity
  8
1
  6
Continuous
 62
     0
100
AcDbCircle
 10
10961.35685963573
 20
-3154.828508955002
 30
0.0
 40
15.163861141549
100
AcDbArc
 50
339.7438419995726
 51
351.4669955595499
  0
ARC
  5
348
330
25
100
AcDbEntity
  8
1
  6
Continuous
 62
     0
100
AcDbCircle
 10
10961.35685963573
 20
-3144.328508955002
 30
0.0
 40
15.163861141549
100
AcDbArc
 50
339.7438419995726
 51
353.3729590728165
  0
ARC
  5
347
330
25
100
AcDbEntity
  8
1
  6
Continuous
 62
     0
100
AcDbCircle
 10
11017.7332932248
 20
-3144.328508955002
 30
0.0
 40
15.163861141558
100
AcDbArc
 50
159.7438419995829
 51
171.466995559556
  0
ARC
  5
346
330
25
100
AcDbEntity
  8
1
  6
Continuous
 62
     0
100
AcDbCircle
 10
11017.7332932248
 20
-3154.828508955002
 30
0.0
 40
15.163861141558
100
AcDbArc
 50
159.7438419995829
 51
173.3729590728171
  0
ARC
  5
345
330
25
100
AcDbEntity
  8
1
  6
Continuous
 62
     0
100
AcDbCircle
 10
10996.38121528871
 20
-3154.828508955002
 30
0.0
 40
15.163861141559
100
AcDbArc
 50
339.7438419995869
 51
20.25615800041309
  0
ARC
  5
344
330
25
100
AcDbEntity
  8
1
  6
Continuous
 62
     0
100
AcDbCircle
 10
10996.38121528871
 20
-3144.328508955002
 30
0.0
 40
15.163861141559
100
AcDbArc
 50
339.7438419995869
 51
20.25615800041309
  0
ARC
  5
343
330
25
100
AcDbEntity
  8
1
  6
Continuous
 62
     0
100
AcDbCircle
 10
10988.54507643026
 20
-3132.267258955003
 30
0.0
 40
9.111249999999
100
AcDbArc
 50
242.9041220239982
 51
297.0958779760018
  0
ARC
  5
342
330
25
100
AcDbEntity
  8
1
  6
Continuous
 62
     0
100
AcDbCircle
 10
10961.35685963573
 20
-3154.828508955002
 30
0.0
 40
15.163861141554
100
AcDbArc
 50
6.627040927182836
 51
20.25615800042506
  0
ARC
  5
341
330
25
100
AcDbEntity
  8
1
  6
Continuous
 62
     0
100
AcDbCircle
 10
11017.7332932248
 20
-3144.328508955002
 30
0.0
 40
15.163861141554
100
AcDbArc
 50
186.6270409271828
 51
200.256158000417
  0
ARC
  5
340
330
25
100
AcDbEntity
  8
1
  6
Continuous
 62
     0
100
AcDbCircle
 10
10961.35685963573
 20
-3144.328508955002
 30
0.0
 40
15.163861141543
100
AcDbArc
 50
8.533004440449771
 51
20.25615800042645
  0
ARC
  5
33F
330
25
100
AcDbEntity
  8
1
  6
Continuous
 62
     0
100
AcDbCircle
 10
11017.7332932248
 20
-3154.828508955002
 30
0.0
 40
15.163861141553
100
AcDbArc
 50
188.5330044404436
 51
200.2561580004138
  0
ARC
  5
33E
330
25
100
AcDbEntity
  8
1
  6
Continuous
 62
     0
100
AcDbCircle
 10
10929.28634957185
 20
-3149.578508955002
 30
0.0
 40
11.5
100
AcDbArc
 50
90.0
 51
270.0
  0
LINE
  5
33D
330
25
100
AcDbEntity
  8
1
  6
Continuous
 62
     0
100
AcDbLine
 10
11509.70279095308
 20
-3627.983959469977
 30
0.0
 11
11489.86736190744
 21
-3627.983959469977
 31
0.0
  0
LINE
  5
33C
330
25
100
AcDbEntity
  8
1
  6
Continuous
 62
     0
100
AcDbLine
 10
11487.12204596996
 20
-3640.578508955002
 30
0.0
 11
11513.27684148567
 21
-3640.578508955002
 31
0.0
  0
LINE
  5
33B
330
25
100
AcDbEntity
  8
1
  6
Continuous
 62
     0
100
AcDbLine
 10
11495.21708534449
 20
-3637.578508955002
 30
0.0
 11
11489.723768368
 21
-3637.578508955002
 31
0.0
  0
LINE
  5
33A
330
25
100
AcDbEntity
  8
1
  6
Continuous
 62
     0
100
AcDbLine
 10
11509.84638449253
 20
-3637.578508955002
 30
0.0
 11
11504.35306751604
 21
-3637.578508955002
 31
0.0
  0
LINE
  5
339
330
25
100
AcDbEntity
  8
1
  6
Continuous
 62
     0
100
AcDbLine
 10
11495.78507643026
 20
-3627.983959469977
 30
0.0
 11
11495.78507643026
 21
-3634.983959469977
 31
0.0
  0
LINE
  5
338
330
25
100
AcDbEntity
  8
1
  6
Continuous
 62
     0
100
AcDbLine
 10
11503.78507643026
 20
-3634.983959469977
 30
0.0
 11
11503.78507643026
 21
-3627.983959469977
 31
0.0
  0
LINE
  5
337
330
25
100
AcDbEntity
  8
1
  6
Continuous
 62
     0
100
AcDbLine
 10
11501.78507643026
 20
-3637.578508955002
 30
0.0
 11
11497.78507643026
 21
-3637.578508955002
 31
0.0
  0
LINE
  5
336
330
25
100
AcDbEntity
  8
1
  6
Continuous
 62
     0
100
AcDbLine
 10
11495.78507643026
 20
-3628.578508955002
 30
0.0
 11
11495.78507643026
 21
-3635.578508955002
 31
0.0
  0
LINE
  5
335
330
25
100
AcDbEntity
  8
1
  6
Continuous
 62
     0
100
AcDbLine
 10
11503.78507643026
 20
-3635.578508955002
 30
0.0
 11
11503.78507643026
 21
-3628.578508955002
 31
0.0
  0
LINE
  5
31F
330
25
100
AcDbEntity
  8
1
  6
Continuous
 62
     0
100
AcDbLine
 10
11476.78507643026
 20
-1003.372810960196
 30
0.0
 11
11476.78507643026
 21
-1045.795460691006
 31
0.0
  0
LINE
  5
31E
330
25
100
AcDbEntity
  8
1
  6
Continuous
 62
     0
100
AcDbLine
 10
11478.78507643026
 20
-1003.372810960196
 30
0.0
 11
11478.78507643026
 21
-1045.372810960196
 31
0.0
  0
LINE
  5
31D
330
25
100
AcDbEntity
  8
1
  6
Continuous
 62
     0
100
AcDbLine
 10
11491.45174309693
 20
-1003.372810960196
 30
0.0
 11
11491.45174309693
 21
-1045.372810960196
 31
0.0
  0
LINE
  5
31C
330
25
100
AcDbEntity
  8
1
  6
Continuous
 62
     0
100
AcDbLine
 10
11493.45174309693
 20
-1003.372810960196
 30
0.0
 11
11493.45174309693
 21
-1045.372810960196
 31
0.0
  0
LINE
  5
31B
330
25
100
AcDbEntity
  8
1
  6
Continuous
 62
     0
100
AcDbLine
 10
11506.1184097636
 20
-1003.372810960196
 30
0.0
 11
11506.1184097636
 21
-1045.372810960196
 31
0.0
  0
LINE
  5
31A
330
25
100
AcDbEntity
  8
1
  6
Continuous
 62
     0
100
AcDbLine
 10
11508.1184097636
 20
-1003.372810960196
 30
0.0
 11
11508.1184097636
 21
-1045.372810960196
 31
0.0
  0
LINE
  5
319
330
25
100
AcDbEntity
  8
1
  6
Continuous
 62
     0
100
AcDbLine
 10
11520.78507643026
 20
-1003.372810960196
 30
0.0
 11
11520.78507643026
 21
-1045.372810960196
 31
0.0
  0
LINE
  5
318
330
25
100
AcDbEntity
  8
1
  6
Continuous
 62
     0
100
AcDbLine
 10
11522.78507643026
 20
-1003.372810960196
 30
0.0
 11
11522.78507643026
 21
-1045.795460691006
 31
0.0
  0
LINE
  5
317
330
25
100
AcDbEntity
  8
1
  6
Continuous
 62
     0
100
AcDbLine
 10
11464.78507643026
 20
-1119.872810960196
 30
0.0
 11
11464.78507643026
 21
-1127.872810960196
 31
0.0
  0
LINE
  5
316
330
25
100
AcDbEntity
  8
1
  6
Continuous
 62
     0
100
AcDbLine
 10
11534.78507643026
 20
-1119.872810960196
 30
0.0
 11
11534.78507643026
 21
-1127.872810960196
 31
0.0
  0
LINE
  5
315
330
25
100
AcDbEntity
  8
1
  6
Continuous
 62
     0
100
AcDbLine
 10
11520.28507643026
 20
-1177.965522899734
 30
0.0
 11
11520.28507643026
 21
-1176.25789214246
 31
0.0
  0
LINE
  5
314
330
25
100
AcDbEntity
  8
1
  6
Continuous
 62
     0
100
AcDbLine
 10
11520.28507643026
 20
-1176.25789214246
 30
0.0
 11
11520.28507643026
 21
-1177.591266427625
 31
0.0
  0
LINE
  5
313
330
25
100
AcDbEntity
  8
1
  6
Continuous
 62
     0
100
AcDbLine
 10
11479.28507643026
 20
-1176.25789214246
 30
0.0
 11
11479.28507643026
 21
-1177.965522899735
 31
0.0
  0
LINE
  5
312
330
25
100
AcDbEntity
  8
1
  6
Continuous
 62
     0
100
AcDbLine
 10
11469.42699086527
 20
-1143.563409883437
 30
0.0
 11
11473.42699086527
 21
-1145.872810960196
 31
0.0
  0
LINE
  5
311
330
25
100
AcDbEntity
  8
1
  6
Continuous
 62
     0
100
AcDbLine
 10
11530.42699086527
 20
-1143.563409883437
 30
0.0
 11
11526.42699086527
 21
-1145.872810960196
 31
0.0
  0
LINE
  5
310
330
25
100
AcDbEntity
  8
1
  6
Continuous
 62
     0
100
AcDbLine
 10
11473.42699086527
 20
-1145.872810960196
 30
0.0
 11
11526.42699086527
 21
-1145.872810960196
 31
0.0
  0
LINE
  5
30F
330
25
100
AcDbEntity
  8
1
  6
Continuous
 62
     0
100
AcDbLine
 10
11520.92699086527
 20
-1145.872810960196
 30
0.0
 11
11478.92699086527
 21
-1145.872810960196
 31
0.0
  0
LINE
  5
30E
330
25
100
AcDbEntity
  8
1
  6
Continuous
 62
     0
100
AcDbLine
 10
11499.78507643026
 20
-1167.092810960197
 30
0.0
 11
11521.79799415234
 21
-1167.092810960197
 31
0.0
  0
LINE
  5
30D
330
25
100
AcDbEntity
  8
1
  6
Continuous
 62
     0
100
AcDbLine
 10
11477.77215870819
 20
-1167.092810960197
 30
0.0
 11
11499.78507643026
 21
-1167.092810960197
 31
0.0
  0
LINE
  5
30C
330
25
100
AcDbEntity
  8
1
  6
Continuous
 62
     0
100
AcDbLine
 10
11477.77215870819
 20
-1167.092810960197
 30
0.0
 11
11477.77215870819
 21
-1172.092810960197
 31
0.0
  0
LINE
  5
30B
330
25
100
AcDbEntity
  8
1
  6
Continuous
 62
     0
100
AcDbLine
 10
11521.79799415234
 20
-1167.092810960197
 30
0.0
 11
11521.79799415234
 21
-1172.092810960197
 31
0.0
  0
LINE
  5
30A
330
25
100
AcDbEntity
  8
1
  6
Continuous
 62
     0
100
AcDbLine
 10
11477.77215870819
 20
-1172.092810960197
 30
0.0
 11
11521.79799415234
 21
-1172.092810960197
 31
0.0
  0
LINE
  5
309
330
25
100
AcDbEntity
  8
1
  6
Continuous
 62
     0
100
AcDbLine
 10
11482.78507643026
 20
-1154.632810960196
 30
0.0
 11
11516.78507643026
 21
-1154.632810960196
 31
0.0
  0
LINE
  5
308
330
25
100
AcDbEntity
  8
1
  6
Continuous
 62
     0
100
AcDbLine
 10
11516.78507643026
 20
-1158.332810960196
 30
0.0
 11
11482.78507643026
 21
-1158.332810960196
 31
0.0
  0
LINE
  5
307
330
25
100
AcDbEntity
  8
1
  6
Continuous
 62
     0
100
AcDbLine
 10
11482.78507643026
 20
-1154.632810960196
 30
0.0
 11
11482.78507643026
 21
-1158.332810960196
 31
0.0
  0
LINE
  5
306
330
25
100
AcDbEntity
  8
1
  6
Continuous
 62
     0
100
AcDbLine
 10
11516.78507643026
 20
-1158.332810960196
 30
0.0
 11
11516.78507643026
 21
-1154.632810960196
 31
0.0
  0
LINE
  5
305
330
25
100
AcDbEntity
  8
1
  6
Continuous
 62
     0
100
AcDbLine
 10
11482.78507643026
 20
-1154.632810960196
 30
0.0
 11
11483.16057643026
 21
-1145.872810960196
 31
0.0
  0
LINE
  5
304
330
25
100
AcDbEntity
  8
1
  6
Continuous
 62
     0
100
AcDbLine
 10
11482.78507643026
 20
-1158.332810960196
 30
0.0
 11
11483.16057643026
 21
-1167.092810960196
 31
0.0
  0
LINE
  5
303
330
25
100
AcDbEntity
  8
1
  6
Continuous
 62
     0
100
AcDbLine
 10
11516.40957643026
 20
-1167.092810960196
 30
0.0
 11
11516.78507643026
 21
-1158.332810960196
 31
0.0
  0
LINE
  5
302
330
25
100
AcDbEntity
  8
1
  6
Continuous
 62
     0
100
AcDbLine
 10
11516.40957643026
 20
-1145.872810960196
 30
0.0
 11
11516.78507643026
 21
-1154.632810960196
 31
0.0
  0
LINE
  5
301
330
25
100
AcDbEntity
  8
1
  6
Continuous
 62
     0
100
AcDbLine
 10
13125.17812112445
 20
-1003.372139621611
 30
0.0
 11
13125.17812112445
 21
-1045.795460691006
 31
0.0
  0
LINE
  5
300
330
25
100
AcDbEntity
  8
1
  6
Continuous
 62
     0
100
AcDbLine
 10
13127.17812112445
 20
-1003.372139621611
 30
0.0
 11
13127.17812112445
 21
-1045.372810960196
 31
0.0
  0
LINE
  5
2FF
330
25
100
AcDbEntity
  8
1
  6
Continuous
 62
     0
100
AcDbLine
 10
13139.84478779112
 20
-1003.372139621611
 30
0.0
 11
13139.84478779112
 21
-1045.372810960196
 31
0.0
  0
LINE
  5
2FE
330
25
100
AcDbEntity
  8
1
  6
Continuous
 62
     0
100
AcDbLine
 10
13141.84478779112
 20
-1003.372139621611
 30
0.0
 11
13141.84478779112
 21
-1045.372810960196
 31
0.0
  0
LINE
  5
2FD
330
25
100
AcDbEntity
  8
1
  6
Continuous
 62
     0
100
AcDbLine
 10
13154.51145445779
 20
-1003.372139621611
 30
0.0
 11
13154.51145445779
 21
-1045.372810960196
 31
0.0
  0
LINE
  5
2FC
330
25
100
AcDbEntity
  8
1
  6
Continuous
 62
     0
100
AcDbLine
 10
13156.51145445779
 20
-1003.372139621611
 30
0.0
 11
13156.51145445779
 21
-1045.372810960196
 31
0.0
  0
LINE
  5
2FB
330
25
100
AcDbEntity
  8
1
  6
Continuous
 62
     0
100
AcDbLine
 10
13169.17812112445
 20
-1003.372139621611
 30
0.0
 11
13169.17812112445
 21
-1045.372810960196
 31
0.0
  0
LINE
  5
2FA
330
25
100
AcDbEntity
  8
1
  6
Continuous
 62
     0
100
AcDbLine
 10
13171.17812112445
 20
-1003.372139621611
 30
0.0
 11
13171.17812112445
 21
-1045.795460691006
 31
0.0
  0
LINE
  5
2F9
330
25
100
AcDbEntity
  8
1
  6
Continuous
 62
     0
100
AcDbLine
 10
13113.17812112445
 20
-1119.872810960196
 30
0.0
 11
13113.17812112445
 21
-1127.872810960196
 31
0.0
  0
LINE
  5
2F8
330
25
100
AcDbEntity
  8
1
  6
Continuous
 62
     0
100
AcDbLine
 10
13183.17812112445
 20
-1119.872810960196
 30
0.0
 11
13183.17812112445
 21
-1127.872810960196
 31
0.0
  0
LINE
  5
2F6
330
25
100
AcDbEntity
  8
1
  6
Continuous
 62
     0
100
AcDbLine
 10
13164.66070668944
 20
-1145.872810960196
 30
0.0
 11
13165.03620668945
 21
-1154.632810960196
 31
0.0
  0
LINE
  5
2F5
330
25
100
AcDbEntity
  8
1
  6
Continuous
 62
     0
100
AcDbLine
 10
13164.66070668944
 20
-1167.092810960196
 30
0.0
 11
13165.03620668945
 21
-1158.332810960196
 31
0.0
  0
LINE
  5
2F4
330
25
100
AcDbEntity
  8
1
  6
Continuous
 62
     0
100
AcDbLine
 10
13131.03620668945
 20
-1158.332810960196
 30
0.0
 11
13131.41170668944
 21
-1167.092810960196
 31
0.0
  0
LINE
  5
2F3
330
25
100
AcDbEntity
  8
1
  6
Continuous
 62
     0
100
AcDbLine
 10
13131.03620668945
 20
-1154.632810960196
 30
0.0
 11
13131.41170668944
 21
-1145.872810960196
 31
0.0
  0
LINE
  5
2F2
330
25
100
AcDbEntity
  8
1
  6
Continuous
 62
     0
100
AcDbLine
 10
13165.03620668945
 20
-1158.332810960196
 30
0.0
 11
13165.03620668945
 21
-1154.632810960196
 31
0.0
  0
LINE
  5
2F1
330
25
100
AcDbEntity
  8
1
  6
Continuous
 62
     0
100
AcDbLine
 10
13131.03620668945
 20
-1154.632810960196
 30
0.0
 11
13131.03620668945
 21
-1158.332810960196
 31
0.0
  0
LINE
  5
2F0
330
25
100
AcDbEntity
  8
1
  6
Continuous
 62
     0
100
AcDbLine
 10
13165.03620668945
 20
-1158.332810960196
 30
0.0
 11
13131.03620668945
 21
-1158.332810960196
 31
0.0
  0
LINE
  5
2EF
330
25
100
AcDbEntity
  8
1
  6
Continuous
 62
     0
100
AcDbLine
 10
13131.03620668945
 20
-1154.632810960196
 30
0.0
 11
13165.03620668945
 21
-1154.632810960196
 31
0.0
  0
LINE
  5
2EE
330
25
100
AcDbEntity
  8
1
  6
Continuous
 62
     0
100
AcDbLine
 10
13181.6467006499
 20
-1183.591266427625
 30
0.0
 11
13174.53620668944
 21
-1183.591266427625
 31
0.0
  0
LINE
  5
2ED
330
25
100
AcDbEntity
  8
1
  6
Continuous
 62
     0
100
AcDbLine
 10
13192.03152418464
 20
-1218.092810960196
 30
0.0
 11
13192.03152418464
 21
-1182.091266427625
 31
0.0
  0
LINE
  5
2EC
330
25
100
AcDbEntity
  8
1
  6
Continuous
 62
     0
100
AcDbLine
 10
13187.03152418464
 20
-1252.594355492768
 30
0.0
 11
13187.03152418464
 21
-1254.094355492768
 31
0.0
  0
LINE
  5
2EB
330
25
100
AcDbEntity
  8
1
  6
Continuous
 62
     0
100
AcDbLine
 10
13187.03152418464
 20
-1183.591266427625
 30
0.0
 11
13187.03152418464
 21
-1182.091266427625
 31
0.0
  0
LINE
  5
2EA
330
25
100
AcDbEntity
  8
1
  6
Continuous
 62
     0
100
AcDbLine
 10
13187.03152418464
 20
-1252.594355492768
 30
0.0
 11
13187.03152418464
 21
-1183.591266427625
 31
0.0
  0
LINE
  5
2E9
330
25
100
AcDbEntity
  8
1
  6
Continuous
 62
     0
100
AcDbLine
 10
13187.03152418464
 20
-1182.091266427625
 30
0.0
 11
13192.03152418464
 21
-1182.091266427625
 31
0.0
  0
LINE
  5
2E8
330
25
100
AcDbEntity
  8
1
  6
Continuous
 62
     0
100
AcDbLine
 10
13187.03152418464
 20
-1254.094355492768
 30
0.0
 11
13192.03152418464
 21
-1254.094355492768
 31
0.0
  0
LINE
  5
2E7
330
25
100
AcDbEntity
  8
1
  6
Continuous
 62
     0
100
AcDbLine
 10
13192.03152418464
 20
-1254.094355492768
 30
0.0
 11
13192.03152418464
 21
-1218.092810960196
 31
0.0
  0
LINE
  5
2E6
330
25
100
AcDbEntity
  8
1
  6
Continuous
 62
     0
100
AcDbLine
 10
13181.6467006499
 20
-1252.594355492768
 30
0.0
 11
13172.53620668944
 21
-1252.594355492768
 31
0.0
  0
LINE
  5
2E4
330
25
100
AcDbEntity
  8
1
  6
Continuous
 62
     0
100
AcDbLine
 10
13126.02328896737
 20
-1172.092810960197
 30
0.0
 11
13170.04912441152
 21
-1172.092810960197
 31
0.0
  0
LINE
  5
2E3
330
25
100
AcDbEntity
  8
1
  6
Continuous
 62
     0
100
AcDbLine
 10
13170.04912441152
 20
-1167.092810960197
 30
0.0
 11
13170.04912441152
 21
-1172.092810960197
 31
0.0
  0
LINE
  5
2E2
330
25
100
AcDbEntity
  8
1
  6
Continuous
 62
     0
100
AcDbLine
 10
13126.02328896737
 20
-1167.092810960197
 30
0.0
 11
13126.02328896737
 21
-1172.092810960197
 31
0.0
  0
LINE
  5
2E1
330
25
100
AcDbEntity
  8
1
  6
Continuous
 62
     0
100
AcDbLine
 10
13126.02328896737
 20
-1167.092810960197
 30
0.0
 11
13148.03620668944
 21
-1167.092810960197
 31
0.0
  0
LINE
  5
2E0
330
25
100
AcDbEntity
  8
1
  6
Continuous
 62
     0
100
AcDbLine
 10
13168.53620668944
 20
-1176.25789214246
 30
0.0
 11
13168.53620668944
 21
-1177.591266427625
 31
0.0
  0
LINE
  5
2DF
330
25
100
AcDbEntity
  8
1
  6
Continuous
 62
     0
100
AcDbLine
 10
13127.53620668944
 20
-1176.25789214246
 30
0.0
 11
13127.53620668944
 21
-1207.594355492767
 31
0.0
  0
LINE
  5
2DE
330
25
100
AcDbEntity
  8
1
  6
Continuous
 62
     0
100
AcDbLine
 10
13148.03620668944
 20
-1167.092810960197
 30
0.0
 11
13170.04912441152
 21
-1167.092810960197
 31
0.0
  0
LINE
  5
2DD
330
25
100
AcDbEntity
  8
1
  6
Continuous
 62
     0
100
AcDbLine
 10
13192.03152418464
 20
-1188.285810960196
 30
0.0
 11
13203.15152418465
 21
-1187.842810960196
 31
0.0
  0
LINE
  5
2DC
330
25
100
AcDbEntity
  8
1
  6
Continuous
 62
     0
100
AcDbLine
 10
13203.15152418465
 20
-1248.342810960196
 30
0.0
 11
13192.03152418464
 21
-1247.899810960196
 31
0.0
  0
LINE
  5
2DB
330
25
100
AcDbEntity
  8
1
  6
Continuous
 62
     0
100
AcDbLine
 10
13207.15152418465
 20
-1187.842810960196
 30
0.0
 11
13218.27152418465
 21
-1188.285810960196
 31
0.0
  0
LINE
  5
2DA
330
25
100
AcDbEntity
  8
1
  6
Continuous
 62
     0
100
AcDbLine
 10
13207.15152418465
 20
-1248.342810960196
 30
0.0
 11
13218.27152418465
 21
-1247.899810960196
 31
0.0
  0
LINE
  5
2D9
330
25
100
AcDbEntity
  8
1
  6
Continuous
 62
     0
100
AcDbLine
 10
13207.15152418465
 20
-1187.842810960196
 30
0.0
 11
13203.15152418465
 21
-1187.842810960196
 31
0.0
  0
LINE
  5
2D8
330
25
100
AcDbEntity
  8
1
  6
Continuous
 62
     0
100
AcDbLine
 10
13203.15152418465
 20
-1248.342810960196
 30
0.0
 11
13207.15152418465
 21
-1248.342810960196
 31
0.0
  0
LINE
  5
2D7
330
25
100
AcDbEntity
  8
1
  6
Continuous
 62
     0
100
AcDbLine
 10
13203.15152418465
 20
-1248.342810960196
 30
0.0
 11
13203.15152418465
 21
-1187.842810960196
 31
0.0
  0
LINE
  5
2D6
330
25
100
AcDbEntity
  8
1
  6
Continuous
 62
     0
100
AcDbLine
 10
13207.15152418465
 20
-1187.842810960196
 30
0.0
 11
13207.15152418465
 21
-1248.342810960196
 31
0.0
  0
LINE
  5
2D4
330
25
100
AcDbEntity
  8
1
  6
Continuous
 62
     0
100
AcDbLine
 10
13163.67812112445
 20
-989.372139621611
 30
0.0
 11
13166.67812112445
 21
-991.10419042918
 31
0.0
  0
LINE
  5
2D3
330
25
100
AcDbEntity
  8
1
  6
Continuous
 62
     0
100
AcDbLine
 10
13166.67812112445
 20
-991.10419042918
 30
0.0
 11
13166.67812112445
 21
-997.372139621611
 31
0.0
  0
LINE
  5
2D2
330
25
100
AcDbEntity
  8
1
  6
Continuous
 62
     0
100
AcDbLine
 10
13166.67812112445
 20
-997.372139621611
 30
0.0
 11
13129.67812112445
 21
-997.372139621611
 31
0.0
  0
LINE
  5
2D1
330
25
100
AcDbEntity
  8
1
  6
Continuous
 62
     0
100
AcDbLine
 10
13129.67812112445
 20
-997.372139621611
 30
0.0
 11
13129.67812112445
 21
-991.10419042918
 31
0.0
  0
LINE
  5
2D0
330
25
100
AcDbEntity
  8
1
  6
Continuous
 62
     0
100
AcDbLine
 10
13129.67812112445
 20
-991.10419042918
 30
0.0
 11
13132.67812112445
 21
-989.372139621611
 31
0.0
  0
LINE
  5
2CF
330
25
100
AcDbEntity
  8
1
  6
Continuous
 62
     0
100
AcDbLine
 10
13132.67812112445
 20
-989.372139621611
 30
0.0
 11
13163.67812112445
 21
-989.372139621611
 31
0.0
  0
LINE
  5
2CE
330
25
100
AcDbEntity
  8
1
  6
Continuous
 62
     0
100
AcDbLine
 10
13163.17812112445
 20
-980.872139621611
 30
0.0
 11
13163.17812112445
 21
-989.382438496262
 31
0.0
  0
LINE
  5
2CD
330
25
100
AcDbEntity
  8
1
  6
Continuous
 62
     0
100
AcDbLine
 10
13133.17812112445
 20
-980.872139621611
 30
0.0
 11
13133.17812112445
 21
-989.372139621611
 31
0.0
  0
LINE
  5
2CC
330
25
100
AcDbEntity
  8
1
  6
Continuous
 62
     0
100
AcDbLine
 10
13157.42812112445
 20
-991.10419042918
 30
0.0
 11
13157.42812112445
 21
-997.372139621611
 31
0.0
  0
LINE
  5
2CB
330
25
100
AcDbEntity
  8
1
  6
Continuous
 62
     0
100
AcDbLine
 10
13138.92812112445
 20
-991.10419042918
 30
0.0
 11
13138.92812112445
 21
-997.372139621611
 31
0.0
  0
LINE
  5
2CA
330
25
100
AcDbEntity
  8
1
  6
Continuous
 62
     0
100
AcDbLine
 10
13168.17812112445
 20
-998.372139621611
 30
0.0
 11
13168.17812112445
 21
-1000.372139621611
 31
0.0
  0
LINE
  5
2C9
330
25
100
AcDbEntity
  8
1
  6
Continuous
 62
     0
100
AcDbLine
 10
13129.17812112445
 20
-997.372139621611
 30
0.0
 11
13167.17812112445
 21
-997.372139621611
 31
0.0
  0
LINE
  5
2C8
330
25
100
AcDbEntity
  8
1
  6
Continuous
 62
     0
100
AcDbLine
 10
13128.17812112445
 20
-998.372139621611
 30
0.0
 11
13128.17812112445
 21
-1000.372139621611
 31
0.0
  0
LINE
  5
2C7
330
25
100
AcDbEntity
  8
1
  6
Continuous
 62
     0
100
AcDbLine
 10
13174.67812112445
 20
-1048.97088717155
 30
0.0
 11
13174.67812112445
 21
-1056.372810960196
 31
0.0
  0
LINE
  5
2C6
330
25
100
AcDbEntity
  8
1
  6
Continuous
 62
     0
100
AcDbLine
 10
13174.67812112445
 20
-1056.372810960196
 30
0.0
 11
13121.67812112445
 21
-1056.372810960196
 31
0.0
  0
LINE
  5
2C5
330
25
100
AcDbEntity
  8
1
  6
Continuous
 62
     0
100
AcDbLine
 10
13121.67812112445
 20
-1056.372810960196
 30
0.0
 11
13121.67812112445
 21
-1048.97088717155
 31
0.0
  0
LINE
  5
2C4
330
25
100
AcDbEntity
  8
1
  6
Continuous
 62
     0
100
AcDbLine
 10
13161.42812112445
 20
-1048.97088717155
 30
0.0
 11
13161.42812112445
 21
-1056.372810960196
 31
0.0
  0
LINE
  5
2C3
330
25
100
AcDbEntity
  8
1
  6
Continuous
 62
     0
100
AcDbLine
 10
13134.92812112445
 20
-1048.97088717155
 30
0.0
 11
13134.92812112445
 21
-1056.372810960196
 31
0.0
  0
LINE
  5
2C2
330
25
100
AcDbEntity
  8
1
  6
Continuous
 62
     0
100
AcDbLine
 10
13123.17812112445
 20
-1048.104861767765
 30
0.0
 11
13123.17812112445
 21
-1004.372139621611
 31
0.0
  0
LINE
  5
2C1
330
25
100
AcDbEntity
  8
1
  6
Continuous
 62
     0
100
AcDbLine
 10
13173.17812112445
 20
-1048.104861767765
 30
0.0
 11
13173.17812112445
 21
-1004.372139621611
 31
0.0
  0
LINE
  5
2C0
330
25
100
AcDbEntity
  8
1
  6
Continuous
 62
     0
100
AcDbLine
 10
13125.17812112445
 20
-1002.372139621611
 30
0.0
 11
13126.17812112445
 21
-1002.372139621611
 31
0.0
  0
LINE
  5
2BF
330
25
100
AcDbEntity
  8
1
  6
Continuous
 62
     0
100
AcDbLine
 10
13171.17812112445
 20
-1002.372139621611
 30
0.0
 11
13170.17812112445
 21
-1002.372139621611
 31
0.0
  0
LINE
  5
2BE
330
25
100
AcDbEntity
  8
1
  6
Continuous
 62
     0
100
AcDbLine
 10
13126.17812112445
 20
-1002.372139621611
 30
0.0
 11
13128.17812112445
 21
-1002.372139621611
 31
0.0
  0
LINE
  5
2BD
330
25
100
AcDbEntity
  8
1
  6
Continuous
 62
     0
100
AcDbLine
 10
13168.17812112445
 20
-1002.372139621611
 30
0.0
 11
13128.17812112445
 21
-1002.372139621611
 31
0.0
  0
LINE
  5
2BC
330
25
100
AcDbEntity
  8
1
  6
Continuous
 62
     0
100
AcDbLine
 10
13170.17812112445
 20
-1002.372139621611
 30
0.0
 11
13168.17812112445
 21
-1002.372139621611
 31
0.0
  0
LINE
  5
2BB
330
25
100
AcDbEntity
  8
1
  6
Continuous
 62
     0
100
AcDbLine
 10
13170.17812112445
 20
-1046.372810960196
 30
0.0
 11
13174.67812112445
 21
-1048.97088717155
 31
0.0
  0
LINE
  5
2BA
330
25
100
AcDbEntity
  8
1
  6
Continuous
 62
     0
100
AcDbLine
 10
13170.17812112445
 20
-1046.372810960196
 30
0.0
 11
13126.17812112445
 21
-1046.372810960196
 31
0.0
  0
LINE
  5
2B9
330
25
100
AcDbEntity
  8
1
  6
Continuous
 62
     0
100
AcDbLine
 10
13126.17812112445
 20
-1046.372810960196
 30
0.0
 11
13121.67812112445
 21
-1048.97088717155
 31
0.0
  0
LINE
  5
2B8
330
25
100
AcDbEntity
  8
1
  6
Continuous
 62
     0
100
AcDbLine
 10
13121.67812112445
 20
-1056.372810960196
 30
0.0
 11
13113.17812112445
 21
-1056.372810960196
 31
0.0
  0
LINE
  5
2B7
330
25
100
AcDbEntity
  8
1
  6
Continuous
 62
     0
100
AcDbLine
 10
13108.17812112445
 20
-1061.372810960196
 30
0.0
 11
13108.17812112445
 21
-1114.872810960196
 31
0.0
  0
LINE
  5
2B6
330
25
100
AcDbEntity
  8
1
  6
Continuous
 62
     0
100
AcDbLine
 10
13113.17812112445
 20
-1119.872810960196
 30
0.0
 11
13183.17812112445
 21
-1119.872810960196
 31
0.0
  0
LINE
  5
2B5
330
25
100
AcDbEntity
  8
1
  6
Continuous
 62
     0
100
AcDbLine
 10
13188.17812112445
 20
-1061.372810960196
 30
0.0
 11
13188.17812112445
 21
-1114.872810960196
 31
0.0
  0
LINE
  5
2B4
330
25
100
AcDbEntity
  8
1
  6
Continuous
 62
     0
100
AcDbLine
 10
13174.67812112445
 20
-1056.372810960196
 30
0.0
 11
13183.17812112445
 21
-1056.372810960196
 31
0.0
  0
LINE
  5
2B3
330
25
100
AcDbEntity
  8
1
  6
Continuous
 62
     0
100
AcDbLine
 10
13169.17812112445
 20
-1145.872810960196
 30
0.0
 11
13127.17812112445
 21
-1145.872810960196
 31
0.0
  0
LINE
  5
2B2
330
25
100
AcDbEntity
  8
1
  6
Continuous
 62
     0
100
AcDbLine
 10
13183.17812112445
 20
-1119.872810960196
 30
0.0
 11
13113.17812112445
 21
-1119.872810960196
 31
0.0
  0
LINE
  5
2B1
330
25
100
AcDbEntity
  8
1
  6
Continuous
 62
     0
100
AcDbLine
 10
13178.67812112445
 20
-1130.872810960196
 30
0.0
 11
13117.67812112445
 21
-1130.872810960196
 31
0.0
  0
LINE
  5
2B0
330
25
100
AcDbEntity
  8
1
  6
Continuous
 62
     0
100
AcDbLine
 10
13117.67812112445
 20
-1130.872810960196
 30
0.0
 11
13117.67812112445
 21
-1143.563409883437
 31
0.0
  0
LINE
  5
2AF
330
25
100
AcDbEntity
  8
1
  6
Continuous
 62
     0
100
AcDbLine
 10
13180.17812112445
 20
-1130.872810960196
 30
0.0
 11
13116.17812112445
 21
-1130.872810960196
 31
0.0
  0
LINE
  5
2AE
330
25
100
AcDbEntity
  8
1
  6
Continuous
 62
     0
100
AcDbLine
 10
13183.17812112445
 20
-1119.872810960196
 30
0.0
 11
13113.17812112445
 21
-1119.872810960196
 31
0.0
  0
LINE
  5
2AD
330
25
100
AcDbEntity
  8
1
  6
Continuous
 62
     0
100
AcDbLine
 10
13121.67812112445
 20
-1145.872810960196
 30
0.0
 11
13174.67812112445
 21
-1145.872810960196
 31
0.0
  0
LINE
  5
2AC
330
25
100
AcDbEntity
  8
1
  6
Continuous
 62
     0
100
AcDbLine
 10
13178.67812112445
 20
-1143.563409883437
 30
0.0
 11
13178.67812112445
 21
-1130.872810960196
 31
0.0
  0
LINE
  5
2AB
330
25
100
AcDbEntity
  8
1
  6
Continuous
 62
     0
100
AcDbLine
 10
13178.67812112445
 20
-1143.563409883437
 30
0.0
 11
13174.67812112445
 21
-1145.872810960196
 31
0.0
  0
LINE
  5
2AA
330
25
100
AcDbEntity
  8
1
  6
Continuous
 62
     0
100
AcDbLine
 10
13117.67812112445
 20
-1143.563409883437
 30
0.0
 11
13121.67812112445
 21
-1145.872810960196
 31
0.0
  0
LINE
  5
2A9
330
25
100
AcDbEntity
  8
1
  6
Continuous
 62
     0
100
AcDbLine
 10
13163.42812112445
 20
-1143.563409883437
 30
0.0
 11
13163.42812112445
 21
-1130.872810960196
 31
0.0
  0
LINE
  5
2A8
330
25
100
AcDbEntity
  8
1
  6
Continuous
 62
     0
100
AcDbLine
 10
13132.92812112445
 20
-1143.563409883437
 30
0.0
 11
13132.92812112445
 21
-1130.872810960196
 31
0.0
  0
LINE
  5
2A7
330
25
100
AcDbEntity
  8
1
  6
Continuous
 62
     0
100
AcDbLine
 10
11546.78507643026
 20
-1062.514055968168
 30
0.0
 11
11546.78507643026
 21
-1119.872810960196
 31
0.0
  0
LINE
  5
2A6
330
25
100
AcDbEntity
  8
1
  6
Continuous
 62
     0
100
AcDbLine
 10
11484.53507643026
 20
-1143.563409883437
 30
0.0
 11
11484.53507643026
 21
-1130.872810960196
 31
0.0
  0
LINE
  5
2A5
330
25
100
AcDbEntity
  8
1
  6
Continuous
 62
     0
100
AcDbLine
 10
11515.03507643026
 20
-1143.563409883437
 30
0.0
 11
11515.03507643026
 21
-1130.872810960196
 31
0.0
  0
LINE
  5
2A4
330
25
100
AcDbEntity
  8
1
  6
Continuous
 62
     0
100
AcDbLine
 10
11469.28507643026
 20
-1143.563409883437
 30
0.0
 11
11473.28507643026
 21
-1145.872810960196
 31
0.0
  0
LINE
  5
2A3
330
25
100
AcDbEntity
  8
1
  6
Continuous
 62
     0
100
AcDbLine
 10
11530.28507643026
 20
-1143.563409883437
 30
0.0
 11
11526.28507643026
 21
-1145.872810960196
 31
0.0
  0
LINE
  5
2A2
330
25
100
AcDbEntity
  8
1
  6
Continuous
 62
     0
100
AcDbLine
 10
11530.28507643026
 20
-1143.563409883437
 30
0.0
 11
11530.28507643026
 21
-1130.872810960196
 31
0.0
  0
LINE
  5
2A1
330
25
100
AcDbEntity
  8
1
  6
Continuous
 62
     0
100
AcDbLine
 10
11473.28507643026
 20
-1145.872810960196
 30
0.0
 11
11526.28507643026
 21
-1145.872810960196
 31
0.0
  0
LINE
  5
2A0
330
25
100
AcDbEntity
  8
1
  6
Continuous
 62
     0
100
AcDbLine
 10
11534.78507643026
 20
-1119.872810960196
 30
0.0
 11
11464.78507643026
 21
-1119.872810960196
 31
0.0
  0
LINE
  5
29F
330
25
100
AcDbEntity
  8
1
  6
Continuous
 62
     0
100
AcDbLine
 10
11531.78507643026
 20
-1130.872810960196
 30
0.0
 11
11467.78507643026
 21
-1130.872810960196
 31
0.0
  0
LINE
  5
29E
330
25
100
AcDbEntity
  8
1
  6
Continuous
 62
     0
100
AcDbLine
 10
11469.28507643026
 20
-1130.872810960196
 30
0.0
 11
11469.28507643026
 21
-1143.563409883437
 31
0.0
  0
LINE
  5
29D
330
25
100
AcDbEntity
  8
1
  6
Continuous
 62
     0
100
AcDbLine
 10
11530.28507643026
 20
-1130.872810960196
 30
0.0
 11
11469.28507643026
 21
-1130.872810960196
 31
0.0
  0
LINE
  5
29C
330
25
100
AcDbEntity
  8
1
  6
Continuous
 62
     0
100
AcDbLine
 10
11534.78507643026
 20
-1119.872810960196
 30
0.0
 11
11464.78507643026
 21
-1119.872810960196
 31
0.0
  0
LINE
  5
29B
330
25
100
AcDbEntity
  8
1
  6
Continuous
 62
     0
100
AcDbLine
 10
11520.78507643026
 20
-1145.872810960196
 30
0.0
 11
11478.78507643026
 21
-1145.872810960196
 31
0.0
  0
LINE
  5
29A
330
25
100
AcDbEntity
  8
1
  6
Continuous
 62
     0
100
AcDbLine
 10
11526.28507643026
 20
-1056.372810960196
 30
0.0
 11
11534.78507643026
 21
-1056.372810960196
 31
0.0
  0
LINE
  5
299
330
25
100
AcDbEntity
  8
1
  6
Continuous
 62
     0
100
AcDbLine
 10
11539.78507643026
 20
-1061.372810960196
 30
0.0
 11
11539.78507643026
 21
-1062.372810960196
 31
0.0
  0
LINE
  5
298
330
25
100
AcDbEntity
  8
1
  6
Continuous
 62
     0
100
AcDbLine
 10
11540.78507643026
 20
-1063.372810960196
 30
0.0
 11
11545.78507643026
 21
-1063.372810960196
 31
0.0
  0
LINE
  5
297
330
25
100
AcDbEntity
  8
1
  6
Continuous
 62
     0
100
AcDbLine
 10
11546.78507643026
 20
-1061.872810960196
 30
0.0
 11
11546.78507643026
 21
-1062.372810960196
 31
0.0
  0
LINE
  5
296
330
25
100
AcDbEntity
  8
1
  6
Continuous
 62
     0
100
AcDbLine
 10
11551.78507643026
 20
-1061.872810960196
 30
0.0
 11
11546.78507643026
 21
-1061.872810960196
 31
0.0
  0
LINE
  5
295
330
25
100
AcDbEntity
  8
1
  6
Continuous
 62
     0
100
AcDbLine
 10
11551.78507643026
 20
-1119.872810960196
 30
0.0
 11
11551.78507643026
 21
-1061.872810960196
 31
0.0
  0
LINE
  5
294
330
25
100
AcDbEntity
  8
1
  6
Continuous
 62
     0
100
AcDbLine
 10
11546.78507643026
 20
-1119.872810960196
 30
0.0
 11
11551.78507643026
 21
-1119.872810960196
 31
0.0
  0
LINE
  5
293
330
25
100
AcDbEntity
  8
1
  6
Continuous
 62
     0
100
AcDbLine
 10
11546.78507643026
 20
-1119.872810960196
 30
0.0
 11
11546.78507643026
 21
-1119.372810960196
 31
0.0
  0
LINE
  5
292
330
25
100
AcDbEntity
  8
1
  6
Continuous
 62
     0
100
AcDbLine
 10
11540.78507643026
 20
-1118.372810960196
 30
0.0
 11
11545.78507643026
 21
-1118.372810960196
 31
0.0
  0
LINE
  5
291
330
25
100
AcDbEntity
  8
1
  6
Continuous
 62
     0
100
AcDbLine
 10
11539.78507643026
 20
-1119.872810960196
 30
0.0
 11
11539.78507643026
 21
-1119.372810960196
 31
0.0
  0
LINE
  5
290
330
25
100
AcDbEntity
  8
1
  6
Continuous
 62
     0
100
AcDbLine
 10
11539.78507643026
 20
-1119.872810960196
 30
0.0
 11
11464.78507643026
 21
-1119.872810960196
 31
0.0
  0
LINE
  5
28F
330
25
100
AcDbEntity
  8
1
  6
Continuous
 62
     0
100
AcDbLine
 10
11459.78507643026
 20
-1061.372810960196
 30
0.0
 11
11459.78507643026
 21
-1114.872810960196
 31
0.0
  0
LINE
  5
28E
330
25
100
AcDbEntity
  8
1
  6
Continuous
 62
     0
100
AcDbLine
 10
11473.28507643026
 20
-1056.372810960196
 30
0.0
 11
11464.78507643026
 21
-1056.372810960196
 31
0.0
  0
LINE
  5
28D
330
25
100
AcDbEntity
  8
1
  6
Continuous
 62
     0
100
AcDbLine
 10
11477.78507643026
 20
-1046.372810960196
 30
0.0
 11
11473.28507643026
 21
-1048.97088717155
 31
0.0
  0
LINE
  5
28C
330
25
100
AcDbEntity
  8
1
  6
Continuous
 62
     0
100
AcDbLine
 10
11521.78507643026
 20
-1046.372810960196
 30
0.0
 11
11477.78507643026
 21
-1046.372810960196
 31
0.0
  0
LINE
  5
28B
330
25
100
AcDbEntity
  8
1
  6
Continuous
 62
     0
100
AcDbLine
 10
11521.78507643026
 20
-1046.372810960196
 30
0.0
 11
11526.28507643026
 21
-1048.97088717155
 31
0.0
  0
LINE
  5
28A
330
25
100
AcDbEntity
  8
1
  6
Continuous
 62
     0
100
AcDbLine
 10
11521.78507643026
 20
-1002.372810960196
 30
0.0
 11
11519.78507643026
 21
-1002.372810960196
 31
0.0
  0
LINE
  5
289
330
25
100
AcDbEntity
  8
1
  6
Continuous
 62
     0
100
AcDbLine
 10
11519.78507643026
 20
-1002.372810960196
 30
0.0
 11
11479.78507643026
 21
-1002.372810960196
 31
0.0
  0
LINE
  5
288
330
25
100
AcDbEntity
  8
1
  6
Continuous
 62
     0
100
AcDbLine
 10
11477.78507643026
 20
-1002.372810960196
 30
0.0
 11
11479.78507643026
 21
-1002.372810960196
 31
0.0
  0
LINE
  5
287
330
25
100
AcDbEntity
  8
1
  6
Continuous
 62
     0
100
AcDbLine
 10
11522.78507643026
 20
-1002.372810960196
 30
0.0
 11
11521.78507643026
 21
-1002.372810960196
 31
0.0
  0
LINE
  5
286
330
25
100
AcDbEntity
  8
1
  6
Continuous
 62
     0
100
AcDbLine
 10
11476.78507643026
 20
-1002.372810960196
 30
0.0
 11
11477.78507643026
 21
-1002.372810960196
 31
0.0
  0
LINE
  5
285
330
25
100
AcDbEntity
  8
1
  6
Continuous
 62
     0
100
AcDbLine
 10
11524.78507643026
 20
-1048.104861767765
 30
0.0
 11
11524.78507643026
 21
-1004.372810960196
 31
0.0
  0
LINE
  5
284
330
25
100
AcDbEntity
  8
1
  6
Continuous
 62
     0
100
AcDbLine
 10
11474.78507643026
 20
-1048.104861767765
 30
0.0
 11
11474.78507643026
 21
-1004.372810960196
 31
0.0
  0
LINE
  5
283
330
25
100
AcDbEntity
  8
1
  6
Continuous
 62
     0
100
AcDbLine
 10
11486.53507643026
 20
-1048.97088717155
 30
0.0
 11
11486.53507643026
 21
-1056.372810960196
 31
0.0
  0
LINE
  5
282
330
25
100
AcDbEntity
  8
1
  6
Continuous
 62
     0
100
AcDbLine
 10
11513.03507643026
 20
-1048.97088717155
 30
0.0
 11
11513.03507643026
 21
-1056.372810960196
 31
0.0
  0
LINE
  5
281
330
25
100
AcDbEntity
  8
1
  6
Continuous
 62
     0
100
AcDbLine
 10
11473.28507643026
 20
-1056.372810960196
 30
0.0
 11
11473.28507643026
 21
-1048.97088717155
 31
0.0
  0
LINE
  5
280
330
25
100
AcDbEntity
  8
1
  6
Continuous
 62
     0
100
AcDbLine
 10
11526.28507643026
 20
-1056.372810960196
 30
0.0
 11
11473.28507643026
 21
-1056.372810960196
 31
0.0
  0
LINE
  5
27F
330
25
100
AcDbEntity
  8
1
  6
Continuous
 62
     0
100
AcDbLine
 10
11526.28507643026
 20
-1048.97088717155
 30
0.0
 11
11526.28507643026
 21
-1056.372810960196
 31
0.0
  0
LINE
  5
27E
330
25
100
AcDbEntity
  8
1
  6
Continuous
 62
     0
100
AcDbLine
 10
11479.78507643026
 20
-998.372810960196
 30
0.0
 11
11479.78507643026
 21
-1000.372810960196
 31
0.0
  0
LINE
  5
27D
330
25
100
AcDbEntity
  8
1
  6
Continuous
 62
     0
100
AcDbLine
 10
11480.78507643026
 20
-997.372810960196
 30
0.0
 11
11518.78507643026
 21
-997.372810960196
 31
0.0
  0
LINE
  5
27C
330
25
100
AcDbEntity
  8
1
  6
Continuous
 62
     0
100
AcDbLine
 10
11519.78507643026
 20
-998.372810960196
 30
0.0
 11
11519.78507643026
 21
-1000.372810960196
 31
0.0
  0
LINE
  5
27B
330
25
100
AcDbEntity
  8
1
  6
Continuous
 62
     0
100
AcDbLine
 10
11490.53507643026
 20
-991.104861767765
 30
0.0
 11
11490.53507643026
 21
-997.372810960196
 31
0.0
  0
LINE
  5
27A
330
25
100
AcDbEntity
  8
1
  6
Continuous
 62
     0
100
AcDbLine
 10
11509.03507643026
 20
-991.104861767765
 30
0.0
 11
11509.03507643026
 21
-997.372810960196
 31
0.0
  0
LINE
  5
279
330
25
100
AcDbEntity
  8
1
  6
Continuous
 62
     0
100
AcDbLine
 10
11484.78507643026
 20
-980.872810960196
 30
0.0
 11
11484.78507643026
 21
-989.372810960196
 31
0.0
  0
LINE
  5
278
330
25
100
AcDbEntity
  8
1
  6
Continuous
 62
     0
100
AcDbLine
 10
11514.78507643026
 20
-980.872810960196
 30
0.0
 11
11514.78507643026
 21
-989.383109834848
 31
0.0
  0
LINE
  5
277
330
25
100
AcDbEntity
  8
1
  6
Continuous
 62
     0
100
AcDbLine
 10
11484.28507643026
 20
-989.372810960196
 30
0.0
 11
11515.28507643026
 21
-989.372810960196
 31
0.0
  0
LINE
  5
276
330
25
100
AcDbEntity
  8
1
  6
Continuous
 62
     0
100
AcDbLine
 10
11481.28507643026
 20
-991.104861767765
 30
0.0
 11
11484.28507643026
 21
-989.372810960196
 31
0.0
  0
LINE
  5
275
330
25
100
AcDbEntity
  8
1
  6
Continuous
 62
     0
100
AcDbLine
 10
11481.28507643026
 20
-997.372810960196
 30
0.0
 11
11481.28507643026
 21
-991.104861767765
 31
0.0
  0
LINE
  5
274
330
25
100
AcDbEntity
  8
1
  6
Continuous
 62
     0
100
AcDbLine
 10
11518.28507643026
 20
-997.372810960196
 30
0.0
 11
11481.28507643026
 21
-997.372810960196
 31
0.0
  0
LINE
  5
273
330
25
100
AcDbEntity
  8
1
  6
Continuous
 62
     0
100
AcDbLine
 10
11518.28507643026
 20
-991.104861767765
 30
0.0
 11
11518.28507643026
 21
-997.372810960196
 31
0.0
  0
LINE
  5
272
330
25
100
AcDbEntity
  8
1
  6
Continuous
 62
     0
100
AcDbLine
 10
11515.28507643026
 20
-989.372810960196
 30
0.0
 11
11518.28507643026
 21
-991.104861767765
 31
0.0
  0
LINE
  5
26F
330
25
100
AcDbEntity
  8
1
  6
Continuous
 62
     0
100
AcDbLine
 10
10936.78563280819
 20
-1247.741537818614
 30
0.0
 11
10919.7080078082
 21
-1247.741537818614
 31
0.0
  0
LINE
  5
26D
330
25
100
AcDbEntity
  8
1
  6
Continuous
 62
     0
100
AcDbLine
 10
10922.2468203082
 20
-1256.741537818614
 30
0.0
 11
10922.2468203082
 21
-1247.741537818614
 31
0.0
  0
LINE
  5
26C
330
25
100
AcDbEntity
  8
1
  6
Continuous
 62
     0
100
AcDbLine
 10
10934.2468203082
 20
-1256.741537818614
 30
0.0
 11
10922.2468203082
 21
-1256.741537818614
 31
0.0
  0
LINE
  5
26B
330
25
100
AcDbEntity
  8
1
  6
Continuous
 62
     0
100
AcDbLine
 10
10934.2468203082
 20
-1247.741537818614
 30
0.0
 11
10934.2468203082
 21
-1256.741537818614
 31
0.0
  0
LINE
  5
26A
330
25
100
AcDbEntity
  8
1
  6
Continuous
 62
     0
100
AcDbLine
 10
10936.57782030819
 20
-1241.091537818614
 30
0.0
 11
10936.78563280819
 21
-1247.741537818614
 31
0.0
  0
LINE
  5
269
330
25
100
AcDbEntity
  8
1
  6
Continuous
 62
     0
100
AcDbLine
 10
10919.91582030819
 20
-1241.091537818614
 30
0.0
 11
10919.7080078082
 21
-1247.741537818614
 31
0.0
  0
LINE
  5
268
330
25
100
AcDbEntity
  8
1
  6
Continuous
 62
     0
100
AcDbLine
 10
10930.17298414635
 20
-1145.239221533331
 30
0.0
 11
10928.2468203082
 21
-1144.081865537185
 31
0.0
  0
LINE
  5
267
330
25
100
AcDbEntity
  8
1
  6
Continuous
 62
     0
100
AcDbLine
 10
10928.2468203082
 20
-1144.081865537185
 30
0.0
 11
10930.21220192116
 21
-1145.17129435481
 31
0.0
  0
LINE
  5
266
330
25
100
AcDbEntity
  8
1
  6
Continuous
 62
     0
100
AcDbLine
 10
10926.28143869523
 20
-1145.17129435481
 30
0.0
 11
10928.2468203082
 21
-1144.081865537185
 31
0.0
  0
LINE
  5
265
330
25
100
AcDbEntity
  8
1
  6
Continuous
 62
     0
100
AcDbLine
 10
10928.2468203082
 20
-1144.081865537185
 30
0.0
 11
10926.32065647003
 21
-1145.239221533331
 31
0.0
  0
LINE
  5
263
330
25
100
AcDbEntity
  8
1
  6
Continuous
 62
     0
100
AcDbLine
 10
10928.2468203082
 20
-1144.081865537185
 30
0.0
 11
10928.20760253339
 21
-1141.835080723416
 31
0.0
  0
LINE
  5
262
330
25
100
AcDbEntity
  8
1
  6
Continuous
 62
     0
100
AcDbLine
 10
10928.286038083
 20
-1141.835080723416
 30
0.0
 11
10928.2468203082
 21
-1144.081865537185
 31
0.0
  0
LINE
  5
25F
330
25
100
AcDbEntity
  8
1
  6
Continuous
 62
     0
100
AcDbLine
 10
10926.92792929548
 20
-1134.805728037918
 30
0.0
 11
10907.06320793409
 21
-1152.477600078333
 31
0.0
  0
LINE
  5
25E
330
25
100
AcDbEntity
  8
1
  6
Continuous
 62
     0
100
AcDbLine
 10
10924.88517637206
 20
-1132.76297511449
 30
0.0
 11
10906.85917342216
 21
-1152.273565566394
 31
0.0
  0
LINE
  5
25D
330
25
100
AcDbEntity
  8
1
  6
Continuous
 62
     0
100
AcDbLine
 10
10948.46682048734
 20
-1151.664901699483
 30
0.0
 11
10952.60823120437
 21
-1155.806312416516
 31
0.0
  0
LINE
  5
25C
330
25
100
AcDbEntity
  8
1
  6
Continuous
 62
     0
100
AcDbLine
 10
10907.85283902787
 20
-1151.483934472614
 30
0.0
 11
10903.71221851029
 21
-1155.624554990191
 31
0.0
  0
LINE
  5
25B
330
25
100
AcDbEntity
  8
1
  6
Continuous
 62
     0
100
AcDbLine
 10
10925.5468203082
 20
-1092.455949115163
 30
0.0
 11
10925.5468203082
 21
-1091.16553744471
 31
0.0
  0
LINE
  5
25A
330
25
100
AcDbEntity
  8
1
  6
Continuous
 62
     0
100
AcDbLine
 10
10925.5468203082
 20
-1091.16553744471
 30
0.0
 11
10930.94682030819
 21
-1091.16553744471
 31
0.0
  0
LINE
  5
259
330
25
100
AcDbEntity
  8
1
  6
Continuous
 62
     0
100
AcDbLine
 10
10930.94682030819
 20
-1091.16553744471
 30
0.0
 11
10930.94682030819
 21
-1092.462110708041
 31
0.0
  0
LINE
  5
258
330
25
100
AcDbEntity
  8
1
  6
Continuous
 62
     0
100
AcDbLine
 10
10894.71457567565
 20
-1153.921626020531
 30
0.0
 11
10892.01457567566
 21
-1149.245088840097
 31
0.0
  0
LINE
  5
257
330
25
100
AcDbEntity
  8
1
  6
Continuous
 62
     0
100
AcDbLine
 10
10964.4351933496
 20
-1149.219759565146
 30
0.0
 11
10961.7351933496
 21
-1153.896296745582
 31
0.0
  0
LINE
  5
256
330
25
100
AcDbEntity
  8
1
  6
Continuous
 62
     0
100
AcDbLine
 10
10894.71457567565
 20
-1153.921626020531
 30
0.0
 11
10895.84883443604
 21
-1153.266761419892
 31
0.0
  0
LINE
  5
255
330
25
100
AcDbEntity
  8
1
  6
Continuous
 62
     0
100
AcDbLine
 10
10964.4351933496
 20
-1149.219759565146
 30
0.0
 11
10963.30896301926
 21
-1148.569530180752
 31
0.0
  0
LINE
  5
254
330
25
100
AcDbEntity
  8
1
  6
Continuous
 62
     0
100
AcDbLine
 10
10892.01457567566
 20
-1149.245088840097
 30
0.0
 11
10893.14262209211
 21
-1148.5938109379
 31
0.0
  0
LINE
  5
253
330
25
100
AcDbEntity
  8
1
  6
Continuous
 62
     0
100
AcDbLine
 10
10961.7351933496
 20
-1153.896296745582
 30
0.0
 11
10960.61232796569
 21
-1153.248010113917
 31
0.0
  0
LINE
  5
250
330
25
100
AcDbEntity
  8
1
  6
Continuous
 62
     0
100
AcDbLine
 10
10919.23894898084
 20
-1171.444084101779
 30
0.0
 11
10921.2468203082
 21
-1171.444084101779
 31
0.0
  0
LINE
  5
24F
330
25
100
AcDbEntity
  8
1
  6
Continuous
 62
     0
100
AcDbLine
 10
10919.2468203082
 20
-1169.412563693001
 30
0.0
 11
10919.2468203082
 21
-1171.444084101779
 31
0.0
  0
LINE
  5
24E
330
25
100
AcDbEntity
  8
1
  6
Continuous
 62
     0
100
AcDbLine
 10
10937.2468203082
 20
-1169.412563693001
 30
0.0
 11
10937.2468203082
 21
-1171.444084101779
 31
0.0
  0
LINE
  5
24D
330
25
100
AcDbEntity
  8
1
  6
Continuous
 62
     0
100
AcDbLine
 10
10935.2468203082
 20
-1171.444084101779
 30
0.0
 11
10937.2468203082
 21
-1171.444084101779
 31
0.0
  0
LINE
  5
24C
330
25
100
AcDbEntity
  8
1
  6
Continuous
 62
     0
100
AcDbLine
 10
10921.2468203082
 20
-1171.444084101779
 30
0.0
 11
10921.2468203082
 21
-1183.444084101779
 31
0.0
  0
LINE
  5
24B
330
25
100
AcDbEntity
  8
1
  6
Continuous
 62
     0
100
AcDbLine
 10
10935.2468203082
 20
-1171.444084101779
 30
0.0
 11
10935.2468203082
 21
-1183.444084101779
 31
0.0
  0
LINE
  5
24A
330
25
100
AcDbEntity
  8
1
  6
Continuous
 62
     0
100
AcDbLine
 10
10936.94188280819
 20
-1183.444084101779
 30
0.0
 11
10936.89682030819
 21
-1184.886084101779
 31
0.0
  0
LINE
  5
249
330
25
100
AcDbEntity
  8
1
  6
Continuous
 62
     0
100
AcDbLine
 10
10919.5517578082
 20
-1183.444084101779
 30
0.0
 11
10936.94188280819
 21
-1183.444084101779
 31
0.0
  0
LINE
  5
248
330
25
100
AcDbEntity
  8
1
  6
Continuous
 62
     0
100
AcDbLine
 10
10919.5517578082
 20
-1183.444084101779
 30
0.0
 11
10919.59682030819
 21
-1184.886084101779
 31
0.0
  0
LINE
  5
247
330
25
100
AcDbEntity
  8
1
  6
Continuous
 62
     0
100
AcDbLine
 10
10919.7166453082
 20
-1188.720484101779
 30
0.0
 11
10928.2468203082
 21
-1188.720484101779
 31
0.0
  0
LINE
  5
246
330
25
100
AcDbEntity
  8
1
  6
Continuous
 62
     0
100
AcDbLine
 10
10920.6561953082
 20
-1191.394084101779
 30
0.0
 11
10928.2468203082
 21
-1191.394084101779
 31
0.0
  0
LINE
  5
245
330
25
100
AcDbEntity
  8
1
  6
Continuous
 62
     0
100
AcDbLine
 10
10936.57782030819
 20
-1195.094084101779
 30
0.0
 11
10936.7769953082
 21
-1188.720484101779
 31
0.0
  0
LINE
  5
244
330
25
100
AcDbEntity
  8
1
  6
Continuous
 62
     0
100
AcDbLine
 10
10935.72182030819
 20
-1195.094084101779
 30
0.0
 11
10935.8374453082
 21
-1191.394084101779
 31
0.0
  0
LINE
  5
243
330
25
100
AcDbEntity
  8
1
  6
Continuous
 62
     0
100
AcDbLine
 10
10920.77182030819
 20
-1195.094084101779
 30
0.0
 11
10920.6561953082
 21
-1191.394084101779
 31
0.0
  0
LINE
  5
242
330
25
100
AcDbEntity
  8
1
  6
Continuous
 62
     0
100
AcDbLine
 10
10919.91582030819
 20
-1195.094084101779
 30
0.0
 11
10919.7166453082
 21
-1188.720484101779
 31
0.0
  0
LINE
  5
241
330
25
100
AcDbEntity
  8
1
  6
Continuous
 62
     0
100
AcDbLine
 10
10920.6561953082
 20
-1191.394084101779
 30
0.0
 11
10919.7166453082
 21
-1188.720484101779
 31
0.0
  0
LINE
  5
240
330
25
100
AcDbEntity
  8
1
  6
Continuous
 62
     0
100
AcDbLine
 10
10919.7166453082
 20
-1188.720484101779
 30
0.0
 11
10919.59682030819
 21
-1184.886084101779
 31
0.0
  0
LINE
  5
23F
330
25
100
AcDbEntity
  8
1
  6
Continuous
 62
     0
100
AcDbLine
 10
10936.7769953082
 20
-1188.720484101779
 30
0.0
 11
10936.89682030819
 21
-1184.886084101779
 31
0.0
  0
LINE
  5
23E
330
25
100
AcDbEntity
  8
1
  6
Continuous
 62
     0
100
AcDbLine
 10
10936.7769953082
 20
-1188.720484101779
 30
0.0
 11
10935.8374453082
 21
-1191.394084101779
 31
0.0
  0
LINE
  5
23D
330
25
100
AcDbEntity
  8
1
  6
Continuous
 62
     0
100
AcDbLine
 10
10928.2468203082
 20
-1191.394084101779
 30
0.0
 11
10935.8374453082
 21
-1191.394084101779
 31
0.0
  0
LINE
  5
23C
330
25
100
AcDbEntity
  8
1
  6
Continuous
 62
     0
100
AcDbLine
 10
10928.2468203082
 20
-1188.720484101779
 30
0.0
 11
10936.7769953082
 21
-1188.720484101779
 31
0.0
  0
LINE
  5
23B
330
25
100
AcDbEntity
  8
1
  6
Continuous
 62
     0
100
AcDbLine
 10
13699.77152418465
 20
-2275.863177729596
 30
0.0
 11
13699.77152418465
 21
-2270.682444190801
 31
0.0
  0
LINE
  5
23A
330
25
100
AcDbEntity
  8
1
  6
Continuous
 62
     0
100
AcDbLine
 10
13694.77152418465
 20
-2275.863177729596
 30
0.0
 11
13694.77152418465
 21
-2270.682444190801
 31
0.0
  0
LINE
  5
239
330
25
100
AcDbEntity
  8
1
  6
Continuous
 62
     0
100
AcDbLine
 10
13704.77152418465
 20
-2273.272810960197
 30
0.0
 11
13708.37152418465
 21
-2273.272810960197
 31
0.0
  0
LINE
  5
238
330
25
100
AcDbEntity
  8
1
  6
Continuous
 62
     0
100
AcDbLine
 10
13697.27152418465
 20
-2265.772810960197
 30
0.0
 11
13689.04976432095
 21
-2265.772810960197
 31
0.0
  0
LINE
  5
237
330
25
100
AcDbEntity
  8
1
  6
Continuous
 62
     0
100
AcDbLine
 10
13688.52152418465
 20
-2261.272810960196
 30
0.0
 11
13688.52152418465
 21
-2263.658368698682
 31
0.0
  0
LINE
  5
236
330
25
100
AcDbEntity
  8
1
  6
Continuous
 62
     0
100
AcDbLine
 10
13690.52152418465
 20
-2259.272810960196
 30
0.0
 11
13691.52152418465
 21
-2259.272810960196
 31
0.0
  0
LINE
  5
233
330
25
100
AcDbEntity
  8
1
  6
Continuous
 62
     0
100
AcDbLine
 10
13690.34332095438
 20
-2273.272810960197
 30
0.0
 11
13693.80742256952
 21
-2279.272810960197
 31
0.0
  0
LINE
  5
232
330
25
100
AcDbEntity
  8
1
  6
Continuous
 62
     0
100
AcDbLine
 10
13693.80742256952
 20
-2267.272810960197
 30
0.0
 11
13690.34332095438
 21
-2273.272810960197
 31
0.0
  0
LINE
  5
231
330
25
100
AcDbEntity
  8
1
  6
Continuous
 62
     0
100
AcDbLine
 10
13700.73562579979
 20
-2267.272810960197
 30
0.0
 11
13693.80742256952
 21
-2267.272810960197
 31
0.0
  0
LINE
  5
230
330
25
100
AcDbEntity
  8
1
  6
Continuous
 62
     0
100
AcDbLine
 10
13704.19972741493
 20
-2273.272810960197
 30
0.0
 11
13700.73562579979
 21
-2267.272810960197
 31
0.0
  0
LINE
  5
22F
330
25
100
AcDbEntity
  8
1
  6
Continuous
 62
     0
100
AcDbLine
 10
13700.73562579979
 20
-2279.272810960197
 30
0.0
 11
13704.19972741493
 21
-2273.272810960197
 31
0.0
  0
LINE
  5
22E
330
25
100
AcDbEntity
  8
1
  6
Continuous
 62
     0
100
AcDbLine
 10
13693.80742256952
 20
-2279.272810960197
 30
0.0
 11
13700.73562579979
 21
-2279.272810960197
 31
0.0
  0
LINE
  5
22D
330
25
100
AcDbEntity
  8
1
  6
Continuous
 62
     0
100
AcDbLine
 10
13704.03046850525
 20
-2302.272810960196
 30
0.0
 11
13684.77152418465
 21
-2302.272810960196
 31
0.0
  0
LINE
  5
22C
330
25
100
AcDbEntity
  8
1
  6
Continuous
 62
     0
100
AcDbLine
 10
13703.02152418465
 20
-2245.772810960196
 30
0.0
 11
13709.77152418465
 21
-2245.772810960197
 31
0.0
  0
LINE
  5
22B
330
25
100
AcDbEntity
  8
1
  6
Continuous
 62
     0
100
AcDbLine
 10
13685.77152418465
 20
-2266.322810960197
 30
0.0
 11
13686.28598679597
 21
-2266.322810960197
 31
0.0
  0
LINE
  5
22A
330
25
100
AcDbEntity
  8
1
  6
Continuous
 62
     0
100
AcDbLine
 10
13667.27152418465
 20
-2267.522810960197
 30
0.0
 11
13684.4287246456
 21
-2267.522810960197
 31
0.0
  0
LINE
  5
229
330
25
100
AcDbEntity
  8
1
  6
Continuous
 62
     0
100
AcDbLine
 10
13684.4287246456
 20
-2279.022810960197
 30
0.0
 11
13667.27152418465
 21
-2279.022810960197
 31
0.0
  0
LINE
  5
228
330
25
100
AcDbEntity
  8
1
  6
Continuous
 62
     0
100
AcDbLine
 10
13727.27152418465
 20
-2279.022810960197
 30
0.0
 11
13710.11432372369
 21
-2279.022810960197
 31
0.0
  0
LINE
  5
227
330
25
100
AcDbEntity
  8
1
  6
Continuous
 62
     0
100
AcDbLine
 10
13727.27152418465
 20
-2267.522810960197
 30
0.0
 11
13710.11432372369
 21
-2267.522810960197
 31
0.0
  0
LINE
  5
226
330
25
100
AcDbEntity
  8
1
  6
Continuous
 62
     0
100
AcDbLine
 10
13685.77152418465
 20
-2267.210633133706
 30
0.0
 11
13685.77152418465
 21
-2266.322810960197
 31
0.0
  0
LINE
  5
225
330
25
100
AcDbEntity
  8
1
  6
Continuous
 62
     0
100
AcDbLine
 10
13708.25776558015
 20
-2266.322810960197
 30
0.0
 11
13708.77152418465
 21
-2266.322810960197
 31
0.0
  0
LINE
  5
224
330
25
100
AcDbEntity
  8
1
  6
Continuous
 62
     0
100
AcDbLine
 10
13708.77152418465
 20
-2267.210633133706
 30
0.0
 11
13708.77152418465
 21
-2266.322810960197
 31
0.0
  0
LINE
  5
223
330
25
100
AcDbEntity
  8
1
  6
Continuous
 62
     0
100
AcDbLine
 10
13709.36145045072
 20
-2278.051271264627
 30
0.0
 11
13709.9052809144
 21
-2278.722810960196
 31
0.0
  0
LINE
  5
222
330
25
100
AcDbEntity
  8
1
  6
Continuous
 62
     0
100
AcDbLine
 10
13667.27152418465
 20
-2267.522810960197
 30
0.0
 11
13667.27152418465
 21
-2279.022810960197
 31
0.0
  0
LINE
  5
221
330
25
100
AcDbEntity
  8
1
  6
Continuous
 62
     0
100
AcDbLine
 10
13727.27152418465
 20
-2267.522810960197
 30
0.0
 11
13727.27152418465
 21
-2279.022810960197
 31
0.0
  0
LINE
  5
220
330
25
100
AcDbEntity
  8
1
  6
Continuous
 62
     0
100
AcDbLine
 10
13684.63776745491
 20
-2278.722810960196
 30
0.0
 11
13684.63776745491
 21
-2292.350035444122
 31
0.0
  0
LINE
  5
21F
330
25
100
AcDbEntity
  8
1
  6
Continuous
 62
     0
100
AcDbLine
 10
13709.9052809144
 20
-2264.922810960196
 30
0.0
 11
13709.9052809144
 21
-2255.695586476276
 31
0.0
  0
LINE
  5
21E
330
25
100
AcDbEntity
  8
1
  6
Continuous
 62
     0
100
AcDbLine
 10
13708.77152418465
 20
-2266.322810960197
 30
0.0
 11
13709.9052809144
 21
-2264.922810960196
 31
0.0
  0
LINE
  5
21D
330
25
100
AcDbEntity
  8
1
  6
Continuous
 62
     0
100
AcDbLine
 10
13684.63776745491
 20
-2278.722810960196
 30
0.0
 11
13685.18159791858
 21
-2278.051271264624
 31
0.0
  0
LINE
  5
21C
330
25
100
AcDbEntity
  8
1
  6
Continuous
 62
     0
100
AcDbLine
 10
13684.63776745491
 20
-2264.922810960196
 30
0.0
 11
13685.77152418465
 21
-2266.322810960197
 31
0.0
  0
LINE
  5
21B
330
25
100
AcDbEntity
  8
1
  6
Continuous
 62
     0
100
AcDbLine
 10
13709.9052809144
 20
-2292.350035444122
 30
0.0
 11
13709.9052809144
 21
-2278.722810960196
 31
0.0
  0
LINE
  5
21A
330
25
100
AcDbEntity
  8
1
  6
Continuous
 62
     0
100
AcDbLine
 10
13684.63776745491
 20
-2255.695586476273
 30
0.0
 11
13684.63776745491
 21
-2264.922810960196
 31
0.0
  0
LINE
  5
219
330
25
100
AcDbEntity
  8
1
  6
Continuous
 62
     0
100
AcDbLine
 10
13709.9052809144
 20
-2292.350035444122
 30
0.0
 11
13711.7052809144
 21
-2293.389265928662
 31
0.0
  0
LINE
  5
218
330
25
100
AcDbEntity
  8
1
  6
Continuous
 62
     0
100
AcDbLine
 10
13682.83776745491
 20
-2293.389265928662
 30
0.0
 11
13684.63776745491
 21
-2292.350035444122
 31
0.0
  0
LINE
  5
217
330
25
100
AcDbEntity
  8
1
  6
Continuous
 62
     0
100
AcDbLine
 10
13684.63776745491
 20
-2255.695586476273
 30
0.0
 11
13682.83776745491
 21
-2254.656355991736
 31
0.0
  0
LINE
  5
216
330
25
100
AcDbEntity
  8
1
  6
Continuous
 62
     0
100
AcDbLine
 10
13711.7052809144
 20
-2254.656355991736
 30
0.0
 11
13709.9052809144
 21
-2255.695586476276
 31
0.0
  0
LINE
  5
215
330
25
100
AcDbEntity
  8
1
  6
Continuous
 62
     0
100
AcDbLine
 10
13690.05464581978
 20
-2246.889265928659
 30
0.0
 11
13690.05464581978
 21
-2259.328068151386
 31
0.0
  0
LINE
  5
214
330
25
100
AcDbEntity
  8
1
  6
Continuous
 62
     0
100
AcDbLine
 10
13704.48840254953
 20
-2246.889265928659
 30
0.0
 11
13704.48840254953
 21
-2262.460009904658
 31
0.0
  0
LINE
  5
213
330
25
100
AcDbEntity
  8
1
  6
Continuous
 62
     0
100
AcDbLine
 10
13682.83776745491
 20
-2246.889265928659
 30
0.0
 11
13682.83776745491
 21
-2254.656355991736
 31
0.0
  0
LINE
  5
212
330
25
100
AcDbEntity
  8
1
  6
Continuous
 62
     0
100
AcDbLine
 10
13684.77152418465
 20
-2245.772810960196
 30
0.0
 11
13703.61768950724
 21
-2245.772810960196
 31
0.0
  0
LINE
  5
211
330
25
100
AcDbEntity
  8
1
  6
Continuous
 62
     0
100
AcDbLine
 10
13711.7052809144
 20
-2246.889265928659
 30
0.0
 11
13711.7052809144
 21
-2254.656355991736
 31
0.0
  0
LINE
  5
210
330
25
100
AcDbEntity
  8
1
  6
Continuous
 62
     0
100
AcDbLine
 10
13682.83776745491
 20
-2246.889265928659
 30
0.0
 11
13684.77152418465
 21
-2245.772810960196
 31
0.0
  0
LINE
  5
20F
330
25
100
AcDbEntity
  8
1
  6
Continuous
 62
     0
100
AcDbLine
 10
13709.77152418465
 20
-2245.772810960197
 30
0.0
 11
13711.7052809144
 21
-2246.889265928659
 31
0.0
  0
LINE
  5
20E
330
25
100
AcDbEntity
  8
1
  6
Continuous
 62
     0
100
AcDbLine
 10
13690.05464581978
 20
-2301.156355991733
 30
0.0
 11
13690.05464581978
 21
-2284.085612015737
 31
0.0
  0
LINE
  5
20D
330
25
100
AcDbEntity
  8
1
  6
Continuous
 62
     0
100
AcDbLine
 10
13704.48840254953
 20
-2301.156355991733
 30
0.0
 11
13704.48840254953
 21
-2284.085612015737
 31
0.0
  0
LINE
  5
20C
330
25
100
AcDbEntity
  8
1
  6
Continuous
 62
     0
100
AcDbLine
 10
13682.83776745491
 20
-2301.156355991733
 30
0.0
 11
13682.83776745491
 21
-2293.389265928662
 31
0.0
  0
LINE
  5
20B
330
25
100
AcDbEntity
  8
1
  6
Continuous
 62
     0
100
AcDbLine
 10
13709.77152418465
 20
-2302.272810960196
 30
0.0
 11
13703.02152418465
 21
-2302.272810960196
 31
0.0
  0
LINE
  5
20A
330
25
100
AcDbEntity
  8
1
  6
Continuous
 62
     0
100
AcDbLine
 10
13711.7052809144
 20
-2301.156355991733
 30
0.0
 11
13711.7052809144
 21
-2293.389265928662
 31
0.0
  0
LINE
  5
209
330
25
100
AcDbEntity
  8
1
  6
Continuous
 62
     0
100
AcDbLine
 10
13684.77152418465
 20
-2302.272810960196
 30
0.0
 11
13682.83776745491
 21
-2301.156355991733
 31
0.0
  0
LINE
  5
208
330
25
100
AcDbEntity
  8
1
  6
Continuous
 62
     0
100
AcDbLine
 10
13711.7052809144
 20
-2301.156355991733
 30
0.0
 11
13709.77152418465
 21
-2302.272810960196
 31
0.0
  0
LINE
  5
207
330
25
100
AcDbEntity
  8
1
  6
Continuous
 62
     0
100
AcDbLine
 10
13684.07152418465
 20
-2228.092810960196
 30
0.0
 11
13710.47152418465
 21
-2228.092810960196
 31
0.0
  0
LINE
  5
206
330
25
100
AcDbEntity
  8
1
  6
Continuous
 62
     0
100
AcDbLine
 10
13686.79402418465
 20
-2245.772810960197
 30
0.0
 11
13686.42152418464
 21
-2238.432810960197
 31
0.0
  0
LINE
  5
205
330
25
100
AcDbEntity
  8
1
  6
Continuous
 62
     0
100
AcDbLine
 10
13707.74902418465
 20
-2245.772810960197
 30
0.0
 11
13708.12152418464
 21
-2238.432810960197
 31
0.0
  0
LINE
  5
204
330
25
100
AcDbEntity
  8
1
  6
Continuous
 62
     0
100
AcDbLine
 10
13708.12152418464
 20
-2235.432810960197
 30
0.0
 11
13707.74902418465
 21
-2228.092810960196
 31
0.0
  0
LINE
  5
203
330
25
100
AcDbEntity
  8
1
  6
Continuous
 62
     0
100
AcDbLine
 10
13686.42152418464
 20
-2235.432810960197
 30
0.0
 11
13686.79402418465
 21
-2228.092810960196
 31
0.0
  0
LINE
  5
202
330
25
100
AcDbEntity
  8
1
  6
Continuous
 62
     0
100
AcDbLine
 10
13686.42152418464
 20
-2235.432810960197
 30
0.0
 11
13686.42152418464
 21
-2238.432810960197
 31
0.0
  0
LINE
  5
201
330
25
100
AcDbEntity
  8
1
  6
Continuous
 62
     0
100
AcDbLine
 10
13708.12152418464
 20
-2238.432810960197
 30
0.0
 11
13686.42152418464
 21
-2238.432810960197
 31
0.0
  0
LINE
  5
200
330
25
100
AcDbEntity
  8
1
  6
Continuous
 62
     0
100
AcDbLine
 10
13686.42152418464
 20
-2235.432810960197
 30
0.0
 11
13708.12152418464
 21
-2235.432810960197
 31
0.0
  0
LINE
  5
1FF
330
25
100
AcDbEntity
  8
1
  6
Continuous
 62
     0
100
AcDbLine
 10
13708.12152418464
 20
-2235.432810960197
 30
0.0
 11
13708.12152418464
 21
-2238.432810960197
 31
0.0
  0
LINE
  5
1FE
330
25
100
AcDbEntity
  8
1
  6
Continuous
 62
     0
100
AcDbLine
 10
13684.77152418465
 20
-2245.772810960196
 30
0.0
 11
13709.77152418465
 21
-2245.772810960197
 31
0.0
  0
LINE
  5
1FD
330
25
100
AcDbEntity
  8
1
  6
Continuous
 62
     0
100
AcDbLine
 10
13697.27152418465
 20
-2255.073022658406
 30
0.0
 11
13697.27152418465
 21
-2246.889265928658
 31
0.0
  0
LINE
  5
1FB
330
25
100
AcDbEntity
  8
1
  6
Continuous
 62
     0
100
AcDbLine
 10
11512.28507643026
 20
-2264.272810960196
 30
0.0
 11
11513.88507643026
 21
-2264.272810960196
 31
0.0
  0
LINE
  5
1FA
330
25
100
AcDbEntity
  8
1
  6
Continuous
 62
     0
100
AcDbLine
 10
11512.28507643026
 20
-2259.272810960196
 30
0.0
 11
11517.38507643026
 21
-2259.272810960196
 31
0.0
  0
LINE
  5
1F9
330
25
100
AcDbEntity
  8
1
  6
Continuous
 62
     0
100
AcDbLine
 10
11517.38507643026
 20
-2259.272810960196
 30
0.0
 11
11517.38507643026
 21
-2260.372810960198
 31
0.0
  0
LINE
  5
1F7
330
25
100
AcDbEntity
  8
1
  6
Continuous
 62
     0
100
AcDbLine
 10
11499.78507643026
 20
-2292.972599261988
 30
0.0
 11
11499.78507643026
 21
-2301.156355991735
 31
0.0
  0
LINE
  5
1F6
330
25
100
AcDbEntity
  8
1
  6
Continuous
 62
     0
100
AcDbLine
 10
11499.78507643026
 20
-2246.889265928658
 30
0.0
 11
11499.78507643026
 21
-2255.073022658406
 31
0.0
  0
LINE
  5
1F4
330
25
100
AcDbEntity
  8
1
  6
Continuous
 62
     0
100
AcDbLine
 10
11513.88507643026
 20
-2260.372810960198
 30
0.0
 11
11513.88507643026
 21
-2263.272810960197
 31
0.0
  0
LINE
  5
1F3
330
25
100
AcDbEntity
  8
1
  6
Continuous
 62
     0
100
AcDbLine
 10
11513.88507643026
 20
-2285.672810960196
 30
0.0
 11
11513.88507643026
 21
-2263.272810960197
 31
0.0
  0
LINE
  5
1F2
330
25
100
AcDbEntity
  8
1
  6
Continuous
 62
     0
100
AcDbLine
 10
11518.08507643026
 20
-2284.772810960197
 30
0.0
 11
11518.08507643026
 21
-2261.772810960197
 31
0.0
  0
LINE
  5
1F1
330
25
100
AcDbEntity
  8
1
  6
Continuous
 62
     0
100
AcDbLine
 10
11530.78507643026
 20
-2243.272810960197
 30
0.0
 11
11530.78507643026
 21
-2261.68618073394
 31
0.0
  0
LINE
  5
1F0
330
25
100
AcDbEntity
  8
1
  6
Continuous
 62
     0
100
AcDbLine
 10
11512.28507643026
 20
-2302.272810960195
 30
0.0
 11
11512.28507643026
 21
-2245.772810960197
 31
0.0
  0
LINE
  5
1EF
330
25
100
AcDbEntity
  8
1
  6
Continuous
 62
     0
100
AcDbLine
 10
11487.28507643026
 20
-2245.772810960196
 30
0.0
 11
11512.28507643026
 21
-2245.772810960197
 31
0.0
  0
LINE
  5
1EE
330
25
100
AcDbEntity
  8
1
  6
Continuous
 62
     0
100
AcDbLine
 10
11487.28507643026
 20
-2302.272810960196
 30
0.0
 11
11487.28507643026
 21
-2245.772810960196
 31
0.0
  0
LINE
  5
1ED
330
25
100
AcDbEntity
  8
1
  6
Continuous
 62
     0
100
AcDbLine
 10
11512.28507643026
 20
-2302.272810960195
 30
0.0
 11
11487.28507643026
 21
-2302.272810960196
 31
0.0
  0
LINE
  5
1EC
330
25
100
AcDbEntity
  8
1
  6
Continuous
 62
     0
100
AcDbLine
 10
11522.78507643026
 20
-2243.272810960197
 30
0.0
 11
11530.78507643026
 21
-2243.272810960197
 31
0.0
  0
LINE
  5
1EB
330
25
100
AcDbEntity
  8
1
  6
Continuous
 62
     0
100
AcDbLine
 10
11518.08507643026
 20
-2261.772810960197
 30
0.0
 11
11522.78507643026
 21
-2243.272810960197
 31
0.0
  0
LINE
  5
1EA
330
25
100
AcDbEntity
  8
1
  6
Continuous
 62
     0
100
AcDbLine
 10
11513.88507643026
 20
-2260.372810960198
 30
0.0
 11
11518.44075210594
 21
-2260.372810960198
 31
0.0
  0
LINE
  5
1E9
330
25
100
AcDbEntity
  8
1
  6
Continuous
 62
     0
100
AcDbLine
 10
11513.88507643026
 20
-2260.872810960198
 30
0.0
 11
11518.31372507891
 21
-2260.872810960198
 31
0.0
  0
LINE
  5
1E8
330
25
100
AcDbEntity
  8
1
  6
Continuous
 62
     0
100
AcDbLine
 10
11530.78507643026
 20
-2284.859441186455
 30
0.0
 11
11530.78507643026
 21
-2303.272810960197
 31
0.0
  0
LINE
  5
1E7
330
25
100
AcDbEntity
  8
1
  6
Continuous
 62
     0
100
AcDbLine
 10
11522.78507643026
 20
-2303.272810960197
 30
0.0
 11
11530.78507643026
 21
-2303.272810960197
 31
0.0
  0
LINE
  5
1E6
330
25
100
AcDbEntity
  8
1
  6
Continuous
 62
     0
100
AcDbLine
 10
11522.78507643026
 20
-2303.272810960197
 30
0.0
 11
11518.08507643026
 21
-2284.772810960197
 31
0.0
  0
LINE
  5
1E5
330
25
100
AcDbEntity
  8
1
  6
Continuous
 62
     0
100
AcDbLine
 10
11518.31372507891
 20
-2285.672810960196
 30
0.0
 11
11513.88507643026
 21
-2285.672810960196
 31
0.0
  0
LINE
  5
1E4
330
25
100
AcDbEntity
  8
1
  6
Continuous
 62
     0
100
AcDbLine
 10
11512.28507643026
 20
-2266.772810960197
 30
0.0
 11
11513.88507643026
 21
-2266.772810960197
 31
0.0
  0
LINE
  5
1E3
330
25
100
AcDbEntity
  8
1
  6
Continuous
 62
     0
100
AcDbLine
 10
11512.28507643026
 20
-2279.772810960197
 30
0.0
 11
11513.88507643026
 21
-2279.772810960197
 31
0.0
  0
LINE
  5
1E2
330
25
100
AcDbEntity
  8
1
  6
Continuous
 62
     0
100
AcDbLine
 10
11510.68507643026
 20
-2255.58031187841
 30
0.0
 11
11510.68507643026
 21
-2267.772810960196
 31
0.0
  0
LINE
  5
1E1
330
25
100
AcDbEntity
  8
1
  6
Continuous
 62
     0
100
AcDbLine
 10
11510.68507643026
 20
-2292.465310041985
 30
0.0
 11
11510.68507643026
 21
-2278.272810960196
 31
0.0
  0
LINE
  5
1E0
330
25
100
AcDbEntity
  8
1
  6
Continuous
 62
     0
100
AcDbLine
 10
11487.28507643026
 20
-2264.922810960196
 30
0.0
 11
11488.41883316
 21
-2266.322810960197
 31
0.0
  0
LINE
  5
1DF
330
25
100
AcDbEntity
  8
1
  6
Continuous
 62
     0
100
AcDbLine
 10
11487.28507643026
 20
-2278.722810960196
 30
0.0
 11
11488.41883316
 21
-2277.322810960197
 31
0.0
  0
LINE
  5
1DE
330
25
100
AcDbEntity
  8
1
  6
Continuous
 62
     0
100
AcDbLine
 10
11488.41883316
 20
-2266.322810960197
 30
0.0
 11
11488.41883316
 21
-2277.322810960197
 31
0.0
  0
LINE
  5
1DD
330
25
100
AcDbEntity
  8
1
  6
Continuous
 62
     0
100
AcDbLine
 10
11510.68507643026
 20
-2264.922810960196
 30
0.0
 11
11509.68507643026
 21
-2266.322810960197
 31
0.0
  0
LINE
  5
1DC
330
25
100
AcDbEntity
  8
1
  6
Continuous
 62
     0
100
AcDbLine
 10
11510.68507643026
 20
-2278.722810960196
 30
0.0
 11
11509.68507643026
 21
-2277.322810960197
 31
0.0
  0
LINE
  5
1DB
330
25
100
AcDbEntity
  8
1
  6
Continuous
 62
     0
100
AcDbLine
 10
11488.41883316
 20
-2266.322810960197
 30
0.0
 11
11509.68507643026
 21
-2266.322810960197
 31
0.0
  0
LINE
  5
1DA
330
25
100
AcDbEntity
  8
1
  6
Continuous
 62
     0
100
AcDbLine
 10
11488.41883316
 20
-2277.322810960197
 30
0.0
 11
11509.68507643026
 21
-2277.322810960197
 31
0.0
  0
LINE
  5
1D9
330
25
100
AcDbEntity
  8
1
  6
Continuous
 62
     0
100
AcDbLine
 10
11510.63507643026
 20
-2235.432810960197
 30
0.0
 11
11510.63507643026
 21
-2238.432810960197
 31
0.0
  0
LINE
  5
1D8
330
25
100
AcDbEntity
  8
1
  6
Continuous
 62
     0
100
AcDbLine
 10
11488.93507643026
 20
-2235.432810960197
 30
0.0
 11
11510.63507643026
 21
-2235.432810960197
 31
0.0
  0
LINE
  5
1D7
330
25
100
AcDbEntity
  8
1
  6
Continuous
 62
     0
100
AcDbLine
 10
11510.63507643026
 20
-2238.432810960197
 30
0.0
 11
11488.93507643026
 21
-2238.432810960197
 31
0.0
  0
LINE
  5
1D6
330
25
100
AcDbEntity
  8
1
  6
Continuous
 62
     0
100
AcDbLine
 10
11488.93507643026
 20
-2235.432810960197
 30
0.0
 11
11488.93507643026
 21
-2238.432810960197
 31
0.0
  0
LINE
  5
1D5
330
25
100
AcDbEntity
  8
1
  6
Continuous
 62
     0
100
AcDbLine
 10
11488.93507643026
 20
-2235.432810960197
 30
0.0
 11
11489.30757643026
 21
-2228.092810960196
 31
0.0
  0
LINE
  5
1D4
330
25
100
AcDbEntity
  8
1
  6
Continuous
 62
     0
100
AcDbLine
 10
11510.63507643026
 20
-2235.432810960197
 30
0.0
 11
11510.26257643026
 21
-2228.092810960196
 31
0.0
  0
LINE
  5
1D3
330
25
100
AcDbEntity
  8
1
  6
Continuous
 62
     0
100
AcDbLine
 10
11510.26257643026
 20
-2245.772810960197
 30
0.0
 11
11510.63507643026
 21
-2238.432810960197
 31
0.0
  0
LINE
  5
1D2
330
25
100
AcDbEntity
  8
1
  6
Continuous
 62
     0
100
AcDbLine
 10
11489.30757643026
 20
-2245.772810960197
 30
0.0
 11
11488.93507643026
 21
-2238.432810960197
 31
0.0
  0
LINE
  5
1D1
330
25
100
AcDbEntity
  8
1
  6
Continuous
 62
     0
100
AcDbLine
 10
14187.19972741492
 20
-1885.691688202703
 30
0.0
 11
14188.27152418465
 21
-1883.835281742152
 31
0.0
  0
LINE
  5
1D0
330
25
100
AcDbEntity
  8
1
  6
Continuous
 62
     0
100
AcDbLine
 10
14188.27152418465
 20
-1859.835281742152
 30
0.0
 11
14187.19972741492
 21
-1857.978875281601
 31
0.0
  0
LINE
  5
1CF
330
25
100
AcDbEntity
  8
1
  6
Continuous
 62
     0
100
AcDbLine
 10
14187.19972741492
 20
-1857.978875281601
 30
0.0
 11
14178.27152418465
 21
-1857.978875281601
 31
0.0
  0
LINE
  5
1CE
330
25
100
AcDbEntity
  8
1
  6
Continuous
 62
     0
100
AcDbLine
 10
14188.27152418465
 20
-1883.835281742152
 30
0.0
 11
14188.27152418465
 21
-1859.835281742152
 31
0.0
  0
LINE
  5
1CD
330
25
100
AcDbEntity
  8
1
  6
Continuous
 62
     0
100
AcDbLine
 10
14178.27152418465
 20
-1885.691688202703
 30
0.0
 11
14187.19972741492
 21
-1885.691688202703
 31
0.0
  0
LINE
  5
1CC
330
25
100
AcDbEntity
  8
1
  6
Continuous
 62
     0
100
AcDbLine
 10
14187.19972741492
 20
-1864.907078511876
 30
0.0
 11
14178.27152418465
 21
-1864.907078511876
 31
0.0
  0
LINE
  5
1CB
330
25
100
AcDbEntity
  8
1
  6
Continuous
 62
     0
100
AcDbLine
 10
14187.19972741492
 20
-1878.763484972428
 30
0.0
 11
14178.27152418465
 21
-1878.763484972428
 31
0.0
  0
LINE
  5
1CA
330
25
100
AcDbEntity
  8
1
  6
Continuous
 62
     0
100
AcDbLine
 10
14178.27152418465
 20
-1857.835281742152
 30
0.0
 11
14174.27152418465
 21
-1857.835281742152
 31
0.0
  0
LINE
  5
1C9
330
25
100
AcDbEntity
  8
1
  6
Continuous
 62
     0
100
AcDbLine
 10
14178.27152418465
 20
-1885.835281742152
 30
0.0
 11
14178.27152418465
 21
-1857.835281742152
 31
0.0
  0
LINE
  5
1C8
330
25
100
AcDbEntity
  8
1
  6
Continuous
 62
     0
100
AcDbLine
 10
14174.27152418465
 20
-1885.835281742152
 30
0.0
 11
14178.27152418465
 21
-1885.835281742152
 31
0.0
  0
LINE
  5
1C7
330
25
100
AcDbEntity
  8
1
  6
Continuous
 62
     0
100
AcDbLine
 10
14174.27152418465
 20
-1869.759091265961
 30
0.0
 11
14178.27152418465
 21
-1870.901948408818
 31
0.0
  0
LINE
  5
1C6
330
25
100
AcDbEntity
  8
1
  6
Continuous
 62
     0
100
AcDbLine
 10
14174.27152418465
 20
-1872.768615075485
 30
0.0
 11
14178.27152418465
 21
-1873.911472218342
 31
0.0
  0
LINE
  5
1C5
330
25
100
AcDbEntity
  8
1
  6
Continuous
 62
     0
100
AcDbLine
 10
14174.27152418465
 20
-1856.835281742152
 30
0.0
 11
14171.27152418465
 21
-1856.835281742152
 31
0.0
  0
LINE
  5
1C4
330
25
100
AcDbEntity
  8
1
  6
Continuous
 62
     0
100
AcDbLine
 10
14174.27152418465
 20
-1886.835281742152
 30
0.0
 11
14174.27152418465
 21
-1856.835281742152
 31
0.0
  0
LINE
  5
1C3
330
25
100
AcDbEntity
  8
1
  6
Continuous
 62
     0
100
AcDbLine
 10
14171.27152418465
 20
-1886.835281742152
 30
0.0
 11
14174.27152418465
 21
-1886.835281742152
 31
0.0
  0
LINE
  5
1C2
330
25
100
AcDbEntity
  8
1
  6
Continuous
 62
     0
100
AcDbLine
 10
14171.27152418465
 20
-1856.835281742152
 30
0.0
 11
14171.27152418465
 21
-1886.835281742152
 31
0.0
  0
LINE
  5
1BF
330
25
100
AcDbEntity
  8
1
  6
Continuous
 62
     0
100
AcDbLine
 10
14171.27152418465
 20
-1823.010525483014
 30
0.0
 11
14171.27152418465
 21
-1853.010525483014
 31
0.0
  0
LINE
  5
1BE
330
25
100
AcDbEntity
  8
1
  6
Continuous
 62
     0
100
AcDbLine
 10
14171.27152418465
 20
-1853.010525483014
 30
0.0
 11
14174.27152418465
 21
-1853.010525483014
 31
0.0
  0
LINE
  5
1BD
330
25
100
AcDbEntity
  8
1
  6
Continuous
 62
     0
100
AcDbLine
 10
14174.27152418465
 20
-1853.010525483014
 30
0.0
 11
14174.27152418465
 21
-1823.010525483014
 31
0.0
  0
LINE
  5
1BC
330
25
100
AcDbEntity
  8
1
  6
Continuous
 62
     0
100
AcDbLine
 10
14174.27152418465
 20
-1823.010525483014
 30
0.0
 11
14171.27152418465
 21
-1823.010525483014
 31
0.0
  0
LINE
  5
1BB
330
25
100
AcDbEntity
  8
1
  6
Continuous
 62
     0
100
AcDbLine
 10
14174.27152418465
 20
-1838.943858816348
 30
0.0
 11
14178.27152418465
 21
-1840.086715959205
 31
0.0
  0
LINE
  5
1BA
330
25
100
AcDbEntity
  8
1
  6
Continuous
 62
     0
100
AcDbLine
 10
14174.27152418465
 20
-1835.934335006824
 30
0.0
 11
14178.27152418465
 21
-1837.077192149681
 31
0.0
  0
LINE
  5
1B9
330
25
100
AcDbEntity
  8
1
  6
Continuous
 62
     0
100
AcDbLine
 10
14174.27152418465
 20
-1852.010525483014
 30
0.0
 11
14178.27152418465
 21
-1852.010525483014
 31
0.0
  0
LINE
  5
1B8
330
25
100
AcDbEntity
  8
1
  6
Continuous
 62
     0
100
AcDbLine
 10
14178.27152418465
 20
-1852.010525483014
 30
0.0
 11
14178.27152418465
 21
-1824.010525483014
 31
0.0
  0
LINE
  5
1B7
330
25
100
AcDbEntity
  8
1
  6
Continuous
 62
     0
100
AcDbLine
 10
14178.27152418465
 20
-1824.010525483014
 30
0.0
 11
14174.27152418465
 21
-1824.010525483014
 31
0.0
  0
LINE
  5
1B6
330
25
100
AcDbEntity
  8
1
  6
Continuous
 62
     0
100
AcDbLine
 10
14187.19972741492
 20
-1844.93872871329
 30
0.0
 11
14178.27152418465
 21
-1844.93872871329
 31
0.0
  0
LINE
  5
1B5
330
25
100
AcDbEntity
  8
1
  6
Continuous
 62
     0
100
AcDbLine
 10
14187.19972741492
 20
-1831.082322252739
 30
0.0
 11
14178.27152418465
 21
-1831.082322252739
 31
0.0
  0
LINE
  5
1B4
330
25
100
AcDbEntity
  8
1
  6
Continuous
 62
     0
100
AcDbLine
 10
14178.27152418465
 20
-1851.866931943566
 30
0.0
 11
14187.19972741492
 21
-1851.866931943566
 31
0.0
  0
LINE
  5
1B3
330
25
100
AcDbEntity
  8
1
  6
Continuous
 62
     0
100
AcDbLine
 10
14188.27152418465
 20
-1850.010525483014
 30
0.0
 11
14188.27152418465
 21
-1826.010525483014
 31
0.0
  0
LINE
  5
1B2
330
25
100
AcDbEntity
  8
1
  6
Continuous
 62
     0
100
AcDbLine
 10
14187.19972741492
 20
-1824.154119022464
 30
0.0
 11
14178.27152418465
 21
-1824.154119022464
 31
0.0
  0
LINE
  5
1B1
330
25
100
AcDbEntity
  8
1
  6
Continuous
 62
     0
100
AcDbLine
 10
14188.27152418465
 20
-1826.010525483014
 30
0.0
 11
14187.19972741492
 21
-1824.154119022464
 31
0.0
  0
LINE
  5
1B0
330
25
100
AcDbEntity
  8
1
  6
Continuous
 62
     0
100
AcDbLine
 10
14187.19972741492
 20
-1851.866931943566
 30
0.0
 11
14188.27152418465
 21
-1850.010525483014
 31
0.0
  0
LINE
  5
1AF
330
25
100
AcDbEntity
  8
1
  6
Continuous
 62
     0
100
AcDbLine
 10
14188.27152418465
 20
-1778.175096437378
 30
0.0
 11
14187.19972741492
 21
-1776.318689976827
 31
0.0
  0
LINE
  5
1AE
330
25
100
AcDbEntity
  8
1
  6
Continuous
 62
     0
100
AcDbLine
 10
14187.19972741492
 20
-1804.031502897929
 30
0.0
 11
14188.27152418465
 21
-1802.175096437378
 31
0.0
  0
LINE
  5
1AD
330
25
100
AcDbEntity
  8
1
  6
Continuous
 62
     0
100
AcDbLine
 10
14178.27152418465
 20
-1804.031502897929
 30
0.0
 11
14187.19972741492
 21
-1804.031502897929
 31
0.0
  0
LINE
  5
1AC
330
25
100
AcDbEntity
  8
1
  6
Continuous
 62
     0
100
AcDbLine
 10
14188.27152418465
 20
-1802.175096437378
 30
0.0
 11
14188.27152418465
 21
-1778.175096437378
 31
0.0
  0
LINE
  5
1AB
330
25
100
AcDbEntity
  8
1
  6
Continuous
 62
     0
100
AcDbLine
 10
14187.19972741492
 20
-1776.318689976827
 30
0.0
 11
14178.27152418465
 21
-1776.318689976827
 31
0.0
  0
LINE
  5
1AA
330
25
100
AcDbEntity
  8
1
  6
Continuous
 62
     0
100
AcDbLine
 10
14178.27152418465
 20
-1797.103299667654
 30
0.0
 11
14187.19972741492
 21
-1797.103299667654
 31
0.0
  0
LINE
  5
1A9
330
25
100
AcDbEntity
  8
1
  6
Continuous
 62
     0
100
AcDbLine
 10
14178.27152418465
 20
-1783.246893207103
 30
0.0
 11
14187.19972741492
 21
-1783.246893207103
 31
0.0
  0
LINE
  5
1A8
330
25
100
AcDbEntity
  8
1
  6
Continuous
 62
     0
100
AcDbLine
 10
14174.27152418465
 20
-1804.175096437378
 30
0.0
 11
14178.27152418465
 21
-1804.175096437378
 31
0.0
  0
LINE
  5
1A7
330
25
100
AcDbEntity
  8
1
  6
Continuous
 62
     0
100
AcDbLine
 10
14178.27152418465
 20
-1804.175096437378
 30
0.0
 11
14178.27152418465
 21
-1776.175096437378
 31
0.0
  0
LINE
  5
1A6
330
25
100
AcDbEntity
  8
1
  6
Continuous
 62
     0
100
AcDbLine
 10
14178.27152418465
 20
-1776.175096437378
 30
0.0
 11
14174.27152418465
 21
-1776.175096437378
 31
0.0
  0
LINE
  5
1A5
330
25
100
AcDbEntity
  8
1
  6
Continuous
 62
     0
100
AcDbLine
 10
14178.27152418465
 20
-1791.108429770711
 30
0.0
 11
14174.27152418465
 21
-1792.251286913569
 31
0.0
  0
LINE
  5
1A4
330
25
100
AcDbEntity
  8
1
  6
Continuous
 62
     0
100
AcDbLine
 10
14178.27152418465
 20
-1788.098905961188
 30
0.0
 11
14174.27152418465
 21
-1789.241763104045
 31
0.0
  0
LINE
  5
1A3
330
25
100
AcDbEntity
  8
1
  6
Continuous
 62
     0
100
AcDbLine
 10
14171.27152418465
 20
-1805.175096437378
 30
0.0
 11
14174.27152418465
 21
-1805.175096437378
 31
0.0
  0
LINE
  5
1A2
330
25
100
AcDbEntity
  8
1
  6
Continuous
 62
     0
100
AcDbLine
 10
14174.27152418465
 20
-1805.175096437378
 30
0.0
 11
14174.27152418465
 21
-1775.175096437378
 31
0.0
  0
LINE
  5
1A1
330
25
100
AcDbEntity
  8
1
  6
Continuous
 62
     0
100
AcDbLine
 10
14174.27152418465
 20
-1775.175096437378
 30
0.0
 11
14171.27152418465
 21
-1775.175096437378
 31
0.0
  0
LINE
  5
1A0
330
25
100
AcDbEntity
  8
1
  6
Continuous
 62
     0
100
AcDbLine
 10
14171.27152418465
 20
-1775.175096437378
 30
0.0
 11
14171.27152418465
 21
-1805.175096437378
 31
0.0
  0
LINE
  5
19D
330
25
100
AcDbEntity
  8
1
  6
Continuous
 62
     0
100
AcDbLine
 10
14171.27152418465
 20
-1741.350340178241
 30
0.0
 11
14171.27152418465
 21
-1771.350340178241
 31
0.0
  0
LINE
  5
19C
330
25
100
AcDbEntity
  8
1
  6
Continuous
 62
     0
100
AcDbLine
 10
14174.27152418465
 20
-1741.350340178241
 30
0.0
 11
14171.27152418465
 21
-1741.350340178241
 31
0.0
  0
LINE
  5
19B
330
25
100
AcDbEntity
  8
1
  6
Continuous
 62
     0
100
AcDbLine
 10
14174.27152418465
 20
-1771.350340178241
 30
0.0
 11
14174.27152418465
 21
-1741.350340178241
 31
0.0
  0
LINE
  5
19A
330
25
100
AcDbEntity
  8
1
  6
Continuous
 62
     0
100
AcDbLine
 10
14171.27152418465
 20
-1771.350340178241
 30
0.0
 11
14174.27152418465
 21
-1771.350340178241
 31
0.0
  0
LINE
  5
199
330
25
100
AcDbEntity
  8
1
  6
Continuous
 62
     0
100
AcDbLine
 10
14178.27152418465
 20
-1754.27414970205
 30
0.0
 11
14174.27152418465
 21
-1755.417006844908
 31
0.0
  0
LINE
  5
198
330
25
100
AcDbEntity
  8
1
  6
Continuous
 62
     0
100
AcDbLine
 10
14178.27152418465
 20
-1757.283673511574
 30
0.0
 11
14174.27152418465
 21
-1758.426530654431
 31
0.0
  0
LINE
  5
197
330
25
100
AcDbEntity
  8
1
  6
Continuous
 62
     0
100
AcDbLine
 10
14178.27152418465
 20
-1742.350340178241
 30
0.0
 11
14174.27152418465
 21
-1742.350340178241
 31
0.0
  0
LINE
  5
196
330
25
100
AcDbEntity
  8
1
  6
Continuous
 62
     0
100
AcDbLine
 10
14178.27152418465
 20
-1770.350340178241
 30
0.0
 11
14178.27152418465
 21
-1742.350340178241
 31
0.0
  0
LINE
  5
195
330
25
100
AcDbEntity
  8
1
  6
Continuous
 62
     0
100
AcDbLine
 10
14174.27152418465
 20
-1770.350340178241
 30
0.0
 11
14178.27152418465
 21
-1770.350340178241
 31
0.0
  0
LINE
  5
194
330
25
100
AcDbEntity
  8
1
  6
Continuous
 62
     0
100
AcDbLine
 10
14178.27152418465
 20
-1749.422136947965
 30
0.0
 11
14187.19972741492
 21
-1749.422136947965
 31
0.0
  0
LINE
  5
193
330
25
100
AcDbEntity
  8
1
  6
Continuous
 62
     0
100
AcDbLine
 10
14178.27152418465
 20
-1763.278543408517
 30
0.0
 11
14187.19972741492
 21
-1763.278543408517
 31
0.0
  0
LINE
  5
192
330
25
100
AcDbEntity
  8
1
  6
Continuous
 62
     0
100
AcDbLine
 10
14187.19972741492
 20
-1742.49393371769
 30
0.0
 11
14178.27152418465
 21
-1742.49393371769
 31
0.0
  0
LINE
  5
191
330
25
100
AcDbEntity
  8
1
  6
Continuous
 62
     0
100
AcDbLine
 10
14188.27152418465
 20
-1768.350340178241
 30
0.0
 11
14188.27152418465
 21
-1744.350340178241
 31
0.0
  0
LINE
  5
190
330
25
100
AcDbEntity
  8
1
  6
Continuous
 62
     0
100
AcDbLine
 10
14178.27152418465
 20
-1770.206746638792
 30
0.0
 11
14187.19972741492
 21
-1770.206746638792
 31
0.0
  0
LINE
  5
18F
330
25
100
AcDbEntity
  8
1
  6
Continuous
 62
     0
100
AcDbLine
 10
14187.19972741492
 20
-1770.206746638792
 30
0.0
 11
14188.27152418465
 21
-1768.350340178241
 31
0.0
  0
LINE
  5
18E
330
25
100
AcDbEntity
  8
1
  6
Continuous
 62
     0
100
AcDbLine
 10
14188.27152418465
 20
-1744.350340178241
 30
0.0
 11
14187.19972741492
 21
-1742.49393371769
 31
0.0
  0
LINE
  5
18B
330
25
100
AcDbEntity
  8
1
  6
Continuous
 62
     0
100
AcDbLine
 10
13238.27152418465
 20
-1184.942810960196
 30
0.0
 11
13218.27152418465
 21
-1184.942810960196
 31
0.0
  0
LINE
  5
18A
330
25
100
AcDbEntity
  8
1
  6
Continuous
 62
     0
100
AcDbLine
 10
13238.27152418465
 20
-1251.242810960196
 30
0.0
 11
13218.27152418465
 21
-1251.242810960196
 31
0.0
  0
LINE
  5
189
330
25
100
AcDbEntity
  8
1
  6
Continuous
 62
     0
100
AcDbLine
 10
13218.27152418465
 20
-1251.242810960196
 30
0.0
 11
13218.27152418465
 21
-1184.942810960196
 31
0.0
  0
LINE
  5
188
330
25
100
AcDbEntity
  8
1
  6
Continuous
 62
     0
100
AcDbLine
 10
11040.78507643026
 20
-2035.164479857355
 30
0.0
 11
11040.78507643026
 21
-2014.092810960196
 31
0.0
  0
LINE
  5
187
330
25
100
AcDbEntity
  8
1
  6
Continuous
 62
     0
100
AcDbLine
 10
11958.78507643026
 20
-2014.092810960196
 30
0.0
 11
11958.78507643026
 21
-2035.164479857355
 31
0.0
  0
LINE
  5
186
330
25
100
AcDbEntity
  8
1
  6
Continuous
 62
     0
100
AcDbLine
 10
11958.78507643026
 20
-2014.092810960196
 30
0.0
 11
11040.78507643026
 21
-2014.092810960196
 31
0.0
  0
LINE
  5
185
330
25
100
AcDbEntity
  8
1
  6
Continuous
 62
     0
100
AcDbLine
 10
11040.78507643026
 20
-704.092810960196
 30
0.0
 11
11958.78507643026
 21
-704.092810960196
 31
0.0
  0
LINE
  5
184
330
25
100
AcDbEntity
  8
1
  6
Continuous
 62
     0
100
AcDbLine
 10
11958.78507643026
 20
-683.021142063037
 30
0.0
 11
11958.78507643026
 21
-704.092810960196
 31
0.0
  0
LINE
  5
183
330
25
100
AcDbEntity
  8
1
  6
Continuous
 62
     0
100
AcDbLine
 10
11040.78507643026
 20
-704.092810960196
 30
0.0
 11
11040.78507643026
 21
-683.021142063037
 31
0.0
  0
LINE
  5
182
330
25
100
AcDbEntity
  8
1
  6
Continuous
 62
     0
100
AcDbLine
 10
11958.78507643026
 20
-704.092810960196
 30
0.0
 11
11958.78507643026
 21
-1177.092810960196
 31
0.0
  0
LINE
  5
181
330
25
100
AcDbEntity
  8
1
  6
Continuous
 62
     0
100
AcDbLine
 10
11040.78507643026
 20
-704.092810960196
 30
0.0
 11
11040.78507643026
 21
-1777.092810960196
 31
0.0
  0
LINE
  5
180
330
25
100
AcDbEntity
  8
1
  6
Continuous
 62
     0
100
AcDbLine
 10
11049.78507643026
 20
-2512.092810960197
 30
0.0
 11
11949.78507643026
 21
-2512.092810960197
 31
0.0
  0
LINE
  5
17F
330
25
100
AcDbEntity
  8
1
  6
Continuous
 62
     0
100
AcDbLine
 10
11949.78507643026
 20
-2512.092810960197
 30
0.0
 11
11949.78507643026
 21
-2518.092810960197
 31
0.0
  0
LINE
  5
17E
330
25
100
AcDbEntity
  8
1
  6
Continuous
 62
     0
100
AcDbLine
 10
11949.78507643026
 20
-2518.092810960197
 30
0.0
 11
11049.78507643026
 21
-2518.092810960197
 31
0.0
  0
LINE
  5
17D
330
25
100
AcDbEntity
  8
1
  6
Continuous
 62
     0
100
AcDbLine
 10
11049.78507643026
 20
-2518.092810960197
 30
0.0
 11
11049.78507643026
 21
-2512.092810960197
 31
0.0
  0
LINE
  5
17C
330
25
100
AcDbEntity
  8
1
  6
Continuous
 62
     0
100
AcDbLine
 10
11824.78507643026
 20
-2158.007412083301
 30
0.0
 11
11174.78507643026
 21
-2158.007412083301
 31
0.0
  0
LINE
  5
17B
330
25
100
AcDbEntity
  8
1
  6
Continuous
 62
     0
100
AcDbLine
 10
11174.78507643026
 20
-2158.007412083301
 30
0.0
 11
11174.78507643026
 21
-2218.092810960197
 31
0.0
  0
LINE
  5
17A
330
25
100
AcDbEntity
  8
1
  6
Continuous
 62
     0
100
AcDbLine
 10
11599.78507643026
 20
-2318.092810960196
 30
0.0
 11
11599.78507643026
 21
-2512.092810960197
 31
0.0
  0
LINE
  5
179
330
25
100
AcDbEntity
  8
1
  6
Continuous
 62
     0
100
AcDbLine
 10
11399.78507643026
 20
-2318.092810960196
 30
0.0
 11
11399.78507643026
 21
-2512.092810960197
 31
0.0
  0
LINE
  5
178
330
25
100
AcDbEntity
  8
1
  6
Continuous
 62
     0
100
AcDbLine
 10
11486.58507643026
 20
-2228.092810960196
 30
0.0
 11
11512.98507643027
 21
-2228.092810960196
 31
0.0
  0
LINE
  5
177
330
25
100
AcDbEntity
  8
1
  6
Continuous
 62
     0
100
AcDbLine
 10
11512.98507643027
 20
-2228.092810960196
 30
0.0
 11
11512.98507643027
 21
-2218.967839333467
 31
0.0
  0
LINE
  5
176
330
25
100
AcDbEntity
  8
1
  6
Continuous
 62
     0
100
AcDbLine
 10
11486.58507643026
 20
-2228.092810960196
 30
0.0
 11
11486.58507643026
 21
-2218.967839333467
 31
0.0
  0
LINE
  5
175
330
25
100
AcDbEntity
  8
1
  6
DOTTED
 62
     0
100
AcDbLine
 10
11512.98507643027
 20
-2218.967839333467
 30
0.0
 11
11512.98507643027
 21
-2217.996964322915
 31
0.0
  0
LINE
  5
174
330
25
100
AcDbEntity
  8
1
  6
DOTTED
 62
     0
100
AcDbLine
 10
11486.58507643026
 20
-2218.967839333467
 30
0.0
 11
11486.58507643026
 21
-2217.996964322915
 31
0.0
  0
LINE
  5
172
330
25
100
AcDbEntity
  8
1
  6
Continuous
 62
     0
100
AcDbLine
 10
11020.78507643026
 20
-1777.092810960196
 30
0.0
 11
11040.78507643026
 21
-1777.092810960196
 31
0.0
  0
LINE
  5
171
330
25
100
AcDbEntity
  8
1
  6
Continuous
 62
     0
100
AcDbLine
 10
11020.78507643026
 20
-1859.092810960196
 30
0.0
 11
11040.78507643026
 21
-1859.092810960196
 31
0.0
  0
LINE
  5
170
330
25
100
AcDbEntity
  8
1
  6
Continuous
 62
     0
100
AcDbLine
 10
11020.78507643026
 20
-1777.092810960196
 30
0.0
 11
11020.78507643026
 21
-1859.092810960196
 31
0.0
  0
LINE
  5
16D
330
25
100
AcDbEntity
  8
1
  6
Continuous
 62
     0
100
AcDbLine
 10
11040.78507643026
 20
-1859.092810960196
 30
0.0
 11
11040.78507643026
 21
-2014.092810960196
 31
0.0
  0
LINE
  5
16C
330
25
100
AcDbEntity
  8
1
  6
Continuous
 62
     0
100
AcDbLine
 10
11190.55215450894
 20
-2288.687885023842
 30
0.0
 11
11190.55215450894
 21
-2512.092810960197
 31
0.0
  0
LINE
  5
16B
330
25
100
AcDbEntity
  8
1
  6
Continuous
 62
     0
100
AcDbLine
 10
11809.01799835159
 20
-2512.092810960197
 30
0.0
 11
11809.01799835159
 21
-2288.687885023842
 31
0.0
  0
LINE
  5
16A
330
25
100
AcDbEntity
  8
1
  6
Continuous
 62
     0
100
AcDbLine
 10
11824.78507643026
 20
-2218.092810960197
 30
0.0
 11
11824.78507643026
 21
-2158.007412083301
 31
0.0
  0
LINE
  5
169
330
25
100
AcDbEntity
  8
1
  6
Continuous
 62
     0
100
AcDbLine
 10
11978.78507643026
 20
-1259.092810960196
 30
0.0
 11
11978.78507643026
 21
-1177.092810960196
 31
0.0
  0
LINE
  5
168
330
25
100
AcDbEntity
  8
1
  6
Continuous
 62
     0
100
AcDbLine
 10
11958.78507643026
 20
-1259.092810960196
 30
0.0
 11
11978.78507643026
 21
-1259.092810960196
 31
0.0
  0
LINE
  5
167
330
25
100
AcDbEntity
  8
1
  6
Continuous
 62
     0
100
AcDbLine
 10
11958.78507643026
 20
-1177.092810960196
 30
0.0
 11
11978.78507643026
 21
-1177.092810960196
 31
0.0
  0
LINE
  5
166
330
25
100
AcDbEntity
  8
1
  6
Continuous
 62
     0
100
AcDbLine
 10
11958.78507643026
 20
-1259.092810960196
 30
0.0
 11
11958.78507643026
 21
-2014.092810960196
 31
0.0
  0
LINE
  5
164
330
25
100
AcDbEntity
  8
1
  6
Continuous
 62
     0
100
AcDbLine
 10
11484.78507643026
 20
-495.092810960196
 30
0.0
 11
11484.99826274045
 21
-493.245619091277
 31
0.0
  0
LINE
  5
163
330
25
100
AcDbEntity
  8
1
  6
Continuous
 62
     0
100
AcDbLine
 10
11499.78507643026
 20
-482.592810960196
 30
0.0
 11
11488.43453294225
 21
-483.832812536023
 31
0.0
  0
LINE
  5
162
330
25
100
AcDbEntity
  8
1
  6
Continuous
 62
     0
100
AcDbLine
 10
11511.13561991828
 20
-483.832812536023
 30
0.0
 11
11499.78507643026
 21
-482.592810960196
 31
0.0
  0
LINE
  5
161
330
25
100
AcDbEntity
  8
1
  6
Continuous
 62
     0
100
AcDbLine
 10
11514.57189012007
 20
-493.245619091277
 30
0.0
 11
11514.78507643026
 21
-495.092810960196
 31
0.0
  0
LINE
  5
160
330
25
100
AcDbEntity
  8
1
  6
Continuous
 62
     0
100
AcDbLine
 10
11484.78507643026
 20
-495.092810960196
 30
0.0
 11
11484.78507643026
 21
-500.092810960196
 31
0.0
  0
LINE
  5
15F
330
25
100
AcDbEntity
  8
1
  6
Continuous
 62
     0
100
AcDbLine
 10
11514.78507643026
 20
-495.092810960196
 30
0.0
 11
11514.78507643026
 21
-500.092810960196
 31
0.0
  0
LINE
  5
15E
330
25
100
AcDbEntity
  8
1
  6
Continuous
 62
     0
100
AcDbLine
 10
11491.7931135023
 20
-484.092810960196
 30
0.0
 11
11505.01664985989
 21
-484.092810960196
 31
0.0
  0
LINE
  5
15D
330
25
100
AcDbEntity
  8
1
  6
Continuous
 62
     0
100
AcDbLine
 10
11484.9339143096
 20
-493.803177867678
 30
0.0
 11
11485.78011473285
 21
-486.471119163233
 31
0.0
  0
LINE
  5
15C
330
25
100
AcDbEntity
  8
1
  6
Continuous
 62
     0
100
AcDbLine
 10
11513.79003812768
 20
-486.471119163233
 30
0.0
 11
11514.57189012007
 21
-493.245619091277
 31
0.0
  0
LINE
  5
15B
330
25
100
AcDbEntity
  8
1
  6
Continuous
 62
     0
100
AcDbLine
 10
11484.78507643026
 20
-495.092810960196
 30
0.0
 11
11514.78507643026
 21
-495.092810960196
 31
0.0
  0
LINE
  5
156
330
25
100
AcDbEntity
  8
1
  6
Continuous
 62
     0
100
AcDbLine
 10
13682.27152418465
 20
-495.092810960196
 30
0.0
 11
13712.27152418465
 21
-495.092810960196
 31
0.0
  0
LINE
  5
155
330
25
100
AcDbEntity
  8
1
  6
Continuous
 62
     0
100
AcDbLine
 10
13711.27648588206
 20
-486.471119163233
 30
0.0
 11
13712.05833787445
 21
-493.245619091277
 31
0.0
  0
LINE
  5
154
330
25
100
AcDbEntity
  8
1
  6
Continuous
 62
     0
100
AcDbLine
 10
13682.42036206398
 20
-493.803177867678
 30
0.0
 11
13683.26656248723
 21
-486.471119163233
 31
0.0
  0
LINE
  5
153
330
25
100
AcDbEntity
  8
1
  6
Continuous
 62
     0
100
AcDbLine
 10
13712.27152418465
 20
-495.092810960196
 30
0.0
 11
13712.27152418465
 21
-500.092810960196
 31
0.0
  0
LINE
  5
152
330
25
100
AcDbEntity
  8
1
  6
Continuous
 62
     0
100
AcDbLine
 10
13682.27152418465
 20
-495.092810960196
 30
0.0
 11
13682.27152418465
 21
-500.092810960196
 31
0.0
  0
LINE
  5
151
330
25
100
AcDbEntity
  8
1
  6
Continuous
 62
     0
100
AcDbLine
 10
13712.05833787445
 20
-493.245619091277
 30
0.0
 11
13712.27152418465
 21
-495.092810960196
 31
0.0
  0
LINE
  5
150
330
25
100
AcDbEntity
  8
1
  6
Continuous
 62
     0
100
AcDbLine
 10
13708.62206767266
 20
-483.832812536023
 30
0.0
 11
13703.52152418465
 21
-483.275598516324
 31
0.0
  0
LINE
  5
14F
330
25
100
AcDbEntity
  8
1
  6
Continuous
 62
     0
100
AcDbLine
 10
13682.27152418465
 20
-495.092810960196
 30
0.0
 11
13682.48471049484
 21
-493.245619091277
 31
0.0
  0
LINE
  5
14C
330
25
100
AcDbEntity
  8
1
  6
Continuous
 62
     0
100
AcDbLine
 10
14156.27152418465
 20
-1259.092810960196
 30
0.0
 11
14156.27152418465
 21
-1735.092810960196
 31
0.0
  0
LINE
  5
14B
330
25
100
AcDbEntity
  8
1
  6
Continuous
 62
     0
100
AcDbLine
 10
14022.27152418465
 20
-2218.092810960197
 30
0.0
 11
14022.27152418465
 21
-2158.007412083301
 31
0.0
  0
LINE
  5
14A
330
25
100
AcDbEntity
  8
1
  6
Continuous
 62
     0
100
AcDbLine
 10
14006.50444610597
 20
-2512.092810960197
 30
0.0
 11
14006.50444610597
 21
-2288.687885023842
 31
0.0
  0
LINE
  5
149
330
25
100
AcDbEntity
  8
1
  6
Continuous
 62
     0
100
AcDbLine
 10
13388.03860226332
 20
-2288.687885023842
 30
0.0
 11
13388.03860226332
 21
-2512.092810960197
 31
0.0
  0
LINE
  5
148
330
25
100
AcDbEntity
  8
1
  6
Continuous
 62
     0
100
AcDbLine
 10
13238.27152418465
 20
-1859.092810960196
 30
0.0
 11
13238.27152418465
 21
-2014.092810960196
 31
0.0
  0
LINE
  5
147
330
25
100
AcDbEntity
  8
1
  6
DOTTED
 62
     0
100
AcDbLine
 10
13684.07152418465
 20
-2218.967839333467
 30
0.0
 11
13684.07152418465
 21
-2217.996964322915
 31
0.0
  0
LINE
  5
146
330
25
100
AcDbEntity
  8
1
  6
DOTTED
 62
     0
100
AcDbLine
 10
13710.47152418465
 20
-2218.967839333467
 30
0.0
 11
13710.47152418465
 21
-2217.996964322915
 31
0.0
  0
LINE
  5
145
330
25
100
AcDbEntity
  8
1
  6
Continuous
 62
     0
100
AcDbLine
 10
13684.07152418465
 20
-2228.092810960196
 30
0.0
 11
13684.07152418465
 21
-2218.967839333467
 31
0.0
  0
LINE
  5
144
330
25
100
AcDbEntity
  8
1
  6
Continuous
 62
     0
100
AcDbLine
 10
13710.47152418465
 20
-2228.092810960196
 30
0.0
 11
13710.47152418465
 21
-2218.967839333467
 31
0.0
  0
LINE
  5
143
330
25
100
AcDbEntity
  8
1
  6
Continuous
 62
     0
100
AcDbLine
 10
13684.07152418465
 20
-2228.092810960196
 30
0.0
 11
13710.47152418465
 21
-2228.092810960196
 31
0.0
  0
LINE
  5
142
330
25
100
AcDbEntity
  8
1
  6
Continuous
 62
     0
100
AcDbLine
 10
13597.27152418465
 20
-2318.092810960196
 30
0.0
 11
13597.27152418465
 21
-2512.092810960197
 31
0.0
  0
LINE
  5
141
330
25
100
AcDbEntity
  8
1
  6
Continuous
 62
     0
100
AcDbLine
 10
13797.27152418465
 20
-2318.092810960196
 30
0.0
 11
13797.27152418465
 21
-2512.092810960197
 31
0.0
  0
LINE
  5
140
330
25
100
AcDbEntity
  8
1
  6
Continuous
 62
     0
100
AcDbLine
 10
13372.27152418465
 20
-2158.007412083301
 30
0.0
 11
13372.27152418465
 21
-2218.092810960197
 31
0.0
  0
LINE
  5
13F
330
25
100
AcDbEntity
  8
1
  6
Continuous
 62
     0
100
AcDbLine
 10
14022.27152418465
 20
-2158.007412083301
 30
0.0
 11
13372.27152418465
 21
-2158.007412083301
 31
0.0
  0
LINE
  5
13E
330
25
100
AcDbEntity
  8
1
  6
Continuous
 62
     0
100
AcDbLine
 10
13247.27152418465
 20
-2518.092810960197
 30
0.0
 11
13247.27152418465
 21
-2512.092810960197
 31
0.0
  0
LINE
  5
13D
330
25
100
AcDbEntity
  8
1
  6
Continuous
 62
     0
100
AcDbLine
 10
14147.27152418465
 20
-2518.092810960197
 30
0.0
 11
13247.27152418465
 21
-2518.092810960197
 31
0.0
  0
LINE
  5
13C
330
25
100
AcDbEntity
  8
1
  6
Continuous
 62
     0
100
AcDbLine
 10
14147.27152418465
 20
-2512.092810960197
 30
0.0
 11
14147.27152418465
 21
-2518.092810960197
 31
0.0
  0
LINE
  5
13B
330
25
100
AcDbEntity
  8
1
  6
Continuous
 62
     0
100
AcDbLine
 10
13247.27152418465
 20
-2512.092810960197
 30
0.0
 11
14147.27152418465
 21
-2512.092810960197
 31
0.0
  0
LINE
  5
13A
330
25
100
AcDbEntity
  8
1
  6
Continuous
 62
     0
100
AcDbLine
 10
13238.27152418465
 20
-704.092810960196
 30
0.0
 11
13238.27152418465
 21
-1865.476838279199
 31
0.0
  0
LINE
  5
138
330
25
100
AcDbEntity
  8
1
  6
Continuous
 62
     0
100
AcDbLine
 10
13238.27152418465
 20
-704.092810960196
 30
0.0
 11
13238.27152418465
 21
-683.021142063037
 31
0.0
  0
LINE
  5
137
330
25
100
AcDbEntity
  8
1
  6
Continuous
 62
     0
100
AcDbLine
 10
14156.27152418465
 20
-683.021142063037
 30
0.0
 11
14156.27152418465
 21
-704.092810960196
 31
0.0
  0
LINE
  5
136
330
25
100
AcDbEntity
  8
1
  6
Continuous
 62
     0
100
AcDbLine
 10
13238.27152418465
 20
-704.092810960196
 30
0.0
 11
14156.27152418465
 21
-704.092810960196
 31
0.0
  0
LINE
  5
135
330
25
100
AcDbEntity
  8
1
  6
Continuous
 62
     0
100
AcDbLine
 10
14156.27152418465
 20
-2014.092810960196
 30
0.0
 11
13238.27152418465
 21
-2014.092810960196
 31
0.0
  0
LINE
  5
134
330
25
100
AcDbEntity
  8
1
  6
Continuous
 62
     0
100
AcDbLine
 10
14156.27152418465
 20
-2014.092810960196
 30
0.0
 11
14156.27152418465
 21
-2035.164479857355
 31
0.0
  0
LINE
  5
133
330
25
100
AcDbEntity
  8
1
  6
Continuous
 62
     0
100
AcDbLine
 10
13238.27152418465
 20
-2035.164479857355
 30
0.0
 11
13238.27152418465
 21
-2014.092810960196
 31
0.0
  0
LINE
  5
132
330
25
100
AcDbEntity
  8
1
  6
Continuous
 62
     0
100
AcDbLine
 10
13703.52152418465
 20
-441.342810960196
 30
0.0
 11
13703.52152418465
 21
-492.68970274036
 31
0.0
  0
LINE
  5
131
330
25
100
AcDbEntity
  8
1
  6
Continuous
 62
     0
100
AcDbLine
 10
13691.02152418465
 20
-441.342810960196
 30
0.0
 11
13691.02152418465
 21
-492.68970274036
 31
0.0
  0
LINE
  5
130
330
25
100
AcDbEntity
  8
1
  6
Continuous
 62
     0
100
AcDbLine
 10
13691.02152418465
 20
-483.275598516324
 30
0.0
 11
13685.92098069663
 21
-483.832812536023
 31
0.0
  0
LINE
  5
12F
330
25
100
AcDbEntity
  8
1
  6
Continuous
 62
     0
100
AcDbLine
 10
14171.27152418465
 20
-1735.092810960196
 30
0.0
 11
14156.27152418465
 21
-1735.092810960196
 31
0.0
  0
LINE
  5
12E
330
25
100
AcDbEntity
  8
1
  6
Continuous
 62
     0
100
AcDbLine
 10
14171.27152418465
 20
-1893.092810960196
 30
0.0
 11
14156.27152418465
 21
-1893.092810960196
 31
0.0
  0
LINE
  5
12C
330
25
100
AcDbEntity
  8
1
  6
Continuous
 62
     0
100
AcDbLine
 10
14171.27152418465
 20
-1735.092810960196
 30
0.0
 11
14171.27152418465
 21
-1893.092810960196
 31
0.0
  0
LINE
  5
12B
330
25
100
AcDbEntity
  8
1
  6
Continuous
 62
     0
100
AcDbLine
 10
14161.27152418465
 20
-1735.092810960196
 30
0.0
 11
14161.27152418465
 21
-1893.092810960196
 31
0.0
  0
LINE
  5
12A
330
25
100
AcDbEntity
  8
1
  6
Continuous
 62
     0
100
AcDbLine
 10
14156.27152418465
 20
-1893.092810960196
 30
0.0
 11
14156.27152418465
 21
-2014.092810960196
 31
0.0
  0
LINE
  5
129
330
25
100
AcDbEntity
  8
1
  6
Continuous
 62
     0
100
AcDbLine
 10
11040.78507643026
 20
-1207.442810960196
 30
0.0
 11
11025.78507643026
 21
-1207.442810960196
 31
0.0
  0
LINE
  5
128
330
25
100
AcDbEntity
  8
1
  6
Continuous
 62
     0
100
AcDbLine
 10
11040.78507643026
 20
-1228.742810960196
 30
0.0
 11
11025.78507643026
 21
-1228.742810960196
 31
0.0
  0
LINE
  5
127
330
25
100
AcDbEntity
  8
1
  6
Continuous
 62
     0
100
AcDbLine
 10
11025.78507643026
 20
-1207.442810960196
 30
0.0
 11
11025.78507643026
 21
-1228.742810960196
 31
0.0
  0
LINE
  5
126
330
25
100
AcDbEntity
  8
1
  6
Continuous
 62
     0
100
AcDbLine
 10
10966.54554716661
 20
-1226.423810960196
 30
0.0
 11
10960.14554716661
 21
-1226.742810960196
 31
0.0
  0
LINE
  5
125
330
25
100
AcDbEntity
  8
1
  6
Continuous
 62
     0
100
AcDbLine
 10
10951.24554716661
 20
-1209.761810960197
 30
0.0
 11
10957.64554716661
 21
-1209.442810960196
 31
0.0
  0
LINE
  5
124
330
25
100
AcDbEntity
  8
1
  6
Continuous
 62
     0
100
AcDbLine
 10
10957.64554716661
 20
-1226.742810960196
 30
0.0
 11
10951.24554716661
 21
-1226.423810960196
 31
0.0
  0
LINE
  5
123
330
25
100
AcDbEntity
  8
1
  6
Continuous
 62
     0
100
AcDbLine
 10
10960.14554716661
 20
-1209.442810960196
 30
0.0
 11
10966.54554716661
 21
-1209.761810960197
 31
0.0
  0
LINE
  5
122
330
25
100
AcDbEntity
  8
1
  6
Continuous
 62
     0
100
AcDbLine
 10
10960.14554716661
 20
-1209.442810960196
 30
0.0
 11
10957.64554716661
 21
-1209.442810960196
 31
0.0
  0
LINE
  5
121
330
25
100
AcDbEntity
  8
1
  6
Continuous
 62
     0
100
AcDbLine
 10
10957.64554716661
 20
-1226.742810960196
 30
0.0
 11
10960.14554716661
 21
-1226.742810960196
 31
0.0
  0
LINE
  5
120
330
25
100
AcDbEntity
  8
1
  6
Continuous
 62
     0
100
AcDbLine
 10
10960.14554716661
 20
-1226.742810960196
 30
0.0
 11
10960.14554716661
 21
-1209.442810960196
 31
0.0
  0
LINE
  5
11F
330
25
100
AcDbEntity
  8
1
  6
Continuous
 62
     0
100
AcDbLine
 10
10957.64554716661
 20
-1209.442810960196
 30
0.0
 11
10957.64554716661
 21
-1226.742810960196
 31
0.0
  0
LINE
  5
11E
330
25
100
AcDbEntity
  8
1
  6
Continuous
 62
     0
100
AcDbLine
 10
11016.88507643026
 20
-1209.442810960196
 30
0.0
 11
11016.88507643026
 21
-1226.742810960196
 31
0.0
  0
LINE
  5
11D
330
25
100
AcDbEntity
  8
1
  6
Continuous
 62
     0
100
AcDbLine
 10
11019.38507643026
 20
-1226.742810960196
 30
0.0
 11
11019.38507643026
 21
-1209.442810960196
 31
0.0
  0
LINE
  5
11C
330
25
100
AcDbEntity
  8
1
  6
Continuous
 62
     0
100
AcDbLine
 10
11016.88507643026
 20
-1226.742810960196
 30
0.0
 11
11019.38507643026
 21
-1226.742810960196
 31
0.0
  0
LINE
  5
11B
330
25
100
AcDbEntity
  8
1
  6
Continuous
 62
     0
100
AcDbLine
 10
11019.38507643026
 20
-1209.442810960196
 30
0.0
 11
11016.88507643026
 21
-1209.442810960196
 31
0.0
  0
LINE
  5
11A
330
25
100
AcDbEntity
  8
1
  6
Continuous
 62
     0
100
AcDbLine
 10
11019.38507643026
 20
-1209.442810960196
 30
0.0
 11
11025.78507643026
 21
-1209.761810960197
 31
0.0
  0
LINE
  5
119
330
25
100
AcDbEntity
  8
1
  6
Continuous
 62
     0
100
AcDbLine
 10
11016.88507643026
 20
-1226.742810960196
 30
0.0
 11
11010.48507643026
 21
-1226.423810960196
 31
0.0
  0
LINE
  5
118
330
25
100
AcDbEntity
  8
1
  6
Continuous
 62
     0
100
AcDbLine
 10
11010.48507643026
 20
-1209.761810960197
 30
0.0
 11
11016.88507643026
 21
-1209.442810960196
 31
0.0
  0
LINE
  5
117
330
25
100
AcDbEntity
  8
1
  6
Continuous
 62
     0
100
AcDbLine
 10
11025.78507643026
 20
-1226.423810960196
 30
0.0
 11
11019.38507643026
 21
-1226.742810960196
 31
0.0
  0
LINE
  5
116
330
25
100
AcDbEntity
  8
1
  6
Continuous
 62
     0
100
AcDbLine
 10
11003.03201081779
 20
-1212.530633133706
 30
0.0
 11
11001.09103976229
 21
-1212.530633133706
 31
0.0
  0
LINE
  5
115
330
25
100
AcDbEntity
  8
1
  6
Continuous
 62
     0
100
AcDbLine
 10
11003.03201081779
 20
-1223.654988786687
 30
0.0
 11
10996.7938211478
 21
-1223.654988786687
 31
0.0
  0
LINE
  5
114
330
25
100
AcDbEntity
  8
1
  6
Continuous
 62
     0
100
AcDbLine
 10
10973.79690568894
 20
-1212.530633133706
 30
0.0
 11
10980.23187626892
 21
-1212.530633133706
 31
0.0
  0
LINE
  5
113
330
25
100
AcDbEntity
  8
1
  6
Continuous
 62
     0
100
AcDbLine
 10
10973.79690568894
 20
-1223.654988786687
 30
0.0
 11
10980.23187626892
 21
-1223.654988786687
 31
0.0
  0
LINE
  5
112
330
25
100
AcDbEntity
  8
1
  6
Continuous
 62
     0
100
AcDbLine
 10
10997.04554716661
 20
-1209.592810960196
 30
0.0
 11
10999.54554716661
 21
-1209.592810960196
 31
0.0
  0
LINE
  5
111
330
25
100
AcDbEntity
  8
1
  6
Continuous
 62
     0
100
AcDbLine
 10
10997.04554716661
 20
-1212.757595063796
 30
0.0
 11
10997.04554716661
 21
-1209.592810960196
 31
0.0
  0
LINE
  5
110
330
25
100
AcDbEntity
  8
1
  6
Continuous
 62
     0
100
AcDbLine
 10
11003.18336934012
 20
-1212.030633133706
 30
0.0
 11
11009.6077249931
 21
-1212.030633133706
 31
0.0
  0
LINE
  5
10F
330
25
100
AcDbEntity
  8
1
  6
Continuous
 62
     0
100
AcDbLine
 10
11003.18336934012
 20
-1224.154988786687
 30
0.0
 11
11009.6077249931
 21
-1224.154988786687
 31
0.0
  0
LINE
  5
10E
330
25
100
AcDbEntity
  8
1
  6
Continuous
 62
     0
100
AcDbLine
 10
10973.64554716661
 20
-1230.217166613177
 30
0.0
 11
10967.48336934012
 21
-1230.217166613177
 31
0.0
  0
LINE
  5
10D
330
25
100
AcDbEntity
  8
1
  6
Continuous
 62
     0
100
AcDbLine
 10
11002.24554716661
 20
-1228.592810960196
 30
0.0
 11
10974.58336934012
 21
-1228.592810960196
 31
0.0
  0
LINE
  5
10C
330
25
100
AcDbEntity
  8
1
  6
Continuous
 62
     0
100
AcDbLine
 10
10973.64554716661
 20
-1205.968455307216
 30
0.0
 11
10967.48336934012
 21
-1205.968455307216
 31
0.0
  0
LINE
  5
10B
330
25
100
AcDbEntity
  8
1
  6
Continuous
 62
     0
100
AcDbLine
 10
11002.24554716661
 20
-1207.592810960196
 30
0.0
 11
10974.58336934012
 21
-1207.592810960196
 31
0.0
  0
LINE
  5
10A
330
25
100
AcDbEntity
  8
1
  6
Continuous
 62
     0
100
AcDbLine
 10
10973.64554716661
 20
-1205.968455307216
 30
0.0
 11
10974.58336934012
 21
-1207.592810960196
 31
0.0
  0
LINE
  5
109
330
25
100
AcDbEntity
  8
1
  6
Continuous
 62
     0
100
AcDbLine
 10
10974.58336934012
 20
-1228.592810960196
 30
0.0
 11
10973.64554716661
 21
-1230.217166613177
 31
0.0
  0
LINE
  5
108
330
25
100
AcDbEntity
  8
1
  6
Continuous
 62
     0
100
AcDbLine
 10
11003.18336934012
 20
-1230.217166613177
 30
0.0
 11
11002.24554716661
 21
-1228.592810960196
 31
0.0
  0
LINE
  5
107
330
25
100
AcDbEntity
  8
1
  6
Continuous
 62
     0
100
AcDbLine
 10
11002.24554716661
 20
-1207.592810960196
 30
0.0
 11
11003.18336934012
 21
-1205.968455307216
 31
0.0
  0
LINE
  5
106
330
25
100
AcDbEntity
  8
1
  6
Continuous
 62
     0
100
AcDbLine
 10
10986.30947918911
 20
-1220.092810960196
 30
0.0
 11
10990.78161514411
 21
-1220.092810960196
 31
0.0
  0
LINE
  5
105
330
25
100
AcDbEntity
  8
1
  6
Continuous
 62
     0
100
AcDbLine
 10
10986.30947918911
 20
-1216.092810960196
 30
0.0
 11
10990.78161514411
 21
-1216.092810960196
 31
0.0
  0
LINE
  5
104
330
25
100
AcDbEntity
  8
1
  6
Continuous
 62
     0
100
AcDbLine
 10
10994.79554716661
 20
-1218.092810960196
 30
0.0
 11
10997.04554716661
 21
-1218.092810960196
 31
0.0
  0
LINE
  5
103
330
25
100
AcDbEntity
  8
1
  6
Continuous
 62
     0
100
AcDbLine
 10
10988.54554716661
 20
-1211.842810960196
 30
0.0
 11
10982.82940368978
 21
-1211.842810960196
 31
0.0
  0
LINE
  5
102
330
25
100
AcDbEntity
  8
1
  6
Continuous
 62
     0
100
AcDbLine
 10
10988.54554716661
 20
-1212.319308268296
 30
0.0
 11
10983.54554716661
 21
-1215.206059614244
 31
0.0
  0
LINE
  5
101
330
25
100
AcDbEntity
  8
1
  6
Continuous
 62
     0
100
AcDbLine
 10
10993.54554716661
 20
-1215.206059614244
 30
0.0
 11
10988.54554716661
 21
-1212.319308268296
 31
0.0
  0
LINE
  5
100
330
25
100
AcDbEntity
  8
1
  6
Continuous
 62
     0
100
AcDbLine
 10
10993.54554716661
 20
-1220.979562306144
 30
0.0
 11
10993.54554716661
 21
-1215.206059614244
 31
0.0
  0
LINE
  5
FF
330
25
100
AcDbEntity
  8
1
  6
Continuous
 62
     0
100
AcDbLine
 10
10988.54554716661
 20
-1223.866313652096
 30
0.0
 11
10993.54554716661
 21
-1220.979562306144
 31
0.0
  0
LINE
  5
FE
330
25
100
AcDbEntity
  8
1
  6
Continuous
 62
     0
100
AcDbLine
 10
10983.54554716661
 20
-1220.979562306144
 30
0.0
 11
10988.54554716661
 21
-1223.866313652096
 31
0.0
  0
LINE
  5
FD
330
25
100
AcDbEntity
  8
1
  6
Continuous
 62
     0
100
AcDbLine
 10
10983.54554716661
 20
-1215.206059614244
 30
0.0
 11
10983.54554716661
 21
-1220.979562306144
 31
0.0
  0
LINE
  5
FA
330
25
100
AcDbEntity
  8
1
  6
Continuous
 62
     0
100
AcDbLine
 10
10968.54554716661
 20
-1222.442810960195
 30
0.0
 11
10977.82279099108
 21
-1222.442810960195
 31
0.0
  0
LINE
  5
F9
330
25
100
AcDbEntity
  8
1
  6
Continuous
 62
     0
100
AcDbLine
 10
10968.54554716661
 20
-1213.742810960194
 30
0.0
 11
10968.54554716661
 21
-1222.442810960195
 31
0.0
  0
LINE
  5
F8
330
25
100
AcDbEntity
  8
1
  6
Continuous
 62
     0
100
AcDbLine
 10
10968.54554716661
 20
-1213.742810960194
 30
0.0
 11
10977.82279099108
 21
-1213.742810960194
 31
0.0
  0
LINE
  5
F7
330
25
100
AcDbEntity
  8
1
  6
Continuous
 62
     0
100
AcDbLine
 10
11008.54554716661
 20
-1222.442810960195
 30
0.0
 11
10999.26830334215
 21
-1222.442810960195
 31
0.0
  0
LINE
  5
F6
330
25
100
AcDbEntity
  8
1
  6
Continuous
 62
     0
100
AcDbLine
 10
11008.54554716661
 20
-1213.742810960194
 30
0.0
 11
11008.54554716661
 21
-1222.442810960195
 31
0.0
  0
LINE
  5
F5
330
25
100
AcDbEntity
  8
1
  6
Continuous
 62
     0
100
AcDbLine
 10
11008.54554716661
 20
-1213.742810960194
 30
0.0
 11
10999.26830334215
 21
-1213.742810960194
 31
0.0
  0
LINE
  5
F4
330
25
100
AcDbEntity
  8
1
  6
Continuous
 62
     0
100
AcDbLine
 10
11009.6077249931
 20
-1205.968455307216
 30
0.0
 11
11003.18336934012
 21
-1205.968455307216
 31
0.0
  0
LINE
  5
F3
330
25
100
AcDbEntity
  8
1
  6
Continuous
 62
     0
100
AcDbLine
 10
11010.54554716661
 20
-1207.592810960196
 30
0.0
 11
11010.54554716661
 21
-1228.592810960196
 31
0.0
  0
LINE
  5
F2
330
25
100
AcDbEntity
  8
1
  6
Continuous
 62
     0
100
AcDbLine
 10
11009.6077249931
 20
-1230.217166613177
 30
0.0
 11
11003.18336934012
 21
-1230.217166613177
 31
0.0
  0
LINE
  5
F1
330
25
100
AcDbEntity
  8
1
  6
Continuous
 62
     0
100
AcDbLine
 10
11009.6077249931
 20
-1205.968455307216
 30
0.0
 11
11010.54554716661
 21
-1207.592810960196
 31
0.0
  0
LINE
  5
F0
330
25
100
AcDbEntity
  8
1
  6
Continuous
 62
     0
100
AcDbLine
 10
11010.54554716661
 20
-1228.592810960196
 30
0.0
 11
11009.6077249931
 21
-1230.217166613177
 31
0.0
  0
LINE
  5
EF
330
25
100
AcDbEntity
  8
1
  6
Continuous
 62
     0
100
AcDbLine
 10
10967.48336934012
 20
-1212.030633133706
 30
0.0
 11
10973.64554716661
 21
-1212.030633133706
 31
0.0
  0
LINE
  5
EE
330
25
100
AcDbEntity
  8
1
  6
Continuous
 62
     0
100
AcDbLine
 10
10967.48336934012
 20
-1224.154988786687
 30
0.0
 11
10973.64554716661
 21
-1224.154988786687
 31
0.0
  0
LINE
  5
ED
330
25
100
AcDbEntity
  8
1
  6
Continuous
 62
     0
100
AcDbLine
 10
10966.54554716661
 20
-1228.592810960196
 30
0.0
 11
10966.54554716661
 21
-1207.592810960196
 31
0.0
  0
LINE
  5
EC
330
25
100
AcDbEntity
  8
1
  6
Continuous
 62
     0
100
AcDbLine
 10
10966.54554716661
 20
-1207.592810960196
 30
0.0
 11
10967.48336934012
 21
-1205.968455307216
 31
0.0
  0
LINE
  5
EB
330
25
100
AcDbEntity
  8
1
  6
Continuous
 62
     0
100
AcDbLine
 10
10967.48336934012
 20
-1230.217166613177
 30
0.0
 11
10966.54554716661
 21
-1228.592810960196
 31
0.0
  0
LINE
  5
EA
330
25
100
AcDbEntity
  8
1
  6
Continuous
 62
     0
100
AcDbLine
 10
10939.7468203082
 20
-1241.091537818614
 30
0.0
 11
10928.2468203082
 21
-1241.091537818614
 31
0.0
  0
LINE
  5
E9
330
25
100
AcDbEntity
  8
1
  6
Continuous
 62
     0
100
AcDbLine
 10
10939.7468203082
 20
-1232.592810960196
 30
0.0
 11
10939.7468203082
 21
-1241.091537818614
 31
0.0
  0
LINE
  5
E8
330
25
100
AcDbEntity
  8
1
  6
Continuous
 62
     0
100
AcDbLine
 10
10942.7468203082
 20
-1229.592810960196
 30
0.0
 11
10951.24554716661
 21
-1229.592810960196
 31
0.0
  0
LINE
  5
E7
330
25
100
AcDbEntity
  8
1
  6
Continuous
 62
     0
100
AcDbLine
 10
10928.2468203082
 20
-1241.091537818614
 30
0.0
 11
10916.7468203082
 21
-1241.091537818614
 31
0.0
  0
LINE
  5
E6
330
25
100
AcDbEntity
  8
1
  6
Continuous
 62
     0
100
AcDbLine
 10
10951.24554716661
 20
-1218.092810960196
 30
0.0
 11
10951.24554716661
 21
-1229.592810960196
 31
0.0
  0
LINE
  5
E5
330
25
100
AcDbEntity
  8
1
  6
Continuous
 62
     0
100
AcDbLine
 10
10916.7468203082
 20
-1218.092810960196
 30
0.0
 11
10916.7468203082
 21
-1241.091537818614
 31
0.0
  0
LINE
  5
E4
330
25
100
AcDbEntity
  8
1
  6
Continuous
 62
     0
100
AcDbLine
 10
10916.7468203082
 20
-1195.094084101779
 30
0.0
 11
10916.7468203082
 21
-1218.092810960196
 31
0.0
  0
LINE
  5
E3
330
25
100
AcDbEntity
  8
1
  6
Continuous
 62
     0
100
AcDbLine
 10
10951.24554716661
 20
-1206.592810960196
 30
0.0
 11
10951.24554716661
 21
-1218.092810960196
 31
0.0
  0
LINE
  5
E2
330
25
100
AcDbEntity
  8
1
  6
Continuous
 62
     0
100
AcDbLine
 10
10916.7468203082
 20
-1195.094084101779
 30
0.0
 11
10928.2468203082
 21
-1195.094084101779
 31
0.0
  0
LINE
  5
E1
330
25
100
AcDbEntity
  8
1
  6
Continuous
 62
     0
100
AcDbLine
 10
10951.24554716661
 20
-1206.592810960196
 30
0.0
 11
10942.7468203082
 21
-1206.592810960196
 31
0.0
  0
LINE
  5
E0
330
25
100
AcDbEntity
  8
1
  6
Continuous
 62
     0
100
AcDbLine
 10
10939.7468203082
 20
-1195.094084101779
 30
0.0
 11
10939.7468203082
 21
-1203.592810960196
 31
0.0
  0
LINE
  5
DF
330
25
100
AcDbEntity
  8
1
  6
Continuous
 62
     0
100
AcDbLine
 10
10928.2468203082
 20
-1195.094084101779
 30
0.0
 11
10939.7468203082
 21
-1195.094084101779
 31
0.0
  0
LINE
  5
DA
330
25
100
AcDbEntity
  8
1
  6
Continuous
 62
     0
100
AcDbLine
 10
11578.78507643026
 20
-3613.578508955002
 30
0.0
 11
11420.78507643026
 21
-3613.578508955002
 31
0.0
  0
LINE
  5
D9
330
25
100
AcDbEntity
  8
1
  6
Continuous
 62
     0
100
AcDbLine
 10
11578.78507643026
 20
-3623.578508955002
 30
0.0
 11
11420.78507643026
 21
-3623.578508955002
 31
0.0
  0
LINE
  5
D7
330
25
100
AcDbEntity
  8
1
  6
Continuous
 62
     0
100
AcDbLine
 10
11578.78507643026
 20
-3601.708129312915
 30
0.0
 11
11578.78507643026
 21
-3623.578508955002
 31
0.0
  0
LINE
  5
D6
330
25
100
AcDbEntity
  8
1
  6
Continuous
 62
     0
100
AcDbLine
 10
11420.78507643026
 20
-3601.714945857527
 30
0.0
 11
11420.78507643026
 21
-3623.578508955002
 31
0.0
  0
LINE
  5
D5
330
25
100
AcDbEntity
  8
1
  6
Continuous
 62
     0
100
AcDbLine
 10
11428.18619918776
 20
-3639.506712185277
 30
0.0
 11
11430.04260564831
 21
-3640.578508955002
 31
0.0
  0
LINE
  5
D4
330
25
100
AcDbEntity
  8
1
  6
Continuous
 62
     0
100
AcDbLine
 10
11454.04260564831
 20
-3640.578508955002
 30
0.0
 11
11455.89901210886
 21
-3639.506712185277
 31
0.0
  0
LINE
  5
D3
330
25
100
AcDbEntity
  8
1
  6
Continuous
 62
     0
100
AcDbLine
 10
11455.89901210886
 20
-3639.506712185277
 30
0.0
 11
11455.89901210886
 21
-3630.578508955002
 31
0.0
  0
LINE
  5
D2
330
25
100
AcDbEntity
  8
1
  6
Continuous
 62
     0
100
AcDbLine
 10
11430.04260564831
 20
-3640.578508955002
 30
0.0
 11
11454.04260564831
 21
-3640.578508955002
 31
0.0
  0
LINE
  5
D1
330
25
100
AcDbEntity
  8
1
  6
Continuous
 62
     0
100
AcDbLine
 10
11428.18619918776
 20
-3630.578508955002
 30
0.0
 11
11428.18619918776
 21
-3639.506712185277
 31
0.0
  0
LINE
  5
D0
330
25
100
AcDbEntity
  8
1
  6
Continuous
 62
     0
100
AcDbLine
 10
11448.97080887858
 20
-3639.506712185277
 30
0.0
 11
11448.97080887858
 21
-3630.578508955002
 31
0.0
  0
LINE
  5
CF
330
25
100
AcDbEntity
  8
1
  6
Continuous
 62
     0
100
AcDbLine
 10
11435.11440241803
 20
-3639.506712185277
 30
0.0
 11
11435.11440241803
 21
-3630.578508955002
 31
0.0
  0
LINE
  5
CE
330
25
100
AcDbEntity
  8
1
  6
Continuous
 62
     0
100
AcDbLine
 10
11456.04260564831
 20
-3630.578508955002
 30
0.0
 11
11456.04260564831
 21
-3626.578508955002
 31
0.0
  0
LINE
  5
CD
330
25
100
AcDbEntity
  8
1
  6
Continuous
 62
     0
100
AcDbLine
 10
11428.04260564831
 20
-3630.578508955002
 30
0.0
 11
11456.04260564831
 21
-3630.578508955002
 31
0.0
  0
LINE
  5
CC
330
25
100
AcDbEntity
  8
1
  6
Continuous
 62
     0
100
AcDbLine
 10
11428.04260564831
 20
-3626.578508955002
 30
0.0
 11
11428.04260564831
 21
-3630.578508955002
 31
0.0
  0
LINE
  5
CB
330
25
100
AcDbEntity
  8
1
  6
Continuous
 62
     0
100
AcDbLine
 10
11444.1187961245
 20
-3626.578508955002
 30
0.0
 11
11442.97593898164
 21
-3630.578508955002
 31
0.0
  0
LINE
  5
CA
330
25
100
AcDbEntity
  8
1
  6
Continuous
 62
     0
100
AcDbLine
 10
11441.10927231497
 20
-3626.578508955002
 30
0.0
 11
11439.96641517212
 21
-3630.578508955002
 31
0.0
  0
LINE
  5
C9
330
25
100
AcDbEntity
  8
1
  6
Continuous
 62
     0
100
AcDbLine
 10
11457.04260564831
 20
-3626.578508955002
 30
0.0
 11
11457.04260564831
 21
-3623.578508955002
 31
0.0
  0
LINE
  5
C8
330
25
100
AcDbEntity
  8
1
  6
Continuous
 62
     0
100
AcDbLine
 10
11427.04260564831
 20
-3626.578508955002
 30
0.0
 11
11457.04260564831
 21
-3626.578508955002
 31
0.0
  0
LINE
  5
C7
330
25
100
AcDbEntity
  8
1
  6
Continuous
 62
     0
100
AcDbLine
 10
11427.04260564831
 20
-3623.578508955002
 30
0.0
 11
11427.04260564831
 21
-3626.578508955002
 31
0.0
  0
LINE
  5
C6
330
25
100
AcDbEntity
  8
1
  6
Continuous
 62
     0
100
AcDbLine
 10
11457.04260564831
 20
-3623.578508955002
 30
0.0
 11
11427.04260564831
 21
-3623.578508955002
 31
0.0
  0
LINE
  5
C3
330
25
100
AcDbEntity
  8
1
  6
Continuous
 62
     0
100
AcDbLine
 10
11490.86736190744
 20
-3623.578508955002
 30
0.0
 11
11460.86736190744
 21
-3623.578508955002
 31
0.0
  0
LINE
  5
C2
330
25
100
AcDbEntity
  8
1
  6
Continuous
 62
     0
100
AcDbLine
 10
11460.86736190744
 20
-3623.578508955002
 30
0.0
 11
11460.86736190744
 21
-3626.578508955002
 31
0.0
  0
LINE
  5
C1
330
25
100
AcDbEntity
  8
1
  6
Continuous
 62
     0
100
AcDbLine
 10
11460.86736190744
 20
-3626.578508955002
 30
0.0
 11
11490.86736190744
 21
-3626.578508955002
 31
0.0
  0
LINE
  5
C0
330
25
100
AcDbEntity
  8
1
  6
Continuous
 62
     0
100
AcDbLine
 10
11490.86736190744
 20
-3626.578508955002
 30
0.0
 11
11490.86736190744
 21
-3623.578508955002
 31
0.0
  0
LINE
  5
BF
330
25
100
AcDbEntity
  8
1
  6
Continuous
 62
     0
100
AcDbLine
 10
11474.93402857411
 20
-3626.578508955002
 30
0.0
 11
11473.79117143125
 21
-3630.578508955002
 31
0.0
  0
LINE
  5
BE
330
25
100
AcDbEntity
  8
1
  6
Continuous
 62
     0
100
AcDbLine
 10
11477.94355238364
 20
-3626.578508955002
 30
0.0
 11
11476.80069524078
 21
-3630.578508955002
 31
0.0
  0
LINE
  5
BD
330
25
100
AcDbEntity
  8
1
  6
Continuous
 62
     0
100
AcDbLine
 10
11461.86736190744
 20
-3626.578508955002
 30
0.0
 11
11461.86736190744
 21
-3630.578508955002
 31
0.0
  0
LINE
  5
BC
330
25
100
AcDbEntity
  8
1
  6
Continuous
 62
     0
100
AcDbLine
 10
11461.86736190744
 20
-3630.578508955002
 30
0.0
 11
11489.86736190744
 21
-3630.578508955002
 31
0.0
  0
LINE
  5
BB
330
25
100
AcDbEntity
  8
1
  6
Continuous
 62
     0
100
AcDbLine
 10
11489.86736190744
 20
-3630.578508955002
 30
0.0
 11
11489.86736190744
 21
-3626.578508955002
 31
0.0
  0
LINE
  5
BA
330
25
100
AcDbEntity
  8
1
  6
Continuous
 62
     0
100
AcDbLine
 10
11468.93915867717
 20
-3639.506712185277
 30
0.0
 11
11468.93915867717
 21
-3630.578508955002
 31
0.0
  0
LINE
  5
B9
330
25
100
AcDbEntity
  8
1
  6
Continuous
 62
     0
100
AcDbLine
 10
11482.79556513772
 20
-3639.506712185277
 30
0.0
 11
11482.79556513772
 21
-3630.578508955002
 31
0.0
  0
LINE
  5
B8
330
25
100
AcDbEntity
  8
1
  6
Continuous
 62
     0
100
AcDbLine
 10
11462.0109554469
 20
-3630.578508955002
 30
0.0
 11
11462.0109554469
 21
-3639.506712185277
 31
0.0
  0
LINE
  5
B7
330
25
100
AcDbEntity
  8
1
  6
Continuous
 62
     0
100
AcDbLine
 10
11463.86736190744
 20
-3640.578508955002
 30
0.0
 11
11487.86736190744
 21
-3640.578508955002
 31
0.0
  0
LINE
  5
B6
330
25
100
AcDbEntity
  8
1
  6
Continuous
 62
     0
100
AcDbLine
 10
11489.723768368
 20
-3639.506712185277
 30
0.0
 11
11489.723768368
 21
-3630.578508955002
 31
0.0
  0
LINE
  5
B5
330
25
100
AcDbEntity
  8
1
  6
Continuous
 62
     0
100
AcDbLine
 10
11487.86736190744
 20
-3640.578508955002
 30
0.0
 11
11489.723768368
 21
-3639.506712185277
 31
0.0
  0
LINE
  5
B4
330
25
100
AcDbEntity
  8
1
  6
Continuous
 62
     0
100
AcDbLine
 10
11462.0109554469
 20
-3639.506712185277
 30
0.0
 11
11463.86736190744
 21
-3640.578508955002
 31
0.0
  0
LINE
  5
B3
330
25
100
AcDbEntity
  8
1
  6
Continuous
 62
     0
100
AcDbLine
 10
11535.70279095308
 20
-3640.578508955002
 30
0.0
 11
11537.55919741363
 21
-3639.506712185277
 31
0.0
  0
LINE
  5
B2
330
25
100
AcDbEntity
  8
1
  6
Continuous
 62
     0
100
AcDbLine
 10
11509.84638449253
 20
-3639.506712185277
 30
0.0
 11
11511.70279095308
 21
-3640.578508955002
 31
0.0
  0
LINE
  5
B1
330
25
100
AcDbEntity
  8
1
  6
Continuous
 62
     0
100
AcDbLine
 10
11509.84638449253
 20
-3630.578508955002
 30
0.0
 11
11509.84638449253
 21
-3639.506712185277
 31
0.0
  0
LINE
  5
B0
330
25
100
AcDbEntity
  8
1
  6
Continuous
 62
     0
100
AcDbLine
 10
11511.70279095308
 20
-3640.578508955002
 30
0.0
 11
11535.70279095308
 21
-3640.578508955002
 31
0.0
  0
LINE
  5
AF
330
25
100
AcDbEntity
  8
1
  6
Continuous
 62
     0
100
AcDbLine
 10
11537.55919741363
 20
-3639.506712185277
 30
0.0
 11
11537.55919741363
 21
-3630.578508955002
 31
0.0
  0
LINE
  5
AE
330
25
100
AcDbEntity
  8
1
  6
Continuous
 62
     0
100
AcDbLine
 10
11516.7745877228
 20
-3630.578508955002
 30
0.0
 11
11516.7745877228
 21
-3639.506712185277
 31
0.0
  0
LINE
  5
AD
330
25
100
AcDbEntity
  8
1
  6
Continuous
 62
     0
100
AcDbLine
 10
11530.63099418336
 20
-3630.578508955002
 30
0.0
 11
11530.63099418336
 21
-3639.506712185277
 31
0.0
  0
LINE
  5
AC
330
25
100
AcDbEntity
  8
1
  6
Continuous
 62
     0
100
AcDbLine
 10
11509.70279095308
 20
-3626.578508955002
 30
0.0
 11
11509.70279095308
 21
-3630.578508955002
 31
0.0
  0
LINE
  5
AB
330
25
100
AcDbEntity
  8
1
  6
Continuous
 62
     0
100
AcDbLine
 10
11509.70279095308
 20
-3630.578508955002
 30
0.0
 11
11537.70279095308
 21
-3630.578508955002
 31
0.0
  0
LINE
  5
AA
330
25
100
AcDbEntity
  8
1
  6
Continuous
 62
     0
100
AcDbLine
 10
11537.70279095308
 20
-3630.578508955002
 30
0.0
 11
11537.70279095308
 21
-3626.578508955002
 31
0.0
  0
LINE
  5
A9
330
25
100
AcDbEntity
  8
1
  6
Continuous
 62
     0
100
AcDbLine
 10
11522.76945761975
 20
-3630.578508955002
 30
0.0
 11
11521.62660047689
 21
-3626.578508955002
 31
0.0
  0
LINE
  5
A8
330
25
100
AcDbEntity
  8
1
  6
Continuous
 62
     0
100
AcDbLine
 10
11525.77898142927
 20
-3630.578508955002
 30
0.0
 11
11524.63612428642
 21
-3626.578508955002
 31
0.0
  0
LINE
  5
A7
330
25
100
AcDbEntity
  8
1
  6
Continuous
 62
     0
100
AcDbLine
 10
11508.70279095308
 20
-3623.578508955002
 30
0.0
 11
11508.70279095308
 21
-3626.578508955002
 31
0.0
  0
LINE
  5
A6
330
25
100
AcDbEntity
  8
1
  6
Continuous
 62
     0
100
AcDbLine
 10
11508.70279095308
 20
-3626.578508955002
 30
0.0
 11
11538.70279095308
 21
-3626.578508955002
 31
0.0
  0
LINE
  5
A5
330
25
100
AcDbEntity
  8
1
  6
Continuous
 62
     0
100
AcDbLine
 10
11538.70279095308
 20
-3626.578508955002
 30
0.0
 11
11538.70279095308
 21
-3623.578508955002
 31
0.0
  0
LINE
  5
A4
330
25
100
AcDbEntity
  8
1
  6
Continuous
 62
     0
100
AcDbLine
 10
11538.70279095308
 20
-3623.578508955002
 30
0.0
 11
11508.70279095308
 21
-3623.578508955002
 31
0.0
  0
LINE
  5
A1
330
25
100
AcDbEntity
  8
1
  6
Continuous
 62
     0
100
AcDbLine
 10
11572.52754721222
 20
-3623.578508955002
 30
0.0
 11
11542.52754721222
 21
-3623.578508955002
 31
0.0
  0
LINE
  5
A0
330
25
100
AcDbEntity
  8
1
  6
Continuous
 62
     0
100
AcDbLine
 10
11572.52754721222
 20
-3626.578508955002
 30
0.0
 11
11572.52754721222
 21
-3623.578508955002
 31
0.0
  0
LINE
  5
9F
330
25
100
AcDbEntity
  8
1
  6
Continuous
 62
     0
100
AcDbLine
 10
11542.52754721222
 20
-3626.578508955002
 30
0.0
 11
11572.52754721222
 21
-3626.578508955002
 31
0.0
  0
LINE
  5
9E
330
25
100
AcDbEntity
  8
1
  6
Continuous
 62
     0
100
AcDbLine
 10
11542.52754721222
 20
-3623.578508955002
 30
0.0
 11
11542.52754721222
 21
-3626.578508955002
 31
0.0
  0
LINE
  5
9D
330
25
100
AcDbEntity
  8
1
  6
Continuous
 62
     0
100
AcDbLine
 10
11559.60373768841
 20
-3630.578508955002
 30
0.0
 11
11558.46088054555
 21
-3626.578508955002
 31
0.0
  0
LINE
  5
9C
330
25
100
AcDbEntity
  8
1
  6
Continuous
 62
     0
100
AcDbLine
 10
11556.59421387889
 20
-3630.578508955002
 30
0.0
 11
11555.45135673603
 21
-3626.578508955002
 31
0.0
  0
LINE
  5
9B
330
25
100
AcDbEntity
  8
1
  6
Continuous
 62
     0
100
AcDbLine
 10
11571.52754721222
 20
-3630.578508955002
 30
0.0
 11
11571.52754721222
 21
-3626.578508955002
 31
0.0
  0
LINE
  5
9A
330
25
100
AcDbEntity
  8
1
  6
Continuous
 62
     0
100
AcDbLine
 10
11543.52754721222
 20
-3630.578508955002
 30
0.0
 11
11571.52754721222
 21
-3630.578508955002
 31
0.0
  0
LINE
  5
99
330
25
100
AcDbEntity
  8
1
  6
Continuous
 62
     0
100
AcDbLine
 10
11543.52754721222
 20
-3626.578508955002
 30
0.0
 11
11543.52754721222
 21
-3630.578508955002
 31
0.0
  0
LINE
  5
98
330
25
100
AcDbEntity
  8
1
  6
Continuous
 62
     0
100
AcDbLine
 10
11564.4557504425
 20
-3630.578508955002
 30
0.0
 11
11564.4557504425
 21
-3639.506712185277
 31
0.0
  0
LINE
  5
97
330
25
100
AcDbEntity
  8
1
  6
Continuous
 62
     0
100
AcDbLine
 10
11550.59934398194
 20
-3630.578508955002
 30
0.0
 11
11550.59934398194
 21
-3639.506712185277
 31
0.0
  0
LINE
  5
96
330
25
100
AcDbEntity
  8
1
  6
Continuous
 62
     0
100
AcDbLine
 10
11571.38395367277
 20
-3639.506712185277
 30
0.0
 11
11571.38395367277
 21
-3630.578508955002
 31
0.0
  0
LINE
  5
95
330
25
100
AcDbEntity
  8
1
  6
Continuous
 62
     0
100
AcDbLine
 10
11545.52754721222
 20
-3640.578508955002
 30
0.0
 11
11569.52754721222
 21
-3640.578508955002
 31
0.0
  0
LINE
  5
94
330
25
100
AcDbEntity
  8
1
  6
Continuous
 62
     0
100
AcDbLine
 10
11543.67114075167
 20
-3630.578508955002
 30
0.0
 11
11543.67114075167
 21
-3639.506712185277
 31
0.0
  0
LINE
  5
93
330
25
100
AcDbEntity
  8
1
  6
Continuous
 62
     0
100
AcDbLine
 10
11543.67114075167
 20
-3639.506712185277
 30
0.0
 11
11545.52754721222
 21
-3640.578508955002
 31
0.0
  0
LINE
  5
92
330
25
100
AcDbEntity
  8
1
  6
Continuous
 62
     0
100
AcDbLine
 10
11569.52754721222
 20
-3640.578508955002
 30
0.0
 11
11571.38395367277
 21
-3639.506712185277
 31
0.0
  0
LINE
  5
91
330
25
100
AcDbEntity
  8
1
  6
Continuous
 62
     0
100
AcDbLine
 10
11978.78507643026
 20
-3190.578508955004
 30
0.0
 11
11978.78507643026
 21
-3108.578508955004
 31
0.0
  0
LINE
  5
90
330
25
100
AcDbEntity
  8
1
  6
Continuous
 62
     0
100
AcDbLine
 10
11978.78507643026
 20
-3108.578508955004
 30
0.0
 11
11956.95025445676
 21
-3108.578508955004
 31
0.0
  0
LINE
  5
8F
330
25
100
AcDbEntity
  8
1
  6
Continuous
 62
     0
100
AcDbLine
 10
11978.78507643026
 20
-3190.578508955004
 30
0.0
 11
11956.95025445676
 21
-3190.578508955004
 31
0.0
  0
LINE
  5
8E
330
25
100
AcDbEntity
  8
1
  6
Continuous
 62
     0
100
AcDbLine
 10
11020.78507643026
 20
-3108.578508955002
 30
0.0
 11
11042.61989840377
 21
-3108.578508955002
 31
0.0
  0
LINE
  5
8D
330
25
100
AcDbEntity
  8
1
  6
Continuous
 62
     0
100
AcDbLine
 10
11020.78507643026
 20
-3190.578508955002
 30
0.0
 11
11042.61989840377
 21
-3190.578508955002
 31
0.0
  0
LINE
  5
8C
330
25
100
AcDbEntity
  8
1
  6
Continuous
 62
     0
100
AcDbLine
 10
11020.78507643026
 20
-3108.578508955002
 30
0.0
 11
11020.78507643026
 21
-3190.578508955002
 31
0.0
  0
LINE
  5
8B
330
25
100
AcDbEntity
  8
1
  6
Continuous
 62
     0
100
AcDbLine
 10
11466.63507643026
 20
-2670.578508955002
 30
0.0
 11
11532.93507643026
 21
-2670.578508955002
 31
0.0
  0
LINE
  5
8A
330
25
100
AcDbEntity
  8
1
  6
Continuous
 62
     0
100
AcDbLine
 10
11532.93507643026
 20
-2670.578508955002
 30
0.0
 11
11532.93507643026
 21
-2690.578508955002
 31
0.0
  0
LINE
  5
89
330
25
100
AcDbEntity
  8
1
  6
Continuous
 62
     0
100
AcDbLine
 10
11466.63507643026
 20
-2670.578508955002
 30
0.0
 11
11466.63507643026
 21
-2690.578508955002
 31
0.0
  0
LINE
  5
88
330
25
100
AcDbEntity
  8
1
  6
Continuous
 62
     0
100
AcDbLine
 10
11466.63507643026
 20
-2670.578508955002
 30
0.0
 11
11532.93507643026
 21
-2670.578508955002
 31
0.0
  0
LINE
  5
87
330
25
100
AcDbEntity
  8
1
  6
Continuous
 62
     0
100
AcDbLine
 10
11530.03507643026
 20
-2659.458508955002
 30
0.0
 11
11469.53507643026
 21
-2659.458508955002
 31
0.0
  0
LINE
  5
86
330
25
100
AcDbEntity
  8
1
  6
Continuous
 62
     0
100
AcDbLine
 10
11469.53507643026
 20
-2655.458508955002
 30
0.0
 11
11530.03507643026
 21
-2655.458508955002
 31
0.0
  0
LINE
  5
85
330
25
100
AcDbEntity
  8
1
  6
Continuous
 62
     0
100
AcDbLine
 10
11530.03507643026
 20
-2659.458508955002
 30
0.0
 11
11530.03507643026
 21
-2655.458508955002
 31
0.0
  0
LINE
  5
84
330
25
100
AcDbEntity
  8
1
  6
Continuous
 62
     0
100
AcDbLine
 10
11469.53507643026
 20
-2655.458508955002
 30
0.0
 11
11469.53507643026
 21
-2659.458508955002
 31
0.0
  0
LINE
  5
83
330
25
100
AcDbEntity
  8
1
  6
Continuous
 62
     0
100
AcDbLine
 10
11529.59207643027
 20
-2670.578508955002
 30
0.0
 11
11530.03507643026
 21
-2659.458508955002
 31
0.0
  0
LINE
  5
82
330
25
100
AcDbEntity
  8
1
  6
Continuous
 62
     0
100
AcDbLine
 10
11469.97807643026
 20
-2670.578508955002
 30
0.0
 11
11469.53507643026
 21
-2659.458508955002
 31
0.0
  0
LINE
  5
81
330
25
100
AcDbEntity
  8
1
  6
Continuous
 62
     0
100
AcDbLine
 10
11529.59207643027
 20
-2644.338508955003
 30
0.0
 11
11530.03507643026
 21
-2655.458508955002
 31
0.0
  0
LINE
  5
80
330
25
100
AcDbEntity
  8
1
  6
Continuous
 62
     0
100
AcDbLine
 10
11469.53507643026
 20
-2655.458508955002
 30
0.0
 11
11469.97807643026
 21
-2644.338508955003
 31
0.0
  0
LINE
  5
7F
330
25
100
AcDbEntity
  8
1
  6
Continuous
 62
     0
100
AcDbLine
 10
11465.28353189769
 20
-2633.953685420262
 30
0.0
 11
11465.28353189769
 21
-2624.8431914598
 31
0.0
  0
LINE
  5
7E
330
25
100
AcDbEntity
  8
1
  6
Continuous
 62
     0
100
AcDbLine
 10
11499.78507643026
 20
-2644.338508955003
 30
0.0
 11
11535.78662096283
 21
-2644.338508955003
 31
0.0
  0
LINE
  5
7D
330
25
100
AcDbEntity
  8
1
  6
Continuous
 62
     0
100
AcDbLine
 10
11535.78662096283
 20
-2644.338508955003
 30
0.0
 11
11535.78662096283
 21
-2639.338508955003
 31
0.0
  0
LINE
  5
7C
330
25
100
AcDbEntity
  8
1
  6
Continuous
 62
     0
100
AcDbLine
 10
11463.78353189769
 20
-2644.338508955003
 30
0.0
 11
11463.78353189769
 21
-2639.338508955003
 31
0.0
  0
LINE
  5
7B
330
25
100
AcDbEntity
  8
1
  6
Continuous
 62
     0
100
AcDbLine
 10
11465.28353189769
 20
-2639.338508955003
 30
0.0
 11
11534.28662096283
 21
-2639.338508955003
 31
0.0
  0
LINE
  5
7A
330
25
100
AcDbEntity
  8
1
  6
Continuous
 62
     0
100
AcDbLine
 10
11463.78353189769
 20
-2639.338508955003
 30
0.0
 11
11465.28353189769
 21
-2639.338508955003
 31
0.0
  0
LINE
  5
79
330
25
100
AcDbEntity
  8
1
  6
Continuous
 62
     0
100
AcDbLine
 10
11535.78662096283
 20
-2639.338508955003
 30
0.0
 11
11534.28662096283
 21
-2639.338508955003
 31
0.0
  0
LINE
  5
78
330
25
100
AcDbEntity
  8
1
  6
Continuous
 62
     0
100
AcDbLine
 10
11463.78353189769
 20
-2644.338508955003
 30
0.0
 11
11499.78507643026
 21
-2644.338508955003
 31
0.0
  0
LINE
  5
77
330
25
100
AcDbEntity
  8
1
  6
Continuous
 62
     0
100
AcDbLine
 10
11534.28662096283
 20
-2633.953685420262
 30
0.0
 11
11534.28662096283
 21
-2626.8431914598
 31
0.0
  0
LINE
  5
76
330
25
100
AcDbEntity
  8
1
  6
Continuous
 62
     0
100
AcDbLine
 10
11534.28662096283
 20
-2603.283899506283
 30
0.0
 11
11534.28662096283
 21
-2628.200702490609
 31
0.0
  0
LINE
  5
75
330
25
100
AcDbEntity
  8
1
  6
Continuous
 62
     0
100
AcDbLine
 10
11465.28353189769
 20
-2628.355319481766
 30
0.0
 11
11465.28353189769
 21
-2603.72899881982
 31
0.0
  0
LINE
  5
74
330
25
100
AcDbEntity
  8
1
  6
Continuous
 62
     0
100
AcDbLine
 10
11546.78507643026
 20
-2571.984436467772
 30
0.0
 11
11546.78507643026
 21
-2629.3431914598
 31
0.0
  0
LINE
  5
73
330
25
100
AcDbEntity
  8
1
  6
Continuous
 62
     0
100
AcDbLine
 10
11546.78507643026
 20
-2571.343191459801
 30
0.0
 11
11546.78507643026
 21
-2571.843191459801
 31
0.0
  0
LINE
  5
72
330
25
100
AcDbEntity
  8
1
  6
Continuous
 62
     0
100
AcDbLine
 10
11551.78507643026
 20
-2571.343191459801
 30
0.0
 11
11546.78507643026
 21
-2571.343191459801
 31
0.0
  0
LINE
  5
71
330
25
100
AcDbEntity
  8
1
  6
Continuous
 62
     0
100
AcDbLine
 10
11551.78507643026
 20
-2629.3431914598
 30
0.0
 11
11551.78507643026
 21
-2571.343191459801
 31
0.0
  0
LINE
  5
70
330
25
100
AcDbEntity
  8
1
  6
Continuous
 62
     0
100
AcDbLine
 10
11546.78507643026
 20
-2629.3431914598
 30
0.0
 11
11551.78507643026
 21
-2629.3431914598
 31
0.0
  0
LINE
  5
6F
330
25
100
AcDbEntity
  8
1
  6
Continuous
 62
     0
100
AcDbLine
 10
11546.78507643026
 20
-2629.3431914598
 30
0.0
 11
11546.78507643026
 21
-2628.8431914598
 31
0.0
  0
LINE
  5
6D
330
25
100
AcDbEntity
  8
1
  6
Continuous
 62
     0
100
AcDbLine
 10
11529.07616020188
 20
-2572.843191459801
 30
0.0
 11
11545.78507643026
 21
-2572.843191459801
 31
0.0
  0
LINE
  5
6C
330
25
100
AcDbEntity
  8
1
  6
Continuous
 62
     0
100
AcDbLine
 10
11534.28662096283
 20
-2627.8431914598
 30
0.0
 11
11545.78507643026
 21
-2627.8431914598
 31
0.0
  0
LINE
  5
6B
330
25
100
AcDbEntity
  8
1
  6
Continuous
 62
     0
100
AcDbLine
 10
11499.78507643026
 20
-2568.201277024792
 30
0.0
 11
11512.59263178723
 21
-2575.595722557795
 31
0.0
  0
LINE
  5
6A
330
25
100
AcDbEntity
  8
1
  6
Continuous
 62
     0
100
AcDbLine
 10
11486.9775210733
 20
-2575.595722557795
 30
0.0
 11
11499.78507643026
 21
-2568.201277024792
 31
0.0
  0
LINE
  5
69
330
25
100
AcDbEntity
  8
1
  6
Continuous
 62
     0
100
AcDbLine
 10
10993.54507643026
 20
-3137.078508955002
 30
0.0
 11
10993.54507643026
 21
-3139.078508955002
 31
0.0
  0
LINE
  5
68
330
25
100
AcDbEntity
  8
1
  6
Continuous
 62
     0
100
AcDbLine
 10
10983.54507643026
 20
-3137.078508955002
 30
0.0
 11
10983.54507643026
 21
-3139.078508955002
 31
0.0
  0
LINE
  5
67
330
25
100
AcDbEntity
  8
1
  6
Continuous
 62
     0
100
AcDbLine
 10
10968.54507643026
 20
-3123.578508955002
 30
0.0
 11
10979.04507643026
 21
-3123.578508955002
 31
0.0
  0
LINE
  5
66
330
25
100
AcDbEntity
  8
1
  6
Continuous
 62
     0
100
AcDbLine
 10
10978.54507643026
 20
-3133.578508955002
 30
0.0
 11
10968.54507643026
 21
-3130.578508955002
 31
0.0
  0
LINE
  5
65
330
25
100
AcDbEntity
  8
1
  6
Continuous
 62
     0
100
AcDbLine
 10
10968.54507643026
 20
-3130.578508955002
 30
0.0
 11
10968.54507643026
 21
-3123.578508955002
 31
0.0
  0
LINE
  5
64
330
25
100
AcDbEntity
  8
1
  6
Continuous
 62
     0
100
AcDbLine
 10
10998.04507643026
 20
-3123.578508955002
 30
0.0
 11
11008.54507643026
 21
-3123.578508955002
 31
0.0
  0
LINE
  5
63
330
25
100
AcDbEntity
  8
1
  6
Continuous
 62
     0
100
AcDbLine
 10
11008.54507643026
 20
-3123.578508955002
 30
0.0
 11
11008.54507643026
 21
-3130.578508955002
 31
0.0
  0
LINE
  5
62
330
25
100
AcDbEntity
  8
1
  6
Continuous
 62
     0
100
AcDbLine
 10
11008.54507643026
 20
-3130.578508955002
 30
0.0
 11
10998.54507643026
 21
-3133.578508955002
 31
0.0
  0
LINE
  5
61
330
25
100
AcDbEntity
  8
1
  6
Continuous
 62
     0
100
AcDbLine
 10
10998.54507643026
 20
-3133.578508955002
 30
0.0
 11
10978.54507643026
 21
-3133.578508955002
 31
0.0
  0
LINE
  5
60
330
25
100
AcDbEntity
  8
1
  6
Continuous
 62
     0
100
AcDbLine
 10
10978.54507643026
 20
-3133.578508955002
 30
0.0
 11
10978.54507643026
 21
-3137.078508955002
 31
0.0
  0
LINE
  5
5F
330
25
100
AcDbEntity
  8
1
  6
Continuous
 62
     0
100
AcDbLine
 10
10978.54507643026
 20
-3137.078508955002
 30
0.0
 11
10998.54507643026
 21
-3137.078508955002
 31
0.0
  0
LINE
  5
5E
330
25
100
AcDbEntity
  8
1
  6
Continuous
 62
     0
100
AcDbLine
 10
10998.54507643026
 20
-3137.078508955002
 30
0.0
 11
10998.54507643026
 21
-3133.578508955002
 31
0.0
  0
LINE
  5
5B
330
25
100
AcDbEntity
  8
1
  6
Continuous
 62
     0
100
AcDbLine
 10
11011.54507643026
 20
-3139.078508955002
 30
0.0
 11
10967.54507643026
 21
-3139.078508955002
 31
0.0
  0
LINE
  5
5A
330
25
100
AcDbEntity
  8
1
  6
Continuous
 62
     0
100
AcDbLine
 10
10967.54507643026
 20
-3160.078508955002
 30
0.0
 11
10967.54507643026
 21
-3139.078508955002
 31
0.0
  0
LINE
  5
59
330
25
100
AcDbEntity
  8
1
  6
Continuous
 62
     0
100
AcDbLine
 10
11011.54507643026
 20
-3160.078508955002
 30
0.0
 11
10967.54507643026
 21
-3160.078508955002
 31
0.0
  0
LINE
  5
58
330
25
100
AcDbEntity
  8
1
  6
Continuous
 62
     0
100
AcDbLine
 10
11011.54507643026
 20
-3139.078508955002
 30
0.0
 11
11011.54507643026
 21
-3160.078508955002
 31
0.0
  0
LINE
  5
57
330
25
100
AcDbEntity
  8
1
  6
Continuous
 62
     0
100
AcDbLine
 10
10976.54507643026
 20
-3137.078508955002
 30
0.0
 11
10976.54507643026
 21
-3132.978508955004
 31
0.0
  0
LINE
  5
56
330
25
100
AcDbEntity
  8
1
  6
Continuous
 62
     0
100
AcDbLine
 10
10976.54507643026
 20
-3137.078508955002
 30
0.0
 11
10978.54507643026
 21
-3137.078508955002
 31
0.0
  0
LINE
  5
55
330
25
100
AcDbEntity
  8
1
  6
Continuous
 62
     0
100
AcDbLine
 10
10980.04507643026
 20
-3139.078508955002
 30
0.0
 11
10980.04507643026
 21
-3137.078508955002
 31
0.0
  0
LINE
  5
54
330
25
100
AcDbEntity
  8
1
  6
Continuous
 62
     0
100
AcDbLine
 10
10975.84507643026
 20
-3134.178508955002
 30
0.0
 11
10976.54507643026
 21
-3134.178508955002
 31
0.0
  0
LINE
  5
53
330
25
100
AcDbEntity
  8
1
  6
Continuous
 62
     0
100
AcDbLine
 10
10975.84507643026
 20
-3139.078508955002
 30
0.0
 11
10975.84507643026
 21
-3134.178508955002
 31
0.0
  0
LINE
  5
52
330
25
100
AcDbEntity
  8
1
  6
Continuous
 62
     0
100
AcDbLine
 10
10968.48289860377
 20
-3149.578508955002
 30
0.0
 11
10975.58289860377
 21
-3149.578508955002
 31
0.0
  0
LINE
  5
51
330
25
100
AcDbEntity
  8
1
  6
Continuous
 62
     0
100
AcDbLine
 10
11003.50725425675
 20
-3149.578508955002
 30
0.0
 11
11010.60725425676
 21
-3149.578508955002
 31
0.0
  0
LINE
  5
50
330
25
100
AcDbEntity
  8
1
  6
Continuous
 62
     0
100
AcDbLine
 10
10975.99722113127
 20
-3140.378508955002
 30
0.0
 11
10984.39507643026
 21
-3140.378508955002
 31
0.0
  0
LINE
  5
4F
330
25
100
AcDbEntity
  8
1
  6
Continuous
 62
     0
100
AcDbLine
 10
11003.09293172925
 20
-3140.378508955002
 30
0.0
 11
10992.69507643026
 21
-3140.378508955002
 31
0.0
  0
LINE
  5
4E
330
25
100
AcDbEntity
  8
1
  6
Continuous
 62
     0
100
AcDbLine
 10
11017.94507643026
 20
-3140.928508955003
 30
0.0
 11
11017.94507643026
 21
-3158.228508955003
 31
0.0
  0
LINE
  5
4D
330
25
100
AcDbEntity
  8
1
  6
Continuous
 62
     0
100
AcDbLine
 10
11020.78507643026
 20
-3140.928508955003
 30
0.0
 11
11017.94507643026
 21
-3140.928508955003
 31
0.0
  0
LINE
  5
4C
330
25
100
AcDbEntity
  8
1
  6
Continuous
 62
     0
100
AcDbLine
 10
11011.54507643026
 20
-3141.247508955003
 30
0.0
 11
11017.94507643026
 21
-3140.928508955003
 31
0.0
  0
LINE
  5
4B
330
25
100
AcDbEntity
  8
1
  6
Continuous
 62
     0
100
AcDbLine
 10
11017.94507643026
 20
-3158.228508955003
 30
0.0
 11
11011.54507643026
 21
-3157.909508955002
 31
0.0
  0
LINE
  5
4A
330
25
100
AcDbEntity
  8
1
  6
Continuous
 62
     0
100
AcDbLine
 10
11017.94507643026
 20
-3158.228508955003
 30
0.0
 11
11020.78507643026
 21
-3158.228508955003
 31
0.0
  0
LINE
  5
49
330
25
100
AcDbEntity
  8
1
  6
Continuous
 62
     0
100
AcDbLine
 10
10961.18507643026
 20
-3140.928508955003
 30
0.0
 11
10967.58507643026
 21
-3141.247508955003
 31
0.0
  0
LINE
  5
48
330
25
100
AcDbEntity
  8
1
  6
Continuous
 62
     0
100
AcDbLine
 10
10958.68507643026
 20
-3158.228508955003
 30
0.0
 11
10952.28507643026
 21
-3157.909508955002
 31
0.0
  0
LINE
  5
47
330
25
100
AcDbEntity
  8
1
  6
Continuous
 62
     0
100
AcDbLine
 10
10952.28507643026
 20
-3141.247508955003
 30
0.0
 11
10958.68507643026
 21
-3140.928508955003
 31
0.0
  0
LINE
  5
46
330
25
100
AcDbEntity
  8
1
  6
Continuous
 62
     0
100
AcDbLine
 10
10967.58507643026
 20
-3157.909508955002
 30
0.0
 11
10961.18507643026
 21
-3158.228508955003
 31
0.0
  0
LINE
  5
45
330
25
100
AcDbEntity
  8
1
  6
Continuous
 62
     0
100
AcDbLine
 10
10958.68507643026
 20
-3158.228508955003
 30
0.0
 11
10961.18507643026
 21
-3158.228508955003
 31
0.0
  0
LINE
  5
44
330
25
100
AcDbEntity
  8
1
  6
Continuous
 62
     0
100
AcDbLine
 10
10961.18507643026
 20
-3140.928508955003
 30
0.0
 11
10958.68507643026
 21
-3140.928508955003
 31
0.0
  0
LINE
  5
43
330
25
100
AcDbEntity
  8
1
  6
Continuous
 62
     0
100
AcDbLine
 10
10961.18507643026
 20
-3158.228508955003
 30
0.0
 11
10961.18507643026
 21
-3140.928508955003
 31
0.0
  0
LINE
  5
42
330
25
100
AcDbEntity
  8
1
  6
Continuous
 62
     0
100
AcDbLine
 10
10958.68507643026
 20
-3140.928508955003
 30
0.0
 11
10958.68507643026
 21
-3158.228508955003
 31
0.0
  0
LINE
  5
41
330
25
100
AcDbEntity
  8
1
  6
Continuous
 62
     0
100
AcDbLine
 10
10967.58507643026
 20
-3160.078508955002
 30
0.0
 11
10967.58507643026
 21
-3139.078508955002
 31
0.0
  0
LINE
  5
40
330
25
100
AcDbEntity
  8
1
  6
Continuous
 62
     0
100
AcDbLine
 10
10952.28507643026
 20
-3138.078508955002
 30
0.0
 11
10952.28507643026
 21
-3149.578508955002
 31
0.0
  0
LINE
  5
3F
330
25
100
AcDbEntity
  8
1
  6
Continuous
 62
     0
100
AcDbLine
 10
10952.28507643026
 20
-3149.578508955002
 30
0.0
 11
10952.28507643026
 21
-3161.078508955002
 31
0.0
  0
LINE
  5
3E
330
25
100
AcDbEntity
  8
1
  6
Continuous
 62
     0
100
AcDbLine
 10
10952.28507643026
 20
-3149.578508955002
 30
0.0
 11
10952.28507643026
 21
-3161.078508955002
 31
0.0
  0
LINE
  5
3D
330
25
100
AcDbEntity
  8
1
  6
Continuous
 62
     0
100
AcDbLine
 10
10929.28634957185
 20
-3161.078508955002
 30
0.0
 11
10952.28507643026
 21
-3161.078508955002
 31
0.0
  0
LINE
  5
3C
330
25
100
AcDbEntity
  8
1
  6
Continuous
 62
     0
100
AcDbLine
 10
10952.28507643026
 20
-3138.078508955002
 30
0.0
 11
10952.28507643026
 21
-3149.578508955002
 31
0.0
  0
LINE
  5
3B
330
25
100
AcDbEntity
  8
1
  6
Continuous
 62
     0
100
AcDbLine
 10
10952.28507643026
 20
-3138.078508955002
 30
0.0
 11
10929.28634957185
 21
-3138.078508955002
 31
0.0
  0
LINE
  5
39
330
25
100
AcDbEntity
  8
1
  6
Continuous
 62
     0
100
AcDbLine
 10
10923.28634957185
 20
-3155.578508955002
 30
0.0
 11
10923.28634957185
 21
-3143.578508955002
 31
0.0
  0
LINE
  5
38
330
25
100
AcDbEntity
  8
1
  6
Continuous
 62
     0
100
AcDbLine
 10
10935.28634957185
 20
-3155.578508955002
 30
0.0
 11
10923.28634957185
 21
-3155.578508955002
 31
0.0
  0
LINE
  5
37
330
25
100
AcDbEntity
  8
1
  6
Continuous
 62
     0
100
AcDbLine
 10
10935.28634957185
 20
-3143.578508955002
 30
0.0
 11
10935.28634957185
 21
-3155.578508955002
 31
0.0
  0
LINE
  5
36
330
25
100
AcDbEntity
  8
1
  6
Continuous
 62
     0
100
AcDbLine
 10
10923.28634957185
 20
-3143.578508955002
 30
0.0
 11
10935.28634957185
 21
-3143.578508955002
 31
0.0
  0
LINE
  5
35
330
25
100
AcDbEntity
  8
1
  6
Continuous
 62
     0
100
AcDbLine
 10
10935.28634957185
 20
-3143.578508955002
 30
0.0
 11
10923.28634957185
 21
-3155.578508955002
 31
0.0
  0
LINE
  5
34
330
25
100
AcDbEntity
  8
1
  6
Continuous
 62
     0
100
AcDbLine
 10
10923.28634957185
 20
-3143.578508955002
 30
0.0
 11
10935.28634957185
 21
-3155.578508955002
 31
0.0
  0
LINE
  5
31
330
25
100
AcDbEntity
  8
1
  6
Continuous
 62
     0
100
AcDbLine
 10
10890.28634957185
 20
-3161.578508955002
 30
0.0
 11
10890.28634957185
 21
-3130.578508955002
 31
0.0
  0
LINE
  5
30
330
25
100
AcDbEntity
  8
1
  6
Continuous
 62
     0
100
AcDbLine
 10
10968.28634957185
 20
-3160.078508955002
 30
0.0
 11
10968.28634957185
 21
-3161.578508955002
 31
0.0
  0
LINE
  5
2F
330
25
100
AcDbEntity
  8
1
  6
Continuous
 62
     0
100
AcDbLine
 10
10968.28634957185
 20
-3139.078508955002
 30
0.0
 11
10968.28634957185
 21
-3130.578508955002
 31
0.0
  0
LINE
  5
2E
330
25
100
AcDbEntity
  8
1
  6
Continuous
 62
     0
100
AcDbLine
 10
10892.28634957185
 20
-3128.578508955002
 30
0.0
 11
10966.28634957185
 21
-3128.578508955002
 31
0.0
  0
LINE
  5
2D
330
25
100
AcDbEntity
  8
1
  6
Continuous
 62
     0
100
AcDbLine
 10
10966.28634957185
 20
-3163.578508955002
 30
0.0
 11
10892.28634957185
 21
-3163.578508955002
 31
0.0
  0
LINE
  5
2C
330
25
100
AcDbEntity
  8
1
  6
Continuous
 62
     0
100
AcDbLine
 10
10917.97465190876
 20
-3149.578508955002
 30
0.0
 11
10890.28634957185
 21
-3149.578508955002
 31
0.0
  0
POINT
  5
2B
330
25
100
AcDbEntity
  8
1
 62
     0
100
AcDbPoint
 10
11501.95878911014
 20
-435.092810960196
 30
0.0
  0
POINT
  5
2A
330
25
100
AcDbEntity
  8
1
 62
     0
100
AcDbPoint
 10
10889.12652386332
 20
-1131.433980742082
 30
0.0
  0
LINE
  5
9A1
330
25
100
AcDbEntity
  8
1
  6
Continuous
 62
     0
100
AcDbLine
 10
14178.27152418465
 20
-847.2836735115741
 30
0.0
 11
14174.27152418465
 21
-848.426530654431
 31
0.0
  0
LINE
  5
9A2
330
25
100
AcDbEntity
  8
1
  6
Continuous
 62
     0
100
AcDbLine
 10
14178.27152418465
 20
-832.3503401782409
 30
0.0
 11
14174.27152418465
 21
-832.3503401782409
 31
0.0
  0
LINE
  5
9A3
330
25
100
AcDbEntity
  8
1
  6
Continuous
 62
     0
100
AcDbLine
 10
14188.27152418465
 20
-858.3503401782409
 30
0.0
 11
14188.27152418465
 21
-834.3503401782409
 31
0.0
  0
LINE
  5
9A4
330
25
100
AcDbEntity
  8
1
  6
Continuous
 62
     0
100
AcDbLine
 10
14187.19972741492
 20
-860.2067466387921
 30
0.0
 11
14188.27152418465
 21
-858.3503401782409
 31
0.0
  0
LINE
  5
9A5
330
25
100
AcDbEntity
  8
1
  6
Continuous
 62
     0
100
AcDbLine
 10
14171.27152418465
 20
-825.092810960196
 30
0.0
 11
14171.27152418465
 21
-983.092810960196
 31
0.0
  0
LINE
  5
9A6
330
25
100
AcDbEntity
  8
1
  6
Continuous
 62
     0
100
AcDbLine
 10
14161.27152418465
 20
-825.092810960196
 30
0.0
 11
14161.27152418465
 21
-983.092810960196
 31
0.0
  0
LINE
  5
9A7
330
25
100
AcDbEntity
  8
1
  6
Continuous
 62
     0
100
AcDbLine
 10
14187.19972741492
 20
-832.49393371769
 30
0.0
 11
14178.27152418465
 21
-832.49393371769
 31
0.0
  0
LINE
  5
9A8
330
25
100
AcDbEntity
  8
1
  6
Continuous
 62
     0
100
AcDbLine
 10
14178.27152418465
 20
-853.278543408517
 30
0.0
 11
14187.19972741492
 21
-853.278543408517
 31
0.0
  0
LINE
  5
9A9
330
25
100
AcDbEntity
  8
1
  6
Continuous
 62
     0
100
AcDbLine
 10
14178.27152418465
 20
-860.2067466387921
 30
0.0
 11
14187.19972741492
 21
-860.2067466387921
 31
0.0
  0
LINE
  5
9AA
330
25
100
AcDbEntity
  8
1
  6
Continuous
 62
     0
100
AcDbLine
 10
14178.27152418465
 20
-860.3503401782409
 30
0.0
 11
14178.27152418465
 21
-832.3503401782409
 31
0.0
  0
LINE
  5
9AB
330
25
100
AcDbEntity
  8
1
  6
Continuous
 62
     0
100
AcDbLine
 10
14174.27152418465
 20
-860.3503401782409
 30
0.0
 11
14178.27152418465
 21
-860.3503401782409
 31
0.0
  0
LINE
  5
9AD
330
25
100
AcDbEntity
  8
1
  6
Continuous
 62
     0
100
AcDbLine
 10
14178.27152418465
 20
-839.4221369479651
 30
0.0
 11
14187.19972741492
 21
-839.4221369479651
 31
0.0
  0
LINE
  5
9AE
330
25
100
AcDbEntity
  8
1
  6
Continuous
 62
     0
100
AcDbLine
 10
14171.27152418465
 20
-825.092810960196
 30
0.0
 11
14156.27152418465
 21
-825.092810960196
 31
0.0
  0
LINE
  5
9AF
330
25
100
AcDbEntity
  8
1
  6
Continuous
 62
     0
100
AcDbLine
 10
14188.27152418465
 20
-834.3503401782409
 30
0.0
 11
14187.19972741492
 21
-832.49393371769
 31
0.0
  0
LINE
  5
9B0
330
25
100
AcDbEntity
  8
1
  6
Continuous
 62
     0
100
AcDbLine
 10
14171.27152418465
 20
-983.092810960196
 30
0.0
 11
14156.27152418465
 21
-983.092810960196
 31
0.0
  0
ARC
  5
9B1
330
25
100
AcDbEntity
  8
1
  6
Continuous
 62
     0
100
AcDbCircle
 10
14182.08317902376
 20
-951.4261545854861
 30
0.0
 40
6.18836802561
100
AcDbArc
 50
325.7715041969303
 51
24.02067708104479
  0
ARC
  5
9B2
330
25
100
AcDbEntity
  8
1
  6
Continuous
 62
     0
100
AcDbCircle
 10
14165.34332095437
 20
-961.8352817421519
 30
0.0
 40
22.928203230275
100
AcDbArc
 50
342.4120462260065
 51
17.58795377399364
  0
ARC
  5
9B3
330
25
100
AcDbEntity
  8
1
  6
Continuous
 62
     0
100
AcDbCircle
 10
14182.08317902376
 20
-972.2444088988179
 30
0.0
 40
6.188368025608
100
AcDbArc
 50
335.9793229189551
 51
34.22849580307209
  0
ARC
  5
9B4
330
25
100
AcDbEntity
  8
1
  6
Continuous
 62
     0
100
AcDbCircle
 10
14165.34332095437
 20
-928.0105254830139
 30
0.0
 40
22.928203230275
100
AcDbArc
 50
342.4120462260065
 51
17.5879537739931
  0
ARC
  5
9B5
330
25
100
AcDbEntity
  8
1
  6
Continuous
 62
     0
100
AcDbCircle
 10
14182.08317902376
 20
-938.41965263968
 30
0.0
 40
6.188368025608
100
AcDbArc
 50
335.9793229189551
 51
34.22849580307209
  0
ARC
  5
9B6
330
25
100
AcDbEntity
  8
1
  6
Continuous
 62
     0
100
AcDbCircle
 10
14182.08317902376
 20
-917.601398326349
 30
0.0
 40
6.18836802561
100
AcDbArc
 50
325.7715041969303
 51
24.02067708104479
  0
LINE
  5
9B7
330
25
100
AcDbEntity
  8
1
  6
Continuous
 62
     0
100
AcDbLine
 10
14187.19972741492
 20
-914.1541190224641
 30
0.0
 11
14178.27152418465
 21
-914.1541190224641
 31
0.0
  0
LINE
  5
9B8
330
25
100
AcDbEntity
  8
1
  6
Continuous
 62
     0
100
AcDbLine
 10
14178.27152418465
 20
-881.1084297707109
 30
0.0
 11
14174.27152418465
 21
-882.251286913569
 31
0.0
  0
LINE
  5
9B9
330
25
100
AcDbEntity
  8
1
  6
Continuous
 62
     0
100
AcDbLine
 10
14187.19972741492
 20
-975.6916882027031
 30
0.0
 11
14188.27152418465
 21
-973.8352817421519
 31
0.0
  0
LINE
  5
9BB
330
25
100
AcDbEntity
  8
1
  6
Continuous
 62
     0
100
AcDbLine
 10
14178.27152418465
 20
-878.0989059611879
 30
0.0
 11
14174.27152418465
 21
-879.241763104045
 31
0.0
  0
LINE
  5
9BC
330
25
100
AcDbEntity
  8
1
  6
Continuous
 62
     0
100
AcDbLine
 10
14171.27152418465
 20
-895.175096437378
 30
0.0
 11
14174.27152418465
 21
-895.175096437378
 31
0.0
  0
ARC
  5
9BD
330
25
100
AcDbEntity
  8
1
  6
Continuous
 62
     0
100
AcDbCircle
 10
14182.08317902376
 20
-890.584223594044
 30
0.0
 40
6.188368025608
100
AcDbArc
 50
335.9793229189551
 51
34.22849580307209
  0
LINE
  5
9BE
330
25
100
AcDbEntity
  8
1
  6
Continuous
 62
     0
100
AcDbLine
 10
14187.19972741492
 20
-954.9070785118761
 30
0.0
 11
14178.27152418465
 21
-954.9070785118761
 31
0.0
  0
LINE
  5
9BF
330
25
100
AcDbEntity
  8
1
  6
Continuous
 62
     0
100
AcDbLine
 10
14188.27152418465
 20
-868.175096437378
 30
0.0
 11
14187.19972741492
 21
-866.318689976827
 31
0.0
  0
ARC
  5
9C0
330
25
100
AcDbEntity
  8
1
  6
Continuous
 62
     0
100
AcDbCircle
 10
14182.08317902376
 20
-835.9412130215751
 30
0.0
 40
6.18836802561
100
AcDbArc
 50
325.7715041969303
 51
24.02067708104479
  0
ARC
  5
9C1
330
25
100
AcDbEntity
  8
1
  6
Continuous
 62
     0
100
AcDbCircle
 10
14608.39396944013
 20
-904.092810960196
 30
0.0
 40
458.97244525548
100
AcDbArc
 50
170.088686020986
 51
189.9113139790138
  0
LINE
  5
9C2
330
25
100
AcDbEntity
  8
1
  6
Continuous
 62
     0
100
AcDbLine
 10
14178.27152418465
 20
-975.8352817421519
 30
0.0
 11
14178.27152418465
 21
-947.8352817421519
 31
0.0
  0
LINE
  5
9C3
330
25
100
AcDbEntity
  8
1
  6
Continuous
 62
     0
100
AcDbLine
 10
14174.27152418465
 20
-976.8352817421519
 30
0.0
 11
14174.27152418465
 21
-946.8352817421519
 31
0.0
  0
LINE
  5
9C4
330
25
100
AcDbEntity
  8
1
  6
Continuous
 62
     0
100
AcDbLine
 10
14187.19972741492
 20
-968.7634849724279
 30
0.0
 11
14178.27152418465
 21
-968.7634849724279
 31
0.0
  0
LINE
  5
9C5
330
25
100
AcDbEntity
  8
1
  6
Continuous
 62
     0
100
AcDbLine
 10
14171.27152418465
 20
-913.0105254830139
 30
0.0
 11
14171.27152418465
 21
-943.0105254830139
 31
0.0
  0
ARC
  5
9C6
330
25
100
AcDbEntity
  8
1
  6
Continuous
 62
     0
100
AcDbCircle
 10
14182.08317902376
 20
-856.759467334907
 30
0.0
 40
6.188368025608
100
AcDbArc
 50
335.9793229189551
 51
34.22849580307209
  0
LINE
  5
9C7
330
25
100
AcDbEntity
  8
1
  6
Continuous
 62
     0
100
AcDbLine
 10
14171.27152418465
 20
-946.8352817421519
 30
0.0
 11
14171.27152418465
 21
-976.8352817421519
 31
0.0
  0
LINE
  5
9C8
330
25
100
AcDbEntity
  8
1
  6
Continuous
 62
     0
100
AcDbLine
 10
14187.19972741492
 20
-947.978875281601
 30
0.0
 11
14178.27152418465
 21
-947.978875281601
 31
0.0
  0
LINE
  5
9C9
330
25
100
AcDbEntity
  8
1
  6
Continuous
 62
     0
100
AcDbLine
 10
14174.27152418465
 20
-959.7590912659609
 30
0.0
 11
14178.27152418465
 21
-960.901948408818
 31
0.0
  0
LINE
  5
9CA
330
25
100
AcDbEntity
  8
1
  6
Continuous
 62
     0
100
AcDbLine
 10
14174.27152418465
 20
-962.7686150754851
 30
0.0
 11
14178.27152418465
 21
-963.9114722183419
 31
0.0
  0
LINE
  5
9CB
330
25
100
AcDbEntity
  8
1
  6
Continuous
 62
     0
100
AcDbLine
 10
14188.27152418465
 20
-973.8352817421519
 30
0.0
 11
14188.27152418465
 21
-949.8352817421519
 31
0.0
  0
LINE
  5
9CC
330
25
100
AcDbEntity
  8
1
  6
Continuous
 62
     0
100
AcDbLine
 10
14174.27152418465
 20
-946.8352817421519
 30
0.0
 11
14171.27152418465
 21
-946.8352817421519
 31
0.0
  0
LINE
  5
9CD
330
25
100
AcDbEntity
  8
1
  6
Continuous
 62
     0
100
AcDbLine
 10
14171.27152418465
 20
-943.0105254830139
 30
0.0
 11
14174.27152418465
 21
-943.0105254830139
 31
0.0
  0
LINE
  5
9CE
330
25
100
AcDbEntity
  8
1
  6
Continuous
 62
     0
100
AcDbLine
 10
14174.27152418465
 20
-942.0105254830139
 30
0.0
 11
14178.27152418465
 21
-942.0105254830139
 31
0.0
  0
LINE
  5
9CF
330
25
100
AcDbEntity
  8
1
  6
Continuous
 62
     0
100
AcDbLine
 10
14178.27152418465
 20
-942.0105254830139
 30
0.0
 11
14178.27152418465
 21
-914.0105254830139
 31
0.0
  0
ARC
  5
9D1
330
25
100
AcDbEntity
  8
1
  6
Continuous
 62
     0
100
AcDbCircle
 10
14165.34332095437
 20
-880.175096437378
 30
0.0
 40
22.928203230275
100
AcDbArc
 50
342.4120462260065
 51
17.5879537739931
  0
LINE
  5
9D2
330
25
100
AcDbEntity
  8
1
  6
Continuous
 62
     0
100
AcDbLine
 10
14188.27152418465
 20
-916.0105254830139
 30
0.0
 11
14187.19972741492
 21
-914.1541190224641
 31
0.0
  0
LINE
  5
9D3
330
25
100
AcDbEntity
  8
1
  6
Continuous
 62
     0
100
AcDbLine
 10
14171.27152418465
 20
-976.8352817421519
 30
0.0
 11
14174.27152418465
 21
-976.8352817421519
 31
0.0
  0
LINE
  5
9D4
330
25
100
AcDbEntity
  8
1
  6
Continuous
 62
     0
100
AcDbLine
 10
14187.19972741492
 20
-941.866931943566
 30
0.0
 11
14188.27152418465
 21
-940.0105254830139
 31
0.0
  0
LINE
  5
9D5
330
25
100
AcDbEntity
  8
1
  6
Continuous
 62
     0
100
AcDbLine
 10
14188.27152418465
 20
-949.8352817421519
 30
0.0
 11
14187.19972741492
 21
-947.978875281601
 31
0.0
  0
LINE
  5
9D6
330
25
100
AcDbEntity
  8
1
  6
Continuous
 62
     0
100
AcDbLine
 10
14178.27152418465
 20
-947.8352817421519
 30
0.0
 11
14174.27152418465
 21
-947.8352817421519
 31
0.0
  0
LINE
  5
9D7
330
25
100
AcDbEntity
  8
1
  6
Continuous
 62
     0
100
AcDbLine
 10
14174.27152418465
 20
-928.943858816348
 30
0.0
 11
14178.27152418465
 21
-930.0867159592051
 31
0.0
  0
LINE
  5
9D8
330
25
100
AcDbEntity
  8
1
  6
Continuous
 62
     0
100
AcDbLine
 10
14174.27152418465
 20
-925.9343350068241
 30
0.0
 11
14178.27152418465
 21
-927.077192149681
 31
0.0
  0
LINE
  5
9D9
330
25
100
AcDbEntity
  8
1
  6
Continuous
 62
     0
100
AcDbLine
 10
14178.27152418465
 20
-975.6916882027031
 30
0.0
 11
14187.19972741492
 21
-975.6916882027031
 31
0.0
  0
LINE
  5
9DA
330
25
100
AcDbEntity
  8
1
  6
Continuous
 62
     0
100
AcDbLine
 10
14178.27152418465
 20
-914.0105254830139
 30
0.0
 11
14174.27152418465
 21
-914.0105254830139
 31
0.0
  0
LINE
  5
9DB
330
25
100
AcDbEntity
  8
1
  6
Continuous
 62
     0
100
AcDbLine
 10
14187.19972741492
 20
-921.082322252739
 30
0.0
 11
14178.27152418465
 21
-921.082322252739
 31
0.0
  0
LINE
  5
9DC
330
25
100
AcDbEntity
  8
1
  6
Continuous
 62
     0
100
AcDbLine
 10
14188.27152418465
 20
-940.0105254830139
 30
0.0
 11
14188.27152418465
 21
-916.0105254830139
 31
0.0
  0
LINE
  5
9DD
330
25
100
AcDbEntity
  8
1
  6
Continuous
 62
     0
100
AcDbLine
 10
14187.19972741492
 20
-934.93872871329
 30
0.0
 11
14178.27152418465
 21
-934.93872871329
 31
0.0
  0
LINE
  5
9DE
330
25
100
AcDbEntity
  8
1
  6
Continuous
 62
     0
100
AcDbLine
 10
14178.27152418465
 20
-894.0315028979289
 30
0.0
 11
14187.19972741492
 21
-894.0315028979289
 31
0.0
  0
LINE
  5
9DF
330
25
100
AcDbEntity
  8
1
  6
Continuous
 62
     0
100
AcDbLine
 10
14174.27152418465
 20
-913.0105254830139
 30
0.0
 11
14171.27152418465
 21
-913.0105254830139
 31
0.0
  0
LINE
  5
9E0
330
25
100
AcDbEntity
  8
1
  6
Continuous
 62
     0
100
AcDbLine
 10
14187.19972741492
 20
-894.0315028979289
 30
0.0
 11
14188.27152418465
 21
-892.175096437378
 31
0.0
  0
LINE
  5
9E1
330
25
100
AcDbEntity
  8
1
  6
Continuous
 62
     0
100
AcDbLine
 10
14188.27152418465
 20
-892.175096437378
 30
0.0
 11
14188.27152418465
 21
-868.175096437378
 31
0.0
  0
LINE
  5
9E2
330
25
100
AcDbEntity
  8
1
  6
Continuous
 62
     0
100
AcDbLine
 10
14174.27152418465
 20
-943.0105254830139
 30
0.0
 11
14174.27152418465
 21
-913.0105254830139
 31
0.0
  0
LINE
  5
9E3
330
25
100
AcDbEntity
  8
1
  6
Continuous
 62
     0
100
AcDbLine
 10
14187.19972741492
 20
-866.318689976827
 30
0.0
 11
14178.27152418465
 21
-866.318689976827
 31
0.0
  0
ARC
  5
9E4
330
25
100
AcDbEntity
  8
1
  6
Continuous
 62
     0
100
AcDbCircle
 10
14182.08317902376
 20
-869.7659692807131
 30
0.0
 40
6.18836802561
100
AcDbArc
 50
325.7715041969303
 51
24.02067708104479
  0
LINE
  5
9E5
330
25
100
AcDbEntity
  8
1
  6
Continuous
 62
     0
100
AcDbLine
 10
14178.27152418465
 20
-887.103299667654
 30
0.0
 11
14187.19972741492
 21
-887.103299667654
 31
0.0
  0
LINE
  5
9E6
330
25
100
AcDbEntity
  8
1
  6
Continuous
 62
     0
100
AcDbLine
 10
14178.27152418465
 20
-941.866931943566
 30
0.0
 11
14187.19972741492
 21
-941.866931943566
 31
0.0
  0
LINE
  5
9E7
330
25
100
AcDbEntity
  8
1
  6
Continuous
 62
     0
100
AcDbLine
 10
14178.27152418465
 20
-873.2468932071031
 30
0.0
 11
14187.19972741492
 21
-873.2468932071031
 31
0.0
  0
LINE
  5
9E8
330
25
100
AcDbEntity
  8
1
  6
Continuous
 62
     0
100
AcDbLine
 10
14174.27152418465
 20
-894.175096437378
 30
0.0
 11
14178.27152418465
 21
-894.175096437378
 31
0.0
  0
LINE
  5
9E9
330
25
100
AcDbEntity
  8
1
  6
Continuous
 62
     0
100
AcDbLine
 10
14178.27152418465
 20
-894.175096437378
 30
0.0
 11
14178.27152418465
 21
-866.175096437378
 31
0.0
  0
LINE
  5
9EA
330
25
100
AcDbEntity
  8
1
  6
Continuous
 62
     0
100
AcDbLine
 10
14178.27152418465
 20
-866.175096437378
 30
0.0
 11
14174.27152418465
 21
-866.175096437378
 31
0.0
  0
ARC
  5
9EB
330
25
100
AcDbEntity
  8
1
  6
Continuous
 62
     0
100
AcDbCircle
 10
14165.34332095437
 20
-846.3503401782409
 30
0.0
 40
22.928203230275
100
AcDbArc
 50
342.4120462260065
 51
17.58795377399364
  0
LINE
  5
9EC
330
25
100
AcDbEntity
  8
1
  6
Continuous
 62
     0
100
AcDbLine
 10
14174.27152418465
 20
-975.8352817421519
 30
0.0
 11
14178.27152418465
 21
-975.8352817421519
 31
0.0
  0
LINE
  5
9ED
330
25
100
AcDbEntity
  8
1
  6
Continuous
 62
     0
100
AcDbLine
 10
14174.27152418465
 20
-895.175096437378
 30
0.0
 11
14174.27152418465
 21
-865.175096437378
 31
0.0
  0
LINE
  5
9EE
330
25
100
AcDbEntity
  8
1
  6
Continuous
 62
     0
100
AcDbLine
 10
14174.27152418465
 20
-865.175096437378
 30
0.0
 11
14171.27152418465
 21
-865.175096437378
 31
0.0
  0
LINE
  5
9EF
330
25
100
AcDbEntity
  8
1
  6
Continuous
 62
     0
100
AcDbLine
 10
14171.27152418465
 20
-831.3503401782409
 30
0.0
 11
14171.27152418465
 21
-861.3503401782409
 31
0.0
  0
LINE
  5
9F0
330
25
100
AcDbEntity
  8
1
  6
Continuous
 62
     0
100
AcDbLine
 10
14178.27152418465
 20
-844.27414970205
 30
0.0
 11
14174.27152418465
 21
-845.417006844908
 31
0.0
  0
LINE
  5
9F1
330
25
100
AcDbEntity
  8
1
  6
Continuous
 62
     0
100
AcDbLine
 10
14171.27152418465
 20
-865.175096437378
 30
0.0
 11
14171.27152418465
 21
-895.175096437378
 31
0.0
  0
LINE
  5
9F2
330
25
100
AcDbEntity
  8
1
  6
Continuous
 62
     0
100
AcDbLine
 10
14174.27152418465
 20
-831.3503401782409
 30
0.0
 11
14171.27152418465
 21
-831.3503401782409
 31
0.0
  0
LINE
  5
9F3
330
25
100
AcDbEntity
  8
1
  6
Continuous
 62
     0
100
AcDbLine
 10
14174.27152418465
 20
-861.3503401782409
 30
0.0
 11
14174.27152418465
 21
-831.3503401782409
 31
0.0
  0
LINE
  5
9F5
330
25
100
AcDbEntity
  8
1
  6
Continuous
 62
     0
100
AcDbLine
 10
14171.27152418465
 20
-861.3503401782409
 30
0.0
 11
14174.27152418465
 21
-861.3503401782409
 31
0.0
  0
LINE
  5
ECB
330
25
100
AcDbEntity
  8
0
  6
Continuous
 62
     0
100
AcDbLine
 10
14156.27152418465
 20
-983.0928109602004
 30
0.0
 11
14156.27152418465
 21
-1259.092810960196
 31
0.0
  0
LINE
  5
ECC
330
25
100
AcDbEntity
  8
0
  6
Continuous
 62
     0
100
AcDbLine
 10
14156.27152418465
 20
-704.092810960196
 30
0.0
 11
14156.27152418465
 21
-825.092810960196
 31
0.0
  0
ENDBLK
  5
481
330
25
100
AcDbEntity
  8
0
100
AcDbBlockEnd
  0
BLOCK
  5
A15
330
A14
100
AcDbEntity
  8
0
100
AcDbBlockBegin
  2
*D1
 70
     1
 10
0.0
 20
0.0
 30
0.0
  3
*D1
  1

  0
LINE
  5
A17
330
A14
100
AcDbEntity
  8
0
  6
Continuous
 62
     0
370
    -2
100
AcDbLine
 10
11949.78507643026
 20
-2518.155310960197
 30
0.0
 11
11949.78507643026
 21
-2552.19315337078
 31
0.0
  0
LINE
  5
A18
330
A14
100
AcDbEntity
  8
0
  6
Continuous
 62
     0
370
    -2
100
AcDbLine
 10
11049.78507643026
 20
-2518.155310960197
 30
0.0
 11
11049.78507643026
 21
-2552.19315337078
 31
0.0
  0
LINE
  5
A19
330
A14
100
AcDbEntity
  8
0
  6
Continuous
 62
     0
370
    -2
100
AcDbLine
 10
11949.60507643026
 20
-2552.01315337078
 30
0.0
 11
11500.41507643026
 21
-2552.01315337078
 31
0.0
  0
LINE
  5
A1A
330
A14
100
AcDbEntity
  8
0
  6
Continuous
 62
     0
370
    -2
100
AcDbLine
 10
11049.96507643026
 20
-2552.01315337078
 30
0.0
 11
11499.15507643026
 21
-2552.01315337078
 31
0.0
  0
SOLID
  5
A1B
330
A14
100
AcDbEntity
  8
0
 62
     0
100
AcDbTrace
 10
11949.60507643026
 20
-2552.04315337078
 30
0.0
 11
11949.60507643026
 21
-2551.98315337078
 31
0.0
 12
11949.78507643026
 22
-2552.01315337078
 32
0.0
 13
11949.78507643026
 23
-2552.01315337078
 33
0.0
  0
SOLID
  5
A1C
330
A14
100
AcDbEntity
  8
0
 62
     0
100
AcDbTrace
 10
11049.96507643026
 20
-2551.98315337078
 30
0.0
 11
11049.96507643026
 21
-2552.04315337078
 31
0.0
 12
11049.78507643026
 22
-2552.01315337078
 32
0.0
 13
11049.78507643026
 23
-2552.01315337078
 33
0.0
  0
MTEXT
  5
A1D
330
A14
100
AcDbEntity
  8
0
  6
Continuous
 62
     0
100
AcDbMText
 10
11499.78507643026
 20
-2552.01315337078
 30
0.0
 40
0.18
 41
0.0
 46
0.0
 71
     5
 72
     1
  1
\A1;900.0000
 73
     1
 44
1.0
  0
POINT
  5
A1E
330
A14
100
AcDbEntity
  8
Defpoints
 62
     0
100
AcDbPoint
 10
11949.78507643026
 20
-2518.092810960197
 30
0.0
  0
POINT
  5
A1F
330
A14
100
AcDbEntity
  8
Defpoints
 62
     0
100
AcDbPoint
 10
11049.78507643026
 20
-2518.092810960197
 30
0.0
  0
POINT
  5
A20
330
A14
100
AcDbEntity
  8
Defpoints
 62
     0
100
AcDbPoint
 10
11049.78507643026
 20
-2552.01315337078
 30
0.0
  0
ENDBLK
  5
A16
330
A14
100
AcDbEntity
  8
0
100
AcDbBlockEnd
  0
BLOCK
  5
A25
330
A24
100
AcDbEntity
  8
0
100
AcDbBlockBegin
  2
*D2
 70
     1
 10
0.0
 20
0.0
 30
0.0
  3
*D2
  1

  0
LINE
  5
A27
330
A24
100
AcDbEntity
  8
0
  6
Continuous
 62
     0
370
    -2
100
AcDbLine
 10
14156.33402418465
 20
-704.092810960196
 30
0.0
 11
14814.68592612919
 21
-704.092810960196
 31
0.0
  0
LINE
  5
A28
330
A24
100
AcDbEntity
  8
0
  6
Continuous
 62
     0
370
    -2
100
AcDbLine
 10
14156.33402418465
 20
-1286.609764544105
 30
0.0
 11
14814.68592612919
 21
-1286.609764544105
 31
0.0
  0
LINE
  5
A29
330
A24
100
AcDbEntity
  8
0
  6
Continuous
 62
     0
370
    -2
100
AcDbLine
 10
14814.50592612919
 20
-704.2728109601959
 30
0.0
 11
14814.50592612919
 21
-995.1712877521504
 31
0.0
  0
LINE
  5
A2A
330
A24
100
AcDbEntity
  8
0
  6
Continuous
 62
     0
370
    -2
100
AcDbLine
 10
14814.50592612919
 20
-1286.429764544105
 30
0.0
 11
14814.50592612919
 21
-995.5312877521505
 31
0.0
  0
SOLID
  5
A2B
330
A24
100
AcDbEntity
  8
0
 62
     0
100
AcDbTrace
 10
14814.53592612919
 20
-704.2728109601959
 30
0.0
 11
14814.47592612919
 21
-704.2728109601959
 31
0.0
 12
14814.50592612919
 22
-704.092810960196
 32
0.0
 13
14814.50592612919
 23
-704.092810960196
 33
0.0
  0
SOLID
  5
A2C
330
A24
100
AcDbEntity
  8
0
 62
     0
100
AcDbTrace
 10
14814.47592612919
 20
-1286.429764544105
 30
0.0
 11
14814.53592612919
 21
-1286.429764544105
 31
0.0
 12
14814.50592612919
 22
-1286.609764544105
 32
0.0
 13
14814.50592612919
 23
-1286.609764544105
 33
0.0
  0
MTEXT
  5
A2D
330
A24
100
AcDbEntity
  8
0
  6
Continuous
 62
     0
100
AcDbMText
 10
14814.50592612919
 20
-995.3512877521505
 30
0.0
 40
0.18
 41
0.0
 46
0.0
 71
     5
 72
     1
  1
\A1;582.5170
 73
     1
 44
1.0
  0
POINT
  5
A2E
330
A24
100
AcDbEntity
  8
Defpoints
 62
     0
100
AcDbPoint
 10
14156.27152418465
 20
-704.092810960196
 30
0.0
  0
POINT
  5
A2F
330
A24
100
AcDbEntity
  8
Defpoints
 62
     0
100
AcDbPoint
 10
14156.27152418465
 20
-1286.609764544105
 30
0.0
  0
POINT
  5
A30
330
A24
100
AcDbEntity
  8
Defpoints
 62
     0
100
AcDbPoint
 10
14814.50592612919
 20
-1286.609764544105
 30
0.0
  0
ENDBLK
  5
A26
330
A24
100
AcDbEntity
  8
0
100
AcDbBlockEnd
  0
ENDSEC
  0
SECTION
  2
ENTITIES
  0
TEXT
  5
484
330
A
100
AcDbEntity
  8
1
 62
     0
100
AcDbText
 10
15400.8721358269
 20
-3569.743720262341
 30
0.0
 40
35.0
  1
SAT-1000C-100
 41
0.9
  7
CONVERTER_1
100
AcDbText
  0
INSERT
  5
29
330
A
100
AcDbEntity
  8
0
100
AcDbBlockReference
  2
SAT1000C100__1
 10
0.0
 20
0.0
 30
0.0
  0
VIEWPORT
  5
3213
330
320F
100
AcDbEntity
 67
     1
  8
0
100
AcDbViewport
 10
5.25
 20
3.5
 30
0.0
 40
11.55
 41
8.925
 68
     1
 69
     1
 12
5.25
 22
3.5
 13
0.0
 23
0.0
 14
0.5
 24
0.5
 15
0.0
 25
0.0
 16
0.0
 26
0.0
 36
1.0
 17
0.0
 27
0.0
 37
0.0
 42
50.0
 43
0.0
 44
0.0
 45
8.925
 50
0.0
 51
0.0
 72
   100
 90
   557152
  1

281
     0
 71
     1
 74
     0
110
0.0
120
0.0
130
0.0
111
1.0
121
0.0
131
0.0
112
0.0
122
1.0
132
0.0
 79
     0
146
0.0
170
     0
 61
     5
348
4B3
292
     1
282
     1
141
0.0
142
0.0
 63
   256
361
3217
  0
VIEWPORT
  5
3214
102
{ACAD_XDICTIONARY
360
3215
102
}
330
320F
100
AcDbEntity
 67
     1
  8
0
100
AcDbViewport
 10
5.25
 20
3.5
 30
0.0
 40
8.4
 41
5.600000000000001
 68
     2
 69
     2
 12
13320.87432984511
 22
-2037.835659957599
 13
0.0
 23
0.0
 14
0.5
 24
0.5
 15
0.0
 25
0.0
 16
0.0
 26
0.0
 36
1.0
 17
0.0
 27
0.0
 37
0.0
 42
50.0
 43
0.0
 44
0.0
 45
3307.177016135234
 50
0.0
 51
0.0
 72
   100
 90
   557152
  1

281
     0
 71
     1
 74
     0
110
0.0
120
0.0
130
0.0
111
1.0
121
0.0
131
0.0
112
0.0
122
1.0
132
0.0
 79
     0
146
0.0
170
     0
 61
     5
348
4B3
292
     1
282
     1
141
0.0
142
0.0
 63
   256
  0
ENDSEC
  0
SECTION
  2
OBJECTS
  0
DICTIONARY
  5
19
330
0
100
AcDbDictionary
281
     1
  3
ACAD_DETAILVIEWSTYLE
350
A0B
  3
ACAD_GROUP
350
1A
  3
ACAD_LAYOUT
350
4AB
  3
ACAD_MATERIAL
350
4C7
  3
ACAD_MLEADERSTYLE
350
4CD
  3
ACAD_MLINESTYLE
350
1B
  3
ACAD_PLOTSETTINGS
350
486
  3
ACAD_PLOTSTYLENAME
350
487
  3
ACAD_SCALELIST
350
489
  3
ACAD_SECTIONVIEWSTYLE
350
A0C
  3
ACAD_TABLESTYLE
350
4CB
  3
ACAD_VISUALSTYLE
350
4AE
  3
ACDB_RECOMPOSE_DATA
350
321D
  3
AcDbVariableDictionary
350
A03
  3
APPDATA
350
4CF
  0
SUN
  5
EC9
330
15
100
AcDbSun
 90
        1
290
     0
 63
     7
421
 16777215
 40
1.0
291
     1
 91
  2455826
 92
 54000000
292
     0
 70
     2
 71
   256
280
     1
  0
SUN
  5
3217
330
3213
100
AcDbSun
 90
        1
290
     0
 63
     7
421
 16777215
 40
1.0
291
     1
 91
  2455826
 92
 54000000
292
     0
 70
     2
 71
   256
280
     1
  0
DICTIONARY
  5
3215
330
3214
100
AcDbDictionary
280
     1
281
     1
  3
ASDK_XREC_ANNOTATION_SCALE_INFO
360
3216
  0
DICTIONARY
  5
A0B
102
{ACAD_REACTORS
330
19
102
}
330
19
100
AcDbDictionary
281
     1
  0
DICTIONARY
  5
1A
102
{ACAD_REACTORS
330
19
102
}
330
19
100
AcDbDictionary
281
     1
  0
DICTIONARY
  5
4AB
102
{ACAD_REACTORS
330
19
102
}
330
19
100
AcDbDictionary
281
     1
  3
Model
350
4AC
  3
シート1
350
3210
  0
DICTIONARY
  5
4C7
102
{ACAD_REACTORS
330
19
102
}
330
19
100
AcDbDictionary
281
     1
  3
ByBlock
350
4C9
  3
ByLayer
350
4C8
  3
Global
350
4CA
  0
DICTIONARY
  5
4CD
102
{ACAD_REACTORS
330
19
102
}
330
19
100
AcDbDictionary
281
     1
  3
Standard
350
4CE
  0
DICTIONARY
  5
1B
102
{ACAD_REACTORS
330
19
102
}
330
19
100
AcDbDictionary
281
     1
  3
STANDARD
350
1C
  0
DICTIONARY
  5
486
102
{ACAD_REACTORS
330
19
102
}
330
19
100
AcDbDictionary
281
     1
  0
ACDBDICTIONARYWDFLT
  5
487
102
{ACAD_REACTORS
330
19
102
}
330
19
100
AcDbDictionary
281
     1
  3
Normal
350
488
100
AcDbDictionaryWithDefault
340
488
  0
DICTIONARY
  5
489
102
{ACAD_REACTORS
330
19
102
}
330
19
100
AcDbDictionary
281
     1
  3
A0
350
48A
  3
A1
350
48B
  3
A2
350
48C
  3
A3
350
48D
  3
A4
350
48E
  3
A5
350
48F
  3
A6
350
490
  3
A7
350
491
  3
A8
350
492
  3
A9
350
493
  3
B0
350
494
  3
B1
350
495
  3
B2
350
496
  3
B3
350
497
  3
B4
350
498
  3
B5
350
499
  3
B6
350
49A
  3
B7
350
49B
  3
B8
350
49C
  3
B9
350
49D
  3
C0
350
49E
  3
C1
350
49F
  3
C2
350
4A0
  3
C3
350
4A1
  3
C4
350
4A2
  3
C5
350
4A3
  3
C6
350
4A4
  3
C7
350
4A5
  3
C8
350
4A6
  3
C9
350
4A7
  3
D0
350
4A8
  3
D1
350
4A9
  3
D2
350
4AA
  0
DICTIONARY
  5
A0C
102
{ACAD_REACTORS
330
19
102
}
330
19
100
AcDbDictionary
281
     1
  0
DICTIONARY
  5
4CB
102
{ACAD_REACTORS
330
19
102
}
330
19
100
AcDbDictionary
281
     1
  3
Standard
350
4CC
  0
DICTIONARY
  5
4AE
102
{ACAD_REACTORS
330
19
102
}
330
19
100
AcDbDictionary
281
     1
  3
2dWireframe
350
4B3
  3
Basic
350
4B6
  3
Brighten
350
4BA
  3
ColorChange
350
4BE
  3
Conceptual
350
4B8
  3
Dim
350
4B9
  3
EdgeColorOff
350
4C1
  3
Facepattern
350
4BD
  3
Flat
350
4AF
  3
FlatWithEdges
350
4B0
  3
Gouraud
350
4B1
  3
GouraudWithEdges
350
4B2
  3
Hidden
350
4B5
  3
JitterOff
350
4BF
  3
Linepattern
350
4BC
  3
OverhangOff
350
4C0
  3
Realistic
350
4B7
  3
Shaded
350
4C6
  3
Shaded with edges
350
4C5
  3
Shades of Gray
350
4C2
  3
Sketchy
350
4C3
  3
Thicken
350
4BB
  3
Wireframe
350
4B4
  3
X-Ray
350
4C4
  0
XRECORD
  5
321D
102
{ACAD_REACTORS
330
19
102
}
330
19
100
AcDbXrecord
280
     1
 90
        1
330
4CC
  0
DICTIONARY
  5
A03
102
{ACAD_REACTORS
330
19
102
}
330
19
100
AcDbDictionary
281
     1
  3
CANNOSCALE
350
A04
  3
CMLEADERSTYLE
350
A09
  3
CTABLESTYLE
350
A08
  3
MSLTSCALE
350
A0A
  0
DICTIONARY
  5
4CF
102
{ACAD_REACTORS
330
19
102
}
330
19
100
AcDbDictionary
281
     1
  0
XRECORD
  5
3216
102
{ACAD_REACTORS
330
3215
102
}
330
3215
100
AcDbXrecord
280
     1
 90
        1
340
48A
  0
LAYOUT
  5
4AC
102
{ACAD_REACTORS
330
4AB
102
}
330
4AB
100
AcDbPlotSettings
  1

  2
none_device
  4
Letter_(8.50_x_11.00_Inches)
  6

 40
6.35
 41
6.35
 42
6.35
 43
6.35
 44
215.9
 45
279.4
 46
0.0
 47
0.0
 48
0.0
 49
0.0
140
0.0
141
0.0
142
1.0
143
0.8722256190476192
 70
  1712
 72
     0
 73
     0
 74
     0
  7

 75
     0
 76
     0
 77
     2
 78
   300
147
1.146492350330064
148
-87.33095066012679
149
0.0000127000000131
100
AcDbLayout
  1
Model
 70
     1
 71
     0
 10
0.0
 20
0.0
 11
0.0
 21
0.0
 12
0.0
 22
0.0
 32
0.0
 14
10889.12652386332
 24
-3640.578531819732
 34
0.0
 15
15752.6221358269
 25
-435.0928109601909
 35
0.0
146
0.0
 13
0.0
 23
0.0
 33
0.0
 16
1.0
 26
0.0
 36
0.0
 17
0.0
 27
1.0
 37
0.0
 76
     0
330
A
331
15
  0
LAYOUT
  5
3210
102
{ACAD_REACTORS
330
4AB
102
}
330
4AB
100
AcDbPlotSettings
  1

  2
none_device
  4
ANSI_A_(11.00_x_8.50_Inches)
  6

 40
6.35
 41
19.05
 42
6.35
 43
19.05
 44
279.4
 45
215.9
 46
0.0
 47
0.0
 48
0.0
 49
0.0
140
0.0
141
0.0
142
1.0
143
1.0
 70
   688
 72
     0
 73
     0
 74
     5
  7

 75
    16
 76
     0
 77
     2
 78
   300
147
1.0
148
0.0
149
0.0
100
AcDbLayout
  1
シート1
 70
     1
 71
     1
 10
0.0
 20
0.0
 11
0.0
 21
0.0
 12
0.0
 22
0.0
 32
0.0
 14
1.05
 24
0.6999999999999997
 34
0.0
 15
9.45
 25
6.300000000000001
 35
0.0
146
0.0
 13
0.0
 23
0.0
 33
0.0
 16
1.0
 26
0.0
 36
0.0
 17
0.0
 27
1.0
 37
0.0
 76
     0
330
320F
331
3213
  0
MATERIAL
  5
4C9
102
{ACAD_REACTORS
330
4C7
102
}
330
4C7
100
AcDbMaterial
  1
ByBlock
 72
     1
 94
      127
  0
MATERIAL
  5
4C8
102
{ACAD_REACTORS
330
4C7
102
}
330
4C7
100
AcDbMaterial
  1
ByLayer
 72
     1
 94
      127
  0
MATERIAL
  5
4CA
102
{ACAD_REACTORS
330
4C7
102
}
330
4C7
100
AcDbMaterial
  1
Global
 72
     1
 94
      127
  0
MLEADERSTYLE
  5
4CE
102
{ACAD_REACTORS
330
4CD
102
}
330
4CD
100
AcDbMLeaderStyle
179
     2
170
     2
171
     1
172
     0
 90
        2
 40
0.0
 41
0.0
173
     1
 91
-1056964608
340
11
 92
       -2
290
     1
 42
0.09
291
     1
 43
0.36
  3
Standard
341
0
 44
0.18
300

342
17
174
     1
178
     1
175
     1
176
     0
 93
-1056964608
 45
0.18
292
     0
297
     0
 46
0.18
343
0
 94
-1056964608
 47
1.0
 49
1.0
140
1.0
293
     1
141
0.0
294
     1
177
     0
142
1.0
295
     0
296
     0
143
0.125
271
     0
272
     9
273
     9
298
     0
  0
MLINESTYLE
  5
1C
102
{ACAD_REACTORS
330
1B
102
}
330
1B
100
AcDbMlineStyle
  2
STANDARD
 70
     0
  3

 62
     0
 51
90.0
 52
90.0
 71
     2
 49
0.5
 62
   256
  6
BYLAYER
 49
-0.5
 62
   256
  6
BYLAYER
  0
ACDBPLACEHOLDER
  5
488
102
{ACAD_REACTORS
330
487
102
}
330
487
  0
SCALE
  5
48A
102
{ACAD_REACTORS
330
489
102
}
330
489
100
AcDbScale
 70
     0
300
1:1
140
1.0
141
1.0
290
     1
  0
SCALE
  5
48B
102
{ACAD_REACTORS
330
489
102
}
330
489
100
AcDbScale
 70
     0
300
1:2
140
1.0
141
2.0
290
     0
  0
SCALE
  5
48C
102
{ACAD_REACTORS
330
489
102
}
330
489
100
AcDbScale
 70
     0
300
1:4
140
1.0
141
4.0
290
     0
  0
SCALE
  5
48D
102
{ACAD_REACTORS
330
489
102
}
330
489
100
AcDbScale
 70
     0
300
1:5
140
1.0
141
5.0
290
     0
  0
SCALE
  5
48E
102
{ACAD_REACTORS
330
489
102
}
330
489
100
AcDbScale
 70
     0
300
1:8
140
1.0
141
8.0
290
     0
  0
SCALE
  5
48F
102
{ACAD_REACTORS
330
489
102
}
330
489
100
AcDbScale
 70
     0
300
1:10
140
1.0
141
10.0
290
     0
  0
SCALE
  5
490
102
{ACAD_REACTORS
330
489
102
}
330
489
100
AcDbScale
 70
     0
300
1:16
140
1.0
141
16.0
290
     0
  0
SCALE
  5
491
102
{ACAD_REACTORS
330
489
102
}
330
489
100
AcDbScale
 70
     0
300
1:20
140
1.0
141
20.0
290
     0
  0
SCALE
  5
492
102
{ACAD_REACTORS
330
489
102
}
330
489
100
AcDbScale
 70
     0
300
1:30
140
1.0
141
30.0
290
     0
  0
SCALE
  5
493
102
{ACAD_REACTORS
330
489
102
}
330
489
100
AcDbScale
 70
     0
300
1:40
140
1.0
141
40.0
290
     0
  0
SCALE
  5
494
102
{ACAD_REACTORS
330
489
102
}
330
489
100
AcDbScale
 70
     0
300
1:50
140
1.0
141
50.0
290
     0
  0
SCALE
  5
495
102
{ACAD_REACTORS
330
489
102
}
330
489
100
AcDbScale
 70
     0
300
1:100
140
1.0
141
100.0
290
     0
  0
SCALE
  5
496
102
{ACAD_REACTORS
330
489
102
}
330
489
100
AcDbScale
 70
     0
300
2:1
140
2.0
141
1.0
290
     0
  0
SCALE
  5
497
102
{ACAD_REACTORS
330
489
102
}
330
489
100
AcDbScale
 70
     0
300
4:1
140
4.0
141
1.0
290
     0
  0
SCALE
  5
498
102
{ACAD_REACTORS
330
489
102
}
330
489
100
AcDbScale
 70
     0
300
8:1
140
8.0
141
1.0
290
     0
  0
SCALE
  5
499
102
{ACAD_REACTORS
330
489
102
}
330
489
100
AcDbScale
 70
     0
300
10:1
140
10.0
141
1.0
290
     0
  0
SCALE
  5
49A
102
{ACAD_REACTORS
330
489
102
}
330
489
100
AcDbScale
 70
     0
300
100:1
140
100.0
141
1.0
290
     0
  0
SCALE
  5
49B
102
{ACAD_REACTORS
330
489
102
}
330
489
100
AcDbScale
 70
     0
300
1/128" = 1'-0"
140
0.0078125
141
12.0
290
     0
  0
SCALE
  5
49C
102
{ACAD_REACTORS
330
489
102
}
330
489
100
AcDbScale
 70
     0
300
1/64" = 1'-0"
140
0.015625
141
12.0
290
     0
  0
SCALE
  5
49D
102
{ACAD_REACTORS
330
489
102
}
330
489
100
AcDbScale
 70
     0
300
1/32" = 1'-0"
140
0.03125
141
12.0
290
     0
  0
SCALE
  5
49E
102
{ACAD_REACTORS
330
489
102
}
330
489
100
AcDbScale
 70
     0
300
1/16" = 1'-0"
140
0.0625
141
12.0
290
     0
  0
SCALE
  5
49F
102
{ACAD_REACTORS
330
489
102
}
330
489
100
AcDbScale
 70
     0
300
3/32" = 1'-0"
140
0.09375
141
12.0
290
     0
  0
SCALE
  5
4A0
102
{ACAD_REACTORS
330
489
102
}
330
489
100
AcDbScale
 70
     0
300
1/8" = 1'-0"
140
0.125
141
12.0
290
     0
  0
SCALE
  5
4A1
102
{ACAD_REACTORS
330
489
102
}
330
489
100
AcDbScale
 70
     0
300
3/16" = 1'-0"
140
0.1875
141
12.0
290
     0
  0
SCALE
  5
4A2
102
{ACAD_REACTORS
330
489
102
}
330
489
100
AcDbScale
 70
     0
300
1/4" = 1'-0"
140
0.25
141
12.0
290
     0
  0
SCALE
  5
4A3
102
{ACAD_REACTORS
330
489
102
}
330
489
100
AcDbScale
 70
     0
300
3/8" = 1'-0"
140
0.375
141
12.0
290
     0
  0
SCALE
  5
4A4
102
{ACAD_REACTORS
330
489
102
}
330
489
100
AcDbScale
 70
     0
300
1/2" = 1'-0"
140
0.5
141
12.0
290
     0
  0
SCALE
  5
4A5
102
{ACAD_REACTORS
330
489
102
}
330
489
100
AcDbScale
 70
     0
300
3/4" = 1'-0"
140
0.75
141
12.0
290
     0
  0
SCALE
  5
4A6
102
{ACAD_REACTORS
330
489
102
}
330
489
100
AcDbScale
 70
     0
300
1" = 1'-0"
140
1.0
141
12.0
290
     0
  0
SCALE
  5
4A7
102
{ACAD_REACTORS
330
489
102
}
330
489
100
AcDbScale
 70
     0
300
1-1/2" = 1'-0"
140
1.5
141
12.0
290
     0
  0
SCALE
  5
4A8
102
{ACAD_REACTORS
330
489
102
}
330
489
100
AcDbScale
 70
     0
300
3" = 1'-0"
140
3.0
141
12.0
290
     0
  0
SCALE
  5
4A9
102
{ACAD_REACTORS
330
489
102
}
330
489
100
AcDbScale
 70
     0
300
6" = 1'-0"
140
6.0
141
12.0
290
     0
  0
SCALE
  5
4AA
102
{ACAD_REACTORS
330
489
102
}
330
489
100
AcDbScale
 70
     0
300
1'-0" = 1'-0"
140
12.0
141
12.0
290
     0
  0
TABLESTYLE
  5
4CC
102
{ACAD_REACTORS
330
4CB
102
}
102
{ACAD_XDICTIONARY
360
321B
102
}
330
4CB
100
AcDbTableStyle
  3
Standard
 70
     0
 71
     0
 40
0.06
 41
0.06
280
     0
281
     0
  7
STANDARD
140
0.18
170
     2
 62
     0
 63
   257
283
     0
 90
        4
 91
        0
  1

274
    -2
284
     1
 64
     0
275
    -2
285
     1
 65
     0
276
    -2
286
     1
 66
     0
277
    -2
287
     1
 67
     0
278
    -2
288
     1
 68
     0
279
    -2
289
     1
 69
     0
  7
STANDARD
140
0.25
170
     5
 62
     0
 63
   257
283
     0
 90
        4
 91
        0
  1

274
    -2
284
     1
 64
     0
275
    -2
285
     1
 65
     0
276
    -2
286
     1
 66
     0
277
    -2
287
     1
 67
     0
278
    -2
288
     1
 68
     0
279
    -2
289
     1
 69
     0
  7
STANDARD
140
0.18
170
     5
 62
     0
 63
   257
283
     0
 90
        4
 91
        0
  1

274
    -2
284
     1
 64
     0
275
    -2
285
     1
 65
     0
276
    -2
286
     1
 66
     0
277
    -2
287
     1
 67
     0
278
    -2
288
     1
 68
     0
279
    -2
289
     1
 69
     0
  0
VISUALSTYLE
  5
4B3
102
{ACAD_REACTORS
330
4AE
102
}
330
4AE
100
AcDbVisualStyle
  2
2dWireframe
 70
     4
177
     3
291
     0
 70
    58
 90
        0
176
     1
 90
        2
176
     1
 90
        0
176
     1
 90
        0
176
     1
 40
0.6
176
     1
 40
30.0
176
     1
 62
     7
420
 16777215
176
     1
 90
        1
176
     1
 90
        4
176
     1
 62
     7
176
     1
 62
   257
176
     1
 90
        1
176
     1
 90
        1
176
     1
 40
1.0
176
     1
 90
        0
176
     1
 62
   257
176
     1
 40
1.0
176
     1
 90
        1
176
     1
 90
        6
176
     1
 90
        2
176
     1
 62
     7
176
     1
 90
        5
176
     1
 90
        0
176
     1
 90
        0
176
     1
290
     0
176
     1
 90
        1
176
     1
 40
0.0
176
     1
 90
        0
176
     1
290
     1
176
     1
290
     1
176
     1
290
     0
176
     1
290
     0
176
     1
290
     0
176
     1
290
     0
176
     1
290
     0
176
     1
290
     0
176
     1
290
     0
176
     1
 90
       50
176
     1
 40
0.0
176
     1
 40
1.0
176
     1
 90
        0
176
     1
 62
    18
420
        0
176
     1
 90
       50
176
     1
 90
        3
176
     1
 62
     5
420
      255
176
     1
290
     0
176
     1
 90
       50
176
     1
 90
       50
176
     1
 90
       50
176
     1
290
     0
176
     1
 90
       50
176
     1
 62
   256
176
     0
 40
1.0
176
     0
 90
        2
176
     1
  1
strokes_ogs.tif
176
     1
290
     0
176
     1
 40
1.0
176
     1
 40
1.0
176
     1
  0
VISUALSTYLE
  5
4B6
102
{ACAD_REACTORS
330
4AE
102
}
330
4AE
100
AcDbVisualStyle
  2
Basic
 70
     7
177
     3
291
     1
 70
    58
 90
        1
176
     1
 90
        0
176
     1
 90
        1
176
     1
 90
        0
176
     1
 40
0.6
176
     1
 40
30.0
176
     1
 62
     7
420
 16777215
176
     1
 90
        0
176
     1
 90
        4
176
     1
 62
     7
176
     1
 62
   257
176
     1
 90
        1
176
     1
 90
        1
176
     1
 40
1.0
176
     1
 90
        8
176
     1
 62
     7
176
     1
 40
1.0
176
     1
 90
        1
176
     1
 90
        6
176
     1
 90
        2
176
     1
 62
     7
176
     1
 90
        5
176
     1
 90
        0
176
     1
 90
        0
176
     1
290
     0
176
     1
 90
        1
176
     1
 40
0.0
176
     1
 90
        0
176
     1
290
     0
176
     1
290
     1
176
     1
290
     1
176
     1
290
     0
176
     1
290
     0
176
     1
290
     0
176
     1
290
     0
176
     1
290
     0
176
     1
290
     0
176
     1
 90
       50
176
     1
 40
0.0
176
     1
 40
1.0
176
     1
 90
        0
176
     1
 62
    18
420
        0
176
     1
 90
       50
176
     1
 90
        3
176
     1
 62
     5
420
      255
176
     1
290
     0
176
     1
 90
       50
176
     1
 90
       50
176
     1
 90
       50
176
     1
290
     0
176
     1
 90
       50
176
     1
 62
   256
176
     0
 40
1.0
176
     0
 90
        2
176
     1
  1
strokes_ogs.tif
176
     1
290
     0
176
     1
 40
1.0
176
     1
 40
1.0
176
     1
  0
VISUALSTYLE
  5
4BA
102
{ACAD_REACTORS
330
4AE
102
}
330
4AE
100
AcDbVisualStyle
  2
Brighten
 70
    12
177
     3
291
     1
 70
    58
 90
        2
176
     1
 90
        2
176
     1
 90
        0
176
     1
 90
        0
176
     1
 40
0.6
176
     1
 40
30.0
176
     1
 62
     7
420
 16777215
176
     1
 90
        1
176
     1
 90
        4
176
     1
 62
     7
176
     1
 62
   257
176
     1
 90
        1
176
     1
 90
        1
176
     1
 40
1.0
176
     1
 90
        8
176
     1
 62
     7
176
     1
 40
1.0
176
     1
 90
        1
176
     1
 90
        6
176
     1
 90
        2
176
     1
 62
     7
176
     1
 90
        5
176
     1
 90
        0
176
     1
 90
        0
176
     1
290
     0
176
     1
 90
        1
176
     1
 40
50.0
176
     1
 90
        0
176
     1
290
     0
176
     1
290
     1
176
     1
290
     1
176
     1
290
     0
176
     1
290
     0
176
     1
290
     0
176
     1
290
     0
176
     1
290
     0
176
     1
290
     0
176
     1
 90
       50
176
     1
 40
0.0
176
     1
 40
1.0
176
     1
 90
        0
176
     1
 62
    18
420
        0
176
     1
 90
       50
176
     1
 90
        3
176
     1
 62
     5
420
      255
176
     1
290
     0
176
     1
 90
       50
176
     1
 90
       50
176
     1
 90
       50
176
     1
290
     0
176
     1
 90
       50
176
     1
 62
   256
176
     0
 40
1.0
176
     0
 90
        2
176
     1
  1
strokes_ogs.tif
176
     1
290
     0
176
     1
 40
1.0
176
     1
 40
1.0
176
     1
  0
VISUALSTYLE
  5
4BE
102
{ACAD_REACTORS
330
4AE
102
}
330
4AE
100
AcDbVisualStyle
  2
ColorChange
 70
    16
177
     3
291
     1
 70
    58
 90
        2
176
     1
 90
        2
176
     1
 90
        3
176
     1
 90
        0
176
     1
 40
0.6
176
     1
 40
30.0
176
     1
 62
     8
420
  8421504
176
     1
 90
        1
176
     1
 90
        4
176
     1
 62
     7
176
     1
 62
   257
176
     1
 90
        1
176
     1
 90
        1
176
     1
 40
1.0
176
     1
 90
        8
176
     1
 62
     8
420
  8421504
176
     1
 40
1.0
176
     1
 90
        1
176
     1
 90
        6
176
     1
 90
        2
176
     1
 62
     7
176
     1
 90
        5
176
     1
 90
        0
176
     1
 90
        0
176
     1
290
     0
176
     1
 90
        1
176
     1
 40
0.0
176
     1
 90
        0
176
     1
290
     0
176
     1
290
     1
176
     1
290
     1
176
     1
290
     0
176
     1
290
     0
176
     1
290
     0
176
     1
290
     0
176
     1
290
     0
176
     1
290
     0
176
     1
 90
       50
176
     1
 40
0.0
176
     1
 40
1.0
176
     1
 90
        0
176
     1
 62
    18
420
        0
176
     1
 90
       50
176
     1
 90
        3
176
     1
 62
     5
420
      255
176
     1
290
     0
176
     1
 90
       50
176
     1
 90
       50
176
     1
 90
       50
176
     1
290
     0
176
     1
 90
       50
176
     1
 62
   256
176
     0
 40
1.0
176
     0
 90
        2
176
     1
  1
strokes_ogs.tif
176
     1
290
     0
176
     1
 40
1.0
176
     1
 40
1.0
176
     1
  0
VISUALSTYLE
  5
4B8
102
{ACAD_REACTORS
330
4AE
102
}
330
4AE
100
AcDbVisualStyle
  2
Conceptual
 70
     9
177
     3
291
     0
 70
    58
 90
        3
176
     1
 90
        2
176
     1
 90
        0
176
     1
 90
        0
176
     1
 40
0.6
176
     1
 40
30.0
176
     1
 62
     7
420
 16777215
176
     1
 90
        2
176
     1
 90
        2
176
     1
 62
     7
176
     1
 62
   257
176
     1
 90
        1
176
     1
 90
        1
176
     1
 40
179.0
176
     1
 90
        8
176
     1
 62
     7
176
     1
 40
1.0
176
     1
 90
        1
176
     1
 90
        6
176
     1
 90
        2
176
     1
 62
     7
176
     1
 90
        3
176
     1
 90
        0
176
     1
 90
        0
176
     1
290
     0
176
     1
 90
        1
176
     1
 40
0.0
176
     1
 90
        0
176
     1
290
     0
176
     1
290
     1
176
     1
290
     1
176
     1
290
     0
176
     1
290
     0
176
     1
290
     0
176
     1
290
     0
176
     1
290
     0
176
     1
290
     0
176
     1
 90
       50
176
     1
 40
0.0
176
     1
 40
1.0
176
     1
 90
        0
176
     1
 62
    18
420
        0
176
     1
 90
       50
176
     1
 90
        3
176
     1
 62
     5
420
      255
176
     1
290
     0
176
     1
 90
       50
176
     1
 90
       50
176
     1
 90
       50
176
     1
290
     0
176
     1
 90
       50
176
     1
 62
   256
176
     0
 40
1.0
176
     0
 90
        2
176
     1
  1
strokes_ogs.tif
176
     1
290
     0
176
     1
 40
1.0
176
     1
 40
1.0
176
     1
  0
VISUALSTYLE
  5
4B9
102
{ACAD_REACTORS
330
4AE
102
}
330
4AE
100
AcDbVisualStyle
  2
Dim
 70
    11
177
     3
291
     1
 70
    58
 90
        2
176
     1
 90
        2
176
     1
 90
        0
176
     1
 90
        0
176
     1
 40
0.6
176
     1
 40
30.0
176
     1
 62
     7
420
 16777215
176
     1
 90
        1
176
     1
 90
        4
176
     1
 62
     7
176
     1
 62
   257
176
     1
 90
        1
176
     1
 90
        1
176
     1
 40
1.0
176
     1
 90
        8
176
     1
 62
     7
176
     1
 40
1.0
176
     1
 90
        1
176
     1
 90
        6
176
     1
 90
        2
176
     1
 62
     7
176
     1
 90
        5
176
     1
 90
        0
176
     1
 90
        0
176
     1
290
     0
176
     1
 90
        1
176
     1
 40
-50.0
176
     1
 90
        0
176
     1
290
     0
176
     1
290
     1
176
     1
290
     1
176
     1
290
     0
176
     1
290
     0
176
     1
290
     0
176
     1
290
     0
176
     1
290
     0
176
     1
290
     0
176
     1
 90
       50
176
     1
 40
0.0
176
     1
 40
1.0
176
     1
 90
        0
176
     1
 62
    18
420
        0
176
     1
 90
       50
176
     1
 90
        3
176
     1
 62
     5
420
      255
176
     1
290
     0
176
     1
 90
       50
176
     1
 90
       50
176
     1
 90
       50
176
     1
290
     0
176
     1
 90
       50
176
     1
 62
   256
176
     0
 40
1.0
176
     0
 90
        2
176
     1
  1
strokes_ogs.tif
176
     1
290
     0
176
     1
 40
1.0
176
     1
 40
1.0
176
     1
  0
VISUALSTYLE
  5
4C1
102
{ACAD_REACTORS
330
4AE
102
}
330
4AE
100
AcDbVisualStyle
  2
EdgeColorOff
 70
    22
177
     3
291
     1
 70
    58
 90
        2
176
     0
 90
        2
176
     0
 90
        0
176
     0
 90
        0
176
     0
 40
0.6
176
     0
 40
30.0
176
     0
 62
     7
420
 16777215
176
     0
 90
        1
176
     0
 90
        4
176
     0
 62
     7
176
     0
 62
   257
176
     0
 90
        1
176
     0
 90
        1
176
     0
 40
1.0
176
     0
 90
        8
176
     2
 62
     7
176
     0
 40
1.0
176
     0
 90
        1
176
     0
 90
        6
176
     0
 90
        2
176
     0
 62
     7
176
     0
 90
        5
176
     0
 90
        0
176
     0
 90
        0
176
     0
290
     0
176
     0
 90
        1
176
     0
 40
0.0
176
     0
 90
        0
176
     0
290
     0
176
     0
290
     1
176
     0
290
     1
176
     0
290
     0
176
     0
290
     0
176
     0
290
     0
176
     0
290
     0
176
     0
290
     0
176
     0
290
     0
176
     0
 90
       50
176
     0
 40
0.0
176
     0
 40
1.0
176
     0
 90
        0
176
     0
 62
    18
420
        0
176
     0
 90
       50
176
     0
 90
        3
176
     0
 62
     5
420
      255
176
     0
290
     0
176
     0
 90
       50
176
     0
 90
       50
176
     0
 90
       50
176
     0
290
     0
176
     0
 90
       50
176
     0
 62
   256
176
     0
 40
1.0
176
     0
 90
        2
176
     0
  1
strokes_ogs.tif
176
     0
290
     0
176
     0
 40
1.0
176
     0
 40
1.0
176
     0
  0
VISUALSTYLE
  5
4BD
102
{ACAD_REACTORS
330
4AE
102
}
330
4AE
100
AcDbVisualStyle
  2
Facepattern
 70
    15
177
     3
291
     1
 70
    58
 90
        2
176
     1
 90
        2
176
     1
 90
        0
176
     1
 90
        0
176
     1
 40
0.6
176
     1
 40
30.0
176
     1
 62
     7
420
 16777215
176
     1
 90
        1
176
     1
 90
        4
176
     1
 62
     7
176
     1
 62
   257
176
     1
 90
        1
176
     1
 90
        1
176
     1
 40
1.0
176
     1
 90
        8
176
     1
 62
     7
176
     1
 40
1.0
176
     1
 90
        1
176
     1
 90
        6
176
     1
 90
        2
176
     1
 62
     7
176
     1
 90
        5
176
     1
 90
        0
176
     1
 90
        0
176
     1
290
     0
176
     1
 90
        1
176
     1
 40
0.0
176
     1
 90
        0
176
     1
290
     0
176
     1
290
     1
176
     1
290
     1
176
     1
290
     0
176
     1
290
     0
176
     1
290
     0
176
     1
290
     0
176
     1
290
     0
176
     1
290
     0
176
     1
 90
       50
176
     1
 40
0.0
176
     1
 40
1.0
176
     1
 90
        0
176
     1
 62
    18
420
        0
176
     1
 90
       50
176
     1
 90
        3
176
     1
 62
     5
420
      255
176
     1
290
     0
176
     1
 90
       50
176
     1
 90
       50
176
     1
 90
       50
176
     1
290
     0
176
     1
 90
       50
176
     1
 62
   256
176
     0
 40
1.0
176
     0
 90
        2
176
     1
  1
strokes_ogs.tif
176
     1
290
     0
176
     1
 40
1.0
176
     1
 40
1.0
176
     1
  0
VISUALSTYLE
  5
4AF
102
{ACAD_REACTORS
330
4AE
102
}
330
4AE
100
AcDbVisualStyle
  2
Flat
 70
     0
177
     3
291
     1
 70
    58
 90
        2
176
     1
 90
        1
176
     1
 90
        1
176
     1
 90
        2
176
     1
 40
0.6
176
     1
 40
30.0
176
     1
 62
     7
420
 16777215
176
     1
 90
        0
176
     1
 90
        0
176
     1
 62
     7
176
     1
 62
   257
176
     1
 90
        1
176
     1
 90
        1
176
     1
 40
1.0
176
     1
 90
        8
176
     1
 62
     7
176
     1
 40
1.0
176
     1
 90
        1
176
     1
 90
        6
176
     1
 90
        2
176
     1
 62
     7
176
     1
 90
        5
176
     1
 90
        0
176
     1
 90
        0
176
     1
290
     0
176
     1
 90
       13
176
     1
 40
0.0
176
     1
 90
        0
176
     1
290
     0
176
     1
290
     1
176
     1
290
     1
176
     1
290
     0
176
     1
290
     0
176
     1
290
     0
176
     1
290
     0
176
     1
290
     0
176
     1
290
     0
176
     1
 90
       50
176
     1
 40
0.0
176
     1
 40
1.0
176
     1
 90
        0
176
     1
 62
    18
420
        0
176
     1
 90
       50
176
     1
 90
        3
176
     1
 62
     5
420
      255
176
     1
290
     0
176
     1
 90
       50
176
     1
 90
       50
176
     1
 90
       50
176
     1
290
     0
176
     1
 90
       50
176
     1
 62
   256
176
     0
 40
1.0
176
     0
 90
        2
176
     1
  1
strokes_ogs.tif
176
     1
290
     0
176
     1
 40
1.0
176
     1
 40
1.0
176
     1
  0
VISUALSTYLE
  5
4B0
102
{ACAD_REACTORS
330
4AE
102
}
330
4AE
100
AcDbVisualStyle
  2
FlatWithEdges
 70
     1
177
     3
291
     1
 70
    58
 90
        2
176
     1
 90
        1
176
     1
 90
        1
176
     1
 90
        2
176
     1
 40
0.6
176
     1
 40
30.0
176
     1
 62
     7
420
 16777215
176
     1
 90
        1
176
     1
 90
        0
176
     1
 62
     7
176
     1
 62
   257
176
     1
 90
        1
176
     1
 90
        1
176
     1
 40
1.0
176
     1
 90
        0
176
     1
 62
   257
176
     1
 40
1.0
176
     1
 90
        1
176
     1
 90
        6
176
     1
 90
        2
176
     1
 62
     7
176
     1
 90
        5
176
     1
 90
        0
176
     1
 90
        0
176
     1
290
     0
176
     1
 90
       13
176
     1
 40
0.0
176
     1
 90
        0
176
     1
290
     0
176
     1
290
     1
176
     1
290
     1
176
     1
290
     0
176
     1
290
     0
176
     1
290
     0
176
     1
290
     0
176
     1
290
     0
176
     1
290
     0
176
     1
 90
       50
176
     1
 40
0.0
176
     1
 40
1.0
176
     1
 90
        0
176
     1
 62
    18
420
        0
176
     1
 90
       50
176
     1
 90
        3
176
     1
 62
     5
420
      255
176
     1
290
     0
176
     1
 90
       50
176
     1
 90
       50
176
     1
 90
       50
176
     1
290
     0
176
     1
 90
       50
176
     1
 62
   256
176
     0
 40
1.0
176
     0
 90
        2
176
     1
  1
strokes_ogs.tif
176
     1
290
     0
176
     1
 40
1.0
176
     1
 40
1.0
176
     1
  0
VISUALSTYLE
  5
4B1
102
{ACAD_REACTORS
330
4AE
102
}
330
4AE
100
AcDbVisualStyle
  2
Gouraud
 70
     2
177
     3
291
     1
 70
    58
 90
        2
176
     1
 90
        2
176
     1
 90
        1
176
     1
 90
        2
176
     1
 40
0.6
176
     1
 40
30.0
176
     1
 62
     7
420
 16777215
176
     1
 90
        0
176
     1
 90
        0
176
     1
 62
     7
176
     1
 62
   257
176
     1
 90
        1
176
     1
 90
        1
176
     1
 40
1.0
176
     1
 90
        0
176
     1
 62
     7
176
     1
 40
1.0
176
     1
 90
        1
176
     1
 90
        6
176
     1
 90
        2
176
     1
 62
     7
176
     1
 90
        5
176
     1
 90
        0
176
     1
 90
        0
176
     1
290
     0
176
     1
 90
       13
176
     1
 40
0.0
176
     1
 90
        0
176
     1
290
     0
176
     1
290
     1
176
     1
290
     1
176
     1
290
     0
176
     1
290
     0
176
     1
290
     0
176
     1
290
     0
176
     1
290
     0
176
     1
290
     0
176
     1
 90
       50
176
     1
 40
0.0
176
     1
 40
1.0
176
     1
 90
        0
176
     1
 62
    18
420
        0
176
     1
 90
       50
176
     1
 90
        3
176
     1
 62
     5
420
      255
176
     1
290
     0
176
     1
 90
       50
176
     1
 90
       50
176
     1
 90
       50
176
     1
290
     0
176
     1
 90
       50
176
     1
 62
   256
176
     0
 40
1.0
176
     0
 90
        2
176
     1
  1
strokes_ogs.tif
176
     1
290
     0
176
     1
 40
1.0
176
     1
 40
1.0
176
     1
  0
VISUALSTYLE
  5
4B2
102
{ACAD_REACTORS
330
4AE
102
}
330
4AE
100
AcDbVisualStyle
  2
GouraudWithEdges
 70
     3
177
     3
291
     1
 70
    58
 90
        2
176
     1
 90
        2
176
     1
 90
        1
176
     1
 90
        2
176
     1
 40
0.6
176
     1
 40
30.0
176
     1
 62
     7
420
 16777215
176
     1
 90
        1
176
     1
 90
        0
176
     1
 62
     7
176
     1
 62
   257
176
     1
 90
        1
176
     1
 90
        1
176
     1
 40
1.0
176
     1
 90
        0
176
     1
 62
   257
176
     1
 40
1.0
176
     1
 90
        1
176
     1
 90
        6
176
     1
 90
        2
176
     1
 62
     7
176
     1
 90
        5
176
     1
 90
        0
176
     1
 90
        0
176
     1
290
     0
176
     1
 90
       13
176
     1
 40
0.0
176
     1
 90
        0
176
     1
290
     0
176
     1
290
     1
176
     1
290
     1
176
     1
290
     0
176
     1
290
     0
176
     1
290
     0
176
     1
290
     0
176
     1
290
     0
176
     1
290
     0
176
     1
 90
       50
176
     1
 40
0.0
176
     1
 40
1.0
176
     1
 90
        0
176
     1
 62
    18
420
        0
176
     1
 90
       50
176
     1
 90
        3
176
     1
 62
     5
420
      255
176
     1
290
     0
176
     1
 90
       50
176
     1
 90
       50
176
     1
 90
       50
176
     1
290
     0
176
     1
 90
       50
176
     1
 62
   256
176
     0
 40
1.0
176
     0
 90
        2
176
     1
  1
strokes_ogs.tif
176
     1
290
     0
176
     1
 40
1.0
176
     1
 40
1.0
176
     1
  0
VISUALSTYLE
  5
4B5
102
{ACAD_REACTORS
330
4AE
102
}
330
4AE
100
AcDbVisualStyle
  2
Hidden
 70
     6
177
     3
291
     0
 70
    58
 90
        1
176
     1
 90
        2
176
     1
 90
        2
176
     1
 90
        0
176
     1
 40
0.6
176
     1
 40
30.0
176
     1
 62
     7
420
 16777215
176
     1
 90
        2
176
     1
 90
        2
176
     1
 62
     7
176
     1
 62
   257
176
     1
 90
        2
176
     1
 90
        1
176
     1
 40
40.0
176
     1
 90
        0
176
     1
 62
   257
176
     1
 40
1.0
176
     1
 90
        1
176
     1
 90
        6
176
     1
 90
        2
176
     1
 62
     7
176
     1
 90
        3
176
     1
 90
        0
176
     1
 90
        0
176
     1
290
     0
176
     1
 90
        1
176
     1
 40
0.0
176
     1
 90
        0
176
     1
290
     0
176
     1
290
     1
176
     1
290
     1
176
     1
290
     0
176
     1
290
     0
176
     1
290
     0
176
     1
290
     0
176
     1
290
     0
176
     1
290
     0
176
     1
 90
       50
176
     1
 40
0.0
176
     1
 40
1.0
176
     1
 90
        0
176
     1
 62
    18
420
        0
176
     1
 90
       50
176
     1
 90
        3
176
     1
 62
     5
420
      255
176
     1
290
     0
176
     1
 90
       50
176
     1
 90
       50
176
     1
 90
       50
176
     1
290
     0
176
     1
 90
       50
176
     1
 62
   256
176
     0
 40
1.0
176
     0
 90
        2
176
     1
  1
strokes_ogs.tif
176
     1
290
     0
176
     1
 40
1.0
176
     1
 40
1.0
176
     1
  0
VISUALSTYLE
  5
4BF
102
{ACAD_REACTORS
330
4AE
102
}
330
4AE
100
AcDbVisualStyle
  2
JitterOff
 70
    20
177
     3
291
     1
 70
    58
 90
        2
176
     0
 90
        2
176
     0
 90
        0
176
     0
 90
        0
176
     0
 40
0.6
176
     0
 40
30.0
176
     0
 62
     7
420
 16777215
176
     0
 90
        1
176
     0
 90
        4
176
     0
 62
     7
176
     0
 62
   257
176
     0
 90
        1
176
     0
 90
        1
176
     0
 40
1.0
176
     0
 90
       10
176
     2
 62
     7
176
     0
 40
1.0
176
     0
 90
        1
176
     0
 90
        6
176
     0
 90
        2
176
     0
 62
     7
176
     0
 90
        5
176
     0
 90
        0
176
     0
 90
        0
176
     0
290
     0
176
     0
 90
        1
176
     0
 40
0.0
176
     0
 90
        0
176
     0
290
     0
176
     0
290
     1
176
     0
290
     1
176
     0
290
     0
176
     0
290
     0
176
     0
290
     0
176
     0
290
     0
176
     0
290
     0
176
     0
290
     0
176
     0
 90
       50
176
     0
 40
0.0
176
     0
 40
1.0
176
     0
 90
        0
176
     0
 62
    18
420
        0
176
     0
 90
       50
176
     0
 90
        3
176
     0
 62
     5
420
      255
176
     0
290
     0
176
     0
 90
       50
176
     0
 90
       50
176
     0
 90
       50
176
     0
290
     0
176
     0
 90
       50
176
     0
 62
   256
176
     0
 40
1.0
176
     0
 90
        2
176
     0
  1
strokes_ogs.tif
176
     0
290
     0
176
     0
 40
1.0
176
     0
 40
1.0
176
     0
  0
VISUALSTYLE
  5
4BC
102
{ACAD_REACTORS
330
4AE
102
}
330
4AE
100
AcDbVisualStyle
  2
Linepattern
 70
    14
177
     3
291
     1
 70
    58
 90
        2
176
     1
 90
        2
176
     1
 90
        0
176
     1
 90
        0
176
     1
 40
0.6
176
     1
 40
30.0
176
     1
 62
     7
420
 16777215
176
     1
 90
        1
176
     1
 90
        4
176
     1
 62
     7
176
     1
 62
   257
176
     1
 90
        7
176
     1
 90
        7
176
     1
 40
1.0
176
     1
 90
        8
176
     1
 62
     7
176
     1
 40
1.0
176
     1
 90
        1
176
     1
 90
        6
176
     1
 90
        2
176
     1
 62
     7
176
     1
 90
        5
176
     1
 90
        0
176
     1
 90
        0
176
     1
290
     0
176
     1
 90
        1
176
     1
 40
0.0
176
     1
 90
        0
176
     1
290
     0
176
     1
290
     1
176
     1
290
     1
176
     1
290
     0
176
     1
290
     0
176
     1
290
     0
176
     1
290
     0
176
     1
290
     0
176
     1
290
     0
176
     1
 90
       50
176
     1
 40
0.0
176
     1
 40
1.0
176
     1
 90
        0
176
     1
 62
    18
420
        0
176
     1
 90
       50
176
     1
 90
        3
176
     1
 62
     5
420
      255
176
     1
290
     0
176
     1
 90
       50
176
     1
 90
       50
176
     1
 90
       50
176
     1
290
     0
176
     1
 90
       50
176
     1
 62
   256
176
     0
 40
1.0
176
     0
 90
        2
176
     1
  1
strokes_ogs.tif
176
     1
290
     0
176
     1
 40
1.0
176
     1
 40
1.0
176
     1
  0
VISUALSTYLE
  5
4C0
102
{ACAD_REACTORS
330
4AE
102
}
330
4AE
100
AcDbVisualStyle
  2
OverhangOff
 70
    21
177
     3
291
     1
 70
    58
 90
        2
176
     0
 90
        2
176
     0
 90
        0
176
     0
 90
        0
176
     0
 40
0.6
176
     0
 40
30.0
176
     0
 62
     7
420
 16777215
176
     0
 90
        1
176
     0
 90
        4
176
     0
 62
     7
176
     0
 62
   257
176
     0
 90
        1
176
     0
 90
        1
176
     0
 40
1.0
176
     0
 90
        9
176
     2
 62
     7
176
     0
 40
1.0
176
     0
 90
        1
176
     0
 90
        6
176
     0
 90
        2
176
     0
 62
     7
176
     0
 90
        5
176
     0
 90
        0
176
     0
 90
        0
176
     0
290
     0
176
     0
 90
        1
176
     0
 40
0.0
176
     0
 90
        0
176
     0
290
     0
176
     0
290
     1
176
     0
290
     1
176
     0
290
     0
176
     0
290
     0
176
     0
290
     0
176
     0
290
     0
176
     0
290
     0
176
     0
290
     0
176
     0
 90
       50
176
     0
 40
0.0
176
     0
 40
1.0
176
     0
 90
        0
176
     0
 62
    18
420
        0
176
     0
 90
       50
176
     0
 90
        3
176
     0
 62
     5
420
      255
176
     0
290
     0
176
     0
 90
       50
176
     0
 90
       50
176
     0
 90
       50
176
     0
290
     0
176
     0
 90
       50
176
     0
 62
   256
176
     0
 40
1.0
176
     0
 90
        2
176
     0
  1
strokes_ogs.tif
176
     0
290
     0
176
     0
 40
1.0
176
     0
 40
1.0
176
     0
  0
VISUALSTYLE
  5
4B7
102
{ACAD_REACTORS
330
4AE
102
}
330
4AE
100
AcDbVisualStyle
  2
Realistic
 70
     8
177
     3
291
     0
 70
    58
 90
        2
176
     1
 90
        3
176
     1
 90
        0
176
     1
 90
        2
176
     1
 40
0.6
176
     1
 40
30.0
176
     1
 62
     7
420
 16777215
176
     1
 90
        0
176
     1
 90
        0
176
     1
 62
     7
176
     1
 62
   257
176
     1
 90
        1
176
     1
 90
        1
176
     1
 40
1.0
176
     1
 90
        8
176
     1
 62
   257
176
     1
 40
1.0
176
     1
 90
        1
176
     1
 90
        6
176
     1
 90
        2
176
     1
 62
     7
176
     1
 90
        3
176
     1
 90
        0
176
     1
 90
        0
176
     1
290
     0
176
     1
 90
       13
176
     1
 40
0.0
176
     1
 90
        0
176
     1
290
     0
176
     1
290
     1
176
     1
290
     1
176
     1
290
     0
176
     1
290
     0
176
     1
290
     0
176
     1
290
     0
176
     1
290
     0
176
     1
290
     0
176
     1
 90
       50
176
     1
 40
0.0
176
     1
 40
1.0
176
     1
 90
        0
176
     1
 62
    18
420
        0
176
     1
 90
       50
176
     1
 90
        3
176
     1
 62
     5
420
      255
176
     1
290
     0
176
     1
 90
       50
176
     1
 90
       50
176
     1
 90
       50
176
     1
290
     0
176
     1
 90
       50
176
     1
 62
   256
176
     0
 40
1.0
176
     0
 90
        2
176
     1
  1
strokes_ogs.tif
176
     1
290
     0
176
     1
 40
1.0
176
     1
 40
1.0
176
     1
  0
VISUALSTYLE
  5
4C6
102
{ACAD_REACTORS
330
4AE
102
}
330
4AE
100
AcDbVisualStyle
  2
Shaded
 70
    27
177
     3
291
     0
 70
    58
 90
        2
176
     1
 90
        2
176
     1
 90
        1
176
     1
 90
        2
176
     1
 40
0.6
176
     1
 40
30.0
176
     1
 62
     7
420
 16777215
176
     1
 90
        0
176
     1
 90
        4
176
     1
 62
     7
176
     1
 62
   257
176
     1
 90
        1
176
     1
 90
        1
176
     1
 40
1.0
176
     1
 90
        8
176
     1
 62
   257
176
     1
 40
1.0
176
     1
 90
        1
176
     1
 90
        6
176
     1
 90
        2
176
     1
 62
     8
420
  7895160
176
     1
 90
        3
176
     1
 90
        0
176
     1
 90
        0
176
     1
290
     0
176
     1
 90
        5
176
     1
 40
0.0
176
     1
 90
        0
176
     1
290
     0
176
     1
290
     1
176
     1
290
     1
176
     1
290
     0
176
     1
290
     0
176
     1
290
     0
176
     1
290
     0
176
     1
290
     0
176
     1
290
     0
176
     1
 90
       50
176
     1
 40
0.0
176
     1
 40
1.0
176
     1
 90
        0
176
     1
 62
    18
420
        0
176
     1
 90
       50
176
     1
 90
        3
176
     1
 62
     5
420
      255
176
     1
290
     0
176
     1
 90
       50
176
     1
 90
       50
176
     1
 90
       50
176
     1
290
     0
176
     1
 90
       50
176
     1
 62
   256
176
     0
 40
1.0
176
     0
 90
        2
176
     1
  1
strokes_ogs.tif
176
     1
290
     0
176
     1
 40
1.0
176
     1
 40
1.0
176
     1
  0
VISUALSTYLE
  5
4C5
102
{ACAD_REACTORS
330
4AE
102
}
330
4AE
100
AcDbVisualStyle
  2
Shaded with edges
 70
    26
177
     3
291
     0
 70
    58
 90
        2
176
     1
 90
        2
176
     1
 90
        1
176
     1
 90
        2
176
     1
 40
0.6
176
     1
 40
30.0
176
     1
 62
     7
420
 16777215
176
     1
 90
        1
176
     1
 90
       10
176
     1
 62
     7
176
     1
 62
   257
176
     1
 90
        2
176
     1
 90
        1
176
     1
 40
1.0
176
     1
 90
        8
176
     1
 62
   257
176
     1
 40
1.0
176
     1
 90
        1
176
     1
 90
        6
176
     1
 90
        2
176
     1
 62
     7
176
     1
 90
        3
176
     1
 90
        0
176
     1
 90
        0
176
     1
290
     0
176
     1
 90
        5
176
     1
 40
0.0
176
     1
 90
        0
176
     1
290
     0
176
     1
290
     1
176
     1
290
     1
176
     1
290
     0
176
     1
290
     0
176
     1
290
     0
176
     1
290
     0
176
     1
290
     0
176
     1
290
     0
176
     1
 90
       50
176
     1
 40
0.0
176
     1
 40
1.0
176
     1
 90
        0
176
     1
 62
    18
420
        0
176
     1
 90
       50
176
     1
 90
        3
176
     1
 62
     5
420
      255
176
     1
290
     0
176
     1
 90
       50
176
     1
 90
       50
176
     1
 90
       50
176
     1
290
     0
176
     1
 90
       50
176
     1
 62
   256
176
     0
 40
1.0
176
     0
 90
        2
176
     1
  1
strokes_ogs.tif
176
     1
290
     0
176
     1
 40
1.0
176
     1
 40
1.0
176
     1
  0
VISUALSTYLE
  5
4C2
102
{ACAD_REACTORS
330
4AE
102
}
330
4AE
100
AcDbVisualStyle
  2
Shades of Gray
 70
    23
177
     3
291
     0
 70
    58
 90
        2
176
     1
 90
        2
176
     1
 90
        3
176
     1
 90
        0
176
     1
 40
0.6
176
     1
 40
30.0
176
     1
 62
     7
420
 16777215
176
     1
 90
        2
176
     1
 90
        2
176
     1
 62
     7
176
     1
 62
     7
176
     1
 90
        1
176
     1
 90
        1
176
     1
 40
40.0
176
     1
 90
        8
176
     1
 62
     7
176
     1
 40
1.0
176
     1
 90
        1
176
     1
 90
        6
176
     1
 90
        2
176
     1
 62
     7
176
     1
 90
        3
176
     1
 90
        0
176
     1
 90
        0
176
     1
290
     0
176
     1
 90
        1
176
     1
 40
0.0
176
     1
 90
        0
176
     1
290
     0
176
     1
290
     1
176
     1
290
     1
176
     1
290
     0
176
     1
290
     0
176
     1
290
     0
176
     1
290
     0
176
     1
290
     0
176
     1
290
     0
176
     1
 90
       50
176
     1
 40
0.0
176
     1
 40
1.0
176
     1
 90
        0
176
     1
 62
    18
420
        0
176
     1
 90
       50
176
     1
 90
        3
176
     1
 62
     5
420
      255
176
     1
290
     0
176
     1
 90
       50
176
     1
 90
       50
176
     1
 90
       50
176
     1
290
     0
176
     1
 90
       50
176
     1
 62
   256
176
     0
 40
1.0
176
     0
 90
        2
176
     1
  1
strokes_ogs.tif
176
     1
290
     0
176
     1
 40
1.0
176
     1
 40
1.0
176
     1
  0
VISUALSTYLE
  5
4C3
102
{ACAD_REACTORS
330
4AE
102
}
330
4AE
100
AcDbVisualStyle
  2
Sketchy
 70
    24
177
     3
291
     0
 70
    58
 90
        1
176
     1
 90
        2
176
     1
 90
        2
176
     1
 90
        0
176
     1
 40
0.6
176
     1
 40
30.0
176
     1
 62
     7
420
 16777215
176
     1
 90
        2
176
     1
 90
        2
176
     1
 62
     7
176
     1
 62
     7
176
     1
 90
        1
176
     1
 90
        1
176
     1
 40
40.0
176
     1
 90
       11
176
     1
 62
     7
176
     1
 40
1.0
176
     1
 90
        1
176
     1
 90
        6
176
     1
 90
        2
176
     1
 62
     7
176
     1
 90
        6
176
     1
 90
        0
176
     1
 90
        0
176
     1
290
     0
176
     1
 90
        1
176
     1
 40
0.0
176
     1
 90
        0
176
     1
290
     0
176
     1
290
     1
176
     1
290
     1
176
     1
290
     0
176
     1
290
     0
176
     1
290
     0
176
     1
290
     0
176
     1
290
     0
176
     1
290
     0
176
     1
 90
       50
176
     1
 40
0.0
176
     1
 40
1.0
176
     1
 90
        0
176
     1
 62
    18
420
        0
176
     1
 90
       50
176
     1
 90
        3
176
     1
 62
     5
420
      255
176
     1
290
     0
176
     1
 90
       50
176
     1
 90
       50
176
     1
 90
       50
176
     1
290
     0
176
     1
 90
       50
176
     1
 62
   256
176
     0
 40
1.0
176
     0
 90
        2
176
     1
  1
strokes_ogs.tif
176
     1
290
     0
176
     1
 40
1.0
176
     1
 40
1.0
176
     1
  0
VISUALSTYLE
  5
4BB
102
{ACAD_REACTORS
330
4AE
102
}
330
4AE
100
AcDbVisualStyle
  2
Thicken
 70
    13
177
     3
291
     1
 70
    58
 90
        2
176
     1
 90
        2
176
     1
 90
        0
176
     1
 90
        0
176
     1
 40
0.6
176
     1
 40
30.0
176
     1
 62
     7
420
 16777215
176
     1
 90
        1
176
     1
 90
        4
176
     1
 62
     7
176
     1
 62
   257
176
     1
 90
        1
176
     1
 90
        1
176
     1
 40
1.0
176
     1
 90
       12
176
     1
 62
     7
176
     1
 40
1.0
176
     1
 90
        1
176
     1
 90
        6
176
     1
 90
        2
176
     1
 62
     7
176
     1
 90
        5
176
     1
 90
        0
176
     1
 90
        0
176
     1
290
     0
176
     1
 90
        1
176
     1
 40
0.0
176
     1
 90
        0
176
     1
290
     0
176
     1
290
     1
176
     1
290
     1
176
     1
290
     0
176
     1
290
     0
176
     1
290
     0
176
     1
290
     0
176
     1
290
     0
176
     1
290
     0
176
     1
 90
       50
176
     1
 40
0.0
176
     1
 40
1.0
176
     1
 90
        0
176
     1
 62
    18
420
        0
176
     1
 90
       50
176
     1
 90
        3
176
     1
 62
     5
420
      255
176
     1
290
     0
176
     1
 90
       50
176
     1
 90
       50
176
     1
 90
       50
176
     1
290
     0
176
     1
 90
       50
176
     1
 62
   256
176
     0
 40
1.0
176
     0
 90
        2
176
     1
  1
strokes_ogs.tif
176
     1
290
     0
176
     1
 40
1.0
176
     1
 40
1.0
176
     1
  0
VISUALSTYLE
  5
4B4
102
{ACAD_REACTORS
330
4AE
102
}
330
4AE
100
AcDbVisualStyle
  2
Wireframe
 70
     5
177
     3
291
     0
 70
    58
 90
        0
176
     1
 90
        2
176
     1
 90
        0
176
     1
 90
        0
176
     1
 40
0.6
176
     1
 40
30.0
176
     1
 62
     7
420
 16777215
176
     1
 90
        1
176
     1
 90
        4
176
     1
 62
     7
176
     1
 62
   257
176
     1
 90
        1
176
     1
 90
        1
176
     1
 40
1.0
176
     1
 90
        0
176
     1
 62
   257
176
     1
 40
1.0
176
     1
 90
        1
176
     1
 90
        6
176
     1
 90
        2
176
     1
 62
     7
176
     1
 90
        3
176
     1
 90
        0
176
     1
 90
        0
176
     1
290
     0
176
     1
 90
        1
176
     1
 40
0.0
176
     1
 90
        0
176
     1
290
     0
176
     1
290
     1
176
     1
290
     1
176
     1
290
     0
176
     1
290
     0
176
     1
290
     0
176
     1
290
     0
176
     1
290
     0
176
     1
290
     0
176
     1
 90
       50
176
     1
 40
0.0
176
     1
 40
1.0
176
     1
 90
        0
176
     1
 62
    18
420
        0
176
     1
 90
       50
176
     1
 90
        3
176
     1
 62
     5
420
      255
176
     1
290
     0
176
     1
 90
       50
176
     1
 90
       50
176
     1
 90
       50
176
     1
290
     0
176
     1
 90
       50
176
     1
 62
   256
176
     0
 40
1.0
176
     0
 90
        2
176
     1
  1
strokes_ogs.tif
176
     1
290
     0
176
     1
 40
1.0
176
     1
 40
1.0
176
     1
  0
VISUALSTYLE
  5
4C4
102
{ACAD_REACTORS
330
4AE
102
}
330
4AE
100
AcDbVisualStyle
  2
X-Ray
 70
    25
177
     3
291
     0
 70
    58
 90
        2
176
     1
 90
        2
176
     1
 90
        1
176
     1
 90
        1
176
     1
 40
0.5
176
     1
 40
30.0
176
     1
 62
     7
420
 16777215
176
     1
 90
        1
176
     1
 90
        0
176
     1
 62
     7
176
     1
 62
   257
176
     1
 90
        1
176
     1
 90
        1
176
     1
 40
1.0
176
     1
 90
        8
176
     1
 62
     7
176
     1
 40
1.0
176
     1
 90
        1
176
     1
 90
        6
176
     1
 90
        2
176
     1
 62
     7
176
     1
 90
        3
176
     1
 90
        0
176
     1
 90
        0
176
     1
290
     0
176
     1
 90
       13
176
     1
 40
0.0
176
     1
 90
        0
176
     1
290
     0
176
     1
290
     1
176
     1
290
     1
176
     1
290
     0
176
     1
290
     0
176
     1
290
     0
176
     1
290
     0
176
     1
290
     0
176
     1
290
     0
176
     1
 90
       50
176
     1
 40
0.0
176
     1
 40
1.0
176
     1
 90
        0
176
     1
 62
    18
420
        0
176
     1
 90
       50
176
     1
 90
        3
176
     1
 62
     5
420
      255
176
     1
290
     0
176
     1
 90
       50
176
     1
 90
       50
176
     1
 90
       50
176
     1
290
     0
176
     1
 90
       50
176
     1
 62
   256
176
     0
 40
1.0
176
     0
 90
        2
176
     1
  1
strokes_ogs.tif
176
     1
290
     0
176
     1
 40
1.0
176
     1
 40
1.0
176
     1
  0
DICTIONARYVAR
  5
A04
102
{ACAD_REACTORS
330
A03
102
}
330
A03
100
DictionaryVariables
280
     0
  1
1:1
  0
DICTIONARYVAR
  5
A09
102
{ACAD_REACTORS
330
A03
102
}
330
A03
100
DictionaryVariables
280
     0
  1
Standard
  0
DICTIONARYVAR
  5
A08
102
{ACAD_REACTORS
330
A03
102
}
330
A03
100
DictionaryVariables
280
     0
  1
Standard
  0
DICTIONARYVAR
  5
A0A
102
{ACAD_REACTORS
330
A03
102
}
330
A03
100
DictionaryVariables
280
     0
  1
0
  0
DICTIONARY
  5
321B
330
4CC
100
AcDbDictionary
280
     1
281
     1
  3
ACAD_ROUNDTRIP_2008_TABLESTYLE_CELLSTYLEMAP
360
321C
  0
CELLSTYLEMAP
  5
321C
102
{ACAD_REACTORS
330
321B
102
}
330
321B
100
AcDbCellStyleMap
 90
        3
300
CELLSTYLE
  1
TABLEFORMAT_BEGIN
 90
        5
170
     1
 91
        0
 92
    32768
 62
   257
 93
        1
300
CONTENTFORMAT
  1
CONTENTFORMAT_BEGIN
 90
        0
 91
        0
 92
        4
 93
        0
300

 40
0.0
140
1.0
 94
        5
 62
     0
340
17
144
0.25
309
CONTENTFORMAT_END
171
     1
301
MARGIN
  1
CELLMARGIN_BEGIN
 40
0.06
 40
0.06
 40
0.06
 40
0.06
 40
0.06
 40
0.06
309
CELLMARGIN_END
 94
        6
 95
        1
302
GRIDFORMAT
  1
GRIDFORMAT_BEGIN
 90
        0
 91
        1
 62
     0
 92
       -2
340
11
 93
        0
 40
0.045
309
GRIDFORMAT_END
 95
        2
302
GRIDFORMAT
  1
GRIDFORMAT_BEGIN
 90
        0
 91
        1
 62
     0
 92
       -2
340
11
 93
        0
 40
0.045
309
GRIDFORMAT_END
 95
        4
302
GRIDFORMAT
  1
GRIDFORMAT_BEGIN
 90
        0
 91
        1
 62
     0
 92
       -2
340
11
 93
        0
 40
0.045
309
GRIDFORMAT_END
 95
        8
302
GRIDFORMAT
  1
GRIDFORMAT_BEGIN
 90
        0
 91
        1
 62
     0
 92
       -2
340
11
 93
        0
 40
0.045
309
GRIDFORMAT_END
 95
       16
302
GRIDFORMAT
  1
GRIDFORMAT_BEGIN
 90
        0
 91
        1
 62
     0
 92
       -2
340
11
 93
        0
 40
0.045
309
GRIDFORMAT_END
 95
       32
302
GRIDFORMAT
  1
GRIDFORMAT_BEGIN
 90
        0
 91
        1
 62
     0
 92
       -2
340
11
 93
        0
 40
0.045
309
GRIDFORMAT_END
309
TABLEFORMAT_END
  1
CELLSTYLE_BEGIN
 90
        1
 91
        1
300
_TITLE
309
CELLSTYLE_END
300
CELLSTYLE
  1
TABLEFORMAT_BEGIN
 90
        5
170
     1
 91
        0
 92
        0
 62
   257
 93
        1
300
CONTENTFORMAT
  1
CONTENTFORMAT_BEGIN
 90
        0
 91
        0
 92
        4
 93
        0
300

 40
0.0
140
1.0
 94
        5
 62
     0
340
17
144
0.18
309
CONTENTFORMAT_END
171
     1
301
MARGIN
  1
CELLMARGIN_BEGIN
 40
0.06
 40
0.06
 40
0.06
 40
0.06
 40
0.06
 40
0.06
309
CELLMARGIN_END
 94
        6
 95
        1
302
GRIDFORMAT
  1
GRIDFORMAT_BEGIN
 90
        0
 91
        1
 62
     0
 92
       -2
340
11
 93
        0
 40
0.045
309
GRIDFORMAT_END
 95
        2
302
GRIDFORMAT
  1
GRIDFORMAT_BEGIN
 90
        0
 91
        1
 62
     0
 92
       -2
340
11
 93
        0
 40
0.045
309
GRIDFORMAT_END
 95
        4
302
GRIDFORMAT
  1
GRIDFORMAT_BEGIN
 90
        0
 91
        1
 62
     0
 92
       -2
340
11
 93
        0
 40
0.045
309
GRIDFORMAT_END
 95
        8
302
GRIDFORMAT
  1
GRIDFORMAT_BEGIN
 90
        0
 91
        1
 62
     0
 92
       -2
340
11
 93
        0
 40
0.045
309
GRIDFORMAT_END
 95
       16
302
GRIDFORMAT
  1
GRIDFORMAT_BEGIN
 90
        0
 91
        1
 62
     0
 92
       -2
340
11
 93
        0
 40
0.045
309
GRIDFORMAT_END
 95
       32
302
GRIDFORMAT
  1
GRIDFORMAT_BEGIN
 90
        0
 91
        1
 62
     0
 92
       -2
340
11
 93
        0
 40
0.045
309
GRIDFORMAT_END
309
TABLEFORMAT_END
  1
CELLSTYLE_BEGIN
 90
        2
 91
        1
300
_HEADER
309
CELLSTYLE_END
300
CELLSTYLE
  1
TABLEFORMAT_BEGIN
 90
        5
170
     1
 91
        0
 92
        0
 62
   257
 93
        1
300
CONTENTFORMAT
  1
CONTENTFORMAT_BEGIN
 90
        0
 91
        0
 92
        4
 93
        0
300

 40
0.0
140
1.0
 94
        2
 62
     0
340
17
144
0.18
309
CONTENTFORMAT_END
171
     1
301
MARGIN
  1
CELLMARGIN_BEGIN
 40
0.06
 40
0.06
 40
0.06
 40
0.06
 40
0.06
 40
0.06
309
CELLMARGIN_END
 94
        6
 95
        1
302
GRIDFORMAT
  1
GRIDFORMAT_BEGIN
 90
        0
 91
        1
 62
     0
 92
       -2
340
11
 93
        0
 40
0.045
309
GRIDFORMAT_END
 95
        2
302
GRIDFORMAT
  1
GRIDFORMAT_BEGIN
 90
        0
 91
        1
 62
     0
 92
       -2
340
11
 93
        0
 40
0.045
309
GRIDFORMAT_END
 95
        4
302
GRIDFORMAT
  1
GRIDFORMAT_BEGIN
 90
        0
 91
        1
 62
     0
 92
       -2
340
11
 93
        0
 40
0.045
309
GRIDFORMAT_END
 95
        8
302
GRIDFORMAT
  1
GRIDFORMAT_BEGIN
 90
        0
 91
        1
 62
     0
 92
       -2
340
11
 93
        0
 40
0.045
309
GRIDFORMAT_END
 95
       16
302
GRIDFORMAT
  1
GRIDFORMAT_BEGIN
 90
        0
 91
        1
 62
     0
 92
       -2
340
11
 93
        0
 40
0.045
309
GRIDFORMAT_END
 95
       32
302
GRIDFORMAT
  1
GRIDFORMAT_BEGIN
 90
        0
 91
        1
 62
     0
 92
       -2
340
11
 93
        0
 40
0.045
309
GRIDFORMAT_END
309
TABLEFORMAT_END
  1
CELLSTYLE_BEGIN
 90
        3
 91
        2
300
_DATA
309
CELLSTYLE_END
  0
ENDSEC
  0
SECTION
  2
ACDSDATA
 70
     2
 71
     2
  0
ACDSSCHEMA
 90
        0
  1
AcDb_Thumbnail_Schema
  2
AcDbDs::ID
280
    10
 91
        8
  2
Thumbnail_Data
280
    15
 91
        0
101
ACDSRECORD
 95
        0
 90
        2
  2
AcDbDs::TreatedAsObjectData
280
     1
291
     1
101
ACDSRECORD
 95
        0
 90
        3
  2
AcDbDs::Legacy
280
     1
291
     1
101
ACDSRECORD
  1
AcDbDs::ID
 90
        4
  2
AcDs:Indexable
280
     1
291
     1
101
ACDSRECORD
  1
AcDbDs::ID
 90
        5
  2
AcDbDs::HandleAttribute
280
     7
282
     1
  0
ACDSSCHEMA
 90
        1
  1
AcDb3DSolid_ASM_Data
  2
AcDbDs::ID
280
    10
 91
        8
  2
ASM_Data
280
    15
 91
        0
101
ACDSRECORD
 95
        1
 90
        2
  2
AcDbDs::TreatedAsObjectData
280
     1
291
     1
101
ACDSRECORD
 95
        1
 90
        3
  2
AcDbDs::Legacy
280
     1
291
     1
101
ACDSRECORD
  1
AcDbDs::ID
 90
        4
  2
AcDs:Indexable
280
     1
291
     1
101
ACDSRECORD
  1
AcDbDs::ID
 90
        5
  2
AcDbDs::HandleAttribute
280
     7
282
     1
  0
ACDSSCHEMA
 90
        2
  1
AcDbDs::TreatedAsObjectDataSchema
  2
AcDbDs::TreatedAsObjectData
280
     1
 91
        0
  0
ACDSSCHEMA
 90
        3
  1
AcDbDs::LegacySchema
  2
AcDbDs::Legacy
280
     1
 91
        0
  0
ACDSSCHEMA
 90
        4
  1
AcDbDs::IndexedPropertySchema
  2
AcDs:Indexable
280
     1
 91
        0
  0
ACDSSCHEMA
 90
        5
  1
AcDbDs::HandleAttributeSchema
  2
AcDbDs::HandleAttribute
280
     7
 91
        1
284
     1
  0
ACDSRECORD
 90
        0
  2
AcDbDs::ID
280
    10
320
4AC
  2
Thumbnail_Data
280
    15
 94
     3672
310
89504E470D0A1A0A0000000D49484452000001000000006D08060000004E6FBF56000000097048597300000EC400000EC401952B0E1B00000E0A49444154789CEDDD5D4C5BE51F07F06F5F39B45D81429141C75B813168CB848D97B121248E4C13B7C1E62E4C54628C8992384DBC70171A2E8D8971B7BB9A3A172F4C9CD398
310
4DA3D92063BC45A4DB90020306959715062D50DE4AE9FF02DCDF39D94B393D4F7BCEEF933CC946E9F3FB9D8E7D39E7B4CF3932000110422449CEBA8170101D1D8D8F3EFA089F7EFA29EB56C25E434303EB16088F280000C86432C8E572F87C3EC4C4C4B06E27ACE5E7E7232E2E8E751B84273248E81040A3D12023230346A3
310
113299EC81C7944A2500607575F5A1E74D4D4DC1E170C0E7F309D2276BC9C9C9484A4AFACF30D4E974585A5A7AE8755A5959C1E8E828EEDCB9235097840FA20F00A3D1889C9C1CA8D56A78BD5E0C0D0D616A6A0A81C0936F767C7C3C727373A156ABB1B8B888DEDE5ECCCCCC84B06BE1EDDAB50B4949490080D1D1514C4C4C
310
607676F6899FAF52A9909292828C8C0C00C0BD7BF7D0DDDD0DBFDF1F927E093F441B00B9B9B9D8BE7D3B5C2E17FAFAFA78FBEDCD711C76EEDC0983C100B7DB8DAEAEAEA70A9370C2711C76EFDE8DE8E868F4F4F460626282B7B90D0603F2F3F3A1542AE17038303E3ECEDBDC843FA20B80CCCC4C646767C36EB7F3FA03FD5F
310
525353B167CF1EB4B5B561747434A4B5F82493C950555505954A85C6C6462C2D2D85B4DE810307A0D3E9F0EBAFBF4AE6302A9204C43262636303FBF6ED13BC6E71717140ABD532DFFE271D168B25909A9A2A684DB95C1EA8A8A860BEED34FEF5EF0211B1D96C686B6B13BC6E7B7B3B8A8B8B05AF1B2CA3D188919111416BAE
310
ADAD41A150085A933C9E9275037C52A954E0388E49EDBFDF4588046AB51A5AAD56F0BA838383B0582CB875EB96E0B5C97F8B9C9FDA27C0711CF2F2F298D4D6EBF54CEA0623292989C9EBC4711C56565604AF4B3627AA005858584047470793DA3A9D8E49DD608C8C8C30799D341A0DAC56ABE075C9E644750E8010F2742800
310
0891300A0022189BCD8693274F223F3F9F752B64030500114C7C7C3C743A1D0C0603EB56C8060A0022A8F9F979783C1ED66D900D140044506AB59A965C87110A800D29292948484860DD4648188D46949595B16E0300E85A0261860200EB8B631A1A1A70EAD429D6AD84445D5D1D3EFEF863269FFEFBA7D6D6565CB87081D9
310
6735C8C32800B0BE74D56AB5A2BEBE9E752B21110804D0D7D707A3D1C8B48FC5C545747474847CF5217972140000CC6633F47A3D161616909D9DCDBA1D5EE9F57A1C387000858585309BCDACDB216126A203C06834F2B2C24CABD5222F2F0F068381D95A8250494F4FC7E4E424BABABA44B76D64EB22762DC0E1C38771F8F0
310
61646565E1E8D1A370BBDD41CF95989888AAAA2A0010E57BD42693092B2B2B989E9E66DD0A0933111B00FBF7EF875C2E476363230A0A0AD0D8D818F45C0E8703A74F9F0600BCFBEEBB7CB51816EEDEBD0BB95C8E6DDBB6A1B5B595753B24CC44EC21C0975F7E89F9F979DCBB770F4D4D4D5B9ACB6EB7636E6E0E32990C376F
310
DE0C6A8EC4C444A8D5EA2DF5110A77EFDE457B7B3BA2A2A2B0BCBCBCA5B9B45A2D4A4A4A44B9972455111B00DDDDDDE8E9E981DFEF476D6D2D8E1D3B0693C914D45C3B77EEC4871F7E88B7DE7A0BC9C9C941CD61301890989818D47343EDB7DF7E437979395E7BED35FCFCF3CF412F5DAEABABC3D8D818DE78E38D885AFE4C
310
3617B18700C0FAE5ABF7ECD973FF725CC15E935EAD56637676161E8F07E9E9E9181B1B7BEA39C2F9F2D73E9F0F7ABD1E7EBF1F6EB71BF3F3F341CDB3B0B000A7D389A5A52568349AA0E721E123A20340A954E2EBAFBF465F5F1F00DC3F91F7B46EDDBA859A9A1ACCCCCCE0CA952B41CD2197CBC3F63F444B4B0B6C361B4646
310
46F0C71F7F04FDDBBBA5A505AFBEFA2AFAFBFBE172B978EE92B0C2FCCAA47C8DAAAA2A49D68E945E351A4DA0A4A484F9F6D3F8FF88D873008490ADA3002044C228000891300A0042248C02801009A3002044C228000891300A0042248C02801009A3002044C228000891300A0042248C02801009A3002044C2280088608C46
310
23EAEBEB919595C5BA15B2413401101B1B2BBA6BFA8B8DC562414C4C0CB66FDFCEBA15B2413401909D9D8DF1F171D66D90C7989898C0CCCC0CEB36C806D10400890C4AA592979BB9107E882600E6E6E6909A9ACABA0DF218B1B1B1D0EBF5ACDB201B22FAA2A0FFE47038E8D832CC0D0F0FC3E3F1C0E974B26E856C10CD1E00
310
097F8383833873E64CD0976F27FCA3002044C22800089130D19C0300009D4E17F4CD41B62A5C6F0BF65F587D5E222A2A8ADE020C33A20A80F9F9F9A0EFECB355AC822718FDFDFD4C5EA7D4D4542895A2FA918B78A23A04F07ABDD06AB582D78D898981DBED16BC6EA4319BCD181C1C64DD06F907510580DD6E87D56A854C26
310
13ACA642A1407979396EDCB82158CDAD1A1818406666A6A035535353313B3B2B684DF27832ACDF234C34A2A2A2505A5A8A999919F4F4F4C0E7F385A48E42A1C0EEDDBBA1D168D0DCDC8CB5B5B590D40995D4D45498CD66F4F6F6067537E427A5D7EB51545484B1B131F4F6F686AC0E098EE802E06F068301050505D8B66D1B
310
E6E6E6789FDBE572A1ABAB8BF7B98596939303ABD58AE9E969DEE736180C181A1A42676727EF7313FE30BF4369A846424242C062B1F03E6F24DD0998E5F688ED7512E310F529599FCF07954AF5D8EFDBBB772F0A0A0AB0B2B202BBDD0EBBDDFEC8EF8F8D8DE5ABC5B0E0F7FBA15028E0F7FB37FD1EBD5E8FC2C242ECDFBF1F
310
6D6D6DB0DBED70B95C8F9C576CAF931889EA24E0BF793C9EC7FE10161717E3CF3FFF447272322A2B2BA1D7EB515959F9D879C56460600066B379D3C7F57A3DB2B2B270F5EA557CF0C107F0783C30994C484F4FDFF439D1D1D1B43C3B02883A001EC766B3E1F6EDDBF07ABDF0F97C78EEB9E770E7CE1D0C0D0D21232363D3E7
310
05020101BB0CBDD1D151A4A4A46CFA785151113A3B3B515E5E0E8EE370F4E8517476763EF235CACCCCC4C0C04028DA253C927400C4C7C7DF3FF9D5D3D383CF3EFB0C4AA512C3C3C38FFCED2655CDCDCDF8FCF3CF71E6CC1900C05F7FFD0593C9C4B82BB215A23E07F034BEFFFE7BD62D448453A74EDDFFF3DCDC1C1DE74738
310
49EF0110227514008448180500211246014088845100102261A25A0B9094948477DE79E781AF3D6A2D009F8F7DF2C92758585808A26BE1BDF0C20B282B2B7BE06BC1BC162A950A0A85024B4B4B0F3DC6711C565757B1BABA7AFF6BBDBDBD387FFEFC16BB277C1255006C85D1688446A3C1F0F030EB5608110C7D0E00405E5E
310
1E0E1E3C88B8B838B8DD6E9C3E7D9A754B840886F98A24D6E3EF556B6AB53AF0DD77DF31EF87060DA106ED01607DD5E08B2FBE089FCF479F08249242EF020070BBDDA8AEAE466565252D60219222D99380292929A8A8A8404E4E0E92929230393909B95C8EB8B8388C8F8F63787818CDCDCD74114B226A920A008EE3505555
310
859292128C8D8DA1A9A9097D7D7D0F5DCF4FA552212D2D0DE5E5E5309BCDF8FDF7DFF1D34F3F3DF096162162209900A8ACAC44595919AE5CB982B6B6B6A75AD35F58588843870EE1FAF5EBB87AF56AE89A244460A20F00994C8613274EC0E5726DE966180A8502151515C8C8C8C0B973E74276B5614284C6FCAD88500D8D46
310
1378FBEDB703BB76EDE26DCEB4B4B4C0C99327034AA592F9F6D1A0B1D521DA7701643219EAEAEAF0C30F3F60C78E1DBCCCA952A9909D9D8D0B172EE0F5D75FE7654E4258126D00D4D6D6E2DAB56B989E9E86CD66E3654E8EE360B158303232829E9E1E1C3A74889779096189F96E08DFC362B1044E9C3811F23AAFBCF24A20
310
373797F9F6D2A011EC10E51EC091234770F1E2C590D7F9F1C71FF1D24B2F85BC0E21A122BA003870E000DADBDBB1BCBC1CF25A737373181A1AE2ED108310A1892E004A4B4BD1DADA2A58BD5F7EF905D5D5D582D523844FA20B8050DC0CF451666767A1D168A054D2BA2A1279441500F9F9F9E8EEEE16BCEEEDDBB71F796B2D
310
42C295A80240ABD5C2EBF50A5EF7E6CD9BB05AAD82D72564AB2276BFD56AB522212101009096960693C98494941434343408DECBDADA1A0E1E3C886BD7AE61626242F0FA84042B6203E0D9679FC5F3CF3F8FE4E464C8E572984C267CF5D557CC3EA3EF743AE93C00893811FB137BF9F2E507CEF6DB6C3614161632EB47A3D1
310
30AB4D48B02236005C2E175C2ED7FDBF3B9D4E701C07ABD58AC6C646417B91CBE5989A9AA2DD7F12714473127071711176BB1D89898982D7B6582CB874E9125D3084441CD10400C0EE6C7C5A5A1ADD4F80442451050000CCCFCF43A7D309564FA7D3616D6D2D62EE0A44C83F892E00DADADA5052522258BDB2B232B4B4B408
310
568F103E892E001A1B1B515A5A0AB55A2D483D0A0012C914001A5837C1B795951558AD56F4F7F787B4CEB163C7D0D2D282F1F1F190D621245444B70700AC1F06180C0664676743A552A1B6B6969779A3A2A25053530360FDBE02F1F1F1B0DBEDBCCC4D080BA20C0000387FFE3CAAABAB919090008EE3789953A150203E3E1E
310
3A9D0EC78F1FC7175F7CC1CBBC84B0C4FCB244A11A3A9D2EF0FEFBEF078C46236F73EED8B123F0DE7BEFF13A270D1A0C07F306423AB45A6DA0BEBE3E60B158B63C57696969E0CD37DF0CA8D56AE6DB4583061F43F4370601D62F117EFCF8713CF3CC33B878F1229C4EE7533D3F3D3D1D35353570381CB874E95288BA24E1C2
310
66B3C1643221363616ABABABB871E3066A6B6BE1F3F990989888C1C1417CF3CD37282D2DC5CB2FBF8C73E7CE45EC1DA322762DC0D3080402F8F6DB6F61341A71E4C811188D46747676E2FAF5EB9B5E3D48ABD5A2A2A2027BF7EE85D3E9C4D9B367E176BB05EE9CB0E0F178B06FDF3E381C0EACADAD81E3384C4E4EC2E7F361
310
6969095EAF17717171F07ABDB0DBED989D9D65DD72D024B107F06F1CC7A1A8A808656565C8CDCD7DE83F764C4C0CFAFBFBD1D4D4848E8E0EF8FD7E469D12127ACC8F43588ECB972F079697971F1867CF9E65DE170D1A420C49EE011042D6FD0F40BF17D6D0F53E140000000049454E44AE426082
  0
ACDSRECORD
 90
        0
  2
AcDbDs::ID
280
    10
320
3210
  2
Thumbnail_Data
280
    15
 94
     4322
310
89504E470D0A1A0A0000000D49484452000001000000007A080600000050BC8D75000000097048597300000EC400000EC401952B0E1B0000109449444154789CEDDD5B4C93671807F07F4B11B0070AB4056B81CAC13105153924A02E6AE2A69B9BEE70E39DDBED966517BBD8BCD8CD6EDDDD32B28B655C2C4BB64CE32EA60B
310
C6C404B22C9EA60808528E05A1A505A41C0A3DED82F44B51C65AFAB65FFBF4F95D61EDFB7E4FF5E9C3D7B7EF41D1DEDE1E02632C2329E50E8031261F95DC0188F6FCF973F87C3EB9C3600429140A141515C91D8650E40A80C160C0A953A7E40E831174E7CE1DB85C2EB9C3108A5C0150ABD5301A8D7287C108CACFCF275700
310
780C80B10CC60580B10CC60580B10CC60580B10CC60580B10CC60580B10CC60580B10CC60580B10C466E2250A4EEEE6EACAEAE4A7FAEAEAE865EAF0700F4F6F66279791900A0D7EB515D5D0D00703A9D181B1B93DA1C3C78103B76EC0000DCBD7B577ADC6C3663F7EEDD0080D1D151CCCCCC0000542A15EAEBEB0100CBCBCB
310
E8EDED95DA545656A2B0B01000F0E4C9132C2E2E0200743A1D5E79E51500C0CACA0A7A7A7AA436757575C8CDCD7DA94D4949094A4B4B01006EB71BC3C3C30080ACAC2C1C3E7C586A7FFFFE7D04834100404545853495D56EB7637A7A1A00A0D56A5153530300F07ABD78FCF8B1D4BEB6B61679797900808181012C2C2C0000
310
8A8B8B5156560600989D9DC5D0D0100040A954A2A1A1416AFFCF3FFFC0EFF703004C2613CACBCB0100131313989A9A02B03EC5B6B1B11100B0BABA8AEEEE6EA9BDD56A9526763D7DFA14CF9F3F07B03EE16BDFBE7D0080B9B939D86C36A9CDBE7DFBA056AB01000F1F3E94A6861B8D4658AD5600C0E4E4249E3D7B26B5696C
310
6C8442A180CFE7C3C3870FA5C7FD7E3F5A5A5A409582DA6A40BD5E8F73E7CE01587FC3363535C91C114B679139D4D5D525153A2AF8230063198C740108DFA232B65DD473887401282E2E963B0496E6A8E710E902C018DB1AE9023038382877082CCD51CF21D205607E7E5EEE10589AA39E43A40B00636C6BA42702C5B33350
310
6767A7340187A537AFD78B63C78E6DAB2DF5DDA5481780F0ACAFEDC8CDCDDDF624A2898909582C966D5F3B95B8DDEEB4DF0833720667ACE2C9A174C01F010473381CF8F9E79F71EDDA35B94311E2975F7E913B049640A4EF00EC76BB345F3E513C1E0F262727E1F17800003E9F0F369B0D0D0D0DD26F9E9C9C1C949494C064
310
3225349678ADADAD616464449AEF0FACDF01DCB87103068301C0FA5C7F8BC542FEFBF1B064E4909C481780E9E9E984FCE7CDCFCF4B5F0F69B55A98CD66E8743AE9EF5B5B5B373CDFEBF5C2E1704805C162B160D7AE5DC2E3DA8EC5C5450C0E0EC2EFF763C78E1DD8B3678FB43009C04B1F8382C120262626A4D7623018B067
310
CF9EA4C69C4C89CAA15441BA0088E6F178D0DFDF0FBD5E1FD3F8406E6E2ECACBCB37AC84BB7DFB36AAAAAA641B2B585A5A425F5F1F341A0DEAEAEAA05245970A4AA512656565D214D9999919DCBD7B977C21A08A7401D06AB542FBEBEFEF17B2BAD062B1C062B1607474144EA753968F067D7D7D425E8BD16884D168C4D8D8
310
18C6C7C7C9CD9D179D43A986F42060788DBB083D3D3DD8BF7FBFB0FE80F511E6BEBE3EA17DCAA5BCBC1C0E8743EE3084139943A988F41D80482B2B2B1B36F71025BC5946B2F5F7F70BEF736E6E4E789F2CB148170097CB258D5E8B10DE3546A478BEA38E474D4D8DF0CD52E47A2D89243A87520DE98F0023232372879051C2
310
DB7551423D87481700965C6D6D6DF8EDB7DFE40E83C580740188F6AB2D268652A98446A3913B0CA1A8E710E90210DE9D9725472010C0ECECACDC6108453D87481700398442217CF5D557D2F6DDA9E4C68D1BB875EB56C2FAB75AAD1B6611B2D447BA002C2D2D25FD9A2E970B030303B87AF56AD2AFFD7F1E3C7880274F9E24
310
ACFF0B172E6C38138002397228994817003926D98C8F8FE3C48913B0DBED49BFF65696979771E7CE1DFCF8E38F0885481D05915054266AFD17D205205E3FFDF4134E9F3E1DD39B796E6E0E0D0D0DD26934A9C2EFF743ABD5F27C7DB60117802D4C4D4DA1A6A6062E972BEA3656AB15E7CF9FC7F1E3C71317D836E8743AA854
310
2A98CD66E1939958FA225D000E1D3A1457FB0F3FFC10D9D9D9703A9DF8FBEFBFA36A939D9D8D3FFFFC533A4FF0FF747575C513624C3EFAE823343737E3DB6FBF95CE0BDCCAF4F434BEFFFE7BFCF1C71F49882E35C59B43A98E7401C8CECE8EAB7D2010804AA542676727464747A36A130A8562FA06202B2B6B9BD1C5CE6432
310
616D6D0D4EA733AAE72F2D2D61FFFEFD2467F8452BDE1C4A75A46739040281B8DE60C5C5C5F8F2CB2FA1D3E9A29EE76EB55AB16BD72EE4E4E444F57CD12B0CB752535303B3D90CAD568B7BF7EEFDEFF32B2B2BA1D56A33FA80D5787328D591BE0378F0E041DC7D44EEF413AD68DFFCDBED3F1E3A9D2EA6310093C914D3EBA1
310
46440EA532D2058031B6352E008C6530D20580FA6E2E2CF1A8E710E902407D3F379678D473887401608C6D8D740178F4E891DC21B034473D87481780B5B535B94360698E7A0E912E008CB1AD912E00E1937818DB2EEA3944BA00A4FA619CD45CBE7C191D1D1D72872114F51C225D0044EAECEC943B8494170804E0F57AE50E
310
83C580740118181810D617E50521A284422172836622732815912E0091E7DCC78BFABA7011341A0D8A8A8AE40E43289139948A482F071669E7CE9D728790F23EF9E4938C5E3A9C8E48DF01141717CB1D024B73D47388F41D80E8B3EAA3D944235672EDB6C3A7034747740EA51AD205402483C1008D4603A3D128B4DFDBB76F
310
0BED2F5A7C3A3003887F0470BBDDC2FADAB3670FC6C6C6B0BCBC2CACCF7BF7EEA1B9B959587FB1502814424F2F1A1A1A42454585B0FE5285C81C4A45A4EF00868787858E4AD7D7D7E3FEFDFB080683282C2C8C7AE7DF17CDCDCDC1EFF7A3B6B616797979C2E28B45636323EEDDBB87C5C5459496966EFB6B4E97CB85858505
310
1C3A740885858582A3949FE81C4A35A40B8068595959686E6EC6E4E42466676751505010731F3E9F0F0A85222546CB1B1B1B0100B76EDDC2810307B6D5C7B367CF70F2E4499161B124225D001275B4B356AB85C3E178693C201008E0D1A347F8E28B2FF0F1C71FE3C489132F6DFAE976BB536E93099D4EF7D26B090683E8EE
310
EEC6E5CB97F1F6DB6FE3E8D1A3D8BD7BF74B6DA3DD2E3D5DF1F1E0692C51473BEB743A040281971E7FF4E8110E1C3800AFD78BE7CF9F636060E0A573F88687875159599990B844EAEFEF87D56A85CD66C3DADA1A5C2E17565757373C6764640456AB559E009384FAF1E0B4CB5B92850F12F9ECB3CF70F0E041783C1EF8FDFE
310
B43C5C626969097ABD1E972F5FC6ABAFBE0A954A85D1D1D10DC77FCFCDCDA1B4B454C62859BC48DF01C875B4F37BEFBD9716BFE5A371F4E851141515213F3F9FFCB4D8CDF0F1E0698CFAD1CE2CF1A8E710E902C018DB1A8F01C4607C7C5CFAD9E1706CF8F3668F4D4F4F4BC772FFD7738C46A32C73011C0E8734A817CD6BD9
310
EC3187C301BBDD2ECD2130180CBC682ACD902E00A297F07677776FF9E7CD1EDBEC1632F239CDCDCDB21480A1A121CCCECE6E1A532C8FF5F6F64A3F373434902B00D49781932E00A247DFCF9E3DFBBFCF191C1CC4D5AB57F1F4E953FCF0C30F42AF2F526B6BABDC21A48574FC062716A4C70082C160D2AF393434844F3FFD14
310
2B2B2B49BF36134F8E1C4A26D205E0FEFDFB49BF664E4E0E3EFFFC739C3A752AE9D766E2C99143C944FA2340B2B8DD6E747474607E7E1E4B4B4BA8ADAD85DBED465B5B1BD46A355E7BED35F233E6587AE20210879999195CBB760D3A9D0EA74F9FDE7471D0E2E2223A3B3BD1D1D18137DF7C13168B45864819DB1CE9021039
310
6D55B4DEDE5EF4F5F5E1E2C58B5B0E1469341A9C3973067EBF1FD7AF5FC7D8D8188E1C3992B0B8985889CCA154407A0CE0C59578A2F4F4F4607070106FBDF556D4A3C42A950A67CF9E452010C0F5EBD7131217132F5139942A48178044989A9AC2E0E020AAAAAA62DE337E7A7A1A7EBF1F46A391B7CF6229817401D86C224B
310
BC7EFFFD77BCF3CE3BA8ADAD8D79A9A8D96CC6C99327D1D4D484C78F1FF3293A69201139944A48178017D7AFC7ABABAB0BADADAD424E097AFFFDF771E5CA150151B144129D43A986740110ADA7A707B5B5B542FACACFCF976D4B70C6C2481700D1473B0783412895E2FEC94A4B4B61B7DB85F5C7C4E3E3C1D398C8A39DA7A7
310
A785F515565B5B8B5BB76E09EF978943FD7870D2F300E2D5DEDE8E8E8E0E389D4EE4E5E5E1D2A54BC2AF61B3D984F7C958B4481780A74F9F62EFDEBDDB6EDFD0D000B3D98CECEC6CDCBC79131E8F476074EB441E34C2C48B3787521DE90210EF205B5D5D1DEAEAEA0000274E9CC077DF7D87D75F7F5D44680000BFDF8F3367
310
CE08EB8F89477DA096F41840AAFBEBAFBF785D3E9315E902207A00273B3B1B3E9F4F587F4B4B4B50ABD5C2FA63E2511F04245D00447F85F3EEBBEFE2EAD5AB42FAEAEEEEDEF6715C2C79F86B402631180C585D5D153218D8D5D5C5AB0299EC480F02DAED76E127D77CF0C107B872E50AF6EEDD8B402010D367F8818101F4F5
310
F5C1EBF5E2C2850B502814426363E22522875209E93B80444CDED9B97327DE78E30DD86CB698778CADAEAE465656161A1A1AB675B2304BBE44E4502A217D079028269309E7CF9FC7AFBFFE8AFDFBF74775D4F7D8D8186EDEBC89D3A74FF3AE4002F5F4F440A55221373717A150082323230080A6A6263C7CF8101A8D46E608
310
531BE90290C8CD1CD46A352E5EBC88BB77EFA2ADAD0D46A311274F9E8456AB4576763642A11016161670E7CE1DD86C36949595E1E2C58BE48F9B4E368FC7039BCD068BC502A7D309BBDD8EE5E56528954AF4F6F6C26C36C75570A96F08423A1B93B19D535353139A9A9AE0743AF1CD37DFE0DAB56BD25785870F1FC6D75F7F
310
CD3B0427504B4B0B5A5A5A36FDBBE3C78F03405C9BAF50DF128C7401482693C9844B972E6D3815F8C89123A8AEAE96312AC6B646BA00CCCCCCC068346EABADD7EBDDD66F8EF0D46100585858E0ADBF52403C3B2FC59343E9807401181D1DDDF67FDEB163C70447C3D2513C39940E487F0DC818DB1AE90240FD60479678D473
310
887401A07EB4334B3CEA3944BA0030C6B646BA002C2E2ECA1D024B73D47388740178F2E489DC21B034473D87481700C6D8D648CF030080C1C141E9E75DBB76498B43C6C7C7A5535FD46A35CC663380F53DE09C4EA7D4C66AB54A23C1917D151616A2A8A80800E0743AA5BDE3B2B2B25051510160FD5499F1F1F14DAF6FB7DB
310
A5092A3B77EEC4EEDDBB376D1379FDC83605050530180C00D6271C391C0E008052A9DC301BD166B321140A01004A4A4AA0D56A01AC4F70999F9F0700E4E5E549F3E5D7D6D630363626B52F2F2FC78E1D3B00001313135859590100E8F57AE9FB718FC723AD9A532814A8AAAA92DA0F0D0D21180C02583F0C25BCC38ECBE5C2
310
DCDC9CF4BCF08C499FCF87D1D151E97193C984FCFC7C00C0E4E4A4B4896A4E4E0ECACACA00ACDFA64F4D4D496D4A4B4B919B9B0B00181E1E46201000B03EAFBFB8B81800E076BB313B3B2BB5A9AAAA8242A180DFEF97161401F14D224A07A40B407D7DFD86CF70393939D2CF0505055262447ED5939B9BBB61E247E4316091
310
8F87130C583F023CFC26895CE3AF52A936B4093F07587F0385AF1FB940E8C536910791141414C0EFF7BFF45A22637E718F01A3D1281580C8361A8D467ADD91D7CFCACAFACFD7AFD7EBA50216D9574E4ECE7F4E9631180CD2F5235FBF5AADDE7461D48BD78FFC77CECFCF97B6508B8CEBC5EB47F66B3018A402F4E2F5373BE2
310
4DA9546EE82B5C64A852B4B7B787E40E4224BD5E8F73E7CEC91D0623A8ABAB0B434343728721148F013096C1B8003096C1B8003096C1B8003096C1B8003096C1B8003096C1B8003096C1B8003096C1C84D048A9CC6CB98483E9F4F9AB24D05B9A9C0D44F73654C24FE08C05806FB1737B47AFCBE5DECF70000000049454E44
310
AE426082
  0
ENDSEC
  0
EOF
