  0
SECTION
  2
HEADER
  9
$ACADVER
  1
AC1027
  9
$ACADMAINTVER
 70
   105
  9
$DWGCODEPAGE
  3
ANSI_932
  9
$REQUIREDVERSIONS
160
                 0
  9
$LASTSAVEDBY
  1
kurimoto
  9
$INSBASE
 10
0.0
 20
0.0
 30
0.0
  9
$EXTMIN
 10
11121.09254670373
 20
-3678.777027446812
 30
0.0
  9
$EXTMAX
 10
15763.1221358269
 20
-382.8796833680749
 30
0.0
  9
$LIMMIN
 10
0.0
 20
0.0
  9
$LIMMAX
 10
0.0
 20
0.0
  9
$ORTHOMODE
 70
     0
  9
$REGENMODE
 70
     1
  9
$FILLMODE
 70
     1
  9
$QTEXTMODE
 70
     0
  9
$MIRRTEXT
 70
     1
  9
$LTSCALE
 40
1.0
  9
$ATTMODE
 70
     1
  9
$TEXTSIZE
 40
0.0
  9
$TRACEWID
 40
0.05
  9
$TEXTSTYLE
  7
STANDARD
  9
$CLAYER
  8
0
  9
$CELTYPE
  6
CONTINUOUS
  9
$CECOLOR
 62
   256
  9
$CELTSCALE
 40
1.0
  9
$DISPSILH
 70
     0
  9
$DIMSCALE
 40
1.0
  9
$DIMASZ
 40
0.18
  9
$DIMEXO
 40
0.0625
  9
$DIMDLI
 40
0.38
  9
$DIMRND
 40
0.0
  9
$DIMDLE
 40
0.0
  9
$DIMEXE
 40
0.18
  9
$DIMTP
 40
0.0
  9
$DIMTM
 40
0.0
  9
$DIMTXT
 40
0.18
  9
$DIMCEN
 40
0.09
  9
$DIMTSZ
 40
0.0
  9
$DIMTOL
 70
     0
  9
$DIMLIM
 70
     0
  9
$DIMTIH
 70
     1
  9
$DIMTOH
 70
     1
  9
$DIMSE1
 70
     0
  9
$DIMSE2
 70
     0
  9
$DIMTAD
 70
     0
  9
$DIMZIN
 70
     0
  9
$DIMBLK
  1

  9
$DIMASO
 70
     1
  9
$DIMSHO
 70
     1
  9
$DIMPOST
  1

  9
$DIMAPOST
  1

  9
$DIMALT
 70
     0
  9
$DIMALTD
 70
     2
  9
$DIMALTF
 40
25.4
  9
$DIMLFAC
 40
1.0
  9
$DIMTOFL
 70
     0
  9
$DIMTVP
 40
0.0
  9
$DIMTIX
 70
     0
  9
$DIMSOXD
 70
     0
  9
$DIMSAH
 70
     0
  9
$DIMBLK1
  1

  9
$DIMBLK2
  1

  9
$DIMSTYLE
  2
STANDARD
  9
$DIMCLRD
 70
     0
  9
$DIMCLRE
 70
     0
  9
$DIMCLRT
 70
     0
  9
$DIMTFAC
 40
1.0
  9
$DIMGAP
 40
0.09
  9
$DIMJUST
 70
     0
  9
$DIMSD1
 70
     0
  9
$DIMSD2
 70
     0
  9
$DIMTOLJ
 70
     1
  9
$DIMTZIN
 70
     0
  9
$DIMALTZ
 70
     0
  9
$DIMALTTZ
 70
     0
  9
$DIMUPT
 70
     0
  9
$DIMDEC
 70
     4
  9
$DIMTDEC
 70
     4
  9
$DIMALTU
 70
     2
  9
$DIMALTTD
 70
     2
  9
$DIMTXSTY
  7
STANDARD
  9
$DIMAUNIT
 70
     0
  9
$DIMADEC
 70
     0
  9
$DIMALTRND
 40
0.0
  9
$DIMAZIN
 70
     0
  9
$DIMDSEP
 70
    46
  9
$DIMATFIT
 70
     3
  9
$DIMFRAC
 70
     0
  9
$DIMLDRBLK
  1

  9
$DIMLUNIT
 70
     2
  9
$DIMLWD
 70
    -2
  9
$DIMLWE
 70
    -2
  9
$DIMTMOVE
 70
     2
  9
$DIMFXL
 40
1.0
  9
$DIMFXLON
 70
     0
  9
$DIMJOGANG
 40
0.7853981633974483
  9
$DIMTFILL
 70
     0
  9
$DIMTFILLCLR
 70
     0
  9
$DIMARCSYM
 70
     0
  9
$DIMLTYPE
  6

  9
$DIMLTEX1
  6

  9
$DIMLTEX2
  6

  9
$DIMTXTDIRECTION
 70
     0
  9
$LUNITS
 70
     2
  9
$LUPREC
 70
     4
  9
$SKETCHINC
 40
0.1
  9
$FILLETRAD
 40
0.0
  9
$AUNITS
 70
     0
  9
$AUPREC
 70
     0
  9
$MENU
  1
acad
  9
$ELEVATION
 40
0.0
  9
$PELEVATION
 40
0.0
  9
$THICKNESS
 40
0.0
  9
$LIMCHECK
 70
     0
  9
$CHAMFERA
 40
0.0
  9
$CHAMFERB
 40
0.0
  9
$CHAMFERC
 40
0.0
  9
$CHAMFERD
 40
0.0
  9
$SKPOLY
 70
     0
  9
$TDCREATE
 40
2447893.0
  9
$TDUCREATE
 40
2447892.625
  9
$TDUPDATE
 40
2458624.381285914
  9
$TDUUPDATE
 40
2458624.006285914
  9
$TDINDWG
 40
0.0173978241
  9
$TDUSRTIMER
 40
0.0002564236
  9
$USRTIMER
 70
     1
  9
$ANGBASE
 50
0.0
  9
$ANGDIR
 70
     0
  9
$PDMODE
 70
     0
  9
$PDSIZE
 40
0.0
  9
$PLINEWID
 40
0.0
  9
$SPLFRAME
 70
     0
  9
$SPLINETYPE
 70
     6
  9
$SPLINESEGS
 70
     8
  9
$HANDSEED
  5
17A0
  9
$SURFTAB1
 70
     6
  9
$SURFTAB2
 70
     6
  9
$SURFTYPE
 70
     6
  9
$SURFU
 70
     6
  9
$SURFV
 70
     6
  9
$UCSBASE
  2

  9
$UCSNAME
  2

  9
$UCSORG
 10
0.0
 20
0.0
 30
0.0
  9
$UCSXDIR
 10
1.0
 20
0.0
 30
0.0
  9
$UCSYDIR
 10
0.0
 20
1.0
 30
0.0
  9
$UCSORTHOREF
  2

  9
$UCSORTHOVIEW
 70
     0
  9
$UCSORGTOP
 10
0.0
 20
0.0
 30
0.0
  9
$UCSORGBOTTOM
 10
0.0
 20
0.0
 30
0.0
  9
$UCSORGLEFT
 10
0.0
 20
0.0
 30
0.0
  9
$UCSORGRIGHT
 10
0.0
 20
0.0
 30
0.0
  9
$UCSORGFRONT
 10
0.0
 20
0.0
 30
0.0
  9
$UCSORGBACK
 10
0.0
 20
0.0
 30
0.0
  9
$PUCSBASE
  2

  9
$PUCSNAME
  2

  9
$PUCSORG
 10
0.0
 20
0.0
 30
0.0
  9
$PUCSXDIR
 10
1.0
 20
0.0
 30
0.0
  9
$PUCSYDIR
 10
0.0
 20
1.0
 30
0.0
  9
$PUCSORTHOREF
  2

  9
$PUCSORTHOVIEW
 70
     0
  9
$PUCSORGTOP
 10
0.0
 20
0.0
 30
0.0
  9
$PUCSORGBOTTOM
 10
0.0
 20
0.0
 30
0.0
  9
$PUCSORGLEFT
 10
0.0
 20
0.0
 30
0.0
  9
$PUCSORGRIGHT
 10
0.0
 20
0.0
 30
0.0
  9
$PUCSORGFRONT
 10
0.0
 20
0.0
 30
0.0
  9
$PUCSORGBACK
 10
0.0
 20
0.0
 30
0.0
  9
$USERI1
 70
     0
  9
$USERI2
 70
     0
  9
$USERI3
 70
     0
  9
$USERI4
 70
     0
  9
$USERI5
 70
     0
  9
$USERR1
 40
0.0
  9
$USERR2
 40
0.0
  9
$USERR3
 40
0.0
  9
$USERR4
 40
0.0
  9
$USERR5
 40
0.0
  9
$WORLDVIEW
 70
     1
  9
$SHADEDGE
 70
     3
  9
$SHADEDIF
 70
    70
  9
$TILEMODE
 70
     1
  9
$MAXACTVP
 70
    16
  9
$PINSBASE
 10
0.0
 20
0.0
 30
0.0
  9
$PLIMCHECK
 70
     0
  9
$PEXTMIN
 10
1.05
 20
0.6999999999999997
 30
0.0
  9
$PEXTMAX
 10
9.45
 20
6.300000000000001
 30
0.0
  9
$PLIMMIN
 10
-0.25
 20
-0.7500000000000001
  9
$PLIMMAX
 10
10.75
 20
7.75
  9
$UNITMODE
 70
     0
  9
$VISRETAIN
 70
     0
  9
$PLINEGEN
 70
     1
  9
$PSLTSCALE
 70
     1
  9
$TREEDEPTH
 70
  3020
  9
$CMLSTYLE
  2
STANDARD
  9
$CMLJUST
 70
     0
  9
$CMLSCALE
 40
1.0
  9
$PROXYGRAPHICS
 70
     0
  9
$MEASUREMENT
 70
     0
  9
$CELWEIGHT
370
    -1
  9
$ENDCAPS
280
     0
  9
$JOINSTYLE
280
     0
  9
$LWDISPLAY
290
     0
  9
$INSUNITS
 70
     0
  9
$HYPERLINKBASE
  1

  9
$STYLESHEET
  1

  9
$XEDIT
290
     1
  9
$CEPSNTYPE
380
     0
  9
$PSTYLEMODE
290
     1
  9
$FINGERPRINTGUID
  2
{3353270A-A9A5-4604-AE79-F73783F9BE98}
  9
$VERSIONGUID
  2
{FAEB1C32-E019-11D5-929B-00C0DF256EC4}
  9
$EXTNAMES
290
     1
  9
$PSVPSCALE
 40
0.0
  9
$OLESTARTUP
290
     0
  9
$SORTENTS
280
   127
  9
$INDEXCTL
280
     0
  9
$HIDETEXT
280
     1
  9
$XCLIPFRAME
280
     2
  9
$HALOGAP
280
     0
  9
$OBSCOLOR
 70
   257
  9
$OBSLTYPE
280
     0
  9
$INTERSECTIONDISPLAY
280
     0
  9
$INTERSECTIONCOLOR
 70
   257
  9
$DIMASSOC
280
     2
  9
$PROJECTNAME
  1

  9
$CAMERADISPLAY
290
     0
  9
$LENSLENGTH
 40
50.0
  9
$CAMERAHEIGHT
 40
0.0
  9
$STEPSPERSEC
 40
2.0
  9
$STEPSIZE
 40
6.0
  9
$3DDWFPREC
 40
2.0
  9
$PSOLWIDTH
 40
0.25
  9
$PSOLHEIGHT
 40
4.0
  9
$LOFTANG1
 40
1.570796326794897
  9
$LOFTANG2
 40
1.570796326794897
  9
$LOFTMAG1
 40
0.0
  9
$LOFTMAG2
 40
0.0
  9
$LOFTPARAM
 70
     7
  9
$LOFTNORMALS
280
     1
  9
$LATITUDE
 40
37.795
  9
$LONGITUDE
 40
-122.394
  9
$NORTHDIRECTION
 40
0.0
  9
$TIMEZONE
 70
 -8000
  9
$LIGHTGLYPHDISPLAY
280
     1
  9
$TILEMODELIGHTSYNCH
280
     1
  9
$SOLIDHIST
280
     0
  9
$SHOWHIST
280
     1
  9
$DWFFRAME
280
     2
  9
$DGNFRAME
280
     2
  9
$REALWORLDSCALE
290
     1
  9
$INTERFERECOLOR
 62
   256
  9
$CSHADOW
280
     0
  9
$SHADOWPLANELOCATION
 40
0.0
  0
ENDSEC
  0
SECTION
  2
CLASSES
  0
CLASS
  1
LWPOLYLINE
  2
AcDbPolyline
  3
ObjectDBX Classes
 90
        0
 91
        1
280
     0
281
     1
  0
CLASS
  1
IMAGE
  2
AcDbRasterImage
  3
ISM
 90
      127
 91
        5
280
     0
281
     1
  0
CLASS
  1
OLE2FRAME
  2
AcDbOle2Frame
  3
ObjectDBX Classes
 90
        0
 91
        1
280
     0
281
     1
  0
CLASS
  1
HATCH
  2
AcDbHatch
  3
ObjectDBX Classes
 90
        0
 91
        1
280
     0
281
     1
  0
CLASS
  1
DICTIONARYVAR
  2
AcDbDictionaryVar
  3
ObjectDBX Classes
 90
        0
 91
        4
280
     0
281
     0
  0
CLASS
  1
RASTERVARIABLES
  2
AcDbRasterVariables
  3
ISM
 90
        0
 91
        4
280
     0
281
     0
  0
CLASS
  1
IMAGEDEF
  2
AcDbRasterImageDef
  3
ISM
 90
        0
 91
        4
280
     0
281
     0
  0
CLASS
  1
IMAGEDEF_REACTOR
  2
AcDbRasterImageDefReactor
  3
ISM
 90
        1
 91
        4
280
     0
281
     0
  0
CLASS
  1
IDBUFFER
  2
AcDbIdBuffer
  3
ObjectDBX Classes
 90
        0
 91
        4
280
     0
281
     0
  0
CLASS
  1
SPATIAL_FILTER
  2
AcDbSpatialFilter
  3
ObjectDBX Classes
 90
        0
 91
        4
280
     0
281
     0
  0
CLASS
  1
XRECORD
  2
AcDbXrecord
  3
ObjectDBX Classes
 90
        0
 91
        1
280
     0
281
     0
  0
CLASS
  1
SORTENTSTABLE
  2
AcDbSortentsTable
  3
ObjectDBX Classes
 90
        0
 91
        4
280
     0
281
     0
  0
CLASS
  1
LAYER_INDEX
  2
AcDbLayerIndex
  3
ObjectDBX Classes
 90
        0
 91
        4
280
     0
281
     0
  0
CLASS
  1
SPATIAL_INDEX
  2
AcDbSpatialIndex
  3
AutoCAD 2000
 90
        0
 91
        4
280
     0
281
     0
  0
CLASS
  1
OBJECT_PTR
  2
CAseDLPNTableRecord
  3
ASE-LPNTableRecord
 90
        1
 91
        4
280
     0
281
     0
  0
CLASS
  1
LAYOUT
  2
AcDbLayout
  3
ObjectDBX Classes
 90
        0
 91
        1
280
     0
281
     0
  0
CLASS
  1
PLOTSETTINGS
  2
AcDbPlotSettings
  3
ObjectDBX Classes
 90
        0
 91
        4
280
     0
281
     0
  0
CLASS
  1
ACDBDICTIONARYWDFLT
  2
AcDbDictionaryWithDefault
  3
ObjectDBX Classes
 90
        0
 91
        4
280
     0
281
     0
  0
CLASS
  1
ACDBPLACEHOLDER
  2
AcDbPlaceHolder
  3
ObjectDBX Classes
 90
        0
 91
        1
280
     0
281
     0
  0
CLASS
  1
VBA_PROJECT
  2
AcDbVbaProject
  3
ObjectDBX Classes
 90
        0
 91
        1
280
     0
281
     0
  0
CLASS
  1
WIPEOUT
  2
AcDbWipeout
  3
WipeOut|AutoCAD Express Tool|expresstools@autodesk.com
 90
      127
 91
        4
280
     0
281
     1
  0
CLASS
  1
WIPEOUTVARIABLES
  2
AcDbWipeoutVariables
  3
WipeOut|AutoCAD Express Tool|expresstools@autodesk.com
 90
        0
 91
        4
280
     0
281
     0
  0
CLASS
  1
RTEXT
  2
RText
  3
RText|AutoCAD Express Tool|expresstools@autodesk.com
 90
        0
 91
        4
280
     0
281
     1
  0
CLASS
  1
ARCALIGNEDTEXT
  2
AcDbArcAlignedText
  3
ATEXT|AutoCAD Express Tool|expresstools@autodesk.com
 90
        0
 91
        4
280
     0
281
     1
  0
CLASS
  1
SCALE
  2
AcDbScale
  3
ObjectDBX Classes
 90
     1153
 91
        4
280
     0
281
     0
  0
CLASS
  1
VISUALSTYLE
  2
AcDbVisualStyle
  3
ObjectDBX Classes
 90
     4095
 91
        4
280
     0
281
     0
  0
CLASS
  1
MATERIAL
  2
AcDbMaterial
  3
ObjectDBX Classes
 90
     1153
 91
        4
280
     0
281
     0
  0
CLASS
  1
TABLESTYLE
  2
AcDbTableStyle
  3
ObjectDBX Classes
 90
     4095
 91
        4
280
     0
281
     0
  0
CLASS
  1
MLEADERSTYLE
  2
AcDbMLeaderStyle
  3
ACDB_MLEADERSTYLE_CLASS
 90
     4095
 91
        4
280
     0
281
     0
  0
CLASS
  1
DIMASSOC
  2
AcDbDimAssoc
  3
"AcDbDimAssoc|Product Desc:     AcDim ARX App For Dimension|Company:          Autodesk, Inc.|WEB Address:      www.autodesk.com"
 90
        0
 91
        4
280
     0
281
     0
  0
CLASS
  1
CELLSTYLEMAP
  2
AcDbCellStyleMap
  3
ObjectDBX Classes
 90
     1152
 91
        4
280
     0
281
     0
  0
CLASS
  1
SUN
  2
AcDbSun
  3
SCENEOE
 90
     1153
 91
        4
280
     0
281
     0
  0
ENDSEC
  0
SECTION
  2
TABLES
  0
TABLE
  2
VPORT
  5
7
330
0
100
AcDbSymbolTable
 70
     1
  0
VPORT
  5
15
330
7
100
AcDbSymbolTableRecord
100
AcDbViewportTableRecord
  2
*ACTIVE
 70
     0
 10
0.0
 20
0.0
 11
1.0
 21
1.0
 12
13442.10734126531
 22
-2030.828343975078
 13
0.0
 23
0.0
 14
1.0
 24
1.0
 15
0.0
 25
0.0
 16
0.0
 26
0.0
 36
1.0
 17
0.0
 27
0.0
 37
0.0
 40
3361.815267638287
 41
2.038379530916844
 42
50.0
 43
0.0
 44
0.0
 50
0.0
 51
0.0
 71
    16
 72
   100
 73
     1
 74
     1
 75
     0
 76
     0
 77
     0
 78
     0
281
     0
 65
     1
110
0.0
120
0.0
130
0.0
111
1.0
121
0.0
131
0.0
112
0.0
122
1.0
132
0.0
 79
     0
146
0.0
348
4BB
 60
     3
 61
     5
292
     1
282
     1
141
0.0
142
0.0
 63
   256
361
ED1
  0
ENDTAB
  0
TABLE
  2
LTYPE
  5
4
330
0
100
AcDbSymbolTable
 70
     8
  0
LTYPE
  5
11
330
4
100
AcDbSymbolTableRecord
100
AcDbLinetypeTableRecord
  2
BYBLOCK
 70
     0
  3

 72
    65
 73
     0
 40
0.0
  0
LTYPE
  5
12
330
4
100
AcDbSymbolTableRecord
100
AcDbLinetypeTableRecord
  2
BYLAYER
 70
     0
  3

 72
    65
 73
     0
 40
0.0
  0
LTYPE
  5
13
330
4
100
AcDbSymbolTableRecord
100
AcDbLinetypeTableRecord
  2
CONTINUOUS
 70
     0
  3
Solid line
 72
    65
 73
     0
 40
0.0
  0
LTYPE
  5
1D
330
4
100
AcDbSymbolTableRecord
100
AcDbLinetypeTableRecord
  2
DASHED
 70
     0
  3
Dashed
 72
    65
 73
     2
 40
15.0
 49
12.0
 74
     0
 49
-3.0
 74
     0
  0
LTYPE
  5
1E
330
4
100
AcDbSymbolTableRecord
100
AcDbLinetypeTableRecord
  2
DOTTED
 70
     0
  3
Dotted
 72
    65
 73
     2
 40
3.5
 49
0.5
 74
     0
 49
-3.0
 74
     0
  0
LTYPE
  5
1F
330
4
100
AcDbSymbolTableRecord
100
AcDbLinetypeTableRecord
  2
DOT_CENTER
 70
     0
  3
Dot_Center
 72
    65
 73
     4
 40
2.0
 49
1.25
 74
     0
 49
-0.25
 74
     0
 49
0.25
 74
     0
 49
-0.25
 74
     0
  0
LTYPE
  5
20
330
4
100
AcDbSymbolTableRecord
100
AcDbLinetypeTableRecord
  2
LONG_DASHED
 70
     0
  3
Long_Dashed
 72
    65
 73
     2
 40
2.0
 49
1.5
 74
     0
 49
-0.5
 74
     0
  0
LTYPE
  5
21
330
4
100
AcDbSymbolTableRecord
100
AcDbLinetypeTableRecord
  2
DASH_CENTER
 70
     0
  3
Dash_Center
 72
    65
 73
     4
 40
36.0
 49
24.0
 74
     0
 49
-3.0
 74
     0
 49
6.0
 74
     0
 49
-3.0
 74
     0
  0
LTYPE
  5
22
330
4
100
AcDbSymbolTableRecord
100
AcDbLinetypeTableRecord
  2
PHANTOM
 70
     0
  3
Phantom
 72
    65
 73
     6
 40
2.5
 49
1.25
 74
     0
 49
-0.25
 74
     0
 49
0.25
 74
     0
 49
-0.25
 74
     0
 49
0.25
 74
     0
 49
-0.25
 74
     0
  0
LTYPE
  5
23
330
4
100
AcDbSymbolTableRecord
100
AcDbLinetypeTableRecord
  2
CENTER_DASH_DASH
 70
     0
  3
Center_Dash_Dash
 72
    65
 73
     6
 40
22.0
 49
12.0
 74
     0
 49
-3.0
 74
     0
 49
0.5
 74
     0
 49
-3.0
 74
     0
 49
0.5
 74
     0
 49
-3.0
 74
     0
  0
ENDTAB
  0
TABLE
  2
LAYER
  5
2
330
0
100
AcDbSymbolTable
 70
     3
  0
LAYER
  5
14
330
2
100
AcDbSymbolTableRecord
100
AcDbLayerTableRecord
  2
0
 70
     0
 62
     7
  6
CONTINUOUS
370
    -3
390
490
347
4D2
348
0
  0
LAYER
  5
24
330
2
100
AcDbSymbolTableRecord
100
AcDbLayerTableRecord
  2
1
 70
     0
 62
     7
  6
CONTINUOUS
370
    -3
390
490
347
4D2
348
0
  0
LAYER
  5
4DF
330
2
100
AcDbSymbolTableRecord
100
AcDbLayerTableRecord
  2
Defpoints
 70
     0
 62
     7
  6
CONTINUOUS
290
     0
370
    -3
390
490
347
4D2
348
0
  0
ENDTAB
  0
TABLE
  2
STYLE
  5
3
330
0
100
AcDbSymbolTable
 70
     2
  0
STYLE
  5
17
330
3
100
AcDbSymbolTableRecord
100
AcDbTextStyleTableRecord
  2
STANDARD
 70
     0
 40
0.0
 41
1.0
 50
0.0
 71
     0
 42
0.0
  3
txt
  4

  0
STYLE
  5
48B
330
3
100
AcDbSymbolTableRecord
100
AcDbTextStyleTableRecord
  2
CONVERTER_1
 70
     0
 40
0.0
 41
0.9
 50
0.0
 71
     0
 42
0.0
  3
txt.shx
  4

  0
ENDTAB
  0
TABLE
  2
VIEW
  5
5
330
0
100
AcDbSymbolTable
 70
     0
  0
ENDTAB
  0
TABLE
  2
UCS
  5
6
330
0
100
AcDbSymbolTable
 70
     0
  0
ENDTAB
  0
TABLE
  2
APPID
  5
8
330
0
100
AcDbSymbolTable
 70
     1
  0
APPID
  5
16
330
8
100
AcDbSymbolTableRecord
100
AcDbRegAppTableRecord
  2
ACAD
 70
     0
  0
ENDTAB
  0
TABLE
  2
DIMSTYLE
  5
9
330
0
100
AcDbSymbolTable
 70
     1
100
AcDbDimStyleTable
  0
DIMSTYLE
105
18
330
9
100
AcDbSymbolTableRecord
100
AcDbDimStyleTableRecord
  2
STANDARD
 70
     0
178
     0
289
     0
340
17
  0
ENDTAB
  0
TABLE
  2
BLOCK_RECORD
  5
1
330
0
100
AcDbSymbolTable
 70
     1
  0
BLOCK_RECORD
  5
A
330
1
100
AcDbSymbolTableRecord
100
AcDbBlockTableRecord
  2
*MODEL_SPACE
340
4B4
 70
     0
280
     1
281
     0
  0
BLOCK_RECORD
  5
1791
330
1
100
AcDbSymbolTableRecord
100
AcDbBlockTableRecord
  2
*Paper_Space
340
1792
 70
     0
280
     1
281
     0
  0
BLOCK_RECORD
  5
25
330
1
100
AcDbSymbolTableRecord
100
AcDbBlockTableRecord
  2
SAT1000C125__1
340
0
102
{BLKREFS
331
29
102
}
 70
     0
280
     1
281
     0
  0
ENDTAB
  0
ENDSEC
  0
SECTION
  2
BLOCKS
  0
BLOCK
  5
D
330
A
100
AcDbEntity
  8
0
100
AcDbBlockBegin
  2
*MODEL_SPACE
 70
     0
 10
0.0
 20
0.0
 30
0.0
  3
*MODEL_SPACE
  1

  0
ENDBLK
  5
E
330
A
100
AcDbEntity
  8
0
100
AcDbBlockEnd
  0
BLOCK
  5
1793
330
1791
100
AcDbEntity
 67
     1
  8
0
100
AcDbBlockBegin
  2
*Paper_Space
 70
     0
 10
0.0
 20
0.0
 30
0.0
  3
*Paper_Space
  1

  0
ENDBLK
  5
1794
330
1791
100
AcDbEntity
 67
     1
  8
0
100
AcDbBlockEnd
  0
BLOCK
  5
26
330
25
100
AcDbEntity
  8
0
100
AcDbBlockBegin
  2
SAT1000C125__1
 70
     0
 10
0.0
 20
0.0
 30
0.0
  3
SAT1000C125__1
  1

  0
ARC
  5
488
330
25
100
AcDbEntity
  8
1
  6
Continuous
 62
     0
100
AcDbCircle
 10
11198.25237241225
 20
-3199.777004582082
 30
0.0
 40
2.0
100
AcDbArc
 50
270.0
 51
0.0
  0
ARC
  5
487
330
25
100
AcDbEntity
  8
1
  6
Continuous
 62
     0
100
AcDbCircle
 10
11198.25237241225
 20
-3168.777004582082
 30
0.0
 40
2.0
100
AcDbArc
 50
0.0
 51
90.0
  0
ARC
  5
486
330
25
100
AcDbEntity
  8
1
  6
Continuous
 62
     0
100
AcDbCircle
 10
11124.25237241225
 20
-3199.777004582082
 30
0.0
 40
2.0
100
AcDbArc
 50
180.0
 51
270.0
  0
ARC
  5
485
330
25
100
AcDbEntity
  8
1
  6
Continuous
 62
     0
100
AcDbCircle
 10
11124.25237241225
 20
-3168.777004582082
 30
0.0
 40
2.0
100
AcDbArc
 50
90.0
 51
180.0
  0
ARC
  5
484
330
25
100
AcDbEntity
  8
1
  6
Continuous
 62
     0
100
AcDbCircle
 10
11230.01109927066
 20
-3164.777004582082
 30
0.0
 40
3.0
100
AcDbArc
 50
90.0
 51
125.0511367472717
  0
ARC
  5
483
330
25
100
AcDbEntity
  8
1
  6
Continuous
 62
     0
100
AcDbCircle
 10
11211.01109927066
 20
-3164.777004582082
 30
0.0
 40
3.000000000005
100
AcDbArc
 50
54.9488632525427
 51
90.0
  0
ARC
  5
482
330
25
100
AcDbEntity
  8
1
  6
Continuous
 62
     0
100
AcDbCircle
 10
11777.75109927067
 20
-2610.04168708688
 30
0.0
 40
1.0
100
AcDbArc
 50
270.0
 51
0.0
  0
ARC
  5
481
330
25
100
AcDbEntity
  8
1
  6
Continuous
 62
     0
100
AcDbCircle
 10
11777.75109927067
 20
-2667.04168708688
 30
0.0
 40
1.0
100
AcDbArc
 50
0.0
 51
90.0
  0
ARC
  5
480
330
25
100
AcDbEntity
  8
1
  6
Continuous
 62
     0
100
AcDbCircle
 10
11174.7128431486
 20
-1151.379683368074
 30
0.0
 40
3.0
100
AcDbArc
 50
180.0
 51
270.0
  0
ARC
  5
47F
330
25
100
AcDbEntity
  8
1
  6
Continuous
 62
     0
100
AcDbCircle
 10
11174.7128431486
 20
-1180.379683368074
 30
0.0
 40
3.0
100
AcDbArc
 50
90.0
 51
180.0
  0
ARC
  5
47E
330
25
100
AcDbEntity
  8
1
  6
Continuous
 62
     0
100
AcDbCircle
 10
11231.23432618255
 20
-1173.229683368073
 30
0.0
 40
3.0
100
AcDbArc
 50
90.0
 51
145.5709960491356
  0
ARC
  5
47D
330
25
100
AcDbEntity
  8
1
  6
Continuous
 62
     0
100
AcDbCircle
 10
11231.23432618255
 20
-1158.529683368072
 30
0.0
 40
3.0
100
AcDbArc
 50
214.429003950927
 51
270.0
  0
ARC
  5
47C
330
25
100
AcDbEntity
  8
1
  6
Continuous
 62
     0
100
AcDbCircle
 10
11209.78881383148
 20
-1158.529683368072
 30
0.0
 40
3.0
100
AcDbArc
 50
270.0
 51
325.5709960490837
  0
ARC
  5
47B
330
25
100
AcDbEntity
  8
1
  6
Continuous
 62
     0
100
AcDbCircle
 10
11209.78881383148
 20
-1173.229683368073
 30
0.0
 40
3.0
100
AcDbArc
 50
34.42900395085724
 51
90.0
  0
ARC
  5
47A
330
25
100
AcDbEntity
  8
1
  6
Continuous
 62
     0
100
AcDbCircle
 10
13918.21280317145
 20
-434.601941572397
 30
0.0
 40
3.0
100
AcDbArc
 50
96.23461097289623
 51
173.4165619719474
  0
ARC
  5
479
330
25
100
AcDbEntity
  8
1
  6
Continuous
 62
     0
100
AcDbCircle
 10
13940.26229087864
 20
-434.601941572397
 30
0.0
 40
3.000000000002
100
AcDbArc
 50
6.583438028048591
 51
83.76538902710789
  0
ARC
  5
478
330
25
100
AcDbEntity
  8
1
  6
Continuous
 62
     0
100
AcDbCircle
 10
11749.51813080429
 20
-440.688541497869
 30
0.0
 40
2.999999999997
100
AcDbArc
 50
122.5744390990808
 51
186.5834380280712
  0
ARC
  5
477
330
25
100
AcDbEntity
  8
1
  6
Continuous
 62
     0
100
AcDbCircle
 10
11713.98406773704
 20
-440.688541497869
 30
0.0
 40
2.999999999993
100
AcDbArc
 50
353.41656197191
 51
57.42556090091222
  0
ARC
  5
476
330
25
100
AcDbEntity
  8
1
  6
Continuous
 62
     0
100
AcDbCircle
 10
11742.77584312426
 20
-434.601941572397
 30
0.0
 40
3.000000000002
100
AcDbArc
 50
6.583438028048591
 51
83.76538902710789
  0
ARC
  5
475
330
25
100
AcDbEntity
  8
1
  6
Continuous
 62
     0
100
AcDbCircle
 10
11720.72635541707
 20
-434.601941572397
 30
0.0
 40
3.0
100
AcDbArc
 50
96.23461097289623
 51
173.4165619719518
  0
ARC
  5
474
330
25
100
AcDbEntity
  8
1
  6
Continuous
 62
     0
100
AcDbCircle
 10
11759.75109927067
 20
-2232.646313594333
 30
0.0
 40
3.0
100
AcDbArc
 50
0.0
 51
38.09195710533351
  0
ARC
  5
473
330
25
100
AcDbEntity
  8
1
  6
Continuous
 62
     0
100
AcDbCircle
 10
11759.75109927067
 20
-2209.473053141818
 30
0.0
 40
2.999999999995
100
AcDbArc
 50
321.9080428946852
 51
0.0
  0
ARC
  5
472
330
25
100
AcDbEntity
  8
1
  6
Continuous
 62
     0
100
AcDbCircle
 10
13916.39474748601
 20
-2213.309683368075
 30
0.0
 40
2.0
100
AcDbArc
 50
270.0
 51
328.8910774892695
  0
ARC
  5
471
330
25
100
AcDbEntity
  8
1
  6
Continuous
 62
     0
100
AcDbCircle
 10
13916.39474748601
 20
-2228.809683368075
 30
0.0
 40
1.999999999996
100
AcDbArc
 50
31.10892251045824
 51
90.0
  0
ARC
  5
470
330
25
100
AcDbEntity
  8
1
  6
Continuous
 62
     0
100
AcDbCircle
 10
13942.08034656409
 20
-2213.309683368075
 30
0.0
 40
2.000000000001
100
AcDbArc
 50
211.1089225107036
 51
270.0
  0
ARC
  5
46F
330
25
100
AcDbEntity
  8
1
  6
Continuous
 62
     0
100
AcDbCircle
 10
13942.08034656409
 20
-2228.809683368075
 30
0.0
 40
2.0
100
AcDbArc
 50
90.0
 51
148.891077489551
  0
ARC
  5
46E
330
25
100
AcDbEntity
  8
1
  6
Continuous
 62
     0
100
AcDbCircle
 10
13922.48754702505
 20
-2209.059683368074
 30
0.0
 40
2.0
100
AcDbArc
 50
90.0
 51
180.0
  0
ARC
  5
46D
330
25
100
AcDbEntity
  8
1
  6
Continuous
 62
     0
100
AcDbCircle
 10
11138.93217116413
 20
-1100.157497584631
 30
0.0
 40
0.144444444438
100
AcDbArc
 50
137.7821654151628
 51
312.2178345850252
  0
ARC
  5
46C
330
25
100
AcDbEntity
  8
1
  6
Continuous
 62
     0
100
AcDbCircle
 10
11712.75109927067
 20
-946.159683368074
 30
0.0
 40
1.0
100
AcDbArc
 50
90.0
 51
180.0
  0
ARC
  5
46B
330
25
100
AcDbEntity
  8
1
  6
Continuous
 62
     0
100
AcDbCircle
 10
11750.75109927067
 20
-946.159683368074
 30
0.0
 40
1.0
100
AcDbArc
 50
0.0
 51
90.0
  0
ARC
  5
46A
330
25
100
AcDbEntity
  8
1
  6
Continuous
 62
     0
100
AcDbCircle
 10
11754.75109927067
 20
-952.159683368074
 30
0.0
 40
2.0
100
AcDbArc
 50
0.0
 51
90.0
  0
ARC
  5
469
330
25
100
AcDbEntity
  8
1
  6
Continuous
 62
     0
100
AcDbCircle
 10
11708.75109927067
 20
-952.159683368074
 30
0.0
 40
2.0
100
AcDbArc
 50
90.0
 51
180.0
  0
ARC
  5
468
330
25
100
AcDbEntity
  8
1
  6
Continuous
 62
     0
100
AcDbCircle
 10
11709.75109927067
 20
-948.159683368074
 30
0.0
 40
2.0
100
AcDbArc
 50
270.0
 51
0.0
  0
ARC
  5
467
330
25
100
AcDbEntity
  8
1
  6
Continuous
 62
     0
100
AcDbCircle
 10
11753.75109927067
 20
-948.159683368074
 30
0.0
 40
2.0
100
AcDbArc
 50
180.0
 51
270.0
  0
ARC
  5
466
330
25
100
AcDbEntity
  8
1
  6
Continuous
 62
     0
100
AcDbCircle
 10
11756.75109927067
 20
-993.582333098884
 30
0.0
 40
2.0
100
AcDbArc
 50
180.0
 51
239.9999999999994
  0
ARC
  5
465
330
25
100
AcDbEntity
  8
1
  6
Continuous
 62
     0
100
AcDbCircle
 10
11751.75109927067
 20
-993.159683368074
 30
0.0
 40
1.0
100
AcDbArc
 50
270.0
 51
0.0
  0
ARC
  5
464
330
25
100
AcDbEntity
  8
1
  6
Continuous
 62
     0
100
AcDbCircle
 10
11741.084432604
 20
-993.159683368074
 30
0.0
 40
1.0
100
AcDbArc
 50
180.0
 51
270.0
  0
ARC
  5
463
330
25
100
AcDbEntity
  8
1
  6
Continuous
 62
     0
100
AcDbCircle
 10
11737.084432604
 20
-993.159683368074
 30
0.0
 40
1.0
100
AcDbArc
 50
270.0
 51
0.0
  0
ARC
  5
462
330
25
100
AcDbEntity
  8
1
  6
Continuous
 62
     0
100
AcDbCircle
 10
11726.41776593733
 20
-993.159683368074
 30
0.0
 40
1.0
100
AcDbArc
 50
180.0
 51
270.0
  0
ARC
  5
461
330
25
100
AcDbEntity
  8
1
  6
Continuous
 62
     0
100
AcDbCircle
 10
11722.41776593733
 20
-993.159683368074
 30
0.0
 40
1.0
100
AcDbArc
 50
270.0
 51
0.0
  0
ARC
  5
460
330
25
100
AcDbEntity
  8
1
  6
Continuous
 62
     0
100
AcDbCircle
 10
11706.75109927067
 20
-993.582333098884
 30
0.0
 40
2.0
100
AcDbArc
 50
299.9999999999989
 51
0.0
  0
ARC
  5
45F
330
25
100
AcDbEntity
  8
1
  6
Continuous
 62
     0
100
AcDbCircle
 10
11711.75109927067
 20
-993.159683368074
 30
0.0
 40
1.0
100
AcDbArc
 50
180.0
 51
270.0
  0
ARC
  5
45E
330
25
100
AcDbEntity
  8
1
  6
Continuous
 62
     0
100
AcDbCircle
 10
11696.75109927067
 20
-1009.159683368074
 30
0.0
 40
5.0
100
AcDbArc
 50
90.0
 51
180.0
  0
ARC
  5
45D
330
25
100
AcDbEntity
  8
1
  6
Continuous
 62
     0
100
AcDbCircle
 10
11766.75109927067
 20
-1009.159683368074
 30
0.0
 40
4.999999999989
100
AcDbArc
 50
0.0
 51
90.0
  0
ARC
  5
45C
330
25
100
AcDbEntity
  8
1
  6
Continuous
 62
     0
100
AcDbCircle
 10
11696.75109927067
 20
-1062.659683368074
 30
0.0
 40
5.0
100
AcDbArc
 50
180.0
 51
270.0
  0
ARC
  5
45B
330
25
100
AcDbEntity
  8
1
  6
Continuous
 62
     0
100
AcDbCircle
 10
11772.75109927066
 20
-1010.159683368074
 30
0.0
 40
1.0
100
AcDbArc
 50
180.0
 51
270.0
  0
ARC
  5
45A
330
25
100
AcDbEntity
  8
1
  6
Continuous
 62
     0
100
AcDbCircle
 10
11777.75109927066
 20
-1010.159683368074
 30
0.0
 40
1.0
100
AcDbArc
 50
270.0
 51
0.0
  0
ARC
  5
459
330
25
100
AcDbEntity
  8
1
  6
Continuous
 62
     0
100
AcDbCircle
 10
11772.75109927066
 20
-1067.159683368074
 30
0.0
 40
1.0
100
AcDbArc
 50
90.0
 51
180.0
  0
ARC
  5
458
330
25
100
AcDbEntity
  8
1
  6
Continuous
 62
     0
100
AcDbCircle
 10
11777.75109927066
 20
-1067.159683368074
 30
0.0
 40
1.0
100
AcDbArc
 50
0.0
 51
90.0
  0
ARC
  5
457
330
25
100
AcDbEntity
  8
1
  6
Continuous
 62
     0
100
AcDbCircle
 10
11763.75109927067
 20
-1075.659683368074
 30
0.0
 40
3.0
100
AcDbArc
 50
270.0
 51
0.0
  0
ARC
  5
456
330
25
100
AcDbEntity
  8
1
  6
Continuous
 62
     0
100
AcDbCircle
 10
11699.75109927067
 20
-1075.659683368074
 30
0.0
 40
3.0
100
AcDbArc
 50
180.0
 51
270.0
  0
ARC
  5
455
330
25
100
AcDbEntity
  8
1
  6
Continuous
 62
     0
100
AcDbCircle
 10
13415.14414396485
 20
-1062.659683368074
 30
0.0
 40
5.0
100
AcDbArc
 50
270.0
 51
0.0
  0
ARC
  5
454
330
25
100
AcDbEntity
  8
1
  6
Continuous
 62
     0
100
AcDbCircle
 10
13348.14414396485
 20
-1075.659683368074
 30
0.0
 40
3.0
100
AcDbArc
 50
180.0
 51
270.0
  0
ARC
  5
453
330
25
100
AcDbEntity
  8
1
  6
Continuous
 62
     0
100
AcDbCircle
 10
13412.14414396485
 20
-1075.659683368074
 30
0.0
 40
3.0
100
AcDbArc
 50
270.0
 51
0.0
  0
ARC
  5
452
330
25
100
AcDbEntity
  8
1
  6
Continuous
 62
     0
100
AcDbCircle
 10
13345.14414396485
 20
-1062.659683368074
 30
0.0
 40
5.0
100
AcDbArc
 50
180.0
 51
270.0
  0
ARC
  5
451
330
25
100
AcDbEntity
  8
1
  6
Continuous
 62
     0
100
AcDbCircle
 10
13415.14414396485
 20
-1009.159683368074
 30
0.0
 40
5.0
100
AcDbArc
 50
0.0
 51
90.0
  0
ARC
  5
450
330
25
100
AcDbEntity
  8
1
  6
Continuous
 62
     0
100
AcDbCircle
 10
13345.14414396485
 20
-1009.159683368074
 30
0.0
 40
5.0
100
AcDbArc
 50
90.0
 51
180.0
  0
ARC
  5
44F
330
25
100
AcDbEntity
  8
1
  6
Continuous
 62
     0
100
AcDbCircle
 10
13360.14414396485
 20
-993.159683368074
 30
0.0
 40
1.0
100
AcDbArc
 50
180.0
 51
270.0
  0
ARC
  5
44E
330
25
100
AcDbEntity
  8
1
  6
Continuous
 62
     0
100
AcDbCircle
 10
13355.14414396485
 20
-993.582333098884
 30
0.0
 40
2.0
100
AcDbArc
 50
299.9999999999989
 51
0.0
  0
ARC
  5
44D
330
25
100
AcDbEntity
  8
1
  6
Continuous
 62
     0
100
AcDbCircle
 10
13370.81081063152
 20
-993.159683368074
 30
0.0
 40
1.0
100
AcDbArc
 50
270.0
 51
0.0
  0
ARC
  5
44C
330
25
100
AcDbEntity
  8
1
  6
Continuous
 62
     0
100
AcDbCircle
 10
13374.81081063152
 20
-993.159683368074
 30
0.0
 40
1.0
100
AcDbArc
 50
180.0
 51
270.0
  0
ARC
  5
44B
330
25
100
AcDbEntity
  8
1
  6
Continuous
 62
     0
100
AcDbCircle
 10
13385.47747729819
 20
-993.159683368074
 30
0.0
 40
1.0
100
AcDbArc
 50
270.0
 51
0.0
  0
ARC
  5
44A
330
25
100
AcDbEntity
  8
1
  6
Continuous
 62
     0
100
AcDbCircle
 10
13389.47747729819
 20
-993.159683368074
 30
0.0
 40
1.0
100
AcDbArc
 50
180.0
 51
270.0
  0
ARC
  5
449
330
25
100
AcDbEntity
  8
1
  6
Continuous
 62
     0
100
AcDbCircle
 10
13400.14414396485
 20
-993.159683368074
 30
0.0
 40
1.0
100
AcDbArc
 50
270.0
 51
0.0
  0
ARC
  5
448
330
25
100
AcDbEntity
  8
1
  6
Continuous
 62
     0
100
AcDbCircle
 10
13405.14414396485
 20
-993.582333098884
 30
0.0
 40
2.0
100
AcDbArc
 50
180.0
 51
239.9999999999994
  0
ARC
  5
447
330
25
100
AcDbEntity
  8
1
  6
Continuous
 62
     0
100
AcDbCircle
 10
13402.14414396485
 20
-948.159012029489
 30
0.0
 40
2.0
100
AcDbArc
 50
180.0
 51
270.0
  0
ARC
  5
446
330
25
100
AcDbEntity
  8
1
  6
Continuous
 62
     0
100
AcDbCircle
 10
13358.14414396485
 20
-948.159012029489
 30
0.0
 40
2.0
100
AcDbArc
 50
270.0
 51
0.0
  0
ARC
  5
445
330
25
100
AcDbEntity
  8
1
  6
Continuous
 62
     0
100
AcDbCircle
 10
13357.14414396485
 20
-952.159012029489
 30
0.0
 40
2.0
100
AcDbArc
 50
90.0
 51
180.0
  0
ARC
  5
444
330
25
100
AcDbEntity
  8
1
  6
Continuous
 62
     0
100
AcDbCircle
 10
13403.14414396485
 20
-952.159012029489
 30
0.0
 40
2.0
100
AcDbArc
 50
0.0
 51
90.0
  0
ARC
  5
443
330
25
100
AcDbEntity
  8
1
  6
Continuous
 62
     0
100
AcDbCircle
 10
13399.14414396485
 20
-946.159012029489
 30
0.0
 40
1.0
100
AcDbArc
 50
0.0
 51
90.0
  0
ARC
  5
442
330
25
100
AcDbEntity
  8
1
  6
Continuous
 62
     0
100
AcDbCircle
 10
13361.14414396485
 20
-946.159012029489
 30
0.0
 40
1.0
100
AcDbArc
 50
90.0
 51
180.0
  0
ARC
  5
441
330
25
100
AcDbEntity
  8
1
  6
Continuous
 62
     0
100
AcDbCircle
 10
13404.50222952984
 20
-1155.381227900646
 30
0.0
 40
45.0
100
AcDbArc
 50
179.999999999998
 51
270.0
  0
ARC
  5
440
330
25
100
AcDbEntity
  8
1
  6
Continuous
 62
     0
100
AcDbCircle
 10
13406.50222952984
 20
-1125.378138835503
 30
0.0
 40
6.0
100
AcDbArc
 50
180.0
 51
270.0
  0
ARC
  5
43F
330
25
100
AcDbEntity
  8
1
  6
Continuous
 62
     0
100
AcDbCircle
 10
11681.25109927067
 20
-1125.752395307613
 30
0.0
 40
29.999999999997
100
AcDbArc
 50
321.5293544593932
 51
0.0
  0
ARC
  5
43E
330
25
100
AcDbEntity
  8
1
  6
Continuous
 62
     0
100
AcDbCircle
 10
11782.25109927067
 20
-1125.752395307612
 30
0.0
 40
30.0
100
AcDbArc
 50
180.0
 51
218.4706455405935
  0
ARC
  5
435
330
25
100
AcDbEntity
  8
1
  6
Continuous
 62
     0
100
AcDbCircle
 10
11733.75109927067
 20
-3673.777004582082
 30
0.0
 40
2.0
100
AcDbArc
 50
270.0
 51
0.0
  0
ARC
  5
434
330
25
100
AcDbEntity
  8
1
  6
Continuous
 62
     0
100
AcDbCircle
 10
11729.75109927067
 20
-3673.777004582082
 30
0.0
 40
2.0
100
AcDbArc
 50
180.0
 51
270.0
  0
ARC
  5
433
330
25
100
AcDbEntity
  8
1
  6
Continuous
 62
     0
100
AcDbCircle
 10
11733.75109927067
 20
-3673.777004582082
 30
0.0
 40
2.0
100
AcDbArc
 50
270.0
 51
0.0
  0
ARC
  5
432
330
25
100
AcDbEntity
  8
1
  6
Continuous
 62
     0
100
AcDbCircle
 10
11729.75109927067
 20
-3673.777004582082
 30
0.0
 40
2.0
100
AcDbArc
 50
180.0
 51
270.0
  0
CIRCLE
  5
431
330
25
100
AcDbEntity
  8
1
  6
Continuous
 62
     0
100
AcDbCircle
 10
11161.25237241225
 20
-3187.777004582082
 30
0.0
 40
8.331
  0
CIRCLE
  5
430
330
25
100
AcDbEntity
  8
1
  6
Continuous
 62
     0
100
AcDbCircle
 10
11161.25237241225
 20
-3187.777004582082
 30
0.0
 40
7.475000000001
  0
CIRCLE
  5
42F
330
25
100
AcDbEntity
  8
1
  6
Continuous
 62
     0
100
AcDbCircle
 10
12014.59381174528
 20
-2904.934292107463
 30
0.0
 40
11.5
  0
CIRCLE
  5
42E
330
25
100
AcDbEntity
  8
1
  6
Continuous
 62
     0
100
AcDbCircle
 10
11448.90838679605
 20
-2904.934292107463
 30
0.0
 40
11.5
  0
CIRCLE
  5
42D
330
25
100
AcDbEntity
  8
1
  6
Continuous
 62
     0
100
AcDbCircle
 10
11448.90838679605
 20
-3470.619717056701
 30
0.0
 40
11.5
  0
CIRCLE
  5
42C
330
25
100
AcDbEntity
  8
1
  6
Continuous
 62
     0
100
AcDbCircle
 10
12014.59381174528
 20
-3470.619717056701
 30
0.0
 40
11.499999999999
  0
CIRCLE
  5
42A
330
25
100
AcDbEntity
  8
1
  6
Continuous
 62
     0
100
AcDbCircle
 10
11731.75109927067
 20
-3187.777004582082
 30
0.0
 40
450.0
  0
CIRCLE
  5
428
330
25
100
AcDbEntity
  8
1
  6
Continuous
 62
     0
100
AcDbCircle
 10
11220.51157000702
 20
-1165.879683368074
 30
0.0
 40
8.5
  0
CIRCLE
  5
427
330
25
100
AcDbEntity
  8
1
  6
Continuous
 62
     0
100
AcDbCircle
 10
11220.51157000702
 20
-1165.879683368074
 30
0.0
 40
5.0
  0
CIRCLE
  5
426
330
25
100
AcDbEntity
  8
1
  6
Continuous
 62
     0
100
AcDbCircle
 10
11220.51157000702
 20
-1165.879683368074
 30
0.0
 40
3.0
  0
CIRCLE
  5
425
330
25
100
AcDbEntity
  8
1
  6
Continuous
 62
     0
100
AcDbCircle
 10
11220.51157000702
 20
-1165.879683368074
 30
0.0
 40
6.25
  0
CIRCLE
  5
417
330
25
100
AcDbEntity
  8
1
  6
Continuous
 62
     0
100
AcDbCircle
 10
11731.75109927067
 20
-412.879683368075
 30
0.0
 40
17.5
  0
CIRCLE
  5
416
330
25
100
AcDbEntity
  8
1
  6
Continuous
 62
     0
100
AcDbCircle
 10
11731.75109927067
 20
-3187.777004582082
 30
0.0
 40
459.0
  0
CIRCLE
  5
415
330
25
100
AcDbEntity
  8
1
  6
Continuous
 62
     0
100
AcDbCircle
 10
13929.23754702505
 20
-1165.879683368074
 30
0.0
 40
41.0
  0
CIRCLE
  5
414
330
25
100
AcDbEntity
  8
1
  6
Continuous
 62
     0
100
AcDbCircle
 10
13929.23754702505
 20
-1165.879683368074
 30
0.0
 40
36.112999999999
  0
CIRCLE
  5
412
330
25
100
AcDbEntity
  8
1
  6
Continuous
 62
     0
100
AcDbCircle
 10
13929.23754702505
 20
-2221.059683368075
 30
0.0
 40
11.100000000001
  0
CIRCLE
  5
411
330
25
100
AcDbEntity
  8
1
  6
Continuous
 62
     0
100
AcDbCircle
 10
13929.23754702505
 20
-2221.059683368075
 30
0.0
 40
6.0
  0
CIRCLE
  5
410
330
25
100
AcDbEntity
  8
1
  6
Continuous
 62
     0
100
AcDbCircle
 10
13929.23754702505
 20
-2221.059683368075
 30
0.0
 40
7.5
  0
CIRCLE
  5
40F
330
25
100
AcDbEntity
  8
1
  6
Continuous
 62
     0
100
AcDbCircle
 10
13929.23754702505
 20
-2221.059683368075
 30
0.0
 40
3.600000000001
  0
CIRCLE
  5
40E
330
25
100
AcDbEntity
  8
1
  6
Continuous
 62
     0
100
AcDbCircle
 10
11160.21603266449
 20
-1079.235115129588
 30
0.0
 40
36.092093524159
  0
CIRCLE
  5
40D
330
25
100
AcDbEntity
  8
1
  6
Continuous
 62
     0
100
AcDbCircle
 10
11160.2128431486
 20
-1079.230956509657
 30
0.0
 40
2.88888888888
  0
CIRCLE
  5
40C
330
25
100
AcDbEntity
  8
1
  6
Continuous
 62
     0
100
AcDbCircle
 10
11144.32319847538
 20
-1096.655543884372
 30
0.0
 40
0.722222222221
  0
CIRCLE
  5
40B
330
25
100
AcDbEntity
  8
1
  6
Continuous
 62
     0
100
AcDbCircle
 10
11160.2128431486
 20
-1091.868737945063
 30
0.0
 40
2.247127062104
  0
CIRCLE
  5
40A
330
25
100
AcDbEntity
  8
1
  6
Continuous
 62
     0
100
AcDbCircle
 10
13380.00222952985
 20
-1038.659683368074
 30
0.0
 40
19.5
  0
CIRCLE
  5
409
330
25
100
AcDbEntity
  8
1
  6
Continuous
 62
     0
100
AcDbCircle
 10
13380.00222952985
 20
-1038.659683368074
 30
0.0
 40
21.0
  0
CIRCLE
  5
408
330
25
100
AcDbEntity
  8
1
  6
Continuous
 62
     0
100
AcDbCircle
 10
13380.00222952985
 20
-1038.659683368074
 30
0.0
 40
29.0
  0
ARC
  5
407
330
25
100
AcDbEntity
  8
1
  6
Continuous
 62
     0
100
AcDbCircle
 10
11161.25237241225
 20
-3187.777004582082
 30
0.0
 40
11.5
100
AcDbArc
 50
90.0
 51
270.0
  0
ARC
  5
406
330
25
100
AcDbEntity
  8
1
  6
Continuous
 62
     0
100
AcDbCircle
 10
11249.6993160652
 20
-3193.027004582082
 30
0.0
 40
15.163861141553
100
AcDbArc
 50
188.5330044404436
 51
200.2561580004274
  0
ARC
  5
405
330
25
100
AcDbEntity
  8
1
  6
Continuous
 62
     0
100
AcDbCircle
 10
11193.32288247613
 20
-3182.527004582082
 30
0.0
 40
15.163861141544
100
AcDbArc
 50
8.533004440448753
 51
20.25615800042967
  0
ARC
  5
404
330
25
100
AcDbEntity
  8
1
  6
Continuous
 62
     0
100
AcDbCircle
 10
11249.6993160652
 20
-3182.527004582082
 30
0.0
 40
15.163861141555
100
AcDbArc
 50
186.6270409271821
 51
200.2561580004283
  0
ARC
  5
403
330
25
100
AcDbEntity
  8
1
  6
Continuous
 62
     0
100
AcDbCircle
 10
11193.32288247613
 20
-3193.027004582082
 30
0.0
 40
15.163861141555
100
AcDbArc
 50
6.627040927182041
 51
20.25615800042667
  0
ARC
  5
402
330
25
100
AcDbEntity
  8
1
  6
Continuous
 62
     0
100
AcDbCircle
 10
11220.51109927066
 20
-3170.465754582083
 30
0.0
 40
9.111249999993
100
AcDbArc
 50
242.9041220240567
 51
297.0958779760085
  0
ARC
  5
401
330
25
100
AcDbEntity
  8
1
  6
Continuous
 62
     0
100
AcDbCircle
 10
11228.34723812911
 20
-3182.527004582082
 30
0.0
 40
15.163861141559
100
AcDbArc
 50
339.7438419995869
 51
20.25615800041309
  0
ARC
  5
400
330
25
100
AcDbEntity
  8
1
  6
Continuous
 62
     0
100
AcDbCircle
 10
11228.34723812911
 20
-3193.027004582082
 30
0.0
 40
15.163861141559
100
AcDbArc
 50
339.7438419995869
 51
20.25615800041309
  0
ARC
  5
3FF
330
25
100
AcDbEntity
  8
1
  6
Continuous
 62
     0
100
AcDbCircle
 10
11249.6993160652
 20
-3193.027004582082
 30
0.0
 40
15.163861141549
100
AcDbArc
 50
159.7438419995727
 51
173.3729590728182
  0
ARC
  5
3FE
330
25
100
AcDbEntity
  8
1
  6
Continuous
 62
     0
100
AcDbCircle
 10
11249.6993160652
 20
-3182.527004582082
 30
0.0
 40
15.163861141549
100
AcDbArc
 50
159.7438419995727
 51
171.466995559556
  0
ARC
  5
3FD
330
25
100
AcDbEntity
  8
1
  6
Continuous
 62
     0
100
AcDbCircle
 10
11193.32288247613
 20
-3182.527004582082
 30
0.0
 40
15.163861141549
100
AcDbArc
 50
339.7438419995726
 51
353.3729590728182
  0
ARC
  5
3FC
330
25
100
AcDbEntity
  8
1
  6
Continuous
 62
     0
100
AcDbCircle
 10
11193.32288247613
 20
-3193.027004582082
 30
0.0
 40
15.163861141549
100
AcDbArc
 50
339.7438419995726
 51
351.4669955595509
  0
ARC
  5
3FB
330
25
100
AcDbEntity
  8
1
  6
Continuous
 62
     0
100
AcDbCircle
 10
11214.67496041222
 20
-3182.527004582082
 30
0.0
 40
15.163861141559
100
AcDbArc
 50
159.7438419995869
 51
200.2561580004131
  0
ARC
  5
3FA
330
25
100
AcDbEntity
  8
1
  6
Continuous
 62
     0
100
AcDbCircle
 10
11214.67496041222
 20
-3193.027004582082
 30
0.0
 40
15.163861141559
100
AcDbArc
 50
159.7438419995869
 51
200.2561580004131
  0
ARC
  5
3F9
330
25
100
AcDbEntity
  8
1
  6
Continuous
 62
     0
100
AcDbCircle
 10
11220.51109927066
 20
-3151.23533791541
 30
0.0
 40
13.541666666666
100
AcDbArc
 50
234.9488632525697
 51
305.0511367474688
  0
ARC
  5
3F8
330
25
100
AcDbEntity
  8
1
  6
Continuous
 62
     0
100
AcDbCircle
 10
11731.75109927067
 20
-2638.54168708688
 30
0.0
 40
40.141914435009
100
AcDbArc
 50
329.2592858702325
 51
210.7407141297587
  0
ARC
  5
3F7
330
25
100
AcDbEntity
  8
1
  6
Continuous
 62
     0
100
AcDbCircle
 10
11731.77976817452
 20
-2646.149442604229
 30
0.0
 40
34.787361012422
100
AcDbArc
 50
7.710008218939735
 51
173.0291458909451
  0
ARC
  5
3F6
330
25
100
AcDbEntity
  8
1
  6
Continuous
 62
     0
100
AcDbCircle
 10
11686.834113238
 20
-2672.152181047341
 30
0.0
 40
10.415441500092
100
AcDbArc
 50
328.8685094338854
 51
0.0
  0
ARC
  5
3F5
330
25
100
AcDbEntity
  8
1
  6
Continuous
 62
     0
100
AcDbCircle
 10
11776.66808530333
 20
-2672.152181047341
 30
0.0
 40
10.41544150009
100
AcDbArc
 50
180.0
 51
211.1314905661156
  0
ARC
  5
3F4
330
25
100
AcDbEntity
  8
1
  6
Continuous
 62
     0
100
AcDbCircle
 10
11779.08444289596
 20
-3672.588659421198
 30
0.0
 40
6.188368025614
100
AcDbArc
 50
245.97932291888
 51
304.2284958029811
  0
ARC
  5
3F3
330
25
100
AcDbEntity
  8
1
  6
Continuous
 62
     0
100
AcDbCircle
 10
11799.90269720929
 20
-3672.588659421198
 30
0.0
 40
6.188368025609
100
AcDbArc
 50
235.7715041969274
 51
294.0206770810294
  0
ARC
  5
3F2
330
25
100
AcDbEntity
  8
1
  6
Continuous
 62
     0
100
AcDbCircle
 10
11789.49357005262
 20
-3655.848801351807
 30
0.0
 40
22.928203230275
100
AcDbArc
 50
252.4120462259941
 51
287.5879537740058
  0
ARC
  5
3F1
330
25
100
AcDbEntity
  8
1
  6
Continuous
 62
     0
100
AcDbCircle
 10
11755.66881379348
 20
-3655.848801351807
 30
0.0
 40
22.928203230272
100
AcDbArc
 50
252.4120462260205
 51
287.5879537740079
  0
ARC
  5
3F0
330
25
100
AcDbEntity
  8
1
  6
Continuous
 62
     0
100
AcDbCircle
 10
11766.07794095015
 20
-3672.588659421198
 30
0.0
 40
6.188368025609
100
AcDbArc
 50
235.7715041969274
 51
294.0206770810294
  0
ARC
  5
3EF
330
25
100
AcDbEntity
  8
1
  6
Continuous
 62
     0
100
AcDbCircle
 10
11745.25968663682
 20
-3672.588659421198
 30
0.0
 40
6.18836802561
100
AcDbArc
 50
245.979322918974
 51
304.2284958030679
  0
ARC
  5
3EE
330
25
100
AcDbEntity
  8
1
  6
Continuous
 62
     0
100
AcDbCircle
 10
11718.24251190451
 20
-3672.588659421198
 30
0.0
 40
6.188368025608
100
AcDbArc
 50
235.7715041969414
 51
294.0206770810346
  0
ARC
  5
3ED
330
25
100
AcDbEntity
  8
1
  6
Continuous
 62
     0
100
AcDbCircle
 10
11697.42425759118
 20
-3672.588659421198
 30
0.0
 40
6.18836802561
100
AcDbArc
 50
245.979322918974
 51
304.2284958030679
  0
ARC
  5
3EC
330
25
100
AcDbEntity
  8
1
  6
Continuous
 62
     0
100
AcDbCircle
 10
11707.83338474784
 20
-3655.848801351807
 30
0.0
 40
22.928203230272
100
AcDbArc
 50
252.4120462260158
 51
287.5879537740079
  0
ARC
  5
3EB
330
25
100
AcDbEntity
  8
1
  6
Continuous
 62
     0
100
AcDbCircle
 10
11674.00862848871
 20
-3655.848801351807
 30
0.0
 40
22.928203230275
100
AcDbArc
 50
252.4120462259941
 51
287.5879537739818
  0
ARC
  5
3EA
330
25
100
AcDbEntity
  8
1
  6
Continuous
 62
     0
100
AcDbCircle
 10
11663.59950133204
 20
-3672.588659421198
 30
0.0
 40
6.188368025611
100
AcDbArc
 50
245.9793229189603
 51
304.2284958030608
  0
ARC
  5
3E9
330
25
100
AcDbEntity
  8
1
  6
Continuous
 62
     0
100
AcDbCircle
 10
11684.41775564537
 20
-3672.588659421198
 30
0.0
 40
6.188368025609
100
AcDbArc
 50
235.7715041969274
 51
294.0206770810294
  0
ARC
  5
3E8
330
25
100
AcDbEntity
  8
1
  6
Continuous
 62
     0
100
AcDbCircle
 10
11203.92637202279
 20
-1174.987669630153
 30
0.0
 40
5.414822022411
100
AcDbArc
 50
145.7715041969951
 51
204.0206770810504
  0
ARC
  5
3E7
330
25
100
AcDbEntity
  8
1
  6
Continuous
 62
     0
100
AcDbCircle
 10
11218.57374783349
 20
-1165.879683368074
 30
0.0
 40
20.062177826479
100
AcDbArc
 50
162.4120462259981
 51
197.5879537740043
  0
ARC
  5
3E6
330
25
100
AcDbEntity
  8
1
  6
Continuous
 62
     0
100
AcDbCircle
 10
11203.92637202279
 20
-1156.771697105996
 30
0.0
 40
5.414822022412
100
AcDbArc
 50
155.9793229189408
 51
214.228495802996
  0
ARC
  5
3E5
330
25
100
AcDbEntity
  8
1
  6
Continuous
 62
     0
100
AcDbCircle
 10
11237.09676799124
 20
-1174.987669630153
 30
0.0
 40
5.414822022412
100
AcDbArc
 50
335.9793229189408
 51
34.22849580299007
  0
ARC
  5
3E4
330
25
100
AcDbEntity
  8
1
  6
Continuous
 62
     0
100
AcDbCircle
 10
11222.44939218054
 20
-1165.879683368074
 30
0.0
 40
20.062177826479
100
AcDbArc
 50
342.4120462259963
 51
17.58795377400126
  0
ARC
  5
3E3
330
25
100
AcDbEntity
  8
1
  6
Continuous
 62
     0
100
AcDbCircle
 10
11237.09676799124
 20
-1156.771697105996
 30
0.0
 40
5.414822022412
100
AcDbArc
 50
325.7715041970099
 51
24.02067708105918
  0
ARC
  5
3E2
330
25
100
AcDbEntity
  8
1
  6
Continuous
 62
     0
100
AcDbCircle
 10
11220.51157000702
 20
-1165.879683368074
 30
0.0
 40
10.000000000003
100
AcDbArc
 50
214.429003950702
 51
325.5709960492647
  0
ARC
  5
3E1
330
25
100
AcDbEntity
  8
1
  6
Continuous
 62
     0
100
AcDbCircle
 10
11220.51157000702
 20
-1165.879683368074
 30
0.0
 40
9.999999999995
100
AcDbArc
 50
34.42900395072713
 51
145.570996049296
  0
ARC
  5
3E0
330
25
100
AcDbEntity
  8
1
  6
Continuous
 62
     0
100
AcDbCircle
 10
11254.27374783349
 20
-1165.879683368074
 30
0.0
 40
20.062177826481
100
AcDbArc
 50
196.095963210059
 51
197.5879537740046
  0
ARC
  5
3DF
330
25
100
AcDbEntity
  8
1
  6
Continuous
 62
     0
100
AcDbCircle
 10
11239.62637202279
 20
-1174.987669630153
 30
0.0
 40
5.414822022412
100
AcDbArc
 50
145.7715041970099
 51
204.0206770810592
  0
ARC
  5
3DE
330
25
100
AcDbEntity
  8
1
  6
Continuous
 62
     0
100
AcDbCircle
 10
11239.62637202279
 20
-1156.771697105996
 30
0.0
 40
5.414822022412
100
AcDbArc
 50
155.9793229189408
 51
214.2284958029901
  0
ARC
  5
3DD
330
25
100
AcDbEntity
  8
1
  6
Continuous
 62
     0
100
AcDbCircle
 10
11186.48721435404
 20
-1165.879683368074
 30
0.0
 40
20.062177826482
100
AcDbArc
 50
16.09596321005381
 51
17.58795377399997
  0
ARC
  5
3DC
330
25
100
AcDbEntity
  8
1
  6
Continuous
 62
     0
100
AcDbCircle
 10
11201.13459016475
 20
-1156.771697105996
 30
0.0
 40
5.414822022403
100
AcDbArc
 50
325.771504196945
 51
24.02067708105096
  0
ARC
  5
3DB
330
25
100
AcDbEntity
  8
1
  6
Continuous
 62
     0
100
AcDbCircle
 10
11201.13459016475
 20
-1174.987669630153
 30
0.0
 40
5.414822022412
100
AcDbArc
 50
335.9793229189408
 51
34.22849580305749
  0
ARC
  5
3DA
330
25
100
AcDbEntity
  8
1
  6
Continuous
 62
     0
100
AcDbCircle
 10
11226.41444806746
 20
-1161.890853801144
 30
0.0
 40
6.806710713919
100
AcDbArc
 50
3.041596008606509
 51
41.51019968788864
  0
ARC
  5
3D9
330
25
100
AcDbEntity
  8
1
  6
Continuous
 62
     0
100
AcDbCircle
 10
11186.48721435404
 20
-1165.879683368074
 30
0.0
 40
20.062177826479
100
AcDbArc
 50
342.4120462259963
 51
343.9040367899427
  0
ARC
  5
3D8
330
25
100
AcDbEntity
  8
1
  6
Continuous
 62
     0
100
AcDbCircle
 10
11254.27374783349
 20
-1165.879683368074
 30
0.0
 40
20.062177826479
100
AcDbArc
 50
162.4120462259981
 51
163.9040367899439
  0
ARC
  5
3D7
330
25
100
AcDbEntity
  8
1
  6
Continuous
 62
     0
100
AcDbCircle
 10
14840.35999228054
 20
-1761.879683368074
 30
0.0
 40
458.97244525549
100
AcDbArc
 50
170.088686020987
 51
189.9113139790129
  0
ARC
  5
3D6
330
25
100
AcDbEntity
  8
1
  6
Continuous
 62
     0
100
AcDbCircle
 10
13929.23754702505
 20
-389.129683368075
 30
0.0
 40
6.25
100
AcDbArc
 50
0.0
 51
180.0
  0
ARC
  5
3D5
330
25
100
AcDbEntity
  8
1
  6
Continuous
 62
     0
100
AcDbCircle
 10
13569.2379757728
 20
-1982.482763415372
 30
0.0
 40
99.000429050303
100
AcDbArc
 50
180.148517568771
 51
243.512576099801
  0
ARC
  5
3D4
330
25
100
AcDbEntity
  8
1
  6
Continuous
 62
     0
100
AcDbCircle
 10
14289.23711827729
 20
-1982.482763415372
 30
0.0
 40
99.000429050302
100
AcDbArc
 50
296.4874239002004
 51
359.8514824312289
  0
ARC
  5
3D3
330
25
100
AcDbEntity
  8
1
  6
Continuous
 62
     0
100
AcDbCircle
 10
13929.23754702505
 20
-1256.879683368076
 30
0.0
 40
908.999999999998
100
AcDbArc
 50
290.948935124583
 51
296.398629211983
  0
ARC
  5
3D2
330
25
100
AcDbEntity
  8
1
  6
Continuous
 62
     0
100
AcDbCircle
 10
13929.23754702505
 20
-1356.879683368072
 30
0.0
 40
908.999999999995
100
AcDbArc
 50
63.60137078801703
 51
116.398629211983
  0
ARC
  5
3D1
330
25
100
AcDbEntity
  8
1
  6
Continuous
 62
     0
100
AcDbCircle
 10
14289.23711827729
 20
-631.276603320777
 30
0.0
 40
99.000429050305
100
AcDbArc
 50
0.1485175687719821
 51
63.51257609979923
  0
ARC
  5
3D0
330
25
100
AcDbEntity
  8
1
  6
Continuous
 62
     0
100
AcDbCircle
 10
13569.2379757728
 20
-631.276603320777
 30
0.0
 40
99.000429050301
100
AcDbArc
 50
116.4874239001995
 51
179.851482431228
  0
ARC
  5
3CF
330
25
100
AcDbEntity
  8
1
  6
Continuous
 62
     0
100
AcDbCircle
 10
13929.23754702505
 20
-2265.879683368074
 30
0.0
 40
100.0
100
AcDbArc
 50
0.0
 51
180.0
  0
ARC
  5
3CE
330
25
100
AcDbEntity
  8
1
  6
Continuous
 62
     0
100
AcDbCircle
 10
13929.23754702505
 20
-1256.879683368076
 30
0.0
 40
909.0
100
AcDbArc
 50
243.601370788017
 51
249.051064875418
  0
ARC
  5
3CC
330
25
100
AcDbEntity
  8
1
  6
Continuous
 62
     0
100
AcDbCircle
 10
13467.78303826421
 20
-2233.414445157779
 30
0.0
 40
152.252346488166
100
AcDbArc
 50
358.8482621745441
 51
26.33196315303134
  0
ARC
  5
3CB
330
25
100
AcDbEntity
  8
1
  6
Continuous
 62
     0
100
AcDbCircle
 10
14390.69205578589
 20
-2233.414445157779
 30
0.0
 40
152.252346488172
100
AcDbArc
 50
153.6680368469681
 51
181.151737825457
  0
ARC
  5
3CA
330
25
100
AcDbEntity
  8
1
  6
Continuous
 62
     0
100
AcDbCircle
 10
11731.75109927067
 20
-412.879683368075
 30
0.0
 40
29.999999999998
100
AcDbArc
 50
302.5744390991659
 51
237.4255609008175
  0
ARC
  5
3C9
330
25
100
AcDbEntity
  8
1
  6
Continuous
 62
     0
100
AcDbCircle
 10
12647.91627729719
 20
-1165.879683368074
 30
0.0
 40
459.000000000022
100
AcDbArc
 50
174.875245897026
 51
185.124754102974
  0
ARC
  5
3C8
330
25
100
AcDbEntity
  8
1
  6
Continuous
 62
     0
100
AcDbCircle
 10
12193.2056080315
 20
-2233.414445157779
 30
0.0
 40
152.252346488162
100
AcDbArc
 50
153.6680368469664
 51
181.151737825457
  0
ARC
  5
3C7
330
25
100
AcDbEntity
  8
1
  6
Continuous
 62
     0
100
AcDbCircle
 10
11270.29659050982
 20
-2233.414445157779
 30
0.0
 40
152.252346488176
100
AcDbArc
 50
358.8482621745439
 51
26.33196315302997
  0
ARC
  5
3C6
330
25
100
AcDbEntity
  8
1
  6
Continuous
 62
     0
100
AcDbCircle
 10
10815.58592124413
 20
-1765.879683368074
 30
0.0
 40
459.000000000042
100
AcDbArc
 50
354.875245897027
 51
5.124754102972993
  0
ARC
  5
3C4
330
25
100
AcDbEntity
  8
1
  6
Continuous
 62
     0
100
AcDbCircle
 10
11731.75109927067
 20
-1256.879683368076
 30
0.0
 40
909.0
100
AcDbArc
 50
243.601370788017
 51
249.051064875418
  0
ARC
  5
3C3
330
25
100
AcDbEntity
  8
1
  6
Continuous
 62
     0
100
AcDbCircle
 10
11731.75109927067
 20
-2265.879683368074
 30
0.0
 40
99.999999999989
100
AcDbArc
 50
0.0
 51
180.0
  0
ARC
  5
3C2
330
25
100
AcDbEntity
  8
1
  6
Continuous
 62
     0
100
AcDbCircle
 10
11371.75152801842
 20
-631.276603320777
 30
0.0
 40
99.000429050301
100
AcDbArc
 50
116.4874239001995
 51
179.851482431228
  0
ARC
  5
3C1
330
25
100
AcDbEntity
  8
1
  6
Continuous
 62
     0
100
AcDbCircle
 10
12091.7506705229
 20
-631.276603320777
 30
0.0
 40
99.000429050303
100
AcDbArc
 50
0.1485175687719848
 51
63.51257609979629
  0
ARC
  5
3C0
330
25
100
AcDbEntity
  8
1
  6
Continuous
 62
     0
100
AcDbCircle
 10
11731.75109927067
 20
-1356.879683368072
 30
0.0
 40
908.999999999994
100
AcDbArc
 50
63.60137078801699
 51
116.398629211983
  0
ARC
  5
3BF
330
25
100
AcDbEntity
  8
1
  6
Continuous
 62
     0
100
AcDbCircle
 10
11731.75109927067
 20
-1256.879683368076
 30
0.0
 40
908.999999999998
100
AcDbArc
 50
290.948935124583
 51
296.398629211983
  0
ARC
  5
3BE
330
25
100
AcDbEntity
  8
1
  6
Continuous
 62
     0
100
AcDbCircle
 10
12091.7506705229
 20
-1982.482763415372
 30
0.0
 40
99.000429050305
100
AcDbArc
 50
296.4874239002042
 51
359.8514824312289
  0
ARC
  5
3BD
330
25
100
AcDbEntity
  8
1
  6
Continuous
 62
     0
100
AcDbCircle
 10
11371.75152801842
 20
-1982.482763415372
 30
0.0
 40
99.000429050303
100
AcDbArc
 50
180.148517568771
 51
243.512576099801
  0
ARC
  5
3BC
330
25
100
AcDbEntity
  8
1
  6
Continuous
 62
     0
100
AcDbCircle
 10
14414.04920186416
 20
-1714.546339742785
 30
0.0
 40
6.188368025609
100
AcDbArc
 50
335.9793229189686
 51
34.22849580305566
  0
ARC
  5
3BB
330
25
100
AcDbEntity
  8
1
  6
Continuous
 62
     0
100
AcDbCircle
 10
14414.04920186416
 20
-1693.728085429453
 30
0.0
 40
6.188368025611
100
AcDbArc
 50
325.7715041969452
 51
24.02067708103218
  0
ARC
  5
3BA
330
25
100
AcDbEntity
  8
1
  6
Continuous
 62
     0
100
AcDbCircle
 10
14397.30934379477
 20
-1704.137212586119
 30
0.0
 40
22.928203230275
100
AcDbArc
 50
342.4120462260054
 51
17.58795377399472
  0
ARC
  5
3B9
330
25
100
AcDbEntity
  8
1
  6
Continuous
 62
     0
100
AcDbCircle
 10
14397.30934379477
 20
-1737.961968845256
 30
0.0
 40
22.928203230275
100
AcDbArc
 50
342.4120462260054
 51
17.5879537739931
  0
ARC
  5
3B8
330
25
100
AcDbEntity
  8
1
  6
Continuous
 62
     0
100
AcDbCircle
 10
14414.04920186416
 20
-1727.552841688591
 30
0.0
 40
6.188368025611
100
AcDbArc
 50
325.7715041969452
 51
24.02067708103218
  0
ARC
  5
3B7
330
25
100
AcDbEntity
  8
1
  6
Continuous
 62
     0
100
AcDbCircle
 10
14414.04920186416
 20
-1748.371096001922
 30
0.0
 40
6.188368025609
100
AcDbArc
 50
335.9793229189686
 51
34.22849580305566
  0
ARC
  5
3B6
330
25
100
AcDbEntity
  8
1
  6
Continuous
 62
     0
100
AcDbCircle
 10
14414.04920186416
 20
-1775.388270734227
 30
0.0
 40
6.188368025611
100
AcDbArc
 50
325.7715041969452
 51
24.02067708103218
  0
ARC
  5
3B5
330
25
100
AcDbEntity
  8
1
  6
Continuous
 62
     0
100
AcDbCircle
 10
14414.04920186416
 20
-1796.206525047558
 30
0.0
 40
6.188368025609
100
AcDbArc
 50
335.9793229189686
 51
34.22849580305566
  0
ARC
  5
3B4
330
25
100
AcDbEntity
  8
1
  6
Continuous
 62
     0
100
AcDbCircle
 10
14397.30934379477
 20
-1785.797397890892
 30
0.0
 40
22.928203230275
100
AcDbArc
 50
342.4120462260054
 51
17.5879537739931
  0
ARC
  5
3B3
330
25
100
AcDbEntity
  8
1
  6
Continuous
 62
     0
100
AcDbCircle
 10
14397.30934379477
 20
-1819.62215415003
 30
0.0
 40
22.928203230275
100
AcDbArc
 50
342.4120462260054
 51
17.58795377399472
  0
ARC
  5
3B2
330
25
100
AcDbEntity
  8
1
  6
Continuous
 62
     0
100
AcDbCircle
 10
14414.04920186416
 20
-1830.031281306696
 30
0.0
 40
6.188368025609
100
AcDbArc
 50
335.9793229189686
 51
34.22849580305566
  0
ARC
  5
3B1
330
25
100
AcDbEntity
  8
1
  6
Continuous
 62
     0
100
AcDbCircle
 10
14414.04920186416
 20
-1809.213026993364
 30
0.0
 40
6.188368025611
100
AcDbArc
 50
325.7715041969469
 51
24.02067708103218
  0
ARC
  5
3B0
330
25
100
AcDbEntity
  8
1
  6
Continuous
 62
     0
100
AcDbCircle
 10
11755.90109927066
 20
-2220.809683368074
 30
0.0
 40
14.252192813739
100
AcDbArc
 50
158.3852210572138
 51
201.6147789427863
  0
ARC
  5
3AF
330
25
100
AcDbEntity
  8
1
  6
Continuous
 62
     0
100
AcDbCircle
 10
11774.53234927066
 20
-2221.059683368075
 30
0.0
 40
15.781249999997
100
AcDbArc
 50
141.9080428947548
 51
218.0919571052439
  0
ARC
  5
3AE
330
25
100
AcDbEntity
  8
1
  6
Continuous
 62
     0
100
AcDbCircle
 10
11725.50109927067
 20
-2232.007467723368
 30
0.0
 40
18.052215644707
100
AcDbArc
 50
249.7438419995794
 51
290.2561580004206
  0
ARC
  5
3AD
330
25
100
AcDbEntity
  8
1
  6
Continuous
 62
     0
100
AcDbCircle
 10
11738.00109927067
 20
-2232.007467723368
 30
0.0
 40
18.052215644708
100
AcDbArc
 50
249.7438419995804
 51
290.2561580004195
  0
ARC
  5
3AC
330
25
100
AcDbEntity
  8
1
  6
Continuous
 62
     0
100
AcDbCircle
 10
11725.50109927067
 20
-2211.611899012781
 30
0.0
 40
18.052215644708
100
AcDbArc
 50
69.74384199958037
 51
110.2561580004196
  0
ARC
  5
3AB
330
25
100
AcDbEntity
  8
1
  6
Continuous
 62
     0
100
AcDbCircle
 10
11738.00109927067
 20
-2211.611899012781
 30
0.0
 40
18.052215644707
100
AcDbArc
 50
69.74384199957936
 51
110.2561580004206
  0
ARC
  5
3AA
330
25
100
AcDbEntity
  8
1
  6
Continuous
 62
     0
100
AcDbCircle
 10
11738.00109927067
 20
-2185.924134390039
 30
0.0
 40
18.052215644708
100
AcDbArc
 50
249.7438419995804
 51
261.2376819319969
  0
ARC
  5
3A9
330
25
100
AcDbEntity
  8
1
  6
Continuous
 62
     0
100
AcDbCircle
 10
11725.50109927067
 20
-2185.924134390039
 30
0.0
 40
18.052215644707
100
AcDbArc
 50
249.7438419995794
 51
261.2376819319964
  0
ARC
  5
3A8
330
25
100
AcDbEntity
  8
1
  6
Continuous
 62
     0
100
AcDbCircle
 10
11738.00109927067
 20
-2257.695232346112
 30
0.0
 40
18.052215644708
100
AcDbArc
 50
69.74384199958037
 51
81.23768193199686
  0
ARC
  5
3A7
330
25
100
AcDbEntity
  8
1
  6
Continuous
 62
     0
100
AcDbCircle
 10
11725.50109927067
 20
-2257.695232346112
 30
0.0
 40
18.052215644709
100
AcDbArc
 50
69.74384199958187
 51
81.23768193199732
  0
ARC
  5
3A6
330
25
100
AcDbEntity
  8
1
  6
Continuous
 62
     0
100
AcDbCircle
 10
11725.50109927067
 20
-2185.924134390039
 30
0.0
 40
18.052215644708
100
AcDbArc
 50
278.7623180680031
 51
290.2561580004195
  0
ARC
  5
3A5
330
25
100
AcDbEntity
  8
1
  6
Continuous
 62
     0
100
AcDbCircle
 10
11738.00109927067
 20
-2257.695232346112
 30
0.0
 40
18.052215644708
100
AcDbArc
 50
98.76231806800313
 51
110.2561580004196
  0
ARC
  5
3A4
330
25
100
AcDbEntity
  8
1
  6
Continuous
 62
     0
100
AcDbCircle
 10
11738.00109927067
 20
-2185.924134390039
 30
0.0
 40
18.052215644708
100
AcDbArc
 50
278.7623180680031
 51
290.2561580004195
  0
ARC
  5
3A3
330
25
100
AcDbEntity
  8
1
  6
Continuous
 62
     0
100
AcDbCircle
 10
11725.50109927067
 20
-2257.695232346112
 30
0.0
 40
18.052215644708
100
AcDbArc
 50
98.76231806800313
 51
110.2561580004196
  0
ARC
  5
3A2
330
25
100
AcDbEntity
  8
1
  6
Continuous
 62
     0
100
AcDbCircle
 10
13929.23754702505
 20
-2265.90479008236
 30
0.0
 40
25.760231957409
100
AcDbArc
 50
73.7304965073435
 51
106.2695034926354
  0
ARC
  5
3A1
330
25
100
AcDbEntity
  8
1
  6
Continuous
 62
     0
100
AcDbCircle
 10
13929.23754702505
 20
-2226.176138336518
 30
0.0
 40
23.883545031555
100
AcDbArc
 50
252.4120462260198
 51
287.5879537740029
  0
ARC
  5
3A0
330
25
100
AcDbEntity
  8
1
  6
Continuous
 62
     0
100
AcDbCircle
 10
13929.23754702505
 20
-2182.067748908286
 30
0.0
 40
21.615815918786
100
AcDbArc
 50
250.4961455205435
 51
289.5038544794772
  0
ARC
  5
39F
330
25
100
AcDbEntity
  8
1
  6
Continuous
 62
     0
100
AcDbCircle
 10
13929.23754702505
 20
-2217.443228399653
 30
0.0
 40
23.88354503158
100
AcDbArc
 50
72.41204622601585
 51
107.5879537739611
  0
ARC
  5
39E
330
25
100
AcDbEntity
  8
1
  6
Continuous
 62
     0
100
AcDbCircle
 10
13940.08038781325
 20
-2246.505876243997
 30
0.0
 40
6.446216693345
100
AcDbArc
 50
65.97932291895343
 51
79.65879036155869
  0
ARC
  5
39D
330
25
100
AcDbEntity
  8
1
  6
Continuous
 62
     0
100
AcDbCircle
 10
13918.39470623686
 20
-2246.505876243998
 30
0.0
 40
6.446216693342
100
AcDbArc
 50
55.77150419696996
 51
82.4870842443641
  0
ARC
  5
39C
330
25
100
AcDbEntity
  8
1
  6
Continuous
 62
     0
100
AcDbCircle
 10
13940.08038781325
 20
-2197.113490492155
 30
0.0
 40
6.446216693343
100
AcDbArc
 50
235.7715041969566
 51
262.4870842442675
  0
ARC
  5
39B
330
25
100
AcDbEntity
  8
1
  6
Continuous
 62
     0
100
AcDbCircle
 10
13918.39470623686
 20
-2197.113490492154
 30
0.0
 40
6.446216693347
100
AcDbArc
 50
245.9793229189436
 51
259.6587903614633
  0
ARC
  5
39A
330
25
100
AcDbEntity
  8
1
  6
Continuous
 62
     0
100
AcDbCircle
 10
13940.08038781325
 20
-2243.613490492153
 30
0.0
 40
6.446216693343
100
AcDbArc
 50
235.7715041969566
 51
294.0206770810368
  0
ARC
  5
399
330
25
100
AcDbEntity
  8
1
  6
Continuous
 62
     0
100
AcDbCircle
 10
13929.23754702505
 20
-2226.176138336535
 30
0.0
 40
23.88354503154
100
AcDbArc
 50
283.9309004841509
 51
287.5879537740146
  0
ARC
  5
398
330
25
100
AcDbEntity
  8
1
  6
Continuous
 62
     0
100
AcDbCircle
 10
13918.39470623686
 20
-2243.613490492152
 30
0.0
 40
6.446216693347
100
AcDbArc
 50
245.9793229189436
 51
304.2284958030183
  0
ARC
  5
397
330
25
100
AcDbEntity
  8
1
  6
Continuous
 62
     0
100
AcDbCircle
 10
13940.08038781325
 20
-2200.005876243995
 30
0.0
 40
6.446216693345
100
AcDbArc
 50
65.97932291895343
 51
124.22849580305
  0
ARC
  5
396
330
25
100
AcDbEntity
  8
1
  6
Continuous
 62
     0
100
AcDbCircle
 10
13929.23754702505
 20
-2217.443228399614
 30
0.0
 40
23.88354503154
100
AcDbArc
 50
103.9309004841509
 51
107.5879537739917
  0
ARC
  5
395
330
25
100
AcDbEntity
  8
1
  6
Continuous
 62
     0
100
AcDbCircle
 10
13918.39470623686
 20
-2200.005876243996
 30
0.0
 40
6.446216693343
100
AcDbArc
 50
55.77150419697678
 51
114.0206770810548
  0
ARC
  5
394
330
25
100
AcDbEntity
  8
1
  6
Continuous
 62
     0
100
AcDbCircle
 10
13929.23754702505
 20
-2179.676138336537
 30
0.0
 40
23.883545031539
100
AcDbArc
 50
283.9309004841517
 51
287.5879537740151
  0
ARC
  5
393
330
25
100
AcDbEntity
  8
1
  6
Continuous
 62
     0
100
AcDbCircle
 10
13918.39470623686
 20
-2197.113490492154
 30
0.0
 40
6.446216693346
100
AcDbArc
 50
277.5129157556311
 51
304.2284958030252
  0
ARC
  5
392
330
25
100
AcDbEntity
  8
1
  6
Continuous
 62
     0
100
AcDbCircle
 10
13940.08038781325
 20
-2197.113490492155
 30
0.0
 40
6.446216693345
100
AcDbArc
 50
280.3412096384413
 51
294.0206770810466
  0
ARC
  5
391
330
25
100
AcDbEntity
  8
1
  6
Continuous
 62
     0
100
AcDbCircle
 10
13929.23754702505
 20
-2263.943228399615
 30
0.0
 40
23.883545031539
100
AcDbArc
 50
103.9309004841516
 51
107.5879537739924
  0
ARC
  5
390
330
25
100
AcDbEntity
  8
1
  6
Continuous
 62
     0
100
AcDbCircle
 10
13918.39470623686
 20
-2246.505876243998
 30
0.0
 40
6.446216693348
100
AcDbArc
 50
100.3412096385353
 51
114.0206770810531
  0
ARC
  5
38F
330
25
100
AcDbEntity
  8
1
  6
Continuous
 62
     0
100
AcDbCircle
 10
13940.08038781325
 20
-2246.505876243997
 30
0.0
 40
6.446216693343
100
AcDbArc
 50
97.51291575573262
 51
124.2284958030434
  0
ARC
  5
38E
330
25
100
AcDbEntity
  8
1
  6
Continuous
 62
     0
100
AcDbCircle
 10
13929.23754702505
 20
-2179.676138336537
 30
0.0
 40
23.88354503154
100
AcDbArc
 50
252.4120462260083
 51
256.0690995158491
  0
ARC
  5
38D
330
25
100
AcDbEntity
  8
1
  6
Continuous
 62
     0
100
AcDbCircle
 10
13929.23754702505
 20
-2263.943228399615
 30
0.0
 40
23.88354503154
100
AcDbArc
 50
72.41204622598552
 51
76.06909951584912
  0
ARC
  5
38C
330
25
100
AcDbEntity
  8
1
  6
Continuous
 62
     0
100
AcDbCircle
 10
13929.23754702505
 20
-2217.443228399614
 30
0.0
 40
23.883545031543
100
AcDbArc
 50
72.41204622598782
 51
76.0690995158507
  0
ARC
  5
38B
330
25
100
AcDbEntity
  8
1
  6
Continuous
 62
     0
100
AcDbCircle
 10
13929.23754702505
 20
-2226.176138336535
 30
0.0
 40
23.883545031539
100
AcDbArc
 50
252.4120462260076
 51
256.0690995158483
  0
ARC
  5
38A
330
25
100
AcDbEntity
  8
1
  6
Continuous
 62
     0
100
AcDbCircle
 10
13929.23754702505
 20
-2221.059683368075
 30
0.0
 40
12.999999999997
100
AcDbArc
 50
31.1089225105044
 51
148.8910774894956
  0
ARC
  5
389
330
25
100
AcDbEntity
  8
1
  6
Continuous
 62
     0
100
AcDbCircle
 10
13929.23754702505
 20
-2221.059683368075
 30
0.0
 40
13.000000000002
100
AcDbArc
 50
211.1089225105438
 51
328.8910774894561
  0
ARC
  5
388
330
25
100
AcDbEntity
  8
1
  6
Continuous
 62
     0
100
AcDbCircle
 10
11160.16839870415
 20
-1079.196869176819
 30
0.0
 40
39.044459324231
100
AcDbArc
 50
93.89990484408888
 51
206.110829794618
  0
ARC
  5
387
330
25
100
AcDbEntity
  8
1
  6
Continuous
 62
     0
100
AcDbCircle
 10
11160.16839870415
 20
-1079.196869176819
 30
0.0
 40
39.044459324229
100
AcDbArc
 50
206.1108297946179
 51
214.041394325594
  0
ARC
  5
386
330
25
100
AcDbEntity
  8
1
  6
Continuous
 62
     0
100
AcDbCircle
 10
11160.25728759304
 20
-1079.288904975481
 30
0.0
 40
38.95559865625
100
AcDbArc
 50
326.0668870753425
 51
334.0155658970767
  0
ARC
  5
385
330
25
100
AcDbEntity
  8
1
  6
Continuous
 62
     0
100
AcDbCircle
 10
11160.25728759304
 20
-1079.288904975481
 30
0.0
 40
38.955598656249
100
AcDbArc
 50
285.1113442230395
 51
326.0668870753436
  0
ARC
  5
384
330
25
100
AcDbEntity
  8
1
  6
Continuous
 62
     0
100
AcDbCircle
 10
11192.94027926828
 20
-1098.126150563242
 30
0.0
 40
3.637499999999
100
AcDbArc
 50
282.0750220507852
 51
17.92497794917882
  0
ARC
  5
383
330
25
100
AcDbEntity
  8
1
  6
Continuous
 62
     0
100
AcDbCircle
 10
11127.44153543778
 20
-1098.151479838192
 30
0.0
 40
3.637499999995
100
AcDbArc
 50
162.0750220508342
 51
257.9249779492309
  0
ARC
  5
382
330
25
100
AcDbEntity
  8
1
  6
Continuous
 62
     0
100
AcDbCircle
 10
11160.2128431486
 20
-1041.389909852588
 30
0.0
 40
3.637499999992
100
AcDbArc
 50
42.07502205094583
 51
137.9249779491782
  0
ARC
  5
381
330
25
100
AcDbEntity
  8
1
  6
Continuous
 62
     0
100
AcDbCircle
 10
11160.16839870415
 20
-1079.196869176819
 30
0.0
 40
39.04445932423
100
AcDbArc
 50
85.96934215079975
 51
93.89990484408894
  0
ARC
  5
380
330
25
100
AcDbEntity
  8
1
  6
Continuous
 62
     0
100
AcDbCircle
 10
11160.16839870415
 20
-1079.196869176819
 30
0.0
 40
39.044459324236
100
AcDbArc
 50
359.9499785478301
 51
85.96934215080036
  0
ARC
  5
37F
330
25
100
AcDbEntity
  8
1
  6
Continuous
 62
     0
100
AcDbCircle
 10
11160.21553343712
 20
-1079.234464216743
 30
0.0
 40
28.591593842009
100
AcDbArc
 50
180.0
 51
224.4894078670362
  0
ARC
  5
37E
330
25
100
AcDbEntity
  8
1
  6
Continuous
 62
     0
100
AcDbCircle
 10
11160.21553343712
 20
-1079.234464216743
 30
0.0
 40
28.591593842013
100
AcDbArc
 50
315.0000000000041
 51
180.0
  0
ARC
  5
37D
330
25
100
AcDbEntity
  8
1
  6
Continuous
 62
     0
100
AcDbCircle
 10
11160.21171451595
 20
-1079.229972729644
 30
0.0
 40
32.087775151122
100
AcDbArc
 50
314.9991688162538
 51
179.9269078913232
  0
ARC
  5
37C
330
25
100
AcDbEntity
  8
1
  6
Continuous
 62
     0
100
AcDbCircle
 10
11160.2128431486
 20
-1079.230956509657
 30
0.0
 40
3.611111111112
100
AcDbArc
 50
74.69796828557985
 51
201.4218215217996
  0
ARC
  5
37B
330
25
100
AcDbEntity
  8
1
  6
Continuous
 62
     0
100
AcDbCircle
 10
11160.2128431486
 20
-1079.230956509657
 30
0.0
 40
3.611111111114
100
AcDbArc
 50
248.5781784780835
 51
0.0
  0
ARC
  5
37A
330
25
100
AcDbEntity
  8
1
  6
Continuous
 62
     0
100
AcDbCircle
 10
11160.2128431486
 20
-1079.230956509657
 30
0.0
 40
3.611111111109
100
AcDbArc
 50
0.0
 51
15.30203171437146
  0
ARC
  5
379
330
25
100
AcDbEntity
  8
1
  6
Continuous
 62
     0
100
AcDbCircle
 10
11160.25728759304
 20
-1079.288904975481
 30
0.0
 40
38.955598656251
100
AcDbArc
 50
334.0155658970755
 51
0.0852304639130497
  0
ARC
  5
378
330
25
100
AcDbEntity
  8
1
  6
Continuous
 62
     0
100
AcDbCircle
 10
11160.16839870415
 20
-1079.196869176819
 30
0.0
 40
39.044459324232
100
AcDbArc
 50
214.0413943255924
 51
254.9238647887177
  0
ARC
  5
377
330
25
100
AcDbEntity
  8
1
  6
Continuous
 62
     0
100
AcDbCircle
 10
11160.2128431486
 20
-1078.899822419235
 30
0.0
 40
39.342857142856
100
AcDbArc
 50
254.973886240879
 51
285.026113759121
  0
ARC
  5
376
330
25
100
AcDbEntity
  8
1
  6
Continuous
 62
     0
100
AcDbCircle
 10
11160.21171451595
 20
-1079.229972729644
 30
0.0
 40
32.087775151113
100
AcDbArc
 50
179.9269078913232
 51
224.555534691801
  0
ARC
  5
375
330
25
100
AcDbEntity
  8
1
  6
Continuous
 62
     0
100
AcDbCircle
 10
11193.0977859225
 20
-1109.514568446323
 30
0.0
 40
42.897491299712
100
AcDbArc
 50
116.5823044191848
 51
133.266911622695
  0
ARC
  5
374
330
25
100
AcDbEntity
  8
1
  6
Continuous
 62
     0
100
AcDbCircle
 10
11173.61094754596
 20
-1070.570213991625
 30
0.0
 40
0.650179290189
100
AcDbArc
 50
296.5823044189151
 51
30.13902348547525
  0
ARC
  5
373
330
25
100
AcDbEntity
  8
1
  6
Continuous
 62
     0
100
AcDbCircle
 10
11129.92923121193
 20
-1046.346013735751
 30
0.0
 40
42.897491299717
100
AcDbArc
 50
316.733088377308
 51
333.4176955808189
  0
ARC
  5
372
330
25
100
AcDbEntity
  8
1
  6
Continuous
 62
     0
100
AcDbCircle
 10
11168.87358566663
 20
-1065.832852112294
 30
0.0
 40
0.650179290188
100
AcDbArc
 50
59.86097651466059
 51
153.4176955807713
  0
ARC
  5
371
330
25
100
AcDbEntity
  8
1
  6
Continuous
 62
     0
100
AcDbCircle
 10
11162.31564628168
 20
-1077.128153376571
 30
0.0
 40
13.711205269322
100
AcDbArc
 50
30.13902348557433
 51
59.86097651441506
  0
ARC
  5
370
330
25
100
AcDbEntity
  8
1
  6
Continuous
 62
     0
100
AcDbCircle
 10
11731.75109927067
 20
-962.725474975627
 30
0.0
 40
25.565791607552
100
AcDbArc
 50
68.78850558533622
 51
111.2114944146638
  0
ARC
  5
36F
330
25
100
AcDbEntity
  8
1
  6
Continuous
 62
     0
100
AcDbCircle
 10
11747.25109927067
 20
-949.302081216968
 30
0.0
 40
12.142397848894
100
AcDbArc
 50
90.0
 51
120.979098861628
  0
ARC
  5
36E
330
25
100
AcDbEntity
  8
1
  6
Continuous
 62
     0
100
AcDbCircle
 10
11716.25109927067
 20
-949.302081216968
 30
0.0
 40
12.142397848894
100
AcDbArc
 50
59.02090113837195
 51
90.0
  0
ARC
  5
36D
330
25
100
AcDbEntity
  8
1
  6
Continuous
 62
     0
100
AcDbCircle
 10
11731.75109927067
 20
-928.659683368074
 30
0.0
 40
15.0
100
AcDbArc
 50
0.0
 51
180.0
  0
ARC
  5
36C
330
25
100
AcDbEntity
  8
1
  6
Continuous
 62
     0
100
AcDbCircle
 10
11731.75109927067
 20
-1029.245740351951
 30
0.0
 40
35.086056983877
100
AcDbArc
 50
67.8122458687588
 51
112.1877541312412
  0
ARC
  5
36B
330
25
100
AcDbEntity
  8
1
  6
Continuous
 62
     0
100
AcDbCircle
 10
11709.75109927067
 20
-1010.193181468693
 30
0.0
 40
16.033498100619
100
AcDbArc
 50
56.92526993279299
 51
90.0
  0
ARC
  5
36A
330
25
100
AcDbEntity
  8
1
  6
Continuous
 62
     0
100
AcDbCircle
 10
11753.75109927067
 20
-951.159683368074
 30
0.0
 40
1.0
100
AcDbArc
 50
0.0
 51
180.0
  0
ARC
  5
369
330
25
100
AcDbEntity
  8
1
  6
Continuous
 62
     0
100
AcDbCircle
 10
11739.084432604
 20
-951.159683368074
 30
0.0
 40
1.0
100
AcDbArc
 50
0.0
 51
180.0
  0
ARC
  5
368
330
25
100
AcDbEntity
  8
1
  6
Continuous
 62
     0
100
AcDbCircle
 10
11724.41776593733
 20
-951.159683368074
 30
0.0
 40
1.0
100
AcDbArc
 50
0.0
 51
180.0
  0
ARC
  5
367
330
25
100
AcDbEntity
  8
1
  6
Continuous
 62
     0
100
AcDbCircle
 10
11709.75109927067
 20
-951.159683368074
 30
0.0
 40
1.0
100
AcDbArc
 50
0.0
 51
180.0
  0
ARC
  5
366
330
25
100
AcDbEntity
  8
1
  6
Continuous
 62
     0
100
AcDbCircle
 10
11753.75109927067
 20
-1010.193181468693
 30
0.0
 40
16.033498100619
100
AcDbArc
 50
90.0
 51
123.074730067207
  0
ARC
  5
365
330
25
100
AcDbEntity
  8
1
  6
Continuous
 62
     0
100
AcDbCircle
 10
11731.75109927067
 20
-1042.15372458779
 30
0.0
 40
51.505958780283
100
AcDbArc
 50
252.7775550278668
 51
287.2224449721332
  0
ARC
  5
364
330
25
100
AcDbEntity
  8
1
  6
Continuous
 62
     0
100
AcDbCircle
 10
11705.25109927067
 20
-1065.103397788077
 30
0.0
 40
28.556285579997
100
AcDbArc
 50
270.0
 51
293.2010528959333
  0
ARC
  5
363
330
25
100
AcDbEntity
  8
1
  6
Continuous
 62
     0
100
AcDbCircle
 10
11758.25109927067
 20
-1065.103397788077
 30
0.0
 40
28.556285579996
100
AcDbArc
 50
246.7989471040657
 51
270.0
  0
ARC
  5
362
330
25
100
AcDbEntity
  8
1
  6
Continuous
 62
     0
100
AcDbCircle
 10
13406.64414396485
 20
-1065.103397788077
 30
0.0
 40
28.556285579996
100
AcDbArc
 50
246.7989471040657
 51
270.0
  0
ARC
  5
361
330
25
100
AcDbEntity
  8
1
  6
Continuous
 62
     0
100
AcDbCircle
 10
13353.64414396485
 20
-1065.103397788077
 30
0.0
 40
28.556285579997
100
AcDbArc
 50
270.0
 51
293.2010528959333
  0
ARC
  5
360
330
25
100
AcDbEntity
  8
1
  6
Continuous
 62
     0
100
AcDbCircle
 10
13380.14414396485
 20
-1042.15372458779
 30
0.0
 40
51.505958780283
100
AcDbArc
 50
252.7775550278668
 51
287.2224449721332
  0
ARC
  5
35F
330
25
100
AcDbEntity
  8
1
  6
Continuous
 62
     0
100
AcDbCircle
 10
13402.14414396485
 20
-1010.193181468693
 30
0.0
 40
16.033498100619
100
AcDbArc
 50
90.0
 51
123.074730067207
  0
ARC
  5
35E
330
25
100
AcDbEntity
  8
1
  6
Continuous
 62
     0
100
AcDbCircle
 10
13358.14414396485
 20
-951.159012029489
 30
0.0
 40
1.0
100
AcDbArc
 50
0.0
 51
180.0
  0
ARC
  5
35D
330
25
100
AcDbEntity
  8
1
  6
Continuous
 62
     0
100
AcDbCircle
 10
13372.81081063152
 20
-951.159012029489
 30
0.0
 40
1.0
100
AcDbArc
 50
0.0
 51
180.0
  0
ARC
  5
35C
330
25
100
AcDbEntity
  8
1
  6
Continuous
 62
     0
100
AcDbCircle
 10
13387.47747729819
 20
-951.159012029489
 30
0.0
 40
1.0
100
AcDbArc
 50
0.0
 51
180.0
  0
ARC
  5
35B
330
25
100
AcDbEntity
  8
1
  6
Continuous
 62
     0
100
AcDbCircle
 10
13402.14414396485
 20
-951.159012029489
 30
0.0
 40
1.0
100
AcDbArc
 50
0.0
 51
180.0
  0
ARC
  5
35A
330
25
100
AcDbEntity
  8
1
  6
Continuous
 62
     0
100
AcDbCircle
 10
13358.14414396485
 20
-1010.193181468693
 30
0.0
 40
16.033498100619
100
AcDbArc
 50
56.92526993279299
 51
90.0
  0
ARC
  5
359
330
25
100
AcDbEntity
  8
1
  6
Continuous
 62
     0
100
AcDbCircle
 10
13380.14414396485
 20
-1029.245740351951
 30
0.0
 40
35.086056983877
100
AcDbArc
 50
67.8122458687588
 51
112.1877541312412
  0
ARC
  5
358
330
25
100
AcDbEntity
  8
1
  6
Continuous
 62
     0
100
AcDbCircle
 10
13380.14414396485
 20
-928.659012029489
 30
0.0
 40
15.0
100
AcDbArc
 50
0.0
 51
180.0
  0
ARC
  5
357
330
25
100
AcDbEntity
  8
1
  6
Continuous
 62
     0
100
AcDbCircle
 10
13364.64414396485
 20
-949.301409878383
 30
0.0
 40
12.142397848894
100
AcDbArc
 50
59.02090113837195
 51
90.0
  0
ARC
  5
356
330
25
100
AcDbEntity
  8
1
  6
Continuous
 62
     0
100
AcDbCircle
 10
13395.64414396485
 20
-949.301409878383
 30
0.0
 40
12.142397848894
100
AcDbArc
 50
90.0
 51
120.979098861628
  0
ARC
  5
355
330
25
100
AcDbEntity
  8
1
  6
Continuous
 62
     0
100
AcDbCircle
 10
13380.14414396485
 20
-962.724803637041
 30
0.0
 40
25.565791607552
100
AcDbArc
 50
68.78850558533622
 51
111.2114944146638
  0
ARC
  5
354
330
25
100
AcDbEntity
  8
1
  6
Continuous
 62
     0
100
AcDbCircle
 10
13353.01251068986
 20
-1124.044764550338
 30
0.0
 40
6.489718839981
100
AcDbArc
 50
0.0
 51
39.925937785427
  0
ARC
  5
353
330
25
100
AcDbEntity
  8
1
  6
Continuous
 62
     0
100
AcDbCircle
 10
13406.99194836983
 20
-1124.044764550338
 30
0.0
 40
6.489718839987
100
AcDbArc
 50
140.0740622145793
 51
180.0
  0
ARC
  5
352
330
25
100
AcDbEntity
  8
1
  6
Continuous
 62
     0
100
AcDbCircle
 10
13413.61272349031
 20
-1210.796669400745
 30
0.0
 40
10.415441500098
100
AcDbArc
 50
58.86850943391497
 51
90.0
  0
ARC
  5
351
330
25
100
AcDbEntity
  8
1
  6
Continuous
 62
     0
100
AcDbCircle
 10
13413.61272349031
 20
-1120.962697335404
 30
0.0
 40
10.415441500099
100
AcDbArc
 50
270.0
 51
301.1314905660818
  0
ARC
  5
350
330
25
100
AcDbEntity
  8
1
  6
Continuous
 62
     0
100
AcDbCircle
 10
11731.89301370567
 20
-1042.15372458779
 30
0.0
 40
51.505958780283
100
AcDbArc
 50
252.7775550278668
 51
287.2224449721332
  0
ARC
  5
34F
330
25
100
AcDbEntity
  8
1
  6
Continuous
 62
     0
100
AcDbCircle
 10
11705.39301370567
 20
-1065.103397788077
 30
0.0
 40
28.556285579997
100
AcDbArc
 50
270.0
 51
293.2010528959333
  0
ARC
  5
34E
330
25
100
AcDbEntity
  8
1
  6
Continuous
 62
     0
100
AcDbCircle
 10
11758.39301370567
 20
-1065.103397788077
 30
0.0
 40
28.556285579996
100
AcDbArc
 50
246.7989471040657
 51
270.0
  0
ARC
  5
34D
330
25
100
AcDbEntity
  8
1
  6
Continuous
 62
     0
100
AcDbCircle
 10
11704.76138043068
 20
-1124.044764550338
 30
0.0
 40
6.48971883999
100
AcDbArc
 50
0.0
 51
39.92593778542733
  0
ARC
  5
34C
330
25
100
AcDbEntity
  8
1
  6
Continuous
 62
     0
100
AcDbCircle
 10
11758.74081811065
 20
-1124.044764550338
 30
0.0
 40
6.489718839986
100
AcDbArc
 50
140.0740622145675
 51
180.0
  0
ARC
  5
34B
330
25
100
AcDbEntity
  8
1
  6
Continuous
 62
     0
100
AcDbCircle
 10
11731.75109927067
 20
-1165.879683368074
 30
0.0
 40
36.001544532575
100
AcDbArc
 50
130.3739132422553
 51
270.0
  0
ARC
  5
34A
330
25
100
AcDbEntity
  8
1
  6
Continuous
 62
     0
100
AcDbCircle
 10
11731.75109927067
 20
-1165.879683368074
 30
0.0
 40
34.501544532574
100
AcDbArc
 50
141.5293544594033
 51
270.0
  0
ARC
  5
349
330
25
100
AcDbEntity
  8
1
  6
Continuous
 62
     0
100
AcDbCircle
 10
11731.75109927067
 20
-1165.879683368074
 30
0.0
 40
34.501544532572
100
AcDbArc
 50
270.0
 51
38.47064554060712
  0
ARC
  5
348
330
25
100
AcDbEntity
  8
1
  6
Continuous
 62
     0
100
AcDbCircle
 10
11731.75109927067
 20
-1165.879683368074
 30
0.0
 40
36.001544532572
100
AcDbArc
 50
270.0
 51
49.62608675775927
  0
LINE
  5
345
330
25
100
AcDbEntity
  8
1
  6
Continuous
 62
     0
100
AcDbLine
 10
11149.94067474916
 20
-3187.777004582082
 30
0.0
 11
11122.25237241225
 21
-3187.777004582082
 31
0.0
  0
LINE
  5
344
330
25
100
AcDbEntity
  8
1
  6
Continuous
 62
     0
100
AcDbLine
 10
11198.25237241225
 20
-3201.777004582082
 30
0.0
 11
11124.25237241225
 21
-3201.777004582082
 31
0.0
  0
LINE
  5
343
330
25
100
AcDbEntity
  8
1
  6
Continuous
 62
     0
100
AcDbLine
 10
11124.25237241225
 20
-3166.777004582082
 30
0.0
 11
11198.25237241225
 21
-3166.777004582082
 31
0.0
  0
LINE
  5
342
330
25
100
AcDbEntity
  8
1
  6
Continuous
 62
     0
100
AcDbLine
 10
11200.25237241225
 20
-3177.277004582082
 30
0.0
 11
11200.25237241225
 21
-3168.777004582082
 31
0.0
  0
LINE
  5
341
330
25
100
AcDbEntity
  8
1
  6
Continuous
 62
     0
100
AcDbLine
 10
11200.25237241225
 20
-3198.277004582082
 30
0.0
 11
11200.25237241225
 21
-3199.777004582082
 31
0.0
  0
LINE
  5
340
330
25
100
AcDbEntity
  8
1
  6
Continuous
 62
     0
100
AcDbLine
 10
11122.25237241225
 20
-3199.777004582082
 30
0.0
 11
11122.25237241225
 21
-3168.777004582082
 31
0.0
  0
LINE
  5
33D
330
25
100
AcDbEntity
  8
1
  6
Continuous
 62
     0
100
AcDbLine
 10
11155.25237241225
 20
-3181.777004582082
 30
0.0
 11
11167.25237241225
 21
-3193.777004582082
 31
0.0
  0
LINE
  5
33C
330
25
100
AcDbEntity
  8
1
  6
Continuous
 62
     0
100
AcDbLine
 10
11167.25237241225
 20
-3181.777004582082
 30
0.0
 11
11155.25237241225
 21
-3193.777004582082
 31
0.0
  0
LINE
  5
33B
330
25
100
AcDbEntity
  8
1
  6
Continuous
 62
     0
100
AcDbLine
 10
11155.25237241225
 20
-3181.777004582082
 30
0.0
 11
11167.25237241225
 21
-3181.777004582082
 31
0.0
  0
LINE
  5
33A
330
25
100
AcDbEntity
  8
1
  6
Continuous
 62
     0
100
AcDbLine
 10
11167.25237241225
 20
-3181.777004582082
 30
0.0
 11
11167.25237241225
 21
-3193.777004582082
 31
0.0
  0
LINE
  5
339
330
25
100
AcDbEntity
  8
1
  6
Continuous
 62
     0
100
AcDbLine
 10
11167.25237241225
 20
-3193.777004582082
 30
0.0
 11
11155.25237241225
 21
-3193.777004582082
 31
0.0
  0
LINE
  5
338
330
25
100
AcDbEntity
  8
1
  6
Continuous
 62
     0
100
AcDbLine
 10
11155.25237241225
 20
-3193.777004582082
 30
0.0
 11
11155.25237241225
 21
-3181.777004582082
 31
0.0
  0
LINE
  5
336
330
25
100
AcDbEntity
  8
1
  6
Continuous
 62
     0
100
AcDbLine
 10
11184.25109927066
 20
-3176.277004582082
 30
0.0
 11
11161.25237241225
 21
-3176.277004582082
 31
0.0
  0
LINE
  5
335
330
25
100
AcDbEntity
  8
1
  6
Continuous
 62
     0
100
AcDbLine
 10
11184.25109927066
 20
-3176.277004582082
 30
0.0
 11
11184.25109927066
 21
-3187.777004582082
 31
0.0
  0
LINE
  5
334
330
25
100
AcDbEntity
  8
1
  6
Continuous
 62
     0
100
AcDbLine
 10
11161.25237241225
 20
-3199.277004582082
 30
0.0
 11
11184.25109927066
 21
-3199.277004582082
 31
0.0
  0
LINE
  5
333
330
25
100
AcDbEntity
  8
1
  6
Continuous
 62
     0
100
AcDbLine
 10
11184.25109927066
 20
-3187.777004582082
 30
0.0
 11
11184.25109927066
 21
-3199.277004582082
 31
0.0
  0
LINE
  5
332
330
25
100
AcDbEntity
  8
1
  6
Continuous
 62
     0
100
AcDbLine
 10
11184.25109927066
 20
-3187.777004582082
 30
0.0
 11
11184.25109927066
 21
-3199.277004582082
 31
0.0
  0
LINE
  5
331
330
25
100
AcDbEntity
  8
1
  6
Continuous
 62
     0
100
AcDbLine
 10
11184.25109927066
 20
-3176.277004582082
 30
0.0
 11
11184.25109927066
 21
-3187.777004582082
 31
0.0
  0
LINE
  5
330
330
25
100
AcDbEntity
  8
1
  6
Continuous
 62
     0
100
AcDbLine
 10
11199.55109927066
 20
-3198.277004582082
 30
0.0
 11
11199.55109927066
 21
-3177.277004582082
 31
0.0
  0
LINE
  5
32F
330
25
100
AcDbEntity
  8
1
  6
Continuous
 62
     0
100
AcDbLine
 10
11190.65109927066
 20
-3179.127004582083
 30
0.0
 11
11190.65109927066
 21
-3196.427004582082
 31
0.0
  0
LINE
  5
32E
330
25
100
AcDbEntity
  8
1
  6
Continuous
 62
     0
100
AcDbLine
 10
11193.15109927066
 20
-3196.427004582082
 30
0.0
 11
11193.15109927066
 21
-3179.127004582083
 31
0.0
  0
LINE
  5
32D
330
25
100
AcDbEntity
  8
1
  6
Continuous
 62
     0
100
AcDbLine
 10
11193.15109927066
 20
-3179.127004582083
 30
0.0
 11
11190.65109927066
 21
-3179.127004582083
 31
0.0
  0
LINE
  5
32C
330
25
100
AcDbEntity
  8
1
  6
Continuous
 62
     0
100
AcDbLine
 10
11190.65109927066
 20
-3196.427004582082
 30
0.0
 11
11193.15109927066
 21
-3196.427004582082
 31
0.0
  0
LINE
  5
32B
330
25
100
AcDbEntity
  8
1
  6
Continuous
 62
     0
100
AcDbLine
 10
11199.55109927066
 20
-3196.108004582082
 30
0.0
 11
11193.15109927066
 21
-3196.427004582082
 31
0.0
  0
LINE
  5
32A
330
25
100
AcDbEntity
  8
1
  6
Continuous
 62
     0
100
AcDbLine
 10
11184.25109927066
 20
-3179.446004582082
 30
0.0
 11
11190.65109927066
 21
-3179.127004582083
 31
0.0
  0
LINE
  5
329
330
25
100
AcDbEntity
  8
1
  6
Continuous
 62
     0
100
AcDbLine
 10
11190.65109927066
 20
-3196.427004582082
 30
0.0
 11
11184.25109927066
 21
-3196.108004582082
 31
0.0
  0
LINE
  5
328
330
25
100
AcDbEntity
  8
1
  6
Continuous
 62
     0
100
AcDbLine
 10
11193.15109927066
 20
-3179.127004582083
 30
0.0
 11
11199.55109927066
 21
-3179.446004582082
 31
0.0
  0
LINE
  5
327
330
25
100
AcDbEntity
  8
1
  6
Continuous
 62
     0
100
AcDbLine
 10
11249.91109927067
 20
-3196.427004582082
 30
0.0
 11
11252.75109927067
 21
-3196.427004582082
 31
0.0
  0
LINE
  5
326
330
25
100
AcDbEntity
  8
1
  6
Continuous
 62
     0
100
AcDbLine
 10
11249.91109927067
 20
-3196.427004582082
 30
0.0
 11
11243.51109927066
 21
-3196.108004582082
 31
0.0
  0
LINE
  5
325
330
25
100
AcDbEntity
  8
1
  6
Continuous
 62
     0
100
AcDbLine
 10
11243.51109927066
 20
-3179.446004582082
 30
0.0
 11
11249.91109927067
 21
-3179.127004582083
 31
0.0
  0
LINE
  5
324
330
25
100
AcDbEntity
  8
1
  6
Continuous
 62
     0
100
AcDbLine
 10
11252.75109927067
 20
-3179.127004582083
 30
0.0
 11
11249.91109927067
 21
-3179.127004582083
 31
0.0
  0
LINE
  5
323
330
25
100
AcDbEntity
  8
1
  6
Continuous
 62
     0
100
AcDbLine
 10
11249.91109927067
 20
-3179.127004582083
 30
0.0
 11
11249.91109927067
 21
-3196.427004582082
 31
0.0
  0
LINE
  5
322
330
25
100
AcDbEntity
  8
1
  6
Continuous
 62
     0
100
AcDbLine
 10
11235.05895456966
 20
-3178.577004582081
 30
0.0
 11
11224.66109927066
 21
-3178.577004582081
 31
0.0
  0
LINE
  5
321
330
25
100
AcDbEntity
  8
1
  6
Continuous
 62
     0
100
AcDbLine
 10
11207.96324397168
 20
-3178.577004582081
 30
0.0
 11
11216.36109927067
 21
-3178.577004582081
 31
0.0
  0
LINE
  5
320
330
25
100
AcDbEntity
  8
1
  6
Continuous
 62
     0
100
AcDbLine
 10
11235.47327709716
 20
-3187.777004582082
 30
0.0
 11
11242.57327709716
 21
-3187.777004582082
 31
0.0
  0
LINE
  5
31F
330
25
100
AcDbEntity
  8
1
  6
Continuous
 62
     0
100
AcDbLine
 10
11200.44892144417
 20
-3187.777004582082
 30
0.0
 11
11207.54892144417
 21
-3187.777004582082
 31
0.0
  0
LINE
  5
31E
330
25
100
AcDbEntity
  8
1
  6
Continuous
 62
     0
100
AcDbLine
 10
11207.81109927066
 20
-3177.277004582082
 30
0.0
 11
11207.81109927066
 21
-3172.377004582081
 31
0.0
  0
LINE
  5
31D
330
25
100
AcDbEntity
  8
1
  6
Continuous
 62
     0
100
AcDbLine
 10
11207.81109927066
 20
-3172.377004582081
 30
0.0
 11
11208.51109927066
 21
-3172.377004582081
 31
0.0
  0
LINE
  5
31C
330
25
100
AcDbEntity
  8
1
  6
Continuous
 62
     0
100
AcDbLine
 10
11212.01109927066
 20
-3177.277004582082
 30
0.0
 11
11212.01109927066
 21
-3175.277004582082
 31
0.0
  0
LINE
  5
31B
330
25
100
AcDbEntity
  8
1
  6
Continuous
 62
     0
100
AcDbLine
 10
11208.51109927066
 20
-3175.277004582082
 30
0.0
 11
11210.51109927066
 21
-3175.277004582082
 31
0.0
  0
LINE
  5
31A
330
25
100
AcDbEntity
  8
1
  6
Continuous
 62
     0
100
AcDbLine
 10
11208.51109927066
 20
-3175.277004582082
 30
0.0
 11
11208.51109927066
 21
-3171.177004582083
 31
0.0
  0
LINE
  5
319
330
25
100
AcDbEntity
  8
1
  6
Continuous
 62
     0
100
AcDbLine
 10
11243.51109927066
 20
-3177.277004582082
 30
0.0
 11
11243.51109927066
 21
-3198.277004582082
 31
0.0
  0
LINE
  5
318
330
25
100
AcDbEntity
  8
1
  6
Continuous
 62
     0
100
AcDbLine
 10
11243.51109927066
 20
-3198.277004582082
 30
0.0
 11
11199.51109927066
 21
-3198.277004582082
 31
0.0
  0
LINE
  5
317
330
25
100
AcDbEntity
  8
1
  6
Continuous
 62
     0
100
AcDbLine
 10
11199.51109927066
 20
-3198.277004582082
 30
0.0
 11
11199.51109927066
 21
-3177.277004582082
 31
0.0
  0
LINE
  5
316
330
25
100
AcDbEntity
  8
1
  6
Continuous
 62
     0
100
AcDbLine
 10
11243.51109927066
 20
-3177.277004582082
 30
0.0
 11
11199.51109927066
 21
-3177.277004582082
 31
0.0
  0
LINE
  5
313
330
25
100
AcDbEntity
  8
1
  6
Continuous
 62
     0
100
AcDbLine
 10
11230.51109927066
 20
-3175.277004582082
 30
0.0
 11
11230.51109927066
 21
-3171.777004582082
 31
0.0
  0
LINE
  5
312
330
25
100
AcDbEntity
  8
1
  6
Continuous
 62
     0
100
AcDbLine
 10
11210.51109927066
 20
-3175.277004582082
 30
0.0
 11
11230.51109927066
 21
-3175.277004582082
 31
0.0
  0
LINE
  5
311
330
25
100
AcDbEntity
  8
1
  6
Continuous
 62
     0
100
AcDbLine
 10
11210.51109927066
 20
-3171.777004582082
 30
0.0
 11
11210.51109927066
 21
-3175.277004582082
 31
0.0
  0
LINE
  5
310
330
25
100
AcDbEntity
  8
1
  6
Continuous
 62
     0
100
AcDbLine
 10
11230.51109927066
 20
-3171.777004582082
 30
0.0
 11
11210.51109927066
 21
-3171.777004582082
 31
0.0
  0
LINE
  5
30F
330
25
100
AcDbEntity
  8
1
  6
Continuous
 62
     0
100
AcDbLine
 10
11240.51109927066
 20
-3168.777004582082
 30
0.0
 11
11230.51109927066
 21
-3171.777004582082
 31
0.0
  0
LINE
  5
30E
330
25
100
AcDbEntity
  8
1
  6
Continuous
 62
     0
100
AcDbLine
 10
11240.51109927066
 20
-3161.777004582082
 30
0.0
 11
11240.51109927066
 21
-3168.777004582082
 31
0.0
  0
LINE
  5
30D
330
25
100
AcDbEntity
  8
1
  6
Continuous
 62
     0
100
AcDbLine
 10
11230.01109927066
 20
-3161.777004582082
 30
0.0
 11
11240.51109927066
 21
-3161.777004582082
 31
0.0
  0
LINE
  5
30C
330
25
100
AcDbEntity
  8
1
  6
Continuous
 62
     0
100
AcDbLine
 10
11200.51109927066
 20
-3168.777004582082
 30
0.0
 11
11200.51109927066
 21
-3161.777004582082
 31
0.0
  0
LINE
  5
30B
330
25
100
AcDbEntity
  8
1
  6
Continuous
 62
     0
100
AcDbLine
 10
11210.51109927066
 20
-3171.777004582082
 30
0.0
 11
11200.51109927066
 21
-3168.777004582082
 31
0.0
  0
LINE
  5
30A
330
25
100
AcDbEntity
  8
1
  6
Continuous
 62
     0
100
AcDbLine
 10
11200.51109927066
 20
-3161.777004582082
 30
0.0
 11
11211.01109927066
 21
-3161.777004582082
 31
0.0
  0
LINE
  5
309
330
25
100
AcDbEntity
  8
1
  6
Continuous
 62
     0
100
AcDbLine
 10
11215.51109927066
 20
-3175.277004582082
 30
0.0
 11
11215.51109927066
 21
-3177.277004582082
 31
0.0
  0
LINE
  5
308
330
25
100
AcDbEntity
  8
1
  6
Continuous
 62
     0
100
AcDbLine
 10
11225.51109927066
 20
-3175.277004582082
 30
0.0
 11
11225.51109927066
 21
-3177.277004582082
 31
0.0
  0
LINE
  5
307
330
25
100
AcDbEntity
  8
1
  6
Continuous
 62
     0
100
AcDbLine
 10
11718.9435439137
 20
-2613.794218184874
 30
0.0
 11
11731.75109927067
 21
-2606.399772651871
 31
0.0
  0
LINE
  5
306
330
25
100
AcDbEntity
  8
1
  6
Continuous
 62
     0
100
AcDbLine
 10
11731.75109927067
 20
-2606.399772651871
 30
0.0
 11
11744.55865462763
 21
-2613.794218184874
 31
0.0
  0
LINE
  5
305
330
25
100
AcDbEntity
  8
1
  6
Continuous
 62
     0
100
AcDbLine
 10
11766.25264380324
 20
-2666.04168708688
 30
0.0
 11
11777.75109927067
 21
-2666.04168708688
 31
0.0
  0
LINE
  5
304
330
25
100
AcDbEntity
  8
1
  6
Continuous
 62
     0
100
AcDbLine
 10
11761.04218304228
 20
-2611.04168708688
 30
0.0
 11
11777.75109927067
 21
-2611.04168708688
 31
0.0
  0
LINE
  5
302
330
25
100
AcDbEntity
  8
1
  6
Continuous
 62
     0
100
AcDbLine
 10
11778.75109927067
 20
-2667.54168708688
 30
0.0
 11
11778.75109927067
 21
-2667.04168708688
 31
0.0
  0
LINE
  5
301
330
25
100
AcDbEntity
  8
1
  6
Continuous
 62
     0
100
AcDbLine
 10
11778.75109927067
 20
-2667.54168708688
 30
0.0
 11
11783.75109927067
 21
-2667.54168708688
 31
0.0
  0
LINE
  5
300
330
25
100
AcDbEntity
  8
1
  6
Continuous
 62
     0
100
AcDbLine
 10
11783.75109927067
 20
-2667.54168708688
 30
0.0
 11
11783.75109927067
 21
-2609.54168708688
 31
0.0
  0
LINE
  5
2FF
330
25
100
AcDbEntity
  8
1
  6
Continuous
 62
     0
100
AcDbLine
 10
11783.75109927067
 20
-2609.54168708688
 30
0.0
 11
11778.75109927067
 21
-2609.54168708688
 31
0.0
  0
LINE
  5
2FE
330
25
100
AcDbEntity
  8
1
  6
Continuous
 62
     0
100
AcDbLine
 10
11778.75109927067
 20
-2609.54168708688
 30
0.0
 11
11778.75109927067
 21
-2610.04168708688
 31
0.0
  0
LINE
  5
2FD
330
25
100
AcDbEntity
  8
1
  6
Continuous
 62
     0
100
AcDbLine
 10
11778.75109927067
 20
-2610.182932094852
 30
0.0
 11
11778.75109927067
 21
-2667.54168708688
 31
0.0
  0
LINE
  5
2FC
330
25
100
AcDbEntity
  8
1
  6
Continuous
 62
     0
100
AcDbLine
 10
11697.24955473809
 20
-2666.553815108846
 30
0.0
 11
11697.24955473809
 21
-2641.9274944469
 31
0.0
  0
LINE
  5
2FB
330
25
100
AcDbEntity
  8
1
  6
Continuous
 62
     0
100
AcDbLine
 10
11766.25264380324
 20
-2641.482395133363
 30
0.0
 11
11766.25264380324
 21
-2666.399198117689
 31
0.0
  0
LINE
  5
2FA
330
25
100
AcDbEntity
  8
1
  6
Continuous
 62
     0
100
AcDbLine
 10
11766.25264380324
 20
-2672.152181047341
 30
0.0
 11
11766.25264380324
 21
-2665.04168708688
 31
0.0
  0
LINE
  5
2F9
330
25
100
AcDbEntity
  8
1
  6
Continuous
 62
     0
100
AcDbLine
 10
11695.74955473809
 20
-2682.537004582082
 30
0.0
 11
11731.75109927067
 21
-2682.537004582082
 31
0.0
  0
LINE
  5
2F8
330
25
100
AcDbEntity
  8
1
  6
Continuous
 62
     0
100
AcDbLine
 10
11767.75264380324
 20
-2677.537004582082
 30
0.0
 11
11766.25264380324
 21
-2677.537004582082
 31
0.0
  0
LINE
  5
2F7
330
25
100
AcDbEntity
  8
1
  6
Continuous
 62
     0
100
AcDbLine
 10
11695.74955473809
 20
-2677.537004582082
 30
0.0
 11
11697.24955473809
 21
-2677.537004582082
 31
0.0
  0
LINE
  5
2F6
330
25
100
AcDbEntity
  8
1
  6
Continuous
 62
     0
100
AcDbLine
 10
11697.24955473809
 20
-2677.537004582082
 30
0.0
 11
11766.25264380324
 21
-2677.537004582082
 31
0.0
  0
LINE
  5
2F5
330
25
100
AcDbEntity
  8
1
  6
Continuous
 62
     0
100
AcDbLine
 10
11695.74955473809
 20
-2682.537004582082
 30
0.0
 11
11695.74955473809
 21
-2677.537004582082
 31
0.0
  0
LINE
  5
2F4
330
25
100
AcDbEntity
  8
1
  6
Continuous
 62
     0
100
AcDbLine
 10
11767.75264380324
 20
-2682.537004582082
 30
0.0
 11
11767.75264380324
 21
-2677.537004582082
 31
0.0
  0
LINE
  5
2F3
330
25
100
AcDbEntity
  8
1
  6
Continuous
 62
     0
100
AcDbLine
 10
11731.75109927067
 20
-2682.537004582082
 30
0.0
 11
11767.75264380324
 21
-2682.537004582082
 31
0.0
  0
LINE
  5
2F2
330
25
100
AcDbEntity
  8
1
  6
Continuous
 62
     0
100
AcDbLine
 10
11697.24955473809
 20
-2672.152181047341
 30
0.0
 11
11697.24955473809
 21
-2663.04168708688
 31
0.0
  0
LINE
  5
2F1
330
25
100
AcDbEntity
  8
1
  6
Continuous
 62
     0
100
AcDbLine
 10
11701.50109927067
 20
-2693.657004582082
 30
0.0
 11
11701.94409927066
 21
-2682.537004582082
 31
0.0
  0
LINE
  5
2F0
330
25
100
AcDbEntity
  8
1
  6
Continuous
 62
     0
100
AcDbLine
 10
11761.55809927067
 20
-2682.537004582082
 30
0.0
 11
11762.00109927067
 21
-2693.657004582082
 31
0.0
  0
LINE
  5
2EF
330
25
100
AcDbEntity
  8
1
  6
Continuous
 62
     0
100
AcDbLine
 10
11701.94409927066
 20
-2708.777004582082
 30
0.0
 11
11701.50109927067
 21
-2697.657004582082
 31
0.0
  0
LINE
  5
2EE
330
25
100
AcDbEntity
  8
1
  6
Continuous
 62
     0
100
AcDbLine
 10
11761.55809927067
 20
-2708.777004582082
 30
0.0
 11
11762.00109927067
 21
-2697.657004582082
 31
0.0
  0
LINE
  5
2ED
330
25
100
AcDbEntity
  8
1
  6
Continuous
 62
     0
100
AcDbLine
 10
11701.50109927067
 20
-2693.657004582082
 30
0.0
 11
11701.50109927067
 21
-2697.657004582082
 31
0.0
  0
LINE
  5
2EC
330
25
100
AcDbEntity
  8
1
  6
Continuous
 62
     0
100
AcDbLine
 10
11762.00109927067
 20
-2697.657004582082
 30
0.0
 11
11762.00109927067
 21
-2693.657004582082
 31
0.0
  0
LINE
  5
2EB
330
25
100
AcDbEntity
  8
1
  6
Continuous
 62
     0
100
AcDbLine
 10
11701.50109927067
 20
-2693.657004582082
 30
0.0
 11
11762.00109927067
 21
-2693.657004582082
 31
0.0
  0
LINE
  5
2EA
330
25
100
AcDbEntity
  8
1
  6
Continuous
 62
     0
100
AcDbLine
 10
11762.00109927067
 20
-2697.657004582082
 30
0.0
 11
11701.50109927067
 21
-2697.657004582082
 31
0.0
  0
LINE
  5
2E9
330
25
100
AcDbEntity
  8
1
  6
Continuous
 62
     0
100
AcDbLine
 10
11698.60109927066
 20
-2708.777004582082
 30
0.0
 11
11764.90109927066
 21
-2708.777004582082
 31
0.0
  0
LINE
  5
2E8
330
25
100
AcDbEntity
  8
1
  6
Continuous
 62
     0
100
AcDbLine
 10
11698.60109927066
 20
-2708.777004582082
 30
0.0
 11
11698.60109927066
 21
-2728.777004582082
 31
0.0
  0
LINE
  5
2E7
330
25
100
AcDbEntity
  8
1
  6
Continuous
 62
     0
100
AcDbLine
 10
11764.90109927066
 20
-2708.777004582082
 30
0.0
 11
11764.90109927066
 21
-2728.777004582082
 31
0.0
  0
LINE
  5
2E6
330
25
100
AcDbEntity
  8
1
  6
Continuous
 62
     0
100
AcDbLine
 10
11698.60109927066
 20
-2708.777004582082
 30
0.0
 11
11764.90109927066
 21
-2708.777004582082
 31
0.0
  0
LINE
  5
2E5
330
25
100
AcDbEntity
  8
1
  6
Continuous
 62
     0
100
AcDbLine
 10
11252.75109927067
 20
-3146.777004582082
 30
0.0
 11
11252.75109927067
 21
-3228.777004582082
 31
0.0
  0
LINE
  5
2E4
330
25
100
AcDbEntity
  8
1
  6
Continuous
 62
     0
100
AcDbLine
 10
11252.75109927067
 20
-3228.777004582082
 30
0.0
 11
11274.58592124417
 21
-3228.777004582082
 31
0.0
  0
LINE
  5
2E3
330
25
100
AcDbEntity
  8
1
  6
Continuous
 62
     0
100
AcDbLine
 10
11252.75109927067
 20
-3146.777004582082
 30
0.0
 11
11274.58592124417
 21
-3146.777004582082
 31
0.0
  0
LINE
  5
2E2
330
25
100
AcDbEntity
  8
1
  6
Continuous
 62
     0
100
AcDbLine
 10
12210.75109927067
 20
-3228.777004582083
 30
0.0
 11
12188.91627729716
 21
-3228.777004582083
 31
0.0
  0
LINE
  5
2E1
330
25
100
AcDbEntity
  8
1
  6
Continuous
 62
     0
100
AcDbLine
 10
12210.75109927067
 20
-3146.777004582083
 30
0.0
 11
12188.91627729716
 21
-3146.777004582083
 31
0.0
  0
LINE
  5
2E0
330
25
100
AcDbEntity
  8
1
  6
Continuous
 62
     0
100
AcDbLine
 10
12210.75109927067
 20
-3228.777004582083
 30
0.0
 11
12210.75109927067
 21
-3146.777004582083
 31
0.0
  0
LINE
  5
2DF
330
25
100
AcDbEntity
  8
1
  6
Continuous
 62
     0
100
AcDbLine
 10
11801.49357005262
 20
-3678.777004582082
 30
0.0
 11
11803.34997651317
 21
-3677.705207812356
 31
0.0
  0
LINE
  5
2DE
330
25
100
AcDbEntity
  8
1
  6
Continuous
 62
     0
100
AcDbLine
 10
11775.63716359207
 20
-3677.705207812356
 30
0.0
 11
11777.49357005262
 21
-3678.777004582082
 31
0.0
  0
LINE
  5
2DD
330
25
100
AcDbEntity
  8
1
  6
Continuous
 62
     0
100
AcDbLine
 10
11775.63716359207
 20
-3668.777004582082
 30
0.0
 11
11775.63716359207
 21
-3677.705207812356
 31
0.0
  0
LINE
  5
2DC
330
25
100
AcDbEntity
  8
1
  6
Continuous
 62
     0
100
AcDbLine
 10
11777.49357005262
 20
-3678.777004582082
 30
0.0
 11
11801.49357005262
 21
-3678.777004582082
 31
0.0
  0
LINE
  5
2DB
330
25
100
AcDbEntity
  8
1
  6
Continuous
 62
     0
100
AcDbLine
 10
11803.34997651317
 20
-3677.705207812356
 30
0.0
 11
11803.34997651317
 21
-3668.777004582082
 31
0.0
  0
LINE
  5
2DA
330
25
100
AcDbEntity
  8
1
  6
Continuous
 62
     0
100
AcDbLine
 10
11782.56536682234
 20
-3668.777004582082
 30
0.0
 11
11782.56536682234
 21
-3677.705207812356
 31
0.0
  0
LINE
  5
2D9
330
25
100
AcDbEntity
  8
1
  6
Continuous
 62
     0
100
AcDbLine
 10
11796.4217732829
 20
-3668.777004582082
 30
0.0
 11
11796.4217732829
 21
-3677.705207812356
 31
0.0
  0
LINE
  5
2D8
330
25
100
AcDbEntity
  8
1
  6
Continuous
 62
     0
100
AcDbLine
 10
11775.49357005262
 20
-3664.777004582082
 30
0.0
 11
11775.49357005262
 21
-3668.777004582082
 31
0.0
  0
LINE
  5
2D7
330
25
100
AcDbEntity
  8
1
  6
Continuous
 62
     0
100
AcDbLine
 10
11775.49357005262
 20
-3668.777004582082
 30
0.0
 11
11803.49357005262
 21
-3668.777004582082
 31
0.0
  0
LINE
  5
2D6
330
25
100
AcDbEntity
  8
1
  6
Continuous
 62
     0
100
AcDbLine
 10
11803.49357005262
 20
-3668.777004582082
 30
0.0
 11
11803.49357005262
 21
-3664.777004582082
 31
0.0
  0
LINE
  5
2D5
330
25
100
AcDbEntity
  8
1
  6
Continuous
 62
     0
100
AcDbLine
 10
11788.56023671929
 20
-3668.777004582082
 30
0.0
 11
11787.41737957643
 21
-3664.777004582082
 31
0.0
  0
LINE
  5
2D4
330
25
100
AcDbEntity
  8
1
  6
Continuous
 62
     0
100
AcDbLine
 10
11791.56976052881
 20
-3668.777004582082
 30
0.0
 11
11790.42690338595
 21
-3664.777004582082
 31
0.0
  0
LINE
  5
2D3
330
25
100
AcDbEntity
  8
1
  6
Continuous
 62
     0
100
AcDbLine
 10
11774.49357005262
 20
-3661.777004582082
 30
0.0
 11
11774.49357005262
 21
-3664.777004582082
 31
0.0
  0
LINE
  5
2D2
330
25
100
AcDbEntity
  8
1
  6
Continuous
 62
     0
100
AcDbLine
 10
11774.49357005262
 20
-3664.777004582082
 30
0.0
 11
11804.49357005262
 21
-3664.777004582082
 31
0.0
  0
LINE
  5
2D1
330
25
100
AcDbEntity
  8
1
  6
Continuous
 62
     0
100
AcDbLine
 10
11804.49357005262
 20
-3664.777004582082
 30
0.0
 11
11804.49357005262
 21
-3661.777004582082
 31
0.0
  0
LINE
  5
2D0
330
25
100
AcDbEntity
  8
1
  6
Continuous
 62
     0
100
AcDbLine
 10
11804.49357005262
 20
-3661.777004582082
 30
0.0
 11
11774.49357005262
 21
-3661.777004582082
 31
0.0
  0
LINE
  5
2CD
330
25
100
AcDbEntity
  8
1
  6
Continuous
 62
     0
100
AcDbLine
 10
11770.66881379348
 20
-3661.777004582082
 30
0.0
 11
11740.66881379348
 21
-3661.777004582082
 31
0.0
  0
LINE
  5
2CC
330
25
100
AcDbEntity
  8
1
  6
Continuous
 62
     0
100
AcDbLine
 10
11770.66881379348
 20
-3664.777004582082
 30
0.0
 11
11770.66881379348
 21
-3661.777004582082
 31
0.0
  0
LINE
  5
2CB
330
25
100
AcDbEntity
  8
1
  6
Continuous
 62
     0
100
AcDbLine
 10
11740.66881379348
 20
-3664.777004582082
 30
0.0
 11
11770.66881379348
 21
-3664.777004582082
 31
0.0
  0
LINE
  5
2CA
330
25
100
AcDbEntity
  8
1
  6
Continuous
 62
     0
100
AcDbLine
 10
11740.66881379348
 20
-3661.777004582082
 30
0.0
 11
11740.66881379348
 21
-3664.777004582082
 31
0.0
  0
LINE
  5
2C9
330
25
100
AcDbEntity
  8
1
  6
Continuous
 62
     0
100
AcDbLine
 10
11757.74500426967
 20
-3668.777004582082
 30
0.0
 11
11756.60214712682
 21
-3664.777004582082
 31
0.0
  0
LINE
  5
2C8
330
25
100
AcDbEntity
  8
1
  6
Continuous
 62
     0
100
AcDbLine
 10
11754.73548046015
 20
-3668.777004582082
 30
0.0
 11
11753.59262331729
 21
-3664.777004582082
 31
0.0
  0
LINE
  5
2C7
330
25
100
AcDbEntity
  8
1
  6
Continuous
 62
     0
100
AcDbLine
 10
11769.66881379348
 20
-3668.777004582082
 30
0.0
 11
11769.66881379348
 21
-3664.777004582082
 31
0.0
  0
LINE
  5
2C6
330
25
100
AcDbEntity
  8
1
  6
Continuous
 62
     0
100
AcDbLine
 10
11741.66881379348
 20
-3668.777004582082
 30
0.0
 11
11769.66881379348
 21
-3668.777004582082
 31
0.0
  0
LINE
  5
2C5
330
25
100
AcDbEntity
  8
1
  6
Continuous
 62
     0
100
AcDbLine
 10
11741.66881379348
 20
-3664.777004582082
 30
0.0
 11
11741.66881379348
 21
-3668.777004582082
 31
0.0
  0
LINE
  5
2C4
330
25
100
AcDbEntity
  8
1
  6
Continuous
 62
     0
100
AcDbLine
 10
11762.59701702376
 20
-3668.777004582082
 30
0.0
 11
11762.59701702376
 21
-3677.705207812356
 31
0.0
  0
LINE
  5
2C3
330
25
100
AcDbEntity
  8
1
  6
Continuous
 62
     0
100
AcDbLine
 10
11748.74061056321
 20
-3668.777004582082
 30
0.0
 11
11748.74061056321
 21
-3677.705207812356
 31
0.0
  0
LINE
  5
2C2
330
25
100
AcDbEntity
  8
1
  6
Continuous
 62
     0
100
AcDbLine
 10
11769.52522025403
 20
-3677.705207812356
 30
0.0
 11
11769.52522025403
 21
-3668.777004582082
 31
0.0
  0
LINE
  5
2C1
330
25
100
AcDbEntity
  8
1
  6
Continuous
 62
     0
100
AcDbLine
 10
11743.66881379348
 20
-3678.777004582082
 30
0.0
 11
11767.66881379348
 21
-3678.777004582082
 31
0.0
  0
LINE
  5
2C0
330
25
100
AcDbEntity
  8
1
  6
Continuous
 62
     0
100
AcDbLine
 10
11741.81240733293
 20
-3668.777004582082
 30
0.0
 11
11741.81240733293
 21
-3677.705207812356
 31
0.0
  0
LINE
  5
2BF
330
25
100
AcDbEntity
  8
1
  6
Continuous
 62
     0
100
AcDbLine
 10
11741.81240733293
 20
-3677.705207812356
 30
0.0
 11
11743.66881379348
 21
-3678.777004582082
 31
0.0
  0
LINE
  5
2BE
330
25
100
AcDbEntity
  8
1
  6
Continuous
 62
     0
100
AcDbLine
 10
11767.66881379348
 20
-3678.777004582082
 30
0.0
 11
11769.52522025403
 21
-3677.705207812356
 31
0.0
  0
LINE
  5
2BD
330
25
100
AcDbEntity
  8
1
  6
Continuous
 62
     0
100
AcDbLine
 10
11693.9769782873
 20
-3677.705207812356
 30
0.0
 11
11695.83338474784
 21
-3678.777004582082
 31
0.0
  0
LINE
  5
2BC
330
25
100
AcDbEntity
  8
1
  6
Continuous
 62
     0
100
AcDbLine
 10
11719.83338474784
 20
-3678.777004582082
 30
0.0
 11
11721.6897912084
 21
-3677.705207812356
 31
0.0
  0
LINE
  5
2BB
330
25
100
AcDbEntity
  8
1
  6
Continuous
 62
     0
100
AcDbLine
 10
11721.6897912084
 20
-3677.705207812356
 30
0.0
 11
11721.6897912084
 21
-3668.777004582082
 31
0.0
  0
LINE
  5
2BA
330
25
100
AcDbEntity
  8
1
  6
Continuous
 62
     0
100
AcDbLine
 10
11695.83338474784
 20
-3678.777004582082
 30
0.0
 11
11719.83338474784
 21
-3678.777004582082
 31
0.0
  0
LINE
  5
2B9
330
25
100
AcDbEntity
  8
1
  6
Continuous
 62
     0
100
AcDbLine
 10
11693.9769782873
 20
-3668.777004582082
 30
0.0
 11
11693.9769782873
 21
-3677.705207812356
 31
0.0
  0
LINE
  5
2B8
330
25
100
AcDbEntity
  8
1
  6
Continuous
 62
     0
100
AcDbLine
 10
11714.76158797812
 20
-3677.705207812356
 30
0.0
 11
11714.76158797812
 21
-3668.777004582082
 31
0.0
  0
LINE
  5
2B7
330
25
100
AcDbEntity
  8
1
  6
Continuous
 62
     0
100
AcDbLine
 10
11700.90518151757
 20
-3677.705207812356
 30
0.0
 11
11700.90518151757
 21
-3668.777004582082
 31
0.0
  0
LINE
  5
2B6
330
25
100
AcDbEntity
  8
1
  6
Continuous
 62
     0
100
AcDbLine
 10
11721.83338474784
 20
-3668.777004582082
 30
0.0
 11
11721.83338474784
 21
-3664.777004582082
 31
0.0
  0
LINE
  5
2B5
330
25
100
AcDbEntity
  8
1
  6
Continuous
 62
     0
100
AcDbLine
 10
11693.83338474784
 20
-3668.777004582082
 30
0.0
 11
11721.83338474784
 21
-3668.777004582082
 31
0.0
  0
LINE
  5
2B4
330
25
100
AcDbEntity
  8
1
  6
Continuous
 62
     0
100
AcDbLine
 10
11693.83338474784
 20
-3664.777004582082
 30
0.0
 11
11693.83338474784
 21
-3668.777004582082
 31
0.0
  0
LINE
  5
2B3
330
25
100
AcDbEntity
  8
1
  6
Continuous
 62
     0
100
AcDbLine
 10
11709.90957522404
 20
-3664.777004582082
 30
0.0
 11
11708.76671808118
 21
-3668.777004582082
 31
0.0
  0
LINE
  5
2B2
330
25
100
AcDbEntity
  8
1
  6
Continuous
 62
     0
100
AcDbLine
 10
11706.90005141451
 20
-3664.777004582082
 30
0.0
 11
11705.75719427166
 21
-3668.777004582082
 31
0.0
  0
LINE
  5
2B1
330
25
100
AcDbEntity
  8
1
  6
Continuous
 62
     0
100
AcDbLine
 10
11722.83338474784
 20
-3664.777004582082
 30
0.0
 11
11722.83338474784
 21
-3661.777004582082
 31
0.0
  0
LINE
  5
2B0
330
25
100
AcDbEntity
  8
1
  6
Continuous
 62
     0
100
AcDbLine
 10
11692.83338474784
 20
-3664.777004582082
 30
0.0
 11
11722.83338474784
 21
-3664.777004582082
 31
0.0
  0
LINE
  5
2AF
330
25
100
AcDbEntity
  8
1
  6
Continuous
 62
     0
100
AcDbLine
 10
11692.83338474784
 20
-3661.777004582082
 30
0.0
 11
11692.83338474784
 21
-3664.777004582082
 31
0.0
  0
LINE
  5
2AE
330
25
100
AcDbEntity
  8
1
  6
Continuous
 62
     0
100
AcDbLine
 10
11722.83338474784
 20
-3661.777004582082
 30
0.0
 11
11692.83338474784
 21
-3661.777004582082
 31
0.0
  0
LINE
  5
2AB
330
25
100
AcDbEntity
  8
1
  6
Continuous
 62
     0
100
AcDbLine
 10
11689.00862848871
 20
-3661.777004582082
 30
0.0
 11
11659.00862848871
 21
-3661.777004582082
 31
0.0
  0
LINE
  5
2AA
330
25
100
AcDbEntity
  8
1
  6
Continuous
 62
     0
100
AcDbLine
 10
11659.00862848871
 20
-3661.777004582082
 30
0.0
 11
11659.00862848871
 21
-3664.777004582082
 31
0.0
  0
LINE
  5
2A9
330
25
100
AcDbEntity
  8
1
  6
Continuous
 62
     0
100
AcDbLine
 10
11659.00862848871
 20
-3664.777004582082
 30
0.0
 11
11689.00862848871
 21
-3664.777004582082
 31
0.0
  0
LINE
  5
2A8
330
25
100
AcDbEntity
  8
1
  6
Continuous
 62
     0
100
AcDbLine
 10
11689.00862848871
 20
-3664.777004582082
 30
0.0
 11
11689.00862848871
 21
-3661.777004582082
 31
0.0
  0
LINE
  5
2A7
330
25
100
AcDbEntity
  8
1
  6
Continuous
 62
     0
100
AcDbLine
 10
11673.07529515538
 20
-3664.777004582082
 30
0.0
 11
11671.93243801252
 21
-3668.777004582082
 31
0.0
  0
LINE
  5
2A6
330
25
100
AcDbEntity
  8
1
  6
Continuous
 62
     0
100
AcDbLine
 10
11676.0848189649
 20
-3664.777004582082
 30
0.0
 11
11674.94196182204
 21
-3668.777004582082
 31
0.0
  0
LINE
  5
2A5
330
25
100
AcDbEntity
  8
1
  6
Continuous
 62
     0
100
AcDbLine
 10
11660.00862848871
 20
-3664.777004582082
 30
0.0
 11
11660.00862848871
 21
-3668.777004582082
 31
0.0
  0
LINE
  5
2A4
330
25
100
AcDbEntity
  8
1
  6
Continuous
 62
     0
100
AcDbLine
 10
11660.00862848871
 20
-3668.777004582082
 30
0.0
 11
11688.00862848871
 21
-3668.777004582082
 31
0.0
  0
LINE
  5
2A3
330
25
100
AcDbEntity
  8
1
  6
Continuous
 62
     0
100
AcDbLine
 10
11688.00862848871
 20
-3668.777004582082
 30
0.0
 11
11688.00862848871
 21
-3664.777004582082
 31
0.0
  0
LINE
  5
2A2
330
25
100
AcDbEntity
  8
1
  6
Continuous
 62
     0
100
AcDbLine
 10
11667.08042525843
 20
-3677.705207812356
 30
0.0
 11
11667.08042525843
 21
-3668.777004582082
 31
0.0
  0
LINE
  5
2A1
330
25
100
AcDbEntity
  8
1
  6
Continuous
 62
     0
100
AcDbLine
 10
11680.93683171898
 20
-3677.705207812356
 30
0.0
 11
11680.93683171898
 21
-3668.777004582082
 31
0.0
  0
LINE
  5
2A0
330
25
100
AcDbEntity
  8
1
  6
Continuous
 62
     0
100
AcDbLine
 10
11660.15222202816
 20
-3668.777004582082
 30
0.0
 11
11660.15222202816
 21
-3677.705207812356
 31
0.0
  0
LINE
  5
29F
330
25
100
AcDbEntity
  8
1
  6
Continuous
 62
     0
100
AcDbLine
 10
11662.00862848871
 20
-3678.777004582082
 30
0.0
 11
11686.00862848871
 21
-3678.777004582082
 31
0.0
  0
LINE
  5
29E
330
25
100
AcDbEntity
  8
1
  6
Continuous
 62
     0
100
AcDbLine
 10
11687.86503494926
 20
-3677.705207812356
 30
0.0
 11
11687.86503494926
 21
-3668.777004582082
 31
0.0
  0
LINE
  5
29D
330
25
100
AcDbEntity
  8
1
  6
Continuous
 62
     0
100
AcDbLine
 10
11686.00862848871
 20
-3678.777004582082
 30
0.0
 11
11687.86503494926
 21
-3677.705207812356
 31
0.0
  0
LINE
  5
29C
330
25
100
AcDbEntity
  8
1
  6
Continuous
 62
     0
100
AcDbLine
 10
11660.15222202816
 20
-3677.705207812356
 30
0.0
 11
11662.00862848871
 21
-3678.777004582082
 31
0.0
  0
LINE
  5
29B
330
25
100
AcDbEntity
  8
1
  6
Continuous
 62
     0
100
AcDbLine
 10
11652.75109927067
 20
-3639.913441484607
 30
0.0
 11
11652.75109927067
 21
-3661.777004582082
 31
0.0
  0
LINE
  5
29A
330
25
100
AcDbEntity
  8
1
  6
Continuous
 62
     0
100
AcDbLine
 10
11810.75109927067
 20
-3639.906624939994
 30
0.0
 11
11810.75109927067
 21
-3661.777004582082
 31
0.0
  0
LINE
  5
298
330
25
100
AcDbEntity
  8
1
  6
Continuous
 62
     0
100
AcDbLine
 10
11810.75109927067
 20
-3661.777004582082
 30
0.0
 11
11652.75109927067
 21
-3661.777004582082
 31
0.0
  0
LINE
  5
297
330
25
100
AcDbEntity
  8
1
  6
Continuous
 62
     0
100
AcDbLine
 10
11810.75109927067
 20
-3651.777004582082
 30
0.0
 11
11652.75109927067
 21
-3651.777004582082
 31
0.0
  0
LINE
  5
292
330
25
100
AcDbEntity
  8
1
  6
Continuous
 62
     0
100
AcDbLine
 10
11160.2128431486
 20
-1142.880956509657
 30
0.0
 11
11171.7128431486
 21
-1142.880956509657
 31
0.0
  0
LINE
  5
291
330
25
100
AcDbEntity
  8
1
  6
Continuous
 62
     0
100
AcDbLine
 10
11171.7128431486
 20
-1142.880956509657
 30
0.0
 11
11171.7128431486
 21
-1151.379683368074
 31
0.0
  0
LINE
  5
290
330
25
100
AcDbEntity
  8
1
  6
Continuous
 62
     0
100
AcDbLine
 10
11183.21157000701
 20
-1154.379683368074
 30
0.0
 11
11174.7128431486
 21
-1154.379683368074
 31
0.0
  0
LINE
  5
28F
330
25
100
AcDbEntity
  8
1
  6
Continuous
 62
     0
100
AcDbLine
 10
11148.7128431486
 20
-1142.880956509657
 30
0.0
 11
11160.2128431486
 21
-1142.880956509657
 31
0.0
  0
LINE
  5
28E
330
25
100
AcDbEntity
  8
1
  6
Continuous
 62
     0
100
AcDbLine
 10
11183.21157000701
 20
-1154.379683368074
 30
0.0
 11
11183.21157000701
 21
-1165.879683368074
 31
0.0
  0
LINE
  5
28D
330
25
100
AcDbEntity
  8
1
  6
Continuous
 62
     0
100
AcDbLine
 10
11148.7128431486
 20
-1142.880956509657
 30
0.0
 11
11148.7128431486
 21
-1165.879683368074
 31
0.0
  0
LINE
  5
28C
330
25
100
AcDbEntity
  8
1
  6
Continuous
 62
     0
100
AcDbLine
 10
11148.7128431486
 20
-1165.879683368074
 30
0.0
 11
11148.7128431486
 21
-1188.878410226492
 31
0.0
  0
LINE
  5
28B
330
25
100
AcDbEntity
  8
1
  6
Continuous
 62
     0
100
AcDbLine
 10
11183.21157000701
 20
-1165.879683368074
 30
0.0
 11
11183.21157000701
 21
-1177.379683368074
 31
0.0
  0
LINE
  5
28A
330
25
100
AcDbEntity
  8
1
  6
Continuous
 62
     0
100
AcDbLine
 10
11160.2128431486
 20
-1188.878410226492
 30
0.0
 11
11148.7128431486
 21
-1188.878410226492
 31
0.0
  0
LINE
  5
289
330
25
100
AcDbEntity
  8
1
  6
Continuous
 62
     0
100
AcDbLine
 10
11174.7128431486
 20
-1177.379683368074
 30
0.0
 11
11183.21157000701
 21
-1177.379683368074
 31
0.0
  0
LINE
  5
288
330
25
100
AcDbEntity
  8
1
  6
Continuous
 62
     0
100
AcDbLine
 10
11171.7128431486
 20
-1180.379683368074
 30
0.0
 11
11171.7128431486
 21
-1188.878410226492
 31
0.0
  0
LINE
  5
287
330
25
100
AcDbEntity
  8
1
  6
Continuous
 62
     0
100
AcDbLine
 10
11171.7128431486
 20
-1188.878410226492
 30
0.0
 11
11160.2128431486
 21
-1188.878410226492
 31
0.0
  0
LINE
  5
286
330
25
100
AcDbEntity
  8
1
  6
Continuous
 62
     0
100
AcDbLine
 10
11199.44939218052
 20
-1178.004039021055
 30
0.0
 11
11198.51157000702
 21
-1176.379683368074
 31
0.0
  0
LINE
  5
285
330
25
100
AcDbEntity
  8
1
  6
Continuous
 62
     0
100
AcDbLine
 10
11198.51157000702
 20
-1155.379683368074
 30
0.0
 11
11199.44939218052
 21
-1153.755327715094
 31
0.0
  0
LINE
  5
284
330
25
100
AcDbEntity
  8
1
  6
Continuous
 62
     0
100
AcDbLine
 10
11198.51157000702
 20
-1176.379683368074
 30
0.0
 11
11198.51157000702
 21
-1155.379683368074
 31
0.0
  0
LINE
  5
283
330
25
100
AcDbEntity
  8
1
  6
Continuous
 62
     0
100
AcDbLine
 10
11199.44939218052
 20
-1171.941861194565
 30
0.0
 11
11205.61157000701
 21
-1171.941861194565
 31
0.0
  0
LINE
  5
282
330
25
100
AcDbEntity
  8
1
  6
Continuous
 62
     0
100
AcDbLine
 10
11199.44939218052
 20
-1159.817505541584
 30
0.0
 11
11205.61157000701
 21
-1159.817505541584
 31
0.0
  0
LINE
  5
281
330
25
100
AcDbEntity
  8
1
  6
Continuous
 62
     0
100
AcDbLine
 10
11242.51157000702
 20
-1176.379683368074
 30
0.0
 11
11241.57374783351
 21
-1178.004039021055
 31
0.0
  0
LINE
  5
280
330
25
100
AcDbEntity
  8
1
  6
Continuous
 62
     0
100
AcDbLine
 10
11241.57374783351
 20
-1153.755327715094
 30
0.0
 11
11242.51157000702
 21
-1155.379683368074
 31
0.0
  0
LINE
  5
27F
330
25
100
AcDbEntity
  8
1
  6
Continuous
 62
     0
100
AcDbLine
 10
11241.57374783351
 20
-1178.004039021055
 30
0.0
 11
11235.14939218052
 21
-1178.004039021055
 31
0.0
  0
LINE
  5
27E
330
25
100
AcDbEntity
  8
1
  6
Continuous
 62
     0
100
AcDbLine
 10
11242.51157000702
 20
-1155.379683368074
 30
0.0
 11
11242.51157000702
 21
-1176.379683368074
 31
0.0
  0
LINE
  5
27D
330
25
100
AcDbEntity
  8
1
  6
Continuous
 62
     0
100
AcDbLine
 10
11241.57374783351
 20
-1153.755327715094
 30
0.0
 11
11235.14939218052
 21
-1153.755327715094
 31
0.0
  0
LINE
  5
27C
330
25
100
AcDbEntity
  8
1
  6
Continuous
 62
     0
100
AcDbLine
 10
11240.51157000702
 20
-1161.529683368072
 30
0.0
 11
11231.23432618255
 21
-1161.529683368072
 31
0.0
  0
LINE
  5
27B
330
25
100
AcDbEntity
  8
1
  6
Continuous
 62
     0
100
AcDbLine
 10
11240.51157000702
 20
-1161.529683368072
 30
0.0
 11
11240.51157000702
 21
-1170.229683368073
 31
0.0
  0
LINE
  5
27A
330
25
100
AcDbEntity
  8
1
  6
Continuous
 62
     0
100
AcDbLine
 10
11240.51157000702
 20
-1170.229683368073
 30
0.0
 11
11231.23432618255
 21
-1170.229683368073
 31
0.0
  0
LINE
  5
279
330
25
100
AcDbEntity
  8
1
  6
Continuous
 62
     0
100
AcDbLine
 10
11200.51157000702
 20
-1161.529683368072
 30
0.0
 11
11209.78881383148
 21
-1161.529683368072
 31
0.0
  0
LINE
  5
278
330
25
100
AcDbEntity
  8
1
  6
Continuous
 62
     0
100
AcDbLine
 10
11200.51157000702
 20
-1161.529683368072
 30
0.0
 11
11200.51157000702
 21
-1170.229683368073
 31
0.0
  0
LINE
  5
277
330
25
100
AcDbEntity
  8
1
  6
Continuous
 62
     0
100
AcDbLine
 10
11200.51157000702
 20
-1170.229683368073
 30
0.0
 11
11209.78881383148
 21
-1170.229683368073
 31
0.0
  0
LINE
  5
274
330
25
100
AcDbEntity
  8
1
  6
Continuous
 62
     0
100
AcDbLine
 10
11215.51157000702
 20
-1162.992932022122
 30
0.0
 11
11215.51157000702
 21
-1168.766434714022
 31
0.0
  0
LINE
  5
273
330
25
100
AcDbEntity
  8
1
  6
Continuous
 62
     0
100
AcDbLine
 10
11215.51157000702
 20
-1168.766434714022
 30
0.0
 11
11220.51157000702
 21
-1171.653186059974
 31
0.0
  0
LINE
  5
272
330
25
100
AcDbEntity
  8
1
  6
Continuous
 62
     0
100
AcDbLine
 10
11220.51157000702
 20
-1171.653186059974
 30
0.0
 11
11225.51157000702
 21
-1168.766434714022
 31
0.0
  0
LINE
  5
271
330
25
100
AcDbEntity
  8
1
  6
Continuous
 62
     0
100
AcDbLine
 10
11225.51157000702
 20
-1168.766434714022
 30
0.0
 11
11225.51157000702
 21
-1162.992932022122
 31
0.0
  0
LINE
  5
270
330
25
100
AcDbEntity
  8
1
  6
Continuous
 62
     0
100
AcDbLine
 10
11225.51157000702
 20
-1162.992932022122
 30
0.0
 11
11220.51157000702
 21
-1160.106180676174
 31
0.0
  0
LINE
  5
26F
330
25
100
AcDbEntity
  8
1
  6
Continuous
 62
     0
100
AcDbLine
 10
11220.51157000702
 20
-1160.106180676174
 30
0.0
 11
11215.51157000702
 21
-1162.992932022122
 31
0.0
  0
LINE
  5
26E
330
25
100
AcDbEntity
  8
1
  6
Continuous
 62
     0
100
AcDbLine
 10
11220.51157000702
 20
-1159.629683368074
 30
0.0
 11
11214.79542653018
 21
-1159.629683368074
 31
0.0
  0
LINE
  5
26D
330
25
100
AcDbEntity
  8
1
  6
Continuous
 62
     0
100
AcDbLine
 10
11226.76157000702
 20
-1165.879683368074
 30
0.0
 11
11229.01157000702
 21
-1165.879683368074
 31
0.0
  0
LINE
  5
26C
330
25
100
AcDbEntity
  8
1
  6
Continuous
 62
     0
100
AcDbLine
 10
11218.27550202951
 20
-1163.879683368074
 30
0.0
 11
11222.74763798451
 21
-1163.879683368074
 31
0.0
  0
LINE
  5
26B
330
25
100
AcDbEntity
  8
1
  6
Continuous
 62
     0
100
AcDbLine
 10
11218.27550202951
 20
-1167.879683368074
 30
0.0
 11
11222.74763798451
 21
-1167.879683368074
 31
0.0
  0
LINE
  5
26A
330
25
100
AcDbEntity
  8
1
  6
Continuous
 62
     0
100
AcDbLine
 10
11234.21157000701
 20
-1155.379683368074
 30
0.0
 11
11235.14939218052
 21
-1153.755327715094
 31
0.0
  0
LINE
  5
269
330
25
100
AcDbEntity
  8
1
  6
Continuous
 62
     0
100
AcDbLine
 10
11235.14939218052
 20
-1178.004039021055
 30
0.0
 11
11234.21157000701
 21
-1176.379683368074
 31
0.0
  0
LINE
  5
268
330
25
100
AcDbEntity
  8
1
  6
Continuous
 62
     0
100
AcDbLine
 10
11206.54939218052
 20
-1176.379683368074
 30
0.0
 11
11205.61157000701
 21
-1178.004039021055
 31
0.0
  0
LINE
  5
267
330
25
100
AcDbEntity
  8
1
  6
Continuous
 62
     0
100
AcDbLine
 10
11205.61157000701
 20
-1153.755327715094
 30
0.0
 11
11206.54939218052
 21
-1155.379683368074
 31
0.0
  0
LINE
  5
266
330
25
100
AcDbEntity
  8
1
  6
Continuous
 62
     0
100
AcDbLine
 10
11234.21157000701
 20
-1155.379683368074
 30
0.0
 11
11206.54939218052
 21
-1155.379683368074
 31
0.0
  0
LINE
  5
265
330
25
100
AcDbEntity
  8
1
  6
Continuous
 62
     0
100
AcDbLine
 10
11205.61157000701
 20
-1153.755327715094
 30
0.0
 11
11199.44939218052
 21
-1153.755327715094
 31
0.0
  0
LINE
  5
264
330
25
100
AcDbEntity
  8
1
  6
Continuous
 62
     0
100
AcDbLine
 10
11234.21157000701
 20
-1176.379683368074
 30
0.0
 11
11206.54939218052
 21
-1176.379683368074
 31
0.0
  0
LINE
  5
263
330
25
100
AcDbEntity
  8
1
  6
Continuous
 62
     0
100
AcDbLine
 10
11205.61157000701
 20
-1178.004039021055
 30
0.0
 11
11199.44939218052
 21
-1178.004039021055
 31
0.0
  0
LINE
  5
262
330
25
100
AcDbEntity
  8
1
  6
Continuous
 62
     0
100
AcDbLine
 10
11235.14939218052
 20
-1171.941861194565
 30
0.0
 11
11241.57374783351
 21
-1171.941861194565
 31
0.0
  0
LINE
  5
261
330
25
100
AcDbEntity
  8
1
  6
Continuous
 62
     0
100
AcDbLine
 10
11235.14939218052
 20
-1159.817505541584
 30
0.0
 11
11241.57374783351
 21
-1159.817505541584
 31
0.0
  0
LINE
  5
260
330
25
100
AcDbEntity
  8
1
  6
Continuous
 62
     0
100
AcDbLine
 10
11229.01157000702
 20
-1160.544467471674
 30
0.0
 11
11229.01157000702
 21
-1157.379683368074
 31
0.0
  0
LINE
  5
25F
330
25
100
AcDbEntity
  8
1
  6
Continuous
 62
     0
100
AcDbLine
 10
11229.01157000702
 20
-1157.379683368074
 30
0.0
 11
11231.51157000702
 21
-1157.379683368074
 31
0.0
  0
LINE
  5
25E
330
25
100
AcDbEntity
  8
1
  6
Continuous
 62
     0
100
AcDbLine
 10
11205.76292852934
 20
-1171.441861194565
 30
0.0
 11
11212.19789910932
 21
-1171.441861194565
 31
0.0
  0
LINE
  5
25D
330
25
100
AcDbEntity
  8
1
  6
Continuous
 62
     0
100
AcDbLine
 10
11205.76292852934
 20
-1160.317505541584
 30
0.0
 11
11212.19789910932
 21
-1160.317505541584
 31
0.0
  0
LINE
  5
25C
330
25
100
AcDbEntity
  8
1
  6
Continuous
 62
     0
100
AcDbLine
 10
11234.99803365819
 20
-1171.441861194565
 30
0.0
 11
11228.7598439882
 21
-1171.441861194565
 31
0.0
  0
LINE
  5
25B
330
25
100
AcDbEntity
  8
1
  6
Continuous
 62
     0
100
AcDbLine
 10
11234.99803365819
 20
-1160.317505541584
 30
0.0
 11
11233.05706260269
 21
-1160.317505541584
 31
0.0
  0
LINE
  5
25A
330
25
100
AcDbEntity
  8
1
  6
Continuous
 62
     0
100
AcDbLine
 10
11257.75109927067
 20
-1174.210683368074
 30
0.0
 11
11251.35109927066
 21
-1174.529683368074
 31
0.0
  0
LINE
  5
259
330
25
100
AcDbEntity
  8
1
  6
Continuous
 62
     0
100
AcDbLine
 10
11242.45109927066
 20
-1157.548683368075
 30
0.0
 11
11248.85109927066
 21
-1157.229683368074
 31
0.0
  0
LINE
  5
258
330
25
100
AcDbEntity
  8
1
  6
Continuous
 62
     0
100
AcDbLine
 10
11248.85109927066
 20
-1174.529683368074
 30
0.0
 11
11242.45109927066
 21
-1174.210683368074
 31
0.0
  0
LINE
  5
257
330
25
100
AcDbEntity
  8
1
  6
Continuous
 62
     0
100
AcDbLine
 10
11251.35109927066
 20
-1157.229683368074
 30
0.0
 11
11257.75109927067
 21
-1157.548683368075
 31
0.0
  0
LINE
  5
256
330
25
100
AcDbEntity
  8
1
  6
Continuous
 62
     0
100
AcDbLine
 10
11251.35109927066
 20
-1157.229683368074
 30
0.0
 11
11248.85109927066
 21
-1157.229683368074
 31
0.0
  0
LINE
  5
255
330
25
100
AcDbEntity
  8
1
  6
Continuous
 62
     0
100
AcDbLine
 10
11248.85109927066
 20
-1174.529683368074
 30
0.0
 11
11251.35109927066
 21
-1174.529683368074
 31
0.0
  0
LINE
  5
254
330
25
100
AcDbEntity
  8
1
  6
Continuous
 62
     0
100
AcDbLine
 10
11251.35109927066
 20
-1174.529683368074
 30
0.0
 11
11251.35109927066
 21
-1157.229683368074
 31
0.0
  0
LINE
  5
253
330
25
100
AcDbEntity
  8
1
  6
Continuous
 62
     0
100
AcDbLine
 10
11248.85109927066
 20
-1157.229683368074
 30
0.0
 11
11248.85109927066
 21
-1174.529683368074
 31
0.0
  0
LINE
  5
252
330
25
100
AcDbEntity
  8
1
  6
Continuous
 62
     0
100
AcDbLine
 10
11189.61157000701
 20
-1157.229683368074
 30
0.0
 11
11189.61157000701
 21
-1174.529683368074
 31
0.0
  0
LINE
  5
251
330
25
100
AcDbEntity
  8
1
  6
Continuous
 62
     0
100
AcDbLine
 10
11192.11157000701
 20
-1174.529683368074
 30
0.0
 11
11192.11157000701
 21
-1157.229683368074
 31
0.0
  0
LINE
  5
250
330
25
100
AcDbEntity
  8
1
  6
Continuous
 62
     0
100
AcDbLine
 10
11189.61157000701
 20
-1174.529683368074
 30
0.0
 11
11192.11157000701
 21
-1174.529683368074
 31
0.0
  0
LINE
  5
24F
330
25
100
AcDbEntity
  8
1
  6
Continuous
 62
     0
100
AcDbLine
 10
11192.11157000701
 20
-1157.229683368074
 30
0.0
 11
11189.61157000701
 21
-1157.229683368074
 31
0.0
  0
LINE
  5
24E
330
25
100
AcDbEntity
  8
1
  6
Continuous
 62
     0
100
AcDbLine
 10
11192.11157000701
 20
-1157.229683368074
 30
0.0
 11
11198.51157000702
 21
-1157.548683368075
 31
0.0
  0
LINE
  5
24D
330
25
100
AcDbEntity
  8
1
  6
Continuous
 62
     0
100
AcDbLine
 10
11189.61157000701
 20
-1174.529683368074
 30
0.0
 11
11183.21157000701
 21
-1174.210683368074
 31
0.0
  0
LINE
  5
24C
330
25
100
AcDbEntity
  8
1
  6
Continuous
 62
     0
100
AcDbLine
 10
11183.21157000701
 20
-1157.548683368075
 30
0.0
 11
11189.61157000701
 21
-1157.229683368074
 31
0.0
  0
LINE
  5
24B
330
25
100
AcDbEntity
  8
1
  6
Continuous
 62
     0
100
AcDbLine
 10
11198.51157000702
 20
-1174.210683368074
 30
0.0
 11
11192.11157000701
 21
-1174.529683368074
 31
0.0
  0
LINE
  5
24A
330
25
100
AcDbEntity
  8
1
  6
Continuous
 62
     0
100
AcDbLine
 10
11257.75109927067
 20
-1155.229683368074
 30
0.0
 11
11257.75109927067
 21
-1176.529683368074
 31
0.0
  0
LINE
  5
249
330
25
100
AcDbEntity
  8
1
  6
Continuous
 62
     0
100
AcDbLine
 10
11272.75109927067
 20
-1176.529683368074
 30
0.0
 11
11257.75109927067
 21
-1176.529683368074
 31
0.0
  0
LINE
  5
248
330
25
100
AcDbEntity
  8
1
  6
Continuous
 62
     0
100
AcDbLine
 10
11272.75109927067
 20
-1155.229683368074
 30
0.0
 11
11257.75109927067
 21
-1155.229683368074
 31
0.0
  0
LINE
  5
247
330
25
100
AcDbEntity
  8
1
  6
Continuous
 62
     0
100
AcDbLine
 10
14388.23754702505
 20
-1840.879683368074
 30
0.0
 11
14388.23754702505
 21
-1961.879683368074
 31
0.0
  0
LINE
  5
246
330
25
100
AcDbEntity
  8
1
  6
Continuous
 62
     0
100
AcDbLine
 10
14393.23754702505
 20
-1682.879683368074
 30
0.0
 11
14393.23754702505
 21
-1840.879683368074
 31
0.0
  0
LINE
  5
245
330
25
100
AcDbEntity
  8
1
  6
Continuous
 62
     0
100
AcDbLine
 10
14403.23754702505
 20
-1682.879683368074
 30
0.0
 11
14403.23754702505
 21
-1840.879683368074
 31
0.0
  0
LINE
  5
243
330
25
100
AcDbEntity
  8
1
  6
Continuous
 62
     0
100
AcDbLine
 10
14403.23754702505
 20
-1840.879683368074
 30
0.0
 11
14388.23754702505
 21
-1840.879683368074
 31
0.0
  0
LINE
  5
242
330
25
100
AcDbEntity
  8
1
  6
Continuous
 62
     0
100
AcDbLine
 10
14403.23754702505
 20
-1682.879683368074
 30
0.0
 11
14388.23754702505
 21
-1682.879683368074
 31
0.0
  0
LINE
  5
241
330
25
100
AcDbEntity
  8
1
  6
Continuous
 62
     0
100
AcDbLine
 10
13922.98754702505
 20
-431.062470924202
 30
0.0
 11
13917.88700353703
 21
-431.6196849439
 31
0.0
  0
LINE
  5
240
330
25
100
AcDbEntity
  8
1
  6
Continuous
 62
     0
100
AcDbLine
 10
13922.98754702505
 20
-389.129683368075
 30
0.0
 11
13922.98754702505
 21
-440.476575148239
 31
0.0
  0
LINE
  5
23F
330
25
100
AcDbEntity
  8
1
  6
Continuous
 62
     0
100
AcDbLine
 10
13935.48754702505
 20
-389.129683368075
 30
0.0
 11
13935.48754702505
 21
-440.476575148239
 31
0.0
  0
LINE
  5
23E
330
25
100
AcDbEntity
  8
1
  6
Continuous
 62
     0
100
AcDbLine
 10
13470.23754702505
 20
-1982.951352265233
 30
0.0
 11
13470.23754702505
 21
-1961.879683368074
 31
0.0
  0
LINE
  5
23D
330
25
100
AcDbEntity
  8
1
  6
Continuous
 62
     0
100
AcDbLine
 10
14388.23754702505
 20
-1961.879683368074
 30
0.0
 11
14388.23754702505
 21
-1982.951352265233
 31
0.0
  0
LINE
  5
23C
330
25
100
AcDbEntity
  8
1
  6
Continuous
 62
     0
100
AcDbLine
 10
14388.23754702505
 20
-1961.879683368074
 30
0.0
 11
13470.23754702505
 21
-1961.879683368074
 31
0.0
  0
LINE
  5
23B
330
25
100
AcDbEntity
  8
1
  6
Continuous
 62
     0
100
AcDbLine
 10
13470.23754702505
 20
-651.879683368075
 30
0.0
 11
14388.23754702505
 21
-651.879683368075
 31
0.0
  0
LINE
  5
23A
330
25
100
AcDbEntity
  8
1
  6
Continuous
 62
     0
100
AcDbLine
 10
14388.23754702505
 20
-630.808014470915
 30
0.0
 11
14388.23754702505
 21
-651.879683368075
 31
0.0
  0
LINE
  5
239
330
25
100
AcDbEntity
  8
1
  6
Continuous
 62
     0
100
AcDbLine
 10
13470.23754702505
 20
-651.879683368075
 30
0.0
 11
13470.23754702505
 21
-630.808014470915
 31
0.0
  0
LINE
  5
237
330
25
100
AcDbEntity
  8
1
  6
Continuous
 62
     0
100
AcDbLine
 10
13470.23754702505
 20
-651.879683368075
 30
0.0
 11
13470.23754702505
 21
-1813.263710687077
 31
0.0
  0
LINE
  5
236
330
25
100
AcDbEntity
  8
1
  6
Continuous
 62
     0
100
AcDbLine
 10
13479.23754702505
 20
-2459.879683368075
 30
0.0
 11
14379.23754702505
 21
-2459.879683368075
 31
0.0
  0
LINE
  5
235
330
25
100
AcDbEntity
  8
1
  6
Continuous
 62
     0
100
AcDbLine
 10
14379.23754702505
 20
-2459.879683368075
 30
0.0
 11
14379.23754702505
 21
-2465.879683368075
 31
0.0
  0
LINE
  5
234
330
25
100
AcDbEntity
  8
1
  6
Continuous
 62
     0
100
AcDbLine
 10
14379.23754702505
 20
-2465.879683368075
 30
0.0
 11
13479.23754702505
 21
-2465.879683368075
 31
0.0
  0
LINE
  5
233
330
25
100
AcDbEntity
  8
1
  6
Continuous
 62
     0
100
AcDbLine
 10
13479.23754702505
 20
-2465.879683368075
 30
0.0
 11
13479.23754702505
 21
-2459.879683368075
 31
0.0
  0
LINE
  5
232
330
25
100
AcDbEntity
  8
1
  6
Continuous
 62
     0
100
AcDbLine
 10
14254.23754702505
 20
-2105.794284491179
 30
0.0
 11
13604.23754702505
 21
-2105.794284491179
 31
0.0
  0
LINE
  5
231
330
25
100
AcDbEntity
  8
1
  6
Continuous
 62
     0
100
AcDbLine
 10
13604.23754702505
 20
-2105.794284491179
 30
0.0
 11
13604.23754702505
 21
-2165.879683368075
 31
0.0
  0
LINE
  5
230
330
25
100
AcDbEntity
  8
1
  6
Continuous
 62
     0
100
AcDbLine
 10
14029.23754702505
 20
-2265.879683368074
 30
0.0
 11
14029.23754702505
 21
-2459.879683368075
 31
0.0
  0
LINE
  5
22F
330
25
100
AcDbEntity
  8
1
  6
Continuous
 62
     0
100
AcDbLine
 10
13829.23754702505
 20
-2265.879683368074
 30
0.0
 11
13829.23754702505
 21
-2459.879683368075
 31
0.0
  0
LINE
  5
22E
330
25
100
AcDbEntity
  8
1
  6
Continuous
 62
     0
100
AcDbLine
 10
13916.03754702505
 20
-2175.879683368074
 30
0.0
 11
13942.43754702505
 21
-2175.879683368074
 31
0.0
  0
LINE
  5
22D
330
25
100
AcDbEntity
  8
1
  6
Continuous
 62
     0
100
AcDbLine
 10
13942.43754702505
 20
-2175.879683368074
 30
0.0
 11
13942.43754702505
 21
-2166.754711741345
 31
0.0
  0
LINE
  5
22C
330
25
100
AcDbEntity
  8
1
  6
Continuous
 62
     0
100
AcDbLine
 10
13916.03754702505
 20
-2175.879683368074
 30
0.0
 11
13916.03754702505
 21
-2166.754711741345
 31
0.0
  0
LINE
  5
22B
330
25
100
AcDbEntity
  8
1
  6
DOTTED
 62
     0
100
AcDbLine
 10
13942.43754702505
 20
-2166.754711741345
 30
0.0
 11
13942.43754702505
 21
-2165.783836730793
 31
0.0
  0
LINE
  5
22A
330
25
100
AcDbEntity
  8
1
  6
DOTTED
 62
     0
100
AcDbLine
 10
13916.03754702505
 20
-2166.754711741345
 30
0.0
 11
13916.03754702505
 21
-2165.783836730793
 31
0.0
  0
LINE
  5
229
330
25
100
AcDbEntity
  8
1
  6
Continuous
 62
     0
100
AcDbLine
 10
13470.23754702505
 20
-1806.879683368074
 30
0.0
 11
13470.23754702505
 21
-1961.879683368074
 31
0.0
  0
LINE
  5
228
330
25
100
AcDbEntity
  8
1
  6
Continuous
 62
     0
100
AcDbLine
 10
13620.00462510372
 20
-2236.47475743172
 30
0.0
 11
13620.00462510372
 21
-2459.879683368075
 31
0.0
  0
LINE
  5
227
330
25
100
AcDbEntity
  8
1
  6
Continuous
 62
     0
100
AcDbLine
 10
14238.47046894637
 20
-2459.879683368075
 30
0.0
 11
14238.47046894637
 21
-2236.47475743172
 31
0.0
  0
LINE
  5
226
330
25
100
AcDbEntity
  8
1
  6
Continuous
 62
     0
100
AcDbLine
 10
14254.23754702505
 20
-2165.879683368075
 30
0.0
 11
14254.23754702505
 21
-2105.794284491179
 31
0.0
  0
LINE
  5
225
330
25
100
AcDbEntity
  8
1
  6
Continuous
 62
     0
100
AcDbLine
 10
14388.23754702505
 20
-1206.879683368074
 30
0.0
 11
14388.23754702505
 21
-1682.879683368074
 31
0.0
  0
LINE
  5
222
330
25
100
AcDbEntity
  8
1
  6
Continuous
 62
     0
100
AcDbLine
 10
13914.23754702505
 20
-442.879683368075
 30
0.0
 11
13914.45073333524
 21
-441.032491499156
 31
0.0
  0
LINE
  5
221
330
25
100
AcDbEntity
  8
1
  6
Continuous
 62
     0
100
AcDbLine
 10
13940.58809051306
 20
-431.6196849439
 30
0.0
 11
13935.48754702505
 21
-431.062470924202
 31
0.0
  0
LINE
  5
220
330
25
100
AcDbEntity
  8
1
  6
Continuous
 62
     0
100
AcDbLine
 10
13944.02436071485
 20
-441.032491499156
 30
0.0
 11
13944.23754702505
 21
-442.879683368075
 31
0.0
  0
LINE
  5
21F
330
25
100
AcDbEntity
  8
1
  6
Continuous
 62
     0
100
AcDbLine
 10
13914.23754702505
 20
-442.879683368075
 30
0.0
 11
13914.23754702505
 21
-447.879683368075
 31
0.0
  0
LINE
  5
21E
330
25
100
AcDbEntity
  8
1
  6
Continuous
 62
     0
100
AcDbLine
 10
13944.23754702505
 20
-442.879683368075
 30
0.0
 11
13944.23754702505
 21
-447.879683368075
 31
0.0
  0
LINE
  5
21D
330
25
100
AcDbEntity
  8
1
  6
Continuous
 62
     0
100
AcDbLine
 10
13914.38638490438
 20
-441.590050275556
 30
0.0
 11
13915.23258532763
 21
-434.257991571112
 31
0.0
  0
LINE
  5
21C
330
25
100
AcDbEntity
  8
1
  6
Continuous
 62
     0
100
AcDbLine
 10
13943.24250872246
 20
-434.257991571112
 30
0.0
 11
13944.02436071485
 21
-441.032491499156
 31
0.0
  0
LINE
  5
21B
330
25
100
AcDbEntity
  8
1
  6
Continuous
 62
     0
100
AcDbLine
 10
13914.23754702505
 20
-442.879683368075
 30
0.0
 11
13944.23754702505
 21
-442.879683368075
 31
0.0
  0
LINE
  5
216
330
25
100
AcDbEntity
  8
1
  6
Continuous
 62
     0
100
AcDbLine
 10
11716.75109927067
 20
-442.879683368075
 30
0.0
 11
11746.75109927067
 21
-442.879683368075
 31
0.0
  0
LINE
  5
215
330
25
100
AcDbEntity
  8
1
  6
Continuous
 62
     0
100
AcDbLine
 10
11745.75606096808
 20
-434.257991571112
 30
0.0
 11
11746.53791296047
 21
-441.032491499156
 31
0.0
  0
LINE
  5
214
330
25
100
AcDbEntity
  8
1
  6
Continuous
 62
     0
100
AcDbLine
 10
11716.89993715
 20
-441.590050275556
 30
0.0
 11
11717.74613757325
 21
-434.257991571112
 31
0.0
  0
LINE
  5
213
330
25
100
AcDbEntity
  8
1
  6
Continuous
 62
     0
100
AcDbLine
 10
11723.7591363427
 20
-431.879683368075
 30
0.0
 11
11736.98267270029
 21
-431.879683368075
 31
0.0
  0
LINE
  5
212
330
25
100
AcDbEntity
  8
1
  6
Continuous
 62
     0
100
AcDbLine
 10
11746.75109927067
 20
-442.879683368075
 30
0.0
 11
11746.75109927067
 21
-447.879683368075
 31
0.0
  0
LINE
  5
211
330
25
100
AcDbEntity
  8
1
  6
Continuous
 62
     0
100
AcDbLine
 10
11716.75109927067
 20
-442.879683368075
 30
0.0
 11
11716.75109927067
 21
-447.879683368075
 31
0.0
  0
LINE
  5
210
330
25
100
AcDbEntity
  8
1
  6
Continuous
 62
     0
100
AcDbLine
 10
11746.53791296047
 20
-441.032491499156
 30
0.0
 11
11746.75109927067
 21
-442.879683368075
 31
0.0
  0
LINE
  5
20F
330
25
100
AcDbEntity
  8
1
  6
Continuous
 62
     0
100
AcDbLine
 10
11743.10164275868
 20
-431.6196849439
 30
0.0
 11
11731.75109927067
 21
-430.379683368075
 31
0.0
  0
LINE
  5
20E
330
25
100
AcDbEntity
  8
1
  6
Continuous
 62
     0
100
AcDbLine
 10
11731.75109927067
 20
-430.379683368075
 30
0.0
 11
11720.40055578265
 21
-431.6196849439
 31
0.0
  0
LINE
  5
20D
330
25
100
AcDbEntity
  8
1
  6
Continuous
 62
     0
100
AcDbLine
 10
11716.75109927067
 20
-442.879683368075
 30
0.0
 11
11716.96428558085
 21
-441.032491499156
 31
0.0
  0
LINE
  5
20B
330
25
100
AcDbEntity
  8
1
  6
Continuous
 62
     0
100
AcDbLine
 10
12190.75109927067
 20
-1206.879683368074
 30
0.0
 11
12190.75109927066
 21
-1961.879683368074
 31
0.0
  0
LINE
  5
20A
330
25
100
AcDbEntity
  8
1
  6
Continuous
 62
     0
100
AcDbLine
 10
12190.75109927067
 20
-1124.879683368074
 30
0.0
 11
12210.75109927067
 21
-1124.879683368074
 31
0.0
  0
LINE
  5
209
330
25
100
AcDbEntity
  8
1
  6
Continuous
 62
     0
100
AcDbLine
 10
12190.75109927067
 20
-1206.879683368074
 30
0.0
 11
12210.75109927067
 21
-1206.879683368074
 31
0.0
  0
LINE
  5
208
330
25
100
AcDbEntity
  8
1
  6
Continuous
 62
     0
100
AcDbLine
 10
12210.75109927067
 20
-1206.879683368074
 30
0.0
 11
12210.75109927067
 21
-1124.879683368074
 31
0.0
  0
LINE
  5
207
330
25
100
AcDbEntity
  8
1
  6
Continuous
 62
     0
100
AcDbLine
 10
12056.75109927067
 20
-2165.879683368075
 30
0.0
 11
12056.75109927067
 21
-2105.794284491179
 31
0.0
  0
LINE
  5
206
330
25
100
AcDbEntity
  8
1
  6
Continuous
 62
     0
100
AcDbLine
 10
12040.98402119199
 20
-2459.879683368075
 30
0.0
 11
12040.98402119199
 21
-2236.47475743172
 31
0.0
  0
LINE
  5
205
330
25
100
AcDbEntity
  8
1
  6
Continuous
 62
     0
100
AcDbLine
 10
11422.51817734934
 20
-2236.47475743172
 30
0.0
 11
11422.51817734934
 21
-2459.879683368075
 31
0.0
  0
LINE
  5
204
330
25
100
AcDbEntity
  8
1
  6
Continuous
 62
     0
100
AcDbLine
 10
11272.75109927067
 20
-1806.879683368074
 30
0.0
 11
11272.75109927067
 21
-1961.879683368074
 31
0.0
  0
LINE
  5
201
330
25
100
AcDbEntity
  8
1
  6
Continuous
 62
     0
100
AcDbLine
 10
11252.75109927067
 20
-1724.879683368074
 30
0.0
 11
11252.75109927067
 21
-1806.879683368074
 31
0.0
  0
LINE
  5
200
330
25
100
AcDbEntity
  8
1
  6
Continuous
 62
     0
100
AcDbLine
 10
11252.75109927067
 20
-1806.879683368074
 30
0.0
 11
11272.75109927067
 21
-1806.879683368074
 31
0.0
  0
LINE
  5
1FF
330
25
100
AcDbEntity
  8
1
  6
Continuous
 62
     0
100
AcDbLine
 10
11252.75109927067
 20
-1724.879683368074
 30
0.0
 11
11272.75109927067
 21
-1724.879683368074
 31
0.0
  0
LINE
  5
1FD
330
25
100
AcDbEntity
  8
1
  6
DOTTED
 62
     0
100
AcDbLine
 10
11718.55109927066
 20
-2166.754711741345
 30
0.0
 11
11718.55109927066
 21
-2165.783836730793
 31
0.0
  0
LINE
  5
1FC
330
25
100
AcDbEntity
  8
1
  6
DOTTED
 62
     0
100
AcDbLine
 10
11744.95109927067
 20
-2166.754711741345
 30
0.0
 11
11744.95109927067
 21
-2165.783836730793
 31
0.0
  0
LINE
  5
1FB
330
25
100
AcDbEntity
  8
1
  6
Continuous
 62
     0
100
AcDbLine
 10
11718.55109927066
 20
-2175.879683368074
 30
0.0
 11
11718.55109927066
 21
-2166.754711741345
 31
0.0
  0
LINE
  5
1FA
330
25
100
AcDbEntity
  8
1
  6
Continuous
 62
     0
100
AcDbLine
 10
11744.95109927067
 20
-2175.879683368074
 30
0.0
 11
11744.95109927067
 21
-2166.754711741345
 31
0.0
  0
LINE
  5
1F9
330
25
100
AcDbEntity
  8
1
  6
Continuous
 62
     0
100
AcDbLine
 10
11718.55109927066
 20
-2175.879683368074
 30
0.0
 11
11744.95109927067
 21
-2175.879683368074
 31
0.0
  0
LINE
  5
1F8
330
25
100
AcDbEntity
  8
1
  6
Continuous
 62
     0
100
AcDbLine
 10
11631.75109927067
 20
-2265.879683368074
 30
0.0
 11
11631.75109927067
 21
-2459.879683368075
 31
0.0
  0
LINE
  5
1F7
330
25
100
AcDbEntity
  8
1
  6
Continuous
 62
     0
100
AcDbLine
 10
11831.75109927066
 20
-2265.879683368074
 30
0.0
 11
11831.75109927066
 21
-2459.879683368075
 31
0.0
  0
LINE
  5
1F6
330
25
100
AcDbEntity
  8
1
  6
Continuous
 62
     0
100
AcDbLine
 10
11406.75109927067
 20
-2105.794284491179
 30
0.0
 11
11406.75109927067
 21
-2165.879683368075
 31
0.0
  0
LINE
  5
1F5
330
25
100
AcDbEntity
  8
1
  6
Continuous
 62
     0
100
AcDbLine
 10
12056.75109927067
 20
-2105.794284491179
 30
0.0
 11
11406.75109927067
 21
-2105.794284491179
 31
0.0
  0
LINE
  5
1F4
330
25
100
AcDbEntity
  8
1
  6
Continuous
 62
     0
100
AcDbLine
 10
11281.75109927067
 20
-2465.879683368075
 30
0.0
 11
11281.75109927067
 21
-2459.879683368075
 31
0.0
  0
LINE
  5
1F3
330
25
100
AcDbEntity
  8
1
  6
Continuous
 62
     0
100
AcDbLine
 10
12181.75109927067
 20
-2465.879683368075
 30
0.0
 11
11281.75109927067
 21
-2465.879683368075
 31
0.0
  0
LINE
  5
1F2
330
25
100
AcDbEntity
  8
1
  6
Continuous
 62
     0
100
AcDbLine
 10
12181.75109927067
 20
-2459.879683368075
 30
0.0
 11
12181.75109927067
 21
-2465.879683368075
 31
0.0
  0
LINE
  5
1F1
330
25
100
AcDbEntity
  8
1
  6
Continuous
 62
     0
100
AcDbLine
 10
11281.75109927067
 20
-2459.879683368075
 30
0.0
 11
12181.75109927067
 21
-2459.879683368075
 31
0.0
  0
LINE
  5
1F0
330
25
100
AcDbEntity
  8
1
  6
Continuous
 62
     0
100
AcDbLine
 10
11272.75109927067
 20
-651.879683368075
 30
0.0
 11
11272.75109927067
 21
-1724.879683368074
 31
0.0
  0
LINE
  5
1EF
330
25
100
AcDbEntity
  8
1
  6
Continuous
 62
     0
100
AcDbLine
 10
12190.75109927066
 20
-651.879683368075
 30
0.0
 11
12190.75109927067
 21
-1124.879683368074
 31
0.0
  0
LINE
  5
1EE
330
25
100
AcDbEntity
  8
1
  6
Continuous
 62
     0
100
AcDbLine
 10
11272.75109927067
 20
-651.879683368075
 30
0.0
 11
11272.75109927067
 21
-630.808014470915
 31
0.0
  0
LINE
  5
1ED
330
25
100
AcDbEntity
  8
1
  6
Continuous
 62
     0
100
AcDbLine
 10
12190.75109927066
 20
-630.808014470915
 30
0.0
 11
12190.75109927066
 21
-651.879683368075
 31
0.0
  0
LINE
  5
1EC
330
25
100
AcDbEntity
  8
1
  6
Continuous
 62
     0
100
AcDbLine
 10
11272.75109927067
 20
-651.879683368075
 30
0.0
 11
12190.75109927066
 21
-651.879683368075
 31
0.0
  0
LINE
  5
1EB
330
25
100
AcDbEntity
  8
1
  6
Continuous
 62
     0
100
AcDbLine
 10
12190.75109927066
 20
-1961.879683368074
 30
0.0
 11
11272.75109927067
 21
-1961.879683368074
 31
0.0
  0
LINE
  5
1EA
330
25
100
AcDbEntity
  8
1
  6
Continuous
 62
     0
100
AcDbLine
 10
12190.75109927066
 20
-1961.879683368074
 30
0.0
 11
12190.75109927066
 21
-1982.951352265233
 31
0.0
  0
LINE
  5
1E9
330
25
100
AcDbEntity
  8
1
  6
Continuous
 62
     0
100
AcDbLine
 10
11272.75109927067
 20
-1982.951352265233
 30
0.0
 11
11272.75109927067
 21
-1961.879683368074
 31
0.0
  0
LINE
  5
1E8
330
25
100
AcDbEntity
  8
1
  6
Continuous
 62
     0
100
AcDbLine
 10
13450.23754702505
 20
-1199.029683368074
 30
0.0
 11
13450.23754702505
 21
-1132.729683368074
 31
0.0
  0
LINE
  5
1E7
330
25
100
AcDbEntity
  8
1
  6
Continuous
 62
     0
100
AcDbLine
 10
13470.23754702505
 20
-1199.029683368074
 30
0.0
 11
13450.23754702505
 21
-1199.029683368074
 31
0.0
  0
LINE
  5
1E6
330
25
100
AcDbEntity
  8
1
  6
Continuous
 62
     0
100
AcDbLine
 10
13470.23754702505
 20
-1132.729683368074
 30
0.0
 11
13450.23754702505
 21
-1132.729683368074
 31
0.0
  0
LINE
  5
1E3
330
25
100
AcDbEntity
  8
1
  6
Continuous
 62
     0
100
AcDbLine
 10
14420.23754702505
 20
-1692.137212586119
 30
0.0
 11
14419.16575025532
 21
-1690.280806125568
 31
0.0
  0
LINE
  5
1E2
330
25
100
AcDbEntity
  8
1
  6
Continuous
 62
     0
100
AcDbLine
 10
14419.16575025532
 20
-1717.99361904667
 30
0.0
 11
14420.23754702505
 21
-1716.137212586119
 31
0.0
  0
LINE
  5
1E1
330
25
100
AcDbEntity
  8
1
  6
Continuous
 62
     0
100
AcDbLine
 10
14410.23754702505
 20
-1717.99361904667
 30
0.0
 11
14419.16575025532
 21
-1717.99361904667
 31
0.0
  0
LINE
  5
1E0
330
25
100
AcDbEntity
  8
1
  6
Continuous
 62
     0
100
AcDbLine
 10
14420.23754702505
 20
-1716.137212586119
 30
0.0
 11
14420.23754702505
 21
-1692.137212586119
 31
0.0
  0
LINE
  5
1DF
330
25
100
AcDbEntity
  8
1
  6
Continuous
 62
     0
100
AcDbLine
 10
14419.16575025532
 20
-1690.280806125568
 30
0.0
 11
14410.23754702505
 21
-1690.280806125568
 31
0.0
  0
LINE
  5
1DE
330
25
100
AcDbEntity
  8
1
  6
Continuous
 62
     0
100
AcDbLine
 10
14410.23754702505
 20
-1711.065415816395
 30
0.0
 11
14419.16575025532
 21
-1711.065415816395
 31
0.0
  0
LINE
  5
1DD
330
25
100
AcDbEntity
  8
1
  6
Continuous
 62
     0
100
AcDbLine
 10
14410.23754702505
 20
-1697.209009355843
 30
0.0
 11
14419.16575025532
 21
-1697.209009355843
 31
0.0
  0
LINE
  5
1DC
330
25
100
AcDbEntity
  8
1
  6
Continuous
 62
     0
100
AcDbLine
 10
14406.23754702505
 20
-1718.137212586119
 30
0.0
 11
14410.23754702505
 21
-1718.137212586119
 31
0.0
  0
LINE
  5
1DB
330
25
100
AcDbEntity
  8
1
  6
Continuous
 62
     0
100
AcDbLine
 10
14410.23754702505
 20
-1718.137212586119
 30
0.0
 11
14410.23754702505
 21
-1690.137212586119
 31
0.0
  0
LINE
  5
1DA
330
25
100
AcDbEntity
  8
1
  6
Continuous
 62
     0
100
AcDbLine
 10
14410.23754702505
 20
-1690.137212586119
 30
0.0
 11
14406.23754702505
 21
-1690.137212586119
 31
0.0
  0
LINE
  5
1D9
330
25
100
AcDbEntity
  8
1
  6
Continuous
 62
     0
100
AcDbLine
 10
14410.23754702505
 20
-1705.070545919452
 30
0.0
 11
14406.23754702505
 21
-1706.21340306231
 31
0.0
  0
LINE
  5
1D8
330
25
100
AcDbEntity
  8
1
  6
Continuous
 62
     0
100
AcDbLine
 10
14410.23754702505
 20
-1702.061022109928
 30
0.0
 11
14406.23754702505
 21
-1703.203879252786
 31
0.0
  0
LINE
  5
1D7
330
25
100
AcDbEntity
  8
1
  6
Continuous
 62
     0
100
AcDbLine
 10
14403.23754702505
 20
-1719.137212586119
 30
0.0
 11
14406.23754702505
 21
-1719.137212586119
 31
0.0
  0
LINE
  5
1D6
330
25
100
AcDbEntity
  8
1
  6
Continuous
 62
     0
100
AcDbLine
 10
14406.23754702505
 20
-1719.137212586119
 30
0.0
 11
14406.23754702505
 21
-1689.137212586119
 31
0.0
  0
LINE
  5
1D5
330
25
100
AcDbEntity
  8
1
  6
Continuous
 62
     0
100
AcDbLine
 10
14406.23754702505
 20
-1689.137212586119
 30
0.0
 11
14403.23754702505
 21
-1689.137212586119
 31
0.0
  0
LINE
  5
1D4
330
25
100
AcDbEntity
  8
1
  6
Continuous
 62
     0
100
AcDbLine
 10
14403.23754702505
 20
-1689.137212586119
 30
0.0
 11
14403.23754702505
 21
-1719.137212586119
 31
0.0
  0
LINE
  5
1D1
330
25
100
AcDbEntity
  8
1
  6
Continuous
 62
     0
100
AcDbLine
 10
14403.23754702505
 20
-1722.961968845256
 30
0.0
 11
14403.23754702505
 21
-1752.961968845256
 31
0.0
  0
LINE
  5
1D0
330
25
100
AcDbEntity
  8
1
  6
Continuous
 62
     0
100
AcDbLine
 10
14406.23754702505
 20
-1722.961968845256
 30
0.0
 11
14403.23754702505
 21
-1722.961968845256
 31
0.0
  0
LINE
  5
1CF
330
25
100
AcDbEntity
  8
1
  6
Continuous
 62
     0
100
AcDbLine
 10
14406.23754702505
 20
-1752.961968845256
 30
0.0
 11
14406.23754702505
 21
-1722.961968845256
 31
0.0
  0
LINE
  5
1CE
330
25
100
AcDbEntity
  8
1
  6
Continuous
 62
     0
100
AcDbLine
 10
14403.23754702505
 20
-1752.961968845256
 30
0.0
 11
14406.23754702505
 21
-1752.961968845256
 31
0.0
  0
LINE
  5
1CD
330
25
100
AcDbEntity
  8
1
  6
Continuous
 62
     0
100
AcDbLine
 10
14410.23754702505
 20
-1735.885778369066
 30
0.0
 11
14406.23754702505
 21
-1737.028635511923
 31
0.0
  0
LINE
  5
1CC
330
25
100
AcDbEntity
  8
1
  6
Continuous
 62
     0
100
AcDbLine
 10
14410.23754702505
 20
-1738.895302178589
 30
0.0
 11
14406.23754702505
 21
-1740.038159321447
 31
0.0
  0
LINE
  5
1CB
330
25
100
AcDbEntity
  8
1
  6
Continuous
 62
     0
100
AcDbLine
 10
14410.23754702505
 20
-1723.961968845256
 30
0.0
 11
14406.23754702505
 21
-1723.961968845256
 31
0.0
  0
LINE
  5
1CA
330
25
100
AcDbEntity
  8
1
  6
Continuous
 62
     0
100
AcDbLine
 10
14410.23754702505
 20
-1751.961968845256
 30
0.0
 11
14410.23754702505
 21
-1723.961968845256
 31
0.0
  0
LINE
  5
1C9
330
25
100
AcDbEntity
  8
1
  6
Continuous
 62
     0
100
AcDbLine
 10
14406.23754702505
 20
-1751.961968845256
 30
0.0
 11
14410.23754702505
 21
-1751.961968845256
 31
0.0
  0
LINE
  5
1C8
330
25
100
AcDbEntity
  8
1
  6
Continuous
 62
     0
100
AcDbLine
 10
14410.23754702505
 20
-1731.033765614981
 30
0.0
 11
14419.16575025532
 21
-1731.033765614981
 31
0.0
  0
LINE
  5
1C7
330
25
100
AcDbEntity
  8
1
  6
Continuous
 62
     0
100
AcDbLine
 10
14410.23754702505
 20
-1744.890172075532
 30
0.0
 11
14419.16575025532
 21
-1744.890172075532
 31
0.0
  0
LINE
  5
1C6
330
25
100
AcDbEntity
  8
1
  6
Continuous
 62
     0
100
AcDbLine
 10
14419.16575025532
 20
-1724.105562384705
 30
0.0
 11
14410.23754702505
 21
-1724.105562384705
 31
0.0
  0
LINE
  5
1C5
330
25
100
AcDbEntity
  8
1
  6
Continuous
 62
     0
100
AcDbLine
 10
14420.23754702505
 20
-1749.961968845256
 30
0.0
 11
14420.23754702505
 21
-1725.961968845256
 31
0.0
  0
LINE
  5
1C4
330
25
100
AcDbEntity
  8
1
  6
Continuous
 62
     0
100
AcDbLine
 10
14410.23754702505
 20
-1751.818375305807
 30
0.0
 11
14419.16575025532
 21
-1751.818375305807
 31
0.0
  0
LINE
  5
1C3
330
25
100
AcDbEntity
  8
1
  6
Continuous
 62
     0
100
AcDbLine
 10
14419.16575025532
 20
-1751.818375305807
 30
0.0
 11
14420.23754702505
 21
-1749.961968845256
 31
0.0
  0
LINE
  5
1C2
330
25
100
AcDbEntity
  8
1
  6
Continuous
 62
     0
100
AcDbLine
 10
14420.23754702505
 20
-1725.961968845256
 30
0.0
 11
14419.16575025532
 21
-1724.105562384705
 31
0.0
  0
LINE
  5
1C1
330
25
100
AcDbEntity
  8
1
  6
Continuous
 62
     0
100
AcDbLine
 10
14419.16575025532
 20
-1799.653804351444
 30
0.0
 11
14420.23754702505
 21
-1797.797397890892
 31
0.0
  0
LINE
  5
1C0
330
25
100
AcDbEntity
  8
1
  6
Continuous
 62
     0
100
AcDbLine
 10
14420.23754702505
 20
-1773.797397890892
 30
0.0
 11
14419.16575025532
 21
-1771.940991430342
 31
0.0
  0
LINE
  5
1BF
330
25
100
AcDbEntity
  8
1
  6
Continuous
 62
     0
100
AcDbLine
 10
14419.16575025532
 20
-1771.940991430342
 30
0.0
 11
14410.23754702505
 21
-1771.940991430342
 31
0.0
  0
LINE
  5
1BE
330
25
100
AcDbEntity
  8
1
  6
Continuous
 62
     0
100
AcDbLine
 10
14420.23754702505
 20
-1797.797397890892
 30
0.0
 11
14420.23754702505
 21
-1773.797397890892
 31
0.0
  0
LINE
  5
1BD
330
25
100
AcDbEntity
  8
1
  6
Continuous
 62
     0
100
AcDbLine
 10
14410.23754702505
 20
-1799.653804351444
 30
0.0
 11
14419.16575025532
 21
-1799.653804351444
 31
0.0
  0
LINE
  5
1BC
330
25
100
AcDbEntity
  8
1
  6
Continuous
 62
     0
100
AcDbLine
 10
14419.16575025532
 20
-1778.869194660617
 30
0.0
 11
14410.23754702505
 21
-1778.869194660617
 31
0.0
  0
LINE
  5
1BB
330
25
100
AcDbEntity
  8
1
  6
Continuous
 62
     0
100
AcDbLine
 10
14419.16575025532
 20
-1792.725601121168
 30
0.0
 11
14410.23754702505
 21
-1792.725601121168
 31
0.0
  0
LINE
  5
1BA
330
25
100
AcDbEntity
  8
1
  6
Continuous
 62
     0
100
AcDbLine
 10
14410.23754702505
 20
-1771.797397890892
 30
0.0
 11
14406.23754702505
 21
-1771.797397890892
 31
0.0
  0
LINE
  5
1B9
330
25
100
AcDbEntity
  8
1
  6
Continuous
 62
     0
100
AcDbLine
 10
14410.23754702505
 20
-1799.797397890892
 30
0.0
 11
14410.23754702505
 21
-1771.797397890892
 31
0.0
  0
LINE
  5
1B8
330
25
100
AcDbEntity
  8
1
  6
Continuous
 62
     0
100
AcDbLine
 10
14406.23754702505
 20
-1799.797397890892
 30
0.0
 11
14410.23754702505
 21
-1799.797397890892
 31
0.0
  0
LINE
  5
1B7
330
25
100
AcDbEntity
  8
1
  6
Continuous
 62
     0
100
AcDbLine
 10
14406.23754702505
 20
-1783.721207414702
 30
0.0
 11
14410.23754702505
 21
-1784.86406455756
 31
0.0
  0
LINE
  5
1B6
330
25
100
AcDbEntity
  8
1
  6
Continuous
 62
     0
100
AcDbLine
 10
14406.23754702505
 20
-1786.730731224226
 30
0.0
 11
14410.23754702505
 21
-1787.873588367083
 31
0.0
  0
LINE
  5
1B5
330
25
100
AcDbEntity
  8
1
  6
Continuous
 62
     0
100
AcDbLine
 10
14406.23754702505
 20
-1770.797397890892
 30
0.0
 11
14403.23754702505
 21
-1770.797397890892
 31
0.0
  0
LINE
  5
1B4
330
25
100
AcDbEntity
  8
1
  6
Continuous
 62
     0
100
AcDbLine
 10
14406.23754702505
 20
-1800.797397890892
 30
0.0
 11
14406.23754702505
 21
-1770.797397890892
 31
0.0
  0
LINE
  5
1B3
330
25
100
AcDbEntity
  8
1
  6
Continuous
 62
     0
100
AcDbLine
 10
14403.23754702505
 20
-1800.797397890892
 30
0.0
 11
14406.23754702505
 21
-1800.797397890892
 31
0.0
  0
LINE
  5
1B2
330
25
100
AcDbEntity
  8
1
  6
Continuous
 62
     0
100
AcDbLine
 10
14403.23754702505
 20
-1770.797397890892
 30
0.0
 11
14403.23754702505
 21
-1800.797397890892
 31
0.0
  0
LINE
  5
1AF
330
25
100
AcDbEntity
  8
1
  6
Continuous
 62
     0
100
AcDbLine
 10
14403.23754702505
 20
-1804.62215415003
 30
0.0
 11
14403.23754702505
 21
-1834.62215415003
 31
0.0
  0
LINE
  5
1AE
330
25
100
AcDbEntity
  8
1
  6
Continuous
 62
     0
100
AcDbLine
 10
14403.23754702505
 20
-1834.62215415003
 30
0.0
 11
14406.23754702505
 21
-1834.62215415003
 31
0.0
  0
LINE
  5
1AD
330
25
100
AcDbEntity
  8
1
  6
Continuous
 62
     0
100
AcDbLine
 10
14406.23754702505
 20
-1834.62215415003
 30
0.0
 11
14406.23754702505
 21
-1804.62215415003
 31
0.0
  0
LINE
  5
1AC
330
25
100
AcDbEntity
  8
1
  6
Continuous
 62
     0
100
AcDbLine
 10
14406.23754702505
 20
-1804.62215415003
 30
0.0
 11
14403.23754702505
 21
-1804.62215415003
 31
0.0
  0
LINE
  5
1AB
330
25
100
AcDbEntity
  8
1
  6
Continuous
 62
     0
100
AcDbLine
 10
14406.23754702505
 20
-1820.555487483363
 30
0.0
 11
14410.23754702505
 21
-1821.69834462622
 31
0.0
  0
LINE
  5
1AA
330
25
100
AcDbEntity
  8
1
  6
Continuous
 62
     0
100
AcDbLine
 10
14406.23754702505
 20
-1817.545963673839
 30
0.0
 11
14410.23754702505
 21
-1818.688820816696
 31
0.0
  0
LINE
  5
1A9
330
25
100
AcDbEntity
  8
1
  6
Continuous
 62
     0
100
AcDbLine
 10
14406.23754702505
 20
-1833.62215415003
 30
0.0
 11
14410.23754702505
 21
-1833.62215415003
 31
0.0
  0
LINE
  5
1A8
330
25
100
AcDbEntity
  8
1
  6
Continuous
 62
     0
100
AcDbLine
 10
14410.23754702505
 20
-1833.62215415003
 30
0.0
 11
14410.23754702505
 21
-1805.62215415003
 31
0.0
  0
LINE
  5
1A7
330
25
100
AcDbEntity
  8
1
  6
Continuous
 62
     0
100
AcDbLine
 10
14410.23754702505
 20
-1805.62215415003
 30
0.0
 11
14406.23754702505
 21
-1805.62215415003
 31
0.0
  0
LINE
  5
1A6
330
25
100
AcDbEntity
  8
1
  6
Continuous
 62
     0
100
AcDbLine
 10
14419.16575025532
 20
-1826.550357380306
 30
0.0
 11
14410.23754702505
 21
-1826.550357380306
 31
0.0
  0
LINE
  5
1A5
330
25
100
AcDbEntity
  8
1
  6
Continuous
 62
     0
100
AcDbLine
 10
14419.16575025532
 20
-1812.693950919754
 30
0.0
 11
14410.23754702505
 21
-1812.693950919754
 31
0.0
  0
LINE
  5
1A4
330
25
100
AcDbEntity
  8
1
  6
Continuous
 62
     0
100
AcDbLine
 10
14410.23754702505
 20
-1833.478560610581
 30
0.0
 11
14419.16575025532
 21
-1833.478560610581
 31
0.0
  0
LINE
  5
1A3
330
25
100
AcDbEntity
  8
1
  6
Continuous
 62
     0
100
AcDbLine
 10
14420.23754702505
 20
-1831.62215415003
 30
0.0
 11
14420.23754702505
 21
-1807.62215415003
 31
0.0
  0
LINE
  5
1A2
330
25
100
AcDbEntity
  8
1
  6
Continuous
 62
     0
100
AcDbLine
 10
14419.16575025532
 20
-1805.765747689479
 30
0.0
 11
14410.23754702505
 21
-1805.765747689479
 31
0.0
  0
LINE
  5
1A1
330
25
100
AcDbEntity
  8
1
  6
Continuous
 62
     0
100
AcDbLine
 10
14420.23754702505
 20
-1807.62215415003
 30
0.0
 11
14419.16575025532
 21
-1805.765747689479
 31
0.0
  0
LINE
  5
1A0
330
25
100
AcDbEntity
  8
1
  6
Continuous
 62
     0
100
AcDbLine
 10
14419.16575025532
 20
-1833.478560610581
 30
0.0
 11
14420.23754702505
 21
-1831.62215415003
 31
0.0
  0
LINE
  5
19F
330
25
100
AcDbEntity
  8
1
  6
Continuous
 62
     0
100
AcDbLine
 10
11721.27359927066
 20
-2193.559683368075
 30
0.0
 11
11720.90109927066
 21
-2186.219683368075
 31
0.0
  0
LINE
  5
19E
330
25
100
AcDbEntity
  8
1
  6
Continuous
 62
     0
100
AcDbLine
 10
11742.22859927066
 20
-2193.559683368075
 30
0.0
 11
11742.60109927066
 21
-2186.219683368075
 31
0.0
  0
LINE
  5
19D
330
25
100
AcDbEntity
  8
1
  6
Continuous
 62
     0
100
AcDbLine
 10
11742.60109927066
 20
-2183.219683368075
 30
0.0
 11
11742.22859927066
 21
-2175.879683368074
 31
0.0
  0
LINE
  5
19C
330
25
100
AcDbEntity
  8
1
  6
Continuous
 62
     0
100
AcDbLine
 10
11720.90109927066
 20
-2183.219683368075
 30
0.0
 11
11721.27359927066
 21
-2175.879683368074
 31
0.0
  0
LINE
  5
19B
330
25
100
AcDbEntity
  8
1
  6
Continuous
 62
     0
100
AcDbLine
 10
11720.90109927066
 20
-2183.219683368075
 30
0.0
 11
11720.90109927066
 21
-2186.219683368075
 31
0.0
  0
LINE
  5
19A
330
25
100
AcDbEntity
  8
1
  6
Continuous
 62
     0
100
AcDbLine
 10
11742.60109927066
 20
-2186.219683368075
 30
0.0
 11
11720.90109927066
 21
-2186.219683368075
 31
0.0
  0
LINE
  5
199
330
25
100
AcDbEntity
  8
1
  6
Continuous
 62
     0
100
AcDbLine
 10
11720.90109927066
 20
-2183.219683368075
 30
0.0
 11
11742.60109927066
 21
-2183.219683368075
 31
0.0
  0
LINE
  5
198
330
25
100
AcDbEntity
  8
1
  6
Continuous
 62
     0
100
AcDbLine
 10
11742.60109927066
 20
-2183.219683368075
 30
0.0
 11
11742.60109927066
 21
-2186.219683368075
 31
0.0
  0
LINE
  5
197
330
25
100
AcDbEntity
  8
1
  6
Continuous
 62
     0
100
AcDbLine
 10
11720.3848560004
 20
-2225.109683368075
 30
0.0
 11
11741.65109927066
 21
-2225.109683368075
 31
0.0
  0
LINE
  5
196
330
25
100
AcDbEntity
  8
1
  6
Continuous
 62
     0
100
AcDbLine
 10
11720.3848560004
 20
-2214.109683368075
 30
0.0
 11
11741.65109927066
 21
-2214.109683368075
 31
0.0
  0
LINE
  5
195
330
25
100
AcDbEntity
  8
1
  6
Continuous
 62
     0
100
AcDbLine
 10
11742.65109927066
 20
-2226.509683368074
 30
0.0
 11
11741.65109927066
 21
-2225.109683368075
 31
0.0
  0
LINE
  5
194
330
25
100
AcDbEntity
  8
1
  6
Continuous
 62
     0
100
AcDbLine
 10
11742.65109927066
 20
-2212.709683368074
 30
0.0
 11
11741.65109927066
 21
-2214.109683368075
 31
0.0
  0
LINE
  5
193
330
25
100
AcDbEntity
  8
1
  6
Continuous
 62
     0
100
AcDbLine
 10
11720.3848560004
 20
-2214.109683368075
 30
0.0
 11
11720.3848560004
 21
-2225.109683368075
 31
0.0
  0
LINE
  5
192
330
25
100
AcDbEntity
  8
1
  6
Continuous
 62
     0
100
AcDbLine
 10
11719.25109927067
 20
-2226.509683368074
 30
0.0
 11
11720.3848560004
 21
-2225.109683368075
 31
0.0
  0
LINE
  5
191
330
25
100
AcDbEntity
  8
1
  6
Continuous
 62
     0
100
AcDbLine
 10
11719.25109927067
 20
-2212.709683368074
 30
0.0
 11
11720.3848560004
 21
-2214.109683368075
 31
0.0
  0
LINE
  5
190
330
25
100
AcDbEntity
  8
1
  6
Continuous
 62
     0
100
AcDbLine
 10
11742.65109927066
 20
-2240.252182449863
 30
0.0
 11
11742.65109927066
 21
-2226.059683368074
 31
0.0
  0
LINE
  5
18F
330
25
100
AcDbEntity
  8
1
  6
Continuous
 62
     0
100
AcDbLine
 10
11742.65109927066
 20
-2203.367184286288
 30
0.0
 11
11742.65109927066
 21
-2215.559683368074
 31
0.0
  0
LINE
  5
18E
330
25
100
AcDbEntity
  8
1
  6
Continuous
 62
     0
100
AcDbLine
 10
11744.25109927067
 20
-2227.559683368075
 30
0.0
 11
11745.85109927066
 21
-2227.559683368075
 31
0.0
  0
LINE
  5
18D
330
25
100
AcDbEntity
  8
1
  6
Continuous
 62
     0
100
AcDbLine
 10
11744.25109927067
 20
-2214.559683368075
 30
0.0
 11
11745.85109927066
 21
-2214.559683368075
 31
0.0
  0
LINE
  5
18C
330
25
100
AcDbEntity
  8
1
  6
Continuous
 62
     0
100
AcDbLine
 10
11750.27974791931
 20
-2233.459683368074
 30
0.0
 11
11745.85109927066
 21
-2233.459683368074
 31
0.0
  0
LINE
  5
18B
330
25
100
AcDbEntity
  8
1
  6
Continuous
 62
     0
100
AcDbLine
 10
11754.75109927067
 20
-2251.059683368075
 30
0.0
 11
11750.05109927066
 21
-2232.559683368075
 31
0.0
  0
LINE
  5
18A
330
25
100
AcDbEntity
  8
1
  6
Continuous
 62
     0
100
AcDbLine
 10
11754.75109927067
 20
-2251.059683368075
 30
0.0
 11
11762.75109927067
 21
-2251.059683368075
 31
0.0
  0
LINE
  5
189
330
25
100
AcDbEntity
  8
1
  6
Continuous
 62
     0
100
AcDbLine
 10
11762.75109927067
 20
-2232.646313594333
 30
0.0
 11
11762.75109927067
 21
-2251.059683368075
 31
0.0
  0
LINE
  5
188
330
25
100
AcDbEntity
  8
1
  6
Continuous
 62
     0
100
AcDbLine
 10
11745.85109927066
 20
-2208.659683368076
 30
0.0
 11
11750.27974791931
 21
-2208.659683368076
 31
0.0
  0
LINE
  5
187
330
25
100
AcDbEntity
  8
1
  6
Continuous
 62
     0
100
AcDbLine
 10
11745.85109927066
 20
-2208.159683368076
 30
0.0
 11
11750.40677494635
 21
-2208.159683368076
 31
0.0
  0
LINE
  5
186
330
25
100
AcDbEntity
  8
1
  6
Continuous
 62
     0
100
AcDbLine
 10
11750.05109927066
 20
-2209.559683368075
 30
0.0
 11
11754.75109927067
 21
-2191.059683368075
 31
0.0
  0
LINE
  5
185
330
25
100
AcDbEntity
  8
1
  6
Continuous
 62
     0
100
AcDbLine
 10
11754.75109927067
 20
-2191.059683368075
 30
0.0
 11
11762.75109927067
 21
-2191.059683368075
 31
0.0
  0
LINE
  5
184
330
25
100
AcDbEntity
  8
1
  6
Continuous
 62
     0
100
AcDbLine
 10
11744.25109927067
 20
-2250.059683368073
 30
0.0
 11
11719.25109927067
 21
-2250.059683368074
 31
0.0
  0
LINE
  5
183
330
25
100
AcDbEntity
  8
1
  6
Continuous
 62
     0
100
AcDbLine
 10
11719.25109927067
 20
-2250.059683368074
 30
0.0
 11
11719.25109927067
 21
-2193.559683368074
 31
0.0
  0
LINE
  5
182
330
25
100
AcDbEntity
  8
1
  6
Continuous
 62
     0
100
AcDbLine
 10
11719.25109927067
 20
-2193.559683368074
 30
0.0
 11
11744.25109927067
 21
-2193.559683368075
 31
0.0
  0
LINE
  5
181
330
25
100
AcDbEntity
  8
1
  6
Continuous
 62
     0
100
AcDbLine
 10
11744.25109927067
 20
-2250.059683368073
 30
0.0
 11
11744.25109927067
 21
-2193.559683368075
 31
0.0
  0
LINE
  5
180
330
25
100
AcDbEntity
  8
1
  6
Continuous
 62
     0
100
AcDbLine
 10
11762.75109927067
 20
-2191.059683368075
 30
0.0
 11
11762.75109927067
 21
-2209.473053141818
 31
0.0
  0
LINE
  5
17F
330
25
100
AcDbEntity
  8
1
  6
Continuous
 62
     0
100
AcDbLine
 10
11750.05109927066
 20
-2232.559683368075
 30
0.0
 11
11750.05109927066
 21
-2209.559683368075
 31
0.0
  0
LINE
  5
17E
330
25
100
AcDbEntity
  8
1
  6
Continuous
 62
     0
100
AcDbLine
 10
11745.85109927066
 20
-2233.459683368074
 30
0.0
 11
11745.85109927066
 21
-2211.059683368075
 31
0.0
  0
LINE
  5
17D
330
25
100
AcDbEntity
  8
1
  6
Continuous
 62
     0
100
AcDbLine
 10
11745.85109927066
 20
-2208.159683368076
 30
0.0
 11
11745.85109927066
 21
-2211.059683368075
 31
0.0
  0
LINE
  5
17B
330
25
100
AcDbEntity
  8
1
  6
Continuous
 62
     0
100
AcDbLine
 10
11731.75109927067
 20
-2194.676138336536
 30
0.0
 11
11731.75109927067
 21
-2202.859895066284
 31
0.0
  0
LINE
  5
17A
330
25
100
AcDbEntity
  8
1
  6
Continuous
 62
     0
100
AcDbLine
 10
11731.75109927067
 20
-2240.759471669866
 30
0.0
 11
11731.75109927067
 21
-2248.943228399613
 31
0.0
  0
LINE
  5
178
330
25
100
AcDbEntity
  8
1
  6
Continuous
 62
     0
100
AcDbLine
 10
11749.35109927066
 20
-2207.059683368074
 30
0.0
 11
11749.35109927066
 21
-2208.159683368076
 31
0.0
  0
LINE
  5
177
330
25
100
AcDbEntity
  8
1
  6
Continuous
 62
     0
100
AcDbLine
 10
11744.25109927067
 20
-2207.059683368074
 30
0.0
 11
11749.35109927066
 21
-2207.059683368074
 31
0.0
  0
LINE
  5
176
330
25
100
AcDbEntity
  8
1
  6
Continuous
 62
     0
100
AcDbLine
 10
11744.25109927067
 20
-2212.059683368074
 30
0.0
 11
11745.85109927066
 21
-2212.059683368074
 31
0.0
  0
LINE
  5
173
330
25
100
AcDbEntity
  8
1
  6
Continuous
 62
     0
100
AcDbLine
 10
13916.73754702505
 20
-2193.559683368074
 30
0.0
 11
13941.73754702505
 21
-2193.559683368075
 31
0.0
  0
LINE
  5
172
330
25
100
AcDbEntity
  8
1
  6
Continuous
 62
     0
100
AcDbLine
 10
13940.08754702505
 20
-2183.219683368075
 30
0.0
 11
13940.08754702505
 21
-2186.219683368075
 31
0.0
  0
LINE
  5
171
330
25
100
AcDbEntity
  8
1
  6
Continuous
 62
     0
100
AcDbLine
 10
13918.38754702504
 20
-2183.219683368075
 30
0.0
 11
13940.08754702505
 21
-2183.219683368075
 31
0.0
  0
LINE
  5
170
330
25
100
AcDbEntity
  8
1
  6
Continuous
 62
     0
100
AcDbLine
 10
13940.08754702505
 20
-2186.219683368075
 30
0.0
 11
13918.38754702504
 21
-2186.219683368075
 31
0.0
  0
LINE
  5
16F
330
25
100
AcDbEntity
  8
1
  6
Continuous
 62
     0
100
AcDbLine
 10
13918.38754702504
 20
-2183.219683368075
 30
0.0
 11
13918.38754702504
 21
-2186.219683368075
 31
0.0
  0
LINE
  5
16E
330
25
100
AcDbEntity
  8
1
  6
Continuous
 62
     0
100
AcDbLine
 10
13918.38754702504
 20
-2183.219683368075
 30
0.0
 11
13918.76004702505
 21
-2175.879683368074
 31
0.0
  0
LINE
  5
16D
330
25
100
AcDbEntity
  8
1
  6
Continuous
 62
     0
100
AcDbLine
 10
13940.08754702505
 20
-2183.219683368075
 30
0.0
 11
13939.71504702505
 21
-2175.879683368074
 31
0.0
  0
LINE
  5
16C
330
25
100
AcDbEntity
  8
1
  6
Continuous
 62
     0
100
AcDbLine
 10
13939.71504702505
 20
-2193.559683368075
 30
0.0
 11
13940.08754702505
 21
-2186.219683368075
 31
0.0
  0
LINE
  5
16B
330
25
100
AcDbEntity
  8
1
  6
Continuous
 62
     0
100
AcDbLine
 10
13918.76004702505
 20
-2193.559683368075
 30
0.0
 11
13918.38754702504
 21
-2186.219683368075
 31
0.0
  0
LINE
  5
16A
330
25
100
AcDbEntity
  8
1
  6
Continuous
 62
     0
100
AcDbLine
 10
13916.03754702505
 20
-2175.879683368074
 30
0.0
 11
13942.43754702505
 21
-2175.879683368074
 31
0.0
  0
LINE
  5
169
330
25
100
AcDbEntity
  8
1
  6
Continuous
 62
     0
100
AcDbLine
 10
13943.6713037548
 20
-2248.943228399611
 30
0.0
 11
13941.73754702505
 21
-2250.059683368074
 31
0.0
  0
LINE
  5
168
330
25
100
AcDbEntity
  8
1
  6
Continuous
 62
     0
100
AcDbLine
 10
13916.73754702505
 20
-2250.059683368074
 30
0.0
 11
13914.80379029531
 21
-2248.943228399611
 31
0.0
  0
LINE
  5
167
330
25
100
AcDbEntity
  8
1
  6
Continuous
 62
     0
100
AcDbLine
 10
13943.6713037548
 20
-2248.943228399611
 30
0.0
 11
13943.6713037548
 21
-2241.17613833654
 31
0.0
  0
LINE
  5
166
330
25
100
AcDbEntity
  8
1
  6
Continuous
 62
     0
100
AcDbLine
 10
13941.73754702505
 20
-2250.059683368074
 30
0.0
 11
13934.98754702505
 21
-2250.059683368074
 31
0.0
  0
LINE
  5
165
330
25
100
AcDbEntity
  8
1
  6
Continuous
 62
     0
100
AcDbLine
 10
13914.80379029531
 20
-2248.943228399611
 30
0.0
 11
13914.80379029531
 21
-2241.17613833654
 31
0.0
  0
LINE
  5
164
330
25
100
AcDbEntity
  8
1
  6
Continuous
 62
     0
100
AcDbLine
 10
13936.45442538993
 20
-2248.943228399611
 30
0.0
 11
13936.45442538993
 21
-2231.872484423615
 31
0.0
  0
LINE
  5
163
330
25
100
AcDbEntity
  8
1
  6
Continuous
 62
     0
100
AcDbLine
 10
13922.02066866018
 20
-2248.943228399611
 30
0.0
 11
13922.02066866018
 21
-2231.872484423615
 31
0.0
  0
LINE
  5
162
330
25
100
AcDbEntity
  8
1
  6
Continuous
 62
     0
100
AcDbLine
 10
13941.73754702505
 20
-2193.559683368075
 30
0.0
 11
13943.6713037548
 21
-2194.676138336537
 31
0.0
  0
LINE
  5
161
330
25
100
AcDbEntity
  8
1
  6
Continuous
 62
     0
100
AcDbLine
 10
13914.80379029531
 20
-2194.676138336537
 30
0.0
 11
13916.73754702505
 21
-2193.559683368074
 31
0.0
  0
LINE
  5
160
330
25
100
AcDbEntity
  8
1
  6
Continuous
 62
     0
100
AcDbLine
 10
13943.6713037548
 20
-2194.676138336537
 30
0.0
 11
13943.6713037548
 21
-2202.443228399614
 31
0.0
  0
LINE
  5
15F
330
25
100
AcDbEntity
  8
1
  6
Continuous
 62
     0
100
AcDbLine
 10
13916.73754702505
 20
-2193.559683368074
 30
0.0
 11
13935.58371234764
 21
-2193.559683368074
 31
0.0
  0
LINE
  5
15E
330
25
100
AcDbEntity
  8
1
  6
Continuous
 62
     0
100
AcDbLine
 10
13914.80379029531
 20
-2194.676138336537
 30
0.0
 11
13914.80379029531
 21
-2202.443228399614
 31
0.0
  0
LINE
  5
15D
330
25
100
AcDbEntity
  8
1
  6
Continuous
 62
     0
100
AcDbLine
 10
13936.45442538993
 20
-2194.676138336537
 30
0.0
 11
13936.45442538993
 21
-2210.246882312536
 31
0.0
  0
LINE
  5
15C
330
25
100
AcDbEntity
  8
1
  6
Continuous
 62
     0
100
AcDbLine
 10
13922.02066866018
 20
-2194.676138336537
 30
0.0
 11
13922.02066866018
 21
-2207.114940559264
 31
0.0
  0
LINE
  5
15B
330
25
100
AcDbEntity
  8
1
  6
Continuous
 62
     0
100
AcDbLine
 10
13943.6713037548
 20
-2202.443228399614
 30
0.0
 11
13941.8713037548
 21
-2203.482458884154
 31
0.0
  0
LINE
  5
15A
330
25
100
AcDbEntity
  8
1
  6
Continuous
 62
     0
100
AcDbLine
 10
13916.60379029531
 20
-2203.482458884151
 30
0.0
 11
13914.80379029531
 21
-2202.443228399614
 31
0.0
  0
LINE
  5
159
330
25
100
AcDbEntity
  8
1
  6
Continuous
 62
     0
100
AcDbLine
 10
13914.80379029531
 20
-2241.17613833654
 30
0.0
 11
13916.60379029531
 21
-2240.136907852
 31
0.0
  0
LINE
  5
158
330
25
100
AcDbEntity
  8
1
  6
Continuous
 62
     0
100
AcDbLine
 10
13941.8713037548
 20
-2240.136907852
 30
0.0
 11
13943.6713037548
 21
-2241.17613833654
 31
0.0
  0
LINE
  5
157
330
25
100
AcDbEntity
  8
1
  6
Continuous
 62
     0
100
AcDbLine
 10
13916.60379029531
 20
-2203.482458884151
 30
0.0
 11
13916.60379029531
 21
-2212.709683368074
 31
0.0
  0
LINE
  5
156
330
25
100
AcDbEntity
  8
1
  6
Continuous
 62
     0
100
AcDbLine
 10
13941.8713037548
 20
-2240.136907852
 30
0.0
 11
13941.8713037548
 21
-2226.509683368074
 31
0.0
  0
LINE
  5
155
330
25
100
AcDbEntity
  8
1
  6
Continuous
 62
     0
100
AcDbLine
 10
13916.60379029531
 20
-2212.709683368074
 30
0.0
 11
13917.73754702505
 21
-2214.109683368075
 31
0.0
  0
LINE
  5
154
330
25
100
AcDbEntity
  8
1
  6
Continuous
 62
     0
100
AcDbLine
 10
13916.60379029531
 20
-2226.509683368074
 30
0.0
 11
13917.14762075898
 21
-2225.838143672502
 31
0.0
  0
LINE
  5
153
330
25
100
AcDbEntity
  8
1
  6
Continuous
 62
     0
100
AcDbLine
 10
13940.73754702505
 20
-2214.109683368075
 30
0.0
 11
13941.8713037548
 21
-2212.709683368074
 31
0.0
  0
LINE
  5
152
330
25
100
AcDbEntity
  8
1
  6
Continuous
 62
     0
100
AcDbLine
 10
13941.8713037548
 20
-2212.709683368074
 30
0.0
 11
13941.8713037548
 21
-2203.482458884154
 31
0.0
  0
LINE
  5
151
330
25
100
AcDbEntity
  8
1
  6
Continuous
 62
     0
100
AcDbLine
 10
13916.60379029531
 20
-2226.509683368074
 30
0.0
 11
13916.60379029531
 21
-2240.136907852
 31
0.0
  0
LINE
  5
150
330
25
100
AcDbEntity
  8
1
  6
Continuous
 62
     0
100
AcDbLine
 10
13959.23754702505
 20
-2215.309683368075
 30
0.0
 11
13959.23754702505
 21
-2226.809683368075
 31
0.0
  0
LINE
  5
14F
330
25
100
AcDbEntity
  8
1
  6
Continuous
 62
     0
100
AcDbLine
 10
13899.23754702505
 20
-2215.309683368075
 30
0.0
 11
13899.23754702505
 21
-2226.809683368075
 31
0.0
  0
LINE
  5
14E
330
25
100
AcDbEntity
  8
1
  6
Continuous
 62
     0
100
AcDbLine
 10
13941.32747329112
 20
-2225.838143672505
 30
0.0
 11
13941.8713037548
 21
-2226.509683368074
 31
0.0
  0
LINE
  5
14D
330
25
100
AcDbEntity
  8
1
  6
Continuous
 62
     0
100
AcDbLine
 10
13940.73754702505
 20
-2214.997505541584
 30
0.0
 11
13940.73754702505
 21
-2214.109683368075
 31
0.0
  0
LINE
  5
14C
330
25
100
AcDbEntity
  8
1
  6
Continuous
 62
     0
100
AcDbLine
 10
13940.22378842055
 20
-2214.109683368075
 30
0.0
 11
13940.73754702505
 21
-2214.109683368075
 31
0.0
  0
LINE
  5
14B
330
25
100
AcDbEntity
  8
1
  6
Continuous
 62
     0
100
AcDbLine
 10
13917.73754702505
 20
-2214.997505541584
 30
0.0
 11
13917.73754702505
 21
-2214.109683368075
 31
0.0
  0
LINE
  5
14A
330
25
100
AcDbEntity
  8
1
  6
Continuous
 62
     0
100
AcDbLine
 10
13959.23754702505
 20
-2215.309683368075
 30
0.0
 11
13942.08034656409
 21
-2215.309683368075
 31
0.0
  0
LINE
  5
149
330
25
100
AcDbEntity
  8
1
  6
Continuous
 62
     0
100
AcDbLine
 10
13959.23754702505
 20
-2226.809683368075
 30
0.0
 11
13942.08034656409
 21
-2226.809683368075
 31
0.0
  0
LINE
  5
148
330
25
100
AcDbEntity
  8
1
  6
Continuous
 62
     0
100
AcDbLine
 10
13916.39474748601
 20
-2226.809683368075
 30
0.0
 11
13899.23754702505
 21
-2226.809683368075
 31
0.0
  0
LINE
  5
147
330
25
100
AcDbEntity
  8
1
  6
Continuous
 62
     0
100
AcDbLine
 10
13899.23754702505
 20
-2215.309683368075
 30
0.0
 11
13916.39474748601
 21
-2215.309683368075
 31
0.0
  0
LINE
  5
146
330
25
100
AcDbEntity
  8
1
  6
Continuous
 62
     0
100
AcDbLine
 10
13917.73754702505
 20
-2214.109683368075
 30
0.0
 11
13918.25200963637
 21
-2214.109683368075
 31
0.0
  0
LINE
  5
145
330
25
100
AcDbEntity
  8
1
  6
Continuous
 62
     0
100
AcDbLine
 10
13934.98754702505
 20
-2193.559683368074
 30
0.0
 11
13941.73754702505
 21
-2193.559683368075
 31
0.0
  0
LINE
  5
144
330
25
100
AcDbEntity
  8
1
  6
Continuous
 62
     0
100
AcDbLine
 10
13935.99649134566
 20
-2250.059683368074
 30
0.0
 11
13916.73754702505
 21
-2250.059683368074
 31
0.0
  0
LINE
  5
143
330
25
100
AcDbEntity
  8
1
  6
Continuous
 62
     0
100
AcDbLine
 10
13925.77344540992
 20
-2227.059683368075
 30
0.0
 11
13932.70164864019
 21
-2227.059683368075
 31
0.0
  0
LINE
  5
142
330
25
100
AcDbEntity
  8
1
  6
Continuous
 62
     0
100
AcDbLine
 10
13932.70164864019
 20
-2227.059683368075
 30
0.0
 11
13936.16575025533
 21
-2221.059683368075
 31
0.0
  0
LINE
  5
141
330
25
100
AcDbEntity
  8
1
  6
Continuous
 62
     0
100
AcDbLine
 10
13936.16575025533
 20
-2221.059683368075
 30
0.0
 11
13932.70164864019
 21
-2215.059683368075
 31
0.0
  0
LINE
  5
140
330
25
100
AcDbEntity
  8
1
  6
Continuous
 62
     0
100
AcDbLine
 10
13932.70164864019
 20
-2215.059683368075
 30
0.0
 11
13925.77344540992
 21
-2215.059683368075
 31
0.0
  0
LINE
  5
13F
330
25
100
AcDbEntity
  8
1
  6
Continuous
 62
     0
100
AcDbLine
 10
13925.77344540992
 20
-2215.059683368075
 30
0.0
 11
13922.30934379478
 21
-2221.059683368075
 31
0.0
  0
LINE
  5
13E
330
25
100
AcDbEntity
  8
1
  6
Continuous
 62
     0
100
AcDbLine
 10
13922.30934379478
 20
-2221.059683368075
 30
0.0
 11
13925.77344540992
 21
-2227.059683368075
 31
0.0
  0
LINE
  5
13B
330
25
100
AcDbEntity
  8
1
  6
Continuous
 62
     0
100
AcDbLine
 10
13922.48754702505
 20
-2207.059683368074
 30
0.0
 11
13923.48754702505
 21
-2207.059683368074
 31
0.0
  0
LINE
  5
13A
330
25
100
AcDbEntity
  8
1
  6
Continuous
 62
     0
100
AcDbLine
 10
13920.48754702505
 20
-2209.059683368074
 30
0.0
 11
13920.48754702505
 21
-2211.44524110656
 31
0.0
  0
LINE
  5
139
330
25
100
AcDbEntity
  8
1
  6
Continuous
 62
     0
100
AcDbLine
 10
13929.23754702505
 20
-2213.559683368075
 30
0.0
 11
13921.01578716135
 21
-2213.559683368075
 31
0.0
  0
LINE
  5
138
330
25
100
AcDbEntity
  8
1
  6
Continuous
 62
     0
100
AcDbLine
 10
13936.73754702505
 20
-2221.059683368075
 30
0.0
 11
13940.33754702505
 21
-2221.059683368075
 31
0.0
  0
LINE
  5
137
330
25
100
AcDbEntity
  8
1
  6
Continuous
 62
     0
100
AcDbLine
 10
13926.73754702505
 20
-2223.650050137474
 30
0.0
 11
13926.73754702505
 21
-2218.469316598679
 31
0.0
  0
LINE
  5
136
330
25
100
AcDbEntity
  8
1
  6
Continuous
 62
     0
100
AcDbLine
 10
13931.73754702505
 20
-2223.650050137474
 30
0.0
 11
13931.73754702505
 21
-2218.469316598679
 31
0.0
  0
LINE
  5
135
330
25
100
AcDbEntity
  8
1
  6
Continuous
 62
     0
100
AcDbLine
 10
11160.2128431486
 20
-1136.507356509657
 30
0.0
 11
11168.7430181486
 21
-1136.507356509657
 31
0.0
  0
LINE
  5
134
330
25
100
AcDbEntity
  8
1
  6
Continuous
 62
     0
100
AcDbLine
 10
11160.2128431486
 20
-1139.180956509657
 30
0.0
 11
11167.8034681486
 21
-1139.180956509657
 31
0.0
  0
LINE
  5
133
330
25
100
AcDbEntity
  8
1
  6
Continuous
 62
     0
100
AcDbLine
 10
11168.7430181486
 20
-1136.507356509657
 30
0.0
 11
11167.8034681486
 21
-1139.180956509657
 31
0.0
  0
LINE
  5
132
330
25
100
AcDbEntity
  8
1
  6
Continuous
 62
     0
100
AcDbLine
 10
11168.7430181486
 20
-1136.507356509657
 30
0.0
 11
11168.86284314859
 21
-1132.672956509657
 31
0.0
  0
LINE
  5
131
330
25
100
AcDbEntity
  8
1
  6
Continuous
 62
     0
100
AcDbLine
 10
11151.6826681486
 20
-1136.507356509657
 30
0.0
 11
11151.5628431486
 21
-1132.672956509657
 31
0.0
  0
LINE
  5
130
330
25
100
AcDbEntity
  8
1
  6
Continuous
 62
     0
100
AcDbLine
 10
11152.6222181486
 20
-1139.180956509657
 30
0.0
 11
11151.6826681486
 21
-1136.507356509657
 31
0.0
  0
LINE
  5
12F
330
25
100
AcDbEntity
  8
1
  6
Continuous
 62
     0
100
AcDbLine
 10
11151.88184314859
 20
-1142.880956509657
 30
0.0
 11
11151.6826681486
 21
-1136.507356509657
 31
0.0
  0
LINE
  5
12E
330
25
100
AcDbEntity
  8
1
  6
Continuous
 62
     0
100
AcDbLine
 10
11152.73784314859
 20
-1142.880956509657
 30
0.0
 11
11152.6222181486
 21
-1139.180956509657
 31
0.0
  0
LINE
  5
12D
330
25
100
AcDbEntity
  8
1
  6
Continuous
 62
     0
100
AcDbLine
 10
11167.6878431486
 20
-1142.880956509657
 30
0.0
 11
11167.8034681486
 21
-1139.180956509657
 31
0.0
  0
LINE
  5
12C
330
25
100
AcDbEntity
  8
1
  6
Continuous
 62
     0
100
AcDbLine
 10
11168.5438431486
 20
-1142.880956509657
 30
0.0
 11
11168.7430181486
 21
-1136.507356509657
 31
0.0
  0
LINE
  5
12B
330
25
100
AcDbEntity
  8
1
  6
Continuous
 62
     0
100
AcDbLine
 10
11152.6222181486
 20
-1139.180956509657
 30
0.0
 11
11160.2128431486
 21
-1139.180956509657
 31
0.0
  0
LINE
  5
12A
330
25
100
AcDbEntity
  8
1
  6
Continuous
 62
     0
100
AcDbLine
 10
11151.6826681486
 20
-1136.507356509657
 30
0.0
 11
11160.2128431486
 21
-1136.507356509657
 31
0.0
  0
LINE
  5
129
330
25
100
AcDbEntity
  8
1
  6
Continuous
 62
     0
100
AcDbLine
 10
11151.5177806486
 20
-1131.230956509657
 30
0.0
 11
11151.5628431486
 21
-1132.672956509657
 31
0.0
  0
LINE
  5
128
330
25
100
AcDbEntity
  8
1
  6
Continuous
 62
     0
100
AcDbLine
 10
11151.5177806486
 20
-1131.230956509657
 30
0.0
 11
11168.9079056486
 21
-1131.230956509657
 31
0.0
  0
LINE
  5
127
330
25
100
AcDbEntity
  8
1
  6
Continuous
 62
     0
100
AcDbLine
 10
11168.9079056486
 20
-1131.230956509657
 30
0.0
 11
11168.86284314859
 21
-1132.672956509657
 31
0.0
  0
LINE
  5
126
330
25
100
AcDbEntity
  8
1
  6
Continuous
 62
     0
100
AcDbLine
 10
11167.2128431486
 20
-1119.230956509657
 30
0.0
 11
11167.2128431486
 21
-1131.230956509657
 31
0.0
  0
LINE
  5
125
330
25
100
AcDbEntity
  8
1
  6
Continuous
 62
     0
100
AcDbLine
 10
11153.2128431486
 20
-1119.230956509657
 30
0.0
 11
11153.2128431486
 21
-1131.230956509657
 31
0.0
  0
LINE
  5
124
330
25
100
AcDbEntity
  8
1
  6
Continuous
 62
     0
100
AcDbLine
 10
11167.2128431486
 20
-1119.230956509657
 30
0.0
 11
11169.2128431486
 21
-1119.230956509657
 31
0.0
  0
LINE
  5
123
330
25
100
AcDbEntity
  8
1
  6
Continuous
 62
     0
100
AcDbLine
 10
11169.2128431486
 20
-1117.199436100879
 30
0.0
 11
11169.2128431486
 21
-1119.230956509657
 31
0.0
  0
LINE
  5
122
330
25
100
AcDbEntity
  8
1
  6
Continuous
 62
     0
100
AcDbLine
 10
11151.2128431486
 20
-1117.199436100879
 30
0.0
 11
11151.2128431486
 21
-1119.230956509657
 31
0.0
  0
LINE
  5
121
330
25
100
AcDbEntity
  8
1
  6
Continuous
 62
     0
100
AcDbLine
 10
11151.20497182124
 20
-1119.230956509657
 30
0.0
 11
11153.2128431486
 21
-1119.230956509657
 31
0.0
  0
LINE
  5
11E
330
25
100
AcDbEntity
  8
1
  6
Continuous
 62
     0
100
AcDbLine
 10
11193.70121619
 20
-1101.68316915346
 30
0.0
 11
11192.57835080609
 21
-1101.034882521795
 31
0.0
  0
LINE
  5
11D
330
25
100
AcDbEntity
  8
1
  6
Continuous
 62
     0
100
AcDbLine
 10
11123.98059851606
 20
-1097.031961247975
 30
0.0
 11
11125.10864493251
 21
-1096.380683345778
 31
0.0
  0
LINE
  5
11C
330
25
100
AcDbEntity
  8
1
  6
Continuous
 62
     0
100
AcDbLine
 10
11196.40121619
 20
-1097.006631973024
 30
0.0
 11
11195.27498585966
 21
-1096.35640258863
 31
0.0
  0
LINE
  5
11B
330
25
100
AcDbEntity
  8
1
  6
Continuous
 62
     0
100
AcDbLine
 10
11126.68059851606
 20
-1101.70849842841
 30
0.0
 11
11127.81485727644
 21
-1101.05363382777
 31
0.0
  0
LINE
  5
11A
330
25
100
AcDbEntity
  8
1
  6
Continuous
 62
     0
100
AcDbLine
 10
11196.40121619
 20
-1097.006631973024
 30
0.0
 11
11193.70121619
 21
-1101.68316915346
 31
0.0
  0
LINE
  5
119
330
25
100
AcDbEntity
  8
1
  6
Continuous
 62
     0
100
AcDbLine
 10
11126.68059851606
 20
-1101.70849842841
 30
0.0
 11
11123.98059851606
 21
-1097.031961247975
 31
0.0
  0
LINE
  5
118
330
25
100
AcDbEntity
  8
1
  6
Continuous
 62
     0
100
AcDbLine
 10
11162.91284314859
 20
-1038.952409852588
 30
0.0
 11
11162.91284314859
 21
-1040.248983115919
 31
0.0
  0
LINE
  5
117
330
25
100
AcDbEntity
  8
1
  6
Continuous
 62
     0
100
AcDbLine
 10
11157.5128431486
 20
-1038.952409852588
 30
0.0
 11
11162.91284314859
 21
-1038.952409852588
 31
0.0
  0
LINE
  5
116
330
25
100
AcDbEntity
  8
1
  6
Continuous
 62
     0
100
AcDbLine
 10
11157.5128431486
 20
-1040.24282152304
 30
0.0
 11
11157.5128431486
 21
-1038.952409852588
 31
0.0
  0
LINE
  5
115
330
25
100
AcDbEntity
  8
1
  6
Continuous
 62
     0
100
AcDbLine
 10
11139.81886186827
 20
-1099.270806880492
 30
0.0
 11
11135.67824135069
 21
-1103.411427398069
 31
0.0
  0
LINE
  5
114
330
25
100
AcDbEntity
  8
1
  6
Continuous
 62
     0
100
AcDbLine
 10
11180.43284332774
 20
-1099.451774107361
 30
0.0
 11
11184.57425404477
 21
-1103.593184824394
 31
0.0
  0
LINE
  5
113
330
25
100
AcDbEntity
  8
1
  6
Continuous
 62
     0
100
AcDbLine
 10
11156.85119921246
 20
-1080.549847522368
 30
0.0
 11
11138.82519626256
 21
-1100.060437974272
 31
0.0
  0
LINE
  5
112
330
25
100
AcDbEntity
  8
1
  6
Continuous
 62
     0
100
AcDbLine
 10
11158.89395213588
 20
-1082.592600445796
 30
0.0
 11
11139.0292307745
 21
-1100.264472486211
 31
0.0
  0
LINE
  5
10F
330
25
100
AcDbEntity
  8
1
  6
Continuous
 62
     0
100
AcDbLine
 10
11160.2520609234
 20
-1089.621953131294
 30
0.0
 11
11160.2128431486
 21
-1091.868737945063
 31
0.0
  0
LINE
  5
10E
330
25
100
AcDbEntity
  8
1
  6
Continuous
 62
     0
100
AcDbLine
 10
11160.2128431486
 20
-1091.868737945063
 30
0.0
 11
11160.17362537379
 21
-1089.621953131294
 31
0.0
  0
LINE
  5
10C
330
25
100
AcDbEntity
  8
1
  6
Continuous
 62
     0
100
AcDbLine
 10
11160.2128431486
 20
-1091.868737945063
 30
0.0
 11
11158.28667931044
 21
-1093.026093941209
 31
0.0
  0
LINE
  5
10B
330
25
100
AcDbEntity
  8
1
  6
Continuous
 62
     0
100
AcDbLine
 10
11158.24746153563
 20
-1092.958166762688
 30
0.0
 11
11160.2128431486
 21
-1091.868737945063
 31
0.0
  0
LINE
  5
10A
330
25
100
AcDbEntity
  8
1
  6
Continuous
 62
     0
100
AcDbLine
 10
11160.2128431486
 20
-1091.868737945063
 30
0.0
 11
11162.17822476156
 21
-1092.958166762688
 31
0.0
  0
LINE
  5
109
330
25
100
AcDbEntity
  8
1
  6
Continuous
 62
     0
100
AcDbLine
 10
11162.13900698675
 20
-1093.026093941209
 30
0.0
 11
11160.2128431486
 21
-1091.868737945063
 31
0.0
  0
LINE
  5
108
330
25
100
AcDbEntity
  8
1
  6
Continuous
 62
     0
100
AcDbLine
 10
11151.88184314859
 20
-1188.878410226492
 30
0.0
 11
11151.6740306486
 21
-1195.528410226492
 31
0.0
  0
LINE
  5
107
330
25
100
AcDbEntity
  8
1
  6
Continuous
 62
     0
100
AcDbLine
 10
11168.5438431486
 20
-1188.878410226492
 30
0.0
 11
11168.7516556486
 21
-1195.528410226492
 31
0.0
  0
LINE
  5
106
330
25
100
AcDbEntity
  8
1
  6
Continuous
 62
     0
100
AcDbLine
 10
11166.2128431486
 20
-1195.528410226492
 30
0.0
 11
11166.2128431486
 21
-1204.528410226492
 31
0.0
  0
LINE
  5
105
330
25
100
AcDbEntity
  8
1
  6
Continuous
 62
     0
100
AcDbLine
 10
11166.2128431486
 20
-1204.528410226492
 30
0.0
 11
11154.2128431486
 21
-1204.528410226492
 31
0.0
  0
LINE
  5
104
330
25
100
AcDbEntity
  8
1
  6
Continuous
 62
     0
100
AcDbLine
 10
11154.2128431486
 20
-1204.528410226492
 30
0.0
 11
11154.2128431486
 21
-1195.528410226492
 31
0.0
  0
LINE
  5
102
330
25
100
AcDbEntity
  8
1
  6
Continuous
 62
     0
100
AcDbLine
 10
11168.7516556486
 20
-1195.528410226492
 30
0.0
 11
11151.6740306486
 21
-1195.528410226492
 31
0.0
  0
LINE
  5
FF
330
25
100
AcDbEntity
  8
1
  6
Continuous
 62
     0
100
AcDbLine
 10
11747.25109927067
 20
-937.159683368074
 30
0.0
 11
11750.25109927067
 21
-938.891734175643
 31
0.0
  0
LINE
  5
FE
330
25
100
AcDbEntity
  8
1
  6
Continuous
 62
     0
100
AcDbLine
 10
11750.25109927067
 20
-938.891734175643
 30
0.0
 11
11750.25109927067
 21
-945.159683368074
 31
0.0
  0
LINE
  5
FD
330
25
100
AcDbEntity
  8
1
  6
Continuous
 62
     0
100
AcDbLine
 10
11750.25109927067
 20
-945.159683368074
 30
0.0
 11
11713.25109927067
 21
-945.159683368074
 31
0.0
  0
LINE
  5
FC
330
25
100
AcDbEntity
  8
1
  6
Continuous
 62
     0
100
AcDbLine
 10
11713.25109927067
 20
-945.159683368074
 30
0.0
 11
11713.25109927067
 21
-938.891734175643
 31
0.0
  0
LINE
  5
FB
330
25
100
AcDbEntity
  8
1
  6
Continuous
 62
     0
100
AcDbLine
 10
11713.25109927067
 20
-938.891734175643
 30
0.0
 11
11716.25109927067
 21
-937.159683368074
 31
0.0
  0
LINE
  5
FA
330
25
100
AcDbEntity
  8
1
  6
Continuous
 62
     0
100
AcDbLine
 10
11716.25109927067
 20
-937.159683368074
 30
0.0
 11
11747.25109927067
 21
-937.159683368074
 31
0.0
  0
LINE
  5
F9
330
25
100
AcDbEntity
  8
1
  6
Continuous
 62
     0
100
AcDbLine
 10
11746.75109927067
 20
-928.659683368074
 30
0.0
 11
11746.75109927067
 21
-937.169982242726
 31
0.0
  0
LINE
  5
F8
330
25
100
AcDbEntity
  8
1
  6
Continuous
 62
     0
100
AcDbLine
 10
11716.75109927067
 20
-928.659683368074
 30
0.0
 11
11716.75109927067
 21
-937.159683368074
 31
0.0
  0
LINE
  5
F7
330
25
100
AcDbEntity
  8
1
  6
Continuous
 62
     0
100
AcDbLine
 10
11741.00109927067
 20
-938.891734175643
 30
0.0
 11
11741.00109927067
 21
-945.159683368074
 31
0.0
  0
LINE
  5
F6
330
25
100
AcDbEntity
  8
1
  6
Continuous
 62
     0
100
AcDbLine
 10
11722.50109927067
 20
-938.891734175643
 30
0.0
 11
11722.50109927067
 21
-945.159683368074
 31
0.0
  0
LINE
  5
F5
330
25
100
AcDbEntity
  8
1
  6
Continuous
 62
     0
100
AcDbLine
 10
11751.75109927067
 20
-946.159683368074
 30
0.0
 11
11751.75109927067
 21
-948.159683368074
 31
0.0
  0
LINE
  5
F4
330
25
100
AcDbEntity
  8
1
  6
Continuous
 62
     0
100
AcDbLine
 10
11712.75109927067
 20
-945.159683368074
 30
0.0
 11
11750.75109927067
 21
-945.159683368074
 31
0.0
  0
LINE
  5
F3
330
25
100
AcDbEntity
  8
1
  6
Continuous
 62
     0
100
AcDbLine
 10
11711.75109927067
 20
-946.159683368074
 30
0.0
 11
11711.75109927067
 21
-948.159683368074
 31
0.0
  0
LINE
  5
F2
330
25
100
AcDbEntity
  8
1
  6
Continuous
 62
     0
100
AcDbLine
 10
11758.25109927067
 20
-996.757759579428
 30
0.0
 11
11758.25109927067
 21
-1004.159683368074
 31
0.0
  0
LINE
  5
F1
330
25
100
AcDbEntity
  8
1
  6
Continuous
 62
     0
100
AcDbLine
 10
11758.25109927067
 20
-1004.159683368074
 30
0.0
 11
11705.25109927067
 21
-1004.159683368074
 31
0.0
  0
LINE
  5
F0
330
25
100
AcDbEntity
  8
1
  6
Continuous
 62
     0
100
AcDbLine
 10
11705.25109927067
 20
-1004.159683368074
 30
0.0
 11
11705.25109927067
 21
-996.757759579428
 31
0.0
  0
LINE
  5
EF
330
25
100
AcDbEntity
  8
1
  6
Continuous
 62
     0
100
AcDbLine
 10
11745.00109927067
 20
-996.757759579428
 30
0.0
 11
11745.00109927067
 21
-1004.159683368074
 31
0.0
  0
LINE
  5
EE
330
25
100
AcDbEntity
  8
1
  6
Continuous
 62
     0
100
AcDbLine
 10
11718.50109927067
 20
-996.757759579428
 30
0.0
 11
11718.50109927067
 21
-1004.159683368074
 31
0.0
  0
LINE
  5
ED
330
25
100
AcDbEntity
  8
1
  6
Continuous
 62
     0
100
AcDbLine
 10
11706.75109927067
 20
-995.891734175643
 30
0.0
 11
11706.75109927067
 21
-952.159683368074
 31
0.0
  0
LINE
  5
EC
330
25
100
AcDbEntity
  8
1
  6
Continuous
 62
     0
100
AcDbLine
 10
11756.75109927067
 20
-995.891734175643
 30
0.0
 11
11756.75109927067
 21
-952.159683368074
 31
0.0
  0
LINE
  5
EB
330
25
100
AcDbEntity
  8
1
  6
Continuous
 62
     0
100
AcDbLine
 10
11708.75109927067
 20
-950.159683368074
 30
0.0
 11
11709.75109927067
 21
-950.159683368074
 31
0.0
  0
LINE
  5
EA
330
25
100
AcDbEntity
  8
1
  6
Continuous
 62
     0
100
AcDbLine
 10
11754.75109927067
 20
-950.159683368074
 30
0.0
 11
11753.75109927067
 21
-950.159683368074
 31
0.0
  0
LINE
  5
E9
330
25
100
AcDbEntity
  8
1
  6
Continuous
 62
     0
100
AcDbLine
 10
11709.75109927067
 20
-950.159683368074
 30
0.0
 11
11711.75109927067
 21
-950.159683368074
 31
0.0
  0
LINE
  5
E8
330
25
100
AcDbEntity
  8
1
  6
Continuous
 62
     0
100
AcDbLine
 10
11751.75109927067
 20
-950.159683368074
 30
0.0
 11
11711.75109927067
 21
-950.159683368074
 31
0.0
  0
LINE
  5
E7
330
25
100
AcDbEntity
  8
1
  6
Continuous
 62
     0
100
AcDbLine
 10
11753.75109927067
 20
-950.159683368074
 30
0.0
 11
11751.75109927067
 21
-950.159683368074
 31
0.0
  0
LINE
  5
E6
330
25
100
AcDbEntity
  8
1
  6
Continuous
 62
     0
100
AcDbLine
 10
11753.75109927067
 20
-994.159683368074
 30
0.0
 11
11758.25109927067
 21
-996.757759579428
 31
0.0
  0
LINE
  5
E5
330
25
100
AcDbEntity
  8
1
  6
Continuous
 62
     0
100
AcDbLine
 10
11753.75109927067
 20
-994.159683368074
 30
0.0
 11
11709.75109927067
 21
-994.159683368074
 31
0.0
  0
LINE
  5
E4
330
25
100
AcDbEntity
  8
1
  6
Continuous
 62
     0
100
AcDbLine
 10
11709.75109927067
 20
-994.159683368074
 30
0.0
 11
11705.25109927067
 21
-996.757759579428
 31
0.0
  0
LINE
  5
E3
330
25
100
AcDbEntity
  8
1
  6
Continuous
 62
     0
100
AcDbLine
 10
11705.25109927067
 20
-1004.159683368074
 30
0.0
 11
11696.75109927067
 21
-1004.159683368074
 31
0.0
  0
LINE
  5
E2
330
25
100
AcDbEntity
  8
1
  6
Continuous
 62
     0
100
AcDbLine
 10
11691.75109927067
 20
-1009.159683368074
 30
0.0
 11
11691.75109927067
 21
-1062.659683368074
 31
0.0
  0
LINE
  5
E1
330
25
100
AcDbEntity
  8
1
  6
Continuous
 62
     0
100
AcDbLine
 10
11771.75109927066
 20
-1067.659683368074
 30
0.0
 11
11696.75109927067
 21
-1067.659683368074
 31
0.0
  0
LINE
  5
E0
330
25
100
AcDbEntity
  8
1
  6
Continuous
 62
     0
100
AcDbLine
 10
11771.75109927066
 20
-1067.659683368074
 30
0.0
 11
11771.75109927066
 21
-1067.159683368074
 31
0.0
  0
LINE
  5
DF
330
25
100
AcDbEntity
  8
1
  6
Continuous
 62
     0
100
AcDbLine
 10
11772.75109927066
 20
-1066.159683368074
 30
0.0
 11
11777.75109927066
 21
-1066.159683368074
 31
0.0
  0
LINE
  5
DE
330
25
100
AcDbEntity
  8
1
  6
Continuous
 62
     0
100
AcDbLine
 10
11778.75109927066
 20
-1067.659683368074
 30
0.0
 11
11778.75109927066
 21
-1067.159683368074
 31
0.0
  0
LINE
  5
DD
330
25
100
AcDbEntity
  8
1
  6
Continuous
 62
     0
100
AcDbLine
 10
11778.75109927066
 20
-1067.659683368074
 30
0.0
 11
11783.75109927066
 21
-1067.659683368074
 31
0.0
  0
LINE
  5
DC
330
25
100
AcDbEntity
  8
1
  6
Continuous
 62
     0
100
AcDbLine
 10
11783.75109927066
 20
-1067.659683368074
 30
0.0
 11
11783.75109927066
 21
-1009.659683368074
 31
0.0
  0
LINE
  5
DB
330
25
100
AcDbEntity
  8
1
  6
Continuous
 62
     0
100
AcDbLine
 10
11783.75109927066
 20
-1009.659683368074
 30
0.0
 11
11778.75109927066
 21
-1009.659683368074
 31
0.0
  0
LINE
  5
DA
330
25
100
AcDbEntity
  8
1
  6
Continuous
 62
     0
100
AcDbLine
 10
11778.75109927066
 20
-1009.659683368074
 30
0.0
 11
11778.75109927066
 21
-1010.159683368074
 31
0.0
  0
LINE
  5
D9
330
25
100
AcDbEntity
  8
1
  6
Continuous
 62
     0
100
AcDbLine
 10
11772.75109927066
 20
-1011.159683368074
 30
0.0
 11
11777.75109927066
 21
-1011.159683368074
 31
0.0
  0
LINE
  5
D8
330
25
100
AcDbEntity
  8
1
  6
Continuous
 62
     0
100
AcDbLine
 10
11771.75109927066
 20
-1009.159683368074
 30
0.0
 11
11771.75109927066
 21
-1010.159683368074
 31
0.0
  0
LINE
  5
D7
330
25
100
AcDbEntity
  8
1
  6
Continuous
 62
     0
100
AcDbLine
 10
11758.25109927067
 20
-1004.159683368074
 30
0.0
 11
11766.75109927067
 21
-1004.159683368074
 31
0.0
  0
LINE
  5
D6
330
25
100
AcDbEntity
  8
1
  6
Continuous
 62
     0
100
AcDbLine
 10
11752.75109927067
 20
-1093.659683368074
 30
0.0
 11
11710.75109927067
 21
-1093.659683368074
 31
0.0
  0
LINE
  5
D5
330
25
100
AcDbEntity
  8
1
  6
Continuous
 62
     0
100
AcDbLine
 10
11766.75109927067
 20
-1067.659683368074
 30
0.0
 11
11696.75109927067
 21
-1067.659683368074
 31
0.0
  0
LINE
  5
D4
330
25
100
AcDbEntity
  8
1
  6
Continuous
 62
     0
100
AcDbLine
 10
11762.25109927067
 20
-1078.659683368074
 30
0.0
 11
11701.25109927067
 21
-1078.659683368074
 31
0.0
  0
LINE
  5
D3
330
25
100
AcDbEntity
  8
1
  6
Continuous
 62
     0
100
AcDbLine
 10
11701.25109927067
 20
-1078.659683368074
 30
0.0
 11
11701.25109927067
 21
-1091.350282291315
 31
0.0
  0
LINE
  5
D2
330
25
100
AcDbEntity
  8
1
  6
Continuous
 62
     0
100
AcDbLine
 10
11763.75109927067
 20
-1078.659683368074
 30
0.0
 11
11699.75109927067
 21
-1078.659683368074
 31
0.0
  0
LINE
  5
D1
330
25
100
AcDbEntity
  8
1
  6
Continuous
 62
     0
100
AcDbLine
 10
11766.75109927067
 20
-1067.659683368074
 30
0.0
 11
11696.75109927067
 21
-1067.659683368074
 31
0.0
  0
LINE
  5
D0
330
25
100
AcDbEntity
  8
1
  6
Continuous
 62
     0
100
AcDbLine
 10
11705.25109927067
 20
-1093.659683368074
 30
0.0
 11
11758.25109927067
 21
-1093.659683368074
 31
0.0
  0
LINE
  5
CF
330
25
100
AcDbEntity
  8
1
  6
Continuous
 62
     0
100
AcDbLine
 10
11762.25109927067
 20
-1091.350282291315
 30
0.0
 11
11762.25109927067
 21
-1078.659683368074
 31
0.0
  0
LINE
  5
CE
330
25
100
AcDbEntity
  8
1
  6
Continuous
 62
     0
100
AcDbLine
 10
11762.25109927067
 20
-1091.350282291315
 30
0.0
 11
11758.25109927067
 21
-1093.659683368074
 31
0.0
  0
LINE
  5
CD
330
25
100
AcDbEntity
  8
1
  6
Continuous
 62
     0
100
AcDbLine
 10
11701.25109927067
 20
-1091.350282291315
 30
0.0
 11
11705.25109927067
 21
-1093.659683368074
 31
0.0
  0
LINE
  5
CC
330
25
100
AcDbEntity
  8
1
  6
Continuous
 62
     0
100
AcDbLine
 10
11747.00109927067
 20
-1091.350282291315
 30
0.0
 11
11747.00109927067
 21
-1078.659683368074
 31
0.0
  0
LINE
  5
CB
330
25
100
AcDbEntity
  8
1
  6
Continuous
 62
     0
100
AcDbLine
 10
11716.50109927067
 20
-1091.350282291315
 30
0.0
 11
11716.50109927067
 21
-1078.659683368074
 31
0.0
  0
LINE
  5
CA
330
25
100
AcDbEntity
  8
1
  6
Continuous
 62
     0
100
AcDbLine
 10
11778.75109927066
 20
-1010.300928376046
 30
0.0
 11
11778.75109927066
 21
-1067.659683368074
 31
0.0
  0
LINE
  5
C9
330
25
100
AcDbEntity
  8
1
  6
Continuous
 62
     0
100
AcDbLine
 10
13364.89414396485
 20
-1091.350282291315
 30
0.0
 11
13364.89414396485
 21
-1078.659683368074
 31
0.0
  0
LINE
  5
C8
330
25
100
AcDbEntity
  8
1
  6
Continuous
 62
     0
100
AcDbLine
 10
13395.39414396485
 20
-1091.350282291315
 30
0.0
 11
13395.39414396485
 21
-1078.659683368074
 31
0.0
  0
LINE
  5
C7
330
25
100
AcDbEntity
  8
1
  6
Continuous
 62
     0
100
AcDbLine
 10
13349.64414396485
 20
-1091.350282291315
 30
0.0
 11
13353.64414396485
 21
-1093.659683368074
 31
0.0
  0
LINE
  5
C6
330
25
100
AcDbEntity
  8
1
  6
Continuous
 62
     0
100
AcDbLine
 10
13410.64414396485
 20
-1091.350282291315
 30
0.0
 11
13406.64414396485
 21
-1093.659683368074
 31
0.0
  0
LINE
  5
C5
330
25
100
AcDbEntity
  8
1
  6
Continuous
 62
     0
100
AcDbLine
 10
13410.64414396485
 20
-1091.350282291315
 30
0.0
 11
13410.64414396485
 21
-1078.659683368074
 31
0.0
  0
LINE
  5
C4
330
25
100
AcDbEntity
  8
1
  6
Continuous
 62
     0
100
AcDbLine
 10
13353.64414396485
 20
-1093.659683368074
 30
0.0
 11
13406.64414396485
 21
-1093.659683368074
 31
0.0
  0
LINE
  5
C3
330
25
100
AcDbEntity
  8
1
  6
Continuous
 62
     0
100
AcDbLine
 10
13415.14414396485
 20
-1067.659683368074
 30
0.0
 11
13345.14414396485
 21
-1067.659683368074
 31
0.0
  0
LINE
  5
C2
330
25
100
AcDbEntity
  8
1
  6
Continuous
 62
     0
100
AcDbLine
 10
13412.14414396485
 20
-1078.659683368074
 30
0.0
 11
13348.14414396485
 21
-1078.659683368074
 31
0.0
  0
LINE
  5
C1
330
25
100
AcDbEntity
  8
1
  6
Continuous
 62
     0
100
AcDbLine
 10
13349.64414396485
 20
-1078.659683368074
 30
0.0
 11
13349.64414396485
 21
-1091.350282291315
 31
0.0
  0
LINE
  5
C0
330
25
100
AcDbEntity
  8
1
  6
Continuous
 62
     0
100
AcDbLine
 10
13410.64414396485
 20
-1078.659683368074
 30
0.0
 11
13349.64414396485
 21
-1078.659683368074
 31
0.0
  0
LINE
  5
BF
330
25
100
AcDbEntity
  8
1
  6
Continuous
 62
     0
100
AcDbLine
 10
13415.14414396485
 20
-1067.659683368074
 30
0.0
 11
13345.14414396485
 21
-1067.659683368074
 31
0.0
  0
LINE
  5
BE
330
25
100
AcDbEntity
  8
1
  6
Continuous
 62
     0
100
AcDbLine
 10
13401.14414396485
 20
-1093.659683368074
 30
0.0
 11
13359.14414396485
 21
-1093.659683368074
 31
0.0
  0
LINE
  5
BD
330
25
100
AcDbEntity
  8
1
  6
Continuous
 62
     0
100
AcDbLine
 10
13406.64414396485
 20
-1004.159683368074
 30
0.0
 11
13415.14414396485
 21
-1004.159683368074
 31
0.0
  0
LINE
  5
BC
330
25
100
AcDbEntity
  8
1
  6
Continuous
 62
     0
100
AcDbLine
 10
13420.14414396485
 20
-1009.159683368074
 30
0.0
 11
13420.14414396485
 21
-1062.659683368074
 31
0.0
  0
LINE
  5
BB
330
25
100
AcDbEntity
  8
1
  6
Continuous
 62
     0
100
AcDbLine
 10
13345.14414396485
 20
-1067.659683368074
 30
0.0
 11
13415.14414396485
 21
-1067.659683368074
 31
0.0
  0
LINE
  5
BA
330
25
100
AcDbEntity
  8
1
  6
Continuous
 62
     0
100
AcDbLine
 10
13340.14414396485
 20
-1009.159683368074
 30
0.0
 11
13340.14414396485
 21
-1062.659683368074
 31
0.0
  0
LINE
  5
B9
330
25
100
AcDbEntity
  8
1
  6
Continuous
 62
     0
100
AcDbLine
 10
13353.64414396485
 20
-1004.159683368074
 30
0.0
 11
13345.14414396485
 21
-1004.159683368074
 31
0.0
  0
LINE
  5
B8
330
25
100
AcDbEntity
  8
1
  6
Continuous
 62
     0
100
AcDbLine
 10
13358.14414396485
 20
-994.159683368074
 30
0.0
 11
13353.64414396485
 21
-996.757759579428
 31
0.0
  0
LINE
  5
B7
330
25
100
AcDbEntity
  8
1
  6
Continuous
 62
     0
100
AcDbLine
 10
13402.14414396485
 20
-994.159683368074
 30
0.0
 11
13358.14414396485
 21
-994.159683368074
 31
0.0
  0
LINE
  5
B6
330
25
100
AcDbEntity
  8
1
  6
Continuous
 62
     0
100
AcDbLine
 10
13402.14414396485
 20
-994.159683368074
 30
0.0
 11
13406.64414396485
 21
-996.757759579428
 31
0.0
  0
LINE
  5
B5
330
25
100
AcDbEntity
  8
1
  6
Continuous
 62
     0
100
AcDbLine
 10
13402.14414396485
 20
-950.159012029489
 30
0.0
 11
13400.14414396485
 21
-950.159012029489
 31
0.0
  0
LINE
  5
B4
330
25
100
AcDbEntity
  8
1
  6
Continuous
 62
     0
100
AcDbLine
 10
13400.14414396485
 20
-950.159012029489
 30
0.0
 11
13360.14414396485
 21
-950.159012029489
 31
0.0
  0
LINE
  5
B3
330
25
100
AcDbEntity
  8
1
  6
Continuous
 62
     0
100
AcDbLine
 10
13358.14414396485
 20
-950.159012029489
 30
0.0
 11
13360.14414396485
 21
-950.159012029489
 31
0.0
  0
LINE
  5
B2
330
25
100
AcDbEntity
  8
1
  6
Continuous
 62
     0
100
AcDbLine
 10
13403.14414396485
 20
-950.159012029489
 30
0.0
 11
13402.14414396485
 21
-950.159012029489
 31
0.0
  0
LINE
  5
B1
330
25
100
AcDbEntity
  8
1
  6
Continuous
 62
     0
100
AcDbLine
 10
13357.14414396485
 20
-950.159012029489
 30
0.0
 11
13358.14414396485
 21
-950.159012029489
 31
0.0
  0
LINE
  5
B0
330
25
100
AcDbEntity
  8
1
  6
Continuous
 62
     0
100
AcDbLine
 10
13405.14414396485
 20
-995.891734175643
 30
0.0
 11
13405.14414396485
 21
-952.159012029489
 31
0.0
  0
LINE
  5
AF
330
25
100
AcDbEntity
  8
1
  6
Continuous
 62
     0
100
AcDbLine
 10
13355.14414396485
 20
-995.891734175643
 30
0.0
 11
13355.14414396485
 21
-952.159012029489
 31
0.0
  0
LINE
  5
AE
330
25
100
AcDbEntity
  8
1
  6
Continuous
 62
     0
100
AcDbLine
 10
13366.89414396485
 20
-996.757759579428
 30
0.0
 11
13366.89414396485
 21
-1004.159683368074
 31
0.0
  0
LINE
  5
AD
330
25
100
AcDbEntity
  8
1
  6
Continuous
 62
     0
100
AcDbLine
 10
13393.39414396485
 20
-996.757759579428
 30
0.0
 11
13393.39414396485
 21
-1004.159683368074
 31
0.0
  0
LINE
  5
AC
330
25
100
AcDbEntity
  8
1
  6
Continuous
 62
     0
100
AcDbLine
 10
13353.64414396485
 20
-1004.159683368074
 30
0.0
 11
13353.64414396485
 21
-996.757759579428
 31
0.0
  0
LINE
  5
AB
330
25
100
AcDbEntity
  8
1
  6
Continuous
 62
     0
100
AcDbLine
 10
13406.64414396485
 20
-1004.159683368074
 30
0.0
 11
13353.64414396485
 21
-1004.159683368074
 31
0.0
  0
LINE
  5
AA
330
25
100
AcDbEntity
  8
1
  6
Continuous
 62
     0
100
AcDbLine
 10
13406.64414396485
 20
-996.757759579428
 30
0.0
 11
13406.64414396485
 21
-1004.159683368074
 31
0.0
  0
LINE
  5
A9
330
25
100
AcDbEntity
  8
1
  6
Continuous
 62
     0
100
AcDbLine
 10
13360.14414396485
 20
-946.159012029489
 30
0.0
 11
13360.14414396485
 21
-948.159012029489
 31
0.0
  0
LINE
  5
A8
330
25
100
AcDbEntity
  8
1
  6
Continuous
 62
     0
100
AcDbLine
 10
13361.14414396485
 20
-945.159012029489
 30
0.0
 11
13399.14414396485
 21
-945.159012029489
 31
0.0
  0
LINE
  5
A7
330
25
100
AcDbEntity
  8
1
  6
Continuous
 62
     0
100
AcDbLine
 10
13400.14414396485
 20
-946.159012029489
 30
0.0
 11
13400.14414396485
 21
-948.159012029489
 31
0.0
  0
LINE
  5
A6
330
25
100
AcDbEntity
  8
1
  6
Continuous
 62
     0
100
AcDbLine
 10
13370.89414396485
 20
-938.891062837058
 30
0.0
 11
13370.89414396485
 21
-945.159012029489
 31
0.0
  0
LINE
  5
A5
330
25
100
AcDbEntity
  8
1
  6
Continuous
 62
     0
100
AcDbLine
 10
13389.39414396485
 20
-938.891062837058
 30
0.0
 11
13389.39414396485
 21
-945.159012029489
 31
0.0
  0
LINE
  5
A4
330
25
100
AcDbEntity
  8
1
  6
Continuous
 62
     0
100
AcDbLine
 10
13365.14414396485
 20
-928.659012029489
 30
0.0
 11
13365.14414396485
 21
-937.159012029489
 31
0.0
  0
LINE
  5
A3
330
25
100
AcDbEntity
  8
1
  6
Continuous
 62
     0
100
AcDbLine
 10
13395.14414396485
 20
-928.659012029489
 30
0.0
 11
13395.14414396485
 21
-937.16931090414
 31
0.0
  0
LINE
  5
A2
330
25
100
AcDbEntity
  8
1
  6
Continuous
 62
     0
100
AcDbLine
 10
13364.64414396485
 20
-937.159012029489
 30
0.0
 11
13395.64414396485
 21
-937.159012029489
 31
0.0
  0
LINE
  5
A1
330
25
100
AcDbEntity
  8
1
  6
Continuous
 62
     0
100
AcDbLine
 10
13361.64414396485
 20
-938.891062837058
 30
0.0
 11
13364.64414396485
 21
-937.159012029489
 31
0.0
  0
LINE
  5
A0
330
25
100
AcDbEntity
  8
1
  6
Continuous
 62
     0
100
AcDbLine
 10
13361.64414396485
 20
-945.159012029489
 30
0.0
 11
13361.64414396485
 21
-938.891062837058
 31
0.0
  0
LINE
  5
9F
330
25
100
AcDbEntity
  8
1
  6
Continuous
 62
     0
100
AcDbLine
 10
13398.64414396485
 20
-945.159012029489
 30
0.0
 11
13361.64414396485
 21
-945.159012029489
 31
0.0
  0
LINE
  5
9E
330
25
100
AcDbEntity
  8
1
  6
Continuous
 62
     0
100
AcDbLine
 10
13398.64414396485
 20
-938.891062837058
 30
0.0
 11
13398.64414396485
 21
-945.159012029489
 31
0.0
  0
LINE
  5
9D
330
25
100
AcDbEntity
  8
1
  6
Continuous
 62
     0
100
AcDbLine
 10
13395.64414396485
 20
-937.159012029489
 30
0.0
 11
13398.64414396485
 21
-938.891062837058
 31
0.0
  0
LINE
  5
9B
330
25
100
AcDbEntity
  8
1
  6
Continuous
 62
     0
100
AcDbLine
 10
13439.11754702505
 20
-1135.629683368074
 30
0.0
 11
13439.11754702505
 21
-1196.129683368074
 31
0.0
  0
LINE
  5
9A
330
25
100
AcDbEntity
  8
1
  6
Continuous
 62
     0
100
AcDbLine
 10
13435.11754702505
 20
-1196.129683368074
 30
0.0
 11
13435.11754702505
 21
-1135.629683368074
 31
0.0
  0
LINE
  5
99
330
25
100
AcDbEntity
  8
1
  6
Continuous
 62
     0
100
AcDbLine
 10
13435.11754702505
 20
-1196.129683368074
 30
0.0
 11
13439.11754702505
 21
-1196.129683368074
 31
0.0
  0
LINE
  5
98
330
25
100
AcDbEntity
  8
1
  6
Continuous
 62
     0
100
AcDbLine
 10
13439.11754702505
 20
-1135.629683368074
 30
0.0
 11
13435.11754702505
 21
-1135.629683368074
 31
0.0
  0
LINE
  5
97
330
25
100
AcDbEntity
  8
1
  6
Continuous
 62
     0
100
AcDbLine
 10
13439.11754702505
 20
-1196.129683368074
 30
0.0
 11
13450.23754702505
 21
-1195.686683368075
 31
0.0
  0
LINE
  5
96
330
25
100
AcDbEntity
  8
1
  6
Continuous
 62
     0
100
AcDbLine
 10
13439.11754702505
 20
-1135.629683368074
 30
0.0
 11
13450.23754702505
 21
-1136.072683368074
 31
0.0
  0
LINE
  5
95
330
25
100
AcDbEntity
  8
1
  6
Continuous
 62
     0
100
AcDbLine
 10
13435.11754702505
 20
-1196.129683368074
 30
0.0
 11
13423.99754702505
 21
-1195.686683368075
 31
0.0
  0
LINE
  5
94
330
25
100
AcDbEntity
  8
1
  6
Continuous
 62
     0
100
AcDbLine
 10
13423.99754702505
 20
-1136.072683368074
 30
0.0
 11
13435.11754702505
 21
-1135.629683368074
 31
0.0
  0
LINE
  5
93
330
25
100
AcDbEntity
  8
1
  6
Continuous
 62
     0
100
AcDbLine
 10
13380.00222952984
 20
-1114.879683368075
 30
0.0
 11
13402.01514725192
 21
-1114.879683368075
 31
0.0
  0
LINE
  5
92
330
25
100
AcDbEntity
  8
1
  6
Continuous
 62
     0
100
AcDbLine
 10
13359.50222952984
 20
-1124.044764550338
 30
0.0
 11
13359.50222952984
 21
-1155.381227900645
 31
0.0
  0
LINE
  5
91
330
25
100
AcDbEntity
  8
1
  6
Continuous
 62
     0
100
AcDbLine
 10
13400.50222952984
 20
-1124.044764550338
 30
0.0
 11
13400.50222952984
 21
-1125.378138835503
 31
0.0
  0
LINE
  5
90
330
25
100
AcDbEntity
  8
1
  6
Continuous
 62
     0
100
AcDbLine
 10
13357.98931180777
 20
-1114.879683368075
 30
0.0
 11
13380.00222952984
 21
-1114.879683368075
 31
0.0
  0
LINE
  5
8F
330
25
100
AcDbEntity
  8
1
  6
Continuous
 62
     0
100
AcDbLine
 10
13357.98931180777
 20
-1114.879683368075
 30
0.0
 11
13357.98931180777
 21
-1119.879683368075
 31
0.0
  0
LINE
  5
8E
330
25
100
AcDbEntity
  8
1
  6
Continuous
 62
     0
100
AcDbLine
 10
13402.01514725192
 20
-1114.879683368075
 30
0.0
 11
13402.01514725192
 21
-1119.879683368075
 31
0.0
  0
LINE
  5
8D
330
25
100
AcDbEntity
  8
1
  6
Continuous
 62
     0
100
AcDbLine
 10
13357.98931180777
 20
-1119.879683368075
 30
0.0
 11
13402.01514725192
 21
-1119.879683368075
 31
0.0
  0
LINE
  5
8B
330
25
100
AcDbEntity
  8
1
  6
Continuous
 62
     0
100
AcDbLine
 10
13413.61272349031
 20
-1200.381227900646
 30
0.0
 11
13404.50222952984
 21
-1200.381227900646
 31
0.0
  0
LINE
  5
8A
330
25
100
AcDbEntity
  8
1
  6
Continuous
 62
     0
100
AcDbLine
 10
13423.99754702505
 20
-1201.881227900646
 30
0.0
 11
13423.99754702505
 21
-1165.879683368074
 31
0.0
  0
LINE
  5
89
330
25
100
AcDbEntity
  8
1
  6
Continuous
 62
     0
100
AcDbLine
 10
13418.99754702505
 20
-1201.881227900646
 30
0.0
 11
13423.99754702505
 21
-1201.881227900646
 31
0.0
  0
LINE
  5
88
330
25
100
AcDbEntity
  8
1
  6
Continuous
 62
     0
100
AcDbLine
 10
13418.99754702505
 20
-1129.878138835503
 30
0.0
 11
13423.99754702505
 21
-1129.878138835503
 31
0.0
  0
LINE
  5
87
330
25
100
AcDbEntity
  8
1
  6
Continuous
 62
     0
100
AcDbLine
 10
13418.99754702505
 20
-1200.381227900646
 30
0.0
 11
13418.99754702505
 21
-1131.378138835503
 31
0.0
  0
LINE
  5
86
330
25
100
AcDbEntity
  8
1
  6
Continuous
 62
     0
100
AcDbLine
 10
13418.99754702505
 20
-1131.378138835503
 30
0.0
 11
13418.99754702505
 21
-1129.878138835503
 31
0.0
  0
LINE
  5
85
330
25
100
AcDbEntity
  8
1
  6
Continuous
 62
     0
100
AcDbLine
 10
13418.99754702505
 20
-1200.381227900646
 30
0.0
 11
13418.99754702505
 21
-1201.881227900646
 31
0.0
  0
LINE
  5
84
330
25
100
AcDbEntity
  8
1
  6
Continuous
 62
     0
100
AcDbLine
 10
13423.99754702505
 20
-1165.879683368074
 30
0.0
 11
13423.99754702505
 21
-1129.878138835503
 31
0.0
  0
LINE
  5
83
330
25
100
AcDbEntity
  8
1
  6
Continuous
 62
     0
100
AcDbLine
 10
13413.61272349031
 20
-1131.378138835503
 30
0.0
 11
13406.50222952984
 21
-1131.378138835503
 31
0.0
  0
LINE
  5
82
330
25
100
AcDbEntity
  8
1
  6
Continuous
 62
     0
100
AcDbLine
 10
13363.00222952985
 20
-1102.419683368074
 30
0.0
 11
13397.00222952985
 21
-1102.419683368074
 31
0.0
  0
LINE
  5
81
330
25
100
AcDbEntity
  8
1
  6
Continuous
 62
     0
100
AcDbLine
 10
13397.00222952985
 20
-1106.119683368074
 30
0.0
 11
13363.00222952985
 21
-1106.119683368074
 31
0.0
  0
LINE
  5
80
330
25
100
AcDbEntity
  8
1
  6
Continuous
 62
     0
100
AcDbLine
 10
13363.00222952985
 20
-1102.419683368074
 30
0.0
 11
13363.00222952985
 21
-1106.119683368074
 31
0.0
  0
LINE
  5
7F
330
25
100
AcDbEntity
  8
1
  6
Continuous
 62
     0
100
AcDbLine
 10
13397.00222952985
 20
-1106.119683368074
 30
0.0
 11
13397.00222952985
 21
-1102.419683368074
 31
0.0
  0
LINE
  5
7E
330
25
100
AcDbEntity
  8
1
  6
Continuous
 62
     0
100
AcDbLine
 10
13363.00222952985
 20
-1102.419683368074
 30
0.0
 11
13363.37772952984
 21
-1093.659683368074
 31
0.0
  0
LINE
  5
7D
330
25
100
AcDbEntity
  8
1
  6
Continuous
 62
     0
100
AcDbLine
 10
13363.00222952985
 20
-1106.119683368074
 30
0.0
 11
13363.37772952984
 21
-1114.879683368074
 31
0.0
  0
LINE
  5
7C
330
25
100
AcDbEntity
  8
1
  6
Continuous
 62
     0
100
AcDbLine
 10
13396.62672952984
 20
-1114.879683368074
 30
0.0
 11
13397.00222952985
 21
-1106.119683368074
 31
0.0
  0
LINE
  5
7B
330
25
100
AcDbEntity
  8
1
  6
Continuous
 62
     0
100
AcDbLine
 10
13396.62672952984
 20
-1093.659683368074
 30
0.0
 11
13397.00222952985
 21
-1102.419683368074
 31
0.0
  0
LINE
  5
79
330
25
100
AcDbEntity
  8
1
  6
Continuous
 62
     0
100
AcDbLine
 10
13415.14414396485
 20
-1067.659683368074
 30
0.0
 11
13415.14414396485
 21
-1075.659683368074
 31
0.0
  0
LINE
  5
78
330
25
100
AcDbEntity
  8
1
  6
Continuous
 62
     0
100
AcDbLine
 10
13345.14414396485
 20
-1067.659683368074
 30
0.0
 11
13345.14414396485
 21
-1075.659683368074
 31
0.0
  0
LINE
  5
77
330
25
100
AcDbEntity
  8
1
  6
Continuous
 62
     0
100
AcDbLine
 10
13403.14414396485
 20
-951.159012029489
 30
0.0
 11
13403.14414396485
 21
-993.582333098884
 31
0.0
  0
LINE
  5
76
330
25
100
AcDbEntity
  8
1
  6
Continuous
 62
     0
100
AcDbLine
 10
13401.14414396485
 20
-951.159012029489
 30
0.0
 11
13401.14414396485
 21
-993.159683368074
 31
0.0
  0
LINE
  5
75
330
25
100
AcDbEntity
  8
1
  6
Continuous
 62
     0
100
AcDbLine
 10
13388.47747729819
 20
-951.159012029489
 30
0.0
 11
13388.47747729819
 21
-993.159683368074
 31
0.0
  0
LINE
  5
74
330
25
100
AcDbEntity
  8
1
  6
Continuous
 62
     0
100
AcDbLine
 10
13386.47747729819
 20
-951.159012029489
 30
0.0
 11
13386.47747729819
 21
-993.159683368074
 31
0.0
  0
LINE
  5
73
330
25
100
AcDbEntity
  8
1
  6
Continuous
 62
     0
100
AcDbLine
 10
13373.81081063152
 20
-951.159012029489
 30
0.0
 11
13373.81081063152
 21
-993.159683368074
 31
0.0
  0
LINE
  5
72
330
25
100
AcDbEntity
  8
1
  6
Continuous
 62
     0
100
AcDbLine
 10
13371.81081063152
 20
-951.159012029489
 30
0.0
 11
13371.81081063152
 21
-993.159683368074
 31
0.0
  0
LINE
  5
71
330
25
100
AcDbEntity
  8
1
  6
Continuous
 62
     0
100
AcDbLine
 10
13359.14414396485
 20
-951.159012029489
 30
0.0
 11
13359.14414396485
 21
-993.159683368074
 31
0.0
  0
LINE
  5
70
330
25
100
AcDbEntity
  8
1
  6
Continuous
 62
     0
100
AcDbLine
 10
13357.14414396485
 20
-951.159012029489
 30
0.0
 11
13357.14414396485
 21
-993.582333098884
 31
0.0
  0
LINE
  5
6F
330
25
100
AcDbEntity
  8
1
  6
Continuous
 62
     0
100
AcDbLine
 10
11748.37559927066
 20
-1093.659683368074
 30
0.0
 11
11748.75109927067
 21
-1102.419683368074
 31
0.0
  0
LINE
  5
6E
330
25
100
AcDbEntity
  8
1
  6
Continuous
 62
     0
100
AcDbLine
 10
11748.37559927066
 20
-1114.879683368074
 30
0.0
 11
11748.75109927067
 21
-1106.119683368074
 31
0.0
  0
LINE
  5
6D
330
25
100
AcDbEntity
  8
1
  6
Continuous
 62
     0
100
AcDbLine
 10
11714.75109927067
 20
-1106.119683368074
 30
0.0
 11
11715.12659927066
 21
-1114.879683368074
 31
0.0
  0
LINE
  5
6C
330
25
100
AcDbEntity
  8
1
  6
Continuous
 62
     0
100
AcDbLine
 10
11714.75109927067
 20
-1102.419683368074
 30
0.0
 11
11715.12659927066
 21
-1093.659683368074
 31
0.0
  0
LINE
  5
6B
330
25
100
AcDbEntity
  8
1
  6
Continuous
 62
     0
100
AcDbLine
 10
11748.75109927067
 20
-1106.119683368074
 30
0.0
 11
11748.75109927067
 21
-1102.419683368074
 31
0.0
  0
LINE
  5
6A
330
25
100
AcDbEntity
  8
1
  6
Continuous
 62
     0
100
AcDbLine
 10
11714.75109927067
 20
-1102.419683368074
 30
0.0
 11
11714.75109927067
 21
-1106.119683368074
 31
0.0
  0
LINE
  5
69
330
25
100
AcDbEntity
  8
1
  6
Continuous
 62
     0
100
AcDbLine
 10
11748.75109927067
 20
-1106.119683368074
 30
0.0
 11
11714.75109927067
 21
-1106.119683368074
 31
0.0
  0
LINE
  5
68
330
25
100
AcDbEntity
  8
1
  6
Continuous
 62
     0
100
AcDbLine
 10
11714.75109927067
 20
-1102.419683368074
 30
0.0
 11
11748.75109927067
 21
-1102.419683368074
 31
0.0
  0
LINE
  5
67
330
25
100
AcDbEntity
  8
1
  6
Continuous
 62
     0
100
AcDbLine
 10
11709.73818154859
 20
-1119.879683368075
 30
0.0
 11
11753.76401699274
 21
-1119.879683368075
 31
0.0
  0
LINE
  5
66
330
25
100
AcDbEntity
  8
1
  6
Continuous
 62
     0
100
AcDbLine
 10
11753.76401699274
 20
-1114.879683368075
 30
0.0
 11
11753.76401699274
 21
-1119.879683368075
 31
0.0
  0
LINE
  5
65
330
25
100
AcDbEntity
  8
1
  6
Continuous
 62
     0
100
AcDbLine
 10
11709.73818154859
 20
-1114.879683368075
 30
0.0
 11
11709.73818154859
 21
-1119.879683368075
 31
0.0
  0
LINE
  5
64
330
25
100
AcDbEntity
  8
1
  6
Continuous
 62
     0
100
AcDbLine
 10
11709.73818154859
 20
-1114.879683368075
 30
0.0
 11
11731.75109927067
 21
-1114.879683368075
 31
0.0
  0
LINE
  5
63
330
25
100
AcDbEntity
  8
1
  6
Continuous
 62
     0
100
AcDbLine
 10
11731.75109927067
 20
-1114.879683368075
 30
0.0
 11
11753.76401699274
 21
-1114.879683368075
 31
0.0
  0
LINE
  5
62
330
25
100
AcDbEntity
  8
1
  6
Continuous
 62
     0
100
AcDbLine
 10
11752.89301370567
 20
-1093.659683368074
 30
0.0
 11
11710.89301370567
 21
-1093.659683368074
 31
0.0
  0
LINE
  5
61
330
25
100
AcDbEntity
  8
1
  6
Continuous
 62
     0
100
AcDbLine
 10
11705.39301370567
 20
-1093.659683368074
 30
0.0
 11
11758.39301370567
 21
-1093.659683368074
 31
0.0
  0
LINE
  5
60
330
25
100
AcDbEntity
  8
1
  6
Continuous
 62
     0
100
AcDbLine
 10
11762.39301370567
 20
-1091.350282291315
 30
0.0
 11
11758.39301370567
 21
-1093.659683368074
 31
0.0
  0
LINE
  5
5F
330
25
100
AcDbEntity
  8
1
  6
Continuous
 62
     0
100
AcDbLine
 10
11701.39301370567
 20
-1091.350282291315
 30
0.0
 11
11705.39301370567
 21
-1093.659683368074
 31
0.0
  0
LINE
  5
5E
330
25
100
AcDbEntity
  8
1
  6
Continuous
 62
     0
100
AcDbLine
 10
11711.25109927067
 20
-1124.044764550338
 30
0.0
 11
11711.25109927067
 21
-1125.752395307613
 31
0.0
  0
LINE
  5
5D
330
25
100
AcDbEntity
  8
1
  6
Continuous
 62
     0
100
AcDbLine
 10
11752.25109927067
 20
-1124.044764550338
 30
0.0
 11
11752.25109927067
 21
-1125.378138835503
 31
0.0
  0
LINE
  5
5C
330
25
100
AcDbEntity
  8
1
  6
Continuous
 62
     0
100
AcDbLine
 10
11752.25109927067
 20
-1125.752395307612
 30
0.0
 11
11752.25109927067
 21
-1124.044764550338
 31
0.0
  0
LINE
  5
5B
330
25
100
AcDbEntity
  8
1
  6
Continuous
 62
     0
100
AcDbLine
 10
11766.75109927067
 20
-1067.659683368074
 30
0.0
 11
11766.75109927067
 21
-1075.659683368074
 31
0.0
  0
LINE
  5
5A
330
25
100
AcDbEntity
  8
1
  6
Continuous
 62
     0
100
AcDbLine
 10
11696.75109927067
 20
-1067.659683368074
 30
0.0
 11
11696.75109927067
 21
-1075.659683368074
 31
0.0
  0
LINE
  5
59
330
25
100
AcDbEntity
  8
1
  6
Continuous
 62
     0
100
AcDbLine
 10
11754.75109927067
 20
-951.159683368074
 30
0.0
 11
11754.75109927067
 21
-993.582333098884
 31
0.0
  0
LINE
  5
58
330
25
100
AcDbEntity
  8
1
  6
Continuous
 62
     0
100
AcDbLine
 10
11752.75109927067
 20
-951.159683368074
 30
0.0
 11
11752.75109927067
 21
-993.159683368074
 31
0.0
  0
LINE
  5
57
330
25
100
AcDbEntity
  8
1
  6
Continuous
 62
     0
100
AcDbLine
 10
11740.084432604
 20
-951.159683368074
 30
0.0
 11
11740.084432604
 21
-993.159683368074
 31
0.0
  0
LINE
  5
56
330
25
100
AcDbEntity
  8
1
  6
Continuous
 62
     0
100
AcDbLine
 10
11738.084432604
 20
-951.159683368074
 30
0.0
 11
11738.084432604
 21
-993.159683368074
 31
0.0
  0
LINE
  5
55
330
25
100
AcDbEntity
  8
1
  6
Continuous
 62
     0
100
AcDbLine
 10
11725.41776593733
 20
-951.159683368074
 30
0.0
 11
11725.41776593733
 21
-993.159683368074
 31
0.0
  0
LINE
  5
54
330
25
100
AcDbEntity
  8
1
  6
Continuous
 62
     0
100
AcDbLine
 10
11723.41776593733
 20
-951.159683368074
 30
0.0
 11
11723.41776593733
 21
-993.159683368074
 31
0.0
  0
LINE
  5
53
330
25
100
AcDbEntity
  8
1
  6
Continuous
 62
     0
100
AcDbLine
 10
11710.75109927067
 20
-951.159683368074
 30
0.0
 11
11710.75109927067
 21
-993.159683368074
 31
0.0
  0
LINE
  5
52
330
25
100
AcDbEntity
  8
1
  6
Continuous
 62
     0
100
AcDbLine
 10
11708.75109927067
 20
-951.159683368074
 30
0.0
 11
11708.75109927067
 21
-993.582333098884
 31
0.0
  0
LINE
  5
3C
330
25
100
AcDbEntity
  8
1
  6
Continuous
 62
     0
100
AcDbLine
 10
11740.66881379348
 20
-3661.777004582082
 30
0.0
 11
11740.66881379348
 21
-3664.777004582082
 31
0.0
  0
LINE
  5
3B
330
25
100
AcDbEntity
  8
1
  6
Continuous
 62
     0
100
AcDbLine
 10
11741.66881379348
 20
-3664.777004582082
 30
0.0
 11
11741.66881379348
 21
-3668.777004582082
 31
0.0
  0
LINE
  5
3A
330
25
100
AcDbEntity
  8
1
  6
Continuous
 62
     0
100
AcDbLine
 10
11741.81240733293
 20
-3668.777004582082
 30
0.0
 11
11741.81240733293
 21
-3677.705207812356
 31
0.0
  0
LINE
  5
39
330
25
100
AcDbEntity
  8
1
  6
Continuous
 62
     0
100
AcDbLine
 10
11741.81240733293
 20
-3677.705207812356
 30
0.0
 11
11743.66881379348
 21
-3678.777004582082
 31
0.0
  0
LINE
  5
38
330
25
100
AcDbEntity
  8
1
  6
Continuous
 62
     0
100
AcDbLine
 10
11719.83338474784
 20
-3678.777004582082
 30
0.0
 11
11721.6897912084
 21
-3677.705207812356
 31
0.0
  0
LINE
  5
37
330
25
100
AcDbEntity
  8
1
  6
Continuous
 62
     0
100
AcDbLine
 10
11721.6897912084
 20
-3677.705207812356
 30
0.0
 11
11721.6897912084
 21
-3668.777004582082
 31
0.0
  0
LINE
  5
36
330
25
100
AcDbEntity
  8
1
  6
Continuous
 62
     0
100
AcDbLine
 10
11721.83338474784
 20
-3668.777004582082
 30
0.0
 11
11721.83338474784
 21
-3664.777004582082
 31
0.0
  0
LINE
  5
35
330
25
100
AcDbEntity
  8
1
  6
Continuous
 62
     0
100
AcDbLine
 10
11722.83338474784
 20
-3664.777004582082
 30
0.0
 11
11722.83338474784
 21
-3661.777004582082
 31
0.0
  0
LINE
  5
34
330
25
100
AcDbEntity
  8
1
  6
Continuous
 62
     0
100
AcDbLine
 10
11735.75109927067
 20
-3673.777004582082
 30
0.0
 11
11735.75109927067
 21
-3666.777004582082
 31
0.0
  0
LINE
  5
33
330
25
100
AcDbEntity
  8
1
  6
Continuous
 62
     0
100
AcDbLine
 10
11727.75109927067
 20
-3666.777004582082
 30
0.0
 11
11727.75109927067
 21
-3673.777004582082
 31
0.0
  0
LINE
  5
32
330
25
100
AcDbEntity
  8
1
  6
Continuous
 62
     0
100
AcDbLine
 10
11733.75109927067
 20
-3675.777004582082
 30
0.0
 11
11729.75109927067
 21
-3675.777004582082
 31
0.0
  0
LINE
  5
31
330
25
100
AcDbEntity
  8
1
  6
Continuous
 62
     0
100
AcDbLine
 10
11735.75109927067
 20
-3673.182455097057
 30
0.0
 11
11735.75109927067
 21
-3666.182455097057
 31
0.0
  0
LINE
  5
30
330
25
100
AcDbEntity
  8
1
  6
Continuous
 62
     0
100
AcDbLine
 10
11727.75109927067
 20
-3666.182455097057
 30
0.0
 11
11727.75109927067
 21
-3673.182455097057
 31
0.0
  0
LINE
  5
2F
330
25
100
AcDbEntity
  8
1
  6
Continuous
 62
     0
100
AcDbLine
 10
11741.81240733293
 20
-3675.777004582082
 30
0.0
 11
11736.31909035644
 21
-3675.777004582082
 31
0.0
  0
LINE
  5
2E
330
25
100
AcDbEntity
  8
1
  6
Continuous
 62
     0
100
AcDbLine
 10
11727.18310818489
 20
-3675.777004582082
 30
0.0
 11
11721.6897912084
 21
-3675.777004582082
 31
0.0
  0
LINE
  5
2D
330
25
100
AcDbEntity
  8
1
  6
Continuous
 62
     0
100
AcDbLine
 10
11719.08806881036
 20
-3678.777004582082
 30
0.0
 11
11745.24286432607
 21
-3678.777004582082
 31
0.0
  0
LINE
  5
2C
330
25
100
AcDbEntity
  8
1
  6
Continuous
 62
     0
100
AcDbLine
 10
11741.66881379348
 20
-3666.182455097057
 30
0.0
 11
11721.83338474784
 21
-3666.182455097057
 31
0.0
  0
POINT
  5
2B
330
25
100
AcDbEntity
  8
1
 62
     0
100
AcDbPoint
 10
11121.09254670373
 20
-1079.22085314996
 30
0.0
  0
POINT
  5
2A
330
25
100
AcDbEntity
  8
1
 62
     0
100
AcDbPoint
 10
11733.92481195055
 20
-382.879683368075
 30
0.0
  0
LINE
  5
9B3
330
25
100
AcDbEntity
  8
0
  6
Continuous
 62
     0
100
AcDbLine
 10
14388.23754702505
 20
-651.879683368075
 30
0.0
 11
14388.23754702505
 21
-772.879683368075
 31
0.0
  0
LINE
  5
9B4
330
25
100
AcDbEntity
  8
0
  6
Continuous
 62
     0
100
AcDbLine
 10
14388.23754702505
 20
-1206.879683368074
 30
0.0
 11
14388.23754702505
 21
-930.879683368074
 31
0.0
  0
ARC
  5
9B5
330
25
100
AcDbEntity
  8
1
  6
Continuous
 62
     0
100
AcDbCircle
 10
14397.30934379477
 20
-909.6221541500299
 30
0.0
 40
22.928203230275
100
AcDbArc
 50
342.4120462260065
 51
17.58795377399364
  0
ARC
  5
9B6
330
25
100
AcDbEntity
  8
1
  6
Continuous
 62
     0
100
AcDbCircle
 10
14414.04920186416
 20
-838.3710960019221
 30
0.0
 40
6.188368025609
100
AcDbArc
 50
335.9793229189715
 51
34.22849580305566
  0
ARC
  5
9B7
330
25
100
AcDbEntity
  8
1
  6
Continuous
 62
     0
100
AcDbCircle
 10
14414.04920186416
 20
-920.031281306696
 30
0.0
 40
6.188368025609
100
AcDbArc
 50
335.9793229189715
 51
34.22849580305566
  0
ARC
  5
9B8
330
25
100
AcDbEntity
  8
1
  6
Continuous
 62
     0
100
AcDbCircle
 10
14414.04920186416
 20
-899.2130269933641
 30
0.0
 40
6.188368025611
100
AcDbArc
 50
325.7715041969469
 51
24.02067708102929
  0
ARC
  5
9B9
330
25
100
AcDbEntity
  8
1
  6
Continuous
 62
     0
100
AcDbCircle
 10
14397.30934379477
 20
-827.961968845256
 30
0.0
 40
22.928203230275
100
AcDbArc
 50
342.4120462260065
 51
17.5879537739931
  0
ARC
  5
9BA
330
25
100
AcDbEntity
  8
1
  6
Continuous
 62
     0
100
AcDbCircle
 10
14414.04920186416
 20
-783.7280854294529
 30
0.0
 40
6.188368025611
100
AcDbArc
 50
325.7715041969452
 51
24.02067708102929
  0
ARC
  5
9BB
330
25
100
AcDbEntity
  8
1
  6
Continuous
 62
     0
100
AcDbCircle
 10
14414.04920186416
 20
-865.388270734227
 30
0.0
 40
6.188368025611
100
AcDbArc
 50
325.7715041969452
 51
24.02067708102929
  0
ARC
  5
9BC
330
25
100
AcDbEntity
  8
1
  6
Continuous
 62
     0
100
AcDbCircle
 10
14397.30934379477
 20
-875.797397890892
 30
0.0
 40
22.928203230275
100
AcDbArc
 50
342.4120462260065
 51
17.5879537739931
  0
LINE
  5
9BD
330
25
100
AcDbEntity
  8
1
  6
Continuous
 62
     0
100
AcDbLine
 10
14403.23754702505
 20
-772.879683368074
 30
0.0
 11
14403.23754702505
 21
-930.879683368074
 31
0.0
  0
ARC
  5
9BE
330
25
100
AcDbEntity
  8
1
  6
Continuous
 62
     0
100
AcDbCircle
 10
14840.35999228054
 20
-851.879683368074
 30
0.0
 40
458.97244525549
100
AcDbArc
 50
170.088686020987
 51
189.9113139790128
  0
ARC
  5
9BF
330
25
100
AcDbEntity
  8
1
  6
Continuous
 62
     0
100
AcDbCircle
 10
14414.04920186416
 20
-804.546339742785
 30
0.0
 40
6.188368025609
100
AcDbArc
 50
335.9793229189715
 51
34.22849580305566
  0
ARC
  5
9C0
330
25
100
AcDbEntity
  8
1
  6
Continuous
 62
     0
100
AcDbCircle
 10
14414.04920186416
 20
-817.5528416885909
 30
0.0
 40
6.188368025611
100
AcDbArc
 50
325.7715041969452
 51
24.02067708102929
  0
ARC
  5
9C1
330
25
100
AcDbEntity
  8
1
  6
Continuous
 62
     0
100
AcDbCircle
 10
14397.30934379477
 20
-794.137212586119
 30
0.0
 40
22.928203230275
100
AcDbArc
 50
342.4120462260065
 51
17.58795377399364
  0
ARC
  5
9C2
330
25
100
AcDbEntity
  8
1
  6
Continuous
 62
     0
100
AcDbCircle
 10
14414.04920186416
 20
-886.206525047558
 30
0.0
 40
6.188368025609
100
AcDbArc
 50
335.9793229189715
 51
34.22849580305566
  0
LINE
  5
9C3
330
25
100
AcDbEntity
  8
1
  6
Continuous
 62
     0
100
AcDbLine
 10
14393.23754702505
 20
-772.879683368074
 30
0.0
 11
14393.23754702505
 21
-930.879683368074
 31
0.0
  0
LINE
  5
9C5
330
25
100
AcDbEntity
  8
1
  6
Continuous
 62
     0
100
AcDbLine
 10
14410.23754702505
 20
-787.2090093558429
 30
0.0
 11
14419.16575025532
 21
-787.2090093558429
 31
0.0
  0
LINE
  5
9C6
330
25
100
AcDbEntity
  8
1
  6
Continuous
 62
     0
100
AcDbLine
 10
14406.23754702505
 20
-779.137212586119
 30
0.0
 11
14403.23754702505
 21
-779.137212586119
 31
0.0
  0
LINE
  5
9C7
330
25
100
AcDbEntity
  8
1
  6
Continuous
 62
     0
100
AcDbLine
 10
14410.23754702505
 20
-808.137212586119
 30
0.0
 11
14410.23754702505
 21
-780.137212586119
 31
0.0
  0
LINE
  5
9C8
330
25
100
AcDbEntity
  8
1
  6
Continuous
 62
     0
100
AcDbLine
 10
14406.23754702505
 20
-808.137212586119
 30
0.0
 11
14410.23754702505
 21
-808.137212586119
 31
0.0
  0
LINE
  5
9CB
330
25
100
AcDbEntity
  8
1
  6
Continuous
 62
     0
100
AcDbLine
 10
14406.23754702505
 20
-841.961968845256
 30
0.0
 11
14410.23754702505
 21
-841.961968845256
 31
0.0
  0
LINE
  5
9CC
330
25
100
AcDbEntity
  8
1
  6
Continuous
 62
     0
100
AcDbLine
 10
14410.23754702505
 20
-813.961968845256
 30
0.0
 11
14406.23754702505
 21
-813.961968845256
 31
0.0
  0
LINE
  5
9CD
330
25
100
AcDbEntity
  8
1
  6
Continuous
 62
     0
100
AcDbLine
 10
14410.23754702505
 20
-821.0337656149809
 30
0.0
 11
14419.16575025532
 21
-821.0337656149809
 31
0.0
  0
LINE
  5
9CE
330
25
100
AcDbEntity
  8
1
  6
Continuous
 62
     0
100
AcDbLine
 10
14420.23754702505
 20
-782.137212586119
 30
0.0
 11
14419.16575025532
 21
-780.280806125568
 31
0.0
  0
LINE
  5
9CF
330
25
100
AcDbEntity
  8
1
  6
Continuous
 62
     0
100
AcDbLine
 10
14410.23754702505
 20
-792.061022109928
 30
0.0
 11
14406.23754702505
 21
-793.203879252786
 31
0.0
  0
LINE
  5
9D0
330
25
100
AcDbEntity
  8
1
  6
Continuous
 62
     0
100
AcDbLine
 10
14410.23754702505
 20
-834.8901720755321
 30
0.0
 11
14419.16575025532
 21
-834.8901720755321
 31
0.0
  0
LINE
  5
9D1
330
25
100
AcDbEntity
  8
1
  6
Continuous
 62
     0
100
AcDbLine
 10
14419.16575025532
 20
-814.1055623847051
 30
0.0
 11
14410.23754702505
 21
-814.1055623847051
 31
0.0
  0
LINE
  5
9D2
330
25
100
AcDbEntity
  8
1
  6
Continuous
 62
     0
100
AcDbLine
 10
14419.16575025532
 20
-807.9936190466699
 30
0.0
 11
14420.23754702505
 21
-806.137212586119
 31
0.0
  0
LINE
  5
9D3
330
25
100
AcDbEntity
  8
1
  6
Continuous
 62
     0
100
AcDbLine
 10
14403.23754702505
 20
-930.879683368074
 30
0.0
 11
14388.23754702505
 21
-930.879683368074
 31
0.0
  0
LINE
  5
9D4
330
25
100
AcDbEntity
  8
1
  6
Continuous
 62
     0
100
AcDbLine
 10
14410.23754702505
 20
-801.065415816395
 30
0.0
 11
14419.16575025532
 21
-801.065415816395
 31
0.0
  0
LINE
  5
9D5
330
25
100
AcDbEntity
  8
1
  6
Continuous
 62
     0
100
AcDbLine
 10
14403.23754702505
 20
-809.137212586119
 30
0.0
 11
14406.23754702505
 21
-809.137212586119
 31
0.0
  0
LINE
  5
9D6
330
25
100
AcDbEntity
  8
1
  6
Continuous
 62
     0
100
AcDbLine
 10
14410.23754702505
 20
-807.9936190466699
 30
0.0
 11
14419.16575025532
 21
-807.9936190466699
 31
0.0
  0
LINE
  5
9D7
330
25
100
AcDbEntity
  8
1
  6
Continuous
 62
     0
100
AcDbLine
 10
14420.23754702505
 20
-806.137212586119
 30
0.0
 11
14420.23754702505
 21
-782.137212586119
 31
0.0
  0
LINE
  5
9D8
330
25
100
AcDbEntity
  8
1
  6
Continuous
 62
     0
100
AcDbLine
 10
14403.23754702505
 20
-842.961968845256
 30
0.0
 11
14406.23754702505
 21
-842.961968845256
 31
0.0
  0
LINE
  5
9D9
330
25
100
AcDbEntity
  8
1
  6
Continuous
 62
     0
100
AcDbLine
 10
14410.23754702505
 20
-841.961968845256
 30
0.0
 11
14410.23754702505
 21
-813.961968845256
 31
0.0
  0
LINE
  5
9DA
330
25
100
AcDbEntity
  8
1
  6
Continuous
 62
     0
100
AcDbLine
 10
14403.23754702505
 20
-772.879683368074
 30
0.0
 11
14388.23754702505
 21
-772.879683368074
 31
0.0
  0
LINE
  5
9DB
330
25
100
AcDbEntity
  8
1
  6
Continuous
 62
     0
100
AcDbLine
 10
14419.16575025532
 20
-780.280806125568
 30
0.0
 11
14410.23754702505
 21
-780.280806125568
 31
0.0
  0
LINE
  5
9DC
330
25
100
AcDbEntity
  8
1
  6
Continuous
 62
     0
100
AcDbLine
 10
14406.23754702505
 20
-809.137212586119
 30
0.0
 11
14406.23754702505
 21
-779.137212586119
 31
0.0
  0
LINE
  5
9DD
330
25
100
AcDbEntity
  8
1
  6
Continuous
 62
     0
100
AcDbLine
 10
14410.23754702505
 20
-780.137212586119
 30
0.0
 11
14406.23754702505
 21
-780.137212586119
 31
0.0
  0
LINE
  5
9DE
330
25
100
AcDbEntity
  8
1
  6
Continuous
 62
     0
100
AcDbLine
 10
14403.23754702505
 20
-779.137212586119
 30
0.0
 11
14403.23754702505
 21
-809.137212586119
 31
0.0
  0
LINE
  5
9DF
330
25
100
AcDbEntity
  8
1
  6
Continuous
 62
     0
100
AcDbLine
 10
14406.23754702505
 20
-842.961968845256
 30
0.0
 11
14406.23754702505
 21
-812.961968845256
 31
0.0
  0
LINE
  5
9E0
330
25
100
AcDbEntity
  8
1
  6
Continuous
 62
     0
100
AcDbLine
 10
14410.23754702505
 20
-795.0705459194519
 30
0.0
 11
14406.23754702505
 21
-796.2134030623099
 31
0.0
  0
LINE
  5
9E1
330
25
100
AcDbEntity
  8
1
  6
Continuous
 62
     0
100
AcDbLine
 10
14406.23754702505
 20
-812.961968845256
 30
0.0
 11
14403.23754702505
 21
-812.961968845256
 31
0.0
  0
LINE
  5
9E2
330
25
100
AcDbEntity
  8
1
  6
Continuous
 62
     0
100
AcDbLine
 10
14403.23754702505
 20
-812.961968845256
 30
0.0
 11
14403.23754702505
 21
-842.961968845256
 31
0.0
  0
LINE
  5
9E3
330
25
100
AcDbEntity
  8
1
  6
Continuous
 62
     0
100
AcDbLine
 10
14410.23754702505
 20
-825.885778369066
 30
0.0
 11
14406.23754702505
 21
-827.0286355119231
 31
0.0
  0
LINE
  5
9E4
330
25
100
AcDbEntity
  8
1
  6
Continuous
 62
     0
100
AcDbLine
 10
14410.23754702505
 20
-828.895302178589
 30
0.0
 11
14406.23754702505
 21
-830.038159321447
 31
0.0
  0
LINE
  5
9E5
330
25
100
AcDbEntity
  8
1
  6
Continuous
 62
     0
100
AcDbLine
 10
14406.23754702505
 20
-876.730731224226
 30
0.0
 11
14410.23754702505
 21
-877.8735883670829
 31
0.0
  0
LINE
  5
9E6
330
25
100
AcDbEntity
  8
1
  6
Continuous
 62
     0
100
AcDbLine
 10
14406.23754702505
 20
-873.7212074147019
 30
0.0
 11
14410.23754702505
 21
-874.8640645575599
 31
0.0
  0
LINE
  5
9E7
330
25
100
AcDbEntity
  8
1
  6
Continuous
 62
     0
100
AcDbLine
 10
14406.23754702505
 20
-860.797397890892
 30
0.0
 11
14403.23754702505
 21
-860.797397890892
 31
0.0
  0
LINE
  5
9E8
330
25
100
AcDbEntity
  8
1
  6
Continuous
 62
     0
100
AcDbLine
 10
14420.23754702505
 20
-839.961968845256
 30
0.0
 11
14420.23754702505
 21
-815.961968845256
 31
0.0
  0
LINE
  5
9E9
330
25
100
AcDbEntity
  8
1
  6
Continuous
 62
     0
100
AcDbLine
 10
14420.23754702505
 20
-815.961968845256
 30
0.0
 11
14419.16575025532
 21
-814.1055623847051
 31
0.0
  0
LINE
  5
9EA
330
25
100
AcDbEntity
  8
1
  6
Continuous
 62
     0
100
AcDbLine
 10
14420.23754702505
 20
-863.797397890892
 30
0.0
 11
14419.16575025532
 21
-861.9409914303419
 31
0.0
  0
LINE
  5
9EB
330
25
100
AcDbEntity
  8
1
  6
Continuous
 62
     0
100
AcDbLine
 10
14410.23754702505
 20
-889.653804351444
 30
0.0
 11
14419.16575025532
 21
-889.653804351444
 31
0.0
  0
LINE
  5
9EC
330
25
100
AcDbEntity
  8
1
  6
Continuous
 62
     0
100
AcDbLine
 10
14410.23754702505
 20
-861.797397890892
 30
0.0
 11
14406.23754702505
 21
-861.797397890892
 31
0.0
  0
LINE
  5
9ED
330
25
100
AcDbEntity
  8
1
  6
Continuous
 62
     0
100
AcDbLine
 10
14419.16575025532
 20
-882.725601121168
 30
0.0
 11
14410.23754702505
 21
-882.725601121168
 31
0.0
  0
LINE
  5
9EE
330
25
100
AcDbEntity
  8
1
  6
Continuous
 62
     0
100
AcDbLine
 10
14410.23754702505
 20
-841.818375305807
 30
0.0
 11
14419.16575025532
 21
-841.818375305807
 31
0.0
  0
LINE
  5
9EF
330
25
100
AcDbEntity
  8
1
  6
Continuous
 62
     0
100
AcDbLine
 10
14419.16575025532
 20
-841.818375305807
 30
0.0
 11
14420.23754702505
 21
-839.961968845256
 31
0.0
  0
LINE
  5
9F0
330
25
100
AcDbEntity
  8
1
  6
Continuous
 62
     0
100
AcDbLine
 10
14419.16575025532
 20
-889.653804351444
 30
0.0
 11
14420.23754702505
 21
-887.797397890892
 31
0.0
  0
LINE
  5
9F1
330
25
100
AcDbEntity
  8
1
  6
Continuous
 62
     0
100
AcDbLine
 10
14420.23754702505
 20
-887.797397890892
 30
0.0
 11
14420.23754702505
 21
-863.797397890892
 31
0.0
  0
LINE
  5
9F2
330
25
100
AcDbEntity
  8
1
  6
Continuous
 62
     0
100
AcDbLine
 10
14419.16575025532
 20
-868.869194660617
 30
0.0
 11
14410.23754702505
 21
-868.869194660617
 31
0.0
  0
LINE
  5
9F3
330
25
100
AcDbEntity
  8
1
  6
Continuous
 62
     0
100
AcDbLine
 10
14419.16575025532
 20
-861.9409914303419
 30
0.0
 11
14410.23754702505
 21
-861.9409914303419
 31
0.0
  0
LINE
  5
9F4
330
25
100
AcDbEntity
  8
1
  6
Continuous
 62
     0
100
AcDbLine
 10
14410.23754702505
 20
-889.797397890892
 30
0.0
 11
14410.23754702505
 21
-861.797397890892
 31
0.0
  0
LINE
  5
9F5
330
25
100
AcDbEntity
  8
1
  6
Continuous
 62
     0
100
AcDbLine
 10
14406.23754702505
 20
-889.797397890892
 30
0.0
 11
14410.23754702505
 21
-889.797397890892
 31
0.0
  0
LINE
  5
9F6
330
25
100
AcDbEntity
  8
1
  6
Continuous
 62
     0
100
AcDbLine
 10
14410.23754702505
 20
-923.4785606105811
 30
0.0
 11
14419.16575025532
 21
-923.4785606105811
 31
0.0
  0
LINE
  5
9F7
330
25
100
AcDbEntity
  8
1
  6
Continuous
 62
     0
100
AcDbLine
 10
14406.23754702505
 20
-890.797397890892
 30
0.0
 11
14406.23754702505
 21
-860.797397890892
 31
0.0
  0
LINE
  5
9F8
330
25
100
AcDbEntity
  8
1
  6
Continuous
 62
     0
100
AcDbLine
 10
14420.23754702505
 20
-921.6221541500299
 30
0.0
 11
14420.23754702505
 21
-897.6221541500299
 31
0.0
  0
LINE
  5
9F9
330
25
100
AcDbEntity
  8
1
  6
Continuous
 62
     0
100
AcDbLine
 10
14410.23754702505
 20
-923.6221541500299
 30
0.0
 11
14410.23754702505
 21
-895.6221541500299
 31
0.0
  0
LINE
  5
9FA
330
25
100
AcDbEntity
  8
1
  6
Continuous
 62
     0
100
AcDbLine
 10
14406.23754702505
 20
-923.6221541500299
 30
0.0
 11
14410.23754702505
 21
-923.6221541500299
 31
0.0
  0
LINE
  5
9FB
330
25
100
AcDbEntity
  8
1
  6
Continuous
 62
     0
100
AcDbLine
 10
14403.23754702505
 20
-890.797397890892
 30
0.0
 11
14406.23754702505
 21
-890.797397890892
 31
0.0
  0
LINE
  5
9FC
330
25
100
AcDbEntity
  8
1
  6
Continuous
 62
     0
100
AcDbLine
 10
14406.23754702505
 20
-894.6221541500299
 30
0.0
 11
14403.23754702505
 21
-894.6221541500299
 31
0.0
  0
LINE
  5
9FD
330
25
100
AcDbEntity
  8
1
  6
Continuous
 62
     0
100
AcDbLine
 10
14406.23754702505
 20
-910.5554874833631
 30
0.0
 11
14410.23754702505
 21
-911.69834462622
 31
0.0
  0
LINE
  5
9FE
330
25
100
AcDbEntity
  8
1
  6
Continuous
 62
     0
100
AcDbLine
 10
14419.16575025532
 20
-923.4785606105811
 30
0.0
 11
14420.23754702505
 21
-921.6221541500299
 31
0.0
  0
LINE
  5
9FF
330
25
100
AcDbEntity
  8
1
  6
Continuous
 62
     0
100
AcDbLine
 10
14403.23754702505
 20
-894.6221541500299
 30
0.0
 11
14403.23754702505
 21
-924.6221541500299
 31
0.0
  0
LINE
  5
A00
330
25
100
AcDbEntity
  8
1
  6
Continuous
 62
     0
100
AcDbLine
 10
14406.23754702505
 20
-924.6221541500299
 30
0.0
 11
14406.23754702505
 21
-894.6221541500299
 31
0.0
  0
LINE
  5
A01
330
25
100
AcDbEntity
  8
1
  6
Continuous
 62
     0
100
AcDbLine
 10
14406.23754702505
 20
-907.545963673839
 30
0.0
 11
14410.23754702505
 21
-908.6888208166961
 31
0.0
  0
LINE
  5
A02
330
25
100
AcDbEntity
  8
1
  6
Continuous
 62
     0
100
AcDbLine
 10
14419.16575025532
 20
-902.6939509197539
 30
0.0
 11
14410.23754702505
 21
-902.6939509197539
 31
0.0
  0
LINE
  5
A03
330
25
100
AcDbEntity
  8
1
  6
Continuous
 62
     0
100
AcDbLine
 10
14419.16575025532
 20
-895.765747689479
 30
0.0
 11
14410.23754702505
 21
-895.765747689479
 31
0.0
  0
LINE
  5
A04
330
25
100
AcDbEntity
  8
1
  6
Continuous
 62
     0
100
AcDbLine
 10
14420.23754702505
 20
-897.6221541500299
 30
0.0
 11
14419.16575025532
 21
-895.765747689479
 31
0.0
  0
LINE
  5
A06
330
25
100
AcDbEntity
  8
1
  6
Continuous
 62
     0
100
AcDbLine
 10
14410.23754702505
 20
-895.6221541500299
 30
0.0
 11
14406.23754702505
 21
-895.6221541500299
 31
0.0
  0
LINE
  5
A08
330
25
100
AcDbEntity
  8
1
  6
Continuous
 62
     0
100
AcDbLine
 10
14403.23754702505
 20
-924.6221541500299
 30
0.0
 11
14406.23754702505
 21
-924.6221541500299
 31
0.0
  0
LINE
  5
A09
330
25
100
AcDbEntity
  8
1
  6
Continuous
 62
     0
100
AcDbLine
 10
14403.23754702505
 20
-860.797397890892
 30
0.0
 11
14403.23754702505
 21
-890.797397890892
 31
0.0
  0
LINE
  5
A0A
330
25
100
AcDbEntity
  8
1
  6
Continuous
 62
     0
100
AcDbLine
 10
14419.16575025532
 20
-916.550357380306
 30
0.0
 11
14410.23754702505
 21
-916.550357380306
 31
0.0
  0
ENDBLK
  5
489
330
25
100
AcDbEntity
  8
0
100
AcDbBlockEnd
  0
ENDSEC
  0
SECTION
  2
ENTITIES
  0
TEXT
  5
48C
330
A
100
AcDbEntity
  8
1
 62
     0
100
AcDbText
 10
15400.8721358269
 20
-3569.743720262341
 30
0.0
 40
35.0
  1
SAT-1000C-125
 41
0.9
  7
CONVERTER_1
100
AcDbText
  0
INSERT
  5
29
330
A
100
AcDbEntity
  8
0
100
AcDbBlockReference
  2
SAT1000C125__1
 10
0.0
 20
0.0
 30
0.0
  0
VIEWPORT
  5
1795
330
1791
100
AcDbEntity
 67
     1
  8
0
100
AcDbViewport
 10
0.0
 20
0.0
 30
0.0
 40
20.85983606557376
 41
8.924999999999997
 68
     1
 69
     1
 12
2.271088364564546
 22
3.345351965108693
 13
0.0
 23
0.0
 14
0.5
 24
0.5
 15
0.0
 25
0.0
 16
0.0
 26
0.0
 36
1.0
 17
0.0
 27
0.0
 37
0.0
 42
50.0
 43
0.0
 44
0.0
 45
8.924999999999997
 50
0.0
 51
0.0
 72
   100
 90
   557168
  1

281
     0
 71
     1
 74
     0
110
0.0
120
0.0
130
0.0
111
1.0
121
0.0
131
0.0
112
0.0
122
1.0
132
0.0
 79
     0
146
0.0
170
     0
 61
     5
348
4BB
292
     1
282
     1
141
0.0
142
0.0
 63
   256
361
1799
  0
VIEWPORT
  5
1796
102
{ACAD_XDICTIONARY
360
1797
102
}
330
1791
100
AcDbEntity
 67
     1
  8
0
100
AcDbViewport
 10
5.25
 20
3.5
 30
0.0
 40
8.4
 41
5.600000000000001
 68
     2
 69
     2
 12
13442.10734126531
 22
-2030.828343975078
 13
0.0
 23
0.0
 14
0.5
 24
0.5
 15
0.0
 25
0.0
 16
0.0
 26
0.0
 36
1.0
 17
0.0
 27
0.0
 37
0.0
 42
50.0
 43
0.0
 44
0.0
 45
3361.815267638287
 50
0.0
 51
0.0
 72
   100
 90
   557152
  1

281
     0
 71
     1
 74
     0
110
0.0
120
0.0
130
0.0
111
1.0
121
0.0
131
0.0
112
0.0
122
1.0
132
0.0
 79
     0
146
0.0
170
     0
 61
     5
348
4BB
292
     1
282
     1
141
0.0
142
0.0
 63
   256
  0
ENDSEC
  0
SECTION
  2
OBJECTS
  0
DICTIONARY
  5
19
330
0
100
AcDbDictionary
281
     1
  3
ACAD_DETAILVIEWSTYLE
350
A1F
  3
ACAD_GROUP
350
1A
  3
ACAD_LAYOUT
350
4B3
  3
ACAD_MATERIAL
350
4CF
  3
ACAD_MLEADERSTYLE
350
4D5
  3
ACAD_MLINESTYLE
350
1B
  3
ACAD_PLOTSETTINGS
350
48E
  3
ACAD_PLOTSTYLENAME
350
48F
  3
ACAD_SCALELIST
350
491
  3
ACAD_SECTIONVIEWSTYLE
350
A20
  3
ACAD_TABLESTYLE
350
4D3
  3
ACAD_VISUALSTYLE
350
4B6
  3
ACDB_RECOMPOSE_DATA
350
179F
  3
AcDbVariableDictionary
350
A17
  3
APPDATA
350
4D7
  0
SUN
  5
ED1
330
15
100
AcDbSun
 90
        1
290
     0
 63
     7
421
 16777215
 40
1.0
291
     1
 91
  2455826
 92
 54000000
292
     0
 70
     2
 71
   256
280
     1
  0
SUN
  5
1799
330
1795
100
AcDbSun
 90
        1
290
     0
 63
     7
421
 16777215
 40
1.0
291
     1
 91
  2455826
 92
 54000000
292
     0
 70
     2
 71
   256
280
     1
  0
DICTIONARY
  5
1797
330
1796
100
AcDbDictionary
280
     1
281
     1
  3
ASDK_XREC_ANNOTATION_SCALE_INFO
360
1798
  0
DICTIONARY
  5
A1F
102
{ACAD_REACTORS
330
19
102
}
330
19
100
AcDbDictionary
281
     1
  0
DICTIONARY
  5
1A
102
{ACAD_REACTORS
330
19
102
}
330
19
100
AcDbDictionary
281
     1
  0
DICTIONARY
  5
4B3
102
{ACAD_REACTORS
330
19
102
}
330
19
100
AcDbDictionary
281
     1
  3
Model
350
4B4
  3
シート1
350
1792
  0
DICTIONARY
  5
4CF
102
{ACAD_REACTORS
330
19
102
}
330
19
100
AcDbDictionary
281
     1
  3
ByBlock
350
4D1
  3
ByLayer
350
4D0
  3
Global
350
4D2
  0
DICTIONARY
  5
4D5
102
{ACAD_REACTORS
330
19
102
}
330
19
100
AcDbDictionary
281
     1
  3
Standard
350
4D6
  0
DICTIONARY
  5
1B
102
{ACAD_REACTORS
330
19
102
}
330
19
100
AcDbDictionary
281
     1
  3
STANDARD
350
1C
  0
DICTIONARY
  5
48E
102
{ACAD_REACTORS
330
19
102
}
330
19
100
AcDbDictionary
281
     1
  0
ACDBDICTIONARYWDFLT
  5
48F
102
{ACAD_REACTORS
330
19
102
}
330
19
100
AcDbDictionary
281
     1
  3
Normal
350
490
100
AcDbDictionaryWithDefault
340
490
  0
DICTIONARY
  5
491
102
{ACAD_REACTORS
330
19
102
}
330
19
100
AcDbDictionary
281
     1
  3
A0
350
492
  3
A1
350
493
  3
A2
350
494
  3
A3
350
495
  3
A4
350
496
  3
A5
350
497
  3
A6
350
498
  3
A7
350
499
  3
A8
350
49A
  3
A9
350
49B
  3
B0
350
49C
  3
B1
350
49D
  3
B2
350
49E
  3
B3
350
49F
  3
B4
350
4A0
  3
B5
350
4A1
  3
B6
350
4A2
  3
B7
350
4A3
  3
B8
350
4A4
  3
B9
350
4A5
  3
C0
350
4A6
  3
C1
350
4A7
  3
C2
350
4A8
  3
C3
350
4A9
  3
C4
350
4AA
  3
C5
350
4AB
  3
C6
350
4AC
  3
C7
350
4AD
  3
C8
350
4AE
  3
C9
350
4AF
  3
D0
350
4B0
  3
D1
350
4B1
  3
D2
350
4B2
  0
DICTIONARY
  5
A20
102
{ACAD_REACTORS
330
19
102
}
330
19
100
AcDbDictionary
281
     1
  0
DICTIONARY
  5
4D3
102
{ACAD_REACTORS
330
19
102
}
330
19
100
AcDbDictionary
281
     1
  3
Standard
350
4D4
  0
DICTIONARY
  5
4B6
102
{ACAD_REACTORS
330
19
102
}
330
19
100
AcDbDictionary
281
     1
  3
2dWireframe
350
4BB
  3
Basic
350
4BE
  3
Brighten
350
4C2
  3
ColorChange
350
4C6
  3
Conceptual
350
4C0
  3
Dim
350
4C1
  3
EdgeColorOff
350
4C9
  3
Facepattern
350
4C5
  3
Flat
350
4B7
  3
FlatWithEdges
350
4B8
  3
Gouraud
350
4B9
  3
GouraudWithEdges
350
4BA
  3
Hidden
350
4BD
  3
JitterOff
350
4C7
  3
Linepattern
350
4C4
  3
OverhangOff
350
4C8
  3
Realistic
350
4BF
  3
Shaded
350
4CE
  3
Shaded with edges
350
4CD
  3
Shades of Gray
350
4CA
  3
Sketchy
350
4CB
  3
Thicken
350
4C3
  3
Wireframe
350
4BC
  3
X-Ray
350
4CC
  0
XRECORD
  5
179F
102
{ACAD_REACTORS
330
19
102
}
330
19
100
AcDbXrecord
280
     1
 90
        1
330
4D4
  0
DICTIONARY
  5
A17
102
{ACAD_REACTORS
330
19
102
}
330
19
100
AcDbDictionary
281
     1
  3
CANNOSCALE
350
A18
  3
CMLEADERSTYLE
350
A1D
  3
CTABLESTYLE
350
A1C
  3
MSLTSCALE
350
A1E
  0
DICTIONARY
  5
4D7
102
{ACAD_REACTORS
330
19
102
}
330
19
100
AcDbDictionary
281
     1
  0
XRECORD
  5
1798
102
{ACAD_REACTORS
330
1797
102
}
330
1797
100
AcDbXrecord
280
     1
 90
        1
340
492
  0
LAYOUT
  5
4B4
102
{ACAD_REACTORS
330
4B3
102
}
330
4B3
100
AcDbPlotSettings
  1

  2
none_device
  4
Letter_(8.50_x_11.00_Inches)
  6

 40
6.35
 41
6.35
 42
6.35
 43
6.35
 44
215.9
 45
279.4
 46
0.0
 47
0.0
 48
0.0
 49
0.0
140
0.0
141
0.0
142
1.0
143
0.8722256190476192
 70
  1712
 72
     0
 73
     0
 74
     0
  7

 75
     0
 76
     0
 77
     2
 78
   300
147
1.146492350330064
148
-87.33095066012679
149
0.0000127000000131
100
AcDbLayout
  1
Model
 70
     1
 71
     0
 10
0.0
 20
0.0
 11
0.0
 21
0.0
 12
0.0
 22
0.0
 32
0.0
 14
11121.09254670373
 24
-3678.777027446812
 34
0.0
 15
15763.1221358269
 25
-382.8796833680749
 35
0.0
146
0.0
 13
0.0
 23
0.0
 33
0.0
 16
1.0
 26
0.0
 36
0.0
 17
0.0
 27
1.0
 37
0.0
 76
     0
330
A
331
15
  0
LAYOUT
  5
1792
102
{ACAD_REACTORS
330
4B3
102
}
330
4B3
100
AcDbPlotSettings
  1

  2
none_device
  4
ANSI_A_(11.00_x_8.50_Inches)
  6

 40
6.35
 41
19.05
 42
6.35
 43
19.05
 44
279.4
 45
215.9
 46
0.0
 47
0.0
 48
0.0
 49
0.0
140
0.0
141
0.0
142
1.0
143
1.0
 70
   688
 72
     0
 73
     0
 74
     5
  7

 75
    16
 76
     0
 77
     2
 78
   300
147
1.0
148
0.0
149
0.0
100
AcDbLayout
  1
シート1
 70
     1
 71
     1
 10
-0.25
 20
-0.7499999999999999
 11
10.75
 21
7.75
 12
0.0
 22
0.0
 32
0.0
 14
1.05
 24
0.6999999999999997
 34
0.0
 15
9.45
 25
6.300000000000001
 35
0.0
146
0.0
 13
0.0
 23
0.0
 33
0.0
 16
1.0
 26
0.0
 36
0.0
 17
0.0
 27
1.0
 37
0.0
 76
     0
330
1791
331
1795
  0
MATERIAL
  5
4D1
102
{ACAD_REACTORS
330
4CF
102
}
330
4CF
100
AcDbMaterial
  1
ByBlock
 72
     1
 94
      127
  0
MATERIAL
  5
4D0
102
{ACAD_REACTORS
330
4CF
102
}
330
4CF
100
AcDbMaterial
  1
ByLayer
 72
     1
 94
      127
  0
MATERIAL
  5
4D2
102
{ACAD_REACTORS
330
4CF
102
}
330
4CF
100
AcDbMaterial
  1
Global
 72
     1
 94
      127
  0
MLEADERSTYLE
  5
4D6
102
{ACAD_REACTORS
330
4D5
102
}
330
4D5
100
AcDbMLeaderStyle
179
     2
170
     2
171
     1
172
     0
 90
        2
 40
0.0
 41
0.0
173
     1
 91
-1056964608
340
11
 92
       -2
290
     1
 42
0.09
291
     1
 43
0.36
  3
Standard
341
0
 44
0.18
300

342
17
174
     1
178
     1
175
     1
176
     0
 93
-1056964608
 45
0.18
292
     0
297
     0
 46
0.18
343
0
 94
-1056964608
 47
1.0
 49
1.0
140
1.0
293
     1
141
0.0
294
     1
177
     0
142
1.0
295
     0
296
     0
143
0.125
271
     0
272
     9
273
     9
298
     0
  0
MLINESTYLE
  5
1C
102
{ACAD_REACTORS
330
1B
102
}
330
1B
100
AcDbMlineStyle
  2
STANDARD
 70
     0
  3

 62
     0
 51
90.0
 52
90.0
 71
     2
 49
0.5
 62
   256
  6
BYLAYER
 49
-0.5
 62
   256
  6
BYLAYER
  0
ACDBPLACEHOLDER
  5
490
102
{ACAD_REACTORS
330
48F
102
}
330
48F
  0
SCALE
  5
492
102
{ACAD_REACTORS
330
491
102
}
330
491
100
AcDbScale
 70
     0
300
1:1
140
1.0
141
1.0
290
     1
  0
SCALE
  5
493
102
{ACAD_REACTORS
330
491
102
}
330
491
100
AcDbScale
 70
     0
300
1:2
140
1.0
141
2.0
290
     0
  0
SCALE
  5
494
102
{ACAD_REACTORS
330
491
102
}
330
491
100
AcDbScale
 70
     0
300
1:4
140
1.0
141
4.0
290
     0
  0
SCALE
  5
495
102
{ACAD_REACTORS
330
491
102
}
330
491
100
AcDbScale
 70
     0
300
1:5
140
1.0
141
5.0
290
     0
  0
SCALE
  5
496
102
{ACAD_REACTORS
330
491
102
}
330
491
100
AcDbScale
 70
     0
300
1:8
140
1.0
141
8.0
290
     0
  0
SCALE
  5
497
102
{ACAD_REACTORS
330
491
102
}
330
491
100
AcDbScale
 70
     0
300
1:10
140
1.0
141
10.0
290
     0
  0
SCALE
  5
498
102
{ACAD_REACTORS
330
491
102
}
330
491
100
AcDbScale
 70
     0
300
1:16
140
1.0
141
16.0
290
     0
  0
SCALE
  5
499
102
{ACAD_REACTORS
330
491
102
}
330
491
100
AcDbScale
 70
     0
300
1:20
140
1.0
141
20.0
290
     0
  0
SCALE
  5
49A
102
{ACAD_REACTORS
330
491
102
}
330
491
100
AcDbScale
 70
     0
300
1:30
140
1.0
141
30.0
290
     0
  0
SCALE
  5
49B
102
{ACAD_REACTORS
330
491
102
}
330
491
100
AcDbScale
 70
     0
300
1:40
140
1.0
141
40.0
290
     0
  0
SCALE
  5
49C
102
{ACAD_REACTORS
330
491
102
}
330
491
100
AcDbScale
 70
     0
300
1:50
140
1.0
141
50.0
290
     0
  0
SCALE
  5
49D
102
{ACAD_REACTORS
330
491
102
}
330
491
100
AcDbScale
 70
     0
300
1:100
140
1.0
141
100.0
290
     0
  0
SCALE
  5
49E
102
{ACAD_REACTORS
330
491
102
}
330
491
100
AcDbScale
 70
     0
300
2:1
140
2.0
141
1.0
290
     0
  0
SCALE
  5
49F
102
{ACAD_REACTORS
330
491
102
}
330
491
100
AcDbScale
 70
     0
300
4:1
140
4.0
141
1.0
290
     0
  0
SCALE
  5
4A0
102
{ACAD_REACTORS
330
491
102
}
330
491
100
AcDbScale
 70
     0
300
8:1
140
8.0
141
1.0
290
     0
  0
SCALE
  5
4A1
102
{ACAD_REACTORS
330
491
102
}
330
491
100
AcDbScale
 70
     0
300
10:1
140
10.0
141
1.0
290
     0
  0
SCALE
  5
4A2
102
{ACAD_REACTORS
330
491
102
}
330
491
100
AcDbScale
 70
     0
300
100:1
140
100.0
141
1.0
290
     0
  0
SCALE
  5
4A3
102
{ACAD_REACTORS
330
491
102
}
330
491
100
AcDbScale
 70
     0
300
1/128" = 1'-0"
140
0.0078125
141
12.0
290
     0
  0
SCALE
  5
4A4
102
{ACAD_REACTORS
330
491
102
}
330
491
100
AcDbScale
 70
     0
300
1/64" = 1'-0"
140
0.015625
141
12.0
290
     0
  0
SCALE
  5
4A5
102
{ACAD_REACTORS
330
491
102
}
330
491
100
AcDbScale
 70
     0
300
1/32" = 1'-0"
140
0.03125
141
12.0
290
     0
  0
SCALE
  5
4A6
102
{ACAD_REACTORS
330
491
102
}
330
491
100
AcDbScale
 70
     0
300
1/16" = 1'-0"
140
0.0625
141
12.0
290
     0
  0
SCALE
  5
4A7
102
{ACAD_REACTORS
330
491
102
}
330
491
100
AcDbScale
 70
     0
300
3/32" = 1'-0"
140
0.09375
141
12.0
290
     0
  0
SCALE
  5
4A8
102
{ACAD_REACTORS
330
491
102
}
330
491
100
AcDbScale
 70
     0
300
1/8" = 1'-0"
140
0.125
141
12.0
290
     0
  0
SCALE
  5
4A9
102
{ACAD_REACTORS
330
491
102
}
330
491
100
AcDbScale
 70
     0
300
3/16" = 1'-0"
140
0.1875
141
12.0
290
     0
  0
SCALE
  5
4AA
102
{ACAD_REACTORS
330
491
102
}
330
491
100
AcDbScale
 70
     0
300
1/4" = 1'-0"
140
0.25
141
12.0
290
     0
  0
SCALE
  5
4AB
102
{ACAD_REACTORS
330
491
102
}
330
491
100
AcDbScale
 70
     0
300
3/8" = 1'-0"
140
0.375
141
12.0
290
     0
  0
SCALE
  5
4AC
102
{ACAD_REACTORS
330
491
102
}
330
491
100
AcDbScale
 70
     0
300
1/2" = 1'-0"
140
0.5
141
12.0
290
     0
  0
SCALE
  5
4AD
102
{ACAD_REACTORS
330
491
102
}
330
491
100
AcDbScale
 70
     0
300
3/4" = 1'-0"
140
0.75
141
12.0
290
     0
  0
SCALE
  5
4AE
102
{ACAD_REACTORS
330
491
102
}
330
491
100
AcDbScale
 70
     0
300
1" = 1'-0"
140
1.0
141
12.0
290
     0
  0
SCALE
  5
4AF
102
{ACAD_REACTORS
330
491
102
}
330
491
100
AcDbScale
 70
     0
300
1-1/2" = 1'-0"
140
1.5
141
12.0
290
     0
  0
SCALE
  5
4B0
102
{ACAD_REACTORS
330
491
102
}
330
491
100
AcDbScale
 70
     0
300
3" = 1'-0"
140
3.0
141
12.0
290
     0
  0
SCALE
  5
4B1
102
{ACAD_REACTORS
330
491
102
}
330
491
100
AcDbScale
 70
     0
300
6" = 1'-0"
140
6.0
141
12.0
290
     0
  0
SCALE
  5
4B2
102
{ACAD_REACTORS
330
491
102
}
330
491
100
AcDbScale
 70
     0
300
1'-0" = 1'-0"
140
12.0
141
12.0
290
     0
  0
TABLESTYLE
  5
4D4
102
{ACAD_REACTORS
330
4D3
102
}
102
{ACAD_XDICTIONARY
360
179D
102
}
330
4D3
100
AcDbTableStyle
  3
Standard
 70
     0
 71
     0
 40
0.06
 41
0.06
280
     0
281
     0
  7
STANDARD
140
0.18
170
     2
 62
     0
 63
   257
283
     0
 90
        4
 91
        0
  1

274
    -2
284
     1
 64
     0
275
    -2
285
     1
 65
     0
276
    -2
286
     1
 66
     0
277
    -2
287
     1
 67
     0
278
    -2
288
     1
 68
     0
279
    -2
289
     1
 69
     0
  7
STANDARD
140
0.25
170
     5
 62
     0
 63
   257
283
     0
 90
        4
 91
        0
  1

274
    -2
284
     1
 64
     0
275
    -2
285
     1
 65
     0
276
    -2
286
     1
 66
     0
277
    -2
287
     1
 67
     0
278
    -2
288
     1
 68
     0
279
    -2
289
     1
 69
     0
  7
STANDARD
140
0.18
170
     5
 62
     0
 63
   257
283
     0
 90
        4
 91
        0
  1

274
    -2
284
     1
 64
     0
275
    -2
285
     1
 65
     0
276
    -2
286
     1
 66
     0
277
    -2
287
     1
 67
     0
278
    -2
288
     1
 68
     0
279
    -2
289
     1
 69
     0
  0
VISUALSTYLE
  5
4BB
102
{ACAD_REACTORS
330
4B6
102
}
330
4B6
100
AcDbVisualStyle
  2
2dWireframe
 70
     4
177
     3
291
     0
 70
    58
 90
        0
176
     1
 90
        2
176
     1
 90
        0
176
     1
 90
        0
176
     1
 40
0.6
176
     1
 40
30.0
176
     1
 62
     7
420
 16777215
176
     1
 90
        1
176
     1
 90
        4
176
     1
 62
     7
176
     1
 62
   257
176
     1
 90
        1
176
     1
 90
        1
176
     1
 40
1.0
176
     1
 90
        0
176
     1
 62
   257
176
     1
 40
1.0
176
     1
 90
        1
176
     1
 90
        6
176
     1
 90
        2
176
     1
 62
     7
176
     1
 90
        5
176
     1
 90
        0
176
     1
 90
        0
176
     1
290
     0
176
     1
 90
        1
176
     1
 40
0.0
176
     1
 90
        0
176
     1
290
     1
176
     1
290
     1
176
     1
290
     0
176
     1
290
     0
176
     1
290
     0
176
     1
290
     0
176
     1
290
     0
176
     1
290
     0
176
     1
290
     0
176
     1
 90
       50
176
     1
 40
0.0
176
     1
 40
1.0
176
     1
 90
        0
176
     1
 62
    18
420
        0
176
     1
 90
       50
176
     1
 90
        3
176
     1
 62
     5
420
      255
176
     1
290
     0
176
     1
 90
       50
176
     1
 90
       50
176
     1
 90
       50
176
     1
290
     0
176
     1
 90
       50
176
     1
 62
   256
176
     0
 40
1.0
176
     0
 90
        2
176
     1
  1
strokes_ogs.tif
176
     1
290
     0
176
     1
 40
1.0
176
     1
 40
1.0
176
     1
  0
VISUALSTYLE
  5
4BE
102
{ACAD_REACTORS
330
4B6
102
}
330
4B6
100
AcDbVisualStyle
  2
Basic
 70
     7
177
     3
291
     1
 70
    58
 90
        1
176
     1
 90
        0
176
     1
 90
        1
176
     1
 90
        0
176
     1
 40
0.6
176
     1
 40
30.0
176
     1
 62
     7
420
 16777215
176
     1
 90
        0
176
     1
 90
        4
176
     1
 62
     7
176
     1
 62
   257
176
     1
 90
        1
176
     1
 90
        1
176
     1
 40
1.0
176
     1
 90
        8
176
     1
 62
     7
176
     1
 40
1.0
176
     1
 90
        1
176
     1
 90
        6
176
     1
 90
        2
176
     1
 62
     7
176
     1
 90
        5
176
     1
 90
        0
176
     1
 90
        0
176
     1
290
     0
176
     1
 90
        1
176
     1
 40
0.0
176
     1
 90
        0
176
     1
290
     0
176
     1
290
     1
176
     1
290
     1
176
     1
290
     0
176
     1
290
     0
176
     1
290
     0
176
     1
290
     0
176
     1
290
     0
176
     1
290
     0
176
     1
 90
       50
176
     1
 40
0.0
176
     1
 40
1.0
176
     1
 90
        0
176
     1
 62
    18
420
        0
176
     1
 90
       50
176
     1
 90
        3
176
     1
 62
     5
420
      255
176
     1
290
     0
176
     1
 90
       50
176
     1
 90
       50
176
     1
 90
       50
176
     1
290
     0
176
     1
 90
       50
176
     1
 62
   256
176
     0
 40
1.0
176
     0
 90
        2
176
     1
  1
strokes_ogs.tif
176
     1
290
     0
176
     1
 40
1.0
176
     1
 40
1.0
176
     1
  0
VISUALSTYLE
  5
4C2
102
{ACAD_REACTORS
330
4B6
102
}
330
4B6
100
AcDbVisualStyle
  2
Brighten
 70
    12
177
     3
291
     1
 70
    58
 90
        2
176
     1
 90
        2
176
     1
 90
        0
176
     1
 90
        0
176
     1
 40
0.6
176
     1
 40
30.0
176
     1
 62
     7
420
 16777215
176
     1
 90
        1
176
     1
 90
        4
176
     1
 62
     7
176
     1
 62
   257
176
     1
 90
        1
176
     1
 90
        1
176
     1
 40
1.0
176
     1
 90
        8
176
     1
 62
     7
176
     1
 40
1.0
176
     1
 90
        1
176
     1
 90
        6
176
     1
 90
        2
176
     1
 62
     7
176
     1
 90
        5
176
     1
 90
        0
176
     1
 90
        0
176
     1
290
     0
176
     1
 90
        1
176
     1
 40
50.0
176
     1
 90
        0
176
     1
290
     0
176
     1
290
     1
176
     1
290
     1
176
     1
290
     0
176
     1
290
     0
176
     1
290
     0
176
     1
290
     0
176
     1
290
     0
176
     1
290
     0
176
     1
 90
       50
176
     1
 40
0.0
176
     1
 40
1.0
176
     1
 90
        0
176
     1
 62
    18
420
        0
176
     1
 90
       50
176
     1
 90
        3
176
     1
 62
     5
420
      255
176
     1
290
     0
176
     1
 90
       50
176
     1
 90
       50
176
     1
 90
       50
176
     1
290
     0
176
     1
 90
       50
176
     1
 62
   256
176
     0
 40
1.0
176
     0
 90
        2
176
     1
  1
strokes_ogs.tif
176
     1
290
     0
176
     1
 40
1.0
176
     1
 40
1.0
176
     1
  0
VISUALSTYLE
  5
4C6
102
{ACAD_REACTORS
330
4B6
102
}
330
4B6
100
AcDbVisualStyle
  2
ColorChange
 70
    16
177
     3
291
     1
 70
    58
 90
        2
176
     1
 90
        2
176
     1
 90
        3
176
     1
 90
        0
176
     1
 40
0.6
176
     1
 40
30.0
176
     1
 62
     8
420
  8421504
176
     1
 90
        1
176
     1
 90
        4
176
     1
 62
     7
176
     1
 62
   257
176
     1
 90
        1
176
     1
 90
        1
176
     1
 40
1.0
176
     1
 90
        8
176
     1
 62
     8
420
  8421504
176
     1
 40
1.0
176
     1
 90
        1
176
     1
 90
        6
176
     1
 90
        2
176
     1
 62
     7
176
     1
 90
        5
176
     1
 90
        0
176
     1
 90
        0
176
     1
290
     0
176
     1
 90
        1
176
     1
 40
0.0
176
     1
 90
        0
176
     1
290
     0
176
     1
290
     1
176
     1
290
     1
176
     1
290
     0
176
     1
290
     0
176
     1
290
     0
176
     1
290
     0
176
     1
290
     0
176
     1
290
     0
176
     1
 90
       50
176
     1
 40
0.0
176
     1
 40
1.0
176
     1
 90
        0
176
     1
 62
    18
420
        0
176
     1
 90
       50
176
     1
 90
        3
176
     1
 62
     5
420
      255
176
     1
290
     0
176
     1
 90
       50
176
     1
 90
       50
176
     1
 90
       50
176
     1
290
     0
176
     1
 90
       50
176
     1
 62
   256
176
     0
 40
1.0
176
     0
 90
        2
176
     1
  1
strokes_ogs.tif
176
     1
290
     0
176
     1
 40
1.0
176
     1
 40
1.0
176
     1
  0
VISUALSTYLE
  5
4C0
102
{ACAD_REACTORS
330
4B6
102
}
330
4B6
100
AcDbVisualStyle
  2
Conceptual
 70
     9
177
     3
291
     0
 70
    58
 90
        3
176
     1
 90
        2
176
     1
 90
        0
176
     1
 90
        0
176
     1
 40
0.6
176
     1
 40
30.0
176
     1
 62
     7
420
 16777215
176
     1
 90
        2
176
     1
 90
        2
176
     1
 62
     7
176
     1
 62
   257
176
     1
 90
        1
176
     1
 90
        1
176
     1
 40
179.0
176
     1
 90
        8
176
     1
 62
     7
176
     1
 40
1.0
176
     1
 90
        1
176
     1
 90
        6
176
     1
 90
        2
176
     1
 62
     7
176
     1
 90
        3
176
     1
 90
        0
176
     1
 90
        0
176
     1
290
     0
176
     1
 90
        1
176
     1
 40
0.0
176
     1
 90
        0
176
     1
290
     0
176
     1
290
     1
176
     1
290
     1
176
     1
290
     0
176
     1
290
     0
176
     1
290
     0
176
     1
290
     0
176
     1
290
     0
176
     1
290
     0
176
     1
 90
       50
176
     1
 40
0.0
176
     1
 40
1.0
176
     1
 90
        0
176
     1
 62
    18
420
        0
176
     1
 90
       50
176
     1
 90
        3
176
     1
 62
     5
420
      255
176
     1
290
     0
176
     1
 90
       50
176
     1
 90
       50
176
     1
 90
       50
176
     1
290
     0
176
     1
 90
       50
176
     1
 62
   256
176
     0
 40
1.0
176
     0
 90
        2
176
     1
  1
strokes_ogs.tif
176
     1
290
     0
176
     1
 40
1.0
176
     1
 40
1.0
176
     1
  0
VISUALSTYLE
  5
4C1
102
{ACAD_REACTORS
330
4B6
102
}
330
4B6
100
AcDbVisualStyle
  2
Dim
 70
    11
177
     3
291
     1
 70
    58
 90
        2
176
     1
 90
        2
176
     1
 90
        0
176
     1
 90
        0
176
     1
 40
0.6
176
     1
 40
30.0
176
     1
 62
     7
420
 16777215
176
     1
 90
        1
176
     1
 90
        4
176
     1
 62
     7
176
     1
 62
   257
176
     1
 90
        1
176
     1
 90
        1
176
     1
 40
1.0
176
     1
 90
        8
176
     1
 62
     7
176
     1
 40
1.0
176
     1
 90
        1
176
     1
 90
        6
176
     1
 90
        2
176
     1
 62
     7
176
     1
 90
        5
176
     1
 90
        0
176
     1
 90
        0
176
     1
290
     0
176
     1
 90
        1
176
     1
 40
-50.0
176
     1
 90
        0
176
     1
290
     0
176
     1
290
     1
176
     1
290
     1
176
     1
290
     0
176
     1
290
     0
176
     1
290
     0
176
     1
290
     0
176
     1
290
     0
176
     1
290
     0
176
     1
 90
       50
176
     1
 40
0.0
176
     1
 40
1.0
176
     1
 90
        0
176
     1
 62
    18
420
        0
176
     1
 90
       50
176
     1
 90
        3
176
     1
 62
     5
420
      255
176
     1
290
     0
176
     1
 90
       50
176
     1
 90
       50
176
     1
 90
       50
176
     1
290
     0
176
     1
 90
       50
176
     1
 62
   256
176
     0
 40
1.0
176
     0
 90
        2
176
     1
  1
strokes_ogs.tif
176
     1
290
     0
176
     1
 40
1.0
176
     1
 40
1.0
176
     1
  0
VISUALSTYLE
  5
4C9
102
{ACAD_REACTORS
330
4B6
102
}
330
4B6
100
AcDbVisualStyle
  2
EdgeColorOff
 70
    22
177
     3
291
     1
 70
    58
 90
        2
176
     0
 90
        2
176
     0
 90
        0
176
     0
 90
        0
176
     0
 40
0.6
176
     0
 40
30.0
176
     0
 62
     7
420
 16777215
176
     0
 90
        1
176
     0
 90
        4
176
     0
 62
     7
176
     0
 62
   257
176
     0
 90
        1
176
     0
 90
        1
176
     0
 40
1.0
176
     0
 90
        8
176
     2
 62
     7
176
     0
 40
1.0
176
     0
 90
        1
176
     0
 90
        6
176
     0
 90
        2
176
     0
 62
     7
176
     0
 90
        5
176
     0
 90
        0
176
     0
 90
        0
176
     0
290
     0
176
     0
 90
        1
176
     0
 40
0.0
176
     0
 90
        0
176
     0
290
     0
176
     0
290
     1
176
     0
290
     1
176
     0
290
     0
176
     0
290
     0
176
     0
290
     0
176
     0
290
     0
176
     0
290
     0
176
     0
290
     0
176
     0
 90
       50
176
     0
 40
0.0
176
     0
 40
1.0
176
     0
 90
        0
176
     0
 62
    18
420
        0
176
     0
 90
       50
176
     0
 90
        3
176
     0
 62
     5
420
      255
176
     0
290
     0
176
     0
 90
       50
176
     0
 90
       50
176
     0
 90
       50
176
     0
290
     0
176
     0
 90
       50
176
     0
 62
   256
176
     0
 40
1.0
176
     0
 90
        2
176
     0
  1
strokes_ogs.tif
176
     0
290
     0
176
     0
 40
1.0
176
     0
 40
1.0
176
     0
  0
VISUALSTYLE
  5
4C5
102
{ACAD_REACTORS
330
4B6
102
}
330
4B6
100
AcDbVisualStyle
  2
Facepattern
 70
    15
177
     3
291
     1
 70
    58
 90
        2
176
     1
 90
        2
176
     1
 90
        0
176
     1
 90
        0
176
     1
 40
0.6
176
     1
 40
30.0
176
     1
 62
     7
420
 16777215
176
     1
 90
        1
176
     1
 90
        4
176
     1
 62
     7
176
     1
 62
   257
176
     1
 90
        1
176
     1
 90
        1
176
     1
 40
1.0
176
     1
 90
        8
176
     1
 62
     7
176
     1
 40
1.0
176
     1
 90
        1
176
     1
 90
        6
176
     1
 90
        2
176
     1
 62
     7
176
     1
 90
        5
176
     1
 90
        0
176
     1
 90
        0
176
     1
290
     0
176
     1
 90
        1
176
     1
 40
0.0
176
     1
 90
        0
176
     1
290
     0
176
     1
290
     1
176
     1
290
     1
176
     1
290
     0
176
     1
290
     0
176
     1
290
     0
176
     1
290
     0
176
     1
290
     0
176
     1
290
     0
176
     1
 90
       50
176
     1
 40
0.0
176
     1
 40
1.0
176
     1
 90
        0
176
     1
 62
    18
420
        0
176
     1
 90
       50
176
     1
 90
        3
176
     1
 62
     5
420
      255
176
     1
290
     0
176
     1
 90
       50
176
     1
 90
       50
176
     1
 90
       50
176
     1
290
     0
176
     1
 90
       50
176
     1
 62
   256
176
     0
 40
1.0
176
     0
 90
        2
176
     1
  1
strokes_ogs.tif
176
     1
290
     0
176
     1
 40
1.0
176
     1
 40
1.0
176
     1
  0
VISUALSTYLE
  5
4B7
102
{ACAD_REACTORS
330
4B6
102
}
330
4B6
100
AcDbVisualStyle
  2
Flat
 70
     0
177
     3
291
     1
 70
    58
 90
        2
176
     1
 90
        1
176
     1
 90
        1
176
     1
 90
        2
176
     1
 40
0.6
176
     1
 40
30.0
176
     1
 62
     7
420
 16777215
176
     1
 90
        0
176
     1
 90
        0
176
     1
 62
     7
176
     1
 62
   257
176
     1
 90
        1
176
     1
 90
        1
176
     1
 40
1.0
176
     1
 90
        8
176
     1
 62
     7
176
     1
 40
1.0
176
     1
 90
        1
176
     1
 90
        6
176
     1
 90
        2
176
     1
 62
     7
176
     1
 90
        5
176
     1
 90
        0
176
     1
 90
        0
176
     1
290
     0
176
     1
 90
       13
176
     1
 40
0.0
176
     1
 90
        0
176
     1
290
     0
176
     1
290
     1
176
     1
290
     1
176
     1
290
     0
176
     1
290
     0
176
     1
290
     0
176
     1
290
     0
176
     1
290
     0
176
     1
290
     0
176
     1
 90
       50
176
     1
 40
0.0
176
     1
 40
1.0
176
     1
 90
        0
176
     1
 62
    18
420
        0
176
     1
 90
       50
176
     1
 90
        3
176
     1
 62
     5
420
      255
176
     1
290
     0
176
     1
 90
       50
176
     1
 90
       50
176
     1
 90
       50
176
     1
290
     0
176
     1
 90
       50
176
     1
 62
   256
176
     0
 40
1.0
176
     0
 90
        2
176
     1
  1
strokes_ogs.tif
176
     1
290
     0
176
     1
 40
1.0
176
     1
 40
1.0
176
     1
  0
VISUALSTYLE
  5
4B8
102
{ACAD_REACTORS
330
4B6
102
}
330
4B6
100
AcDbVisualStyle
  2
FlatWithEdges
 70
     1
177
     3
291
     1
 70
    58
 90
        2
176
     1
 90
        1
176
     1
 90
        1
176
     1
 90
        2
176
     1
 40
0.6
176
     1
 40
30.0
176
     1
 62
     7
420
 16777215
176
     1
 90
        1
176
     1
 90
        0
176
     1
 62
     7
176
     1
 62
   257
176
     1
 90
        1
176
     1
 90
        1
176
     1
 40
1.0
176
     1
 90
        0
176
     1
 62
   257
176
     1
 40
1.0
176
     1
 90
        1
176
     1
 90
        6
176
     1
 90
        2
176
     1
 62
     7
176
     1
 90
        5
176
     1
 90
        0
176
     1
 90
        0
176
     1
290
     0
176
     1
 90
       13
176
     1
 40
0.0
176
     1
 90
        0
176
     1
290
     0
176
     1
290
     1
176
     1
290
     1
176
     1
290
     0
176
     1
290
     0
176
     1
290
     0
176
     1
290
     0
176
     1
290
     0
176
     1
290
     0
176
     1
 90
       50
176
     1
 40
0.0
176
     1
 40
1.0
176
     1
 90
        0
176
     1
 62
    18
420
        0
176
     1
 90
       50
176
     1
 90
        3
176
     1
 62
     5
420
      255
176
     1
290
     0
176
     1
 90
       50
176
     1
 90
       50
176
     1
 90
       50
176
     1
290
     0
176
     1
 90
       50
176
     1
 62
   256
176
     0
 40
1.0
176
     0
 90
        2
176
     1
  1
strokes_ogs.tif
176
     1
290
     0
176
     1
 40
1.0
176
     1
 40
1.0
176
     1
  0
VISUALSTYLE
  5
4B9
102
{ACAD_REACTORS
330
4B6
102
}
330
4B6
100
AcDbVisualStyle
  2
Gouraud
 70
     2
177
     3
291
     1
 70
    58
 90
        2
176
     1
 90
        2
176
     1
 90
        1
176
     1
 90
        2
176
     1
 40
0.6
176
     1
 40
30.0
176
     1
 62
     7
420
 16777215
176
     1
 90
        0
176
     1
 90
        0
176
     1
 62
     7
176
     1
 62
   257
176
     1
 90
        1
176
     1
 90
        1
176
     1
 40
1.0
176
     1
 90
        0
176
     1
 62
     7
176
     1
 40
1.0
176
     1
 90
        1
176
     1
 90
        6
176
     1
 90
        2
176
     1
 62
     7
176
     1
 90
        5
176
     1
 90
        0
176
     1
 90
        0
176
     1
290
     0
176
     1
 90
       13
176
     1
 40
0.0
176
     1
 90
        0
176
     1
290
     0
176
     1
290
     1
176
     1
290
     1
176
     1
290
     0
176
     1
290
     0
176
     1
290
     0
176
     1
290
     0
176
     1
290
     0
176
     1
290
     0
176
     1
 90
       50
176
     1
 40
0.0
176
     1
 40
1.0
176
     1
 90
        0
176
     1
 62
    18
420
        0
176
     1
 90
       50
176
     1
 90
        3
176
     1
 62
     5
420
      255
176
     1
290
     0
176
     1
 90
       50
176
     1
 90
       50
176
     1
 90
       50
176
     1
290
     0
176
     1
 90
       50
176
     1
 62
   256
176
     0
 40
1.0
176
     0
 90
        2
176
     1
  1
strokes_ogs.tif
176
     1
290
     0
176
     1
 40
1.0
176
     1
 40
1.0
176
     1
  0
VISUALSTYLE
  5
4BA
102
{ACAD_REACTORS
330
4B6
102
}
330
4B6
100
AcDbVisualStyle
  2
GouraudWithEdges
 70
     3
177
     3
291
     1
 70
    58
 90
        2
176
     1
 90
        2
176
     1
 90
        1
176
     1
 90
        2
176
     1
 40
0.6
176
     1
 40
30.0
176
     1
 62
     7
420
 16777215
176
     1
 90
        1
176
     1
 90
        0
176
     1
 62
     7
176
     1
 62
   257
176
     1
 90
        1
176
     1
 90
        1
176
     1
 40
1.0
176
     1
 90
        0
176
     1
 62
   257
176
     1
 40
1.0
176
     1
 90
        1
176
     1
 90
        6
176
     1
 90
        2
176
     1
 62
     7
176
     1
 90
        5
176
     1
 90
        0
176
     1
 90
        0
176
     1
290
     0
176
     1
 90
       13
176
     1
 40
0.0
176
     1
 90
        0
176
     1
290
     0
176
     1
290
     1
176
     1
290
     1
176
     1
290
     0
176
     1
290
     0
176
     1
290
     0
176
     1
290
     0
176
     1
290
     0
176
     1
290
     0
176
     1
 90
       50
176
     1
 40
0.0
176
     1
 40
1.0
176
     1
 90
        0
176
     1
 62
    18
420
        0
176
     1
 90
       50
176
     1
 90
        3
176
     1
 62
     5
420
      255
176
     1
290
     0
176
     1
 90
       50
176
     1
 90
       50
176
     1
 90
       50
176
     1
290
     0
176
     1
 90
       50
176
     1
 62
   256
176
     0
 40
1.0
176
     0
 90
        2
176
     1
  1
strokes_ogs.tif
176
     1
290
     0
176
     1
 40
1.0
176
     1
 40
1.0
176
     1
  0
VISUALSTYLE
  5
4BD
102
{ACAD_REACTORS
330
4B6
102
}
330
4B6
100
AcDbVisualStyle
  2
Hidden
 70
     6
177
     3
291
     0
 70
    58
 90
        1
176
     1
 90
        2
176
     1
 90
        2
176
     1
 90
        0
176
     1
 40
0.6
176
     1
 40
30.0
176
     1
 62
     7
420
 16777215
176
     1
 90
        2
176
     1
 90
        2
176
     1
 62
     7
176
     1
 62
   257
176
     1
 90
        2
176
     1
 90
        1
176
     1
 40
40.0
176
     1
 90
        0
176
     1
 62
   257
176
     1
 40
1.0
176
     1
 90
        1
176
     1
 90
        6
176
     1
 90
        2
176
     1
 62
     7
176
     1
 90
        3
176
     1
 90
        0
176
     1
 90
        0
176
     1
290
     0
176
     1
 90
        1
176
     1
 40
0.0
176
     1
 90
        0
176
     1
290
     0
176
     1
290
     1
176
     1
290
     1
176
     1
290
     0
176
     1
290
     0
176
     1
290
     0
176
     1
290
     0
176
     1
290
     0
176
     1
290
     0
176
     1
 90
       50
176
     1
 40
0.0
176
     1
 40
1.0
176
     1
 90
        0
176
     1
 62
    18
420
        0
176
     1
 90
       50
176
     1
 90
        3
176
     1
 62
     5
420
      255
176
     1
290
     0
176
     1
 90
       50
176
     1
 90
       50
176
     1
 90
       50
176
     1
290
     0
176
     1
 90
       50
176
     1
 62
   256
176
     0
 40
1.0
176
     0
 90
        2
176
     1
  1
strokes_ogs.tif
176
     1
290
     0
176
     1
 40
1.0
176
     1
 40
1.0
176
     1
  0
VISUALSTYLE
  5
4C7
102
{ACAD_REACTORS
330
4B6
102
}
330
4B6
100
AcDbVisualStyle
  2
JitterOff
 70
    20
177
     3
291
     1
 70
    58
 90
        2
176
     0
 90
        2
176
     0
 90
        0
176
     0
 90
        0
176
     0
 40
0.6
176
     0
 40
30.0
176
     0
 62
     7
420
 16777215
176
     0
 90
        1
176
     0
 90
        4
176
     0
 62
     7
176
     0
 62
   257
176
     0
 90
        1
176
     0
 90
        1
176
     0
 40
1.0
176
     0
 90
       10
176
     2
 62
     7
176
     0
 40
1.0
176
     0
 90
        1
176
     0
 90
        6
176
     0
 90
        2
176
     0
 62
     7
176
     0
 90
        5
176
     0
 90
        0
176
     0
 90
        0
176
     0
290
     0
176
     0
 90
        1
176
     0
 40
0.0
176
     0
 90
        0
176
     0
290
     0
176
     0
290
     1
176
     0
290
     1
176
     0
290
     0
176
     0
290
     0
176
     0
290
     0
176
     0
290
     0
176
     0
290
     0
176
     0
290
     0
176
     0
 90
       50
176
     0
 40
0.0
176
     0
 40
1.0
176
     0
 90
        0
176
     0
 62
    18
420
        0
176
     0
 90
       50
176
     0
 90
        3
176
     0
 62
     5
420
      255
176
     0
290
     0
176
     0
 90
       50
176
     0
 90
       50
176
     0
 90
       50
176
     0
290
     0
176
     0
 90
       50
176
     0
 62
   256
176
     0
 40
1.0
176
     0
 90
        2
176
     0
  1
strokes_ogs.tif
176
     0
290
     0
176
     0
 40
1.0
176
     0
 40
1.0
176
     0
  0
VISUALSTYLE
  5
4C4
102
{ACAD_REACTORS
330
4B6
102
}
330
4B6
100
AcDbVisualStyle
  2
Linepattern
 70
    14
177
     3
291
     1
 70
    58
 90
        2
176
     1
 90
        2
176
     1
 90
        0
176
     1
 90
        0
176
     1
 40
0.6
176
     1
 40
30.0
176
     1
 62
     7
420
 16777215
176
     1
 90
        1
176
     1
 90
        4
176
     1
 62
     7
176
     1
 62
   257
176
     1
 90
        7
176
     1
 90
        7
176
     1
 40
1.0
176
     1
 90
        8
176
     1
 62
     7
176
     1
 40
1.0
176
     1
 90
        1
176
     1
 90
        6
176
     1
 90
        2
176
     1
 62
     7
176
     1
 90
        5
176
     1
 90
        0
176
     1
 90
        0
176
     1
290
     0
176
     1
 90
        1
176
     1
 40
0.0
176
     1
 90
        0
176
     1
290
     0
176
     1
290
     1
176
     1
290
     1
176
     1
290
     0
176
     1
290
     0
176
     1
290
     0
176
     1
290
     0
176
     1
290
     0
176
     1
290
     0
176
     1
 90
       50
176
     1
 40
0.0
176
     1
 40
1.0
176
     1
 90
        0
176
     1
 62
    18
420
        0
176
     1
 90
       50
176
     1
 90
        3
176
     1
 62
     5
420
      255
176
     1
290
     0
176
     1
 90
       50
176
     1
 90
       50
176
     1
 90
       50
176
     1
290
     0
176
     1
 90
       50
176
     1
 62
   256
176
     0
 40
1.0
176
     0
 90
        2
176
     1
  1
strokes_ogs.tif
176
     1
290
     0
176
     1
 40
1.0
176
     1
 40
1.0
176
     1
  0
VISUALSTYLE
  5
4C8
102
{ACAD_REACTORS
330
4B6
102
}
330
4B6
100
AcDbVisualStyle
  2
OverhangOff
 70
    21
177
     3
291
     1
 70
    58
 90
        2
176
     0
 90
        2
176
     0
 90
        0
176
     0
 90
        0
176
     0
 40
0.6
176
     0
 40
30.0
176
     0
 62
     7
420
 16777215
176
     0
 90
        1
176
     0
 90
        4
176
     0
 62
     7
176
     0
 62
   257
176
     0
 90
        1
176
     0
 90
        1
176
     0
 40
1.0
176
     0
 90
        9
176
     2
 62
     7
176
     0
 40
1.0
176
     0
 90
        1
176
     0
 90
        6
176
     0
 90
        2
176
     0
 62
     7
176
     0
 90
        5
176
     0
 90
        0
176
     0
 90
        0
176
     0
290
     0
176
     0
 90
        1
176
     0
 40
0.0
176
     0
 90
        0
176
     0
290
     0
176
     0
290
     1
176
     0
290
     1
176
     0
290
     0
176
     0
290
     0
176
     0
290
     0
176
     0
290
     0
176
     0
290
     0
176
     0
290
     0
176
     0
 90
       50
176
     0
 40
0.0
176
     0
 40
1.0
176
     0
 90
        0
176
     0
 62
    18
420
        0
176
     0
 90
       50
176
     0
 90
        3
176
     0
 62
     5
420
      255
176
     0
290
     0
176
     0
 90
       50
176
     0
 90
       50
176
     0
 90
       50
176
     0
290
     0
176
     0
 90
       50
176
     0
 62
   256
176
     0
 40
1.0
176
     0
 90
        2
176
     0
  1
strokes_ogs.tif
176
     0
290
     0
176
     0
 40
1.0
176
     0
 40
1.0
176
     0
  0
VISUALSTYLE
  5
4BF
102
{ACAD_REACTORS
330
4B6
102
}
330
4B6
100
AcDbVisualStyle
  2
Realistic
 70
     8
177
     3
291
     0
 70
    58
 90
        2
176
     1
 90
        3
176
     1
 90
        0
176
     1
 90
        2
176
     1
 40
0.6
176
     1
 40
30.0
176
     1
 62
     7
420
 16777215
176
     1
 90
        0
176
     1
 90
        0
176
     1
 62
     7
176
     1
 62
   257
176
     1
 90
        1
176
     1
 90
        1
176
     1
 40
1.0
176
     1
 90
        8
176
     1
 62
   257
176
     1
 40
1.0
176
     1
 90
        1
176
     1
 90
        6
176
     1
 90
        2
176
     1
 62
     7
176
     1
 90
        3
176
     1
 90
        0
176
     1
 90
        0
176
     1
290
     0
176
     1
 90
       13
176
     1
 40
0.0
176
     1
 90
        0
176
     1
290
     0
176
     1
290
     1
176
     1
290
     1
176
     1
290
     0
176
     1
290
     0
176
     1
290
     0
176
     1
290
     0
176
     1
290
     0
176
     1
290
     0
176
     1
 90
       50
176
     1
 40
0.0
176
     1
 40
1.0
176
     1
 90
        0
176
     1
 62
    18
420
        0
176
     1
 90
       50
176
     1
 90
        3
176
     1
 62
     5
420
      255
176
     1
290
     0
176
     1
 90
       50
176
     1
 90
       50
176
     1
 90
       50
176
     1
290
     0
176
     1
 90
       50
176
     1
 62
   256
176
     0
 40
1.0
176
     0
 90
        2
176
     1
  1
strokes_ogs.tif
176
     1
290
     0
176
     1
 40
1.0
176
     1
 40
1.0
176
     1
  0
VISUALSTYLE
  5
4CE
102
{ACAD_REACTORS
330
4B6
102
}
330
4B6
100
AcDbVisualStyle
  2
Shaded
 70
    27
177
     3
291
     0
 70
    58
 90
        2
176
     1
 90
        2
176
     1
 90
        1
176
     1
 90
        2
176
     1
 40
0.6
176
     1
 40
30.0
176
     1
 62
     7
420
 16777215
176
     1
 90
        0
176
     1
 90
        4
176
     1
 62
     7
176
     1
 62
   257
176
     1
 90
        1
176
     1
 90
        1
176
     1
 40
1.0
176
     1
 90
        8
176
     1
 62
   257
176
     1
 40
1.0
176
     1
 90
        1
176
     1
 90
        6
176
     1
 90
        2
176
     1
 62
     8
420
  7895160
176
     1
 90
        3
176
     1
 90
        0
176
     1
 90
        0
176
     1
290
     0
176
     1
 90
        5
176
     1
 40
0.0
176
     1
 90
        0
176
     1
290
     0
176
     1
290
     1
176
     1
290
     1
176
     1
290
     0
176
     1
290
     0
176
     1
290
     0
176
     1
290
     0
176
     1
290
     0
176
     1
290
     0
176
     1
 90
       50
176
     1
 40
0.0
176
     1
 40
1.0
176
     1
 90
        0
176
     1
 62
    18
420
        0
176
     1
 90
       50
176
     1
 90
        3
176
     1
 62
     5
420
      255
176
     1
290
     0
176
     1
 90
       50
176
     1
 90
       50
176
     1
 90
       50
176
     1
290
     0
176
     1
 90
       50
176
     1
 62
   256
176
     0
 40
1.0
176
     0
 90
        2
176
     1
  1
strokes_ogs.tif
176
     1
290
     0
176
     1
 40
1.0
176
     1
 40
1.0
176
     1
  0
VISUALSTYLE
  5
4CD
102
{ACAD_REACTORS
330
4B6
102
}
330
4B6
100
AcDbVisualStyle
  2
Shaded with edges
 70
    26
177
     3
291
     0
 70
    58
 90
        2
176
     1
 90
        2
176
     1
 90
        1
176
     1
 90
        2
176
     1
 40
0.6
176
     1
 40
30.0
176
     1
 62
     7
420
 16777215
176
     1
 90
        1
176
     1
 90
       10
176
     1
 62
     7
176
     1
 62
   257
176
     1
 90
        2
176
     1
 90
        1
176
     1
 40
1.0
176
     1
 90
        8
176
     1
 62
   257
176
     1
 40
1.0
176
     1
 90
        1
176
     1
 90
        6
176
     1
 90
        2
176
     1
 62
     7
176
     1
 90
        3
176
     1
 90
        0
176
     1
 90
        0
176
     1
290
     0
176
     1
 90
        5
176
     1
 40
0.0
176
     1
 90
        0
176
     1
290
     0
176
     1
290
     1
176
     1
290
     1
176
     1
290
     0
176
     1
290
     0
176
     1
290
     0
176
     1
290
     0
176
     1
290
     0
176
     1
290
     0
176
     1
 90
       50
176
     1
 40
0.0
176
     1
 40
1.0
176
     1
 90
        0
176
     1
 62
    18
420
        0
176
     1
 90
       50
176
     1
 90
        3
176
     1
 62
     5
420
      255
176
     1
290
     0
176
     1
 90
       50
176
     1
 90
       50
176
     1
 90
       50
176
     1
290
     0
176
     1
 90
       50
176
     1
 62
   256
176
     0
 40
1.0
176
     0
 90
        2
176
     1
  1
strokes_ogs.tif
176
     1
290
     0
176
     1
 40
1.0
176
     1
 40
1.0
176
     1
  0
VISUALSTYLE
  5
4CA
102
{ACAD_REACTORS
330
4B6
102
}
330
4B6
100
AcDbVisualStyle
  2
Shades of Gray
 70
    23
177
     3
291
     0
 70
    58
 90
        2
176
     1
 90
        2
176
     1
 90
        3
176
     1
 90
        0
176
     1
 40
0.6
176
     1
 40
30.0
176
     1
 62
     7
420
 16777215
176
     1
 90
        2
176
     1
 90
        2
176
     1
 62
     7
176
     1
 62
     7
176
     1
 90
        1
176
     1
 90
        1
176
     1
 40
40.0
176
     1
 90
        8
176
     1
 62
     7
176
     1
 40
1.0
176
     1
 90
        1
176
     1
 90
        6
176
     1
 90
        2
176
     1
 62
     7
176
     1
 90
        3
176
     1
 90
        0
176
     1
 90
        0
176
     1
290
     0
176
     1
 90
        1
176
     1
 40
0.0
176
     1
 90
        0
176
     1
290
     0
176
     1
290
     1
176
     1
290
     1
176
     1
290
     0
176
     1
290
     0
176
     1
290
     0
176
     1
290
     0
176
     1
290
     0
176
     1
290
     0
176
     1
 90
       50
176
     1
 40
0.0
176
     1
 40
1.0
176
     1
 90
        0
176
     1
 62
    18
420
        0
176
     1
 90
       50
176
     1
 90
        3
176
     1
 62
     5
420
      255
176
     1
290
     0
176
     1
 90
       50
176
     1
 90
       50
176
     1
 90
       50
176
     1
290
     0
176
     1
 90
       50
176
     1
 62
   256
176
     0
 40
1.0
176
     0
 90
        2
176
     1
  1
strokes_ogs.tif
176
     1
290
     0
176
     1
 40
1.0
176
     1
 40
1.0
176
     1
  0
VISUALSTYLE
  5
4CB
102
{ACAD_REACTORS
330
4B6
102
}
330
4B6
100
AcDbVisualStyle
  2
Sketchy
 70
    24
177
     3
291
     0
 70
    58
 90
        1
176
     1
 90
        2
176
     1
 90
        2
176
     1
 90
        0
176
     1
 40
0.6
176
     1
 40
30.0
176
     1
 62
     7
420
 16777215
176
     1
 90
        2
176
     1
 90
        2
176
     1
 62
     7
176
     1
 62
     7
176
     1
 90
        1
176
     1
 90
        1
176
     1
 40
40.0
176
     1
 90
       11
176
     1
 62
     7
176
     1
 40
1.0
176
     1
 90
        1
176
     1
 90
        6
176
     1
 90
        2
176
     1
 62
     7
176
     1
 90
        6
176
     1
 90
        0
176
     1
 90
        0
176
     1
290
     0
176
     1
 90
        1
176
     1
 40
0.0
176
     1
 90
        0
176
     1
290
     0
176
     1
290
     1
176
     1
290
     1
176
     1
290
     0
176
     1
290
     0
176
     1
290
     0
176
     1
290
     0
176
     1
290
     0
176
     1
290
     0
176
     1
 90
       50
176
     1
 40
0.0
176
     1
 40
1.0
176
     1
 90
        0
176
     1
 62
    18
420
        0
176
     1
 90
       50
176
     1
 90
        3
176
     1
 62
     5
420
      255
176
     1
290
     0
176
     1
 90
       50
176
     1
 90
       50
176
     1
 90
       50
176
     1
290
     0
176
     1
 90
       50
176
     1
 62
   256
176
     0
 40
1.0
176
     0
 90
        2
176
     1
  1
strokes_ogs.tif
176
     1
290
     0
176
     1
 40
1.0
176
     1
 40
1.0
176
     1
  0
VISUALSTYLE
  5
4C3
102
{ACAD_REACTORS
330
4B6
102
}
330
4B6
100
AcDbVisualStyle
  2
Thicken
 70
    13
177
     3
291
     1
 70
    58
 90
        2
176
     1
 90
        2
176
     1
 90
        0
176
     1
 90
        0
176
     1
 40
0.6
176
     1
 40
30.0
176
     1
 62
     7
420
 16777215
176
     1
 90
        1
176
     1
 90
        4
176
     1
 62
     7
176
     1
 62
   257
176
     1
 90
        1
176
     1
 90
        1
176
     1
 40
1.0
176
     1
 90
       12
176
     1
 62
     7
176
     1
 40
1.0
176
     1
 90
        1
176
     1
 90
        6
176
     1
 90
        2
176
     1
 62
     7
176
     1
 90
        5
176
     1
 90
        0
176
     1
 90
        0
176
     1
290
     0
176
     1
 90
        1
176
     1
 40
0.0
176
     1
 90
        0
176
     1
290
     0
176
     1
290
     1
176
     1
290
     1
176
     1
290
     0
176
     1
290
     0
176
     1
290
     0
176
     1
290
     0
176
     1
290
     0
176
     1
290
     0
176
     1
 90
       50
176
     1
 40
0.0
176
     1
 40
1.0
176
     1
 90
        0
176
     1
 62
    18
420
        0
176
     1
 90
       50
176
     1
 90
        3
176
     1
 62
     5
420
      255
176
     1
290
     0
176
     1
 90
       50
176
     1
 90
       50
176
     1
 90
       50
176
     1
290
     0
176
     1
 90
       50
176
     1
 62
   256
176
     0
 40
1.0
176
     0
 90
        2
176
     1
  1
strokes_ogs.tif
176
     1
290
     0
176
     1
 40
1.0
176
     1
 40
1.0
176
     1
  0
VISUALSTYLE
  5
4BC
102
{ACAD_REACTORS
330
4B6
102
}
330
4B6
100
AcDbVisualStyle
  2
Wireframe
 70
     5
177
     3
291
     0
 70
    58
 90
        0
176
     1
 90
        2
176
     1
 90
        0
176
     1
 90
        0
176
     1
 40
0.6
176
     1
 40
30.0
176
     1
 62
     7
420
 16777215
176
     1
 90
        1
176
     1
 90
        4
176
     1
 62
     7
176
     1
 62
   257
176
     1
 90
        1
176
     1
 90
        1
176
     1
 40
1.0
176
     1
 90
        0
176
     1
 62
   257
176
     1
 40
1.0
176
     1
 90
        1
176
     1
 90
        6
176
     1
 90
        2
176
     1
 62
     7
176
     1
 90
        3
176
     1
 90
        0
176
     1
 90
        0
176
     1
290
     0
176
     1
 90
        1
176
     1
 40
0.0
176
     1
 90
        0
176
     1
290
     0
176
     1
290
     1
176
     1
290
     1
176
     1
290
     0
176
     1
290
     0
176
     1
290
     0
176
     1
290
     0
176
     1
290
     0
176
     1
290
     0
176
     1
 90
       50
176
     1
 40
0.0
176
     1
 40
1.0
176
     1
 90
        0
176
     1
 62
    18
420
        0
176
     1
 90
       50
176
     1
 90
        3
176
     1
 62
     5
420
      255
176
     1
290
     0
176
     1
 90
       50
176
     1
 90
       50
176
     1
 90
       50
176
     1
290
     0
176
     1
 90
       50
176
     1
 62
   256
176
     0
 40
1.0
176
     0
 90
        2
176
     1
  1
strokes_ogs.tif
176
     1
290
     0
176
     1
 40
1.0
176
     1
 40
1.0
176
     1
  0
VISUALSTYLE
  5
4CC
102
{ACAD_REACTORS
330
4B6
102
}
330
4B6
100
AcDbVisualStyle
  2
X-Ray
 70
    25
177
     3
291
     0
 70
    58
 90
        2
176
     1
 90
        2
176
     1
 90
        1
176
     1
 90
        1
176
     1
 40
0.5
176
     1
 40
30.0
176
     1
 62
     7
420
 16777215
176
     1
 90
        1
176
     1
 90
        0
176
     1
 62
     7
176
     1
 62
   257
176
     1
 90
        1
176
     1
 90
        1
176
     1
 40
1.0
176
     1
 90
        8
176
     1
 62
     7
176
     1
 40
1.0
176
     1
 90
        1
176
     1
 90
        6
176
     1
 90
        2
176
     1
 62
     7
176
     1
 90
        3
176
     1
 90
        0
176
     1
 90
        0
176
     1
290
     0
176
     1
 90
       13
176
     1
 40
0.0
176
     1
 90
        0
176
     1
290
     0
176
     1
290
     1
176
     1
290
     1
176
     1
290
     0
176
     1
290
     0
176
     1
290
     0
176
     1
290
     0
176
     1
290
     0
176
     1
290
     0
176
     1
 90
       50
176
     1
 40
0.0
176
     1
 40
1.0
176
     1
 90
        0
176
     1
 62
    18
420
        0
176
     1
 90
       50
176
     1
 90
        3
176
     1
 62
     5
420
      255
176
     1
290
     0
176
     1
 90
       50
176
     1
 90
       50
176
     1
 90
       50
176
     1
290
     0
176
     1
 90
       50
176
     1
 62
   256
176
     0
 40
1.0
176
     0
 90
        2
176
     1
  1
strokes_ogs.tif
176
     1
290
     0
176
     1
 40
1.0
176
     1
 40
1.0
176
     1
  0
DICTIONARYVAR
  5
A18
102
{ACAD_REACTORS
330
A17
102
}
330
A17
100
DictionaryVariables
280
     0
  1
1:1
  0
DICTIONARYVAR
  5
A1D
102
{ACAD_REACTORS
330
A17
102
}
330
A17
100
DictionaryVariables
280
     0
  1
Standard
  0
DICTIONARYVAR
  5
A1C
102
{ACAD_REACTORS
330
A17
102
}
330
A17
100
DictionaryVariables
280
     0
  1
Standard
  0
DICTIONARYVAR
  5
A1E
102
{ACAD_REACTORS
330
A17
102
}
330
A17
100
DictionaryVariables
280
     0
  1
0
  0
DICTIONARY
  5
179D
330
4D4
100
AcDbDictionary
280
     1
281
     1
  3
ACAD_ROUNDTRIP_2008_TABLESTYLE_CELLSTYLEMAP
360
179E
  0
CELLSTYLEMAP
  5
179E
102
{ACAD_REACTORS
330
179D
102
}
330
179D
100
AcDbCellStyleMap
 90
        3
300
CELLSTYLE
  1
TABLEFORMAT_BEGIN
 90
        5
170
     1
 91
        0
 92
    32768
 62
   257
 93
        1
300
CONTENTFORMAT
  1
CONTENTFORMAT_BEGIN
 90
        0
 91
        0
 92
        4
 93
        0
300

 40
0.0
140
1.0
 94
        5
 62
     0
340
17
144
0.25
309
CONTENTFORMAT_END
171
     1
301
MARGIN
  1
CELLMARGIN_BEGIN
 40
0.06
 40
0.06
 40
0.06
 40
0.06
 40
0.06
 40
0.06
309
CELLMARGIN_END
 94
        6
 95
        1
302
GRIDFORMAT
  1
GRIDFORMAT_BEGIN
 90
        0
 91
        1
 62
     0
 92
       -2
340
11
 93
        0
 40
0.045
309
GRIDFORMAT_END
 95
        2
302
GRIDFORMAT
  1
GRIDFORMAT_BEGIN
 90
        0
 91
        1
 62
     0
 92
       -2
340
11
 93
        0
 40
0.045
309
GRIDFORMAT_END
 95
        4
302
GRIDFORMAT
  1
GRIDFORMAT_BEGIN
 90
        0
 91
        1
 62
     0
 92
       -2
340
11
 93
        0
 40
0.045
309
GRIDFORMAT_END
 95
        8
302
GRIDFORMAT
  1
GRIDFORMAT_BEGIN
 90
        0
 91
        1
 62
     0
 92
       -2
340
11
 93
        0
 40
0.045
309
GRIDFORMAT_END
 95
       16
302
GRIDFORMAT
  1
GRIDFORMAT_BEGIN
 90
        0
 91
        1
 62
     0
 92
       -2
340
11
 93
        0
 40
0.045
309
GRIDFORMAT_END
 95
       32
302
GRIDFORMAT
  1
GRIDFORMAT_BEGIN
 90
        0
 91
        1
 62
     0
 92
       -2
340
11
 93
        0
 40
0.045
309
GRIDFORMAT_END
309
TABLEFORMAT_END
  1
CELLSTYLE_BEGIN
 90
        1
 91
        1
300
_TITLE
309
CELLSTYLE_END
300
CELLSTYLE
  1
TABLEFORMAT_BEGIN
 90
        5
170
     1
 91
        0
 92
        0
 62
   257
 93
        1
300
CONTENTFORMAT
  1
CONTENTFORMAT_BEGIN
 90
        0
 91
        0
 92
        4
 93
        0
300

 40
0.0
140
1.0
 94
        5
 62
     0
340
17
144
0.18
309
CONTENTFORMAT_END
171
     1
301
MARGIN
  1
CELLMARGIN_BEGIN
 40
0.06
 40
0.06
 40
0.06
 40
0.06
 40
0.06
 40
0.06
309
CELLMARGIN_END
 94
        6
 95
        1
302
GRIDFORMAT
  1
GRIDFORMAT_BEGIN
 90
        0
 91
        1
 62
     0
 92
       -2
340
11
 93
        0
 40
0.045
309
GRIDFORMAT_END
 95
        2
302
GRIDFORMAT
  1
GRIDFORMAT_BEGIN
 90
        0
 91
        1
 62
     0
 92
       -2
340
11
 93
        0
 40
0.045
309
GRIDFORMAT_END
 95
        4
302
GRIDFORMAT
  1
GRIDFORMAT_BEGIN
 90
        0
 91
        1
 62
     0
 92
       -2
340
11
 93
        0
 40
0.045
309
GRIDFORMAT_END
 95
        8
302
GRIDFORMAT
  1
GRIDFORMAT_BEGIN
 90
        0
 91
        1
 62
     0
 92
       -2
340
11
 93
        0
 40
0.045
309
GRIDFORMAT_END
 95
       16
302
GRIDFORMAT
  1
GRIDFORMAT_BEGIN
 90
        0
 91
        1
 62
     0
 92
       -2
340
11
 93
        0
 40
0.045
309
GRIDFORMAT_END
 95
       32
302
GRIDFORMAT
  1
GRIDFORMAT_BEGIN
 90
        0
 91
        1
 62
     0
 92
       -2
340
11
 93
        0
 40
0.045
309
GRIDFORMAT_END
309
TABLEFORMAT_END
  1
CELLSTYLE_BEGIN
 90
        2
 91
        1
300
_HEADER
309
CELLSTYLE_END
300
CELLSTYLE
  1
TABLEFORMAT_BEGIN
 90
        5
170
     1
 91
        0
 92
        0
 62
   257
 93
        1
300
CONTENTFORMAT
  1
CONTENTFORMAT_BEGIN
 90
        0
 91
        0
 92
        4
 93
        0
300

 40
0.0
140
1.0
 94
        2
 62
     0
340
17
144
0.18
309
CONTENTFORMAT_END
171
     1
301
MARGIN
  1
CELLMARGIN_BEGIN
 40
0.06
 40
0.06
 40
0.06
 40
0.06
 40
0.06
 40
0.06
309
CELLMARGIN_END
 94
        6
 95
        1
302
GRIDFORMAT
  1
GRIDFORMAT_BEGIN
 90
        0
 91
        1
 62
     0
 92
       -2
340
11
 93
        0
 40
0.045
309
GRIDFORMAT_END
 95
        2
302
GRIDFORMAT
  1
GRIDFORMAT_BEGIN
 90
        0
 91
        1
 62
     0
 92
       -2
340
11
 93
        0
 40
0.045
309
GRIDFORMAT_END
 95
        4
302
GRIDFORMAT
  1
GRIDFORMAT_BEGIN
 90
        0
 91
        1
 62
     0
 92
       -2
340
11
 93
        0
 40
0.045
309
GRIDFORMAT_END
 95
        8
302
GRIDFORMAT
  1
GRIDFORMAT_BEGIN
 90
        0
 91
        1
 62
     0
 92
       -2
340
11
 93
        0
 40
0.045
309
GRIDFORMAT_END
 95
       16
302
GRIDFORMAT
  1
GRIDFORMAT_BEGIN
 90
        0
 91
        1
 62
     0
 92
       -2
340
11
 93
        0
 40
0.045
309
GRIDFORMAT_END
 95
       32
302
GRIDFORMAT
  1
GRIDFORMAT_BEGIN
 90
        0
 91
        1
 62
     0
 92
       -2
340
11
 93
        0
 40
0.045
309
GRIDFORMAT_END
309
TABLEFORMAT_END
  1
CELLSTYLE_BEGIN
 90
        3
 91
        2
300
_DATA
309
CELLSTYLE_END
  0
ENDSEC
  0
SECTION
  2
ACDSDATA
 70
     2
 71
     2
  0
ACDSSCHEMA
 90
        0
  1
AcDb_Thumbnail_Schema
  2
AcDbDs::ID
280
    10
 91
        8
  2
Thumbnail_Data
280
    15
 91
        0
101
ACDSRECORD
 95
        0
 90
        2
  2
AcDbDs::TreatedAsObjectData
280
     1
291
     1
101
ACDSRECORD
 95
        0
 90
        3
  2
AcDbDs::Legacy
280
     1
291
     1
101
ACDSRECORD
  1
AcDbDs::ID
 90
        4
  2
AcDs:Indexable
280
     1
291
     1
101
ACDSRECORD
  1
AcDbDs::ID
 90
        5
  2
AcDbDs::HandleAttribute
280
     7
282
     1
  0
ACDSSCHEMA
 90
        1
  1
AcDb3DSolid_ASM_Data
  2
AcDbDs::ID
280
    10
 91
        8
  2
ASM_Data
280
    15
 91
        0
101
ACDSRECORD
 95
        1
 90
        2
  2
AcDbDs::TreatedAsObjectData
280
     1
291
     1
101
ACDSRECORD
 95
        1
 90
        3
  2
AcDbDs::Legacy
280
     1
291
     1
101
ACDSRECORD
  1
AcDbDs::ID
 90
        4
  2
AcDs:Indexable
280
     1
291
     1
101
ACDSRECORD
  1
AcDbDs::ID
 90
        5
  2
AcDbDs::HandleAttribute
280
     7
282
     1
  0
ACDSSCHEMA
 90
        2
  1
AcDbDs::TreatedAsObjectDataSchema
  2
AcDbDs::TreatedAsObjectData
280
     1
 91
        0
  0
ACDSSCHEMA
 90
        3
  1
AcDbDs::LegacySchema
  2
AcDbDs::Legacy
280
     1
 91
        0
  0
ACDSSCHEMA
 90
        4
  1
AcDbDs::IndexedPropertySchema
  2
AcDs:Indexable
280
     1
 91
        0
  0
ACDSSCHEMA
 90
        5
  1
AcDbDs::HandleAttributeSchema
  2
AcDbDs::HandleAttribute
280
     7
 91
        1
284
     1
  0
ACDSRECORD
 90
        0
  2
AcDbDs::ID
280
    10
320
4B4
  2
Thumbnail_Data
280
    15
 94
     3532
310
89504E470D0A1A0A0000000D49484452000001000000006D08060000004E6FBF56000000097048597300000EC400000EC401952B0E1B00000D7E49444154789CEDDD6B4C9B651B07F03FB494B69CCA61804CCAA0035A3B90756EE3380A61D3CD53C84C306E1E962D334697E8075DE2077D3F989898E88C319999891A17745B
310
964C316AB22187081B11611D0C94F3381F575A0E3D51E8FB415DC4C146DBA7CF03BDAF5F72C76D6DEFEB2A71FF3DC7FB0900E0022184492200FF13BA89F5EAD8B16378E6996730303000A3D128743BEBCEB3CF3E0BA7D389A9A929A15B211E0A14BA81F52C393919E1E1E190482442B7B22E69B55A28954AA1DB205E0800E3
310
BB0062B118E9E9E9888A8A82582C5EF65A707030241209666767EFFADCFCFC3C6EDDBA85898909BE5A15445C5C1C121212A05028EE7A2D3C3C1C369B0D0E87E3AED7262727F1C71F7F607171918F368987980C008944029D4E07994C86858505747474C06834BAF53FAB5C2EC7962D5B1017170700E8EFEF476F6FAFAF5AE6
310
555C5C1C52535311141484B1B1318C8E8EC26432B935474C4C0C341A0DC462312C160B3A3A3ADC9E83F81E5301101F1F0FB55A0D87C381E6E666D86C36CEE6562A9550A954989B9B83C160C0C2C2026773F345ABD522363616636363E8EAEA82D3E9E4645E994C06B55A0D8542819E9E1E0C0C0C70322FF11E3301909D9D0D
310
93C9843FFFFCD3A77542424290959585F1F171747777FBB41657626262909191819B376F627272D2A7B552525290949484AB57AFC26EB7FBB416591B97BF8FECEC6C97542AE5B5667E7EBE4B2C160BFEDDD7328A8A8A98A849E3EEC1C45900994CC6E9E6FE5A34373763C78E1DBCD6F4447272B220C72E16171721128978AF
310
4B9613DFFF2D1B9F4AA512A46E7878B82075DDF1C0030F20343414292929BCD6D56834686C6C84D56AE5B52E598E8900E8E9E941757535EF758B8A8A78AFE9899A9A9A154FE5F992C562E1B51E591913BB00849095510010C2300A002298C71E7B8C0E040A8C028008A2B0B010870E1D42585898D0AD308D02800882FEE55F
310
1F280088609A9A9AE834A0C0280088600A0A0A2093C9846E83691400F7A056AB71ECD8310406FAD78FE989279E407171B1A03DFC739721DFD71F90E598B810C853274E9C407E7E3E7EFEF9670C0F0F0BDD0E27424242F0C1071F402A95F27EF5DFBFB5B7B7E3DCB973B40B2030FFFAA78D63B1B1B1F8FDF7DFEF5A28642393
310
4AA598999941545494D0AD9075800260151A8D06151515B872E50A5E79E5156CDEBC59E89638A1D56AB1B4B484A6A62694949408DD0E1198DF058046A3415555159E7AEA29AFE691CBE5F8EEBBEF70EEDC39747676FACDBA80919191A8ABABC3CD9B3769B92EE27F0170F4E8515CBC78118F3FFEB857479847464670FAF469
310
7CFAE9A7282828C0F4F434875D0AC7643261EFDEBDC8CCCCDC90AB16116EF9CFCEEDDF868787F1D0430FC1E170787580E99F23D4656565D0E9747EB39E5D7D7D3DC2C2C2E07038D0D2D2826DDBB609DD121190DF6D019C3A750A2291081F7EF8A1D773FDF8E38FD8B56BD79D853FDD111C1C8CFDFBF77BDD03D79C4E275E7E
310
F9659C387102AFBFFE3A4A4B4B3D9A273333136FBCF106DE7EFB6DC8E5728EBB247CF1BB000080CB972FE3B3CF3E43737333DADADA909090E0D13C46A3117D7D7DC8CCCC74FBB3229168DD3E4C64696909BFFDF61BC46231CC66B34773ECDDBB17A74E9DC2993367B06BD72E8E3B247CF1BB5D0000C8CDCDC5D1A347313636
310
06914884BCBC3C8FE6999E9EC66BAFBD869F7EFAC9EDCF3A9DCE757B955B7B7B3B8A8A8A60B3D9101C1CECD11CDF7FFF3D5E7DF555C864329C397386E30E099F045F98D0D743A8052837C2C297B9B9B92E8944C27BDDDDBB77BB643299E0DF9FF5E197BB008490B5A100208461140084308C02801086510010C2300A004218
310
46014008C328000861180500210CA300208461140084308C02801086510010C2300A00421846014004A156ABF1D1471FADDB351358E1F701909B9B4B4FA05D87121212909C9CECF18224841B7E1F00C1C1C1989D9D15BA0DB282EEEE6E389D4EA1DB609ADF070059BFE2E3E3FDEAA94B1B91DF07C0CCCC0CED02AC432E974B
310
E81608FC7451D07F6B6A6A427878B8D06D90FFA8AEAE465F5F1FE6E6E6846E85697EBF0540D6AF8A8A0A3A0620300A00421846014008C3FCFE180000A8542A41EA6E94630F7ABD9EF707856A341AB4B4B4F05A93DC8D8900E8E9E941757535AF35653299478F14E3DBF8F838060707313838C86B5DA7D30987C3C16B4D7237
310
267601EC763B241209AF35753A1DAE5FBFCE6B4D4FF4F4F460EBD6ADBCD7158BC5585C5CE4BD2EB99BE08F27E2631C3870C0959898E8F33A52A9D4959B9BEB4A4B4B13FC3BAF75C4C6C6BA0E1C38E0924AA53EAFA5542A5D454545F458B0753202FEFE0513542A15944A259C4E27DADBDB399D5B2693213D3D1DF3F3F3686E
310
6EDE709BB7C1C1C1D8BE7D3B643219C6C6C6303131C1E9FC494949888888407F7F3F7A7B7B399D9B788EA900F8C7FEFDFB313C3CCCE99C4AA5120683014343439CCE2B84E79F7F1E376EDCE074CEB4B4345CBC7891D33989F7983808F85F76BBFDBE47A0030202909C9C8CB4B434FCFAEBAF989F9FBFE7FB6D369BDF5CDE3A
310
323272DF9F4F505010727272303B3B0B83C170DFEF1E1D1DCD658B84232200FF13BA09BE6DDEBC19F3F3F3B05AAD2BBE1E111181DDBB77233131115F7FFD3526272761B55A313939B9EA9C9999997E735A2B3333131D1D1DABBEAED56AA152A970FCF87144474723202000D3D3D3B0DBED2BBE5F2291203E3E9EF7330DE4FE
310
98380BF05F757575F73C45A7D3E9505B5B8BBEBE3E98CD66582C16CCCCCC0872B45C08333333ABBE161B1B0BE0AF5B791F79E411E8F57AD4D6D662C78E1DAB7E2632321246A391F33E89F7980C80B5B2582CB876ED1A26272731343484C4C444A15B129C56AB455B5B1BC6C7C771F6EC599C3E7D1A00D0DADA8A6DDBB609DC
310
1D711793C700D6AAB7B717870F1F16BA8D75EBFDF7DFBFF36B93C904B55A2D6037C413B4054008C328000861180500210CA300208461140084308C894B81F7EDDB87FCFCFC657F2697CB61B158567CFF6AAFB9F31987C381F7DE7BCF8BAEF9F3CE3BEF2C5B9DD7939F0DF0D7FD102B5D5C25128920128996DD1F31383888CF
310
3FFFDCCBCE89B798080042C8CA6817801086510010C2300A807B080909C1CE9D3B856E83109FA1005845484808DE7AEB2DA8D56A949797233E3E5EE89608E11C05C02A140A05AE5DBB86B367CF42A150D063AC895FA2B300F770E5CA15582C160C0C0CE0E4C993AB9EFE2264A3A2BB01EF616A6A0AB76FDF46555515FDE527
310
7E89B600FE16101080AD5BB742AFD7DFB9EF5F2291C0E170DCF9AFC56281C160404343034C2693C01D13E23DE603402412A1A4A404393939E8EEEE464D4DCDAA0B7BCA6432646565213B3B1B2E970BE7CF9FC7E8E828CF1D13C21DA60320252505656565A8ADADC5D5AB57DDFA6C646424CACACAB0B0B080F2F272D86C361F
310
7549886F09FE700221466161A1EBC5175F7405050579358F52A9741D3F7EDC151A1A2AF877A241C3DDC1E41640696929CC6633AAAAAA38992F3A3A1A870E1DC2A54B9768E55BB2A130771D4041410166676771FBF66DECD9B38793399F7EFA69949797E3E0C183080909E1644E42F8C054006CD9B205A9A9A9A8ACACC4E8E8
310
28674FF169696981D96CC637DF7C8323478E703227217C117C3F84AFF1EEBBEFBA4422914F6B141717BB0A0B0B05FFAE3468AC6530B30590959585D6D6569F3F92BAAEAE0E0505053EAD410857980980D2D2525CBA74C9E7751C0E07EAEBEBA1D7EB7D5E8B106F31110091919130994CBC3DBCB3A1A101393939BCD422C41B
310
4C04805EAF474D4D0D6FF5AC562BDD3D483604260260FBF6EDB87EFD3AAF35BBBBBBA152A978AD4988BBFC3E00323232101E1ECE7B5DA3D188279F7C92F7BA84B8C3EF6E077EE18517A0D7EBA156AB2197CB71E3C60DF4F7F7F3DE87CBE5A2DD00B2EEF95D00D86C36CCCECEA2A5A505959595484848404C4C0CEF7DF075C0
310
91106FF85D005CB87001172E5CB8F3FBACAC2CBCF4D24BBCF711181888858505DEEB12E20EBF3F06603018303333C37B5D8542818A8A0ADEEB12E20EBF0F0000686D6D45464606AF35D3D2D2D0D9D9C96B4D42DCC54400545757F37A659E542AA50542C886C044004C4D4D61D3A64DBCD5DBB973271A1B1B79AB4788A79808
310
0000F8E1871F78392F1F141484C2C242545656FABC1621DE6226001A1B1BA1D3E91018E8DBAF5C5C5C8CEAEA6A3A0D48360466020000BEFDF65B3CF7DC730080D4D454A4A4A470326F494909442211A2A2A2A056AB515F5FCFC9BC84F81A5301D0D9D989B1B131ECD9B307A1A1A178F0C107399957A95422222202870F1FC6
310
975F7EC9C99C84F045F05549F81E8F3EFAA82B2F2F8FB3F9C2C2C25C6FBEF9A62B3E3E5EF0EF4683863B83C955810160DFBE7D888989C1F9F3E7BD5A2528292909070F1EC4175F7C414F0BDA60341A0D1E7EF8616CDAB4094EA7135D5D5D50ABD550ABD5E8EAEA82D168C4D0D010B45A2D22232361369BF1C9279F08DD36A7
310
FCEE52E0B5BA7CF932D2D3D371F2E449D4D6D6A2A1A1C1AD2090CBE53872E408AC562B3EFEF8632C2D2DF9B05BE20B2693090E8703BFFCF20B4C2613EC763B22222260369B31323202B95C8EBABA3A58AD569F2F25271466B700FE21168B515C5C8CECEC6C747777A3B6B616C3C3C32BBE372828085AAD16797979080D0DC5
310
575F7D85F1F1719E3B26843BCC07C0BFA5A7A7A3B0B0103A9D0E737373CB5E532814B875EB16DADADA505F5F8F89890981BA24845B821F88586FA3ACACCC65B7DB970D83C120785F3468703D680B801086FD1F7D1B2825261EE47B0000000049454E44AE426082
  0
ACDSRECORD
 90
        0
  2
AcDbDs::ID
280
    10
320
1792
  2
Thumbnail_Data
280
    15
 94
     4238
310
89504E470D0A1A0A0000000D49484452000001000000007A080600000050BC8D75000000097048597300000EC400000EC401952B0E1B0000104049444154789CEDDD4B4C54D71F07F0EF3C98F70390415E3E86020AC8A32A558326FE837D258D69E3A2B189B11BDB34E9A2699BAEBA68426BBAE9A28B264D1AAB695277A676
310
D3586BD334581B452A5879888591C7F09A61608679300C33F35F90B9191C9019E7CEB907EEEFB351C6B9E7FCAE303FEE3DF79CDF515CBA74290E42882C29A50E8010221D4A0084C818250042648C120021324609801019A30440888CA9A50E8000C1601095959552874138D4D5D585F2F2F29CB54F098003B5B5B5387EFCB8
310
D461100EDDB97327A7EDD32D0021324609801019A30440888C51022044C6280110226394000891314A0084C818CD03E04C474707743A1D00A0A9A9091A8D067EBF1FFDFDFD00008D4683A6A62600C0F4F4344647470100050505A8AAAA02000C0F0F637676160050515181D2D2522C2F2FE3DEBD7B423F070E1C8052A984D7
310
EBC5E0E0200040AFD763DFBE7D0080898909389D4E0080CD66C3EEDDBB01008F1E3DC2FCFC3C00A0BEBE1E068301E17018F7EFDF070028954A1C38700000E0F1783034340400309BCDD8BB772F0060747414D3D3D30080929212ECD8B10300D0DFDF0FBFDF0F00686C6C8456AB452010405F5F1F00202F2F0FCDCDCD008099
310
99198C8C8C0000F2F3F3515D5D0D0070381C70BBDDABCE3D1A8DE29F7FFE11CE7DFFFEFD50A954F0F97C78F8F0210040A7D3A1A1A1010030393989F1F1710040515111EC767BCAB9D7D5D5C16834626969093D3D3D000085428183070F0200E6E6E6F0DF7FFF01004C26136A6B6B0100636363989A9A02006CDFBE1D3B77EE
310
04B032E127168B61696909353535B0D96C6041410541A4B76BD72E6122506767275A5A5AA40D8848C6E3F1C0E3F108C9BCBDBD5D4812B940B70084C818DD02702691F9893C994C2668B55A66FD5102E04C414181D421100969341A68341A66FDD12D006762B198D4211009C5E371C4E3EC86E5280170A6ABAB4BEA108884E6
310
E6E68427272C50022044C6680C8033893900E95A5C5C14E60210FED8ED76E4E5E5A5FD7E954A95D1FBB34509803389C928E91A181840454545563F34DDDDDDA8AFAF67FA8397ADA1A1213CF7DC735287F1546EB71B4EA7539844950EABD50AABD59ABBA09E4009600BB0582CCF3C723C363686CF3EFB0CE7CF9FC791234744
310
8E2C375C2E177EFCF1477CFCF1C72829298142A1903AA43585C361048341A9C3782A4A009C999898405959594EDA5E5858C0C0C0C0AAD78A8B8BF1C30F3F00589985982C799AAE545C2E171E3F7EBCEA359BCD860F3EF800CBCBCBE8EAEA5A356A6EB7DB515454C4384AF184422184422114161632E98F1200679C4EA7E809
310
A0AFAF0F8140002693E9A9D38C9FFCB04F4E4EA2B3B3133A9D0E75757550A954A2C6B59E783C8EC1C141F87C3ED86CB68C6276381C70381C50ABD5686E6EE6F6EA603DA150081E8F87120011C7C0C0008A8A8A50575797F1B1A5A5A5282D2DC5E2E222BABABAD0D2D2C2E403D5D3D383CACA4AECD9B327E363ED763BEC763B
310
BC5E2FEEDFBF2F2C9C226BA3C7809CC964C0281D0B0B0B282E2ECEAA0D9D4E07ABD58A85850591A27ABA4824028BC592551B56AB156AB59AFB7BF027198D46662B0101BA02E08ED8DFFCC472D76C8D8C8CA0B4B45494B636F2E8D12351DA999999416161210C068328EDB1A0D56A692D809C2D2E2E663C17E069F6ECD923CA
310
F2E26C7F2367A2BABA5A9498136BFA379368348A582CC6EC912CDD0270E6DF7FFF953A842D636969091D1D1D52879111AFD72B143A61811200D9B27A7A7A70F1E245A9C3E01A2500CEB07AD426172C07D4C4A05028A054B2FB585202E0CCFEFDFB99F7D9D1D121F93264BFDF2FFA4A4893C9B4A9A637032BF520586E144B09
310
40E6BC5E2F4E9C382114DE94CACF3FFF8CB7DE7A4BD4366B6B6BF1F9E79F8BDAE656430980334F4E7BCDB5A1A1217CFDF5D7B875EB16D37E9FE476BB515858983255596E02810066666698F5470980332E972BABE3239108CE9D3B87B7DF7E3BADF7078341984C26A63F746B19191941454585E4B722520B87C3F0F97CCCFA
310
A304B0C5A8D56A28140A1C3B762CADF71F3C78105F7DF5155E7BEDB50DDF3B3636966D78EB3A79F224060606909797876834FAD4F7C6E371DCBE7D1BE1703867F1C8052500CE9497976775BC42A1C0A953A770E3C60D9C397366C30FC9F0F0307EF9E5970D3F7400840D2D72C166B3E1CF3FFFC4C99327375C6F70E5CA1594
310
9696E2EEDDBB398B472A7ABD9ED9422080120077C45809B873E74EB4B7B7E3C2850B1B4E2BADAAAA425F5F5F5AE5C87359A8A2BEBE1EE3E3E3F8E4934F364C46C78F1F476F6FEF962CA1CE3A01D05460CE44A3D1ACE70224B6A14A8746A3415B5B5B5AEFADA9A979D690D2D2D8D888C6C6C694BA044F2A2A2AC2ABAFBE9AD3
310
58A492A80ACC6A2E005D017026790F3B223F737373181E1E66D61F250042648C120067F47ABDD4211009A9542AA63B03D118006712DB731379625D1598AE000891314A009C713A9D5287402494280ACA0A2500CE4C4C4C481D029110250042083394003863B7DB456B8BE536D33C72381CF8F4D34FA50E232346A331EB2ACE
310
99A0A7009C1173579B9B376F327DA4C41BB7DB8D482422751819615D1598AE00B6309D4E27FBAB806C97576F75940038236659AC96961659D718DCB3670FDE7FFF7DA9C3C8C8DCDC1C86868698F547098033722F8821268BC522498DC56C241603B14263009C51ABC5FD96C87D67A0CD9600944A25D3AB364A009C79FEF9E7
310
456D4FAC9D81CC66B308D1A447AC9D8106060660341A4588889DFCFC7CE4E7E733EB8F6E01B6B8BCBCBCAC279644A351F8FD7E66DB83E974BAAC37F50C0683989F9F67BAA5D9664457009C99999911F53970737333EEDFBF8F7BF7EE3DD323A64020008BC58203070E8816D3461A1A1AF0E0C103B8DDEE67FA0DEE72B95052
310
5222CA55046BE170188B8B8BCC16045102E0CCC8C888E813411A1B1B313F3F0F97CB85EAEAEA947F1F1B1BC38E1D3BD63CB6B3B35392FBE87DFBF6A1B3B373DD0FF1F8F838CACBCB53EA07C6E371DCBD7B77D3DDFB27040201783C1E6609806E016442AFD723140AAD7A2D180CE2EFBFFFC6B973E7F0CD37DF60767676D5BF
310
FBFD7E9621A6A8AEAE4E1910F47ABDB87EFD3A5E7AE925747474A43CE71F1B1BC3CE9D3B5986B9A95102E04C4545454EDAD56AB5291582FBFAFA70E8D02134373763FBF6ED29A5A81E3E7C28E96F52ABD58AF9F9F955AF0D0E0EE285175EC08E1D3BD0D4D494B291CAF4F434B66FDFCE304A71190C066CDBB68D597F740BC0
310
19568FDA0008C527BFFCF24B004829C6198BC5249D48B45E79F0FCFC7CFCFAEBAF8CA36143A7D341A7D331EB8FAE0038B3BCBC2C75084442B1582CAD3D1AC442098033F7EEDD933A0422A1F9F979381C0E66FDD12DC016D7DBDB2BEC35D7DFDFBFEA0A2393AFF57A3D9A9B9B99C43C303080B9B9B9AC63D668344C1F5F6E46
310
9400B638AD562BDC533E39CB3093AF592E51D56834A2C42CE7A5D0E9A204C09983070F8ADADE66DC3EABB2B252EA10245350508082820266FDD118006736DA18536CD16814BFFDF65B4E77FE25E95328144C7F06280170667C7C9C697FDDDDDDF0F97CF8E8A38F98F64BD6160A85522664E5122500CE4C4E4E32ED6F797919
310
172F5EC4A1438798F64BD6160A8584015016680C40A61C0E07EEDCB903A7D389868606C462315CB87001478F1E454D4D0DF35B11220D4A009CC9F534D6C1C141FCFEFBEFB0DBED78F1C51757ED451F0E8771F3E64DFCF1C71F686868406B6B6B4E6321A9743A1DD37A0094003893AB852CF1781C376EDC8042A1C07BEFBDB7
310
E67BB45A2DDADADAD0D6D6869E9E1E5CBE7C19A74F9FA6AB01860C06030C0603B3FE680C4026AE5DBB86C5C5C5B47FAB373535C16EB7E3F2E5CB398E8C4889120067EEDEBD2B7A9B77EEDC41515111F6EEDD8B402090D1B1FFFBDFFF70F5EA55D163226B635D15986E0138237645D8482482EEEE6EBCF3CE3B191F7BE4C811
310
A10D97CB059BCD266A6C2415EBAAC07405C099BCBC3C51DBBB7DFB36DADADAB26AE38D37DEC04F3FFD245244E469944AA5E895A19FDA1FB39E485AC45E70F3E0C103ECDEBD3BAB36D46A35D3B50072969F9F9FF5F72B139400B6B04824824824224A510FBD5E0FAFD72B42548427940038333D3D9DD5F1A150081F7EF821CE
310
9C398337DF7C53B4CBC9A5A525DCBC795394B6C8FA16171753CAA0E5120D027266747434ABC9401A8D0667CF9E05B032DB4FCCB5052C4B55C955301884C7E361361988AE00B618954A85A6A626343535E1F5D75F875229DEB7F8F8F1E3A2B545F84057009C59AF3EFFB3321A8DF0FBFD30994C59B5E3F3F964BDD3302B0683
310
41D4A4BD11BA02E04C494989A8EDB5B6B6E2D6AD5B59B5F1F8F163A623D372C67A2D0025802DAEAAAA0A4EA73365539074C5E3715CBB760DAFBCF28AC891111E5002E04C4F4F8FE86D9E3A750A57AE5CC1F5EBD7331A14FCFEFBEF71EDDA35BCFCF2CB4C2F4BE56C7E7E3E65B3935CA23100CE2C2D2D89DEA6C562C1D1A347
310
D1D9D989B2B2B2B48E89C7E3B0DBED301A8DB0DBEDA2C7B4594D4E4E0A1BAA2C2D2D616E6E0E168B0566B319E3E3E3A8AEAECE6A4BF2582CC6746F084A0032B17BF76E188D467CF7DD77387CF8301A1B1BD75DE6EB76BB71F5EA55B4B6B6A2B6B69671A47C73BBDD181A1AC2B66DDBD0D9D9099FCF879A9A1A2C2C2C40AD56
310
A3BCBC3CAB04C07AE9352500CEE4724B6B9BCD8677DF7D177FFDF517BEFDF65B28954A34373743A3D1201E8FA3B7B717814000858585387BF6ACE8EB12B68286860634343400008E1D3B267AFBACAB02530290A1D6D656B4B6B662767616A74F9F86D3E984D168C4F9F3E771E2C409A9C3230C5102E0CCD8D858467301CACA
310
CAD0DDDDFDCC978E5F7CF1C5AAAF9FDC20943CBB482482FAFAFA8C8E090683080683282A2ACA5154AB5102E0CCD4D4544609A0B8B818C5C5C5398C88B094580BC02A01D0B31D42648C120067C49E094836179D4E4783807226F65A00B2B95055609963590F8EF0876A02CA5C2EAA0293CD837555604A0084C8188D01706676
310
76160E8703C0CA78805AAD46381CC6C4C4048095029D8971029FCF27EC246B341A85C7812E970B7EBF1F0050585808ABD58A68348AD1D151A19F5DBB7641A95422180C0A65C8341A0DCACBCB01ACFC264A94A6329BCDC263A9E9E969048341002B7310B45A2D229188B0C848A150084B87FD7E3F5C2E178095C1ADD2D252E1
310
1C7D3E1F00C06AB50ADB934D4C4C201C0EAF7BEE2A954AD83929F9DC0D0683504529F9DC0B0A0A909F9F8F582C8691919194730F8542989A9A02B0528DB9A2A202C0CA829CC4069D2693492887BED6B92F2F2FAFDA5A3DB16E22100860666606C0CA8E4B8935181E8F47A8AD68B158B06DDB36002B4BAEE3F138BC5E6FD6B5
310
1B3241098033870F1F1616832426F728954A98CD66E1EF09797979C2EB1A8D46785DA7D309C726A6F32A140AE1BDC96DABD56AE1F5E4821F5AAD56783DB922B05EAF17DE97F83339BE64C9F1254F2BD6E974C27D6E72DB068341388F447C2A95EA99CF3DB9ADB5E24B6E3BF9DC351ACD86E79E8865BDB693FF5F93EB32AEF7
310
FF6A369B118FC761369B993E05505CBA7489469D24B66BD72E2AB745D6D4DEDE9EB3FD22011A032044D6280110226394000891314A0084C818250042648C1200213246F30038E0F57A8509298424CBF5BA004A001C70381C4CE77F93CD23DD2ACECF8A12000758CEFC2224198D0110226394000891314A0084C81825004264
310
8C120021324609801019A30440888C51022044C62801102263FF0787DB61D4A358D5840000000049454E44AE426082
  0
ENDSEC
  0
EOF
