  0
SECTION
  2
HEADER
  9
$ACADVER
  1
AC1027
  9
$ACADMAINTVER
 70
   105
  9
$DWGCODEPAGE
  3
ANSI_932
  9
$REQUIREDVERSIONS
160
                 0
  9
$LASTSAVEDBY
  1
kurimoto
  9
$INSBASE
 10
0.0
 20
0.0
 30
0.0
  9
$EXTMIN
 10
11206.89262208499
 20
-3691.418114068526
 30
0.0
  9
$EXTMAX
 10
15764.8721358269
 20
-413.0502874974281
 30
0.0
  9
$LIMMIN
 10
9694.67115253794
 20
-4134.768094943641
  9
$LIMMAX
 10
16619.48757111203
 20
-43.14369667990013
  9
$ORTHOMODE
 70
     0
  9
$REGENMODE
 70
     1
  9
$FILLMODE
 70
     1
  9
$QTEXTMODE
 70
     0
  9
$MIRRTEXT
 70
     1
  9
$LTSCALE
 40
1.0
  9
$ATTMODE
 70
     1
  9
$TEXTSIZE
 40
0.0
  9
$TRACEWID
 40
0.05
  9
$TEXTSTYLE
  7
STANDARD
  9
$CLAYER
  8
0
  9
$CELTYPE
  6
CONTINUOUS
  9
$CECOLOR
 62
   256
  9
$CELTSCALE
 40
1.0
  9
$DISPSILH
 70
     0
  9
$DIMSCALE
 40
1.0
  9
$DIMASZ
 40
0.18
  9
$DIMEXO
 40
0.0625
  9
$DIMDLI
 40
0.38
  9
$DIMRND
 40
0.0
  9
$DIMDLE
 40
0.0
  9
$DIMEXE
 40
0.18
  9
$DIMTP
 40
0.0
  9
$DIMTM
 40
0.0
  9
$DIMTXT
 40
0.18
  9
$DIMCEN
 40
0.09
  9
$DIMTSZ
 40
0.0
  9
$DIMTOL
 70
     0
  9
$DIMLIM
 70
     0
  9
$DIMTIH
 70
     1
  9
$DIMTOH
 70
     1
  9
$DIMSE1
 70
     0
  9
$DIMSE2
 70
     0
  9
$DIMTAD
 70
     0
  9
$DIMZIN
 70
     0
  9
$DIMBLK
  1

  9
$DIMASO
 70
     1
  9
$DIMSHO
 70
     1
  9
$DIMPOST
  1

  9
$DIMAPOST
  1

  9
$DIMALT
 70
     0
  9
$DIMALTD
 70
     2
  9
$DIMALTF
 40
25.4
  9
$DIMLFAC
 40
1.0
  9
$DIMTOFL
 70
     0
  9
$DIMTVP
 40
0.0
  9
$DIMTIX
 70
     0
  9
$DIMSOXD
 70
     0
  9
$DIMSAH
 70
     0
  9
$DIMBLK1
  1

  9
$DIMBLK2
  1

  9
$DIMSTYLE
  2
STANDARD
  9
$DIMCLRD
 70
     0
  9
$DIMCLRE
 70
     0
  9
$DIMCLRT
 70
     0
  9
$DIMTFAC
 40
1.0
  9
$DIMGAP
 40
0.09
  9
$DIMJUST
 70
     0
  9
$DIMSD1
 70
     0
  9
$DIMSD2
 70
     0
  9
$DIMTOLJ
 70
     1
  9
$DIMTZIN
 70
     0
  9
$DIMALTZ
 70
     0
  9
$DIMALTTZ
 70
     0
  9
$DIMUPT
 70
     0
  9
$DIMDEC
 70
     4
  9
$DIMTDEC
 70
     4
  9
$DIMALTU
 70
     2
  9
$DIMALTTD
 70
     2
  9
$DIMTXSTY
  7
STANDARD
  9
$DIMAUNIT
 70
     0
  9
$DIMADEC
 70
     0
  9
$DIMALTRND
 40
0.0
  9
$DIMAZIN
 70
     0
  9
$DIMDSEP
 70
    46
  9
$DIMATFIT
 70
     3
  9
$DIMFRAC
 70
     0
  9
$DIMLDRBLK
  1

  9
$DIMLUNIT
 70
     2
  9
$DIMLWD
 70
    -2
  9
$DIMLWE
 70
    -2
  9
$DIMTMOVE
 70
     2
  9
$DIMFXL
 40
1.0
  9
$DIMFXLON
 70
     0
  9
$DIMJOGANG
 40
0.7853981633974483
  9
$DIMTFILL
 70
     0
  9
$DIMTFILLCLR
 70
     0
  9
$DIMARCSYM
 70
     0
  9
$DIMLTYPE
  6

  9
$DIMLTEX1
  6

  9
$DIMLTEX2
  6

  9
$DIMTXTDIRECTION
 70
     0
  9
$LUNITS
 70
     2
  9
$LUPREC
 70
     4
  9
$SKETCHINC
 40
0.1
  9
$FILLETRAD
 40
0.0
  9
$AUNITS
 70
     0
  9
$AUPREC
 70
     0
  9
$MENU
  1
acad
  9
$ELEVATION
 40
0.0
  9
$PELEVATION
 40
0.0
  9
$THICKNESS
 40
0.0
  9
$LIMCHECK
 70
     0
  9
$CHAMFERA
 40
0.0
  9
$CHAMFERB
 40
0.0
  9
$CHAMFERC
 40
0.0
  9
$CHAMFERD
 40
0.0
  9
$SKPOLY
 70
     0
  9
$TDCREATE
 40
2447893.0
  9
$TDUCREATE
 40
2447892.625
  9
$TDUPDATE
 40
2458621.698067141
  9
$TDUUPDATE
 40
2458621.323067141
  9
$TDINDWG
 40
0.0347955208
  9
$TDUSRTIMER
 40
0.0001715162
  9
$USRTIMER
 70
     1
  9
$ANGBASE
 50
0.0
  9
$ANGDIR
 70
     0
  9
$PDMODE
 70
     0
  9
$PDSIZE
 40
0.0
  9
$PLINEWID
 40
0.0
  9
$SPLFRAME
 70
     0
  9
$SPLINETYPE
 70
     6
  9
$SPLINESEGS
 70
     8
  9
$HANDSEED
  5
347C
  9
$SURFTAB1
 70
     6
  9
$SURFTAB2
 70
     6
  9
$SURFTYPE
 70
     6
  9
$SURFU
 70
     6
  9
$SURFV
 70
     6
  9
$UCSBASE
  2

  9
$UCSNAME
  2

  9
$UCSORG
 10
0.0
 20
0.0
 30
0.0
  9
$UCSXDIR
 10
1.0
 20
0.0
 30
0.0
  9
$UCSYDIR
 10
0.0
 20
1.0
 30
0.0
  9
$UCSORTHOREF
  2

  9
$UCSORTHOVIEW
 70
     0
  9
$UCSORGTOP
 10
0.0
 20
0.0
 30
0.0
  9
$UCSORGBOTTOM
 10
0.0
 20
0.0
 30
0.0
  9
$UCSORGLEFT
 10
0.0
 20
0.0
 30
0.0
  9
$UCSORGRIGHT
 10
0.0
 20
0.0
 30
0.0
  9
$UCSORGFRONT
 10
0.0
 20
0.0
 30
0.0
  9
$UCSORGBACK
 10
0.0
 20
0.0
 30
0.0
  9
$PUCSBASE
  2

  9
$PUCSNAME
  2

  9
$PUCSORG
 10
0.0
 20
0.0
 30
0.0
  9
$PUCSXDIR
 10
1.0
 20
0.0
 30
0.0
  9
$PUCSYDIR
 10
0.0
 20
1.0
 30
0.0
  9
$PUCSORTHOREF
  2

  9
$PUCSORTHOVIEW
 70
     0
  9
$PUCSORGTOP
 10
0.0
 20
0.0
 30
0.0
  9
$PUCSORGBOTTOM
 10
0.0
 20
0.0
 30
0.0
  9
$PUCSORGLEFT
 10
0.0
 20
0.0
 30
0.0
  9
$PUCSORGRIGHT
 10
0.0
 20
0.0
 30
0.0
  9
$PUCSORGFRONT
 10
0.0
 20
0.0
 30
0.0
  9
$PUCSORGBACK
 10
0.0
 20
0.0
 30
0.0
  9
$USERI1
 70
     0
  9
$USERI2
 70
     0
  9
$USERI3
 70
     0
  9
$USERI4
 70
     0
  9
$USERI5
 70
     0
  9
$USERR1
 40
0.0
  9
$USERR2
 40
0.0
  9
$USERR3
 40
0.0
  9
$USERR4
 40
0.0
  9
$USERR5
 40
0.0
  9
$WORLDVIEW
 70
     1
  9
$SHADEDGE
 70
     3
  9
$SHADEDIF
 70
    70
  9
$TILEMODE
 70
     1
  9
$MAXACTVP
 70
    16
  9
$PINSBASE
 10
0.0
 20
0.0
 30
0.0
  9
$PLIMCHECK
 70
     0
  9
$PEXTMIN
 10
1.05
 20
0.6999999999999997
 30
0.0
  9
$PEXTMAX
 10
9.45
 20
6.300000000000001
 30
0.0
  9
$PLIMMIN
 10
-0.25
 20
-0.7500000000000001
  9
$PLIMMAX
 10
10.75
 20
7.75
  9
$UNITMODE
 70
     0
  9
$VISRETAIN
 70
     0
  9
$PLINEGEN
 70
     1
  9
$PSLTSCALE
 70
     1
  9
$TREEDEPTH
 70
  3020
  9
$CMLSTYLE
  2
STANDARD
  9
$CMLJUST
 70
     0
  9
$CMLSCALE
 40
1.0
  9
$PROXYGRAPHICS
 70
     0
  9
$MEASUREMENT
 70
     0
  9
$CELWEIGHT
370
    -1
  9
$ENDCAPS
280
     0
  9
$JOINSTYLE
280
     0
  9
$LWDISPLAY
290
     0
  9
$INSUNITS
 70
     0
  9
$HYPERLINKBASE
  1

  9
$STYLESHEET
  1

  9
$XEDIT
290
     1
  9
$CEPSNTYPE
380
     0
  9
$PSTYLEMODE
290
     1
  9
$FINGERPRINTGUID
  2
{4CAF1062-808A-4C83-A17F-2B34B8FCE961}
  9
$VERSIONGUID
  2
{FAEB1C32-E019-11D5-929B-00C0DF256EC4}
  9
$EXTNAMES
290
     1
  9
$PSVPSCALE
 40
0.0
  9
$OLESTARTUP
290
     0
  9
$SORTENTS
280
   127
  9
$INDEXCTL
280
     0
  9
$HIDETEXT
280
     1
  9
$XCLIPFRAME
280
     0
  9
$HALOGAP
280
     0
  9
$OBSCOLOR
 70
   257
  9
$OBSLTYPE
280
     0
  9
$INTERSECTIONDISPLAY
280
     0
  9
$INTERSECTIONCOLOR
 70
   257
  9
$DIMASSOC
280
     2
  9
$PROJECTNAME
  1

  9
$CAMERADISPLAY
290
     0
  9
$LENSLENGTH
 40
50.0
  9
$CAMERAHEIGHT
 40
0.0
  9
$STEPSPERSEC
 40
2.0
  9
$STEPSIZE
 40
6.0
  9
$3DDWFPREC
 40
2.0
  9
$PSOLWIDTH
 40
0.25
  9
$PSOLHEIGHT
 40
4.0
  9
$LOFTANG1
 40
1.570796326794897
  9
$LOFTANG2
 40
1.570796326794897
  9
$LOFTMAG1
 40
0.0
  9
$LOFTMAG2
 40
0.0
  9
$LOFTPARAM
 70
     7
  9
$LOFTNORMALS
280
     1
  9
$LATITUDE
 40
37.795
  9
$LONGITUDE
 40
-122.394
  9
$NORTHDIRECTION
 40
0.0
  9
$TIMEZONE
 70
 -8000
  9
$LIGHTGLYPHDISPLAY
280
     1
  9
$TILEMODELIGHTSYNCH
280
     1
  9
$SOLIDHIST
280
     0
  9
$SHOWHIST
280
     1
  9
$DWFFRAME
280
     2
  9
$DGNFRAME
280
     2
  9
$REALWORLDSCALE
290
     1
  9
$INTERFERECOLOR
 62
   256
  9
$CSHADOW
280
     0
  9
$SHADOWPLANELOCATION
 40
0.0
  0
ENDSEC
  0
SECTION
  2
CLASSES
  0
CLASS
  1
LWPOLYLINE
  2
AcDbPolyline
  3
ObjectDBX Classes
 90
        0
 91
        1
280
     0
281
     1
  0
CLASS
  1
IMAGE
  2
AcDbRasterImage
  3
ISM
 90
      127
 91
        5
280
     0
281
     1
  0
CLASS
  1
OLE2FRAME
  2
AcDbOle2Frame
  3
ObjectDBX Classes
 90
        0
 91
        1
280
     0
281
     1
  0
CLASS
  1
HATCH
  2
AcDbHatch
  3
ObjectDBX Classes
 90
        0
 91
        1
280
     0
281
     1
  0
CLASS
  1
DICTIONARYVAR
  2
AcDbDictionaryVar
  3
ObjectDBX Classes
 90
        0
 91
        4
280
     0
281
     0
  0
CLASS
  1
RASTERVARIABLES
  2
AcDbRasterVariables
  3
ISM
 90
        0
 91
        4
280
     0
281
     0
  0
CLASS
  1
IMAGEDEF
  2
AcDbRasterImageDef
  3
ISM
 90
        0
 91
        4
280
     0
281
     0
  0
CLASS
  1
IMAGEDEF_REACTOR
  2
AcDbRasterImageDefReactor
  3
ISM
 90
        1
 91
        4
280
     0
281
     0
  0
CLASS
  1
IDBUFFER
  2
AcDbIdBuffer
  3
ObjectDBX Classes
 90
        0
 91
        4
280
     0
281
     0
  0
CLASS
  1
SPATIAL_FILTER
  2
AcDbSpatialFilter
  3
ObjectDBX Classes
 90
        0
 91
        4
280
     0
281
     0
  0
CLASS
  1
XRECORD
  2
AcDbXrecord
  3
ObjectDBX Classes
 90
        0
 91
        1
280
     0
281
     0
  0
CLASS
  1
SORTENTSTABLE
  2
AcDbSortentsTable
  3
ObjectDBX Classes
 90
        0
 91
        4
280
     0
281
     0
  0
CLASS
  1
LAYER_INDEX
  2
AcDbLayerIndex
  3
ObjectDBX Classes
 90
        0
 91
        4
280
     0
281
     0
  0
CLASS
  1
SPATIAL_INDEX
  2
AcDbSpatialIndex
  3
AutoCAD 2000
 90
        0
 91
        4
280
     0
281
     0
  0
CLASS
  1
OBJECT_PTR
  2
CAseDLPNTableRecord
  3
ASE-LPNTableRecord
 90
        1
 91
        4
280
     0
281
     0
  0
CLASS
  1
LAYOUT
  2
AcDbLayout
  3
ObjectDBX Classes
 90
        0
 91
        1
280
     0
281
     0
  0
CLASS
  1
PLOTSETTINGS
  2
AcDbPlotSettings
  3
ObjectDBX Classes
 90
        0
 91
        4
280
     0
281
     0
  0
CLASS
  1
ACDBDICTIONARYWDFLT
  2
AcDbDictionaryWithDefault
  3
ObjectDBX Classes
 90
        0
 91
        4
280
     0
281
     0
  0
CLASS
  1
ACDBPLACEHOLDER
  2
AcDbPlaceHolder
  3
ObjectDBX Classes
 90
        0
 91
        1
280
     0
281
     0
  0
CLASS
  1
VBA_PROJECT
  2
AcDbVbaProject
  3
ObjectDBX Classes
 90
        0
 91
        1
280
     0
281
     0
  0
CLASS
  1
WIPEOUT
  2
AcDbWipeout
  3
WipeOut|AutoCAD Express Tool|expresstools@autodesk.com
 90
      127
 91
        4
280
     0
281
     1
  0
CLASS
  1
WIPEOUTVARIABLES
  2
AcDbWipeoutVariables
  3
WipeOut|AutoCAD Express Tool|expresstools@autodesk.com
 90
        0
 91
        4
280
     0
281
     0
  0
CLASS
  1
RTEXT
  2
RText
  3
RText|AutoCAD Express Tool|expresstools@autodesk.com
 90
        0
 91
        4
280
     0
281
     1
  0
CLASS
  1
ARCALIGNEDTEXT
  2
AcDbArcAlignedText
  3
ATEXT|AutoCAD Express Tool|expresstools@autodesk.com
 90
        0
 91
        4
280
     0
281
     1
  0
CLASS
  1
SCALE
  2
AcDbScale
  3
ObjectDBX Classes
 90
     1153
 91
        4
280
     0
281
     0
  0
CLASS
  1
VISUALSTYLE
  2
AcDbVisualStyle
  3
ObjectDBX Classes
 90
     4095
 91
        4
280
     0
281
     0
  0
CLASS
  1
MATERIAL
  2
AcDbMaterial
  3
ObjectDBX Classes
 90
     1153
 91
        4
280
     0
281
     0
  0
CLASS
  1
TABLESTYLE
  2
AcDbTableStyle
  3
ObjectDBX Classes
 90
     4095
 91
        4
280
     0
281
     0
  0
CLASS
  1
MLEADERSTYLE
  2
AcDbMLeaderStyle
  3
ACDB_MLEADERSTYLE_CLASS
 90
     4095
 91
        4
280
     0
281
     0
  0
CLASS
  1
DIMASSOC
  2
AcDbDimAssoc
  3
"AcDbDimAssoc|Product Desc:     AcDim ARX App For Dimension|Company:          Autodesk, Inc.|WEB Address:      www.autodesk.com"
 90
        0
 91
        4
280
     0
281
     0
  0
CLASS
  1
CELLSTYLEMAP
  2
AcDbCellStyleMap
  3
ObjectDBX Classes
 90
     1152
 91
        4
280
     0
281
     0
  0
CLASS
  1
SUN
  2
AcDbSun
  3
SCENEOE
 90
     1153
 91
        4
280
     0
281
     0
  0
ENDSEC
  0
SECTION
  2
TABLES
  0
TABLE
  2
VPORT
  5
7
330
0
100
AcDbSymbolTable
 70
     1
  0
VPORT
  5
15
330
7
100
AcDbSymbolTableRecord
100
AcDbViewportTableRecord
  2
*ACTIVE
 70
     0
 10
0.0
 20
0.0
 11
1.0
 21
1.0
 12
13485.88237895594
 22
-2052.234189350616
 13
0.0
 23
0.0
 14
1.0
 24
1.0
 15
0.0
 25
0.0
 16
0.0
 26
0.0
 36
1.0
 17
0.0
 27
0.0
 37
0.0
 40
3343.935159780494
 41
2.085858585858586
 42
50.0
 43
0.0
 44
0.0
 50
0.0
 51
0.0
 71
    16
 72
   100
 73
     1
 74
     1
 75
     0
 76
     0
 77
     0
 78
     0
281
     0
 65
     1
110
0.0
120
0.0
130
0.0
111
1.0
121
0.0
131
0.0
112
0.0
122
1.0
132
0.0
 79
     0
146
0.0
348
555
 60
     3
 61
     5
292
     1
282
     1
141
0.0
142
0.0
 63
   256
361
AC0
  0
ENDTAB
  0
TABLE
  2
LTYPE
  5
4
330
0
100
AcDbSymbolTable
 70
     8
  0
LTYPE
  5
11
330
4
100
AcDbSymbolTableRecord
100
AcDbLinetypeTableRecord
  2
BYBLOCK
 70
     0
  3

 72
    65
 73
     0
 40
0.0
  0
LTYPE
  5
12
330
4
100
AcDbSymbolTableRecord
100
AcDbLinetypeTableRecord
  2
BYLAYER
 70
     0
  3

 72
    65
 73
     0
 40
0.0
  0
LTYPE
  5
13
330
4
100
AcDbSymbolTableRecord
100
AcDbLinetypeTableRecord
  2
CONTINUOUS
 70
     0
  3
Solid line
 72
    65
 73
     0
 40
0.0
  0
LTYPE
  5
1D
330
4
100
AcDbSymbolTableRecord
100
AcDbLinetypeTableRecord
  2
DASHED
 70
     0
  3
Dashed
 72
    65
 73
     2
 40
15.0
 49
12.0
 74
     0
 49
-3.0
 74
     0
  0
LTYPE
  5
1E
330
4
100
AcDbSymbolTableRecord
100
AcDbLinetypeTableRecord
  2
DOTTED
 70
     0
  3
Dotted
 72
    65
 73
     2
 40
3.5
 49
0.5
 74
     0
 49
-3.0
 74
     0
  0
LTYPE
  5
1F
330
4
100
AcDbSymbolTableRecord
100
AcDbLinetypeTableRecord
  2
DOT_CENTER
 70
     0
  3
Dot_Center
 72
    65
 73
     4
 40
2.0
 49
1.25
 74
     0
 49
-0.25
 74
     0
 49
0.25
 74
     0
 49
-0.25
 74
     0
  0
LTYPE
  5
20
330
4
100
AcDbSymbolTableRecord
100
AcDbLinetypeTableRecord
  2
LONG_DASHED
 70
     0
  3
Long_Dashed
 72
    65
 73
     2
 40
2.0
 49
1.5
 74
     0
 49
-0.5
 74
     0
  0
LTYPE
  5
21
330
4
100
AcDbSymbolTableRecord
100
AcDbLinetypeTableRecord
  2
DASH_CENTER
 70
     0
  3
Dash_Center
 72
    65
 73
     4
 40
36.0
 49
24.0
 74
     0
 49
-3.0
 74
     0
 49
6.0
 74
     0
 49
-3.0
 74
     0
  0
LTYPE
  5
22
330
4
100
AcDbSymbolTableRecord
100
AcDbLinetypeTableRecord
  2
PHANTOM
 70
     0
  3
Phantom
 72
    65
 73
     6
 40
2.5
 49
1.25
 74
     0
 49
-0.25
 74
     0
 49
0.25
 74
     0
 49
-0.25
 74
     0
 49
0.25
 74
     0
 49
-0.25
 74
     0
  0
LTYPE
  5
23
330
4
100
AcDbSymbolTableRecord
100
AcDbLinetypeTableRecord
  2
CENTER_DASH_DASH
 70
     0
  3
Center_Dash_Dash
 72
    65
 73
     6
 40
22.0
 49
12.0
 74
     0
 49
-3.0
 74
     0
 49
0.5
 74
     0
 49
-3.0
 74
     0
 49
0.5
 74
     0
 49
-3.0
 74
     0
  0
ENDTAB
  0
TABLE
  2
LAYER
  5
2
102
{ACAD_XDICTIONARY
360
ABD
102
}
330
0
100
AcDbSymbolTable
 70
     3
  0
LAYER
  5
14
330
2
100
AcDbSymbolTableRecord
100
AcDbLayerTableRecord
  2
0
 70
     0
 62
     7
  6
CONTINUOUS
370
    -3
390
52A
347
56C
348
0
  0
LAYER
  5
24
330
2
100
AcDbSymbolTableRecord
100
AcDbLayerTableRecord
  2
1
 70
     0
 62
     7
  6
CONTINUOUS
370
    -3
390
52A
347
56C
348
0
  0
LAYER
  5
A87
330
2
100
AcDbSymbolTableRecord
100
AcDbLayerTableRecord
  2
Defpoints
 70
     0
 62
     7
  6
CONTINUOUS
290
     0
370
    -3
390
52A
347
56C
348
0
  0
ENDTAB
  0
TABLE
  2
STYLE
  5
3
330
0
100
AcDbSymbolTable
 70
     1
  0
STYLE
  5
17
330
3
100
AcDbSymbolTableRecord
100
AcDbTextStyleTableRecord
  2
STANDARD
 70
     0
 40
0.0
 41
1.0
 50
0.0
 71
     0
 42
0.0
  3
txt
  4

  0
ENDTAB
  0
TABLE
  2
VIEW
  5
5
330
0
100
AcDbSymbolTable
 70
     0
  0
ENDTAB
  0
TABLE
  2
UCS
  5
6
330
0
100
AcDbSymbolTable
 70
     0
  0
ENDTAB
  0
TABLE
  2
APPID
  5
8
330
0
100
AcDbSymbolTable
 70
     2
  0
APPID
  5
16
330
8
100
AcDbSymbolTableRecord
100
AcDbRegAppTableRecord
  2
ACAD
 70
     0
  0
APPID
  5
202A
330
8
100
AcDbSymbolTableRecord
100
AcDbRegAppTableRecord
  2
ACAD_MLEADERVER
 70
     0
  0
ENDTAB
  0
TABLE
  2
DIMSTYLE
  5
9
330
0
100
AcDbSymbolTable
 70
     1
100
AcDbDimStyleTable
  0
DIMSTYLE
105
18
330
9
100
AcDbSymbolTableRecord
100
AcDbDimStyleTableRecord
  2
STANDARD
 70
     0
178
     0
289
     0
340
17
  0
ENDTAB
  0
TABLE
  2
BLOCK_RECORD
  5
1
330
0
100
AcDbSymbolTable
 70
     2
  0
BLOCK_RECORD
  5
A
330
1
100
AcDbSymbolTableRecord
100
AcDbBlockTableRecord
  2
*MODEL_SPACE
340
54E
 70
     0
280
     1
281
     0
  0
BLOCK_RECORD
  5
346D
330
1
100
AcDbSymbolTableRecord
100
AcDbBlockTableRecord
  2
*Paper_Space
340
346E
 70
     0
280
     1
281
     0
  0
BLOCK_RECORD
  5
25
330
1
100
AcDbSymbolTableRecord
100
AcDbBlockTableRecord
  2
SAT1000C85__1
340
0
102
{BLKREFS
331
29
102
}
 70
     0
280
     1
281
     0
  0
BLOCK_RECORD
  5
A8B
330
1
100
AcDbSymbolTableRecord
100
AcDbBlockTableRecord
  2
*D1
340
0
 70
     0
280
     1
281
     0
  0
ENDTAB
  0
ENDSEC
  0
SECTION
  2
BLOCKS
  0
BLOCK
  5
D
330
A
100
AcDbEntity
  8
0
100
AcDbBlockBegin
  2
*MODEL_SPACE
 70
     0
 10
0.0
 20
0.0
 30
0.0
  3
*MODEL_SPACE
  1

  0
ENDBLK
  5
E
330
A
100
AcDbEntity
  8
0
100
AcDbBlockEnd
  0
BLOCK
  5
346F
330
346D
100
AcDbEntity
 67
     1
  8
0
100
AcDbBlockBegin
  2
*Paper_Space
 70
     0
 10
0.0
 20
0.0
 30
0.0
  3
*Paper_Space
  1

  0
ENDBLK
  5
3470
330
346D
100
AcDbEntity
 67
     1
  8
0
100
AcDbBlockEnd
  0
BLOCK
  5
26
330
25
100
AcDbEntity
  8
0
100
AcDbBlockBegin
  2
SAT1000C85__1
 70
     0
 10
0.0
 20
0.0
 30
0.0
  3
SAT1000C85__1
  1

  0
ARC
  5
524
330
25
100
AcDbEntity
  8
1
  6
Continuous
 62
     0
100
AcDbCircle
 10
11284.05244779351
 20
-3212.418091203799
 30
0.0
 40
2.0
100
AcDbArc
 50
270.0
 51
0.0
  0
ARC
  5
523
330
25
100
AcDbEntity
  8
1
  6
Continuous
 62
     0
100
AcDbCircle
 10
11284.05244779351
 20
-3181.418091203799
 30
0.0
 40
2.0
100
AcDbArc
 50
0.0
 51
90.0
  0
ARC
  5
522
330
25
100
AcDbEntity
  8
1
  6
Continuous
 62
     0
100
AcDbCircle
 10
11210.05244779351
 20
-3212.418091203799
 30
0.0
 40
2.0
100
AcDbArc
 50
180.0
 51
270.0
  0
ARC
  5
521
330
25
100
AcDbEntity
  8
1
  6
Continuous
 62
     0
100
AcDbCircle
 10
11210.05244779351
 20
-3181.418091203799
 30
0.0
 40
2.0
100
AcDbArc
 50
90.0
 51
180.0
  0
ARC
  5
520
330
25
100
AcDbEntity
  8
1
  6
Continuous
 62
     0
100
AcDbCircle
 10
11315.81117465193
 20
-3177.418091203799
 30
0.0
 40
3.0
100
AcDbArc
 50
90.0
 51
125.0511367472717
  0
ARC
  5
51F
330
25
100
AcDbEntity
  8
1
  6
Continuous
 62
     0
100
AcDbCircle
 10
11296.81117465193
 20
-3177.418091203799
 30
0.0
 40
3.000000000005
100
AcDbArc
 50
54.9488632525427
 51
90.0
  0
ARC
  5
51E
330
25
100
AcDbEntity
  8
1
  6
Continuous
 62
     0
100
AcDbCircle
 10
11863.55117465193
 20
-2622.682773708597
 30
0.0
 40
1.0
100
AcDbArc
 50
270.0
 51
0.0
  0
ARC
  5
51D
330
25
100
AcDbEntity
  8
1
  6
Continuous
 62
     0
100
AcDbCircle
 10
11863.55117465193
 20
-2679.682773708597
 30
0.0
 40
1.0
100
AcDbArc
 50
0.0
 51
90.0
  0
ARC
  5
51C
330
25
100
AcDbEntity
  8
1
  6
Continuous
 62
     0
100
AcDbCircle
 10
11260.51291852987
 20
-1181.550287497433
 30
0.0
 40
3.0
100
AcDbArc
 50
180.0
 51
270.0
  0
ARC
  5
51B
330
25
100
AcDbEntity
  8
1
  6
Continuous
 62
     0
100
AcDbCircle
 10
11260.51291852987
 20
-1210.550287497433
 30
0.0
 40
3.0
100
AcDbArc
 50
90.0
 51
180.0
  0
ARC
  5
51A
330
25
100
AcDbEntity
  8
1
  6
Continuous
 62
     0
100
AcDbCircle
 10
11317.03440156382
 20
-1203.400287497431
 30
0.0
 40
3.0
100
AcDbArc
 50
90.0
 51
145.5709960491356
  0
ARC
  5
519
330
25
100
AcDbEntity
  8
1
  6
Continuous
 62
     0
100
AcDbCircle
 10
11317.03440156382
 20
-1188.700287497431
 30
0.0
 40
3.0
100
AcDbArc
 50
214.4290039509198
 51
270.0
  0
ARC
  5
518
330
25
100
AcDbEntity
  8
1
  6
Continuous
 62
     0
100
AcDbCircle
 10
11295.58888921275
 20
-1188.700287497431
 30
0.0
 40
3.0
100
AcDbArc
 50
270.0
 51
325.5709960490802
  0
ARC
  5
517
330
25
100
AcDbEntity
  8
1
  6
Continuous
 62
     0
100
AcDbCircle
 10
11295.58888921275
 20
-1203.400287497431
 30
0.0
 40
2.999999999998
100
AcDbArc
 50
34.42900395086972
 51
90.0
  0
ARC
  5
516
330
25
100
AcDbEntity
  8
1
  6
Continuous
 62
     0
100
AcDbCircle
 10
14004.01287855272
 20
-464.772545701756
 30
0.0
 40
3.000000000001
100
AcDbArc
 50
96.23461097289425
 51
173.4165619719363
  0
ARC
  5
515
330
25
100
AcDbEntity
  8
1
  6
Continuous
 62
     0
100
AcDbCircle
 10
14026.06236625991
 20
-464.772545701756
 30
0.0
 40
3.000000000002
100
AcDbArc
 50
6.583438028068003
 51
83.76538902710789
  0
ARC
  5
514
330
25
100
AcDbEntity
  8
1
  6
Continuous
 62
     0
100
AcDbCircle
 10
11835.31820618556
 20
-470.859145627228
 30
0.0
 40
2.999999999997
100
AcDbArc
 50
122.5744390990808
 51
186.5834380280519
  0
ARC
  5
513
330
25
100
AcDbEntity
  8
1
  6
Continuous
 62
     0
100
AcDbCircle
 10
11799.7841431183
 20
-470.859145627228
 30
0.0
 40
3.0
100
AcDbArc
 50
353.4165619719485
 51
57.42556090075178
  0
ARC
  5
512
330
25
100
AcDbEntity
  8
1
  6
Continuous
 62
     0
100
AcDbCircle
 10
11828.57591850553
 20
-464.772545701756
 30
0.0
 40
3.000000000002
100
AcDbArc
 50
6.583438028068003
 51
83.76538902710789
  0
ARC
  5
511
330
25
100
AcDbEntity
  8
1
  6
Continuous
 62
     0
100
AcDbCircle
 10
11806.52643079834
 20
-464.772545701756
 30
0.0
 40
3.000000000001
100
AcDbArc
 50
96.23461097289425
 51
173.4165619719363
  0
ARC
  5
510
330
25
100
AcDbEntity
  8
1
  6
Continuous
 62
     0
100
AcDbCircle
 10
11845.55117465193
 20
-2262.816917723691
 30
0.0
 40
3.0
100
AcDbArc
 50
0.0
 51
38.09195710521546
  0
ARC
  5
50F
330
25
100
AcDbEntity
  8
1
  6
Continuous
 62
     0
100
AcDbCircle
 10
11845.55117465193
 20
-2239.643657271176
 30
0.0
 40
3.000000000003
100
AcDbArc
 50
321.9080428948274
 51
0.0
  0
ARC
  5
50E
330
25
100
AcDbEntity
  8
1
  6
Continuous
 62
     0
100
AcDbCircle
 10
14002.19482286727
 20
-2243.480287497433
 30
0.0
 40
2.0
100
AcDbArc
 50
270.0
 51
328.8910774892695
  0
ARC
  5
50D
330
25
100
AcDbEntity
  8
1
  6
Continuous
 62
     0
100
AcDbCircle
 10
14002.19482286727
 20
-2258.980287497433
 30
0.0
 40
1.999999999996
100
AcDbArc
 50
31.10892251044708
 51
90.0
  0
ARC
  5
50C
330
25
100
AcDbEntity
  8
1
  6
Continuous
 62
     0
100
AcDbCircle
 10
14027.88042194536
 20
-2243.480287497433
 30
0.0
 40
2.00000000001
100
AcDbArc
 50
211.1089225106025
 51
270.0
  0
ARC
  5
50B
330
25
100
AcDbEntity
  8
1
  6
Continuous
 62
     0
100
AcDbCircle
 10
14027.88042194536
 20
-2258.980287497433
 30
0.0
 40
2.0
100
AcDbArc
 50
90.0
 51
148.8910774896783
  0
ARC
  5
50A
330
25
100
AcDbEntity
  8
1
  6
Continuous
 62
     0
100
AcDbCircle
 10
14008.28762240632
 20
-2239.230287497432
 30
0.0
 40
2.0
100
AcDbArc
 50
90.0
 51
180.0
  0
ARC
  5
509
330
25
100
AcDbEntity
  8
1
  6
Continuous
 62
     0
100
AcDbCircle
 10
11224.7322465454
 20
-1130.32810171399
 30
0.0
 40
0.144444444446
100
AcDbArc
 50
137.7821654181386
 51
312.2178345821163
  0
ARC
  5
508
330
25
100
AcDbEntity
  8
1
  6
Continuous
 62
     0
100
AcDbCircle
 10
11798.55117465193
 20
-976.330287497432
 30
0.0
 40
1.0
100
AcDbArc
 50
90.0
 51
180.0
  0
ARC
  5
507
330
25
100
AcDbEntity
  8
1
  6
Continuous
 62
     0
100
AcDbCircle
 10
11836.55117465193
 20
-976.330287497432
 30
0.0
 40
1.0
100
AcDbArc
 50
0.0
 51
90.0
  0
ARC
  5
506
330
25
100
AcDbEntity
  8
1
  6
Continuous
 62
     0
100
AcDbCircle
 10
11840.55117465193
 20
-982.330287497432
 30
0.0
 40
2.0
100
AcDbArc
 50
0.0
 51
90.0
  0
ARC
  5
505
330
25
100
AcDbEntity
  8
1
  6
Continuous
 62
     0
100
AcDbCircle
 10
11794.55117465193
 20
-982.330287497432
 30
0.0
 40
2.0
100
AcDbArc
 50
90.0
 51
180.0
  0
ARC
  5
504
330
25
100
AcDbEntity
  8
1
  6
Continuous
 62
     0
100
AcDbCircle
 10
11795.55117465193
 20
-978.330287497432
 30
0.0
 40
2.0
100
AcDbArc
 50
270.0
 51
0.0
  0
ARC
  5
503
330
25
100
AcDbEntity
  8
1
  6
Continuous
 62
     0
100
AcDbCircle
 10
11839.55117465193
 20
-978.330287497432
 30
0.0
 40
2.0
100
AcDbArc
 50
180.0
 51
270.0
  0
ARC
  5
502
330
25
100
AcDbEntity
  8
1
  6
Continuous
 62
     0
100
AcDbCircle
 10
11842.55117465193
 20
-1023.752937228242
 30
0.0
 40
2.0
100
AcDbArc
 50
180.0
 51
239.9999999999994
  0
ARC
  5
501
330
25
100
AcDbEntity
  8
1
  6
Continuous
 62
     0
100
AcDbCircle
 10
11837.55117465193
 20
-1023.330287497432
 30
0.0
 40
1.0
100
AcDbArc
 50
270.0
 51
0.0
  0
ARC
  5
500
330
25
100
AcDbEntity
  8
1
  6
Continuous
 62
     0
100
AcDbCircle
 10
11826.88450798527
 20
-1023.330287497432
 30
0.0
 40
1.0
100
AcDbArc
 50
180.0
 51
270.0
  0
ARC
  5
4FF
330
25
100
AcDbEntity
  8
1
  6
Continuous
 62
     0
100
AcDbCircle
 10
11822.88450798527
 20
-1023.330287497432
 30
0.0
 40
1.0
100
AcDbArc
 50
270.0
 51
0.0
  0
ARC
  5
4FE
330
25
100
AcDbEntity
  8
1
  6
Continuous
 62
     0
100
AcDbCircle
 10
11812.2178413186
 20
-1023.330287497432
 30
0.0
 40
1.0
100
AcDbArc
 50
180.0
 51
270.0
  0
ARC
  5
4FD
330
25
100
AcDbEntity
  8
1
  6
Continuous
 62
     0
100
AcDbCircle
 10
11808.2178413186
 20
-1023.330287497432
 30
0.0
 40
1.0
100
AcDbArc
 50
270.0
 51
0.0
  0
ARC
  5
4FC
330
25
100
AcDbEntity
  8
1
  6
Continuous
 62
     0
100
AcDbCircle
 10
11792.55117465193
 20
-1023.752937228242
 30
0.0
 40
2.000000000001
100
AcDbArc
 50
299.9999999999842
 51
0.0
  0
ARC
  5
4FB
330
25
100
AcDbEntity
  8
1
  6
Continuous
 62
     0
100
AcDbCircle
 10
11797.55117465193
 20
-1023.330287497432
 30
0.0
 40
1.0
100
AcDbArc
 50
180.0
 51
270.0
  0
ARC
  5
4FA
330
25
100
AcDbEntity
  8
1
  6
Continuous
 62
     0
100
AcDbCircle
 10
11782.55117465193
 20
-1039.330287497432
 30
0.0
 40
5.0
100
AcDbArc
 50
90.0
 51
180.0
  0
ARC
  5
4F9
330
25
100
AcDbEntity
  8
1
  6
Continuous
 62
     0
100
AcDbCircle
 10
11852.55117465193
 20
-1039.330287497432
 30
0.0
 40
5.0
100
AcDbArc
 50
0.0
 51
90.0
  0
ARC
  5
4F8
330
25
100
AcDbEntity
  8
1
  6
Continuous
 62
     0
100
AcDbCircle
 10
11782.55117465193
 20
-1092.830287497432
 30
0.0
 40
5.0
100
AcDbArc
 50
180.0
 51
270.0
  0
ARC
  5
4F7
330
25
100
AcDbEntity
  8
1
  6
Continuous
 62
     0
100
AcDbCircle
 10
11858.55117465193
 20
-1040.330287497432
 30
0.0
 40
1.0
100
AcDbArc
 50
180.0
 51
270.0
  0
ARC
  5
4F6
330
25
100
AcDbEntity
  8
1
  6
Continuous
 62
     0
100
AcDbCircle
 10
11863.55117465193
 20
-1040.330287497432
 30
0.0
 40
1.0
100
AcDbArc
 50
270.0
 51
0.0
  0
ARC
  5
4F5
330
25
100
AcDbEntity
  8
1
  6
Continuous
 62
     0
100
AcDbCircle
 10
11858.55117465193
 20
-1097.330287497432
 30
0.0
 40
1.0
100
AcDbArc
 50
90.0
 51
180.0
  0
ARC
  5
4F4
330
25
100
AcDbEntity
  8
1
  6
Continuous
 62
     0
100
AcDbCircle
 10
11863.55117465193
 20
-1097.330287497432
 30
0.0
 40
1.0
100
AcDbArc
 50
0.0
 51
90.0
  0
ARC
  5
4F3
330
25
100
AcDbEntity
  8
1
  6
Continuous
 62
     0
100
AcDbCircle
 10
11849.55117465193
 20
-1105.830287497432
 30
0.0
 40
3.0
100
AcDbArc
 50
270.0
 51
0.0
  0
ARC
  5
4F2
330
25
100
AcDbEntity
  8
1
  6
Continuous
 62
     0
100
AcDbCircle
 10
11785.55117465193
 20
-1105.830287497432
 30
0.0
 40
3.0
100
AcDbArc
 50
180.0
 51
270.0
  0
ARC
  5
4F1
330
25
100
AcDbEntity
  8
1
  6
Continuous
 62
     0
100
AcDbCircle
 10
13500.94421934612
 20
-1092.830287497432
 30
0.0
 40
5.0
100
AcDbArc
 50
270.0
 51
0.0
  0
ARC
  5
4F0
330
25
100
AcDbEntity
  8
1
  6
Continuous
 62
     0
100
AcDbCircle
 10
13433.94421934612
 20
-1105.830287497432
 30
0.0
 40
3.0
100
AcDbArc
 50
180.0
 51
270.0
  0
ARC
  5
4EF
330
25
100
AcDbEntity
  8
1
  6
Continuous
 62
     0
100
AcDbCircle
 10
13497.94421934612
 20
-1105.830287497432
 30
0.0
 40
3.0
100
AcDbArc
 50
270.0
 51
0.0
  0
ARC
  5
4EE
330
25
100
AcDbEntity
  8
1
  6
Continuous
 62
     0
100
AcDbCircle
 10
13430.94421934612
 20
-1092.830287497432
 30
0.0
 40
5.0
100
AcDbArc
 50
180.0
 51
270.0
  0
ARC
  5
4ED
330
25
100
AcDbEntity
  8
1
  6
Continuous
 62
     0
100
AcDbCircle
 10
13500.94421934612
 20
-1039.330287497432
 30
0.0
 40
5.0
100
AcDbArc
 50
0.0
 51
90.0
  0
ARC
  5
4EC
330
25
100
AcDbEntity
  8
1
  6
Continuous
 62
     0
100
AcDbCircle
 10
13430.94421934612
 20
-1039.330287497432
 30
0.0
 40
5.0
100
AcDbArc
 50
90.0
 51
180.0
  0
ARC
  5
4EB
330
25
100
AcDbEntity
  8
1
  6
Continuous
 62
     0
100
AcDbCircle
 10
13445.94421934612
 20
-1023.330287497432
 30
0.0
 40
1.0
100
AcDbArc
 50
180.0
 51
270.0
  0
ARC
  5
4EA
330
25
100
AcDbEntity
  8
1
  6
Continuous
 62
     0
100
AcDbCircle
 10
13440.94421934612
 20
-1023.752937228242
 30
0.0
 40
2.000000000001
100
AcDbArc
 50
299.9999999999842
 51
0.0
  0
ARC
  5
4E9
330
25
100
AcDbEntity
  8
1
  6
Continuous
 62
     0
100
AcDbCircle
 10
13456.61088601279
 20
-1023.330287497432
 30
0.0
 40
1.0
100
AcDbArc
 50
270.0
 51
0.0
  0
ARC
  5
4E8
330
25
100
AcDbEntity
  8
1
  6
Continuous
 62
     0
100
AcDbCircle
 10
13460.61088601279
 20
-1023.330287497432
 30
0.0
 40
1.0
100
AcDbArc
 50
180.0
 51
270.0
  0
ARC
  5
4E7
330
25
100
AcDbEntity
  8
1
  6
Continuous
 62
     0
100
AcDbCircle
 10
13471.27755267946
 20
-1023.330287497432
 30
0.0
 40
1.0
100
AcDbArc
 50
270.0
 51
0.0
  0
ARC
  5
4E6
330
25
100
AcDbEntity
  8
1
  6
Continuous
 62
     0
100
AcDbCircle
 10
13475.27755267946
 20
-1023.330287497432
 30
0.0
 40
1.0
100
AcDbArc
 50
180.0
 51
270.0
  0
ARC
  5
4E5
330
25
100
AcDbEntity
  8
1
  6
Continuous
 62
     0
100
AcDbCircle
 10
13485.94421934612
 20
-1023.330287497432
 30
0.0
 40
1.0
100
AcDbArc
 50
270.0
 51
0.0
  0
ARC
  5
4E4
330
25
100
AcDbEntity
  8
1
  6
Continuous
 62
     0
100
AcDbCircle
 10
13490.94421934612
 20
-1023.752937228242
 30
0.0
 40
2.0
100
AcDbArc
 50
180.0
 51
239.9999999999994
  0
ARC
  5
4E3
330
25
100
AcDbEntity
  8
1
  6
Continuous
 62
     0
100
AcDbCircle
 10
13487.94421934612
 20
-978.329616158848
 30
0.0
 40
2.0
100
AcDbArc
 50
180.0
 51
270.0
  0
ARC
  5
4E2
330
25
100
AcDbEntity
  8
1
  6
Continuous
 62
     0
100
AcDbCircle
 10
13443.94421934612
 20
-978.329616158848
 30
0.0
 40
2.0
100
AcDbArc
 50
270.0
 51
0.0
  0
ARC
  5
4E1
330
25
100
AcDbEntity
  8
1
  6
Continuous
 62
     0
100
AcDbCircle
 10
13442.94421934612
 20
-982.329616158848
 30
0.0
 40
2.0
100
AcDbArc
 50
90.0
 51
180.0
  0
ARC
  5
4E0
330
25
100
AcDbEntity
  8
1
  6
Continuous
 62
     0
100
AcDbCircle
 10
13488.94421934612
 20
-982.329616158848
 30
0.0
 40
2.0
100
AcDbArc
 50
0.0
 51
90.0
  0
ARC
  5
4DF
330
25
100
AcDbEntity
  8
1
  6
Continuous
 62
     0
100
AcDbCircle
 10
13484.94421934612
 20
-976.329616158848
 30
0.0
 40
1.0
100
AcDbArc
 50
0.0
 51
90.0
  0
ARC
  5
4DE
330
25
100
AcDbEntity
  8
1
  6
Continuous
 62
     0
100
AcDbCircle
 10
13446.94421934612
 20
-976.329616158848
 30
0.0
 40
1.0
100
AcDbArc
 50
90.0
 51
180.0
  0
ARC
  5
4DD
330
25
100
AcDbEntity
  8
1
  6
Continuous
 62
     0
100
AcDbCircle
 10
13490.30230491111
 20
-1185.551832030004
 30
0.0
 40
45.0
100
AcDbArc
 50
180.0
 51
270.0
  0
ARC
  5
4DC
330
25
100
AcDbEntity
  8
1
  6
Continuous
 62
     0
100
AcDbCircle
 10
13492.30230491111
 20
-1155.548742964861
 30
0.0
 40
6.0
100
AcDbArc
 50
180.0
 51
270.0
  0
ARC
  5
4DB
330
25
100
AcDbEntity
  8
1
  6
Continuous
 62
     0
100
AcDbCircle
 10
11767.05117465193
 20
-1155.922999436971
 30
0.0
 40
30.000000000006
100
AcDbArc
 50
321.5293544594044
 51
0.0
  0
ARC
  5
4DA
330
25
100
AcDbEntity
  8
1
  6
Continuous
 62
     0
100
AcDbCircle
 10
11868.05117465193
 20
-1155.922999436971
 30
0.0
 40
30.0
100
AcDbArc
 50
180.0
 51
218.4706455406085
  0
ARC
  5
4D1
330
25
100
AcDbEntity
  8
1
  6
Continuous
 62
     0
100
AcDbCircle
 10
11815.55117465193
 20
-3686.418091203799
 30
0.0
 40
2.0
100
AcDbArc
 50
180.0
 51
270.0
  0
ARC
  5
4D0
330
25
100
AcDbEntity
  8
1
  6
Continuous
 62
     0
100
AcDbCircle
 10
11819.55117465193
 20
-3686.418091203799
 30
0.0
 40
2.0
100
AcDbArc
 50
270.0
 51
0.0
  0
ARC
  5
4CF
330
25
100
AcDbEntity
  8
1
  6
Continuous
 62
     0
100
AcDbCircle
 10
11815.55117465193
 20
-3686.418091203799
 30
0.0
 40
2.0
100
AcDbArc
 50
180.0
 51
270.0
  0
ARC
  5
4CE
330
25
100
AcDbEntity
  8
1
  6
Continuous
 62
     0
100
AcDbCircle
 10
11819.55117465193
 20
-3686.418091203799
 30
0.0
 40
2.0
100
AcDbArc
 50
270.0
 51
0.0
  0
CIRCLE
  5
4CD
330
25
100
AcDbEntity
  8
1
  6
Continuous
 62
     0
100
AcDbCircle
 10
11247.05244779351
 20
-3200.418091203799
 30
0.0
 40
8.331
  0
CIRCLE
  5
4CC
330
25
100
AcDbEntity
  8
1
  6
Continuous
 62
     0
100
AcDbCircle
 10
11247.05244779351
 20
-3200.418091203799
 30
0.0
 40
7.475000000001
  0
CIRCLE
  5
4CB
330
25
100
AcDbEntity
  8
1
  6
Continuous
 62
     0
100
AcDbCircle
 10
12100.39388712655
 20
-2917.57537872918
 30
0.0
 40
11.5
  0
CIRCLE
  5
4CA
330
25
100
AcDbEntity
  8
1
  6
Continuous
 62
     0
100
AcDbCircle
 10
11534.70846217731
 20
-2917.57537872918
 30
0.0
 40
11.5
  0
CIRCLE
  5
4C9
330
25
100
AcDbEntity
  8
1
  6
Continuous
 62
     0
100
AcDbCircle
 10
11534.70846217731
 20
-3483.260803678419
 30
0.0
 40
11.5
  0
CIRCLE
  5
4C8
330
25
100
AcDbEntity
  8
1
  6
Continuous
 62
     0
100
AcDbCircle
 10
12100.39388712655
 20
-3483.260803678419
 30
0.0
 40
11.5
  0
CIRCLE
  5
4C6
330
25
100
AcDbEntity
  8
1
  6
Continuous
 62
     0
100
AcDbCircle
 10
11817.55117465193
 20
-3200.418091203799
 30
0.0
 40
450.0
  0
CIRCLE
  5
4C4
330
25
100
AcDbEntity
  8
1
  6
Continuous
 62
     0
100
AcDbCircle
 10
11306.31164538828
 20
-1196.050287497433
 30
0.0
 40
8.5
  0
CIRCLE
  5
4C3
330
25
100
AcDbEntity
  8
1
  6
Continuous
 62
     0
100
AcDbCircle
 10
11306.31164538828
 20
-1196.050287497433
 30
0.0
 40
5.0
  0
CIRCLE
  5
4C2
330
25
100
AcDbEntity
  8
1
  6
Continuous
 62
     0
100
AcDbCircle
 10
11306.31164538828
 20
-1196.050287497433
 30
0.0
 40
3.0
  0
CIRCLE
  5
4C1
330
25
100
AcDbEntity
  8
1
  6
Continuous
 62
     0
100
AcDbCircle
 10
11306.31164538828
 20
-1196.050287497433
 30
0.0
 40
6.25
  0
CIRCLE
  5
4B3
330
25
100
AcDbEntity
  8
1
  6
Continuous
 62
     0
100
AcDbCircle
 10
11817.55117465193
 20
-443.050287497433
 30
0.0
 40
17.5
  0
CIRCLE
  5
4B2
330
25
100
AcDbEntity
  8
1
  6
Continuous
 62
     0
100
AcDbCircle
 10
11817.55117465193
 20
-3200.418091203799
 30
0.0
 40
459.0
  0
CIRCLE
  5
4B1
330
25
100
AcDbEntity
  8
1
  6
Continuous
 62
     0
100
AcDbCircle
 10
14015.03762240632
 20
-1196.050287497433
 30
0.0
 40
41.0
  0
CIRCLE
  5
4B0
330
25
100
AcDbEntity
  8
1
  6
Continuous
 62
     0
100
AcDbCircle
 10
14015.03762240632
 20
-1196.050287497433
 30
0.0
 40
36.11299999999
  0
CIRCLE
  5
4AE
330
25
100
AcDbEntity
  8
1
  6
Continuous
 62
     0
100
AcDbCircle
 10
14015.03762240632
 20
-2251.230287497433
 30
0.0
 40
11.1
  0
CIRCLE
  5
4AD
330
25
100
AcDbEntity
  8
1
  6
Continuous
 62
     0
100
AcDbCircle
 10
14015.03762240632
 20
-2251.230287497433
 30
0.0
 40
6.0
  0
CIRCLE
  5
4AC
330
25
100
AcDbEntity
  8
1
  6
Continuous
 62
     0
100
AcDbCircle
 10
14015.03762240632
 20
-2251.230287497433
 30
0.0
 40
7.5
  0
CIRCLE
  5
4AB
330
25
100
AcDbEntity
  8
1
  6
Continuous
 62
     0
100
AcDbCircle
 10
14015.03762240632
 20
-2251.230287497433
 30
0.0
 40
3.600000000001
  0
CIRCLE
  5
4AA
330
25
100
AcDbEntity
  8
1
  6
Continuous
 62
     0
100
AcDbCircle
 10
11246.01610804575
 20
-1109.405719258946
 30
0.0
 40
36.092093524148
  0
CIRCLE
  5
4A9
330
25
100
AcDbEntity
  8
1
  6
Continuous
 62
     0
100
AcDbCircle
 10
11246.01291852987
 20
-1109.401560639016
 30
0.0
 40
2.88888888888
  0
CIRCLE
  5
4A8
330
25
100
AcDbEntity
  8
1
  6
Continuous
 62
     0
100
AcDbCircle
 10
11230.12327385665
 20
-1126.82614801373
 30
0.0
 40
0.722222222221
  0
CIRCLE
  5
4A7
330
25
100
AcDbEntity
  8
1
  6
Continuous
 62
     0
100
AcDbCircle
 10
11246.01291852987
 20
-1122.039342074421
 30
0.0
 40
2.247127062104
  0
CIRCLE
  5
4A6
330
25
100
AcDbEntity
  8
1
  6
Continuous
 62
     0
100
AcDbCircle
 10
13465.80230491111
 20
-1068.830287497432
 30
0.0
 40
19.5
  0
CIRCLE
  5
4A5
330
25
100
AcDbEntity
  8
1
  6
Continuous
 62
     0
100
AcDbCircle
 10
13465.80230491111
 20
-1068.830287497432
 30
0.0
 40
21.0
  0
CIRCLE
  5
4A4
330
25
100
AcDbEntity
  8
1
  6
Continuous
 62
     0
100
AcDbCircle
 10
13465.80230491111
 20
-1068.830287497432
 30
0.0
 40
29.0
  0
ARC
  5
4A3
330
25
100
AcDbEntity
  8
1
  6
Continuous
 62
     0
100
AcDbCircle
 10
11247.05244779351
 20
-3200.418091203799
 30
0.0
 40
11.5
100
AcDbArc
 50
90.0
 51
270.0
  0
ARC
  5
4A2
330
25
100
AcDbEntity
  8
1
  6
Continuous
 62
     0
100
AcDbCircle
 10
11335.49939144647
 20
-3205.668091203799
 30
0.0
 40
15.163861141553
100
AcDbArc
 50
188.5330044404436
 51
200.2561580004274
  0
ARC
  5
4A1
330
25
100
AcDbEntity
  8
1
  6
Continuous
 62
     0
100
AcDbCircle
 10
11279.1229578574
 20
-3195.168091203799
 30
0.0
 40
15.163861141544
100
AcDbArc
 50
8.533004440448753
 51
20.25615800042967
  0
ARC
  5
4A0
330
25
100
AcDbEntity
  8
1
  6
Continuous
 62
     0
100
AcDbCircle
 10
11335.49939144647
 20
-3195.168091203799
 30
0.0
 40
15.163861141555
100
AcDbArc
 50
186.6270409271821
 51
200.2561580004283
  0
ARC
  5
49F
330
25
100
AcDbEntity
  8
1
  6
Continuous
 62
     0
100
AcDbCircle
 10
11279.1229578574
 20
-3205.668091203799
 30
0.0
 40
15.163861141545
100
AcDbArc
 50
6.627040927186803
 51
20.25615800042729
  0
ARC
  5
49E
330
25
100
AcDbEntity
  8
1
  6
Continuous
 62
     0
100
AcDbCircle
 10
11306.31117465193
 20
-3183.1068412038
 30
0.0
 40
9.111249999998
100
AcDbArc
 50
242.9041220239957
 51
297.0958779760043
  0
ARC
  5
49D
330
25
100
AcDbEntity
  8
1
  6
Continuous
 62
     0
100
AcDbCircle
 10
11314.14731351038
 20
-3195.168091203799
 30
0.0
 40
15.163861141558
100
AcDbArc
 50
339.7438419995846
 51
20.25615800041547
  0
ARC
  5
49C
330
25
100
AcDbEntity
  8
1
  6
Continuous
 62
     0
100
AcDbCircle
 10
11314.14731351038
 20
-3205.668091203799
 30
0.0
 40
15.163861141558
100
AcDbArc
 50
339.7438419995846
 51
20.25615800041547
  0
ARC
  5
49B
330
25
100
AcDbEntity
  8
1
  6
Continuous
 62
     0
100
AcDbCircle
 10
11335.49939144647
 20
-3205.668091203799
 30
0.0
 40
15.163861141549
100
AcDbArc
 50
159.7438419995727
 51
173.3729590728182
  0
ARC
  5
49A
330
25
100
AcDbEntity
  8
1
  6
Continuous
 62
     0
100
AcDbCircle
 10
11335.49939144647
 20
-3195.168091203799
 30
0.0
 40
15.163861141549
100
AcDbArc
 50
159.7438419995727
 51
171.466995559556
  0
ARC
  5
499
330
25
100
AcDbEntity
  8
1
  6
Continuous
 62
     0
100
AcDbCircle
 10
11279.1229578574
 20
-3195.168091203799
 30
0.0
 40
15.163861141549
100
AcDbArc
 50
339.7438419995726
 51
353.3729590728131
  0
ARC
  5
498
330
25
100
AcDbEntity
  8
1
  6
Continuous
 62
     0
100
AcDbCircle
 10
11279.1229578574
 20
-3205.668091203799
 30
0.0
 40
15.163861141549
100
AcDbArc
 50
339.7438419995726
 51
351.4669955595509
  0
ARC
  5
497
330
25
100
AcDbEntity
  8
1
  6
Continuous
 62
     0
100
AcDbCircle
 10
11300.47503579349
 20
-3195.168091203799
 30
0.0
 40
15.163861141559
100
AcDbArc
 50
159.7438419995869
 51
200.2561580004131
  0
ARC
  5
496
330
25
100
AcDbEntity
  8
1
  6
Continuous
 62
     0
100
AcDbCircle
 10
11300.47503579349
 20
-3205.668091203799
 30
0.0
 40
15.163861141559
100
AcDbArc
 50
159.7438419995869
 51
200.2561580004131
  0
ARC
  5
495
330
25
100
AcDbEntity
  8
1
  6
Continuous
 62
     0
100
AcDbCircle
 10
11306.31117465193
 20
-3163.876424537128
 30
0.0
 40
13.541666666665
100
AcDbArc
 50
234.9488632525664
 51
305.051136747471
  0
ARC
  5
494
330
25
100
AcDbEntity
  8
1
  6
Continuous
 62
     0
100
AcDbCircle
 10
11817.55117465193
 20
-2651.182773708597
 30
0.0
 40
40.141914435018
100
AcDbArc
 50
329.2592858702409
 51
210.7407141297683
  0
ARC
  5
493
330
25
100
AcDbEntity
  8
1
  6
Continuous
 62
     0
100
AcDbCircle
 10
11817.57984355579
 20
-2658.790529225946
 30
0.0
 40
34.787361012422
100
AcDbArc
 50
7.710008218941219
 51
173.0291458909443
  0
ARC
  5
492
330
25
100
AcDbEntity
  8
1
  6
Continuous
 62
     0
100
AcDbCircle
 10
11772.63418861926
 20
-2684.793267669058
 30
0.0
 40
10.415441500099
100
AcDbArc
 50
328.8685094339154
 51
0.0
  0
ARC
  5
491
330
25
100
AcDbEntity
  8
1
  6
Continuous
 62
     0
100
AcDbCircle
 10
11862.4681606846
 20
-2684.793267669058
 30
0.0
 40
10.41544150009
100
AcDbArc
 50
180.0
 51
211.1314905661156
  0
ARC
  5
490
330
25
100
AcDbEntity
  8
1
  6
Continuous
 62
     0
100
AcDbCircle
 10
11864.88451827722
 20
-3685.229746042915
 30
0.0
 40
6.18836802561
100
AcDbArc
 50
245.979322918974
 51
304.2284958030865
  0
ARC
  5
48F
330
25
100
AcDbEntity
  8
1
  6
Continuous
 62
     0
100
AcDbCircle
 10
11885.70277259055
 20
-3685.229746042915
 30
0.0
 40
6.188368025608
100
AcDbArc
 50
235.7715041969203
 51
294.0206770810346
  0
ARC
  5
48E
330
25
100
AcDbEntity
  8
1
  6
Continuous
 62
     0
100
AcDbCircle
 10
11875.29364543389
 20
-3668.489887973523
 30
0.0
 40
22.928203230275
100
AcDbArc
 50
252.4120462259941
 51
287.5879537739818
  0
ARC
  5
48D
330
25
100
AcDbEntity
  8
1
  6
Continuous
 62
     0
100
AcDbCircle
 10
11841.46888917475
 20
-3668.489887973523
 30
0.0
 40
22.928203230273
100
AcDbArc
 50
252.4120462260165
 51
287.5879537740071
  0
ARC
  5
48C
330
25
100
AcDbEntity
  8
1
  6
Continuous
 62
     0
100
AcDbCircle
 10
11851.87801633142
 20
-3685.229746042915
 30
0.0
 40
6.188368025608
100
AcDbArc
 50
235.7715041969203
 51
294.0206770810346
  0
ARC
  5
48B
330
25
100
AcDbEntity
  8
1
  6
Continuous
 62
     0
100
AcDbCircle
 10
11831.05976201809
 20
-3685.229746042915
 30
0.0
 40
6.188368025611
100
AcDbArc
 50
245.9793229189603
 51
304.2284958030608
  0
ARC
  5
48A
330
25
100
AcDbEntity
  8
1
  6
Continuous
 62
     0
100
AcDbCircle
 10
11804.04258728578
 20
-3685.229746042915
 30
0.0
 40
6.188368025607
100
AcDbArc
 50
235.7715041969342
 51
294.0206770810379
  0
ARC
  5
489
330
25
100
AcDbEntity
  8
1
  6
Continuous
 62
     0
100
AcDbCircle
 10
11783.22433297245
 20
-3685.229746042915
 30
0.0
 40
6.18836802561
100
AcDbArc
 50
245.979322918974
 51
304.2284958030679
  0
ARC
  5
488
330
25
100
AcDbEntity
  8
1
  6
Continuous
 62
     0
100
AcDbCircle
 10
11793.63346012912
 20
-3668.489887973523
 30
0.0
 40
22.928203230275
100
AcDbArc
 50
252.4120462259941
 51
287.5879537739818
  0
ARC
  5
487
330
25
100
AcDbEntity
  8
1
  6
Continuous
 62
     0
100
AcDbCircle
 10
11759.80870386998
 20
-3668.489887973523
 30
0.0
 40
22.928203230275
100
AcDbArc
 50
252.4120462259941
 51
287.5879537739818
  0
ARC
  5
486
330
25
100
AcDbEntity
  8
1
  6
Continuous
 62
     0
100
AcDbCircle
 10
11749.39957671331
 20
-3685.229746042915
 30
0.0
 40
6.18836802561
100
AcDbArc
 50
245.979322918974
 51
304.2284958030865
  0
ARC
  5
485
330
25
100
AcDbEntity
  8
1
  6
Continuous
 62
     0
100
AcDbCircle
 10
11770.21783102664
 20
-3685.229746042915
 30
0.0
 40
6.188368025608
100
AcDbArc
 50
235.7715041969203
 51
294.0206770810346
  0
ARC
  5
484
330
25
100
AcDbEntity
  8
1
  6
Continuous
 62
     0
100
AcDbCircle
 10
11289.72644740406
 20
-1205.158273759512
 30
0.0
 40
5.414822022411
100
AcDbArc
 50
145.7715041969911
 51
204.020677081003
  0
ARC
  5
483
330
25
100
AcDbEntity
  8
1
  6
Continuous
 62
     0
100
AcDbCircle
 10
11304.37382321476
 20
-1196.050287497433
 30
0.0
 40
20.062177826479
100
AcDbArc
 50
162.4120462259963
 51
197.5879537740019
  0
ARC
  5
482
330
25
100
AcDbEntity
  8
1
  6
Continuous
 62
     0
100
AcDbCircle
 10
11289.72644740406
 20
-1186.942301235354
 30
0.0
 40
5.41482202242
100
AcDbArc
 50
155.9793229189844
 51
214.2284958030073
  0
ARC
  5
481
330
25
100
AcDbEntity
  8
1
  6
Continuous
 62
     0
100
AcDbCircle
 10
11322.89684337251
 20
-1205.158273759512
 30
0.0
 40
5.414822022411
100
AcDbArc
 50
335.979322918954
 51
34.22849580307228
  0
ARC
  5
480
330
25
100
AcDbEntity
  8
1
  6
Continuous
 62
     0
100
AcDbCircle
 10
11308.24946756181
 20
-1196.050287497433
 30
0.0
 40
20.062177826469
100
AcDbArc
 50
342.4120462259887
 51
17.58795377401315
  0
ARC
  5
47F
330
25
100
AcDbEntity
  8
1
  6
Continuous
 62
     0
100
AcDbCircle
 10
11322.89684337251
 20
-1186.942301235354
 30
0.0
 40
5.414822022403
100
AcDbArc
 50
325.771504196945
 51
24.02067708105096
  0
ARC
  5
47E
330
25
100
AcDbEntity
  8
1
  6
Continuous
 62
     0
100
AcDbCircle
 10
11306.31164538828
 20
-1196.050287497433
 30
0.0
 40
9.999999999995
100
AcDbArc
 50
214.4290039507271
 51
325.5709960493083
  0
ARC
  5
47D
330
25
100
AcDbEntity
  8
1
  6
Continuous
 62
     0
100
AcDbCircle
 10
11306.31164538828
 20
-1196.050287497433
 30
0.0
 40
10.000000000005
100
AcDbArc
 50
34.42900395069822
 51
145.5709960492653
  0
ARC
  5
47C
330
25
100
AcDbEntity
  8
1
  6
Continuous
 62
     0
100
AcDbCircle
 10
11340.07382321476
 20
-1196.050287497433
 30
0.0
 40
20.06217782648
100
AcDbArc
 50
196.0959632100552
 51
197.5879537740031
  0
ARC
  5
47B
330
25
100
AcDbEntity
  8
1
  6
Continuous
 62
     0
100
AcDbCircle
 10
11325.42644740405
 20
-1205.158273759512
 30
0.0
 40
5.414822022404
100
AcDbArc
 50
145.7715041969331
 51
204.0206770810983
  0
ARC
  5
47A
330
25
100
AcDbEntity
  8
1
  6
Continuous
 62
     0
100
AcDbCircle
 10
11325.42644740405
 20
-1186.942301235354
 30
0.0
 40
5.414822022402
100
AcDbArc
 50
155.9793229188938
 51
214.2284958030659
  0
ARC
  5
479
330
25
100
AcDbEntity
  8
1
  6
Continuous
 62
     0
100
AcDbCircle
 10
11272.28728973531
 20
-1196.050287497433
 30
0.0
 40
20.062177826482
100
AcDbArc
 50
16.09596321005381
 51
17.58795377400526
  0
ARC
  5
478
330
25
100
AcDbEntity
  8
1
  6
Continuous
 62
     0
100
AcDbCircle
 10
11286.93466554602
 20
-1186.942301235354
 30
0.0
 40
5.414822022403
100
AcDbArc
 50
325.771504196945
 51
24.02067708105096
  0
ARC
  5
477
330
25
100
AcDbEntity
  8
1
  6
Continuous
 62
     0
100
AcDbCircle
 10
11286.93466554602
 20
-1205.158273759512
 30
0.0
 40
5.414822022411
100
AcDbArc
 50
335.979322918954
 51
34.22849580307228
  0
ARC
  5
476
330
25
100
AcDbEntity
  8
1
  6
Continuous
 62
     0
100
AcDbCircle
 10
11312.21452344873
 20
-1192.061457930503
 30
0.0
 40
6.806710713908
100
AcDbArc
 50
3.041596008611384
 51
41.51019968794819
  0
ARC
  5
475
330
25
100
AcDbEntity
  8
1
  6
Continuous
 62
     0
100
AcDbCircle
 10
11272.28728973531
 20
-1196.050287497433
 30
0.0
 40
20.062177826479
100
AcDbArc
 50
342.4120462259981
 51
343.9040367899453
  0
ARC
  5
474
330
25
100
AcDbEntity
  8
1
  6
Continuous
 62
     0
100
AcDbCircle
 10
11340.07382321476
 20
-1196.050287497433
 30
0.0
 40
20.062177826479
100
AcDbArc
 50
162.4120462259963
 51
163.9040367899439
  0
ARC
  5
473
330
25
100
AcDbEntity
  8
1
  6
Continuous
 62
     0
100
AcDbCircle
 10
14926.1600676618
 20
-1792.050287497433
 30
0.0
 40
458.97244525548
100
AcDbArc
 50
170.088686020986
 51
189.911313979014
  0
ARC
  5
472
330
25
100
AcDbEntity
  8
1
  6
Continuous
 62
     0
100
AcDbCircle
 10
14015.03762240632
 20
-419.300287497433
 30
0.0
 40
6.25
100
AcDbArc
 50
0.0
 51
180.0
  0
ARC
  5
471
330
25
100
AcDbEntity
  8
1
  6
Continuous
 62
     0
100
AcDbCircle
 10
13655.03805115407
 20
-2012.65336754473
 30
0.0
 40
99.000429050303
100
AcDbArc
 50
180.148517568772
 51
243.512576099801
  0
ARC
  5
470
330
25
100
AcDbEntity
  8
1
  6
Continuous
 62
     0
100
AcDbCircle
 10
14375.03719365856
 20
-2012.65336754473
 30
0.0
 40
99.000429050301
100
AcDbArc
 50
296.4874239001996
 51
359.851482431229
  0
ARC
  5
46F
330
25
100
AcDbEntity
  8
1
  6
Continuous
 62
     0
100
AcDbCircle
 10
14015.03762240632
 20
-1287.050287497435
 30
0.0
 40
908.999999999999
100
AcDbArc
 50
290.9489351245829
 51
296.3986292119829
  0
ARC
  5
46E
330
25
100
AcDbEntity
  8
1
  6
Continuous
 62
     0
100
AcDbCircle
 10
14015.03762240632
 20
-1387.050287497431
 30
0.0
 40
908.999999999995
100
AcDbArc
 50
63.60137078801703
 51
116.398629211983
  0
ARC
  5
46D
330
25
100
AcDbEntity
  8
1
  6
Continuous
 62
     0
100
AcDbCircle
 10
14375.03719365856
 20
-661.447207450135
 30
0.0
 40
99.000429050303
100
AcDbArc
 50
0.1485175687709979
 51
63.51257609979984
  0
ARC
  5
46C
330
25
100
AcDbEntity
  8
1
  6
Continuous
 62
     0
100
AcDbCircle
 10
13655.03805115407
 20
-661.447207450135
 30
0.0
 40
99.000429050301
100
AcDbArc
 50
116.4874239001995
 51
179.851482431229
  0
ARC
  5
46B
330
25
100
AcDbEntity
  8
1
  6
Continuous
 62
     0
100
AcDbCircle
 10
14015.03762240632
 20
-2296.050287497433
 30
0.0
 40
100.0
100
AcDbArc
 50
0.0
 51
180.0
  0
ARC
  5
46A
330
25
100
AcDbEntity
  8
1
  6
Continuous
 62
     0
100
AcDbCircle
 10
14015.03762240632
 20
-1287.050287497435
 30
0.0
 40
908.999999999999
100
AcDbArc
 50
243.601370788017
 51
249.051064875418
  0
ARC
  5
468
330
25
100
AcDbEntity
  8
1
  6
Continuous
 62
     0
100
AcDbCircle
 10
13553.58311364547
 20
-2263.585049287138
 30
0.0
 40
152.252346488176
100
AcDbArc
 50
358.8482621745439
 51
26.33196315302997
  0
ARC
  5
467
330
25
100
AcDbEntity
  8
1
  6
Continuous
 62
     0
100
AcDbCircle
 10
14476.49213116715
 20
-2263.585049287138
 30
0.0
 40
152.252346488162
100
AcDbArc
 50
153.6680368469664
 51
181.151737825457
  0
ARC
  5
466
330
25
100
AcDbEntity
  8
1
  6
Continuous
 62
     0
100
AcDbCircle
 10
11817.55117465193
 20
-443.050287497433
 30
0.0
 40
30.000000000005
100
AcDbArc
 50
302.5744390991821
 51
237.4255609008346
  0
ARC
  5
465
330
25
100
AcDbEntity
  8
1
  6
Continuous
 62
     0
100
AcDbCircle
 10
12733.71635267846
 20
-1196.050287497433
 30
0.0
 40
459.000000000033
100
AcDbArc
 50
174.875245897026
 51
185.124754102974
  0
ARC
  5
464
330
25
100
AcDbEntity
  8
1
  6
Continuous
 62
     0
100
AcDbCircle
 10
12279.00568341277
 20
-2263.585049287138
 30
0.0
 40
152.252346488172
100
AcDbArc
 50
153.6680368469681
 51
181.151737825457
  0
ARC
  5
463
330
25
100
AcDbEntity
  8
1
  6
Continuous
 62
     0
100
AcDbCircle
 10
11356.09666589109
 20
-2263.585049287138
 30
0.0
 40
152.252346488177
100
AcDbArc
 50
358.8482621745439
 51
26.3319631530309
  0
ARC
  5
462
330
25
100
AcDbEntity
  8
1
  6
Continuous
 62
     0
100
AcDbCircle
 10
10901.3859966254
 20
-1796.050287497433
 30
0.0
 40
459.000000000031
100
AcDbArc
 50
354.875245897027
 51
5.124754102973002
  0
ARC
  5
460
330
25
100
AcDbEntity
  8
1
  6
Continuous
 62
     0
100
AcDbCircle
 10
11817.55117465193
 20
-1287.050287497435
 30
0.0
 40
908.999999999994
100
AcDbArc
 50
243.601370788018
 51
249.051064875418
  0
ARC
  5
45F
330
25
100
AcDbEntity
  8
1
  6
Continuous
 62
     0
100
AcDbCircle
 10
11817.55117465193
 20
-2296.050287497433
 30
0.0
 40
100.0
100
AcDbArc
 50
0.0
 51
180.0
  0
ARC
  5
45E
330
25
100
AcDbEntity
  8
1
  6
Continuous
 62
     0
100
AcDbCircle
 10
11457.55160339969
 20
-661.447207450135
 30
0.0
 40
99.000429050301
100
AcDbArc
 50
116.4874239001995
 51
179.851482431229
  0
ARC
  5
45D
330
25
100
AcDbEntity
  8
1
  6
Continuous
 62
     0
100
AcDbCircle
 10
12177.55074590418
 20
-661.447207450135
 30
0.0
 40
99.000429050294
100
AcDbArc
 50
0.1485175687710115
 51
63.51257609979963
  0
ARC
  5
45C
330
25
100
AcDbEntity
  8
1
  6
Continuous
 62
     0
100
AcDbCircle
 10
11817.55117465193
 20
-1387.050287497431
 30
0.0
 40
909.0
100
AcDbArc
 50
63.60137078801694
 51
116.3986292119821
  0
ARC
  5
45B
330
25
100
AcDbEntity
  8
1
  6
Continuous
 62
     0
100
AcDbCircle
 10
11817.55117465193
 20
-1287.050287497435
 30
0.0
 40
908.999999999999
100
AcDbArc
 50
290.9489351245829
 51
296.3986292119829
  0
ARC
  5
45A
330
25
100
AcDbEntity
  8
1
  6
Continuous
 62
     0
100
AcDbCircle
 10
12177.55074590418
 20
-2012.65336754473
 30
0.0
 40
99.000429050301
100
AcDbArc
 50
296.4874239001996
 51
359.851482431229
  0
ARC
  5
459
330
25
100
AcDbEntity
  8
1
  6
Continuous
 62
     0
100
AcDbCircle
 10
11457.55160339969
 20
-2012.65336754473
 30
0.0
 40
99.000429050303
100
AcDbArc
 50
180.148517568772
 51
243.512576099801
  0
ARC
  5
458
330
25
100
AcDbEntity
  8
1
  6
Continuous
 62
     0
100
AcDbCircle
 10
14499.84927724543
 20
-1744.716943872143
 30
0.0
 40
6.188368025608
100
AcDbArc
 50
335.979322918958
 51
34.2284958030686
  0
ARC
  5
457
330
25
100
AcDbEntity
  8
1
  6
Continuous
 62
     0
100
AcDbCircle
 10
14499.84927724543
 20
-1723.898689558811
 30
0.0
 40
6.18836802561
100
AcDbArc
 50
325.7715041969287
 51
24.02067708103518
  0
ARC
  5
456
330
25
100
AcDbEntity
  8
1
  6
Continuous
 62
     0
100
AcDbCircle
 10
14483.10941917604
 20
-1734.307816715477
 30
0.0
 40
22.928203230274
100
AcDbArc
 50
342.4120462260028
 51
17.58795377399501
  0
ARC
  5
455
330
25
100
AcDbEntity
  8
1
  6
Continuous
 62
     0
100
AcDbCircle
 10
14483.10941917604
 20
-1768.132572974615
 30
0.0
 40
22.928203230273
100
AcDbArc
 50
342.4120462260061
 51
17.58795377399609
  0
ARC
  5
454
330
25
100
AcDbEntity
  8
1
  6
Continuous
 62
     0
100
AcDbCircle
 10
14499.84927724543
 20
-1757.723445817949
 30
0.0
 40
6.18836802561
100
AcDbArc
 50
325.7715041969321
 51
24.02067708104288
  0
ARC
  5
453
330
25
100
AcDbEntity
  8
1
  6
Continuous
 62
     0
100
AcDbCircle
 10
14499.84927724543
 20
-1778.54170013128
 30
0.0
 40
6.188368025608
100
AcDbArc
 50
335.979322918958
 51
34.2284958030686
  0
ARC
  5
452
330
25
100
AcDbEntity
  8
1
  6
Continuous
 62
     0
100
AcDbCircle
 10
14499.84927724543
 20
-1805.558874863586
 30
0.0
 40
6.18836802561
100
AcDbArc
 50
325.7715041969321
 51
24.02067708104288
  0
ARC
  5
451
330
25
100
AcDbEntity
  8
1
  6
Continuous
 62
     0
100
AcDbCircle
 10
14499.84927724543
 20
-1826.377129176917
 30
0.0
 40
6.188368025608
100
AcDbArc
 50
335.979322918958
 51
34.2284958030686
  0
ARC
  5
450
330
25
100
AcDbEntity
  8
1
  6
Continuous
 62
     0
100
AcDbCircle
 10
14483.10941917604
 20
-1815.96800202025
 30
0.0
 40
22.928203230274
100
AcDbArc
 50
342.4120462260012
 51
17.58795377399339
  0
ARC
  5
44F
330
25
100
AcDbEntity
  8
1
  6
Continuous
 62
     0
100
AcDbCircle
 10
14483.10941917604
 20
-1849.792758279388
 30
0.0
 40
22.928203230274
100
AcDbArc
 50
342.4120462260028
 51
17.58795377399501
  0
ARC
  5
44E
330
25
100
AcDbEntity
  8
1
  6
Continuous
 62
     0
100
AcDbCircle
 10
14499.84927724543
 20
-1860.201885436054
 30
0.0
 40
6.188368025608
100
AcDbArc
 50
335.979322918958
 51
34.2284958030686
  0
ARC
  5
44D
330
25
100
AcDbEntity
  8
1
  6
Continuous
 62
     0
100
AcDbCircle
 10
14499.84927724543
 20
-1839.383631122722
 30
0.0
 40
6.18836802561
100
AcDbArc
 50
325.7715041969287
 51
24.02067708103518
  0
ARC
  5
44C
330
25
100
AcDbEntity
  8
1
  6
Continuous
 62
     0
100
AcDbCircle
 10
11841.70117465193
 20
-2250.980287497432
 30
0.0
 40
14.252192813739
100
AcDbArc
 50
158.3852210572138
 51
201.6147789427863
  0
ARC
  5
44B
330
25
100
AcDbEntity
  8
1
  6
Continuous
 62
     0
100
AcDbCircle
 10
11860.33242465193
 20
-2251.230287497433
 30
0.0
 40
15.781249999998
100
AcDbArc
 50
141.9080428947509
 51
218.0919571052398
  0
ARC
  5
44A
330
25
100
AcDbEntity
  8
1
  6
Continuous
 62
     0
100
AcDbCircle
 10
11811.30117465193
 20
-2262.178071852726
 30
0.0
 40
18.052215644706
100
AcDbArc
 50
249.7438419995784
 51
290.2561580004216
  0
ARC
  5
449
330
25
100
AcDbEntity
  8
1
  6
Continuous
 62
     0
100
AcDbCircle
 10
11823.80117465193
 20
-2262.178071852726
 30
0.0
 40
18.052215644707
100
AcDbArc
 50
249.7438419995794
 51
290.2561580004206
  0
ARC
  5
448
330
25
100
AcDbEntity
  8
1
  6
Continuous
 62
     0
100
AcDbCircle
 10
11811.30117465193
 20
-2241.782503142139
 30
0.0
 40
18.052215644708
100
AcDbArc
 50
69.74384199958037
 51
110.2561580004196
  0
ARC
  5
447
330
25
100
AcDbEntity
  8
1
  6
Continuous
 62
     0
100
AcDbCircle
 10
11823.80117465193
 20
-2241.782503142139
 30
0.0
 40
18.052215644707
100
AcDbArc
 50
69.74384199957936
 51
110.2561580004206
  0
ARC
  5
446
330
25
100
AcDbEntity
  8
1
  6
Continuous
 62
     0
100
AcDbCircle
 10
11823.80117465193
 20
-2216.094738519397
 30
0.0
 40
18.052215644708
100
AcDbArc
 50
249.7438419995804
 51
261.2376819319969
  0
ARC
  5
445
330
25
100
AcDbEntity
  8
1
  6
Continuous
 62
     0
100
AcDbCircle
 10
11811.30117465193
 20
-2216.094738519397
 30
0.0
 40
18.052215644707
100
AcDbArc
 50
249.7438419995794
 51
261.2376819319964
  0
ARC
  5
444
330
25
100
AcDbEntity
  8
1
  6
Continuous
 62
     0
100
AcDbCircle
 10
11823.80117465193
 20
-2287.86583647547
 30
0.0
 40
18.052215644708
100
AcDbArc
 50
69.74384199958037
 51
81.23768193199686
  0
ARC
  5
443
330
25
100
AcDbEntity
  8
1
  6
Continuous
 62
     0
100
AcDbCircle
 10
11811.30117465193
 20
-2287.86583647547
 30
0.0
 40
18.052215644709
100
AcDbArc
 50
69.74384199958187
 51
81.23768193199732
  0
ARC
  5
442
330
25
100
AcDbEntity
  8
1
  6
Continuous
 62
     0
100
AcDbCircle
 10
11811.30117465193
 20
-2216.094738519397
 30
0.0
 40
18.052215644708
100
AcDbArc
 50
278.7623180680031
 51
290.2561580004195
  0
ARC
  5
441
330
25
100
AcDbEntity
  8
1
  6
Continuous
 62
     0
100
AcDbCircle
 10
11823.80117465193
 20
-2287.86583647547
 30
0.0
 40
18.052215644708
100
AcDbArc
 50
98.76231806800313
 51
110.2561580004196
  0
ARC
  5
440
330
25
100
AcDbEntity
  8
1
  6
Continuous
 62
     0
100
AcDbCircle
 10
11823.80117465193
 20
-2216.094738519397
 30
0.0
 40
18.052215644707
100
AcDbArc
 50
278.7623180680036
 51
290.2561580004206
  0
ARC
  5
43F
330
25
100
AcDbEntity
  8
1
  6
Continuous
 62
     0
100
AcDbCircle
 10
11811.30117465193
 20
-2287.86583647547
 30
0.0
 40
18.052215644708
100
AcDbArc
 50
98.76231806800313
 51
110.2561580004196
  0
ARC
  5
43E
330
25
100
AcDbEntity
  8
1
  6
Continuous
 62
     0
100
AcDbCircle
 10
14015.03762240632
 20
-2296.075394211718
 30
0.0
 40
25.760231957409
100
AcDbArc
 50
73.7304965073435
 51
106.2695034926565
  0
ARC
  5
43D
330
25
100
AcDbEntity
  8
1
  6
Continuous
 62
     0
100
AcDbCircle
 10
14015.03762240632
 20
-2256.346742465877
 30
0.0
 40
23.883545031557
100
AcDbArc
 50
252.4120462259984
 51
287.5879537740016
  0
ARC
  5
43C
330
25
100
AcDbEntity
  8
1
  6
Continuous
 62
     0
100
AcDbCircle
 10
14015.03762240632
 20
-2212.238353037645
 30
0.0
 40
21.615815918789
100
AcDbArc
 50
250.4961455205208
 51
289.5038544794792
  0
ARC
  5
43B
330
25
100
AcDbEntity
  8
1
  6
Continuous
 62
     0
100
AcDbCircle
 10
14015.03762240632
 20
-2247.613832529011
 30
0.0
 40
23.883545031579
100
AcDbArc
 50
72.4120462260152
 51
107.5879537739848
  0
ARC
  5
43A
330
25
100
AcDbEntity
  8
1
  6
Continuous
 62
     0
100
AcDbCircle
 10
14025.88046319452
 20
-2276.676480373355
 30
0.0
 40
6.446216693345
100
AcDbArc
 50
65.97932291895343
 51
79.65879036155869
  0
ARC
  5
439
330
25
100
AcDbEntity
  8
1
  6
Continuous
 62
     0
100
AcDbCircle
 10
14004.19478161813
 20
-2276.676480373356
 30
0.0
 40
6.446216693337
100
AcDbArc
 50
55.77150419701888
 51
82.48708424435829
  0
ARC
  5
438
330
25
100
AcDbEntity
  8
1
  6
Continuous
 62
     0
100
AcDbCircle
 10
14025.88046319452
 20
-2227.284094621513
 30
0.0
 40
6.446216693344
100
AcDbArc
 50
235.7715041969634
 51
262.4870842442683
  0
ARC
  5
437
330
25
100
AcDbEntity
  8
1
  6
Continuous
 62
     0
100
AcDbCircle
 10
14004.19478161813
 20
-2227.284094621512
 30
0.0
 40
6.44621669335
100
AcDbArc
 50
245.9793229188845
 51
259.6587903614683
  0
ARC
  5
436
330
25
100
AcDbEntity
  8
1
  6
Continuous
 62
     0
100
AcDbCircle
 10
14025.88046319452
 20
-2273.784094621511
 30
0.0
 40
6.446216693343
100
AcDbArc
 50
235.7715041969566
 51
294.0206770810548
  0
ARC
  5
435
330
25
100
AcDbEntity
  8
1
  6
Continuous
 62
     0
100
AcDbCircle
 10
14015.03762240632
 20
-2256.346742465893
 30
0.0
 40
23.883545031541
100
AcDbArc
 50
283.9309004841505
 51
287.5879537740138
  0
ARC
  5
434
330
25
100
AcDbEntity
  8
1
  6
Continuous
 62
     0
100
AcDbCircle
 10
14004.19478161813
 20
-2273.78409462151
 30
0.0
 40
6.446216693349
100
AcDbArc
 50
245.9793229188813
 51
304.228495802969
  0
ARC
  5
433
330
25
100
AcDbEntity
  8
1
  6
Continuous
 62
     0
100
AcDbCircle
 10
14025.88046319452
 20
-2230.176480373353
 30
0.0
 40
6.446216693345
100
AcDbArc
 50
65.97932291895343
 51
124.22849580305
  0
ARC
  5
432
330
25
100
AcDbEntity
  8
1
  6
Continuous
 62
     0
100
AcDbCircle
 10
14015.03762240632
 20
-2247.613832528972
 30
0.0
 40
23.883545031541
100
AcDbArc
 50
103.9309004841504
 51
107.5879537740138
  0
ARC
  5
431
330
25
100
AcDbEntity
  8
1
  6
Continuous
 62
     0
100
AcDbCircle
 10
14004.19478161813
 20
-2230.176480373354
 30
0.0
 40
6.446216693338
100
AcDbArc
 50
55.7715041970257
 51
114.0206770811107
  0
ARC
  5
430
330
25
100
AcDbEntity
  8
1
  6
Continuous
 62
     0
100
AcDbCircle
 10
14015.03762240632
 20
-2209.846742465896
 30
0.0
 40
23.883545031538
100
AcDbArc
 50
283.9309004841522
 51
287.5879537740113
  0
ARC
  5
42F
330
25
100
AcDbEntity
  8
1
  6
Continuous
 62
     0
100
AcDbCircle
 10
14004.19478161813
 20
-2227.284094621512
 30
0.0
 40
6.446216693346
100
AcDbArc
 50
277.5129157556477
 51
304.2284958029671
  0
ARC
  5
42E
330
25
100
AcDbEntity
  8
1
  6
Continuous
 62
     0
100
AcDbCircle
 10
14025.88046319452
 20
-2227.284094621513
 30
0.0
 40
6.446216693345
100
AcDbArc
 50
280.3412096384413
 51
294.0206770810466
  0
ARC
  5
42D
330
25
100
AcDbEntity
  8
1
  6
Continuous
 62
     0
100
AcDbCircle
 10
14015.03762240632
 20
-2294.113832528973
 30
0.0
 40
23.883545031539
100
AcDbArc
 50
103.9309004841516
 51
107.5879537740151
  0
ARC
  5
42C
330
25
100
AcDbEntity
  8
1
  6
Continuous
 62
     0
100
AcDbCircle
 10
14004.19478161813
 20
-2276.676480373356
 30
0.0
 40
6.446216693347
100
AcDbArc
 50
100.3412096385201
 51
114.0206770811106
  0
ARC
  5
42B
330
25
100
AcDbEntity
  8
1
  6
Continuous
 62
     0
100
AcDbCircle
 10
14025.88046319452
 20
-2276.676480373355
 30
0.0
 40
6.446216693343
100
AcDbArc
 50
97.51291575573262
 51
124.2284958030434
  0
ARC
  5
42A
330
25
100
AcDbEntity
  8
1
  6
Continuous
 62
     0
100
AcDbCircle
 10
14015.03762240632
 20
-2209.846742465896
 30
0.0
 40
23.883545031542
100
AcDbArc
 50
252.4120462259871
 51
256.0690995158502
  0
ARC
  5
429
330
25
100
AcDbEntity
  8
1
  6
Continuous
 62
     0
100
AcDbCircle
 10
14015.03762240632
 20
-2294.113832528973
 30
0.0
 40
23.883545031541
100
AcDbArc
 50
72.41204622598617
 51
76.06909951584966
  0
ARC
  5
428
330
25
100
AcDbEntity
  8
1
  6
Continuous
 62
     0
100
AcDbCircle
 10
14015.03762240632
 20
-2247.613832528972
 30
0.0
 40
23.883545031543
100
AcDbArc
 50
72.41204622598782
 51
76.0690995158507
  0
ARC
  5
427
330
25
100
AcDbEntity
  8
1
  6
Continuous
 62
     0
100
AcDbCircle
 10
14015.03762240632
 20
-2256.346742465893
 30
0.0
 40
23.883545031542
100
AcDbArc
 50
252.4120462259871
 51
256.0690995158502
  0
ARC
  5
426
330
25
100
AcDbEntity
  8
1
  6
Continuous
 62
     0
100
AcDbCircle
 10
14015.03762240632
 20
-2251.230287497433
 30
0.0
 40
12.999999999989
100
AcDbArc
 50
31.10892251052339
 51
148.8910774895216
  0
ARC
  5
425
330
25
100
AcDbEntity
  8
1
  6
Continuous
 62
     0
100
AcDbCircle
 10
14015.03762240632
 20
-2251.230287497433
 30
0.0
 40
13.000000000012
100
AcDbArc
 50
211.1089225105207
 51
328.8910774894325
  0
ARC
  5
424
330
25
100
AcDbEntity
  8
1
  6
Continuous
 62
     0
100
AcDbCircle
 10
11245.96847408542
 20
-1109.367473306178
 30
0.0
 40
39.044459324231
100
AcDbArc
 50
93.89990484410225
 51
206.110829794618
  0
ARC
  5
423
330
25
100
AcDbEntity
  8
1
  6
Continuous
 62
     0
100
AcDbCircle
 10
11245.96847408542
 20
-1109.367473306178
 30
0.0
 40
39.044459324229
100
AcDbArc
 50
206.1108297946179
 51
214.041394325594
  0
ARC
  5
422
330
25
100
AcDbEntity
  8
1
  6
Continuous
 62
     0
100
AcDbCircle
 10
11246.05736297431
 20
-1109.45950910484
 30
0.0
 40
38.955598656249
100
AcDbArc
 50
326.0668870753447
 51
334.0155658970761
  0
ARC
  5
421
330
25
100
AcDbEntity
  8
1
  6
Continuous
 62
     0
100
AcDbCircle
 10
11246.05736297431
 20
-1109.45950910484
 30
0.0
 40
38.955598656249
100
AcDbArc
 50
285.1113442230395
 51
326.0668870753447
  0
ARC
  5
420
330
25
100
AcDbEntity
  8
1
  6
Continuous
 62
     0
100
AcDbCircle
 10
11278.74035464954
 20
-1128.2967546926
 30
0.0
 40
3.637500000001
100
AcDbArc
 50
282.0750220509245
 51
17.92497794914274
  0
ARC
  5
41F
330
25
100
AcDbEntity
  8
1
  6
Continuous
 62
     0
100
AcDbCircle
 10
11213.24161081905
 20
-1128.32208396755
 30
0.0
 40
3.637499999995
100
AcDbArc
 50
162.0750220508342
 51
257.9249779492013
  0
ARC
  5
41E
330
25
100
AcDbEntity
  8
1
  6
Continuous
 62
     0
100
AcDbCircle
 10
11246.01291852987
 20
-1071.560513981947
 30
0.0
 40
3.637499999992
100
AcDbArc
 50
42.07502205094583
 51
137.9249779492671
  0
ARC
  5
41D
330
25
100
AcDbEntity
  8
1
  6
Continuous
 62
     0
100
AcDbCircle
 10
11245.96847408542
 20
-1109.367473306178
 30
0.0
 40
39.04445932423
100
AcDbArc
 50
85.96934215079975
 51
93.89990484410232
  0
ARC
  5
41C
330
25
100
AcDbEntity
  8
1
  6
Continuous
 62
     0
100
AcDbCircle
 10
11245.96847408542
 20
-1109.367473306178
 30
0.0
 40
39.044459324236
100
AcDbArc
 50
359.9499785478301
 51
85.96934215080036
  0
ARC
  5
41B
330
25
100
AcDbEntity
  8
1
  6
Continuous
 62
     0
100
AcDbCircle
 10
11246.01560881839
 20
-1109.405068346102
 30
0.0
 40
28.591593842011
100
AcDbArc
 50
180.0
 51
224.4894078670346
  0
ARC
  5
41A
330
25
100
AcDbEntity
  8
1
  6
Continuous
 62
     0
100
AcDbCircle
 10
11246.01560881839
 20
-1109.405068346102
 30
0.0
 40
28.591593842013
100
AcDbArc
 50
315.0000000000041
 51
180.0
  0
ARC
  5
419
330
25
100
AcDbEntity
  8
1
  6
Continuous
 62
     0
100
AcDbCircle
 10
11246.01178989722
 20
-1109.400576859003
 30
0.0
 40
32.087775151115
100
AcDbArc
 50
314.9991688162391
 51
179.9269078913232
  0
ARC
  5
418
330
25
100
AcDbEntity
  8
1
  6
Continuous
 62
     0
100
AcDbCircle
 10
11246.01291852987
 20
-1109.401560639016
 30
0.0
 40
3.61111111111
100
AcDbArc
 50
74.69796828575069
 51
201.4218215218001
  0
ARC
  5
417
330
25
100
AcDbEntity
  8
1
  6
Continuous
 62
     0
100
AcDbCircle
 10
11246.01291852987
 20
-1109.401560639016
 30
0.0
 40
3.611111111114
100
AcDbArc
 50
248.5781784780527
 51
0.0
  0
ARC
  5
416
330
25
100
AcDbEntity
  8
1
  6
Continuous
 62
     0
100
AcDbCircle
 10
11246.01291852987
 20
-1109.401560639016
 30
0.0
 40
3.6111111111
100
AcDbArc
 50
0.0
 51
15.30203171439911
  0
ARC
  5
415
330
25
100
AcDbEntity
  8
1
  6
Continuous
 62
     0
100
AcDbCircle
 10
11246.05736297431
 20
-1109.45950910484
 30
0.0
 40
38.95559865625
100
AcDbArc
 50
334.0155658970773
 51
0.0852304639130497
  0
ARC
  5
414
330
25
100
AcDbEntity
  8
1
  6
Continuous
 62
     0
100
AcDbCircle
 10
11245.96847408542
 20
-1109.367473306178
 30
0.0
 40
39.044459324232
100
AcDbArc
 50
214.0413943255924
 51
254.9238647887039
  0
ARC
  5
413
330
25
100
AcDbEntity
  8
1
  6
Continuous
 62
     0
100
AcDbCircle
 10
11246.01291852987
 20
-1109.070426548594
 30
0.0
 40
39.342857142858
100
AcDbArc
 50
254.973886240866
 51
285.0261137591202
  0
ARC
  5
412
330
25
100
AcDbEntity
  8
1
  6
Continuous
 62
     0
100
AcDbCircle
 10
11246.01178989722
 20
-1109.400576859003
 30
0.0
 40
32.087775151113
100
AcDbArc
 50
179.9269078913232
 51
224.5555346918007
  0
ARC
  5
411
330
25
100
AcDbEntity
  8
1
  6
Continuous
 62
     0
100
AcDbCircle
 10
11278.89786130377
 20
-1139.685172575681
 30
0.0
 40
42.897491299712
100
AcDbArc
 50
116.5823044191849
 51
133.2669116226952
  0
ARC
  5
410
330
25
100
AcDbEntity
  8
1
  6
Continuous
 62
     0
100
AcDbCircle
 10
11259.41102292723
 20
-1100.740818120983
 30
0.0
 40
0.65017929019
100
AcDbArc
 50
296.5823044188792
 51
30.13902348590229
  0
ARC
  5
40F
330
25
100
AcDbEntity
  8
1
  6
Continuous
 62
     0
100
AcDbCircle
 10
11215.7293065932
 20
-1076.51661786511
 30
0.0
 40
42.897491299708
100
AcDbArc
 50
316.7330883772993
 51
333.4176955808174
  0
ARC
  5
40E
330
25
100
AcDbEntity
  8
1
  6
Continuous
 62
     0
100
AcDbCircle
 10
11254.6736610479
 20
-1096.003456241653
 30
0.0
 40
0.650179290189
100
AcDbArc
 50
59.86097651471089
 51
153.4176955807175
  0
ARC
  5
40D
330
25
100
AcDbEntity
  8
1
  6
Continuous
 62
     0
100
AcDbCircle
 10
11248.11572166295
 20
-1107.29875750593
 30
0.0
 40
13.711205269313
100
AcDbArc
 50
30.1390234855997
 51
59.86097651441951
  0
ARC
  5
40C
330
25
100
AcDbEntity
  8
1
  6
Continuous
 62
     0
100
AcDbCircle
 10
11817.55117465193
 20
-992.896079104985
 30
0.0
 40
25.565791607552
100
AcDbArc
 50
68.78850558533622
 51
111.2114944146638
  0
ARC
  5
40B
330
25
100
AcDbEntity
  8
1
  6
Continuous
 62
     0
100
AcDbCircle
 10
11833.05117465193
 20
-979.472685346326
 30
0.0
 40
12.142397848894
100
AcDbArc
 50
90.0
 51
120.979098861628
  0
ARC
  5
40A
330
25
100
AcDbEntity
  8
1
  6
Continuous
 62
     0
100
AcDbCircle
 10
11802.05117465193
 20
-979.472685346326
 30
0.0
 40
12.142397848894
100
AcDbArc
 50
59.02090113837195
 51
90.0
  0
ARC
  5
409
330
25
100
AcDbEntity
  8
1
  6
Continuous
 62
     0
100
AcDbCircle
 10
11817.55117465193
 20
-958.830287497432
 30
0.0
 40
15.0
100
AcDbArc
 50
0.0
 51
180.0
  0
ARC
  5
408
330
25
100
AcDbEntity
  8
1
  6
Continuous
 62
     0
100
AcDbCircle
 10
11817.55117465193
 20
-1059.416344481309
 30
0.0
 40
35.086056983876
100
AcDbArc
 50
67.81224586875801
 51
112.1877541312418
  0
ARC
  5
407
330
25
100
AcDbEntity
  8
1
  6
Continuous
 62
     0
100
AcDbCircle
 10
11795.55117465193
 20
-1040.363785598051
 30
0.0
 40
16.033498100619
100
AcDbArc
 50
56.92526993279299
 51
90.0
  0
ARC
  5
406
330
25
100
AcDbEntity
  8
1
  6
Continuous
 62
     0
100
AcDbCircle
 10
11839.55117465193
 20
-981.330287497432
 30
0.0
 40
1.0
100
AcDbArc
 50
0.0
 51
180.0
  0
ARC
  5
405
330
25
100
AcDbEntity
  8
1
  6
Continuous
 62
     0
100
AcDbCircle
 10
11824.88450798527
 20
-981.330287497432
 30
0.0
 40
1.0
100
AcDbArc
 50
0.0
 51
180.0
  0
ARC
  5
404
330
25
100
AcDbEntity
  8
1
  6
Continuous
 62
     0
100
AcDbCircle
 10
11810.2178413186
 20
-981.330287497432
 30
0.0
 40
1.0
100
AcDbArc
 50
0.0
 51
180.0
  0
ARC
  5
403
330
25
100
AcDbEntity
  8
1
  6
Continuous
 62
     0
100
AcDbCircle
 10
11795.55117465193
 20
-981.330287497432
 30
0.0
 40
1.0
100
AcDbArc
 50
0.0
 51
180.0
  0
ARC
  5
402
330
25
100
AcDbEntity
  8
1
  6
Continuous
 62
     0
100
AcDbCircle
 10
11839.55117465193
 20
-1040.363785598051
 30
0.0
 40
16.033498100619
100
AcDbArc
 50
90.0
 51
123.074730067207
  0
ARC
  5
401
330
25
100
AcDbEntity
  8
1
  6
Continuous
 62
     0
100
AcDbCircle
 10
11817.55117465193
 20
-1072.324328717148
 30
0.0
 40
51.505958780283
100
AcDbArc
 50
252.7775550278668
 51
287.2224449721332
  0
ARC
  5
400
330
25
100
AcDbEntity
  8
1
  6
Continuous
 62
     0
100
AcDbCircle
 10
11791.05117465193
 20
-1095.274001917435
 30
0.0
 40
28.556285579997
100
AcDbArc
 50
270.0
 51
293.2010528959333
  0
ARC
  5
3FF
330
25
100
AcDbEntity
  8
1
  6
Continuous
 62
     0
100
AcDbCircle
 10
11844.05117465193
 20
-1095.274001917435
 30
0.0
 40
28.556285579996
100
AcDbArc
 50
246.7989471040657
 51
270.0
  0
ARC
  5
3FE
330
25
100
AcDbEntity
  8
1
  6
Continuous
 62
     0
100
AcDbCircle
 10
13492.44421934612
 20
-1095.274001917435
 30
0.0
 40
28.556285579996
100
AcDbArc
 50
246.7989471040657
 51
270.0
  0
ARC
  5
3FD
330
25
100
AcDbEntity
  8
1
  6
Continuous
 62
     0
100
AcDbCircle
 10
13439.44421934612
 20
-1095.274001917435
 30
0.0
 40
28.556285579997
100
AcDbArc
 50
270.0
 51
293.2010528959333
  0
ARC
  5
3FC
330
25
100
AcDbEntity
  8
1
  6
Continuous
 62
     0
100
AcDbCircle
 10
13465.94421934612
 20
-1072.324328717148
 30
0.0
 40
51.505958780283
100
AcDbArc
 50
252.7775550278668
 51
287.2224449721332
  0
ARC
  5
3FB
330
25
100
AcDbEntity
  8
1
  6
Continuous
 62
     0
100
AcDbCircle
 10
13487.94421934612
 20
-1040.363785598051
 30
0.0
 40
16.033498100619
100
AcDbArc
 50
90.0
 51
123.074730067207
  0
ARC
  5
3FA
330
25
100
AcDbEntity
  8
1
  6
Continuous
 62
     0
100
AcDbCircle
 10
13443.94421934612
 20
-981.329616158848
 30
0.0
 40
1.0
100
AcDbArc
 50
0.0
 51
180.0
  0
ARC
  5
3F9
330
25
100
AcDbEntity
  8
1
  6
Continuous
 62
     0
100
AcDbCircle
 10
13458.61088601279
 20
-981.329616158848
 30
0.0
 40
1.0
100
AcDbArc
 50
0.0
 51
180.0
  0
ARC
  5
3F8
330
25
100
AcDbEntity
  8
1
  6
Continuous
 62
     0
100
AcDbCircle
 10
13473.27755267946
 20
-981.329616158848
 30
0.0
 40
1.0
100
AcDbArc
 50
0.0
 51
180.0
  0
ARC
  5
3F7
330
25
100
AcDbEntity
  8
1
  6
Continuous
 62
     0
100
AcDbCircle
 10
13487.94421934612
 20
-981.329616158848
 30
0.0
 40
1.0
100
AcDbArc
 50
0.0
 51
180.0
  0
ARC
  5
3F6
330
25
100
AcDbEntity
  8
1
  6
Continuous
 62
     0
100
AcDbCircle
 10
13443.94421934612
 20
-1040.363785598051
 30
0.0
 40
16.033498100619
100
AcDbArc
 50
56.92526993279299
 51
90.0
  0
ARC
  5
3F5
330
25
100
AcDbEntity
  8
1
  6
Continuous
 62
     0
100
AcDbCircle
 10
13465.94421934612
 20
-1059.416344481309
 30
0.0
 40
35.086056983876
100
AcDbArc
 50
67.81224586875801
 51
112.1877541312418
  0
ARC
  5
3F4
330
25
100
AcDbEntity
  8
1
  6
Continuous
 62
     0
100
AcDbCircle
 10
13465.94421934612
 20
-958.829616158848
 30
0.0
 40
15.0
100
AcDbArc
 50
0.0
 51
180.0
  0
ARC
  5
3F3
330
25
100
AcDbEntity
  8
1
  6
Continuous
 62
     0
100
AcDbCircle
 10
13450.44421934612
 20
-979.472014007741
 30
0.0
 40
12.142397848894
100
AcDbArc
 50
59.02090113837195
 51
90.0
  0
ARC
  5
3F2
330
25
100
AcDbEntity
  8
1
  6
Continuous
 62
     0
100
AcDbCircle
 10
13481.44421934612
 20
-979.472014007741
 30
0.0
 40
12.142397848893
100
AcDbArc
 50
90.0
 51
120.9790988616308
  0
ARC
  5
3F1
330
25
100
AcDbEntity
  8
1
  6
Continuous
 62
     0
100
AcDbCircle
 10
13465.94421934612
 20
-992.8954077664
 30
0.0
 40
25.565791607553
100
AcDbArc
 50
68.78850558533703
 51
111.211494414663
  0
ARC
  5
3F0
330
25
100
AcDbEntity
  8
1
  6
Continuous
 62
     0
100
AcDbCircle
 10
13438.81258607112
 20
-1154.215368679696
 30
0.0
 40
6.48971883999
100
AcDbArc
 50
0.0
 51
39.92593778537594
  0
ARC
  5
3EF
330
25
100
AcDbEntity
  8
1
  6
Continuous
 62
     0
100
AcDbCircle
 10
13492.7920237511
 20
-1154.215368679696
 30
0.0
 40
6.489718839987
100
AcDbArc
 50
140.0740622145793
 51
180.0
  0
ARC
  5
3EE
330
25
100
AcDbEntity
  8
1
  6
Continuous
 62
     0
100
AcDbCircle
 10
13499.41279887157
 20
-1240.967273530104
 30
0.0
 40
10.415441500105
100
AcDbArc
 50
58.86850943386811
 51
90.0
  0
ARC
  5
3ED
330
25
100
AcDbEntity
  8
1
  6
Continuous
 62
     0
100
AcDbCircle
 10
13499.41279887157
 20
-1151.133301464763
 30
0.0
 40
10.415441500098
100
AcDbArc
 50
270.0
 51
301.1314905661434
  0
ARC
  5
3EC
330
25
100
AcDbEntity
  8
1
  6
Continuous
 62
     0
100
AcDbCircle
 10
11817.69308908694
 20
-1072.324328717148
 30
0.0
 40
51.505958780283
100
AcDbArc
 50
252.7775550278668
 51
287.2224449721332
  0
ARC
  5
3EB
330
25
100
AcDbEntity
  8
1
  6
Continuous
 62
     0
100
AcDbCircle
 10
11791.19308908694
 20
-1095.274001917435
 30
0.0
 40
28.556285579997
100
AcDbArc
 50
270.0
 51
293.2010528959333
  0
ARC
  5
3EA
330
25
100
AcDbEntity
  8
1
  6
Continuous
 62
     0
100
AcDbCircle
 10
11844.19308908694
 20
-1095.274001917435
 30
0.0
 40
28.556285579996
100
AcDbArc
 50
246.7989471040657
 51
270.0
  0
ARC
  5
3E9
330
25
100
AcDbEntity
  8
1
  6
Continuous
 62
     0
100
AcDbCircle
 10
11790.56145581195
 20
-1154.215368679696
 30
0.0
 40
6.489718839979
100
AcDbArc
 50
0.0
 51
39.92593778543422
  0
ARC
  5
3E8
330
25
100
AcDbEntity
  8
1
  6
Continuous
 62
     0
100
AcDbCircle
 10
11844.54089349192
 20
-1154.215368679696
 30
0.0
 40
6.489718839986
100
AcDbArc
 50
140.0740622145675
 51
180.0
  0
ARC
  5
3E7
330
25
100
AcDbEntity
  8
1
  6
Continuous
 62
     0
100
AcDbCircle
 10
11817.55117465193
 20
-1196.050287497433
 30
0.0
 40
36.001544532568
100
AcDbArc
 50
130.3739132422421
 51
270.0
  0
ARC
  5
3E6
330
25
100
AcDbEntity
  8
1
  6
Continuous
 62
     0
100
AcDbCircle
 10
11817.55117465193
 20
-1196.050287497433
 30
0.0
 40
34.501544532566
100
AcDbArc
 50
141.5293544593914
 51
270.0
  0
ARC
  5
3E5
330
25
100
AcDbEntity
  8
1
  6
Continuous
 62
     0
100
AcDbCircle
 10
11817.55117465193
 20
-1196.050287497433
 30
0.0
 40
34.501544532571
100
AcDbArc
 50
270.0
 51
38.47064554059934
  0
ARC
  5
3E4
330
25
100
AcDbEntity
  8
1
  6
Continuous
 62
     0
100
AcDbCircle
 10
11817.55117465193
 20
-1196.050287497433
 30
0.0
 40
36.001544532571
100
AcDbArc
 50
270.0
 51
49.62608675774657
  0
LINE
  5
3DE
330
25
100
AcDbEntity
  8
1
  6
Continuous
 62
     0
100
AcDbLine
 10
11235.74075013043
 20
-3200.418091203799
 30
0.0
 11
11208.05244779351
 21
-3200.418091203799
 31
0.0
  0
LINE
  5
3DD
330
25
100
AcDbEntity
  8
1
  6
Continuous
 62
     0
100
AcDbLine
 10
11284.05244779351
 20
-3214.418091203799
 30
0.0
 11
11210.05244779351
 21
-3214.418091203799
 31
0.0
  0
LINE
  5
3DC
330
25
100
AcDbEntity
  8
1
  6
Continuous
 62
     0
100
AcDbLine
 10
11210.05244779351
 20
-3179.418091203799
 30
0.0
 11
11284.05244779351
 21
-3179.418091203799
 31
0.0
  0
LINE
  5
3DB
330
25
100
AcDbEntity
  8
1
  6
Continuous
 62
     0
100
AcDbLine
 10
11286.05244779351
 20
-3189.918091203799
 30
0.0
 11
11286.05244779351
 21
-3181.418091203799
 31
0.0
  0
LINE
  5
3DA
330
25
100
AcDbEntity
  8
1
  6
Continuous
 62
     0
100
AcDbLine
 10
11286.05244779351
 20
-3210.918091203799
 30
0.0
 11
11286.05244779351
 21
-3212.418091203799
 31
0.0
  0
LINE
  5
3D9
330
25
100
AcDbEntity
  8
1
  6
Continuous
 62
     0
100
AcDbLine
 10
11208.05244779351
 20
-3212.418091203799
 30
0.0
 11
11208.05244779351
 21
-3181.418091203799
 31
0.0
  0
LINE
  5
3D6
330
25
100
AcDbEntity
  8
1
  6
Continuous
 62
     0
100
AcDbLine
 10
11241.05244779351
 20
-3194.418091203799
 30
0.0
 11
11253.05244779351
 21
-3206.418091203799
 31
0.0
  0
LINE
  5
3D5
330
25
100
AcDbEntity
  8
1
  6
Continuous
 62
     0
100
AcDbLine
 10
11253.05244779351
 20
-3194.418091203799
 30
0.0
 11
11241.05244779351
 21
-3206.418091203799
 31
0.0
  0
LINE
  5
3D4
330
25
100
AcDbEntity
  8
1
  6
Continuous
 62
     0
100
AcDbLine
 10
11241.05244779351
 20
-3194.418091203799
 30
0.0
 11
11253.05244779351
 21
-3194.418091203799
 31
0.0
  0
LINE
  5
3D3
330
25
100
AcDbEntity
  8
1
  6
Continuous
 62
     0
100
AcDbLine
 10
11253.05244779351
 20
-3194.418091203799
 30
0.0
 11
11253.05244779351
 21
-3206.418091203799
 31
0.0
  0
LINE
  5
3D2
330
25
100
AcDbEntity
  8
1
  6
Continuous
 62
     0
100
AcDbLine
 10
11253.05244779351
 20
-3206.418091203799
 30
0.0
 11
11241.05244779351
 21
-3206.418091203799
 31
0.0
  0
LINE
  5
3D1
330
25
100
AcDbEntity
  8
1
  6
Continuous
 62
     0
100
AcDbLine
 10
11241.05244779351
 20
-3206.418091203799
 30
0.0
 11
11241.05244779351
 21
-3194.418091203799
 31
0.0
  0
LINE
  5
3CF
330
25
100
AcDbEntity
  8
1
  6
Continuous
 62
     0
100
AcDbLine
 10
11270.05117465193
 20
-3188.918091203799
 30
0.0
 11
11247.05244779351
 21
-3188.918091203799
 31
0.0
  0
LINE
  5
3CE
330
25
100
AcDbEntity
  8
1
  6
Continuous
 62
     0
100
AcDbLine
 10
11270.05117465193
 20
-3188.918091203799
 30
0.0
 11
11270.05117465193
 21
-3200.418091203799
 31
0.0
  0
LINE
  5
3CD
330
25
100
AcDbEntity
  8
1
  6
Continuous
 62
     0
100
AcDbLine
 10
11247.05244779351
 20
-3211.918091203799
 30
0.0
 11
11270.05117465193
 21
-3211.918091203799
 31
0.0
  0
LINE
  5
3CC
330
25
100
AcDbEntity
  8
1
  6
Continuous
 62
     0
100
AcDbLine
 10
11270.05117465193
 20
-3200.418091203799
 30
0.0
 11
11270.05117465193
 21
-3211.918091203799
 31
0.0
  0
LINE
  5
3CB
330
25
100
AcDbEntity
  8
1
  6
Continuous
 62
     0
100
AcDbLine
 10
11270.05117465193
 20
-3200.418091203799
 30
0.0
 11
11270.05117465193
 21
-3211.918091203799
 31
0.0
  0
LINE
  5
3CA
330
25
100
AcDbEntity
  8
1
  6
Continuous
 62
     0
100
AcDbLine
 10
11270.05117465193
 20
-3188.918091203799
 30
0.0
 11
11270.05117465193
 21
-3200.418091203799
 31
0.0
  0
LINE
  5
3C9
330
25
100
AcDbEntity
  8
1
  6
Continuous
 62
     0
100
AcDbLine
 10
11285.35117465193
 20
-3210.918091203799
 30
0.0
 11
11285.35117465193
 21
-3189.918091203799
 31
0.0
  0
LINE
  5
3C8
330
25
100
AcDbEntity
  8
1
  6
Continuous
 62
     0
100
AcDbLine
 10
11276.45117465193
 20
-3191.7680912038
 30
0.0
 11
11276.45117465193
 21
-3209.068091203799
 31
0.0
  0
LINE
  5
3C7
330
25
100
AcDbEntity
  8
1
  6
Continuous
 62
     0
100
AcDbLine
 10
11278.95117465193
 20
-3209.068091203799
 30
0.0
 11
11278.95117465193
 21
-3191.7680912038
 31
0.0
  0
LINE
  5
3C6
330
25
100
AcDbEntity
  8
1
  6
Continuous
 62
     0
100
AcDbLine
 10
11278.95117465193
 20
-3191.7680912038
 30
0.0
 11
11276.45117465193
 21
-3191.7680912038
 31
0.0
  0
LINE
  5
3C5
330
25
100
AcDbEntity
  8
1
  6
Continuous
 62
     0
100
AcDbLine
 10
11276.45117465193
 20
-3209.068091203799
 30
0.0
 11
11278.95117465193
 21
-3209.068091203799
 31
0.0
  0
LINE
  5
3C4
330
25
100
AcDbEntity
  8
1
  6
Continuous
 62
     0
100
AcDbLine
 10
11285.35117465193
 20
-3208.749091203799
 30
0.0
 11
11278.95117465193
 21
-3209.068091203799
 31
0.0
  0
LINE
  5
3C3
330
25
100
AcDbEntity
  8
1
  6
Continuous
 62
     0
100
AcDbLine
 10
11270.05117465193
 20
-3192.087091203799
 30
0.0
 11
11276.45117465193
 21
-3191.7680912038
 31
0.0
  0
LINE
  5
3C2
330
25
100
AcDbEntity
  8
1
  6
Continuous
 62
     0
100
AcDbLine
 10
11276.45117465193
 20
-3209.068091203799
 30
0.0
 11
11270.05117465193
 21
-3208.749091203799
 31
0.0
  0
LINE
  5
3C1
330
25
100
AcDbEntity
  8
1
  6
Continuous
 62
     0
100
AcDbLine
 10
11278.95117465193
 20
-3191.7680912038
 30
0.0
 11
11285.35117465193
 21
-3192.087091203799
 31
0.0
  0
LINE
  5
3C0
330
25
100
AcDbEntity
  8
1
  6
Continuous
 62
     0
100
AcDbLine
 10
11335.71117465193
 20
-3209.068091203799
 30
0.0
 11
11338.55117465193
 21
-3209.068091203799
 31
0.0
  0
LINE
  5
3BF
330
25
100
AcDbEntity
  8
1
  6
Continuous
 62
     0
100
AcDbLine
 10
11335.71117465193
 20
-3209.068091203799
 30
0.0
 11
11329.31117465193
 21
-3208.749091203799
 31
0.0
  0
LINE
  5
3BE
330
25
100
AcDbEntity
  8
1
  6
Continuous
 62
     0
100
AcDbLine
 10
11329.31117465193
 20
-3192.087091203799
 30
0.0
 11
11335.71117465193
 21
-3191.7680912038
 31
0.0
  0
LINE
  5
3BD
330
25
100
AcDbEntity
  8
1
  6
Continuous
 62
     0
100
AcDbLine
 10
11338.55117465193
 20
-3191.7680912038
 30
0.0
 11
11335.71117465193
 21
-3191.7680912038
 31
0.0
  0
LINE
  5
3BC
330
25
100
AcDbEntity
  8
1
  6
Continuous
 62
     0
100
AcDbLine
 10
11335.71117465193
 20
-3191.7680912038
 30
0.0
 11
11335.71117465193
 21
-3209.068091203799
 31
0.0
  0
LINE
  5
3BB
330
25
100
AcDbEntity
  8
1
  6
Continuous
 62
     0
100
AcDbLine
 10
11320.85902995092
 20
-3191.218091203798
 30
0.0
 11
11310.46117465193
 21
-3191.218091203798
 31
0.0
  0
LINE
  5
3BA
330
25
100
AcDbEntity
  8
1
  6
Continuous
 62
     0
100
AcDbLine
 10
11293.76331935294
 20
-3191.218091203798
 30
0.0
 11
11302.16117465193
 21
-3191.218091203798
 31
0.0
  0
LINE
  5
3B9
330
25
100
AcDbEntity
  8
1
  6
Continuous
 62
     0
100
AcDbLine
 10
11321.27335247843
 20
-3200.418091203799
 30
0.0
 11
11328.37335247843
 21
-3200.418091203799
 31
0.0
  0
LINE
  5
3B8
330
25
100
AcDbEntity
  8
1
  6
Continuous
 62
     0
100
AcDbLine
 10
11286.24899682544
 20
-3200.418091203799
 30
0.0
 11
11293.34899682544
 21
-3200.418091203799
 31
0.0
  0
LINE
  5
3B7
330
25
100
AcDbEntity
  8
1
  6
Continuous
 62
     0
100
AcDbLine
 10
11293.61117465193
 20
-3189.918091203799
 30
0.0
 11
11293.61117465193
 21
-3185.018091203798
 31
0.0
  0
LINE
  5
3B6
330
25
100
AcDbEntity
  8
1
  6
Continuous
 62
     0
100
AcDbLine
 10
11293.61117465193
 20
-3185.018091203798
 30
0.0
 11
11294.31117465193
 21
-3185.018091203798
 31
0.0
  0
LINE
  5
3B5
330
25
100
AcDbEntity
  8
1
  6
Continuous
 62
     0
100
AcDbLine
 10
11297.81117465193
 20
-3189.918091203799
 30
0.0
 11
11297.81117465193
 21
-3187.918091203799
 31
0.0
  0
LINE
  5
3B4
330
25
100
AcDbEntity
  8
1
  6
Continuous
 62
     0
100
AcDbLine
 10
11294.31117465193
 20
-3187.918091203799
 30
0.0
 11
11296.31117465193
 21
-3187.918091203799
 31
0.0
  0
LINE
  5
3B3
330
25
100
AcDbEntity
  8
1
  6
Continuous
 62
     0
100
AcDbLine
 10
11294.31117465193
 20
-3187.918091203799
 30
0.0
 11
11294.31117465193
 21
-3183.818091203801
 31
0.0
  0
LINE
  5
3B2
330
25
100
AcDbEntity
  8
1
  6
Continuous
 62
     0
100
AcDbLine
 10
11329.31117465193
 20
-3189.918091203799
 30
0.0
 11
11329.31117465193
 21
-3210.918091203799
 31
0.0
  0
LINE
  5
3B1
330
25
100
AcDbEntity
  8
1
  6
Continuous
 62
     0
100
AcDbLine
 10
11329.31117465193
 20
-3210.918091203799
 30
0.0
 11
11285.31117465193
 21
-3210.918091203799
 31
0.0
  0
LINE
  5
3B0
330
25
100
AcDbEntity
  8
1
  6
Continuous
 62
     0
100
AcDbLine
 10
11285.31117465193
 20
-3210.918091203799
 30
0.0
 11
11285.31117465193
 21
-3189.918091203799
 31
0.0
  0
LINE
  5
3AF
330
25
100
AcDbEntity
  8
1
  6
Continuous
 62
     0
100
AcDbLine
 10
11329.31117465193
 20
-3189.918091203799
 30
0.0
 11
11285.31117465193
 21
-3189.918091203799
 31
0.0
  0
LINE
  5
3AC
330
25
100
AcDbEntity
  8
1
  6
Continuous
 62
     0
100
AcDbLine
 10
11316.31117465193
 20
-3187.918091203799
 30
0.0
 11
11316.31117465193
 21
-3184.418091203799
 31
0.0
  0
LINE
  5
3AB
330
25
100
AcDbEntity
  8
1
  6
Continuous
 62
     0
100
AcDbLine
 10
11296.31117465193
 20
-3187.918091203799
 30
0.0
 11
11316.31117465193
 21
-3187.918091203799
 31
0.0
  0
LINE
  5
3AA
330
25
100
AcDbEntity
  8
1
  6
Continuous
 62
     0
100
AcDbLine
 10
11296.31117465193
 20
-3184.418091203799
 30
0.0
 11
11296.31117465193
 21
-3187.918091203799
 31
0.0
  0
LINE
  5
3A9
330
25
100
AcDbEntity
  8
1
  6
Continuous
 62
     0
100
AcDbLine
 10
11316.31117465193
 20
-3184.418091203799
 30
0.0
 11
11296.31117465193
 21
-3184.418091203799
 31
0.0
  0
LINE
  5
3A8
330
25
100
AcDbEntity
  8
1
  6
Continuous
 62
     0
100
AcDbLine
 10
11326.31117465193
 20
-3181.418091203799
 30
0.0
 11
11316.31117465193
 21
-3184.418091203799
 31
0.0
  0
LINE
  5
3A7
330
25
100
AcDbEntity
  8
1
  6
Continuous
 62
     0
100
AcDbLine
 10
11326.31117465193
 20
-3174.418091203799
 30
0.0
 11
11326.31117465193
 21
-3181.418091203799
 31
0.0
  0
LINE
  5
3A6
330
25
100
AcDbEntity
  8
1
  6
Continuous
 62
     0
100
AcDbLine
 10
11315.81117465193
 20
-3174.418091203799
 30
0.0
 11
11326.31117465193
 21
-3174.418091203799
 31
0.0
  0
LINE
  5
3A5
330
25
100
AcDbEntity
  8
1
  6
Continuous
 62
     0
100
AcDbLine
 10
11286.31117465193
 20
-3181.418091203799
 30
0.0
 11
11286.31117465193
 21
-3174.418091203799
 31
0.0
  0
LINE
  5
3A4
330
25
100
AcDbEntity
  8
1
  6
Continuous
 62
     0
100
AcDbLine
 10
11296.31117465193
 20
-3184.418091203799
 30
0.0
 11
11286.31117465193
 21
-3181.418091203799
 31
0.0
  0
LINE
  5
3A3
330
25
100
AcDbEntity
  8
1
  6
Continuous
 62
     0
100
AcDbLine
 10
11286.31117465193
 20
-3174.418091203799
 30
0.0
 11
11296.81117465193
 21
-3174.418091203799
 31
0.0
  0
LINE
  5
3A2
330
25
100
AcDbEntity
  8
1
  6
Continuous
 62
     0
100
AcDbLine
 10
11301.31117465193
 20
-3187.918091203799
 30
0.0
 11
11301.31117465193
 21
-3189.918091203799
 31
0.0
  0
LINE
  5
3A1
330
25
100
AcDbEntity
  8
1
  6
Continuous
 62
     0
100
AcDbLine
 10
11311.31117465193
 20
-3187.918091203799
 30
0.0
 11
11311.31117465193
 21
-3189.918091203799
 31
0.0
  0
LINE
  5
3A0
330
25
100
AcDbEntity
  8
1
  6
Continuous
 62
     0
100
AcDbLine
 10
11804.74361929497
 20
-2626.435304806591
 30
0.0
 11
11817.55117465193
 21
-2619.040859273588
 31
0.0
  0
LINE
  5
39F
330
25
100
AcDbEntity
  8
1
  6
Continuous
 62
     0
100
AcDbLine
 10
11817.55117465193
 20
-2619.040859273588
 30
0.0
 11
11830.3587300089
 21
-2626.435304806591
 31
0.0
  0
LINE
  5
39E
330
25
100
AcDbEntity
  8
1
  6
Continuous
 62
     0
100
AcDbLine
 10
11852.05271918451
 20
-2678.682773708597
 30
0.0
 11
11863.55117465193
 21
-2678.682773708597
 31
0.0
  0
LINE
  5
39D
330
25
100
AcDbEntity
  8
1
  6
Continuous
 62
     0
100
AcDbLine
 10
11846.84225842355
 20
-2623.682773708597
 30
0.0
 11
11863.55117465193
 21
-2623.682773708597
 31
0.0
  0
LINE
  5
39B
330
25
100
AcDbEntity
  8
1
  6
Continuous
 62
     0
100
AcDbLine
 10
11864.55117465193
 20
-2680.182773708597
 30
0.0
 11
11864.55117465193
 21
-2679.682773708597
 31
0.0
  0
LINE
  5
39A
330
25
100
AcDbEntity
  8
1
  6
Continuous
 62
     0
100
AcDbLine
 10
11864.55117465193
 20
-2680.182773708597
 30
0.0
 11
11869.55117465193
 21
-2680.182773708597
 31
0.0
  0
LINE
  5
399
330
25
100
AcDbEntity
  8
1
  6
Continuous
 62
     0
100
AcDbLine
 10
11869.55117465193
 20
-2680.182773708597
 30
0.0
 11
11869.55117465193
 21
-2622.182773708597
 31
0.0
  0
LINE
  5
398
330
25
100
AcDbEntity
  8
1
  6
Continuous
 62
     0
100
AcDbLine
 10
11869.55117465193
 20
-2622.182773708597
 30
0.0
 11
11864.55117465193
 21
-2622.182773708597
 31
0.0
  0
LINE
  5
397
330
25
100
AcDbEntity
  8
1
  6
Continuous
 62
     0
100
AcDbLine
 10
11864.55117465193
 20
-2622.182773708597
 30
0.0
 11
11864.55117465193
 21
-2622.682773708597
 31
0.0
  0
LINE
  5
396
330
25
100
AcDbEntity
  8
1
  6
Continuous
 62
     0
100
AcDbLine
 10
11864.55117465193
 20
-2622.824018716568
 30
0.0
 11
11864.55117465193
 21
-2680.182773708597
 31
0.0
  0
LINE
  5
395
330
25
100
AcDbEntity
  8
1
  6
Continuous
 62
     0
100
AcDbLine
 10
11783.04963011936
 20
-2679.194901730562
 30
0.0
 11
11783.04963011936
 21
-2654.568581068616
 31
0.0
  0
LINE
  5
394
330
25
100
AcDbEntity
  8
1
  6
Continuous
 62
     0
100
AcDbLine
 10
11852.05271918451
 20
-2654.123481755079
 30
0.0
 11
11852.05271918451
 21
-2679.040284739405
 31
0.0
  0
LINE
  5
393
330
25
100
AcDbEntity
  8
1
  6
Continuous
 62
     0
100
AcDbLine
 10
11852.05271918451
 20
-2684.793267669058
 30
0.0
 11
11852.05271918451
 21
-2677.682773708597
 31
0.0
  0
LINE
  5
392
330
25
100
AcDbEntity
  8
1
  6
Continuous
 62
     0
100
AcDbLine
 10
11781.54963011936
 20
-2695.178091203798
 30
0.0
 11
11817.55117465193
 21
-2695.178091203798
 31
0.0
  0
LINE
  5
391
330
25
100
AcDbEntity
  8
1
  6
Continuous
 62
     0
100
AcDbLine
 10
11853.55271918451
 20
-2690.178091203798
 30
0.0
 11
11852.05271918451
 21
-2690.178091203798
 31
0.0
  0
LINE
  5
390
330
25
100
AcDbEntity
  8
1
  6
Continuous
 62
     0
100
AcDbLine
 10
11781.54963011936
 20
-2690.178091203798
 30
0.0
 11
11783.04963011936
 21
-2690.178091203798
 31
0.0
  0
LINE
  5
38F
330
25
100
AcDbEntity
  8
1
  6
Continuous
 62
     0
100
AcDbLine
 10
11783.04963011936
 20
-2690.178091203798
 30
0.0
 11
11852.05271918451
 21
-2690.178091203798
 31
0.0
  0
LINE
  5
38E
330
25
100
AcDbEntity
  8
1
  6
Continuous
 62
     0
100
AcDbLine
 10
11781.54963011936
 20
-2695.178091203798
 30
0.0
 11
11781.54963011936
 21
-2690.178091203798
 31
0.0
  0
LINE
  5
38D
330
25
100
AcDbEntity
  8
1
  6
Continuous
 62
     0
100
AcDbLine
 10
11853.55271918451
 20
-2695.178091203798
 30
0.0
 11
11853.55271918451
 21
-2690.178091203798
 31
0.0
  0
LINE
  5
38C
330
25
100
AcDbEntity
  8
1
  6
Continuous
 62
     0
100
AcDbLine
 10
11817.55117465193
 20
-2695.178091203798
 30
0.0
 11
11853.55271918451
 21
-2695.178091203798
 31
0.0
  0
LINE
  5
38B
330
25
100
AcDbEntity
  8
1
  6
Continuous
 62
     0
100
AcDbLine
 10
11783.04963011936
 20
-2684.793267669058
 30
0.0
 11
11783.04963011936
 21
-2675.682773708597
 31
0.0
  0
LINE
  5
38A
330
25
100
AcDbEntity
  8
1
  6
Continuous
 62
     0
100
AcDbLine
 10
11787.30117465193
 20
-2706.298091203798
 30
0.0
 11
11787.74417465193
 21
-2695.178091203798
 31
0.0
  0
LINE
  5
389
330
25
100
AcDbEntity
  8
1
  6
Continuous
 62
     0
100
AcDbLine
 10
11847.35817465193
 20
-2695.178091203798
 30
0.0
 11
11847.80117465193
 21
-2706.298091203798
 31
0.0
  0
LINE
  5
388
330
25
100
AcDbEntity
  8
1
  6
Continuous
 62
     0
100
AcDbLine
 10
11787.74417465193
 20
-2721.418091203799
 30
0.0
 11
11787.30117465193
 21
-2710.298091203798
 31
0.0
  0
LINE
  5
387
330
25
100
AcDbEntity
  8
1
  6
Continuous
 62
     0
100
AcDbLine
 10
11847.35817465193
 20
-2721.418091203799
 30
0.0
 11
11847.80117465193
 21
-2710.298091203798
 31
0.0
  0
LINE
  5
386
330
25
100
AcDbEntity
  8
1
  6
Continuous
 62
     0
100
AcDbLine
 10
11787.30117465193
 20
-2706.298091203798
 30
0.0
 11
11787.30117465193
 21
-2710.298091203798
 31
0.0
  0
LINE
  5
385
330
25
100
AcDbEntity
  8
1
  6
Continuous
 62
     0
100
AcDbLine
 10
11847.80117465193
 20
-2710.298091203798
 30
0.0
 11
11847.80117465193
 21
-2706.298091203798
 31
0.0
  0
LINE
  5
384
330
25
100
AcDbEntity
  8
1
  6
Continuous
 62
     0
100
AcDbLine
 10
11787.30117465193
 20
-2706.298091203798
 30
0.0
 11
11847.80117465193
 21
-2706.298091203798
 31
0.0
  0
LINE
  5
383
330
25
100
AcDbEntity
  8
1
  6
Continuous
 62
     0
100
AcDbLine
 10
11847.80117465193
 20
-2710.298091203798
 30
0.0
 11
11787.30117465193
 21
-2710.298091203798
 31
0.0
  0
LINE
  5
382
330
25
100
AcDbEntity
  8
1
  6
Continuous
 62
     0
100
AcDbLine
 10
11784.40117465193
 20
-2721.418091203799
 30
0.0
 11
11850.70117465193
 21
-2721.418091203799
 31
0.0
  0
LINE
  5
381
330
25
100
AcDbEntity
  8
1
  6
Continuous
 62
     0
100
AcDbLine
 10
11784.40117465193
 20
-2721.418091203799
 30
0.0
 11
11784.40117465193
 21
-2741.418091203799
 31
0.0
  0
LINE
  5
380
330
25
100
AcDbEntity
  8
1
  6
Continuous
 62
     0
100
AcDbLine
 10
11850.70117465193
 20
-2721.418091203799
 30
0.0
 11
11850.70117465193
 21
-2741.418091203799
 31
0.0
  0
LINE
  5
37F
330
25
100
AcDbEntity
  8
1
  6
Continuous
 62
     0
100
AcDbLine
 10
11784.40117465193
 20
-2721.418091203799
 30
0.0
 11
11850.70117465193
 21
-2721.418091203799
 31
0.0
  0
LINE
  5
37E
330
25
100
AcDbEntity
  8
1
  6
Continuous
 62
     0
100
AcDbLine
 10
11338.55117465193
 20
-3159.418091203799
 30
0.0
 11
11338.55117465193
 21
-3241.418091203799
 31
0.0
  0
LINE
  5
37D
330
25
100
AcDbEntity
  8
1
  6
Continuous
 62
     0
100
AcDbLine
 10
11338.55117465193
 20
-3241.418091203799
 30
0.0
 11
11360.38599662544
 21
-3241.418091203799
 31
0.0
  0
LINE
  5
37C
330
25
100
AcDbEntity
  8
1
  6
Continuous
 62
     0
100
AcDbLine
 10
11338.55117465193
 20
-3159.418091203799
 30
0.0
 11
11360.38599662544
 21
-3159.418091203799
 31
0.0
  0
LINE
  5
37B
330
25
100
AcDbEntity
  8
1
  6
Continuous
 62
     0
100
AcDbLine
 10
12296.55117465193
 20
-3241.418091203799
 30
0.0
 11
12274.71635267843
 21
-3241.418091203799
 31
0.0
  0
LINE
  5
37A
330
25
100
AcDbEntity
  8
1
  6
Continuous
 62
     0
100
AcDbLine
 10
12296.55117465193
 20
-3159.418091203799
 30
0.0
 11
12274.71635267843
 21
-3159.418091203799
 31
0.0
  0
LINE
  5
379
330
25
100
AcDbEntity
  8
1
  6
Continuous
 62
     0
100
AcDbLine
 10
12296.55117465193
 20
-3241.418091203799
 30
0.0
 11
12296.55117465193
 21
-3159.418091203799
 31
0.0
  0
LINE
  5
378
330
25
100
AcDbEntity
  8
1
  6
Continuous
 62
     0
100
AcDbLine
 10
11887.29364543389
 20
-3691.418091203799
 30
0.0
 11
11889.15005189444
 21
-3690.346294434072
 31
0.0
  0
LINE
  5
377
330
25
100
AcDbEntity
  8
1
  6
Continuous
 62
     0
100
AcDbLine
 10
11861.43723897334
 20
-3690.346294434072
 30
0.0
 11
11863.29364543389
 21
-3691.418091203799
 31
0.0
  0
LINE
  5
376
330
25
100
AcDbEntity
  8
1
  6
Continuous
 62
     0
100
AcDbLine
 10
11861.43723897334
 20
-3681.418091203799
 30
0.0
 11
11861.43723897334
 21
-3690.346294434072
 31
0.0
  0
LINE
  5
375
330
25
100
AcDbEntity
  8
1
  6
Continuous
 62
     0
100
AcDbLine
 10
11863.29364543389
 20
-3691.418091203799
 30
0.0
 11
11887.29364543389
 21
-3691.418091203799
 31
0.0
  0
LINE
  5
374
330
25
100
AcDbEntity
  8
1
  6
Continuous
 62
     0
100
AcDbLine
 10
11889.15005189444
 20
-3690.346294434072
 30
0.0
 11
11889.15005189444
 21
-3681.418091203799
 31
0.0
  0
LINE
  5
373
330
25
100
AcDbEntity
  8
1
  6
Continuous
 62
     0
100
AcDbLine
 10
11868.36544220361
 20
-3681.418091203799
 30
0.0
 11
11868.36544220361
 21
-3690.346294434072
 31
0.0
  0
LINE
  5
372
330
25
100
AcDbEntity
  8
1
  6
Continuous
 62
     0
100
AcDbLine
 10
11882.22184866416
 20
-3681.418091203799
 30
0.0
 11
11882.22184866416
 21
-3690.346294434072
 31
0.0
  0
LINE
  5
371
330
25
100
AcDbEntity
  8
1
  6
Continuous
 62
     0
100
AcDbLine
 10
11861.29364543389
 20
-3677.418091203799
 30
0.0
 11
11861.29364543389
 21
-3681.418091203799
 31
0.0
  0
LINE
  5
370
330
25
100
AcDbEntity
  8
1
  6
Continuous
 62
     0
100
AcDbLine
 10
11861.29364543389
 20
-3681.418091203799
 30
0.0
 11
11889.29364543389
 21
-3681.418091203799
 31
0.0
  0
LINE
  5
36F
330
25
100
AcDbEntity
  8
1
  6
Continuous
 62
     0
100
AcDbLine
 10
11889.29364543389
 20
-3681.418091203799
 30
0.0
 11
11889.29364543389
 21
-3677.418091203799
 31
0.0
  0
LINE
  5
36E
330
25
100
AcDbEntity
  8
1
  6
Continuous
 62
     0
100
AcDbLine
 10
11874.36031210055
 20
-3681.418091203799
 30
0.0
 11
11873.2174549577
 21
-3677.418091203799
 31
0.0
  0
LINE
  5
36D
330
25
100
AcDbEntity
  8
1
  6
Continuous
 62
     0
100
AcDbLine
 10
11877.36983591008
 20
-3681.418091203799
 30
0.0
 11
11876.22697876722
 21
-3677.418091203799
 31
0.0
  0
LINE
  5
36C
330
25
100
AcDbEntity
  8
1
  6
Continuous
 62
     0
100
AcDbLine
 10
11860.29364543389
 20
-3674.418091203799
 30
0.0
 11
11860.29364543389
 21
-3677.418091203799
 31
0.0
  0
LINE
  5
36B
330
25
100
AcDbEntity
  8
1
  6
Continuous
 62
     0
100
AcDbLine
 10
11860.29364543389
 20
-3677.418091203799
 30
0.0
 11
11890.29364543389
 21
-3677.418091203799
 31
0.0
  0
LINE
  5
36A
330
25
100
AcDbEntity
  8
1
  6
Continuous
 62
     0
100
AcDbLine
 10
11890.29364543389
 20
-3677.418091203799
 30
0.0
 11
11890.29364543389
 21
-3674.418091203799
 31
0.0
  0
LINE
  5
369
330
25
100
AcDbEntity
  8
1
  6
Continuous
 62
     0
100
AcDbLine
 10
11890.29364543389
 20
-3674.418091203799
 30
0.0
 11
11860.29364543389
 21
-3674.418091203799
 31
0.0
  0
LINE
  5
366
330
25
100
AcDbEntity
  8
1
  6
Continuous
 62
     0
100
AcDbLine
 10
11856.46888917475
 20
-3674.418091203799
 30
0.0
 11
11826.46888917475
 21
-3674.418091203799
 31
0.0
  0
LINE
  5
365
330
25
100
AcDbEntity
  8
1
  6
Continuous
 62
     0
100
AcDbLine
 10
11856.46888917475
 20
-3677.418091203799
 30
0.0
 11
11856.46888917475
 21
-3674.418091203799
 31
0.0
  0
LINE
  5
364
330
25
100
AcDbEntity
  8
1
  6
Continuous
 62
     0
100
AcDbLine
 10
11826.46888917475
 20
-3677.418091203799
 30
0.0
 11
11856.46888917475
 21
-3677.418091203799
 31
0.0
  0
LINE
  5
363
330
25
100
AcDbEntity
  8
1
  6
Continuous
 62
     0
100
AcDbLine
 10
11826.46888917475
 20
-3674.418091203799
 30
0.0
 11
11826.46888917475
 21
-3677.418091203799
 31
0.0
  0
LINE
  5
362
330
25
100
AcDbEntity
  8
1
  6
Continuous
 62
     0
100
AcDbLine
 10
11843.54507965094
 20
-3681.418091203799
 30
0.0
 11
11842.40222250808
 21
-3677.418091203799
 31
0.0
  0
LINE
  5
361
330
25
100
AcDbEntity
  8
1
  6
Continuous
 62
     0
100
AcDbLine
 10
11840.53555584142
 20
-3681.418091203799
 30
0.0
 11
11839.39269869856
 21
-3677.418091203799
 31
0.0
  0
LINE
  5
360
330
25
100
AcDbEntity
  8
1
  6
Continuous
 62
     0
100
AcDbLine
 10
11855.46888917475
 20
-3681.418091203799
 30
0.0
 11
11855.46888917475
 21
-3677.418091203799
 31
0.0
  0
LINE
  5
35F
330
25
100
AcDbEntity
  8
1
  6
Continuous
 62
     0
100
AcDbLine
 10
11827.46888917475
 20
-3681.418091203799
 30
0.0
 11
11855.46888917475
 21
-3681.418091203799
 31
0.0
  0
LINE
  5
35E
330
25
100
AcDbEntity
  8
1
  6
Continuous
 62
     0
100
AcDbLine
 10
11827.46888917475
 20
-3677.418091203799
 30
0.0
 11
11827.46888917475
 21
-3681.418091203799
 31
0.0
  0
LINE
  5
35D
330
25
100
AcDbEntity
  8
1
  6
Continuous
 62
     0
100
AcDbLine
 10
11848.39709240503
 20
-3681.418091203799
 30
0.0
 11
11848.39709240503
 21
-3690.346294434072
 31
0.0
  0
LINE
  5
35C
330
25
100
AcDbEntity
  8
1
  6
Continuous
 62
     0
100
AcDbLine
 10
11834.54068594448
 20
-3681.418091203799
 30
0.0
 11
11834.54068594448
 21
-3690.346294434072
 31
0.0
  0
LINE
  5
35B
330
25
100
AcDbEntity
  8
1
  6
Continuous
 62
     0
100
AcDbLine
 10
11855.3252956353
 20
-3690.346294434072
 30
0.0
 11
11855.3252956353
 21
-3681.418091203799
 31
0.0
  0
LINE
  5
35A
330
25
100
AcDbEntity
  8
1
  6
Continuous
 62
     0
100
AcDbLine
 10
11829.46888917475
 20
-3691.418091203799
 30
0.0
 11
11853.46888917475
 21
-3691.418091203799
 31
0.0
  0
LINE
  5
359
330
25
100
AcDbEntity
  8
1
  6
Continuous
 62
     0
100
AcDbLine
 10
11827.6124827142
 20
-3681.418091203799
 30
0.0
 11
11827.6124827142
 21
-3690.346294434072
 31
0.0
  0
LINE
  5
358
330
25
100
AcDbEntity
  8
1
  6
Continuous
 62
     0
100
AcDbLine
 10
11827.6124827142
 20
-3690.346294434072
 30
0.0
 11
11829.46888917475
 21
-3691.418091203799
 31
0.0
  0
LINE
  5
357
330
25
100
AcDbEntity
  8
1
  6
Continuous
 62
     0
100
AcDbLine
 10
11853.46888917475
 20
-3691.418091203799
 30
0.0
 11
11855.3252956353
 21
-3690.346294434072
 31
0.0
  0
LINE
  5
356
330
25
100
AcDbEntity
  8
1
  6
Continuous
 62
     0
100
AcDbLine
 10
11779.77705366856
 20
-3690.346294434072
 30
0.0
 11
11781.63346012912
 21
-3691.418091203799
 31
0.0
  0
LINE
  5
355
330
25
100
AcDbEntity
  8
1
  6
Continuous
 62
     0
100
AcDbLine
 10
11805.63346012912
 20
-3691.418091203799
 30
0.0
 11
11807.48986658967
 21
-3690.346294434072
 31
0.0
  0
LINE
  5
354
330
25
100
AcDbEntity
  8
1
  6
Continuous
 62
     0
100
AcDbLine
 10
11807.48986658967
 20
-3690.346294434072
 30
0.0
 11
11807.48986658967
 21
-3681.418091203799
 31
0.0
  0
LINE
  5
353
330
25
100
AcDbEntity
  8
1
  6
Continuous
 62
     0
100
AcDbLine
 10
11781.63346012912
 20
-3691.418091203799
 30
0.0
 11
11805.63346012912
 21
-3691.418091203799
 31
0.0
  0
LINE
  5
352
330
25
100
AcDbEntity
  8
1
  6
Continuous
 62
     0
100
AcDbLine
 10
11779.77705366856
 20
-3681.418091203799
 30
0.0
 11
11779.77705366856
 21
-3690.346294434072
 31
0.0
  0
LINE
  5
351
330
25
100
AcDbEntity
  8
1
  6
Continuous
 62
     0
100
AcDbLine
 10
11800.56166335939
 20
-3690.346294434072
 30
0.0
 11
11800.56166335939
 21
-3681.418091203799
 31
0.0
  0
LINE
  5
350
330
25
100
AcDbEntity
  8
1
  6
Continuous
 62
     0
100
AcDbLine
 10
11786.70525689884
 20
-3690.346294434072
 30
0.0
 11
11786.70525689884
 21
-3681.418091203799
 31
0.0
  0
LINE
  5
34F
330
25
100
AcDbEntity
  8
1
  6
Continuous
 62
     0
100
AcDbLine
 10
11807.63346012912
 20
-3681.418091203799
 30
0.0
 11
11807.63346012912
 21
-3677.418091203799
 31
0.0
  0
LINE
  5
34E
330
25
100
AcDbEntity
  8
1
  6
Continuous
 62
     0
100
AcDbLine
 10
11779.63346012912
 20
-3681.418091203799
 30
0.0
 11
11807.63346012912
 21
-3681.418091203799
 31
0.0
  0
LINE
  5
34D
330
25
100
AcDbEntity
  8
1
  6
Continuous
 62
     0
100
AcDbLine
 10
11779.63346012912
 20
-3677.418091203799
 30
0.0
 11
11779.63346012912
 21
-3681.418091203799
 31
0.0
  0
LINE
  5
34C
330
25
100
AcDbEntity
  8
1
  6
Continuous
 62
     0
100
AcDbLine
 10
11795.7096506053
 20
-3677.418091203799
 30
0.0
 11
11794.56679346245
 21
-3681.418091203799
 31
0.0
  0
LINE
  5
34B
330
25
100
AcDbEntity
  8
1
  6
Continuous
 62
     0
100
AcDbLine
 10
11792.70012679578
 20
-3677.418091203799
 30
0.0
 11
11791.55726965292
 21
-3681.418091203799
 31
0.0
  0
LINE
  5
34A
330
25
100
AcDbEntity
  8
1
  6
Continuous
 62
     0
100
AcDbLine
 10
11808.63346012912
 20
-3677.418091203799
 30
0.0
 11
11808.63346012912
 21
-3674.418091203799
 31
0.0
  0
LINE
  5
349
330
25
100
AcDbEntity
  8
1
  6
Continuous
 62
     0
100
AcDbLine
 10
11778.63346012912
 20
-3677.418091203799
 30
0.0
 11
11808.63346012912
 21
-3677.418091203799
 31
0.0
  0
LINE
  5
348
330
25
100
AcDbEntity
  8
1
  6
Continuous
 62
     0
100
AcDbLine
 10
11778.63346012912
 20
-3674.418091203799
 30
0.0
 11
11778.63346012912
 21
-3677.418091203799
 31
0.0
  0
LINE
  5
347
330
25
100
AcDbEntity
  8
1
  6
Continuous
 62
     0
100
AcDbLine
 10
11808.63346012912
 20
-3674.418091203799
 30
0.0
 11
11778.63346012912
 21
-3674.418091203799
 31
0.0
  0
LINE
  5
344
330
25
100
AcDbEntity
  8
1
  6
Continuous
 62
     0
100
AcDbLine
 10
11774.80870386998
 20
-3674.418091203799
 30
0.0
 11
11744.80870386998
 21
-3674.418091203799
 31
0.0
  0
LINE
  5
343
330
25
100
AcDbEntity
  8
1
  6
Continuous
 62
     0
100
AcDbLine
 10
11744.80870386998
 20
-3674.418091203799
 30
0.0
 11
11744.80870386998
 21
-3677.418091203799
 31
0.0
  0
LINE
  5
342
330
25
100
AcDbEntity
  8
1
  6
Continuous
 62
     0
100
AcDbLine
 10
11744.80870386998
 20
-3677.418091203799
 30
0.0
 11
11774.80870386998
 21
-3677.418091203799
 31
0.0
  0
LINE
  5
341
330
25
100
AcDbEntity
  8
1
  6
Continuous
 62
     0
100
AcDbLine
 10
11774.80870386998
 20
-3677.418091203799
 30
0.0
 11
11774.80870386998
 21
-3674.418091203799
 31
0.0
  0
LINE
  5
340
330
25
100
AcDbEntity
  8
1
  6
Continuous
 62
     0
100
AcDbLine
 10
11758.87537053664
 20
-3677.418091203799
 30
0.0
 11
11757.73251339379
 21
-3681.418091203799
 31
0.0
  0
LINE
  5
33F
330
25
100
AcDbEntity
  8
1
  6
Continuous
 62
     0
100
AcDbLine
 10
11761.88489434617
 20
-3677.418091203799
 30
0.0
 11
11760.74203720331
 21
-3681.418091203799
 31
0.0
  0
LINE
  5
33E
330
25
100
AcDbEntity
  8
1
  6
Continuous
 62
     0
100
AcDbLine
 10
11745.80870386998
 20
-3677.418091203799
 30
0.0
 11
11745.80870386998
 21
-3681.418091203799
 31
0.0
  0
LINE
  5
33D
330
25
100
AcDbEntity
  8
1
  6
Continuous
 62
     0
100
AcDbLine
 10
11745.80870386998
 20
-3681.418091203799
 30
0.0
 11
11773.80870386998
 21
-3681.418091203799
 31
0.0
  0
LINE
  5
33C
330
25
100
AcDbEntity
  8
1
  6
Continuous
 62
     0
100
AcDbLine
 10
11773.80870386998
 20
-3681.418091203799
 30
0.0
 11
11773.80870386998
 21
-3677.418091203799
 31
0.0
  0
LINE
  5
33B
330
25
100
AcDbEntity
  8
1
  6
Continuous
 62
     0
100
AcDbLine
 10
11752.8805006397
 20
-3690.346294434072
 30
0.0
 11
11752.8805006397
 21
-3681.418091203799
 31
0.0
  0
LINE
  5
33A
330
25
100
AcDbEntity
  8
1
  6
Continuous
 62
     0
100
AcDbLine
 10
11766.73690710025
 20
-3690.346294434072
 30
0.0
 11
11766.73690710025
 21
-3681.418091203799
 31
0.0
  0
LINE
  5
339
330
25
100
AcDbEntity
  8
1
  6
Continuous
 62
     0
100
AcDbLine
 10
11745.95229740943
 20
-3681.418091203799
 30
0.0
 11
11745.95229740943
 21
-3690.346294434072
 31
0.0
  0
LINE
  5
338
330
25
100
AcDbEntity
  8
1
  6
Continuous
 62
     0
100
AcDbLine
 10
11747.80870386998
 20
-3691.418091203799
 30
0.0
 11
11771.80870386998
 21
-3691.418091203799
 31
0.0
  0
LINE
  5
337
330
25
100
AcDbEntity
  8
1
  6
Continuous
 62
     0
100
AcDbLine
 10
11773.66511033053
 20
-3690.346294434072
 30
0.0
 11
11773.66511033053
 21
-3681.418091203799
 31
0.0
  0
LINE
  5
336
330
25
100
AcDbEntity
  8
1
  6
Continuous
 62
     0
100
AcDbLine
 10
11771.80870386998
 20
-3691.418091203799
 30
0.0
 11
11773.66511033053
 21
-3690.346294434072
 31
0.0
  0
LINE
  5
335
330
25
100
AcDbEntity
  8
1
  6
Continuous
 62
     0
100
AcDbLine
 10
11745.95229740943
 20
-3690.346294434072
 30
0.0
 11
11747.80870386998
 21
-3691.418091203799
 31
0.0
  0
LINE
  5
334
330
25
100
AcDbEntity
  8
1
  6
Continuous
 62
     0
100
AcDbLine
 10
11738.55117465193
 20
-3652.554528106324
 30
0.0
 11
11738.55117465193
 21
-3674.418091203799
 31
0.0
  0
LINE
  5
333
330
25
100
AcDbEntity
  8
1
  6
Continuous
 62
     0
100
AcDbLine
 10
11896.55117465193
 20
-3652.547711561711
 30
0.0
 11
11896.55117465193
 21
-3674.418091203799
 31
0.0
  0
LINE
  5
331
330
25
100
AcDbEntity
  8
1
  6
Continuous
 62
     0
100
AcDbLine
 10
11896.55117465193
 20
-3674.418091203799
 30
0.0
 11
11738.55117465193
 21
-3674.418091203799
 31
0.0
  0
LINE
  5
330
330
25
100
AcDbEntity
  8
1
  6
Continuous
 62
     0
100
AcDbLine
 10
11896.55117465193
 20
-3664.418091203799
 30
0.0
 11
11738.55117465193
 21
-3664.418091203799
 31
0.0
  0
LINE
  5
32B
330
25
100
AcDbEntity
  8
1
  6
Continuous
 62
     0
100
AcDbLine
 10
11246.01291852987
 20
-1173.051560639015
 30
0.0
 11
11257.51291852987
 21
-1173.051560639015
 31
0.0
  0
LINE
  5
32A
330
25
100
AcDbEntity
  8
1
  6
Continuous
 62
     0
100
AcDbLine
 10
11257.51291852987
 20
-1173.051560639015
 30
0.0
 11
11257.51291852987
 21
-1181.550287497433
 31
0.0
  0
LINE
  5
329
330
25
100
AcDbEntity
  8
1
  6
Continuous
 62
     0
100
AcDbLine
 10
11269.01164538828
 20
-1184.550287497433
 30
0.0
 11
11260.51291852987
 21
-1184.550287497433
 31
0.0
  0
LINE
  5
328
330
25
100
AcDbEntity
  8
1
  6
Continuous
 62
     0
100
AcDbLine
 10
11234.51291852987
 20
-1173.051560639016
 30
0.0
 11
11246.01291852987
 21
-1173.051560639015
 31
0.0
  0
LINE
  5
327
330
25
100
AcDbEntity
  8
1
  6
Continuous
 62
     0
100
AcDbLine
 10
11269.01164538828
 20
-1184.550287497433
 30
0.0
 11
11269.01164538828
 21
-1196.050287497433
 31
0.0
  0
LINE
  5
326
330
25
100
AcDbEntity
  8
1
  6
Continuous
 62
     0
100
AcDbLine
 10
11234.51291852987
 20
-1173.051560639016
 30
0.0
 11
11234.51291852987
 21
-1196.050287497433
 31
0.0
  0
LINE
  5
325
330
25
100
AcDbEntity
  8
1
  6
Continuous
 62
     0
100
AcDbLine
 10
11234.51291852987
 20
-1196.050287497433
 30
0.0
 11
11234.51291852987
 21
-1219.04901435585
 31
0.0
  0
LINE
  5
324
330
25
100
AcDbEntity
  8
1
  6
Continuous
 62
     0
100
AcDbLine
 10
11269.01164538828
 20
-1196.050287497433
 30
0.0
 11
11269.01164538828
 21
-1207.550287497433
 31
0.0
  0
LINE
  5
323
330
25
100
AcDbEntity
  8
1
  6
Continuous
 62
     0
100
AcDbLine
 10
11246.01291852987
 20
-1219.04901435585
 30
0.0
 11
11234.51291852987
 21
-1219.04901435585
 31
0.0
  0
LINE
  5
322
330
25
100
AcDbEntity
  8
1
  6
Continuous
 62
     0
100
AcDbLine
 10
11260.51291852987
 20
-1207.550287497433
 30
0.0
 11
11269.01164538828
 21
-1207.550287497433
 31
0.0
  0
LINE
  5
321
330
25
100
AcDbEntity
  8
1
  6
Continuous
 62
     0
100
AcDbLine
 10
11257.51291852987
 20
-1210.550287497433
 30
0.0
 11
11257.51291852987
 21
-1219.04901435585
 31
0.0
  0
LINE
  5
320
330
25
100
AcDbEntity
  8
1
  6
Continuous
 62
     0
100
AcDbLine
 10
11257.51291852987
 20
-1219.04901435585
 30
0.0
 11
11246.01291852987
 21
-1219.04901435585
 31
0.0
  0
LINE
  5
31F
330
25
100
AcDbEntity
  8
1
  6
Continuous
 62
     0
100
AcDbLine
 10
11285.24946756179
 20
-1208.174643150413
 30
0.0
 11
11284.31164538828
 21
-1206.550287497433
 31
0.0
  0
LINE
  5
31E
330
25
100
AcDbEntity
  8
1
  6
Continuous
 62
     0
100
AcDbLine
 10
11284.31164538828
 20
-1185.550287497433
 30
0.0
 11
11285.24946756179
 21
-1183.925931844452
 31
0.0
  0
LINE
  5
31D
330
25
100
AcDbEntity
  8
1
  6
Continuous
 62
     0
100
AcDbLine
 10
11284.31164538828
 20
-1206.550287497433
 30
0.0
 11
11284.31164538828
 21
-1185.550287497433
 31
0.0
  0
LINE
  5
31C
330
25
100
AcDbEntity
  8
1
  6
Continuous
 62
     0
100
AcDbLine
 10
11285.24946756179
 20
-1202.112465323923
 30
0.0
 11
11291.41164538828
 21
-1202.112465323923
 31
0.0
  0
LINE
  5
31B
330
25
100
AcDbEntity
  8
1
  6
Continuous
 62
     0
100
AcDbLine
 10
11285.24946756179
 20
-1189.988109670942
 30
0.0
 11
11291.41164538828
 21
-1189.988109670942
 31
0.0
  0
LINE
  5
31A
330
25
100
AcDbEntity
  8
1
  6
Continuous
 62
     0
100
AcDbLine
 10
11328.31164538828
 20
-1206.550287497433
 30
0.0
 11
11327.37382321477
 21
-1208.174643150413
 31
0.0
  0
LINE
  5
319
330
25
100
AcDbEntity
  8
1
  6
Continuous
 62
     0
100
AcDbLine
 10
11327.37382321477
 20
-1183.925931844452
 30
0.0
 11
11328.31164538828
 21
-1185.550287497433
 31
0.0
  0
LINE
  5
318
330
25
100
AcDbEntity
  8
1
  6
Continuous
 62
     0
100
AcDbLine
 10
11327.37382321477
 20
-1208.174643150413
 30
0.0
 11
11320.94946756179
 21
-1208.174643150413
 31
0.0
  0
LINE
  5
317
330
25
100
AcDbEntity
  8
1
  6
Continuous
 62
     0
100
AcDbLine
 10
11328.31164538828
 20
-1185.550287497433
 30
0.0
 11
11328.31164538828
 21
-1206.550287497433
 31
0.0
  0
LINE
  5
316
330
25
100
AcDbEntity
  8
1
  6
Continuous
 62
     0
100
AcDbLine
 10
11327.37382321477
 20
-1183.925931844452
 30
0.0
 11
11320.94946756179
 21
-1183.925931844452
 31
0.0
  0
LINE
  5
315
330
25
100
AcDbEntity
  8
1
  6
Continuous
 62
     0
100
AcDbLine
 10
11326.31164538828
 20
-1191.700287497431
 30
0.0
 11
11317.03440156382
 21
-1191.700287497431
 31
0.0
  0
LINE
  5
314
330
25
100
AcDbEntity
  8
1
  6
Continuous
 62
     0
100
AcDbLine
 10
11326.31164538828
 20
-1191.700287497431
 30
0.0
 11
11326.31164538828
 21
-1200.400287497431
 31
0.0
  0
LINE
  5
313
330
25
100
AcDbEntity
  8
1
  6
Continuous
 62
     0
100
AcDbLine
 10
11326.31164538828
 20
-1200.400287497431
 30
0.0
 11
11317.03440156382
 21
-1200.400287497431
 31
0.0
  0
LINE
  5
312
330
25
100
AcDbEntity
  8
1
  6
Continuous
 62
     0
100
AcDbLine
 10
11286.31164538828
 20
-1191.700287497431
 30
0.0
 11
11295.58888921275
 21
-1191.700287497431
 31
0.0
  0
LINE
  5
311
330
25
100
AcDbEntity
  8
1
  6
Continuous
 62
     0
100
AcDbLine
 10
11286.31164538828
 20
-1191.700287497431
 30
0.0
 11
11286.31164538828
 21
-1200.400287497431
 31
0.0
  0
LINE
  5
310
330
25
100
AcDbEntity
  8
1
  6
Continuous
 62
     0
100
AcDbLine
 10
11286.31164538828
 20
-1200.400287497431
 30
0.0
 11
11295.58888921275
 21
-1200.400287497431
 31
0.0
  0
LINE
  5
30D
330
25
100
AcDbEntity
  8
1
  6
Continuous
 62
     0
100
AcDbLine
 10
11301.31164538828
 20
-1193.163536151481
 30
0.0
 11
11301.31164538828
 21
-1198.937038843381
 31
0.0
  0
LINE
  5
30C
330
25
100
AcDbEntity
  8
1
  6
Continuous
 62
     0
100
AcDbLine
 10
11301.31164538828
 20
-1198.937038843381
 30
0.0
 11
11306.31164538828
 21
-1201.823790189333
 31
0.0
  0
LINE
  5
30B
330
25
100
AcDbEntity
  8
1
  6
Continuous
 62
     0
100
AcDbLine
 10
11306.31164538828
 20
-1201.823790189333
 30
0.0
 11
11311.31164538828
 21
-1198.937038843381
 31
0.0
  0
LINE
  5
30A
330
25
100
AcDbEntity
  8
1
  6
Continuous
 62
     0
100
AcDbLine
 10
11311.31164538828
 20
-1198.937038843381
 30
0.0
 11
11311.31164538828
 21
-1193.163536151481
 31
0.0
  0
LINE
  5
309
330
25
100
AcDbEntity
  8
1
  6
Continuous
 62
     0
100
AcDbLine
 10
11311.31164538828
 20
-1193.163536151481
 30
0.0
 11
11306.31164538828
 21
-1190.276784805533
 31
0.0
  0
LINE
  5
308
330
25
100
AcDbEntity
  8
1
  6
Continuous
 62
     0
100
AcDbLine
 10
11306.31164538828
 20
-1190.276784805533
 30
0.0
 11
11301.31164538828
 21
-1193.163536151481
 31
0.0
  0
LINE
  5
307
330
25
100
AcDbEntity
  8
1
  6
Continuous
 62
     0
100
AcDbLine
 10
11306.31164538828
 20
-1189.800287497433
 30
0.0
 11
11300.59550191145
 21
-1189.800287497433
 31
0.0
  0
LINE
  5
306
330
25
100
AcDbEntity
  8
1
  6
Continuous
 62
     0
100
AcDbLine
 10
11312.56164538828
 20
-1196.050287497433
 30
0.0
 11
11314.81164538828
 21
-1196.050287497433
 31
0.0
  0
LINE
  5
305
330
25
100
AcDbEntity
  8
1
  6
Continuous
 62
     0
100
AcDbLine
 10
11304.07557741078
 20
-1194.050287497433
 30
0.0
 11
11308.54771336578
 21
-1194.050287497433
 31
0.0
  0
LINE
  5
304
330
25
100
AcDbEntity
  8
1
  6
Continuous
 62
     0
100
AcDbLine
 10
11304.07557741078
 20
-1198.050287497433
 30
0.0
 11
11308.54771336578
 21
-1198.050287497433
 31
0.0
  0
LINE
  5
303
330
25
100
AcDbEntity
  8
1
  6
Continuous
 62
     0
100
AcDbLine
 10
11320.01164538828
 20
-1185.550287497433
 30
0.0
 11
11320.94946756179
 21
-1183.925931844452
 31
0.0
  0
LINE
  5
302
330
25
100
AcDbEntity
  8
1
  6
Continuous
 62
     0
100
AcDbLine
 10
11320.94946756179
 20
-1208.174643150413
 30
0.0
 11
11320.01164538828
 21
-1206.550287497433
 31
0.0
  0
LINE
  5
301
330
25
100
AcDbEntity
  8
1
  6
Continuous
 62
     0
100
AcDbLine
 10
11292.34946756179
 20
-1206.550287497433
 30
0.0
 11
11291.41164538828
 21
-1208.174643150413
 31
0.0
  0
LINE
  5
300
330
25
100
AcDbEntity
  8
1
  6
Continuous
 62
     0
100
AcDbLine
 10
11291.41164538828
 20
-1183.925931844452
 30
0.0
 11
11292.34946756179
 21
-1185.550287497433
 31
0.0
  0
LINE
  5
2FF
330
25
100
AcDbEntity
  8
1
  6
Continuous
 62
     0
100
AcDbLine
 10
11320.01164538828
 20
-1185.550287497433
 30
0.0
 11
11292.34946756179
 21
-1185.550287497433
 31
0.0
  0
LINE
  5
2FE
330
25
100
AcDbEntity
  8
1
  6
Continuous
 62
     0
100
AcDbLine
 10
11291.41164538828
 20
-1183.925931844452
 30
0.0
 11
11285.24946756179
 21
-1183.925931844452
 31
0.0
  0
LINE
  5
2FD
330
25
100
AcDbEntity
  8
1
  6
Continuous
 62
     0
100
AcDbLine
 10
11320.01164538828
 20
-1206.550287497433
 30
0.0
 11
11292.34946756179
 21
-1206.550287497433
 31
0.0
  0
LINE
  5
2FC
330
25
100
AcDbEntity
  8
1
  6
Continuous
 62
     0
100
AcDbLine
 10
11291.41164538828
 20
-1208.174643150413
 30
0.0
 11
11285.24946756179
 21
-1208.174643150413
 31
0.0
  0
LINE
  5
2FB
330
25
100
AcDbEntity
  8
1
  6
Continuous
 62
     0
100
AcDbLine
 10
11320.94946756179
 20
-1202.112465323923
 30
0.0
 11
11327.37382321477
 21
-1202.112465323923
 31
0.0
  0
LINE
  5
2FA
330
25
100
AcDbEntity
  8
1
  6
Continuous
 62
     0
100
AcDbLine
 10
11320.94946756179
 20
-1189.988109670942
 30
0.0
 11
11327.37382321477
 21
-1189.988109670942
 31
0.0
  0
LINE
  5
2F9
330
25
100
AcDbEntity
  8
1
  6
Continuous
 62
     0
100
AcDbLine
 10
11314.81164538828
 20
-1190.715071601033
 30
0.0
 11
11314.81164538828
 21
-1187.550287497433
 31
0.0
  0
LINE
  5
2F8
330
25
100
AcDbEntity
  8
1
  6
Continuous
 62
     0
100
AcDbLine
 10
11314.81164538828
 20
-1187.550287497433
 30
0.0
 11
11317.31164538828
 21
-1187.550287497433
 31
0.0
  0
LINE
  5
2F7
330
25
100
AcDbEntity
  8
1
  6
Continuous
 62
     0
100
AcDbLine
 10
11291.56300391061
 20
-1201.612465323923
 30
0.0
 11
11297.99797449059
 21
-1201.612465323923
 31
0.0
  0
LINE
  5
2F6
330
25
100
AcDbEntity
  8
1
  6
Continuous
 62
     0
100
AcDbLine
 10
11291.56300391061
 20
-1190.488109670943
 30
0.0
 11
11297.99797449059
 21
-1190.488109670943
 31
0.0
  0
LINE
  5
2F5
330
25
100
AcDbEntity
  8
1
  6
Continuous
 62
     0
100
AcDbLine
 10
11320.79810903946
 20
-1201.612465323923
 30
0.0
 11
11314.55991936947
 21
-1201.612465323923
 31
0.0
  0
LINE
  5
2F4
330
25
100
AcDbEntity
  8
1
  6
Continuous
 62
     0
100
AcDbLine
 10
11320.79810903946
 20
-1190.488109670943
 30
0.0
 11
11318.85713798395
 21
-1190.488109670943
 31
0.0
  0
LINE
  5
2F3
330
25
100
AcDbEntity
  8
1
  6
Continuous
 62
     0
100
AcDbLine
 10
11343.55117465193
 20
-1204.381287497433
 30
0.0
 11
11337.15117465193
 21
-1204.700287497433
 31
0.0
  0
LINE
  5
2F2
330
25
100
AcDbEntity
  8
1
  6
Continuous
 62
     0
100
AcDbLine
 10
11328.25117465193
 20
-1187.719287497433
 30
0.0
 11
11334.65117465193
 21
-1187.400287497433
 31
0.0
  0
LINE
  5
2F1
330
25
100
AcDbEntity
  8
1
  6
Continuous
 62
     0
100
AcDbLine
 10
11334.65117465193
 20
-1204.700287497433
 30
0.0
 11
11328.25117465193
 21
-1204.381287497433
 31
0.0
  0
LINE
  5
2F0
330
25
100
AcDbEntity
  8
1
  6
Continuous
 62
     0
100
AcDbLine
 10
11337.15117465193
 20
-1187.400287497433
 30
0.0
 11
11343.55117465193
 21
-1187.719287497433
 31
0.0
  0
LINE
  5
2EF
330
25
100
AcDbEntity
  8
1
  6
Continuous
 62
     0
100
AcDbLine
 10
11337.15117465193
 20
-1187.400287497433
 30
0.0
 11
11334.65117465193
 21
-1187.400287497433
 31
0.0
  0
LINE
  5
2EE
330
25
100
AcDbEntity
  8
1
  6
Continuous
 62
     0
100
AcDbLine
 10
11334.65117465193
 20
-1204.700287497433
 30
0.0
 11
11337.15117465193
 21
-1204.700287497433
 31
0.0
  0
LINE
  5
2ED
330
25
100
AcDbEntity
  8
1
  6
Continuous
 62
     0
100
AcDbLine
 10
11337.15117465193
 20
-1204.700287497433
 30
0.0
 11
11337.15117465193
 21
-1187.400287497433
 31
0.0
  0
LINE
  5
2EC
330
25
100
AcDbEntity
  8
1
  6
Continuous
 62
     0
100
AcDbLine
 10
11334.65117465193
 20
-1187.400287497433
 30
0.0
 11
11334.65117465193
 21
-1204.700287497433
 31
0.0
  0
LINE
  5
2EB
330
25
100
AcDbEntity
  8
1
  6
Continuous
 62
     0
100
AcDbLine
 10
11275.41164538828
 20
-1187.400287497433
 30
0.0
 11
11275.41164538828
 21
-1204.700287497433
 31
0.0
  0
LINE
  5
2EA
330
25
100
AcDbEntity
  8
1
  6
Continuous
 62
     0
100
AcDbLine
 10
11277.91164538828
 20
-1204.700287497433
 30
0.0
 11
11277.91164538828
 21
-1187.400287497433
 31
0.0
  0
LINE
  5
2E9
330
25
100
AcDbEntity
  8
1
  6
Continuous
 62
     0
100
AcDbLine
 10
11275.41164538828
 20
-1204.700287497433
 30
0.0
 11
11277.91164538828
 21
-1204.700287497433
 31
0.0
  0
LINE
  5
2E8
330
25
100
AcDbEntity
  8
1
  6
Continuous
 62
     0
100
AcDbLine
 10
11277.91164538828
 20
-1187.400287497433
 30
0.0
 11
11275.41164538828
 21
-1187.400287497433
 31
0.0
  0
LINE
  5
2E7
330
25
100
AcDbEntity
  8
1
  6
Continuous
 62
     0
100
AcDbLine
 10
11277.91164538828
 20
-1187.400287497433
 30
0.0
 11
11284.31164538828
 21
-1187.719287497433
 31
0.0
  0
LINE
  5
2E6
330
25
100
AcDbEntity
  8
1
  6
Continuous
 62
     0
100
AcDbLine
 10
11275.41164538828
 20
-1204.700287497433
 30
0.0
 11
11269.01164538828
 21
-1204.381287497433
 31
0.0
  0
LINE
  5
2E5
330
25
100
AcDbEntity
  8
1
  6
Continuous
 62
     0
100
AcDbLine
 10
11269.01164538828
 20
-1187.719287497433
 30
0.0
 11
11275.41164538828
 21
-1187.400287497433
 31
0.0
  0
LINE
  5
2E4
330
25
100
AcDbEntity
  8
1
  6
Continuous
 62
     0
100
AcDbLine
 10
11284.31164538828
 20
-1204.381287497433
 30
0.0
 11
11277.91164538828
 21
-1204.700287497433
 31
0.0
  0
LINE
  5
2E3
330
25
100
AcDbEntity
  8
1
  6
Continuous
 62
     0
100
AcDbLine
 10
11343.55117465193
 20
-1185.400287497433
 30
0.0
 11
11343.55117465193
 21
-1206.700287497433
 31
0.0
  0
LINE
  5
2E2
330
25
100
AcDbEntity
  8
1
  6
Continuous
 62
     0
100
AcDbLine
 10
11358.55117465193
 20
-1206.700287497433
 30
0.0
 11
11343.55117465193
 21
-1206.700287497433
 31
0.0
  0
LINE
  5
2E1
330
25
100
AcDbEntity
  8
1
  6
Continuous
 62
     0
100
AcDbLine
 10
11358.55117465193
 20
-1185.400287497433
 30
0.0
 11
11343.55117465193
 21
-1185.400287497433
 31
0.0
  0
LINE
  5
2DF
330
25
100
AcDbEntity
  8
1
  6
Continuous
 62
     0
100
AcDbLine
 10
14474.03762240632
 20
-1871.050287497433
 30
0.0
 11
14474.03762240631
 21
-1992.050287497433
 31
0.0
  0
LINE
  5
2DE
330
25
100
AcDbEntity
  8
1
  6
Continuous
 62
     0
100
AcDbLine
 10
14479.03762240632
 20
-1713.050287497433
 30
0.0
 11
14479.03762240632
 21
-1871.050287497433
 31
0.0
  0
LINE
  5
2DD
330
25
100
AcDbEntity
  8
1
  6
Continuous
 62
     0
100
AcDbLine
 10
14489.03762240632
 20
-1713.050287497433
 30
0.0
 11
14489.03762240632
 21
-1871.050287497433
 31
0.0
  0
LINE
  5
2DB
330
25
100
AcDbEntity
  8
1
  6
Continuous
 62
     0
100
AcDbLine
 10
14489.03762240632
 20
-1871.050287497433
 30
0.0
 11
14474.03762240632
 21
-1871.050287497433
 31
0.0
  0
LINE
  5
2DA
330
25
100
AcDbEntity
  8
1
  6
Continuous
 62
     0
100
AcDbLine
 10
14489.03762240632
 20
-1713.050287497433
 30
0.0
 11
14474.03762240632
 21
-1713.050287497433
 31
0.0
  0
LINE
  5
2D9
330
25
100
AcDbEntity
  8
1
  6
Continuous
 62
     0
100
AcDbLine
 10
14008.78762240632
 20
-461.23307505356
 30
0.0
 11
14003.6870789183
 21
-461.790289073259
 31
0.0
  0
LINE
  5
2D8
330
25
100
AcDbEntity
  8
1
  6
Continuous
 62
     0
100
AcDbLine
 10
14008.78762240632
 20
-419.300287497433
 30
0.0
 11
14008.78762240632
 21
-470.647179277596
 31
0.0
  0
LINE
  5
2D7
330
25
100
AcDbEntity
  8
1
  6
Continuous
 62
     0
100
AcDbLine
 10
14021.28762240632
 20
-419.300287497433
 30
0.0
 11
14021.28762240632
 21
-470.647179277596
 31
0.0
  0
LINE
  5
2D6
330
25
100
AcDbEntity
  8
1
  6
Continuous
 62
     0
100
AcDbLine
 10
13556.03762240632
 20
-2013.121956394592
 30
0.0
 11
13556.03762240632
 21
-1992.050287497433
 31
0.0
  0
LINE
  5
2D5
330
25
100
AcDbEntity
  8
1
  6
Continuous
 62
     0
100
AcDbLine
 10
14474.03762240631
 20
-1992.050287497433
 30
0.0
 11
14474.03762240631
 21
-2013.121956394592
 31
0.0
  0
LINE
  5
2D4
330
25
100
AcDbEntity
  8
1
  6
Continuous
 62
     0
100
AcDbLine
 10
14474.03762240631
 20
-1992.050287497433
 30
0.0
 11
13556.03762240632
 21
-1992.050287497433
 31
0.0
  0
LINE
  5
2D3
330
25
100
AcDbEntity
  8
1
  6
Continuous
 62
     0
100
AcDbLine
 10
13556.03762240632
 20
-682.050287497433
 30
0.0
 11
14474.03762240631
 21
-682.050287497433
 31
0.0
  0
LINE
  5
2D2
330
25
100
AcDbEntity
  8
1
  6
Continuous
 62
     0
100
AcDbLine
 10
14474.03762240631
 20
-660.978618600274
 30
0.0
 11
14474.03762240631
 21
-682.050287497433
 31
0.0
  0
LINE
  5
2D1
330
25
100
AcDbEntity
  8
1
  6
Continuous
 62
     0
100
AcDbLine
 10
13556.03762240632
 20
-682.050287497433
 30
0.0
 11
13556.03762240632
 21
-660.978618600274
 31
0.0
  0
LINE
  5
2CF
330
25
100
AcDbEntity
  8
1
  6
Continuous
 62
     0
100
AcDbLine
 10
13556.03762240632
 20
-682.050287497433
 30
0.0
 11
13556.03762240632
 21
-1843.434314816435
 31
0.0
  0
LINE
  5
2CE
330
25
100
AcDbEntity
  8
1
  6
Continuous
 62
     0
100
AcDbLine
 10
13565.03762240632
 20
-2490.050287497434
 30
0.0
 11
14465.03762240632
 21
-2490.050287497434
 31
0.0
  0
LINE
  5
2CD
330
25
100
AcDbEntity
  8
1
  6
Continuous
 62
     0
100
AcDbLine
 10
14465.03762240632
 20
-2490.050287497434
 30
0.0
 11
14465.03762240632
 21
-2496.050287497433
 31
0.0
  0
LINE
  5
2CC
330
25
100
AcDbEntity
  8
1
  6
Continuous
 62
     0
100
AcDbLine
 10
14465.03762240632
 20
-2496.050287497433
 30
0.0
 11
13565.03762240632
 21
-2496.050287497433
 31
0.0
  0
LINE
  5
2CB
330
25
100
AcDbEntity
  8
1
  6
Continuous
 62
     0
100
AcDbLine
 10
13565.03762240632
 20
-2496.050287497433
 30
0.0
 11
13565.03762240632
 21
-2490.050287497434
 31
0.0
  0
LINE
  5
2CA
330
25
100
AcDbEntity
  8
1
  6
Continuous
 62
     0
100
AcDbLine
 10
14340.03762240632
 20
-2135.964888620538
 30
0.0
 11
13690.03762240632
 21
-2135.964888620538
 31
0.0
  0
LINE
  5
2C9
330
25
100
AcDbEntity
  8
1
  6
Continuous
 62
     0
100
AcDbLine
 10
13690.03762240632
 20
-2135.964888620538
 30
0.0
 11
13690.03762240632
 21
-2196.050287497434
 31
0.0
  0
LINE
  5
2C8
330
25
100
AcDbEntity
  8
1
  6
Continuous
 62
     0
100
AcDbLine
 10
14115.03762240632
 20
-2296.050287497433
 30
0.0
 11
14115.03762240632
 21
-2490.050287497434
 31
0.0
  0
LINE
  5
2C7
330
25
100
AcDbEntity
  8
1
  6
Continuous
 62
     0
100
AcDbLine
 10
13915.03762240632
 20
-2296.050287497433
 30
0.0
 11
13915.03762240632
 21
-2490.050287497434
 31
0.0
  0
LINE
  5
2C6
330
25
100
AcDbEntity
  8
1
  6
Continuous
 62
     0
100
AcDbLine
 10
14001.83762240631
 20
-2206.050287497433
 30
0.0
 11
14028.23762240631
 21
-2206.050287497433
 31
0.0
  0
LINE
  5
2C5
330
25
100
AcDbEntity
  8
1
  6
Continuous
 62
     0
100
AcDbLine
 10
14028.23762240631
 20
-2206.050287497433
 30
0.0
 11
14028.23762240631
 21
-2196.925315870703
 31
0.0
  0
LINE
  5
2C4
330
25
100
AcDbEntity
  8
1
  6
Continuous
 62
     0
100
AcDbLine
 10
14001.83762240631
 20
-2206.050287497433
 30
0.0
 11
14001.83762240631
 21
-2196.925315870703
 31
0.0
  0
LINE
  5
2C3
330
25
100
AcDbEntity
  8
1
  6
DOTTED
 62
     0
100
AcDbLine
 10
14028.23762240631
 20
-2196.925315870703
 30
0.0
 11
14028.23762240631
 21
-2195.954440860151
 31
0.0
  0
LINE
  5
2C2
330
25
100
AcDbEntity
  8
1
  6
DOTTED
 62
     0
100
AcDbLine
 10
14001.83762240631
 20
-2196.925315870703
 30
0.0
 11
14001.83762240631
 21
-2195.954440860151
 31
0.0
  0
LINE
  5
2C1
330
25
100
AcDbEntity
  8
1
  6
Continuous
 62
     0
100
AcDbLine
 10
13556.03762240632
 20
-1837.050287497433
 30
0.0
 11
13556.03762240632
 21
-1992.050287497433
 31
0.0
  0
LINE
  5
2C0
330
25
100
AcDbEntity
  8
1
  6
Continuous
 62
     0
100
AcDbLine
 10
13705.80470048499
 20
-2266.645361561079
 30
0.0
 11
13705.80470048499
 21
-2490.050287497434
 31
0.0
  0
LINE
  5
2BF
330
25
100
AcDbEntity
  8
1
  6
Continuous
 62
     0
100
AcDbLine
 10
14324.27054432764
 20
-2490.050287497434
 30
0.0
 11
14324.27054432764
 21
-2266.645361561079
 31
0.0
  0
LINE
  5
2BE
330
25
100
AcDbEntity
  8
1
  6
Continuous
 62
     0
100
AcDbLine
 10
14340.03762240632
 20
-2196.050287497434
 30
0.0
 11
14340.03762240632
 21
-2135.964888620538
 31
0.0
  0
LINE
  5
2BD
330
25
100
AcDbEntity
  8
1
  6
Continuous
 62
     0
100
AcDbLine
 10
14474.03762240632
 20
-1237.050287497433
 30
0.0
 11
14474.03762240632
 21
-1713.050287497433
 31
0.0
  0
LINE
  5
2BA
330
25
100
AcDbEntity
  8
1
  6
Continuous
 62
     0
100
AcDbLine
 10
14000.03762240632
 20
-473.050287497433
 30
0.0
 11
14000.25080871651
 21
-471.203095628513
 31
0.0
  0
LINE
  5
2B9
330
25
100
AcDbEntity
  8
1
  6
Continuous
 62
     0
100
AcDbLine
 10
14026.38816589433
 20
-461.790289073259
 30
0.0
 11
14021.28762240632
 21
-461.23307505356
 31
0.0
  0
LINE
  5
2B8
330
25
100
AcDbEntity
  8
1
  6
Continuous
 62
     0
100
AcDbLine
 10
14029.82443609612
 20
-471.203095628513
 30
0.0
 11
14030.03762240632
 21
-473.050287497433
 31
0.0
  0
LINE
  5
2B7
330
25
100
AcDbEntity
  8
1
  6
Continuous
 62
     0
100
AcDbLine
 10
14000.03762240632
 20
-473.050287497433
 30
0.0
 11
14000.03762240632
 21
-478.050287497433
 31
0.0
  0
LINE
  5
2B6
330
25
100
AcDbEntity
  8
1
  6
Continuous
 62
     0
100
AcDbLine
 10
14030.03762240632
 20
-473.050287497433
 30
0.0
 11
14030.03762240632
 21
-478.050287497433
 31
0.0
  0
LINE
  5
2B5
330
25
100
AcDbEntity
  8
1
  6
Continuous
 62
     0
100
AcDbLine
 10
14000.18646028565
 20
-471.760654404915
 30
0.0
 11
14001.0326607089
 21
-464.428595700469
 31
0.0
  0
LINE
  5
2B4
330
25
100
AcDbEntity
  8
1
  6
Continuous
 62
     0
100
AcDbLine
 10
14029.04258410373
 20
-464.428595700469
 30
0.0
 11
14029.82443609612
 21
-471.203095628513
 31
0.0
  0
LINE
  5
2B3
330
25
100
AcDbEntity
  8
1
  6
Continuous
 62
     0
100
AcDbLine
 10
14000.03762240632
 20
-473.050287497433
 30
0.0
 11
14030.03762240632
 21
-473.050287497433
 31
0.0
  0
LINE
  5
2AE
330
25
100
AcDbEntity
  8
1
  6
Continuous
 62
     0
100
AcDbLine
 10
11802.55117465193
 20
-473.050287497433
 30
0.0
 11
11832.55117465193
 21
-473.050287497433
 31
0.0
  0
LINE
  5
2AD
330
25
100
AcDbEntity
  8
1
  6
Continuous
 62
     0
100
AcDbLine
 10
11831.55613634935
 20
-464.428595700469
 30
0.0
 11
11832.33798834174
 21
-471.203095628513
 31
0.0
  0
LINE
  5
2AC
330
25
100
AcDbEntity
  8
1
  6
Continuous
 62
     0
100
AcDbLine
 10
11802.70001253127
 20
-471.760654404915
 30
0.0
 11
11803.54621295452
 21
-464.428595700469
 31
0.0
  0
LINE
  5
2AB
330
25
100
AcDbEntity
  8
1
  6
Continuous
 62
     0
100
AcDbLine
 10
11809.55921172397
 20
-462.050287497433
 30
0.0
 11
11822.78274808155
 21
-462.050287497433
 31
0.0
  0
LINE
  5
2AA
330
25
100
AcDbEntity
  8
1
  6
Continuous
 62
     0
100
AcDbLine
 10
11832.55117465193
 20
-473.050287497433
 30
0.0
 11
11832.55117465193
 21
-478.050287497433
 31
0.0
  0
LINE
  5
2A9
330
25
100
AcDbEntity
  8
1
  6
Continuous
 62
     0
100
AcDbLine
 10
11802.55117465193
 20
-473.050287497433
 30
0.0
 11
11802.55117465193
 21
-478.050287497433
 31
0.0
  0
LINE
  5
2A8
330
25
100
AcDbEntity
  8
1
  6
Continuous
 62
     0
100
AcDbLine
 10
11832.33798834174
 20
-471.203095628513
 30
0.0
 11
11832.55117465193
 21
-473.050287497433
 31
0.0
  0
LINE
  5
2A7
330
25
100
AcDbEntity
  8
1
  6
Continuous
 62
     0
100
AcDbLine
 10
11828.90171813995
 20
-461.790289073259
 30
0.0
 11
11817.55117465193
 21
-460.550287497433
 31
0.0
  0
LINE
  5
2A6
330
25
100
AcDbEntity
  8
1
  6
Continuous
 62
     0
100
AcDbLine
 10
11817.55117465193
 20
-460.550287497433
 30
0.0
 11
11806.20063116392
 21
-461.790289073259
 31
0.0
  0
LINE
  5
2A5
330
25
100
AcDbEntity
  8
1
  6
Continuous
 62
     0
100
AcDbLine
 10
11802.55117465193
 20
-473.050287497433
 30
0.0
 11
11802.76436096212
 21
-471.203095628513
 31
0.0
  0
LINE
  5
2A3
330
25
100
AcDbEntity
  8
1
  6
Continuous
 62
     0
100
AcDbLine
 10
12276.55117465193
 20
-1237.050287497433
 30
0.0
 11
12276.55117465193
 21
-1992.050287497433
 31
0.0
  0
LINE
  5
2A2
330
25
100
AcDbEntity
  8
1
  6
Continuous
 62
     0
100
AcDbLine
 10
12276.55117465193
 20
-1155.050287497433
 30
0.0
 11
12296.55117465193
 21
-1155.050287497433
 31
0.0
  0
LINE
  5
2A1
330
25
100
AcDbEntity
  8
1
  6
Continuous
 62
     0
100
AcDbLine
 10
12276.55117465193
 20
-1237.050287497433
 30
0.0
 11
12296.55117465193
 21
-1237.050287497433
 31
0.0
  0
LINE
  5
2A0
330
25
100
AcDbEntity
  8
1
  6
Continuous
 62
     0
100
AcDbLine
 10
12296.55117465193
 20
-1237.050287497433
 30
0.0
 11
12296.55117465193
 21
-1155.050287497433
 31
0.0
  0
LINE
  5
29F
330
25
100
AcDbEntity
  8
1
  6
Continuous
 62
     0
100
AcDbLine
 10
12142.55117465193
 20
-2196.050287497434
 30
0.0
 11
12142.55117465193
 21
-2135.964888620538
 31
0.0
  0
LINE
  5
29E
330
25
100
AcDbEntity
  8
1
  6
Continuous
 62
     0
100
AcDbLine
 10
12126.78409657326
 20
-2490.050287497434
 30
0.0
 11
12126.78409657326
 21
-2266.645361561079
 31
0.0
  0
LINE
  5
29D
330
25
100
AcDbEntity
  8
1
  6
Continuous
 62
     0
100
AcDbLine
 10
11508.31825273061
 20
-2266.645361561079
 30
0.0
 11
11508.31825273061
 21
-2490.050287497434
 31
0.0
  0
LINE
  5
29C
330
25
100
AcDbEntity
  8
1
  6
Continuous
 62
     0
100
AcDbLine
 10
11358.55117465193
 20
-1837.050287497433
 30
0.0
 11
11358.55117465193
 21
-1992.050287497433
 31
0.0
  0
LINE
  5
299
330
25
100
AcDbEntity
  8
1
  6
Continuous
 62
     0
100
AcDbLine
 10
11338.55117465193
 20
-1755.050287497433
 30
0.0
 11
11338.55117465193
 21
-1837.050287497433
 31
0.0
  0
LINE
  5
298
330
25
100
AcDbEntity
  8
1
  6
Continuous
 62
     0
100
AcDbLine
 10
11338.55117465193
 20
-1837.050287497433
 30
0.0
 11
11358.55117465193
 21
-1837.050287497433
 31
0.0
  0
LINE
  5
297
330
25
100
AcDbEntity
  8
1
  6
Continuous
 62
     0
100
AcDbLine
 10
11338.55117465193
 20
-1755.050287497433
 30
0.0
 11
11358.55117465193
 21
-1755.050287497433
 31
0.0
  0
LINE
  5
295
330
25
100
AcDbEntity
  8
1
  6
DOTTED
 62
     0
100
AcDbLine
 10
11804.35117465193
 20
-2196.925315870703
 30
0.0
 11
11804.35117465193
 21
-2195.954440860151
 31
0.0
  0
LINE
  5
294
330
25
100
AcDbEntity
  8
1
  6
DOTTED
 62
     0
100
AcDbLine
 10
11830.75117465193
 20
-2196.925315870703
 30
0.0
 11
11830.75117465193
 21
-2195.954440860151
 31
0.0
  0
LINE
  5
293
330
25
100
AcDbEntity
  8
1
  6
Continuous
 62
     0
100
AcDbLine
 10
11804.35117465193
 20
-2206.050287497433
 30
0.0
 11
11804.35117465193
 21
-2196.925315870703
 31
0.0
  0
LINE
  5
292
330
25
100
AcDbEntity
  8
1
  6
Continuous
 62
     0
100
AcDbLine
 10
11830.75117465193
 20
-2206.050287497433
 30
0.0
 11
11830.75117465193
 21
-2196.925315870703
 31
0.0
  0
LINE
  5
291
330
25
100
AcDbEntity
  8
1
  6
Continuous
 62
     0
100
AcDbLine
 10
11804.35117465193
 20
-2206.050287497433
 30
0.0
 11
11830.75117465193
 21
-2206.050287497433
 31
0.0
  0
LINE
  5
290
330
25
100
AcDbEntity
  8
1
  6
Continuous
 62
     0
100
AcDbLine
 10
11717.55117465193
 20
-2296.050287497433
 30
0.0
 11
11717.55117465193
 21
-2490.050287497434
 31
0.0
  0
LINE
  5
28F
330
25
100
AcDbEntity
  8
1
  6
Continuous
 62
     0
100
AcDbLine
 10
11917.55117465193
 20
-2296.050287497433
 30
0.0
 11
11917.55117465193
 21
-2490.050287497434
 31
0.0
  0
LINE
  5
28E
330
25
100
AcDbEntity
  8
1
  6
Continuous
 62
     0
100
AcDbLine
 10
11492.55117465193
 20
-2135.964888620538
 30
0.0
 11
11492.55117465193
 21
-2196.050287497434
 31
0.0
  0
LINE
  5
28D
330
25
100
AcDbEntity
  8
1
  6
Continuous
 62
     0
100
AcDbLine
 10
12142.55117465193
 20
-2135.964888620538
 30
0.0
 11
11492.55117465193
 21
-2135.964888620538
 31
0.0
  0
LINE
  5
28C
330
25
100
AcDbEntity
  8
1
  6
Continuous
 62
     0
100
AcDbLine
 10
11367.55117465193
 20
-2496.050287497433
 30
0.0
 11
11367.55117465193
 21
-2490.050287497434
 31
0.0
  0
LINE
  5
28B
330
25
100
AcDbEntity
  8
1
  6
Continuous
 62
     0
100
AcDbLine
 10
12267.55117465193
 20
-2496.050287497433
 30
0.0
 11
11367.55117465193
 21
-2496.050287497433
 31
0.0
  0
LINE
  5
28A
330
25
100
AcDbEntity
  8
1
  6
Continuous
 62
     0
100
AcDbLine
 10
12267.55117465193
 20
-2490.050287497434
 30
0.0
 11
12267.55117465193
 21
-2496.050287497433
 31
0.0
  0
LINE
  5
289
330
25
100
AcDbEntity
  8
1
  6
Continuous
 62
     0
100
AcDbLine
 10
11367.55117465193
 20
-2490.050287497434
 30
0.0
 11
12267.55117465193
 21
-2490.050287497434
 31
0.0
  0
LINE
  5
288
330
25
100
AcDbEntity
  8
1
  6
Continuous
 62
     0
100
AcDbLine
 10
11358.55117465193
 20
-682.050287497433
 30
0.0
 11
11358.55117465193
 21
-1755.050287497433
 31
0.0
  0
LINE
  5
287
330
25
100
AcDbEntity
  8
1
  6
Continuous
 62
     0
100
AcDbLine
 10
12276.55117465193
 20
-682.050287497433
 30
0.0
 11
12276.55117465193
 21
-1155.050287497433
 31
0.0
  0
LINE
  5
286
330
25
100
AcDbEntity
  8
1
  6
Continuous
 62
     0
100
AcDbLine
 10
11358.55117465193
 20
-682.050287497433
 30
0.0
 11
11358.55117465193
 21
-660.978618600274
 31
0.0
  0
LINE
  5
285
330
25
100
AcDbEntity
  8
1
  6
Continuous
 62
     0
100
AcDbLine
 10
12276.55117465193
 20
-660.978618600274
 30
0.0
 11
12276.55117465193
 21
-682.050287497433
 31
0.0
  0
LINE
  5
284
330
25
100
AcDbEntity
  8
1
  6
Continuous
 62
     0
100
AcDbLine
 10
11358.55117465193
 20
-682.050287497433
 30
0.0
 11
12276.55117465193
 21
-682.050287497433
 31
0.0
  0
LINE
  5
283
330
25
100
AcDbEntity
  8
1
  6
Continuous
 62
     0
100
AcDbLine
 10
12276.55117465193
 20
-1992.050287497433
 30
0.0
 11
11358.55117465193
 21
-1992.050287497433
 31
0.0
  0
LINE
  5
282
330
25
100
AcDbEntity
  8
1
  6
Continuous
 62
     0
100
AcDbLine
 10
12276.55117465193
 20
-1992.050287497433
 30
0.0
 11
12276.55117465193
 21
-2013.121956394592
 31
0.0
  0
LINE
  5
281
330
25
100
AcDbEntity
  8
1
  6
Continuous
 62
     0
100
AcDbLine
 10
11358.55117465193
 20
-2013.121956394592
 30
0.0
 11
11358.55117465193
 21
-1992.050287497433
 31
0.0
  0
LINE
  5
280
330
25
100
AcDbEntity
  8
1
  6
Continuous
 62
     0
100
AcDbLine
 10
13536.03762240632
 20
-1229.200287497433
 30
0.0
 11
13536.03762240632
 21
-1162.900287497432
 31
0.0
  0
LINE
  5
27F
330
25
100
AcDbEntity
  8
1
  6
Continuous
 62
     0
100
AcDbLine
 10
13556.03762240632
 20
-1229.200287497433
 30
0.0
 11
13536.03762240632
 21
-1229.200287497433
 31
0.0
  0
LINE
  5
27E
330
25
100
AcDbEntity
  8
1
  6
Continuous
 62
     0
100
AcDbLine
 10
13556.03762240632
 20
-1162.900287497432
 30
0.0
 11
13536.03762240632
 21
-1162.900287497432
 31
0.0
  0
LINE
  5
27B
330
25
100
AcDbEntity
  8
1
  6
Continuous
 62
     0
100
AcDbLine
 10
14506.03762240632
 20
-1722.307816715477
 30
0.0
 11
14504.96582563659
 21
-1720.451410254927
 31
0.0
  0
LINE
  5
27A
330
25
100
AcDbEntity
  8
1
  6
Continuous
 62
     0
100
AcDbLine
 10
14504.96582563659
 20
-1748.164223176029
 30
0.0
 11
14506.03762240632
 21
-1746.307816715477
 31
0.0
  0
LINE
  5
279
330
25
100
AcDbEntity
  8
1
  6
Continuous
 62
     0
100
AcDbLine
 10
14496.03762240632
 20
-1748.164223176029
 30
0.0
 11
14504.96582563659
 21
-1748.164223176029
 31
0.0
  0
LINE
  5
278
330
25
100
AcDbEntity
  8
1
  6
Continuous
 62
     0
100
AcDbLine
 10
14506.03762240632
 20
-1746.307816715477
 30
0.0
 11
14506.03762240632
 21
-1722.307816715477
 31
0.0
  0
LINE
  5
277
330
25
100
AcDbEntity
  8
1
  6
Continuous
 62
     0
100
AcDbLine
 10
14504.96582563659
 20
-1720.451410254927
 30
0.0
 11
14496.03762240632
 21
-1720.451410254927
 31
0.0
  0
LINE
  5
276
330
25
100
AcDbEntity
  8
1
  6
Continuous
 62
     0
100
AcDbLine
 10
14496.03762240632
 20
-1741.236019945753
 30
0.0
 11
14504.96582563659
 21
-1741.236019945753
 31
0.0
  0
LINE
  5
275
330
25
100
AcDbEntity
  8
1
  6
Continuous
 62
     0
100
AcDbLine
 10
14496.03762240632
 20
-1727.379613485202
 30
0.0
 11
14504.96582563659
 21
-1727.379613485202
 31
0.0
  0
LINE
  5
274
330
25
100
AcDbEntity
  8
1
  6
Continuous
 62
     0
100
AcDbLine
 10
14492.03762240632
 20
-1748.307816715477
 30
0.0
 11
14496.03762240632
 21
-1748.307816715477
 31
0.0
  0
LINE
  5
273
330
25
100
AcDbEntity
  8
1
  6
Continuous
 62
     0
100
AcDbLine
 10
14496.03762240632
 20
-1748.307816715477
 30
0.0
 11
14496.03762240632
 21
-1720.307816715477
 31
0.0
  0
LINE
  5
272
330
25
100
AcDbEntity
  8
1
  6
Continuous
 62
     0
100
AcDbLine
 10
14496.03762240632
 20
-1720.307816715477
 30
0.0
 11
14492.03762240632
 21
-1720.307816715477
 31
0.0
  0
LINE
  5
271
330
25
100
AcDbEntity
  8
1
  6
Continuous
 62
     0
100
AcDbLine
 10
14496.03762240632
 20
-1735.241150048811
 30
0.0
 11
14492.03762240632
 21
-1736.384007191668
 31
0.0
  0
LINE
  5
270
330
25
100
AcDbEntity
  8
1
  6
Continuous
 62
     0
100
AcDbLine
 10
14496.03762240632
 20
-1732.231626239287
 30
0.0
 11
14492.03762240632
 21
-1733.374483382144
 31
0.0
  0
LINE
  5
26F
330
25
100
AcDbEntity
  8
1
  6
Continuous
 62
     0
100
AcDbLine
 10
14489.03762240632
 20
-1749.307816715477
 30
0.0
 11
14492.03762240632
 21
-1749.307816715477
 31
0.0
  0
LINE
  5
26E
330
25
100
AcDbEntity
  8
1
  6
Continuous
 62
     0
100
AcDbLine
 10
14492.03762240632
 20
-1749.307816715477
 30
0.0
 11
14492.03762240632
 21
-1719.307816715477
 31
0.0
  0
LINE
  5
26D
330
25
100
AcDbEntity
  8
1
  6
Continuous
 62
     0
100
AcDbLine
 10
14492.03762240632
 20
-1719.307816715477
 30
0.0
 11
14489.03762240632
 21
-1719.307816715477
 31
0.0
  0
LINE
  5
26C
330
25
100
AcDbEntity
  8
1
  6
Continuous
 62
     0
100
AcDbLine
 10
14489.03762240632
 20
-1719.307816715477
 30
0.0
 11
14489.03762240632
 21
-1749.307816715477
 31
0.0
  0
LINE
  5
269
330
25
100
AcDbEntity
  8
1
  6
Continuous
 62
     0
100
AcDbLine
 10
14489.03762240632
 20
-1753.132572974615
 30
0.0
 11
14489.03762240632
 21
-1783.132572974615
 31
0.0
  0
LINE
  5
268
330
25
100
AcDbEntity
  8
1
  6
Continuous
 62
     0
100
AcDbLine
 10
14492.03762240632
 20
-1753.132572974615
 30
0.0
 11
14489.03762240632
 21
-1753.132572974615
 31
0.0
  0
LINE
  5
267
330
25
100
AcDbEntity
  8
1
  6
Continuous
 62
     0
100
AcDbLine
 10
14492.03762240632
 20
-1783.132572974615
 30
0.0
 11
14492.03762240632
 21
-1753.132572974615
 31
0.0
  0
LINE
  5
266
330
25
100
AcDbEntity
  8
1
  6
Continuous
 62
     0
100
AcDbLine
 10
14489.03762240632
 20
-1783.132572974615
 30
0.0
 11
14492.03762240632
 21
-1783.132572974615
 31
0.0
  0
LINE
  5
265
330
25
100
AcDbEntity
  8
1
  6
Continuous
 62
     0
100
AcDbLine
 10
14496.03762240632
 20
-1766.056382498424
 30
0.0
 11
14492.03762240632
 21
-1767.199239641282
 31
0.0
  0
LINE
  5
264
330
25
100
AcDbEntity
  8
1
  6
Continuous
 62
     0
100
AcDbLine
 10
14496.03762240632
 20
-1769.065906307947
 30
0.0
 11
14492.03762240632
 21
-1770.208763450805
 31
0.0
  0
LINE
  5
263
330
25
100
AcDbEntity
  8
1
  6
Continuous
 62
     0
100
AcDbLine
 10
14496.03762240632
 20
-1754.132572974615
 30
0.0
 11
14492.03762240632
 21
-1754.132572974615
 31
0.0
  0
LINE
  5
262
330
25
100
AcDbEntity
  8
1
  6
Continuous
 62
     0
100
AcDbLine
 10
14496.03762240632
 20
-1782.132572974615
 30
0.0
 11
14496.03762240632
 21
-1754.132572974615
 31
0.0
  0
LINE
  5
261
330
25
100
AcDbEntity
  8
1
  6
Continuous
 62
     0
100
AcDbLine
 10
14492.03762240632
 20
-1782.132572974615
 30
0.0
 11
14496.03762240632
 21
-1782.132572974615
 31
0.0
  0
LINE
  5
260
330
25
100
AcDbEntity
  8
1
  6
Continuous
 62
     0
100
AcDbLine
 10
14496.03762240632
 20
-1761.204369744339
 30
0.0
 11
14504.96582563659
 21
-1761.204369744339
 31
0.0
  0
LINE
  5
25F
330
25
100
AcDbEntity
  8
1
  6
Continuous
 62
     0
100
AcDbLine
 10
14496.03762240632
 20
-1775.06077620489
 30
0.0
 11
14504.96582563659
 21
-1775.06077620489
 31
0.0
  0
LINE
  5
25E
330
25
100
AcDbEntity
  8
1
  6
Continuous
 62
     0
100
AcDbLine
 10
14504.96582563659
 20
-1754.276166514064
 30
0.0
 11
14496.03762240632
 21
-1754.276166514064
 31
0.0
  0
LINE
  5
25D
330
25
100
AcDbEntity
  8
1
  6
Continuous
 62
     0
100
AcDbLine
 10
14506.03762240632
 20
-1780.132572974615
 30
0.0
 11
14506.03762240632
 21
-1756.132572974615
 31
0.0
  0
LINE
  5
25C
330
25
100
AcDbEntity
  8
1
  6
Continuous
 62
     0
100
AcDbLine
 10
14496.03762240632
 20
-1781.988979435166
 30
0.0
 11
14504.96582563659
 21
-1781.988979435166
 31
0.0
  0
LINE
  5
25B
330
25
100
AcDbEntity
  8
1
  6
Continuous
 62
     0
100
AcDbLine
 10
14504.96582563659
 20
-1781.988979435166
 30
0.0
 11
14506.03762240632
 21
-1780.132572974615
 31
0.0
  0
LINE
  5
25A
330
25
100
AcDbEntity
  8
1
  6
Continuous
 62
     0
100
AcDbLine
 10
14506.03762240632
 20
-1756.132572974615
 30
0.0
 11
14504.96582563659
 21
-1754.276166514064
 31
0.0
  0
LINE
  5
259
330
25
100
AcDbEntity
  8
1
  6
Continuous
 62
     0
100
AcDbLine
 10
14504.96582563659
 20
-1829.824408480802
 30
0.0
 11
14506.03762240632
 21
-1827.96800202025
 31
0.0
  0
LINE
  5
258
330
25
100
AcDbEntity
  8
1
  6
Continuous
 62
     0
100
AcDbLine
 10
14506.03762240632
 20
-1803.96800202025
 30
0.0
 11
14504.96582563659
 21
-1802.1115955597
 31
0.0
  0
LINE
  5
257
330
25
100
AcDbEntity
  8
1
  6
Continuous
 62
     0
100
AcDbLine
 10
14504.96582563659
 20
-1802.1115955597
 30
0.0
 11
14496.03762240632
 21
-1802.1115955597
 31
0.0
  0
LINE
  5
256
330
25
100
AcDbEntity
  8
1
  6
Continuous
 62
     0
100
AcDbLine
 10
14506.03762240632
 20
-1827.96800202025
 30
0.0
 11
14506.03762240632
 21
-1803.96800202025
 31
0.0
  0
LINE
  5
255
330
25
100
AcDbEntity
  8
1
  6
Continuous
 62
     0
100
AcDbLine
 10
14496.03762240632
 20
-1829.824408480802
 30
0.0
 11
14504.96582563659
 21
-1829.824408480802
 31
0.0
  0
LINE
  5
254
330
25
100
AcDbEntity
  8
1
  6
Continuous
 62
     0
100
AcDbLine
 10
14504.96582563659
 20
-1809.039798789976
 30
0.0
 11
14496.03762240632
 21
-1809.039798789976
 31
0.0
  0
LINE
  5
253
330
25
100
AcDbEntity
  8
1
  6
Continuous
 62
     0
100
AcDbLine
 10
14504.96582563659
 20
-1822.896205250527
 30
0.0
 11
14496.03762240632
 21
-1822.896205250527
 31
0.0
  0
LINE
  5
252
330
25
100
AcDbEntity
  8
1
  6
Continuous
 62
     0
100
AcDbLine
 10
14496.03762240632
 20
-1801.96800202025
 30
0.0
 11
14492.03762240632
 21
-1801.96800202025
 31
0.0
  0
LINE
  5
251
330
25
100
AcDbEntity
  8
1
  6
Continuous
 62
     0
100
AcDbLine
 10
14496.03762240632
 20
-1829.96800202025
 30
0.0
 11
14496.03762240632
 21
-1801.96800202025
 31
0.0
  0
LINE
  5
250
330
25
100
AcDbEntity
  8
1
  6
Continuous
 62
     0
100
AcDbLine
 10
14492.03762240632
 20
-1829.96800202025
 30
0.0
 11
14496.03762240632
 21
-1829.96800202025
 31
0.0
  0
LINE
  5
24F
330
25
100
AcDbEntity
  8
1
  6
Continuous
 62
     0
100
AcDbLine
 10
14492.03762240632
 20
-1813.891811544061
 30
0.0
 11
14496.03762240632
 21
-1815.034668686918
 31
0.0
  0
LINE
  5
24E
330
25
100
AcDbEntity
  8
1
  6
Continuous
 62
     0
100
AcDbLine
 10
14492.03762240632
 20
-1816.901335353585
 30
0.0
 11
14496.03762240632
 21
-1818.044192496442
 31
0.0
  0
LINE
  5
24D
330
25
100
AcDbEntity
  8
1
  6
Continuous
 62
     0
100
AcDbLine
 10
14492.03762240632
 20
-1800.96800202025
 30
0.0
 11
14489.03762240632
 21
-1800.96800202025
 31
0.0
  0
LINE
  5
24C
330
25
100
AcDbEntity
  8
1
  6
Continuous
 62
     0
100
AcDbLine
 10
14492.03762240632
 20
-1830.96800202025
 30
0.0
 11
14492.03762240632
 21
-1800.96800202025
 31
0.0
  0
LINE
  5
24B
330
25
100
AcDbEntity
  8
1
  6
Continuous
 62
     0
100
AcDbLine
 10
14489.03762240632
 20
-1830.96800202025
 30
0.0
 11
14492.03762240632
 21
-1830.96800202025
 31
0.0
  0
LINE
  5
24A
330
25
100
AcDbEntity
  8
1
  6
Continuous
 62
     0
100
AcDbLine
 10
14489.03762240632
 20
-1800.96800202025
 30
0.0
 11
14489.03762240632
 21
-1830.96800202025
 31
0.0
  0
LINE
  5
247
330
25
100
AcDbEntity
  8
1
  6
Continuous
 62
     0
100
AcDbLine
 10
14489.03762240632
 20
-1834.792758279388
 30
0.0
 11
14489.03762240632
 21
-1864.792758279388
 31
0.0
  0
LINE
  5
246
330
25
100
AcDbEntity
  8
1
  6
Continuous
 62
     0
100
AcDbLine
 10
14489.03762240632
 20
-1864.792758279388
 30
0.0
 11
14492.03762240632
 21
-1864.792758279388
 31
0.0
  0
LINE
  5
245
330
25
100
AcDbEntity
  8
1
  6
Continuous
 62
     0
100
AcDbLine
 10
14492.03762240632
 20
-1864.792758279388
 30
0.0
 11
14492.03762240632
 21
-1834.792758279388
 31
0.0
  0
LINE
  5
244
330
25
100
AcDbEntity
  8
1
  6
Continuous
 62
     0
100
AcDbLine
 10
14492.03762240632
 20
-1834.792758279388
 30
0.0
 11
14489.03762240632
 21
-1834.792758279388
 31
0.0
  0
LINE
  5
243
330
25
100
AcDbEntity
  8
1
  6
Continuous
 62
     0
100
AcDbLine
 10
14492.03762240632
 20
-1850.726091612722
 30
0.0
 11
14496.03762240632
 21
-1851.868948755579
 31
0.0
  0
LINE
  5
242
330
25
100
AcDbEntity
  8
1
  6
Continuous
 62
     0
100
AcDbLine
 10
14492.03762240632
 20
-1847.716567803198
 30
0.0
 11
14496.03762240632
 21
-1848.859424946055
 31
0.0
  0
LINE
  5
241
330
25
100
AcDbEntity
  8
1
  6
Continuous
 62
     0
100
AcDbLine
 10
14492.03762240632
 20
-1863.792758279388
 30
0.0
 11
14496.03762240632
 21
-1863.792758279388
 31
0.0
  0
LINE
  5
240
330
25
100
AcDbEntity
  8
1
  6
Continuous
 62
     0
100
AcDbLine
 10
14496.03762240632
 20
-1863.792758279388
 30
0.0
 11
14496.03762240632
 21
-1835.792758279388
 31
0.0
  0
LINE
  5
23F
330
25
100
AcDbEntity
  8
1
  6
Continuous
 62
     0
100
AcDbLine
 10
14496.03762240632
 20
-1835.792758279388
 30
0.0
 11
14492.03762240632
 21
-1835.792758279388
 31
0.0
  0
LINE
  5
23E
330
25
100
AcDbEntity
  8
1
  6
Continuous
 62
     0
100
AcDbLine
 10
14504.96582563659
 20
-1856.720961509664
 30
0.0
 11
14496.03762240632
 21
-1856.720961509664
 31
0.0
  0
LINE
  5
23D
330
25
100
AcDbEntity
  8
1
  6
Continuous
 62
     0
100
AcDbLine
 10
14504.96582563659
 20
-1842.864555049113
 30
0.0
 11
14496.03762240632
 21
-1842.864555049113
 31
0.0
  0
LINE
  5
23C
330
25
100
AcDbEntity
  8
1
  6
Continuous
 62
     0
100
AcDbLine
 10
14496.03762240632
 20
-1863.64916473994
 30
0.0
 11
14504.96582563659
 21
-1863.64916473994
 31
0.0
  0
LINE
  5
23B
330
25
100
AcDbEntity
  8
1
  6
Continuous
 62
     0
100
AcDbLine
 10
14506.03762240632
 20
-1861.792758279388
 30
0.0
 11
14506.03762240632
 21
-1837.792758279388
 31
0.0
  0
LINE
  5
23A
330
25
100
AcDbEntity
  8
1
  6
Continuous
 62
     0
100
AcDbLine
 10
14504.96582563659
 20
-1835.936351818838
 30
0.0
 11
14496.03762240632
 21
-1835.936351818838
 31
0.0
  0
LINE
  5
239
330
25
100
AcDbEntity
  8
1
  6
Continuous
 62
     0
100
AcDbLine
 10
14506.03762240632
 20
-1837.792758279388
 30
0.0
 11
14504.96582563659
 21
-1835.936351818838
 31
0.0
  0
LINE
  5
238
330
25
100
AcDbEntity
  8
1
  6
Continuous
 62
     0
100
AcDbLine
 10
14504.96582563659
 20
-1863.64916473994
 30
0.0
 11
14506.03762240632
 21
-1861.792758279388
 31
0.0
  0
LINE
  5
237
330
25
100
AcDbEntity
  8
1
  6
Continuous
 62
     0
100
AcDbLine
 10
11807.07367465193
 20
-2223.730287497433
 30
0.0
 11
11806.70117465193
 21
-2216.390287497433
 31
0.0
  0
LINE
  5
236
330
25
100
AcDbEntity
  8
1
  6
Continuous
 62
     0
100
AcDbLine
 10
11828.02867465193
 20
-2223.730287497433
 30
0.0
 11
11828.40117465193
 21
-2216.390287497433
 31
0.0
  0
LINE
  5
235
330
25
100
AcDbEntity
  8
1
  6
Continuous
 62
     0
100
AcDbLine
 10
11828.40117465193
 20
-2213.390287497433
 30
0.0
 11
11828.02867465193
 21
-2206.050287497433
 31
0.0
  0
LINE
  5
234
330
25
100
AcDbEntity
  8
1
  6
Continuous
 62
     0
100
AcDbLine
 10
11806.70117465193
 20
-2213.390287497433
 30
0.0
 11
11807.07367465193
 21
-2206.050287497433
 31
0.0
  0
LINE
  5
233
330
25
100
AcDbEntity
  8
1
  6
Continuous
 62
     0
100
AcDbLine
 10
11806.70117465193
 20
-2213.390287497433
 30
0.0
 11
11806.70117465193
 21
-2216.390287497433
 31
0.0
  0
LINE
  5
232
330
25
100
AcDbEntity
  8
1
  6
Continuous
 62
     0
100
AcDbLine
 10
11828.40117465193
 20
-2216.390287497433
 30
0.0
 11
11806.70117465193
 21
-2216.390287497433
 31
0.0
  0
LINE
  5
231
330
25
100
AcDbEntity
  8
1
  6
Continuous
 62
     0
100
AcDbLine
 10
11806.70117465193
 20
-2213.390287497433
 30
0.0
 11
11828.40117465193
 21
-2213.390287497433
 31
0.0
  0
LINE
  5
230
330
25
100
AcDbEntity
  8
1
  6
Continuous
 62
     0
100
AcDbLine
 10
11828.40117465193
 20
-2213.390287497433
 30
0.0
 11
11828.40117465193
 21
-2216.390287497433
 31
0.0
  0
LINE
  5
22F
330
25
100
AcDbEntity
  8
1
  6
Continuous
 62
     0
100
AcDbLine
 10
11806.18493138167
 20
-2255.280287497433
 30
0.0
 11
11827.45117465193
 21
-2255.280287497433
 31
0.0
  0
LINE
  5
22E
330
25
100
AcDbEntity
  8
1
  6
Continuous
 62
     0
100
AcDbLine
 10
11806.18493138167
 20
-2244.280287497433
 30
0.0
 11
11827.45117465193
 21
-2244.280287497433
 31
0.0
  0
LINE
  5
22D
330
25
100
AcDbEntity
  8
1
  6
Continuous
 62
     0
100
AcDbLine
 10
11828.45117465193
 20
-2256.680287497432
 30
0.0
 11
11827.45117465193
 21
-2255.280287497433
 31
0.0
  0
LINE
  5
22C
330
25
100
AcDbEntity
  8
1
  6
Continuous
 62
     0
100
AcDbLine
 10
11828.45117465193
 20
-2242.880287497432
 30
0.0
 11
11827.45117465193
 21
-2244.280287497433
 31
0.0
  0
LINE
  5
22B
330
25
100
AcDbEntity
  8
1
  6
Continuous
 62
     0
100
AcDbLine
 10
11806.18493138167
 20
-2244.280287497433
 30
0.0
 11
11806.18493138167
 21
-2255.280287497433
 31
0.0
  0
LINE
  5
22A
330
25
100
AcDbEntity
  8
1
  6
Continuous
 62
     0
100
AcDbLine
 10
11805.05117465193
 20
-2256.680287497432
 30
0.0
 11
11806.18493138167
 21
-2255.280287497433
 31
0.0
  0
LINE
  5
229
330
25
100
AcDbEntity
  8
1
  6
Continuous
 62
     0
100
AcDbLine
 10
11805.05117465193
 20
-2242.880287497432
 30
0.0
 11
11806.18493138167
 21
-2244.280287497433
 31
0.0
  0
LINE
  5
228
330
25
100
AcDbEntity
  8
1
  6
Continuous
 62
     0
100
AcDbLine
 10
11828.45117465193
 20
-2270.422786579221
 30
0.0
 11
11828.45117465193
 21
-2256.230287497432
 31
0.0
  0
LINE
  5
227
330
25
100
AcDbEntity
  8
1
  6
Continuous
 62
     0
100
AcDbLine
 10
11828.45117465193
 20
-2233.537788415646
 30
0.0
 11
11828.45117465193
 21
-2245.730287497432
 31
0.0
  0
LINE
  5
226
330
25
100
AcDbEntity
  8
1
  6
Continuous
 62
     0
100
AcDbLine
 10
11830.05117465193
 20
-2257.730287497433
 30
0.0
 11
11831.65117465193
 21
-2257.730287497433
 31
0.0
  0
LINE
  5
225
330
25
100
AcDbEntity
  8
1
  6
Continuous
 62
     0
100
AcDbLine
 10
11830.05117465193
 20
-2244.730287497433
 30
0.0
 11
11831.65117465193
 21
-2244.730287497433
 31
0.0
  0
LINE
  5
224
330
25
100
AcDbEntity
  8
1
  6
Continuous
 62
     0
100
AcDbLine
 10
11836.07982330058
 20
-2263.630287497432
 30
0.0
 11
11831.65117465193
 21
-2263.630287497432
 31
0.0
  0
LINE
  5
223
330
25
100
AcDbEntity
  8
1
  6
Continuous
 62
     0
100
AcDbLine
 10
11840.55117465193
 20
-2281.230287497433
 30
0.0
 11
11835.85117465193
 21
-2262.730287497433
 31
0.0
  0
LINE
  5
222
330
25
100
AcDbEntity
  8
1
  6
Continuous
 62
     0
100
AcDbLine
 10
11840.55117465193
 20
-2281.230287497433
 30
0.0
 11
11848.55117465193
 21
-2281.230287497433
 31
0.0
  0
LINE
  5
221
330
25
100
AcDbEntity
  8
1
  6
Continuous
 62
     0
100
AcDbLine
 10
11848.55117465193
 20
-2262.816917723691
 30
0.0
 11
11848.55117465193
 21
-2281.230287497433
 31
0.0
  0
LINE
  5
220
330
25
100
AcDbEntity
  8
1
  6
Continuous
 62
     0
100
AcDbLine
 10
11831.65117465193
 20
-2238.830287497433
 30
0.0
 11
11836.07982330058
 21
-2238.830287497433
 31
0.0
  0
LINE
  5
21F
330
25
100
AcDbEntity
  8
1
  6
Continuous
 62
     0
100
AcDbLine
 10
11831.65117465193
 20
-2238.330287497433
 30
0.0
 11
11836.20685032761
 21
-2238.330287497433
 31
0.0
  0
LINE
  5
21E
330
25
100
AcDbEntity
  8
1
  6
Continuous
 62
     0
100
AcDbLine
 10
11835.85117465193
 20
-2239.730287497433
 30
0.0
 11
11840.55117465193
 21
-2221.230287497433
 31
0.0
  0
LINE
  5
21D
330
25
100
AcDbEntity
  8
1
  6
Continuous
 62
     0
100
AcDbLine
 10
11840.55117465193
 20
-2221.230287497433
 30
0.0
 11
11848.55117465193
 21
-2221.230287497433
 31
0.0
  0
LINE
  5
21C
330
25
100
AcDbEntity
  8
1
  6
Continuous
 62
     0
100
AcDbLine
 10
11830.05117465193
 20
-2280.230287497431
 30
0.0
 11
11805.05117465193
 21
-2280.230287497432
 31
0.0
  0
LINE
  5
21B
330
25
100
AcDbEntity
  8
1
  6
Continuous
 62
     0
100
AcDbLine
 10
11805.05117465193
 20
-2280.230287497432
 30
0.0
 11
11805.05117465193
 21
-2223.730287497432
 31
0.0
  0
LINE
  5
21A
330
25
100
AcDbEntity
  8
1
  6
Continuous
 62
     0
100
AcDbLine
 10
11805.05117465193
 20
-2223.730287497432
 30
0.0
 11
11830.05117465193
 21
-2223.730287497433
 31
0.0
  0
LINE
  5
219
330
25
100
AcDbEntity
  8
1
  6
Continuous
 62
     0
100
AcDbLine
 10
11830.05117465193
 20
-2280.230287497431
 30
0.0
 11
11830.05117465193
 21
-2223.730287497433
 31
0.0
  0
LINE
  5
218
330
25
100
AcDbEntity
  8
1
  6
Continuous
 62
     0
100
AcDbLine
 10
11848.55117465193
 20
-2221.230287497433
 30
0.0
 11
11848.55117465193
 21
-2239.643657271176
 31
0.0
  0
LINE
  5
217
330
25
100
AcDbEntity
  8
1
  6
Continuous
 62
     0
100
AcDbLine
 10
11835.85117465193
 20
-2262.730287497433
 30
0.0
 11
11835.85117465193
 21
-2239.730287497433
 31
0.0
  0
LINE
  5
216
330
25
100
AcDbEntity
  8
1
  6
Continuous
 62
     0
100
AcDbLine
 10
11831.65117465193
 20
-2263.630287497432
 30
0.0
 11
11831.65117465193
 21
-2241.230287497433
 31
0.0
  0
LINE
  5
215
330
25
100
AcDbEntity
  8
1
  6
Continuous
 62
     0
100
AcDbLine
 10
11831.65117465193
 20
-2238.330287497433
 30
0.0
 11
11831.65117465193
 21
-2241.230287497433
 31
0.0
  0
LINE
  5
213
330
25
100
AcDbEntity
  8
1
  6
Continuous
 62
     0
100
AcDbLine
 10
11817.55117465193
 20
-2224.846742465894
 30
0.0
 11
11817.55117465193
 21
-2233.030499195642
 31
0.0
  0
LINE
  5
212
330
25
100
AcDbEntity
  8
1
  6
Continuous
 62
     0
100
AcDbLine
 10
11817.55117465193
 20
-2270.930075799224
 30
0.0
 11
11817.55117465193
 21
-2279.11383252897
 31
0.0
  0
LINE
  5
210
330
25
100
AcDbEntity
  8
1
  6
Continuous
 62
     0
100
AcDbLine
 10
11835.15117465193
 20
-2237.230287497432
 30
0.0
 11
11835.15117465193
 21
-2238.330287497433
 31
0.0
  0
LINE
  5
20F
330
25
100
AcDbEntity
  8
1
  6
Continuous
 62
     0
100
AcDbLine
 10
11830.05117465193
 20
-2237.230287497432
 30
0.0
 11
11835.15117465193
 21
-2237.230287497432
 31
0.0
  0
LINE
  5
20E
330
25
100
AcDbEntity
  8
1
  6
Continuous
 62
     0
100
AcDbLine
 10
11830.05117465193
 20
-2242.230287497432
 30
0.0
 11
11831.65117465193
 21
-2242.230287497432
 31
0.0
  0
LINE
  5
20C
330
25
100
AcDbEntity
  8
1
  6
Continuous
 62
     0
100
AcDbLine
 10
14015.03762240632
 20
-2233.030499195642
 30
0.0
 11
14015.03762240632
 21
-2224.846742465894
 31
0.0
  0
LINE
  5
20B
330
25
100
AcDbEntity
  8
1
  6
Continuous
 62
     0
100
AcDbLine
 10
14002.53762240632
 20
-2223.730287497432
 30
0.0
 11
14027.53762240632
 21
-2223.730287497433
 31
0.0
  0
LINE
  5
20A
330
25
100
AcDbEntity
  8
1
  6
Continuous
 62
     0
100
AcDbLine
 10
14025.88762240632
 20
-2213.390287497433
 30
0.0
 11
14025.88762240632
 21
-2216.390287497433
 31
0.0
  0
LINE
  5
209
330
25
100
AcDbEntity
  8
1
  6
Continuous
 62
     0
100
AcDbLine
 10
14004.18762240631
 20
-2213.390287497433
 30
0.0
 11
14025.88762240632
 21
-2213.390287497433
 31
0.0
  0
LINE
  5
208
330
25
100
AcDbEntity
  8
1
  6
Continuous
 62
     0
100
AcDbLine
 10
14025.88762240632
 20
-2216.390287497433
 30
0.0
 11
14004.18762240631
 21
-2216.390287497433
 31
0.0
  0
LINE
  5
207
330
25
100
AcDbEntity
  8
1
  6
Continuous
 62
     0
100
AcDbLine
 10
14004.18762240631
 20
-2213.390287497433
 30
0.0
 11
14004.18762240631
 21
-2216.390287497433
 31
0.0
  0
LINE
  5
206
330
25
100
AcDbEntity
  8
1
  6
Continuous
 62
     0
100
AcDbLine
 10
14004.18762240631
 20
-2213.390287497433
 30
0.0
 11
14004.56012240631
 21
-2206.050287497433
 31
0.0
  0
LINE
  5
205
330
25
100
AcDbEntity
  8
1
  6
Continuous
 62
     0
100
AcDbLine
 10
14025.88762240632
 20
-2213.390287497433
 30
0.0
 11
14025.51512240631
 21
-2206.050287497433
 31
0.0
  0
LINE
  5
204
330
25
100
AcDbEntity
  8
1
  6
Continuous
 62
     0
100
AcDbLine
 10
14025.51512240631
 20
-2223.730287497433
 30
0.0
 11
14025.88762240632
 21
-2216.390287497433
 31
0.0
  0
LINE
  5
203
330
25
100
AcDbEntity
  8
1
  6
Continuous
 62
     0
100
AcDbLine
 10
14004.56012240631
 20
-2223.730287497433
 30
0.0
 11
14004.18762240631
 21
-2216.390287497433
 31
0.0
  0
LINE
  5
202
330
25
100
AcDbEntity
  8
1
  6
Continuous
 62
     0
100
AcDbLine
 10
14001.83762240631
 20
-2206.050287497433
 30
0.0
 11
14028.23762240631
 21
-2206.050287497433
 31
0.0
  0
LINE
  5
201
330
25
100
AcDbEntity
  8
1
  6
Continuous
 62
     0
100
AcDbLine
 10
14029.47137913607
 20
-2279.113832528969
 30
0.0
 11
14027.53762240632
 21
-2280.230287497432
 31
0.0
  0
LINE
  5
200
330
25
100
AcDbEntity
  8
1
  6
Continuous
 62
     0
100
AcDbLine
 10
14002.53762240632
 20
-2280.230287497432
 30
0.0
 11
14000.60386567657
 21
-2279.113832528969
 31
0.0
  0
LINE
  5
1FF
330
25
100
AcDbEntity
  8
1
  6
Continuous
 62
     0
100
AcDbLine
 10
14029.47137913607
 20
-2279.113832528969
 30
0.0
 11
14029.47137913607
 21
-2271.346742465898
 31
0.0
  0
LINE
  5
1FE
330
25
100
AcDbEntity
  8
1
  6
Continuous
 62
     0
100
AcDbLine
 10
14027.53762240632
 20
-2280.230287497432
 30
0.0
 11
14020.78762240632
 21
-2280.230287497432
 31
0.0
  0
LINE
  5
1FD
330
25
100
AcDbEntity
  8
1
  6
Continuous
 62
     0
100
AcDbLine
 10
14000.60386567657
 20
-2279.113832528969
 30
0.0
 11
14000.60386567657
 21
-2271.346742465898
 31
0.0
  0
LINE
  5
1FC
330
25
100
AcDbEntity
  8
1
  6
Continuous
 62
     0
100
AcDbLine
 10
14022.2545007712
 20
-2279.113832528969
 30
0.0
 11
14022.2545007712
 21
-2262.043088552973
 31
0.0
  0
LINE
  5
1FB
330
25
100
AcDbEntity
  8
1
  6
Continuous
 62
     0
100
AcDbLine
 10
14007.82074404144
 20
-2279.113832528969
 30
0.0
 11
14007.82074404144
 21
-2262.043088552973
 31
0.0
  0
LINE
  5
1FA
330
25
100
AcDbEntity
  8
1
  6
Continuous
 62
     0
100
AcDbLine
 10
14027.53762240632
 20
-2223.730287497433
 30
0.0
 11
14029.47137913607
 21
-2224.846742465895
 31
0.0
  0
LINE
  5
1F9
330
25
100
AcDbEntity
  8
1
  6
Continuous
 62
     0
100
AcDbLine
 10
14000.60386567657
 20
-2224.846742465895
 30
0.0
 11
14002.53762240632
 21
-2223.730287497432
 31
0.0
  0
LINE
  5
1F8
330
25
100
AcDbEntity
  8
1
  6
Continuous
 62
     0
100
AcDbLine
 10
14029.47137913607
 20
-2224.846742465895
 30
0.0
 11
14029.47137913607
 21
-2232.613832528972
 31
0.0
  0
LINE
  5
1F7
330
25
100
AcDbEntity
  8
1
  6
Continuous
 62
     0
100
AcDbLine
 10
14002.53762240632
 20
-2223.730287497432
 30
0.0
 11
14021.38378772891
 21
-2223.730287497432
 31
0.0
  0
LINE
  5
1F6
330
25
100
AcDbEntity
  8
1
  6
Continuous
 62
     0
100
AcDbLine
 10
14000.60386567657
 20
-2224.846742465895
 30
0.0
 11
14000.60386567657
 21
-2232.613832528972
 31
0.0
  0
LINE
  5
1F5
330
25
100
AcDbEntity
  8
1
  6
Continuous
 62
     0
100
AcDbLine
 10
14022.2545007712
 20
-2224.846742465895
 30
0.0
 11
14022.2545007712
 21
-2240.417486441894
 31
0.0
  0
LINE
  5
1F4
330
25
100
AcDbEntity
  8
1
  6
Continuous
 62
     0
100
AcDbLine
 10
14007.82074404144
 20
-2224.846742465895
 30
0.0
 11
14007.82074404144
 21
-2237.285544688622
 31
0.0
  0
LINE
  5
1F3
330
25
100
AcDbEntity
  8
1
  6
Continuous
 62
     0
100
AcDbLine
 10
14029.47137913607
 20
-2232.613832528972
 30
0.0
 11
14027.67137913607
 21
-2233.653063013512
 31
0.0
  0
LINE
  5
1F2
330
25
100
AcDbEntity
  8
1
  6
Continuous
 62
     0
100
AcDbLine
 10
14002.40386567658
 20
-2233.653063013509
 30
0.0
 11
14000.60386567657
 21
-2232.613832528972
 31
0.0
  0
LINE
  5
1F1
330
25
100
AcDbEntity
  8
1
  6
Continuous
 62
     0
100
AcDbLine
 10
14000.60386567657
 20
-2271.346742465898
 30
0.0
 11
14002.40386567658
 21
-2270.307511981358
 31
0.0
  0
LINE
  5
1F0
330
25
100
AcDbEntity
  8
1
  6
Continuous
 62
     0
100
AcDbLine
 10
14027.67137913607
 20
-2270.307511981358
 30
0.0
 11
14029.47137913607
 21
-2271.346742465898
 31
0.0
  0
LINE
  5
1EF
330
25
100
AcDbEntity
  8
1
  6
Continuous
 62
     0
100
AcDbLine
 10
14002.40386567658
 20
-2233.653063013509
 30
0.0
 11
14002.40386567658
 21
-2242.880287497432
 31
0.0
  0
LINE
  5
1EE
330
25
100
AcDbEntity
  8
1
  6
Continuous
 62
     0
100
AcDbLine
 10
14027.67137913607
 20
-2270.307511981358
 30
0.0
 11
14027.67137913607
 21
-2256.680287497432
 31
0.0
  0
LINE
  5
1ED
330
25
100
AcDbEntity
  8
1
  6
Continuous
 62
     0
100
AcDbLine
 10
14002.40386567658
 20
-2242.880287497432
 30
0.0
 11
14003.53762240632
 21
-2244.280287497433
 31
0.0
  0
LINE
  5
1EC
330
25
100
AcDbEntity
  8
1
  6
Continuous
 62
     0
100
AcDbLine
 10
14002.40386567658
 20
-2256.680287497432
 30
0.0
 11
14002.94769614025
 21
-2256.00874780186
 31
0.0
  0
LINE
  5
1EB
330
25
100
AcDbEntity
  8
1
  6
Continuous
 62
     0
100
AcDbLine
 10
14026.53762240632
 20
-2244.280287497433
 30
0.0
 11
14027.67137913607
 21
-2242.880287497432
 31
0.0
  0
LINE
  5
1EA
330
25
100
AcDbEntity
  8
1
  6
Continuous
 62
     0
100
AcDbLine
 10
14027.67137913607
 20
-2242.880287497432
 30
0.0
 11
14027.67137913607
 21
-2233.653063013512
 31
0.0
  0
LINE
  5
1E9
330
25
100
AcDbEntity
  8
1
  6
Continuous
 62
     0
100
AcDbLine
 10
14002.40386567658
 20
-2256.680287497432
 30
0.0
 11
14002.40386567658
 21
-2270.307511981358
 31
0.0
  0
LINE
  5
1E8
330
25
100
AcDbEntity
  8
1
  6
Continuous
 62
     0
100
AcDbLine
 10
14045.03762240632
 20
-2245.480287497433
 30
0.0
 11
14045.03762240632
 21
-2256.980287497433
 31
0.0
  0
LINE
  5
1E7
330
25
100
AcDbEntity
  8
1
  6
Continuous
 62
     0
100
AcDbLine
 10
13985.03762240632
 20
-2245.480287497433
 30
0.0
 11
13985.03762240632
 21
-2256.980287497433
 31
0.0
  0
LINE
  5
1E6
330
25
100
AcDbEntity
  8
1
  6
Continuous
 62
     0
100
AcDbLine
 10
14027.12754867239
 20
-2256.008747801863
 30
0.0
 11
14027.67137913607
 21
-2256.680287497432
 31
0.0
  0
LINE
  5
1E5
330
25
100
AcDbEntity
  8
1
  6
Continuous
 62
     0
100
AcDbLine
 10
14026.53762240632
 20
-2245.168109670942
 30
0.0
 11
14026.53762240632
 21
-2244.280287497433
 31
0.0
  0
LINE
  5
1E4
330
25
100
AcDbEntity
  8
1
  6
Continuous
 62
     0
100
AcDbLine
 10
14026.02386380182
 20
-2244.280287497433
 30
0.0
 11
14026.53762240632
 21
-2244.280287497433
 31
0.0
  0
LINE
  5
1E3
330
25
100
AcDbEntity
  8
1
  6
Continuous
 62
     0
100
AcDbLine
 10
14003.53762240632
 20
-2245.168109670942
 30
0.0
 11
14003.53762240632
 21
-2244.280287497433
 31
0.0
  0
LINE
  5
1E2
330
25
100
AcDbEntity
  8
1
  6
Continuous
 62
     0
100
AcDbLine
 10
14045.03762240632
 20
-2245.480287497433
 30
0.0
 11
14027.88042194536
 21
-2245.480287497433
 31
0.0
  0
LINE
  5
1E1
330
25
100
AcDbEntity
  8
1
  6
Continuous
 62
     0
100
AcDbLine
 10
14045.03762240632
 20
-2256.980287497433
 30
0.0
 11
14027.88042194536
 21
-2256.980287497433
 31
0.0
  0
LINE
  5
1E0
330
25
100
AcDbEntity
  8
1
  6
Continuous
 62
     0
100
AcDbLine
 10
14002.19482286727
 20
-2256.980287497433
 30
0.0
 11
13985.03762240632
 21
-2256.980287497433
 31
0.0
  0
LINE
  5
1DF
330
25
100
AcDbEntity
  8
1
  6
Continuous
 62
     0
100
AcDbLine
 10
13985.03762240632
 20
-2245.480287497433
 30
0.0
 11
14002.19482286727
 21
-2245.480287497433
 31
0.0
  0
LINE
  5
1DE
330
25
100
AcDbEntity
  8
1
  6
Continuous
 62
     0
100
AcDbLine
 10
14003.53762240632
 20
-2244.280287497433
 30
0.0
 11
14004.05208501764
 21
-2244.280287497433
 31
0.0
  0
LINE
  5
1DD
330
25
100
AcDbEntity
  8
1
  6
Continuous
 62
     0
100
AcDbLine
 10
14020.78762240632
 20
-2223.730287497432
 30
0.0
 11
14027.53762240632
 21
-2223.730287497433
 31
0.0
  0
LINE
  5
1DC
330
25
100
AcDbEntity
  8
1
  6
Continuous
 62
     0
100
AcDbLine
 10
14021.79656672692
 20
-2280.230287497432
 30
0.0
 11
14002.53762240632
 21
-2280.230287497432
 31
0.0
  0
LINE
  5
1DB
330
25
100
AcDbEntity
  8
1
  6
Continuous
 62
     0
100
AcDbLine
 10
14011.57352079119
 20
-2257.230287497433
 30
0.0
 11
14018.50172402146
 21
-2257.230287497433
 31
0.0
  0
LINE
  5
1DA
330
25
100
AcDbEntity
  8
1
  6
Continuous
 62
     0
100
AcDbLine
 10
14018.50172402146
 20
-2257.230287497433
 30
0.0
 11
14021.9658256366
 21
-2251.230287497433
 31
0.0
  0
LINE
  5
1D9
330
25
100
AcDbEntity
  8
1
  6
Continuous
 62
     0
100
AcDbLine
 10
14021.9658256366
 20
-2251.230287497433
 30
0.0
 11
14018.50172402146
 21
-2245.230287497433
 31
0.0
  0
LINE
  5
1D8
330
25
100
AcDbEntity
  8
1
  6
Continuous
 62
     0
100
AcDbLine
 10
14018.50172402146
 20
-2245.230287497433
 30
0.0
 11
14011.57352079119
 21
-2245.230287497433
 31
0.0
  0
LINE
  5
1D7
330
25
100
AcDbEntity
  8
1
  6
Continuous
 62
     0
100
AcDbLine
 10
14011.57352079119
 20
-2245.230287497433
 30
0.0
 11
14008.10941917605
 21
-2251.230287497433
 31
0.0
  0
LINE
  5
1D6
330
25
100
AcDbEntity
  8
1
  6
Continuous
 62
     0
100
AcDbLine
 10
14008.10941917605
 20
-2251.230287497433
 30
0.0
 11
14011.57352079119
 21
-2257.230287497433
 31
0.0
  0
LINE
  5
1D3
330
25
100
AcDbEntity
  8
1
  6
Continuous
 62
     0
100
AcDbLine
 10
14008.28762240632
 20
-2237.230287497432
 30
0.0
 11
14009.28762240632
 21
-2237.230287497432
 31
0.0
  0
LINE
  5
1D2
330
25
100
AcDbEntity
  8
1
  6
Continuous
 62
     0
100
AcDbLine
 10
14006.28762240632
 20
-2239.230287497432
 30
0.0
 11
14006.28762240632
 21
-2241.615845235918
 31
0.0
  0
LINE
  5
1D1
330
25
100
AcDbEntity
  8
1
  6
Continuous
 62
     0
100
AcDbLine
 10
14015.03762240632
 20
-2243.730287497433
 30
0.0
 11
14006.81586254262
 21
-2243.730287497433
 31
0.0
  0
LINE
  5
1D0
330
25
100
AcDbEntity
  8
1
  6
Continuous
 62
     0
100
AcDbLine
 10
14022.53762240632
 20
-2251.230287497433
 30
0.0
 11
14026.13762240632
 21
-2251.230287497433
 31
0.0
  0
LINE
  5
1CF
330
25
100
AcDbEntity
  8
1
  6
Continuous
 62
     0
100
AcDbLine
 10
14012.53762240632
 20
-2253.820654266831
 30
0.0
 11
14012.53762240632
 21
-2248.639920728037
 31
0.0
  0
LINE
  5
1CE
330
25
100
AcDbEntity
  8
1
  6
Continuous
 62
     0
100
AcDbLine
 10
14017.53762240632
 20
-2253.820654266831
 30
0.0
 11
14017.53762240632
 21
-2248.639920728037
 31
0.0
  0
LINE
  5
1CD
330
25
100
AcDbEntity
  8
1
  6
Continuous
 62
     0
100
AcDbLine
 10
11246.01291852987
 20
-1166.677960639016
 30
0.0
 11
11254.54309352987
 21
-1166.677960639016
 31
0.0
  0
LINE
  5
1CC
330
25
100
AcDbEntity
  8
1
  6
Continuous
 62
     0
100
AcDbLine
 10
11246.01291852987
 20
-1169.351560639016
 30
0.0
 11
11253.60354352987
 21
-1169.351560639016
 31
0.0
  0
LINE
  5
1CB
330
25
100
AcDbEntity
  8
1
  6
Continuous
 62
     0
100
AcDbLine
 10
11254.54309352987
 20
-1166.677960639016
 30
0.0
 11
11253.60354352987
 21
-1169.351560639016
 31
0.0
  0
LINE
  5
1CA
330
25
100
AcDbEntity
  8
1
  6
Continuous
 62
     0
100
AcDbLine
 10
11254.54309352987
 20
-1166.677960639016
 30
0.0
 11
11254.66291852986
 21
-1162.843560639015
 31
0.0
  0
LINE
  5
1C9
330
25
100
AcDbEntity
  8
1
  6
Continuous
 62
     0
100
AcDbLine
 10
11237.48274352987
 20
-1166.677960639016
 30
0.0
 11
11237.36291852986
 21
-1162.843560639016
 31
0.0
  0
LINE
  5
1C8
330
25
100
AcDbEntity
  8
1
  6
Continuous
 62
     0
100
AcDbLine
 10
11238.42229352986
 20
-1169.351560639016
 30
0.0
 11
11237.48274352987
 21
-1166.677960639016
 31
0.0
  0
LINE
  5
1C7
330
25
100
AcDbEntity
  8
1
  6
Continuous
 62
     0
100
AcDbLine
 10
11237.68191852987
 20
-1173.051560639015
 30
0.0
 11
11237.48274352987
 21
-1166.677960639016
 31
0.0
  0
LINE
  5
1C6
330
25
100
AcDbEntity
  8
1
  6
Continuous
 62
     0
100
AcDbLine
 10
11238.53791852986
 20
-1173.051560639015
 30
0.0
 11
11238.42229352986
 21
-1169.351560639016
 31
0.0
  0
LINE
  5
1C5
330
25
100
AcDbEntity
  8
1
  6
Continuous
 62
     0
100
AcDbLine
 10
11253.48791852986
 20
-1173.051560639015
 30
0.0
 11
11253.60354352987
 21
-1169.351560639016
 31
0.0
  0
LINE
  5
1C4
330
25
100
AcDbEntity
  8
1
  6
Continuous
 62
     0
100
AcDbLine
 10
11254.34391852987
 20
-1173.051560639015
 30
0.0
 11
11254.54309352987
 21
-1166.677960639016
 31
0.0
  0
LINE
  5
1C3
330
25
100
AcDbEntity
  8
1
  6
Continuous
 62
     0
100
AcDbLine
 10
11238.42229352986
 20
-1169.351560639016
 30
0.0
 11
11246.01291852987
 21
-1169.351560639016
 31
0.0
  0
LINE
  5
1C2
330
25
100
AcDbEntity
  8
1
  6
Continuous
 62
     0
100
AcDbLine
 10
11237.48274352987
 20
-1166.677960639016
 30
0.0
 11
11246.01291852987
 21
-1166.677960639016
 31
0.0
  0
LINE
  5
1C1
330
25
100
AcDbEntity
  8
1
  6
Continuous
 62
     0
100
AcDbLine
 10
11237.31785602986
 20
-1161.401560639016
 30
0.0
 11
11237.36291852986
 21
-1162.843560639016
 31
0.0
  0
LINE
  5
1C0
330
25
100
AcDbEntity
  8
1
  6
Continuous
 62
     0
100
AcDbLine
 10
11237.31785602986
 20
-1161.401560639016
 30
0.0
 11
11254.70798102986
 21
-1161.401560639016
 31
0.0
  0
LINE
  5
1BF
330
25
100
AcDbEntity
  8
1
  6
Continuous
 62
     0
100
AcDbLine
 10
11254.70798102986
 20
-1161.401560639016
 30
0.0
 11
11254.66291852986
 21
-1162.843560639015
 31
0.0
  0
LINE
  5
1BE
330
25
100
AcDbEntity
  8
1
  6
Continuous
 62
     0
100
AcDbLine
 10
11253.01291852987
 20
-1149.401560639016
 30
0.0
 11
11253.01291852987
 21
-1161.401560639016
 31
0.0
  0
LINE
  5
1BD
330
25
100
AcDbEntity
  8
1
  6
Continuous
 62
     0
100
AcDbLine
 10
11239.01291852987
 20
-1149.401560639016
 30
0.0
 11
11239.01291852987
 21
-1161.401560639016
 31
0.0
  0
LINE
  5
1BC
330
25
100
AcDbEntity
  8
1
  6
Continuous
 62
     0
100
AcDbLine
 10
11253.01291852987
 20
-1149.401560639016
 30
0.0
 11
11255.01291852987
 21
-1149.401560639016
 31
0.0
  0
LINE
  5
1BB
330
25
100
AcDbEntity
  8
1
  6
Continuous
 62
     0
100
AcDbLine
 10
11255.01291852987
 20
-1147.370040230238
 30
0.0
 11
11255.01291852987
 21
-1149.401560639016
 31
0.0
  0
LINE
  5
1BA
330
25
100
AcDbEntity
  8
1
  6
Continuous
 62
     0
100
AcDbLine
 10
11237.01291852987
 20
-1147.370040230238
 30
0.0
 11
11237.01291852987
 21
-1149.401560639016
 31
0.0
  0
LINE
  5
1B9
330
25
100
AcDbEntity
  8
1
  6
Continuous
 62
     0
100
AcDbLine
 10
11237.00504720251
 20
-1149.401560639016
 30
0.0
 11
11239.01291852987
 21
-1149.401560639016
 31
0.0
  0
LINE
  5
1B6
330
25
100
AcDbEntity
  8
1
  6
Continuous
 62
     0
100
AcDbLine
 10
11279.50129157127
 20
-1131.853773282818
 30
0.0
 11
11278.37842618736
 21
-1131.205486651153
 31
0.0
  0
LINE
  5
1B5
330
25
100
AcDbEntity
  8
1
  6
Continuous
 62
     0
100
AcDbLine
 10
11209.78067389733
 20
-1127.202565377333
 30
0.0
 11
11210.90872031378
 21
-1126.551287475137
 31
0.0
  0
LINE
  5
1B4
330
25
100
AcDbEntity
  8
1
  6
Continuous
 62
     0
100
AcDbLine
 10
11282.20129157127
 20
-1127.177236102382
 30
0.0
 11
11281.07506124093
 21
-1126.527006717988
 31
0.0
  0
LINE
  5
1B3
330
25
100
AcDbEntity
  8
1
  6
Continuous
 62
     0
100
AcDbLine
 10
11212.48067389733
 20
-1131.879102557768
 30
0.0
 11
11213.61493265771
 21
-1131.224237957129
 31
0.0
  0
LINE
  5
1B2
330
25
100
AcDbEntity
  8
1
  6
Continuous
 62
     0
100
AcDbLine
 10
11282.20129157127
 20
-1127.177236102382
 30
0.0
 11
11279.50129157127
 21
-1131.853773282818
 31
0.0
  0
LINE
  5
1B1
330
25
100
AcDbEntity
  8
1
  6
Continuous
 62
     0
100
AcDbLine
 10
11212.48067389733
 20
-1131.879102557768
 30
0.0
 11
11209.78067389733
 21
-1127.202565377333
 31
0.0
  0
LINE
  5
1B0
330
25
100
AcDbEntity
  8
1
  6
Continuous
 62
     0
100
AcDbLine
 10
11248.71291852986
 20
-1069.123013981947
 30
0.0
 11
11248.71291852986
 21
-1070.419587245278
 31
0.0
  0
LINE
  5
1AF
330
25
100
AcDbEntity
  8
1
  6
Continuous
 62
     0
100
AcDbLine
 10
11243.31291852986
 20
-1069.123013981947
 30
0.0
 11
11248.71291852986
 21
-1069.123013981947
 31
0.0
  0
LINE
  5
1AE
330
25
100
AcDbEntity
  8
1
  6
Continuous
 62
     0
100
AcDbLine
 10
11243.31291852986
 20
-1070.413425652399
 30
0.0
 11
11243.31291852986
 21
-1069.123013981947
 31
0.0
  0
LINE
  5
1AD
330
25
100
AcDbEntity
  8
1
  6
Continuous
 62
     0
100
AcDbLine
 10
11225.61893724954
 20
-1129.441411009851
 30
0.0
 11
11221.47831673196
 21
-1133.582031527427
 31
0.0
  0
LINE
  5
1AC
330
25
100
AcDbEntity
  8
1
  6
Continuous
 62
     0
100
AcDbLine
 10
11266.23291870901
 20
-1129.62237823672
 30
0.0
 11
11270.37432942604
 21
-1133.763788953752
 31
0.0
  0
LINE
  5
1AB
330
25
100
AcDbEntity
  8
1
  6
Continuous
 62
     0
100
AcDbLine
 10
11242.65127459373
 20
-1110.720451651727
 30
0.0
 11
11224.62527164382
 21
-1130.231042103631
 31
0.0
  0
LINE
  5
1AA
330
25
100
AcDbEntity
  8
1
  6
Continuous
 62
     0
100
AcDbLine
 10
11244.69402751715
 20
-1112.763204575154
 30
0.0
 11
11224.82930615576
 21
-1130.435076615569
 31
0.0
  0
LINE
  5
1A7
330
25
100
AcDbEntity
  8
1
  6
Continuous
 62
     0
100
AcDbLine
 10
11246.05213630467
 20
-1119.792557260653
 30
0.0
 11
11246.01291852987
 21
-1122.039342074421
 31
0.0
  0
LINE
  5
1A6
330
25
100
AcDbEntity
  8
1
  6
Continuous
 62
     0
100
AcDbLine
 10
11246.01291852987
 20
-1122.039342074421
 30
0.0
 11
11245.97370075506
 21
-1119.792557260653
 31
0.0
  0
LINE
  5
1A4
330
25
100
AcDbEntity
  8
1
  6
Continuous
 62
     0
100
AcDbLine
 10
11246.01291852987
 20
-1122.039342074421
 30
0.0
 11
11244.0867546917
 21
-1123.196698070567
 31
0.0
  0
LINE
  5
1A3
330
25
100
AcDbEntity
  8
1
  6
Continuous
 62
     0
100
AcDbLine
 10
11244.0475369169
 20
-1123.128770892047
 30
0.0
 11
11246.01291852987
 21
-1122.039342074421
 31
0.0
  0
LINE
  5
1A2
330
25
100
AcDbEntity
  8
1
  6
Continuous
 62
     0
100
AcDbLine
 10
11246.01291852987
 20
-1122.039342074421
 30
0.0
 11
11247.97830014283
 21
-1123.128770892047
 31
0.0
  0
LINE
  5
1A1
330
25
100
AcDbEntity
  8
1
  6
Continuous
 62
     0
100
AcDbLine
 10
11247.93908236802
 20
-1123.196698070567
 30
0.0
 11
11246.01291852987
 21
-1122.039342074421
 31
0.0
  0
LINE
  5
1A0
330
25
100
AcDbEntity
  8
1
  6
Continuous
 62
     0
100
AcDbLine
 10
11237.68191852987
 20
-1219.04901435585
 30
0.0
 11
11237.47410602986
 21
-1225.699014355851
 31
0.0
  0
LINE
  5
19F
330
25
100
AcDbEntity
  8
1
  6
Continuous
 62
     0
100
AcDbLine
 10
11254.34391852987
 20
-1219.04901435585
 30
0.0
 11
11254.55173102986
 21
-1225.699014355851
 31
0.0
  0
LINE
  5
19E
330
25
100
AcDbEntity
  8
1
  6
Continuous
 62
     0
100
AcDbLine
 10
11252.01291852987
 20
-1225.699014355851
 30
0.0
 11
11252.01291852987
 21
-1234.699014355851
 31
0.0
  0
LINE
  5
19D
330
25
100
AcDbEntity
  8
1
  6
Continuous
 62
     0
100
AcDbLine
 10
11252.01291852987
 20
-1234.699014355851
 30
0.0
 11
11240.01291852987
 21
-1234.699014355851
 31
0.0
  0
LINE
  5
19C
330
25
100
AcDbEntity
  8
1
  6
Continuous
 62
     0
100
AcDbLine
 10
11240.01291852987
 20
-1234.699014355851
 30
0.0
 11
11240.01291852987
 21
-1225.699014355851
 31
0.0
  0
LINE
  5
19A
330
25
100
AcDbEntity
  8
1
  6
Continuous
 62
     0
100
AcDbLine
 10
11254.55173102986
 20
-1225.699014355851
 30
0.0
 11
11237.47410602986
 21
-1225.699014355851
 31
0.0
  0
LINE
  5
197
330
25
100
AcDbEntity
  8
1
  6
Continuous
 62
     0
100
AcDbLine
 10
11833.05117465193
 20
-967.330287497432
 30
0.0
 11
11836.05117465193
 21
-969.062338305002
 31
0.0
  0
LINE
  5
196
330
25
100
AcDbEntity
  8
1
  6
Continuous
 62
     0
100
AcDbLine
 10
11836.05117465193
 20
-969.062338305002
 30
0.0
 11
11836.05117465193
 21
-975.330287497432
 31
0.0
  0
LINE
  5
195
330
25
100
AcDbEntity
  8
1
  6
Continuous
 62
     0
100
AcDbLine
 10
11836.05117465193
 20
-975.330287497432
 30
0.0
 11
11799.05117465193
 21
-975.330287497432
 31
0.0
  0
LINE
  5
194
330
25
100
AcDbEntity
  8
1
  6
Continuous
 62
     0
100
AcDbLine
 10
11799.05117465193
 20
-975.330287497432
 30
0.0
 11
11799.05117465193
 21
-969.062338305002
 31
0.0
  0
LINE
  5
193
330
25
100
AcDbEntity
  8
1
  6
Continuous
 62
     0
100
AcDbLine
 10
11799.05117465193
 20
-969.062338305002
 30
0.0
 11
11802.05117465193
 21
-967.330287497432
 31
0.0
  0
LINE
  5
192
330
25
100
AcDbEntity
  8
1
  6
Continuous
 62
     0
100
AcDbLine
 10
11802.05117465193
 20
-967.330287497432
 30
0.0
 11
11833.05117465193
 21
-967.330287497432
 31
0.0
  0
LINE
  5
191
330
25
100
AcDbEntity
  8
1
  6
Continuous
 62
     0
100
AcDbLine
 10
11832.55117465193
 20
-958.830287497432
 30
0.0
 11
11832.55117465193
 21
-967.340586372084
 31
0.0
  0
LINE
  5
190
330
25
100
AcDbEntity
  8
1
  6
Continuous
 62
     0
100
AcDbLine
 10
11802.55117465193
 20
-958.830287497432
 30
0.0
 11
11802.55117465193
 21
-967.330287497432
 31
0.0
  0
LINE
  5
18F
330
25
100
AcDbEntity
  8
1
  6
Continuous
 62
     0
100
AcDbLine
 10
11826.80117465193
 20
-969.062338305002
 30
0.0
 11
11826.80117465193
 21
-975.330287497432
 31
0.0
  0
LINE
  5
18E
330
25
100
AcDbEntity
  8
1
  6
Continuous
 62
     0
100
AcDbLine
 10
11808.30117465193
 20
-969.062338305002
 30
0.0
 11
11808.30117465193
 21
-975.330287497432
 31
0.0
  0
LINE
  5
18D
330
25
100
AcDbEntity
  8
1
  6
Continuous
 62
     0
100
AcDbLine
 10
11837.55117465193
 20
-976.330287497432
 30
0.0
 11
11837.55117465193
 21
-978.330287497432
 31
0.0
  0
LINE
  5
18C
330
25
100
AcDbEntity
  8
1
  6
Continuous
 62
     0
100
AcDbLine
 10
11798.55117465193
 20
-975.330287497432
 30
0.0
 11
11836.55117465193
 21
-975.330287497432
 31
0.0
  0
LINE
  5
18B
330
25
100
AcDbEntity
  8
1
  6
Continuous
 62
     0
100
AcDbLine
 10
11797.55117465193
 20
-976.330287497432
 30
0.0
 11
11797.55117465193
 21
-978.330287497432
 31
0.0
  0
LINE
  5
18A
330
25
100
AcDbEntity
  8
1
  6
Continuous
 62
     0
100
AcDbLine
 10
11844.05117465193
 20
-1026.928363708786
 30
0.0
 11
11844.05117465193
 21
-1034.330287497432
 31
0.0
  0
LINE
  5
189
330
25
100
AcDbEntity
  8
1
  6
Continuous
 62
     0
100
AcDbLine
 10
11844.05117465193
 20
-1034.330287497432
 30
0.0
 11
11791.05117465193
 21
-1034.330287497432
 31
0.0
  0
LINE
  5
188
330
25
100
AcDbEntity
  8
1
  6
Continuous
 62
     0
100
AcDbLine
 10
11791.05117465193
 20
-1034.330287497432
 30
0.0
 11
11791.05117465193
 21
-1026.928363708786
 31
0.0
  0
LINE
  5
187
330
25
100
AcDbEntity
  8
1
  6
Continuous
 62
     0
100
AcDbLine
 10
11830.80117465193
 20
-1026.928363708786
 30
0.0
 11
11830.80117465193
 21
-1034.330287497432
 31
0.0
  0
LINE
  5
186
330
25
100
AcDbEntity
  8
1
  6
Continuous
 62
     0
100
AcDbLine
 10
11804.30117465193
 20
-1026.928363708786
 30
0.0
 11
11804.30117465193
 21
-1034.330287497432
 31
0.0
  0
LINE
  5
185
330
25
100
AcDbEntity
  8
1
  6
Continuous
 62
     0
100
AcDbLine
 10
11792.55117465193
 20
-1026.062338305002
 30
0.0
 11
11792.55117465193
 21
-982.330287497432
 31
0.0
  0
LINE
  5
184
330
25
100
AcDbEntity
  8
1
  6
Continuous
 62
     0
100
AcDbLine
 10
11842.55117465193
 20
-1026.062338305002
 30
0.0
 11
11842.55117465193
 21
-982.330287497432
 31
0.0
  0
LINE
  5
183
330
25
100
AcDbEntity
  8
1
  6
Continuous
 62
     0
100
AcDbLine
 10
11794.55117465193
 20
-980.330287497432
 30
0.0
 11
11795.55117465193
 21
-980.330287497432
 31
0.0
  0
LINE
  5
182
330
25
100
AcDbEntity
  8
1
  6
Continuous
 62
     0
100
AcDbLine
 10
11840.55117465193
 20
-980.330287497432
 30
0.0
 11
11839.55117465193
 21
-980.330287497432
 31
0.0
  0
LINE
  5
181
330
25
100
AcDbEntity
  8
1
  6
Continuous
 62
     0
100
AcDbLine
 10
11795.55117465193
 20
-980.330287497432
 30
0.0
 11
11797.55117465193
 21
-980.330287497432
 31
0.0
  0
LINE
  5
180
330
25
100
AcDbEntity
  8
1
  6
Continuous
 62
     0
100
AcDbLine
 10
11837.55117465193
 20
-980.330287497432
 30
0.0
 11
11797.55117465193
 21
-980.330287497432
 31
0.0
  0
LINE
  5
17F
330
25
100
AcDbEntity
  8
1
  6
Continuous
 62
     0
100
AcDbLine
 10
11839.55117465193
 20
-980.330287497432
 30
0.0
 11
11837.55117465193
 21
-980.330287497432
 31
0.0
  0
LINE
  5
17E
330
25
100
AcDbEntity
  8
1
  6
Continuous
 62
     0
100
AcDbLine
 10
11839.55117465193
 20
-1024.330287497432
 30
0.0
 11
11844.05117465193
 21
-1026.928363708786
 31
0.0
  0
LINE
  5
17D
330
25
100
AcDbEntity
  8
1
  6
Continuous
 62
     0
100
AcDbLine
 10
11839.55117465193
 20
-1024.330287497432
 30
0.0
 11
11795.55117465193
 21
-1024.330287497432
 31
0.0
  0
LINE
  5
17C
330
25
100
AcDbEntity
  8
1
  6
Continuous
 62
     0
100
AcDbLine
 10
11795.55117465193
 20
-1024.330287497432
 30
0.0
 11
11791.05117465193
 21
-1026.928363708786
 31
0.0
  0
LINE
  5
17B
330
25
100
AcDbEntity
  8
1
  6
Continuous
 62
     0
100
AcDbLine
 10
11791.05117465193
 20
-1034.330287497432
 30
0.0
 11
11782.55117465193
 21
-1034.330287497432
 31
0.0
  0
LINE
  5
17A
330
25
100
AcDbEntity
  8
1
  6
Continuous
 62
     0
100
AcDbLine
 10
11777.55117465193
 20
-1039.330287497432
 30
0.0
 11
11777.55117465193
 21
-1092.830287497432
 31
0.0
  0
LINE
  5
179
330
25
100
AcDbEntity
  8
1
  6
Continuous
 62
     0
100
AcDbLine
 10
11857.55117465193
 20
-1097.830287497432
 30
0.0
 11
11782.55117465193
 21
-1097.830287497432
 31
0.0
  0
LINE
  5
178
330
25
100
AcDbEntity
  8
1
  6
Continuous
 62
     0
100
AcDbLine
 10
11857.55117465193
 20
-1097.830287497432
 30
0.0
 11
11857.55117465193
 21
-1097.330287497432
 31
0.0
  0
LINE
  5
177
330
25
100
AcDbEntity
  8
1
  6
Continuous
 62
     0
100
AcDbLine
 10
11858.55117465193
 20
-1096.330287497432
 30
0.0
 11
11863.55117465193
 21
-1096.330287497432
 31
0.0
  0
LINE
  5
176
330
25
100
AcDbEntity
  8
1
  6
Continuous
 62
     0
100
AcDbLine
 10
11864.55117465193
 20
-1097.830287497432
 30
0.0
 11
11864.55117465193
 21
-1097.330287497432
 31
0.0
  0
LINE
  5
175
330
25
100
AcDbEntity
  8
1
  6
Continuous
 62
     0
100
AcDbLine
 10
11864.55117465193
 20
-1097.830287497432
 30
0.0
 11
11869.55117465193
 21
-1097.830287497432
 31
0.0
  0
LINE
  5
174
330
25
100
AcDbEntity
  8
1
  6
Continuous
 62
     0
100
AcDbLine
 10
11869.55117465193
 20
-1097.830287497432
 30
0.0
 11
11869.55117465193
 21
-1039.830287497432
 31
0.0
  0
LINE
  5
173
330
25
100
AcDbEntity
  8
1
  6
Continuous
 62
     0
100
AcDbLine
 10
11869.55117465193
 20
-1039.830287497432
 30
0.0
 11
11864.55117465193
 21
-1039.830287497432
 31
0.0
  0
LINE
  5
172
330
25
100
AcDbEntity
  8
1
  6
Continuous
 62
     0
100
AcDbLine
 10
11864.55117465193
 20
-1039.830287497432
 30
0.0
 11
11864.55117465193
 21
-1040.330287497432
 31
0.0
  0
LINE
  5
171
330
25
100
AcDbEntity
  8
1
  6
Continuous
 62
     0
100
AcDbLine
 10
11858.55117465193
 20
-1041.330287497432
 30
0.0
 11
11863.55117465193
 21
-1041.330287497432
 31
0.0
  0
LINE
  5
170
330
25
100
AcDbEntity
  8
1
  6
Continuous
 62
     0
100
AcDbLine
 10
11857.55117465193
 20
-1039.330287497432
 30
0.0
 11
11857.55117465193
 21
-1040.330287497432
 31
0.0
  0
LINE
  5
16F
330
25
100
AcDbEntity
  8
1
  6
Continuous
 62
     0
100
AcDbLine
 10
11844.05117465193
 20
-1034.330287497432
 30
0.0
 11
11852.55117465193
 21
-1034.330287497432
 31
0.0
  0
LINE
  5
16E
330
25
100
AcDbEntity
  8
1
  6
Continuous
 62
     0
100
AcDbLine
 10
11838.55117465193
 20
-1123.830287497432
 30
0.0
 11
11796.55117465193
 21
-1123.830287497432
 31
0.0
  0
LINE
  5
16D
330
25
100
AcDbEntity
  8
1
  6
Continuous
 62
     0
100
AcDbLine
 10
11852.55117465193
 20
-1097.830287497432
 30
0.0
 11
11782.55117465193
 21
-1097.830287497432
 31
0.0
  0
LINE
  5
16C
330
25
100
AcDbEntity
  8
1
  6
Continuous
 62
     0
100
AcDbLine
 10
11848.05117465193
 20
-1108.830287497432
 30
0.0
 11
11787.05117465193
 21
-1108.830287497432
 31
0.0
  0
LINE
  5
16B
330
25
100
AcDbEntity
  8
1
  6
Continuous
 62
     0
100
AcDbLine
 10
11787.05117465193
 20
-1108.830287497432
 30
0.0
 11
11787.05117465193
 21
-1121.520886420673
 31
0.0
  0
LINE
  5
16A
330
25
100
AcDbEntity
  8
1
  6
Continuous
 62
     0
100
AcDbLine
 10
11849.55117465193
 20
-1108.830287497432
 30
0.0
 11
11785.55117465193
 21
-1108.830287497432
 31
0.0
  0
LINE
  5
169
330
25
100
AcDbEntity
  8
1
  6
Continuous
 62
     0
100
AcDbLine
 10
11852.55117465193
 20
-1097.830287497432
 30
0.0
 11
11782.55117465193
 21
-1097.830287497432
 31
0.0
  0
LINE
  5
168
330
25
100
AcDbEntity
  8
1
  6
Continuous
 62
     0
100
AcDbLine
 10
11791.05117465193
 20
-1123.830287497432
 30
0.0
 11
11844.05117465193
 21
-1123.830287497432
 31
0.0
  0
LINE
  5
167
330
25
100
AcDbEntity
  8
1
  6
Continuous
 62
     0
100
AcDbLine
 10
11848.05117465193
 20
-1121.520886420673
 30
0.0
 11
11848.05117465193
 21
-1108.830287497432
 31
0.0
  0
LINE
  5
166
330
25
100
AcDbEntity
  8
1
  6
Continuous
 62
     0
100
AcDbLine
 10
11848.05117465193
 20
-1121.520886420673
 30
0.0
 11
11844.05117465193
 21
-1123.830287497432
 31
0.0
  0
LINE
  5
165
330
25
100
AcDbEntity
  8
1
  6
Continuous
 62
     0
100
AcDbLine
 10
11787.05117465193
 20
-1121.520886420673
 30
0.0
 11
11791.05117465193
 21
-1123.830287497432
 31
0.0
  0
LINE
  5
164
330
25
100
AcDbEntity
  8
1
  6
Continuous
 62
     0
100
AcDbLine
 10
11832.80117465193
 20
-1121.520886420673
 30
0.0
 11
11832.80117465193
 21
-1108.830287497432
 31
0.0
  0
LINE
  5
163
330
25
100
AcDbEntity
  8
1
  6
Continuous
 62
     0
100
AcDbLine
 10
11802.30117465193
 20
-1121.520886420673
 30
0.0
 11
11802.30117465193
 21
-1108.830287497432
 31
0.0
  0
LINE
  5
162
330
25
100
AcDbEntity
  8
1
  6
Continuous
 62
     0
100
AcDbLine
 10
11864.55117465193
 20
-1040.471532505404
 30
0.0
 11
11864.55117465193
 21
-1097.830287497432
 31
0.0
  0
LINE
  5
161
330
25
100
AcDbEntity
  8
1
  6
Continuous
 62
     0
100
AcDbLine
 10
13450.69421934612
 20
-1121.520886420673
 30
0.0
 11
13450.69421934612
 21
-1108.830287497432
 31
0.0
  0
LINE
  5
160
330
25
100
AcDbEntity
  8
1
  6
Continuous
 62
     0
100
AcDbLine
 10
13481.19421934612
 20
-1121.520886420673
 30
0.0
 11
13481.19421934612
 21
-1108.830287497432
 31
0.0
  0
LINE
  5
15F
330
25
100
AcDbEntity
  8
1
  6
Continuous
 62
     0
100
AcDbLine
 10
13435.44421934612
 20
-1121.520886420673
 30
0.0
 11
13439.44421934612
 21
-1123.830287497432
 31
0.0
  0
LINE
  5
15E
330
25
100
AcDbEntity
  8
1
  6
Continuous
 62
     0
100
AcDbLine
 10
13496.44421934612
 20
-1121.520886420673
 30
0.0
 11
13492.44421934612
 21
-1123.830287497432
 31
0.0
  0
LINE
  5
15D
330
25
100
AcDbEntity
  8
1
  6
Continuous
 62
     0
100
AcDbLine
 10
13496.44421934612
 20
-1121.520886420673
 30
0.0
 11
13496.44421934612
 21
-1108.830287497432
 31
0.0
  0
LINE
  5
15C
330
25
100
AcDbEntity
  8
1
  6
Continuous
 62
     0
100
AcDbLine
 10
13439.44421934612
 20
-1123.830287497432
 30
0.0
 11
13492.44421934612
 21
-1123.830287497432
 31
0.0
  0
LINE
  5
15B
330
25
100
AcDbEntity
  8
1
  6
Continuous
 62
     0
100
AcDbLine
 10
13500.94421934612
 20
-1097.830287497432
 30
0.0
 11
13430.94421934612
 21
-1097.830287497432
 31
0.0
  0
LINE
  5
15A
330
25
100
AcDbEntity
  8
1
  6
Continuous
 62
     0
100
AcDbLine
 10
13497.94421934612
 20
-1108.830287497432
 30
0.0
 11
13433.94421934612
 21
-1108.830287497432
 31
0.0
  0
LINE
  5
159
330
25
100
AcDbEntity
  8
1
  6
Continuous
 62
     0
100
AcDbLine
 10
13435.44421934612
 20
-1108.830287497432
 30
0.0
 11
13435.44421934612
 21
-1121.520886420673
 31
0.0
  0
LINE
  5
158
330
25
100
AcDbEntity
  8
1
  6
Continuous
 62
     0
100
AcDbLine
 10
13496.44421934612
 20
-1108.830287497432
 30
0.0
 11
13435.44421934612
 21
-1108.830287497432
 31
0.0
  0
LINE
  5
157
330
25
100
AcDbEntity
  8
1
  6
Continuous
 62
     0
100
AcDbLine
 10
13500.94421934612
 20
-1097.830287497432
 30
0.0
 11
13430.94421934612
 21
-1097.830287497432
 31
0.0
  0
LINE
  5
156
330
25
100
AcDbEntity
  8
1
  6
Continuous
 62
     0
100
AcDbLine
 10
13486.94421934612
 20
-1123.830287497432
 30
0.0
 11
13444.94421934612
 21
-1123.830287497432
 31
0.0
  0
LINE
  5
155
330
25
100
AcDbEntity
  8
1
  6
Continuous
 62
     0
100
AcDbLine
 10
13492.44421934612
 20
-1034.330287497432
 30
0.0
 11
13500.94421934612
 21
-1034.330287497432
 31
0.0
  0
LINE
  5
154
330
25
100
AcDbEntity
  8
1
  6
Continuous
 62
     0
100
AcDbLine
 10
13505.94421934612
 20
-1039.330287497432
 30
0.0
 11
13505.94421934612
 21
-1092.830287497432
 31
0.0
  0
LINE
  5
153
330
25
100
AcDbEntity
  8
1
  6
Continuous
 62
     0
100
AcDbLine
 10
13430.94421934612
 20
-1097.830287497432
 30
0.0
 11
13500.94421934612
 21
-1097.830287497432
 31
0.0
  0
LINE
  5
152
330
25
100
AcDbEntity
  8
1
  6
Continuous
 62
     0
100
AcDbLine
 10
13425.94421934612
 20
-1039.330287497432
 30
0.0
 11
13425.94421934612
 21
-1092.830287497432
 31
0.0
  0
LINE
  5
151
330
25
100
AcDbEntity
  8
1
  6
Continuous
 62
     0
100
AcDbLine
 10
13439.44421934612
 20
-1034.330287497432
 30
0.0
 11
13430.94421934612
 21
-1034.330287497432
 31
0.0
  0
LINE
  5
150
330
25
100
AcDbEntity
  8
1
  6
Continuous
 62
     0
100
AcDbLine
 10
13443.94421934612
 20
-1024.330287497432
 30
0.0
 11
13439.44421934612
 21
-1026.928363708786
 31
0.0
  0
LINE
  5
14F
330
25
100
AcDbEntity
  8
1
  6
Continuous
 62
     0
100
AcDbLine
 10
13487.94421934612
 20
-1024.330287497432
 30
0.0
 11
13443.94421934612
 21
-1024.330287497432
 31
0.0
  0
LINE
  5
14E
330
25
100
AcDbEntity
  8
1
  6
Continuous
 62
     0
100
AcDbLine
 10
13487.94421934612
 20
-1024.330287497432
 30
0.0
 11
13492.44421934612
 21
-1026.928363708786
 31
0.0
  0
LINE
  5
14D
330
25
100
AcDbEntity
  8
1
  6
Continuous
 62
     0
100
AcDbLine
 10
13487.94421934612
 20
-980.329616158848
 30
0.0
 11
13485.94421934612
 21
-980.329616158848
 31
0.0
  0
LINE
  5
14C
330
25
100
AcDbEntity
  8
1
  6
Continuous
 62
     0
100
AcDbLine
 10
13485.94421934612
 20
-980.329616158848
 30
0.0
 11
13445.94421934612
 21
-980.329616158848
 31
0.0
  0
LINE
  5
14B
330
25
100
AcDbEntity
  8
1
  6
Continuous
 62
     0
100
AcDbLine
 10
13443.94421934612
 20
-980.329616158848
 30
0.0
 11
13445.94421934612
 21
-980.329616158848
 31
0.0
  0
LINE
  5
14A
330
25
100
AcDbEntity
  8
1
  6
Continuous
 62
     0
100
AcDbLine
 10
13488.94421934612
 20
-980.329616158848
 30
0.0
 11
13487.94421934612
 21
-980.329616158848
 31
0.0
  0
LINE
  5
149
330
25
100
AcDbEntity
  8
1
  6
Continuous
 62
     0
100
AcDbLine
 10
13442.94421934612
 20
-980.329616158848
 30
0.0
 11
13443.94421934612
 21
-980.329616158848
 31
0.0
  0
LINE
  5
148
330
25
100
AcDbEntity
  8
1
  6
Continuous
 62
     0
100
AcDbLine
 10
13490.94421934612
 20
-1026.062338305002
 30
0.0
 11
13490.94421934612
 21
-982.329616158848
 31
0.0
  0
LINE
  5
147
330
25
100
AcDbEntity
  8
1
  6
Continuous
 62
     0
100
AcDbLine
 10
13440.94421934612
 20
-1026.062338305002
 30
0.0
 11
13440.94421934612
 21
-982.329616158848
 31
0.0
  0
LINE
  5
146
330
25
100
AcDbEntity
  8
1
  6
Continuous
 62
     0
100
AcDbLine
 10
13452.69421934612
 20
-1026.928363708786
 30
0.0
 11
13452.69421934612
 21
-1034.330287497432
 31
0.0
  0
LINE
  5
145
330
25
100
AcDbEntity
  8
1
  6
Continuous
 62
     0
100
AcDbLine
 10
13479.19421934612
 20
-1026.928363708786
 30
0.0
 11
13479.19421934612
 21
-1034.330287497432
 31
0.0
  0
LINE
  5
144
330
25
100
AcDbEntity
  8
1
  6
Continuous
 62
     0
100
AcDbLine
 10
13439.44421934612
 20
-1034.330287497432
 30
0.0
 11
13439.44421934612
 21
-1026.928363708786
 31
0.0
  0
LINE
  5
143
330
25
100
AcDbEntity
  8
1
  6
Continuous
 62
     0
100
AcDbLine
 10
13492.44421934612
 20
-1034.330287497432
 30
0.0
 11
13439.44421934612
 21
-1034.330287497432
 31
0.0
  0
LINE
  5
142
330
25
100
AcDbEntity
  8
1
  6
Continuous
 62
     0
100
AcDbLine
 10
13492.44421934612
 20
-1026.928363708786
 30
0.0
 11
13492.44421934612
 21
-1034.330287497432
 31
0.0
  0
LINE
  5
141
330
25
100
AcDbEntity
  8
1
  6
Continuous
 62
     0
100
AcDbLine
 10
13445.94421934612
 20
-976.329616158848
 30
0.0
 11
13445.94421934612
 21
-978.329616158848
 31
0.0
  0
LINE
  5
140
330
25
100
AcDbEntity
  8
1
  6
Continuous
 62
     0
100
AcDbLine
 10
13446.94421934612
 20
-975.329616158848
 30
0.0
 11
13484.94421934612
 21
-975.329616158848
 31
0.0
  0
LINE
  5
13F
330
25
100
AcDbEntity
  8
1
  6
Continuous
 62
     0
100
AcDbLine
 10
13485.94421934612
 20
-976.329616158848
 30
0.0
 11
13485.94421934612
 21
-978.329616158848
 31
0.0
  0
LINE
  5
13E
330
25
100
AcDbEntity
  8
1
  6
Continuous
 62
     0
100
AcDbLine
 10
13456.69421934612
 20
-969.061666966416
 30
0.0
 11
13456.69421934612
 21
-975.329616158848
 31
0.0
  0
LINE
  5
13D
330
25
100
AcDbEntity
  8
1
  6
Continuous
 62
     0
100
AcDbLine
 10
13475.19421934612
 20
-969.061666966416
 30
0.0
 11
13475.19421934612
 21
-975.329616158848
 31
0.0
  0
LINE
  5
13C
330
25
100
AcDbEntity
  8
1
  6
Continuous
 62
     0
100
AcDbLine
 10
13450.94421934612
 20
-958.829616158848
 30
0.0
 11
13450.94421934612
 21
-967.329616158848
 31
0.0
  0
LINE
  5
13B
330
25
100
AcDbEntity
  8
1
  6
Continuous
 62
     0
100
AcDbLine
 10
13480.94421934612
 20
-958.829616158848
 30
0.0
 11
13480.94421934612
 21
-967.339915033499
 31
0.0
  0
LINE
  5
13A
330
25
100
AcDbEntity
  8
1
  6
Continuous
 62
     0
100
AcDbLine
 10
13450.44421934612
 20
-967.329616158848
 30
0.0
 11
13481.44421934612
 21
-967.329616158848
 31
0.0
  0
LINE
  5
139
330
25
100
AcDbEntity
  8
1
  6
Continuous
 62
     0
100
AcDbLine
 10
13447.44421934612
 20
-969.061666966416
 30
0.0
 11
13450.44421934612
 21
-967.329616158848
 31
0.0
  0
LINE
  5
138
330
25
100
AcDbEntity
  8
1
  6
Continuous
 62
     0
100
AcDbLine
 10
13447.44421934612
 20
-975.329616158848
 30
0.0
 11
13447.44421934612
 21
-969.061666966416
 31
0.0
  0
LINE
  5
137
330
25
100
AcDbEntity
  8
1
  6
Continuous
 62
     0
100
AcDbLine
 10
13484.44421934612
 20
-975.329616158848
 30
0.0
 11
13447.44421934612
 21
-975.329616158848
 31
0.0
  0
LINE
  5
136
330
25
100
AcDbEntity
  8
1
  6
Continuous
 62
     0
100
AcDbLine
 10
13484.44421934612
 20
-969.061666966416
 30
0.0
 11
13484.44421934612
 21
-975.329616158848
 31
0.0
  0
LINE
  5
135
330
25
100
AcDbEntity
  8
1
  6
Continuous
 62
     0
100
AcDbLine
 10
13481.44421934612
 20
-967.329616158848
 30
0.0
 11
13484.44421934612
 21
-969.061666966416
 31
0.0
  0
LINE
  5
133
330
25
100
AcDbEntity
  8
1
  6
Continuous
 62
     0
100
AcDbLine
 10
13524.91762240631
 20
-1165.800287497433
 30
0.0
 11
13524.91762240631
 21
-1226.300287497433
 31
0.0
  0
LINE
  5
132
330
25
100
AcDbEntity
  8
1
  6
Continuous
 62
     0
100
AcDbLine
 10
13520.91762240631
 20
-1226.300287497433
 30
0.0
 11
13520.91762240631
 21
-1165.800287497433
 31
0.0
  0
LINE
  5
131
330
25
100
AcDbEntity
  8
1
  6
Continuous
 62
     0
100
AcDbLine
 10
13520.91762240631
 20
-1226.300287497433
 30
0.0
 11
13524.91762240631
 21
-1226.300287497433
 31
0.0
  0
LINE
  5
130
330
25
100
AcDbEntity
  8
1
  6
Continuous
 62
     0
100
AcDbLine
 10
13524.91762240631
 20
-1165.800287497433
 30
0.0
 11
13520.91762240631
 21
-1165.800287497433
 31
0.0
  0
LINE
  5
12F
330
25
100
AcDbEntity
  8
1
  6
Continuous
 62
     0
100
AcDbLine
 10
13524.91762240631
 20
-1226.300287497433
 30
0.0
 11
13536.03762240632
 21
-1225.857287497433
 31
0.0
  0
LINE
  5
12E
330
25
100
AcDbEntity
  8
1
  6
Continuous
 62
     0
100
AcDbLine
 10
13524.91762240631
 20
-1165.800287497433
 30
0.0
 11
13536.03762240632
 21
-1166.243287497433
 31
0.0
  0
LINE
  5
12D
330
25
100
AcDbEntity
  8
1
  6
Continuous
 62
     0
100
AcDbLine
 10
13520.91762240631
 20
-1226.300287497433
 30
0.0
 11
13509.79762240632
 21
-1225.857287497433
 31
0.0
  0
LINE
  5
12C
330
25
100
AcDbEntity
  8
1
  6
Continuous
 62
     0
100
AcDbLine
 10
13509.79762240632
 20
-1166.243287497433
 30
0.0
 11
13520.91762240631
 21
-1165.800287497433
 31
0.0
  0
LINE
  5
12B
330
25
100
AcDbEntity
  8
1
  6
Continuous
 62
     0
100
AcDbLine
 10
13465.80230491111
 20
-1145.050287497433
 30
0.0
 11
13487.81522263319
 21
-1145.050287497433
 31
0.0
  0
LINE
  5
12A
330
25
100
AcDbEntity
  8
1
  6
Continuous
 62
     0
100
AcDbLine
 10
13445.30230491111
 20
-1154.215368679696
 30
0.0
 11
13445.30230491111
 21
-1185.551832030004
 31
0.0
  0
LINE
  5
129
330
25
100
AcDbEntity
  8
1
  6
Continuous
 62
     0
100
AcDbLine
 10
13486.30230491111
 20
-1154.215368679696
 30
0.0
 11
13486.30230491111
 21
-1155.548742964861
 31
0.0
  0
LINE
  5
128
330
25
100
AcDbEntity
  8
1
  6
Continuous
 62
     0
100
AcDbLine
 10
13443.78938718904
 20
-1145.050287497433
 30
0.0
 11
13465.80230491111
 21
-1145.050287497433
 31
0.0
  0
LINE
  5
127
330
25
100
AcDbEntity
  8
1
  6
Continuous
 62
     0
100
AcDbLine
 10
13443.78938718904
 20
-1145.050287497433
 30
0.0
 11
13443.78938718904
 21
-1150.050287497433
 31
0.0
  0
LINE
  5
126
330
25
100
AcDbEntity
  8
1
  6
Continuous
 62
     0
100
AcDbLine
 10
13487.81522263319
 20
-1145.050287497433
 30
0.0
 11
13487.81522263319
 21
-1150.050287497433
 31
0.0
  0
LINE
  5
125
330
25
100
AcDbEntity
  8
1
  6
Continuous
 62
     0
100
AcDbLine
 10
13443.78938718904
 20
-1150.050287497433
 30
0.0
 11
13487.81522263319
 21
-1150.050287497433
 31
0.0
  0
LINE
  5
123
330
25
100
AcDbEntity
  8
1
  6
Continuous
 62
     0
100
AcDbLine
 10
13499.41279887157
 20
-1230.551832030004
 30
0.0
 11
13490.30230491111
 21
-1230.551832030004
 31
0.0
  0
LINE
  5
122
330
25
100
AcDbEntity
  8
1
  6
Continuous
 62
     0
100
AcDbLine
 10
13509.79762240632
 20
-1232.051832030004
 30
0.0
 11
13509.79762240632
 21
-1196.050287497433
 31
0.0
  0
LINE
  5
121
330
25
100
AcDbEntity
  8
1
  6
Continuous
 62
     0
100
AcDbLine
 10
13504.79762240632
 20
-1232.051832030004
 30
0.0
 11
13509.79762240632
 21
-1232.051832030004
 31
0.0
  0
LINE
  5
120
330
25
100
AcDbEntity
  8
1
  6
Continuous
 62
     0
100
AcDbLine
 10
13504.79762240632
 20
-1160.048742964861
 30
0.0
 11
13509.79762240632
 21
-1160.048742964861
 31
0.0
  0
LINE
  5
11F
330
25
100
AcDbEntity
  8
1
  6
Continuous
 62
     0
100
AcDbLine
 10
13504.79762240632
 20
-1230.551832030004
 30
0.0
 11
13504.79762240632
 21
-1161.548742964861
 31
0.0
  0
LINE
  5
11E
330
25
100
AcDbEntity
  8
1
  6
Continuous
 62
     0
100
AcDbLine
 10
13504.79762240632
 20
-1161.548742964861
 30
0.0
 11
13504.79762240632
 21
-1160.048742964861
 31
0.0
  0
LINE
  5
11D
330
25
100
AcDbEntity
  8
1
  6
Continuous
 62
     0
100
AcDbLine
 10
13504.79762240632
 20
-1230.551832030004
 30
0.0
 11
13504.79762240632
 21
-1232.051832030004
 31
0.0
  0
LINE
  5
11C
330
25
100
AcDbEntity
  8
1
  6
Continuous
 62
     0
100
AcDbLine
 10
13509.79762240632
 20
-1196.050287497433
 30
0.0
 11
13509.79762240632
 21
-1160.048742964861
 31
0.0
  0
LINE
  5
11B
330
25
100
AcDbEntity
  8
1
  6
Continuous
 62
     0
100
AcDbLine
 10
13499.41279887157
 20
-1161.548742964861
 30
0.0
 11
13492.30230491111
 21
-1161.548742964861
 31
0.0
  0
LINE
  5
11A
330
25
100
AcDbEntity
  8
1
  6
Continuous
 62
     0
100
AcDbLine
 10
13448.80230491111
 20
-1132.590287497433
 30
0.0
 11
13482.80230491111
 21
-1132.590287497433
 31
0.0
  0
LINE
  5
119
330
25
100
AcDbEntity
  8
1
  6
Continuous
 62
     0
100
AcDbLine
 10
13482.80230491111
 20
-1136.290287497433
 30
0.0
 11
13448.80230491111
 21
-1136.290287497433
 31
0.0
  0
LINE
  5
118
330
25
100
AcDbEntity
  8
1
  6
Continuous
 62
     0
100
AcDbLine
 10
13448.80230491111
 20
-1132.590287497433
 30
0.0
 11
13448.80230491111
 21
-1136.290287497433
 31
0.0
  0
LINE
  5
117
330
25
100
AcDbEntity
  8
1
  6
Continuous
 62
     0
100
AcDbLine
 10
13482.80230491111
 20
-1136.290287497433
 30
0.0
 11
13482.80230491111
 21
-1132.590287497433
 31
0.0
  0
LINE
  5
116
330
25
100
AcDbEntity
  8
1
  6
Continuous
 62
     0
100
AcDbLine
 10
13448.80230491111
 20
-1132.590287497433
 30
0.0
 11
13449.17780491111
 21
-1123.830287497432
 31
0.0
  0
LINE
  5
115
330
25
100
AcDbEntity
  8
1
  6
Continuous
 62
     0
100
AcDbLine
 10
13448.80230491111
 20
-1136.290287497433
 30
0.0
 11
13449.17780491111
 21
-1145.050287497433
 31
0.0
  0
LINE
  5
114
330
25
100
AcDbEntity
  8
1
  6
Continuous
 62
     0
100
AcDbLine
 10
13482.42680491111
 20
-1145.050287497433
 30
0.0
 11
13482.80230491111
 21
-1136.290287497433
 31
0.0
  0
LINE
  5
113
330
25
100
AcDbEntity
  8
1
  6
Continuous
 62
     0
100
AcDbLine
 10
13482.42680491111
 20
-1123.830287497432
 30
0.0
 11
13482.80230491111
 21
-1132.590287497433
 31
0.0
  0
LINE
  5
111
330
25
100
AcDbEntity
  8
1
  6
Continuous
 62
     0
100
AcDbLine
 10
13500.94421934612
 20
-1097.830287497432
 30
0.0
 11
13500.94421934612
 21
-1105.830287497432
 31
0.0
  0
LINE
  5
110
330
25
100
AcDbEntity
  8
1
  6
Continuous
 62
     0
100
AcDbLine
 10
13430.94421934612
 20
-1097.830287497432
 30
0.0
 11
13430.94421934612
 21
-1105.830287497432
 31
0.0
  0
LINE
  5
10F
330
25
100
AcDbEntity
  8
1
  6
Continuous
 62
     0
100
AcDbLine
 10
13488.94421934612
 20
-981.329616158848
 30
0.0
 11
13488.94421934612
 21
-1023.752937228242
 31
0.0
  0
LINE
  5
10E
330
25
100
AcDbEntity
  8
1
  6
Continuous
 62
     0
100
AcDbLine
 10
13486.94421934612
 20
-981.329616158848
 30
0.0
 11
13486.94421934612
 21
-1023.330287497432
 31
0.0
  0
LINE
  5
10D
330
25
100
AcDbEntity
  8
1
  6
Continuous
 62
     0
100
AcDbLine
 10
13474.27755267946
 20
-981.329616158848
 30
0.0
 11
13474.27755267946
 21
-1023.330287497432
 31
0.0
  0
LINE
  5
10C
330
25
100
AcDbEntity
  8
1
  6
Continuous
 62
     0
100
AcDbLine
 10
13472.27755267946
 20
-981.329616158848
 30
0.0
 11
13472.27755267946
 21
-1023.330287497432
 31
0.0
  0
LINE
  5
10B
330
25
100
AcDbEntity
  8
1
  6
Continuous
 62
     0
100
AcDbLine
 10
13459.61088601279
 20
-981.329616158848
 30
0.0
 11
13459.61088601279
 21
-1023.330287497432
 31
0.0
  0
LINE
  5
10A
330
25
100
AcDbEntity
  8
1
  6
Continuous
 62
     0
100
AcDbLine
 10
13457.61088601279
 20
-981.329616158848
 30
0.0
 11
13457.61088601279
 21
-1023.330287497432
 31
0.0
  0
LINE
  5
109
330
25
100
AcDbEntity
  8
1
  6
Continuous
 62
     0
100
AcDbLine
 10
13444.94421934612
 20
-981.329616158848
 30
0.0
 11
13444.94421934612
 21
-1023.330287497432
 31
0.0
  0
LINE
  5
108
330
25
100
AcDbEntity
  8
1
  6
Continuous
 62
     0
100
AcDbLine
 10
13442.94421934612
 20
-981.329616158848
 30
0.0
 11
13442.94421934612
 21
-1023.752937228242
 31
0.0
  0
LINE
  5
107
330
25
100
AcDbEntity
  8
1
  6
Continuous
 62
     0
100
AcDbLine
 10
11834.17567465193
 20
-1123.830287497432
 30
0.0
 11
11834.55117465193
 21
-1132.590287497433
 31
0.0
  0
LINE
  5
106
330
25
100
AcDbEntity
  8
1
  6
Continuous
 62
     0
100
AcDbLine
 10
11834.17567465193
 20
-1145.050287497433
 30
0.0
 11
11834.55117465193
 21
-1136.290287497433
 31
0.0
  0
LINE
  5
105
330
25
100
AcDbEntity
  8
1
  6
Continuous
 62
     0
100
AcDbLine
 10
11800.55117465193
 20
-1136.290287497433
 30
0.0
 11
11800.92667465193
 21
-1145.050287497433
 31
0.0
  0
LINE
  5
104
330
25
100
AcDbEntity
  8
1
  6
Continuous
 62
     0
100
AcDbLine
 10
11800.55117465193
 20
-1132.590287497433
 30
0.0
 11
11800.92667465193
 21
-1123.830287497432
 31
0.0
  0
LINE
  5
103
330
25
100
AcDbEntity
  8
1
  6
Continuous
 62
     0
100
AcDbLine
 10
11834.55117465193
 20
-1136.290287497433
 30
0.0
 11
11834.55117465193
 21
-1132.590287497433
 31
0.0
  0
LINE
  5
102
330
25
100
AcDbEntity
  8
1
  6
Continuous
 62
     0
100
AcDbLine
 10
11800.55117465193
 20
-1132.590287497433
 30
0.0
 11
11800.55117465193
 21
-1136.290287497433
 31
0.0
  0
LINE
  5
101
330
25
100
AcDbEntity
  8
1
  6
Continuous
 62
     0
100
AcDbLine
 10
11834.55117465193
 20
-1136.290287497433
 30
0.0
 11
11800.55117465193
 21
-1136.290287497433
 31
0.0
  0
LINE
  5
100
330
25
100
AcDbEntity
  8
1
  6
Continuous
 62
     0
100
AcDbLine
 10
11800.55117465193
 20
-1132.590287497433
 30
0.0
 11
11834.55117465193
 21
-1132.590287497433
 31
0.0
  0
LINE
  5
FF
330
25
100
AcDbEntity
  8
1
  6
Continuous
 62
     0
100
AcDbLine
 10
11795.53825692986
 20
-1150.050287497433
 30
0.0
 11
11839.56409237401
 21
-1150.050287497433
 31
0.0
  0
LINE
  5
FE
330
25
100
AcDbEntity
  8
1
  6
Continuous
 62
     0
100
AcDbLine
 10
11839.56409237401
 20
-1145.050287497433
 30
0.0
 11
11839.56409237401
 21
-1150.050287497433
 31
0.0
  0
LINE
  5
FD
330
25
100
AcDbEntity
  8
1
  6
Continuous
 62
     0
100
AcDbLine
 10
11795.53825692986
 20
-1145.050287497433
 30
0.0
 11
11795.53825692986
 21
-1150.050287497433
 31
0.0
  0
LINE
  5
FC
330
25
100
AcDbEntity
  8
1
  6
Continuous
 62
     0
100
AcDbLine
 10
11795.53825692986
 20
-1145.050287497433
 30
0.0
 11
11817.55117465193
 21
-1145.050287497433
 31
0.0
  0
LINE
  5
FB
330
25
100
AcDbEntity
  8
1
  6
Continuous
 62
     0
100
AcDbLine
 10
11817.55117465193
 20
-1145.050287497433
 30
0.0
 11
11839.56409237401
 21
-1145.050287497433
 31
0.0
  0
LINE
  5
FA
330
25
100
AcDbEntity
  8
1
  6
Continuous
 62
     0
100
AcDbLine
 10
11838.69308908694
 20
-1123.830287497432
 30
0.0
 11
11796.69308908694
 21
-1123.830287497432
 31
0.0
  0
LINE
  5
F9
330
25
100
AcDbEntity
  8
1
  6
Continuous
 62
     0
100
AcDbLine
 10
11791.19308908694
 20
-1123.830287497432
 30
0.0
 11
11844.19308908694
 21
-1123.830287497432
 31
0.0
  0
LINE
  5
F8
330
25
100
AcDbEntity
  8
1
  6
Continuous
 62
     0
100
AcDbLine
 10
11848.19308908694
 20
-1121.520886420673
 30
0.0
 11
11844.19308908694
 21
-1123.830287497432
 31
0.0
  0
LINE
  5
F7
330
25
100
AcDbEntity
  8
1
  6
Continuous
 62
     0
100
AcDbLine
 10
11787.19308908694
 20
-1121.520886420673
 30
0.0
 11
11791.19308908694
 21
-1123.830287497432
 31
0.0
  0
LINE
  5
F6
330
25
100
AcDbEntity
  8
1
  6
Continuous
 62
     0
100
AcDbLine
 10
11797.05117465193
 20
-1154.215368679696
 30
0.0
 11
11797.05117465193
 21
-1155.922999436971
 31
0.0
  0
LINE
  5
F5
330
25
100
AcDbEntity
  8
1
  6
Continuous
 62
     0
100
AcDbLine
 10
11838.05117465193
 20
-1154.215368679696
 30
0.0
 11
11838.05117465193
 21
-1155.548742964861
 31
0.0
  0
LINE
  5
F4
330
25
100
AcDbEntity
  8
1
  6
Continuous
 62
     0
100
AcDbLine
 10
11838.05117465193
 20
-1155.922999436971
 30
0.0
 11
11838.05117465193
 21
-1154.215368679696
 31
0.0
  0
LINE
  5
F3
330
25
100
AcDbEntity
  8
1
  6
Continuous
 62
     0
100
AcDbLine
 10
11852.55117465193
 20
-1097.830287497432
 30
0.0
 11
11852.55117465193
 21
-1105.830287497432
 31
0.0
  0
LINE
  5
F2
330
25
100
AcDbEntity
  8
1
  6
Continuous
 62
     0
100
AcDbLine
 10
11782.55117465193
 20
-1097.830287497432
 30
0.0
 11
11782.55117465193
 21
-1105.830287497432
 31
0.0
  0
LINE
  5
F1
330
25
100
AcDbEntity
  8
1
  6
Continuous
 62
     0
100
AcDbLine
 10
11840.55117465193
 20
-981.330287497432
 30
0.0
 11
11840.55117465193
 21
-1023.752937228242
 31
0.0
  0
LINE
  5
F0
330
25
100
AcDbEntity
  8
1
  6
Continuous
 62
     0
100
AcDbLine
 10
11838.55117465193
 20
-981.330287497432
 30
0.0
 11
11838.55117465193
 21
-1023.330287497432
 31
0.0
  0
LINE
  5
EF
330
25
100
AcDbEntity
  8
1
  6
Continuous
 62
     0
100
AcDbLine
 10
11825.88450798527
 20
-981.330287497432
 30
0.0
 11
11825.88450798527
 21
-1023.330287497432
 31
0.0
  0
LINE
  5
EE
330
25
100
AcDbEntity
  8
1
  6
Continuous
 62
     0
100
AcDbLine
 10
11823.88450798527
 20
-981.330287497432
 30
0.0
 11
11823.88450798527
 21
-1023.330287497432
 31
0.0
  0
LINE
  5
ED
330
25
100
AcDbEntity
  8
1
  6
Continuous
 62
     0
100
AcDbLine
 10
11811.2178413186
 20
-981.330287497432
 30
0.0
 11
11811.2178413186
 21
-1023.330287497432
 31
0.0
  0
LINE
  5
EC
330
25
100
AcDbEntity
  8
1
  6
Continuous
 62
     0
100
AcDbLine
 10
11809.2178413186
 20
-981.330287497432
 30
0.0
 11
11809.2178413186
 21
-1023.330287497432
 31
0.0
  0
LINE
  5
EB
330
25
100
AcDbEntity
  8
1
  6
Continuous
 62
     0
100
AcDbLine
 10
11796.55117465193
 20
-981.330287497432
 30
0.0
 11
11796.55117465193
 21
-1023.330287497432
 31
0.0
  0
LINE
  5
EA
330
25
100
AcDbEntity
  8
1
  6
Continuous
 62
     0
100
AcDbLine
 10
11794.55117465193
 20
-981.330287497432
 30
0.0
 11
11794.55117465193
 21
-1023.752937228242
 31
0.0
  0
LINE
  5
D8
330
25
100
AcDbEntity
  8
1
  6
Continuous
 62
     0
100
AcDbLine
 10
11813.55117465193
 20
-3679.418091203799
 30
0.0
 11
11813.55117465193
 21
-3686.418091203799
 31
0.0
  0
LINE
  5
D7
330
25
100
AcDbEntity
  8
1
  6
Continuous
 62
     0
100
AcDbLine
 10
11821.55117465193
 20
-3686.418091203799
 30
0.0
 11
11821.55117465193
 21
-3679.418091203799
 31
0.0
  0
LINE
  5
D6
330
25
100
AcDbEntity
  8
1
  6
Continuous
 62
     0
100
AcDbLine
 10
11817.55117465193
 20
-3691.418091203799
 30
0.0
 11
11831.05117465193
 21
-3691.418091203799
 31
0.0
  0
LINE
  5
D5
330
25
100
AcDbEntity
  8
1
  6
Continuous
 62
     0
100
AcDbLine
 10
11812.98318356616
 20
-3688.418091203799
 30
0.0
 11
11807.48986658967
 21
-3688.418091203799
 31
0.0
  0
LINE
  5
D4
330
25
100
AcDbEntity
  8
1
  6
Continuous
 62
     0
100
AcDbLine
 10
11804.05117465193
 20
-3691.418091203799
 30
0.0
 11
11817.55117465193
 21
-3691.418091203799
 31
0.0
  0
LINE
  5
D3
330
25
100
AcDbEntity
  8
1
  6
Continuous
 62
     0
100
AcDbLine
 10
11819.55117465193
 20
-3688.418091203799
 30
0.0
 11
11815.55117465193
 21
-3688.418091203799
 31
0.0
  0
LINE
  5
D2
330
25
100
AcDbEntity
  8
1
  6
Continuous
 62
     0
100
AcDbLine
 10
11813.55117465193
 20
-3679.418091203799
 30
0.0
 11
11813.55117465193
 21
-3686.418091203799
 31
0.0
  0
LINE
  5
D1
330
25
100
AcDbEntity
  8
1
  6
Continuous
 62
     0
100
AcDbLine
 10
11821.55117465193
 20
-3686.418091203799
 30
0.0
 11
11821.55117465193
 21
-3679.418091203799
 31
0.0
  0
LINE
  5
CF
330
25
100
AcDbEntity
  8
1
  6
Continuous
 62
     0
100
AcDbLine
 10
11827.46888917475
 20
-3679.418091203799
 30
0.0
 11
11807.63346012912
 21
-3679.418091203799
 31
0.0
  0
LINE
  5
CE
330
25
100
AcDbEntity
  8
1
  6
Continuous
 62
     0
100
AcDbLine
 10
11827.6124827142
 20
-3688.418091203799
 30
0.0
 11
11822.1191657377
 21
-3688.418091203799
 31
0.0
  0
LINE
  5
CD
330
25
100
AcDbEntity
  8
1
  6
Continuous
 62
     0
100
AcDbLine
 10
15424.4971358269
 20
-3538.243720262341
 30
0.0
 11
15421.8721358269
 21
-3536.493720262341
 31
0.0
  0
LINE
  5
CC
330
25
100
AcDbEntity
  8
1
  6
Continuous
 62
     0
100
AcDbLine
 10
15421.8721358269
 20
-3536.493720262341
 30
0.0
 11
15419.2471358269
 21
-3535.618720262341
 31
0.0
  0
LINE
  5
CB
330
25
100
AcDbEntity
  8
1
  6
Continuous
 62
     0
100
AcDbLine
 10
15419.2471358269
 20
-3535.618720262341
 30
0.0
 11
15414.8721358269
 21
-3534.743720262341
 31
0.0
  0
LINE
  5
CA
330
25
100
AcDbEntity
  8
1
  6
Continuous
 62
     0
100
AcDbLine
 10
15414.8721358269
 20
-3534.743720262341
 30
0.0
 11
15411.3721358269
 21
-3534.743720262341
 31
0.0
  0
LINE
  5
C9
330
25
100
AcDbEntity
  8
1
  6
Continuous
 62
     0
100
AcDbLine
 10
15411.3721358269
 20
-3534.743720262341
 30
0.0
 11
15407.8721358269
 21
-3535.618720262341
 31
0.0
  0
LINE
  5
C8
330
25
100
AcDbEntity
  8
1
  6
Continuous
 62
     0
100
AcDbLine
 10
15407.8721358269
 20
-3535.618720262341
 30
0.0
 11
15405.2471358269
 21
-3536.493720262341
 31
0.0
  0
LINE
  5
C7
330
25
100
AcDbEntity
  8
1
  6
Continuous
 62
     0
100
AcDbLine
 10
15405.2471358269
 20
-3536.493720262341
 30
0.0
 11
15402.6221358269
 21
-3538.243720262341
 31
0.0
  0
LINE
  5
C6
330
25
100
AcDbEntity
  8
1
  6
Continuous
 62
     0
100
AcDbLine
 10
15402.6221358269
 20
-3538.243720262341
 30
0.0
 11
15401.7471358269
 21
-3540.868720262341
 31
0.0
  0
LINE
  5
C5
330
25
100
AcDbEntity
  8
1
  6
Continuous
 62
     0
100
AcDbLine
 10
15401.7471358269
 20
-3540.868720262341
 30
0.0
 11
15401.7471358269
 21
-3542.618720262341
 31
0.0
  0
LINE
  5
C4
330
25
100
AcDbEntity
  8
1
  6
Continuous
 62
     0
100
AcDbLine
 10
15401.7471358269
 20
-3542.618720262341
 30
0.0
 11
15402.6221358269
 21
-3545.243720262341
 31
0.0
  0
LINE
  5
C3
330
25
100
AcDbEntity
  8
1
  6
Continuous
 62
     0
100
AcDbLine
 10
15402.6221358269
 20
-3545.243720262341
 30
0.0
 11
15405.2471358269
 21
-3546.993720262341
 31
0.0
  0
LINE
  5
C2
330
25
100
AcDbEntity
  8
1
  6
Continuous
 62
     0
100
AcDbLine
 10
15405.2471358269
 20
-3546.993720262341
 30
0.0
 11
15420.1221358269
 21
-3553.118720262341
 31
0.0
  0
LINE
  5
C1
330
25
100
AcDbEntity
  8
1
  6
Continuous
 62
     0
100
AcDbLine
 10
15420.1221358269
 20
-3553.118720262341
 30
0.0
 11
15422.7471358269
 21
-3554.868720262341
 31
0.0
  0
LINE
  5
C0
330
25
100
AcDbEntity
  8
1
  6
Continuous
 62
     0
100
AcDbLine
 10
15422.7471358269
 20
-3554.868720262341
 30
0.0
 11
15424.4971358269
 21
-3557.493720262341
 31
0.0
  0
LINE
  5
BF
330
25
100
AcDbEntity
  8
1
  6
Continuous
 62
     0
100
AcDbLine
 10
15424.4971358269
 20
-3557.493720262341
 30
0.0
 11
15425.3721358269
 21
-3560.118720262341
 31
0.0
  0
LINE
  5
BE
330
25
100
AcDbEntity
  8
1
  6
Continuous
 62
     0
100
AcDbLine
 10
15425.3721358269
 20
-3560.118720262341
 30
0.0
 11
15425.3721358269
 21
-3561.868720262341
 31
0.0
  0
LINE
  5
BD
330
25
100
AcDbEntity
  8
1
  6
Continuous
 62
     0
100
AcDbLine
 10
15425.3721358269
 20
-3561.868720262341
 30
0.0
 11
15424.4971358269
 21
-3564.493720262341
 31
0.0
  0
LINE
  5
BC
330
25
100
AcDbEntity
  8
1
  6
Continuous
 62
     0
100
AcDbLine
 10
15424.4971358269
 20
-3564.493720262341
 30
0.0
 11
15422.7471358269
 21
-3567.118720262341
 31
0.0
  0
LINE
  5
BB
330
25
100
AcDbEntity
  8
1
  6
Continuous
 62
     0
100
AcDbLine
 10
15422.7471358269
 20
-3567.118720262341
 30
0.0
 11
15420.1221358269
 21
-3568.868720262341
 31
0.0
  0
LINE
  5
BA
330
25
100
AcDbEntity
  8
1
  6
Continuous
 62
     0
100
AcDbLine
 10
15420.1221358269
 20
-3568.868720262341
 30
0.0
 11
15415.7471358269
 21
-3569.743720262341
 31
0.0
  0
LINE
  5
B9
330
25
100
AcDbEntity
  8
1
  6
Continuous
 62
     0
100
AcDbLine
 10
15415.7471358269
 20
-3569.743720262341
 30
0.0
 11
15410.4971358269
 21
-3569.743720262341
 31
0.0
  0
LINE
  5
B8
330
25
100
AcDbEntity
  8
1
  6
Continuous
 62
     0
100
AcDbLine
 10
15410.4971358269
 20
-3569.743720262341
 30
0.0
 11
15406.1221358269
 21
-3568.868720262341
 31
0.0
  0
LINE
  5
B7
330
25
100
AcDbEntity
  8
1
  6
Continuous
 62
     0
100
AcDbLine
 10
15406.1221358269
 20
-3568.868720262341
 30
0.0
 11
15402.6221358269
 21
-3567.118720262341
 31
0.0
  0
LINE
  5
B6
330
25
100
AcDbEntity
  8
1
  6
Continuous
 62
     0
100
AcDbLine
 10
15402.6221358269
 20
-3567.118720262341
 30
0.0
 11
15400.8721358269
 21
-3565.368720262341
 31
0.0
  0
LINE
  5
B5
330
25
100
AcDbEntity
  8
1
  6
Continuous
 62
     0
100
AcDbLine
 10
15440.2471358269
 20
-3559.243720262341
 30
0.0
 11
15459.4971358269
 21
-3559.243720262341
 31
0.0
  0
LINE
  5
B4
330
25
100
AcDbEntity
  8
1
  6
Continuous
 62
     0
100
AcDbLine
 10
15435.8721358269
 20
-3569.743720262341
 30
0.0
 11
15449.8721358269
 21
-3534.743720262341
 31
0.0
  0
LINE
  5
B3
330
25
100
AcDbEntity
  8
1
  6
Continuous
 62
     0
100
AcDbLine
 10
15449.8721358269
 20
-3534.743720262341
 30
0.0
 11
15463.8721358269
 21
-3569.743720262341
 31
0.0
  0
LINE
  5
B2
330
25
100
AcDbEntity
  8
1
  6
Continuous
 62
     0
100
AcDbLine
 10
15486.6221358269
 20
-3534.743720262341
 30
0.0
 11
15498.8721358269
 21
-3534.743720262341
 31
0.0
  0
LINE
  5
B1
330
25
100
AcDbEntity
  8
1
  6
Continuous
 62
     0
100
AcDbLine
 10
15474.3721358269
 20
-3534.743720262341
 30
0.0
 11
15486.6221358269
 21
-3534.743720262341
 31
0.0
  0
LINE
  5
B0
330
25
100
AcDbEntity
  8
1
  6
Continuous
 62
     0
100
AcDbLine
 10
15486.6221358269
 20
-3534.743720262341
 30
0.0
 11
15486.6221358269
 21
-3569.743720262341
 31
0.0
  0
LINE
  5
AF
330
25
100
AcDbEntity
  8
1
  6
Continuous
 62
     0
100
AcDbLine
 10
15509.3721358269
 20
-3557.493720262341
 30
0.0
 11
15526.8721358269
 21
-3557.493720262341
 31
0.0
  0
LINE
  5
AE
330
25
100
AcDbEntity
  8
1
  6
Continuous
 62
     0
100
AcDbLine
 10
15537.3721358269
 20
-3545.243720262341
 30
0.0
 11
15547.8721358269
 21
-3534.743720262341
 31
0.0
  0
LINE
  5
AD
330
25
100
AcDbEntity
  8
1
  6
Continuous
 62
     0
100
AcDbLine
 10
15547.8721358269
 20
-3534.743720262341
 30
0.0
 11
15547.8721358269
 21
-3569.743720262341
 31
0.0
  0
LINE
  5
AC
330
25
100
AcDbEntity
  8
1
  6
Continuous
 62
     0
100
AcDbLine
 10
15579.3721358269
 20
-3556.618720262341
 30
0.0
 11
15578.4971358269
 21
-3561.868720262341
 31
0.0
  0
LINE
  5
AB
330
25
100
AcDbEntity
  8
1
  6
Continuous
 62
     0
100
AcDbLine
 10
15578.4971358269
 20
-3561.868720262341
 30
0.0
 11
15576.7471358269
 21
-3565.368720262341
 31
0.0
  0
LINE
  5
AA
330
25
100
AcDbEntity
  8
1
  6
Continuous
 62
     0
100
AcDbLine
 10
15576.7471358269
 20
-3565.368720262341
 30
0.0
 11
15574.9971358269
 21
-3567.118720262341
 31
0.0
  0
LINE
  5
A9
330
25
100
AcDbEntity
  8
1
  6
Continuous
 62
     0
100
AcDbLine
 10
15574.9971358269
 20
-3567.118720262341
 30
0.0
 11
15572.3721358269
 21
-3568.868720262341
 31
0.0
  0
LINE
  5
A8
330
25
100
AcDbEntity
  8
1
  6
Continuous
 62
     0
100
AcDbLine
 10
15572.3721358269
 20
-3568.868720262341
 30
0.0
 11
15569.7471358269
 21
-3569.743720262341
 31
0.0
  0
LINE
  5
A7
330
25
100
AcDbEntity
  8
1
  6
Continuous
 62
     0
100
AcDbLine
 10
15569.7471358269
 20
-3569.743720262341
 30
0.0
 11
15567.9971358269
 21
-3569.743720262341
 31
0.0
  0
LINE
  5
A6
330
25
100
AcDbEntity
  8
1
  6
Continuous
 62
     0
100
AcDbLine
 10
15567.9971358269
 20
-3569.743720262341
 30
0.0
 11
15565.3721358269
 21
-3568.868720262341
 31
0.0
  0
LINE
  5
A5
330
25
100
AcDbEntity
  8
1
  6
Continuous
 62
     0
100
AcDbLine
 10
15565.3721358269
 20
-3568.868720262341
 30
0.0
 11
15562.7471358269
 21
-3567.118720262341
 31
0.0
  0
LINE
  5
A4
330
25
100
AcDbEntity
  8
1
  6
Continuous
 62
     0
100
AcDbLine
 10
15562.7471358269
 20
-3567.118720262341
 30
0.0
 11
15560.9971358269
 21
-3565.368720262341
 31
0.0
  0
LINE
  5
A3
330
25
100
AcDbEntity
  8
1
  6
Continuous
 62
     0
100
AcDbLine
 10
15560.9971358269
 20
-3565.368720262341
 30
0.0
 11
15559.2471358269
 21
-3561.868720262341
 31
0.0
  0
LINE
  5
A2
330
25
100
AcDbEntity
  8
1
  6
Continuous
 62
     0
100
AcDbLine
 10
15559.2471358269
 20
-3561.868720262341
 30
0.0
 11
15558.3721358269
 21
-3556.618720262341
 31
0.0
  0
LINE
  5
A1
330
25
100
AcDbEntity
  8
1
  6
Continuous
 62
     0
100
AcDbLine
 10
15558.3721358269
 20
-3556.618720262341
 30
0.0
 11
15558.3721358269
 21
-3547.868720262341
 31
0.0
  0
LINE
  5
A0
330
25
100
AcDbEntity
  8
1
  6
Continuous
 62
     0
100
AcDbLine
 10
15558.3721358269
 20
-3547.868720262341
 30
0.0
 11
15559.2471358269
 21
-3542.618720262341
 31
0.0
  0
LINE
  5
9F
330
25
100
AcDbEntity
  8
1
  6
Continuous
 62
     0
100
AcDbLine
 10
15559.2471358269
 20
-3542.618720262341
 30
0.0
 11
15560.9971358269
 21
-3539.118720262341
 31
0.0
  0
LINE
  5
9E
330
25
100
AcDbEntity
  8
1
  6
Continuous
 62
     0
100
AcDbLine
 10
15560.9971358269
 20
-3539.118720262341
 30
0.0
 11
15562.7471358269
 21
-3537.368720262341
 31
0.0
  0
LINE
  5
9D
330
25
100
AcDbEntity
  8
1
  6
Continuous
 62
     0
100
AcDbLine
 10
15562.7471358269
 20
-3537.368720262341
 30
0.0
 11
15565.3721358269
 21
-3535.618720262341
 31
0.0
  0
LINE
  5
9C
330
25
100
AcDbEntity
  8
1
  6
Continuous
 62
     0
100
AcDbLine
 10
15565.3721358269
 20
-3535.618720262341
 30
0.0
 11
15567.9971358269
 21
-3534.743720262341
 31
0.0
  0
LINE
  5
9B
330
25
100
AcDbEntity
  8
1
  6
Continuous
 62
     0
100
AcDbLine
 10
15567.9971358269
 20
-3534.743720262341
 30
0.0
 11
15569.7471358269
 21
-3534.743720262341
 31
0.0
  0
LINE
  5
9A
330
25
100
AcDbEntity
  8
1
  6
Continuous
 62
     0
100
AcDbLine
 10
15569.7471358269
 20
-3534.743720262341
 30
0.0
 11
15572.3721358269
 21
-3535.618720262341
 31
0.0
  0
LINE
  5
99
330
25
100
AcDbEntity
  8
1
  6
Continuous
 62
     0
100
AcDbLine
 10
15572.3721358269
 20
-3535.618720262341
 30
0.0
 11
15574.9971358269
 21
-3537.368720262341
 31
0.0
  0
LINE
  5
98
330
25
100
AcDbEntity
  8
1
  6
Continuous
 62
     0
100
AcDbLine
 10
15574.9971358269
 20
-3537.368720262341
 30
0.0
 11
15576.7471358269
 21
-3539.118720262341
 31
0.0
  0
LINE
  5
97
330
25
100
AcDbEntity
  8
1
  6
Continuous
 62
     0
100
AcDbLine
 10
15576.7471358269
 20
-3539.118720262341
 30
0.0
 11
15578.4971358269
 21
-3542.618720262341
 31
0.0
  0
LINE
  5
96
330
25
100
AcDbEntity
  8
1
  6
Continuous
 62
     0
100
AcDbLine
 10
15578.4971358269
 20
-3542.618720262341
 30
0.0
 11
15579.3721358269
 21
-3547.868720262341
 31
0.0
  0
LINE
  5
95
330
25
100
AcDbEntity
  8
1
  6
Continuous
 62
     0
100
AcDbLine
 10
15579.3721358269
 20
-3547.868720262341
 30
0.0
 11
15579.3721358269
 21
-3556.618720262341
 31
0.0
  0
LINE
  5
94
330
25
100
AcDbEntity
  8
1
  6
Continuous
 62
     0
100
AcDbLine
 10
15610.8721358269
 20
-3556.618720262341
 30
0.0
 11
15609.9971358269
 21
-3561.868720262341
 31
0.0
  0
LINE
  5
93
330
25
100
AcDbEntity
  8
1
  6
Continuous
 62
     0
100
AcDbLine
 10
15609.9971358269
 20
-3561.868720262341
 30
0.0
 11
15608.2471358269
 21
-3565.368720262341
 31
0.0
  0
LINE
  5
92
330
25
100
AcDbEntity
  8
1
  6
Continuous
 62
     0
100
AcDbLine
 10
15608.2471358269
 20
-3565.368720262341
 30
0.0
 11
15606.4971358269
 21
-3567.118720262341
 31
0.0
  0
LINE
  5
91
330
25
100
AcDbEntity
  8
1
  6
Continuous
 62
     0
100
AcDbLine
 10
15606.4971358269
 20
-3567.118720262341
 30
0.0
 11
15603.8721358269
 21
-3568.868720262341
 31
0.0
  0
LINE
  5
90
330
25
100
AcDbEntity
  8
1
  6
Continuous
 62
     0
100
AcDbLine
 10
15603.8721358269
 20
-3568.868720262341
 30
0.0
 11
15601.2471358269
 21
-3569.743720262341
 31
0.0
  0
LINE
  5
8F
330
25
100
AcDbEntity
  8
1
  6
Continuous
 62
     0
100
AcDbLine
 10
15601.2471358269
 20
-3569.743720262341
 30
0.0
 11
15599.4971358269
 21
-3569.743720262341
 31
0.0
  0
LINE
  5
8E
330
25
100
AcDbEntity
  8
1
  6
Continuous
 62
     0
100
AcDbLine
 10
15599.4971358269
 20
-3569.743720262341
 30
0.0
 11
15596.8721358269
 21
-3568.868720262341
 31
0.0
  0
LINE
  5
8D
330
25
100
AcDbEntity
  8
1
  6
Continuous
 62
     0
100
AcDbLine
 10
15596.8721358269
 20
-3568.868720262341
 30
0.0
 11
15594.2471358269
 21
-3567.118720262341
 31
0.0
  0
LINE
  5
8C
330
25
100
AcDbEntity
  8
1
  6
Continuous
 62
     0
100
AcDbLine
 10
15594.2471358269
 20
-3567.118720262341
 30
0.0
 11
15592.4971358269
 21
-3565.368720262341
 31
0.0
  0
LINE
  5
8B
330
25
100
AcDbEntity
  8
1
  6
Continuous
 62
     0
100
AcDbLine
 10
15592.4971358269
 20
-3565.368720262341
 30
0.0
 11
15590.7471358269
 21
-3561.868720262341
 31
0.0
  0
LINE
  5
8A
330
25
100
AcDbEntity
  8
1
  6
Continuous
 62
     0
100
AcDbLine
 10
15590.7471358269
 20
-3561.868720262341
 30
0.0
 11
15589.8721358269
 21
-3556.618720262341
 31
0.0
  0
LINE
  5
89
330
25
100
AcDbEntity
  8
1
  6
Continuous
 62
     0
100
AcDbLine
 10
15589.8721358269
 20
-3556.618720262341
 30
0.0
 11
15589.8721358269
 21
-3547.868720262341
 31
0.0
  0
LINE
  5
88
330
25
100
AcDbEntity
  8
1
  6
Continuous
 62
     0
100
AcDbLine
 10
15589.8721358269
 20
-3547.868720262341
 30
0.0
 11
15590.7471358269
 21
-3542.618720262341
 31
0.0
  0
LINE
  5
87
330
25
100
AcDbEntity
  8
1
  6
Continuous
 62
     0
100
AcDbLine
 10
15590.7471358269
 20
-3542.618720262341
 30
0.0
 11
15592.4971358269
 21
-3539.118720262341
 31
0.0
  0
LINE
  5
86
330
25
100
AcDbEntity
  8
1
  6
Continuous
 62
     0
100
AcDbLine
 10
15592.4971358269
 20
-3539.118720262341
 30
0.0
 11
15594.2471358269
 21
-3537.368720262341
 31
0.0
  0
LINE
  5
85
330
25
100
AcDbEntity
  8
1
  6
Continuous
 62
     0
100
AcDbLine
 10
15594.2471358269
 20
-3537.368720262341
 30
0.0
 11
15596.8721358269
 21
-3535.618720262341
 31
0.0
  0
LINE
  5
84
330
25
100
AcDbEntity
  8
1
  6
Continuous
 62
     0
100
AcDbLine
 10
15596.8721358269
 20
-3535.618720262341
 30
0.0
 11
15599.4971358269
 21
-3534.743720262341
 31
0.0
  0
LINE
  5
83
330
25
100
AcDbEntity
  8
1
  6
Continuous
 62
     0
100
AcDbLine
 10
15599.4971358269
 20
-3534.743720262341
 30
0.0
 11
15601.2471358269
 21
-3534.743720262341
 31
0.0
  0
LINE
  5
82
330
25
100
AcDbEntity
  8
1
  6
Continuous
 62
     0
100
AcDbLine
 10
15601.2471358269
 20
-3534.743720262341
 30
0.0
 11
15603.8721358269
 21
-3535.618720262341
 31
0.0
  0
LINE
  5
81
330
25
100
AcDbEntity
  8
1
  6
Continuous
 62
     0
100
AcDbLine
 10
15603.8721358269
 20
-3535.618720262341
 30
0.0
 11
15606.4971358269
 21
-3537.368720262341
 31
0.0
  0
LINE
  5
80
330
25
100
AcDbEntity
  8
1
  6
Continuous
 62
     0
100
AcDbLine
 10
15606.4971358269
 20
-3537.368720262341
 30
0.0
 11
15608.2471358269
 21
-3539.118720262341
 31
0.0
  0
LINE
  5
7F
330
25
100
AcDbEntity
  8
1
  6
Continuous
 62
     0
100
AcDbLine
 10
15608.2471358269
 20
-3539.118720262341
 30
0.0
 11
15609.9971358269
 21
-3542.618720262341
 31
0.0
  0
LINE
  5
7E
330
25
100
AcDbEntity
  8
1
  6
Continuous
 62
     0
100
AcDbLine
 10
15609.9971358269
 20
-3542.618720262341
 30
0.0
 11
15610.8721358269
 21
-3547.868720262341
 31
0.0
  0
LINE
  5
7D
330
25
100
AcDbEntity
  8
1
  6
Continuous
 62
     0
100
AcDbLine
 10
15610.8721358269
 20
-3547.868720262341
 30
0.0
 11
15610.8721358269
 21
-3556.618720262341
 31
0.0
  0
LINE
  5
7C
330
25
100
AcDbEntity
  8
1
  6
Continuous
 62
     0
100
AcDbLine
 10
15642.3721358269
 20
-3556.618720262341
 30
0.0
 11
15641.4971358269
 21
-3561.868720262341
 31
0.0
  0
LINE
  5
7B
330
25
100
AcDbEntity
  8
1
  6
Continuous
 62
     0
100
AcDbLine
 10
15641.4971358269
 20
-3561.868720262341
 30
0.0
 11
15639.7471358269
 21
-3565.368720262341
 31
0.0
  0
LINE
  5
7A
330
25
100
AcDbEntity
  8
1
  6
Continuous
 62
     0
100
AcDbLine
 10
15639.7471358269
 20
-3565.368720262341
 30
0.0
 11
15637.9971358269
 21
-3567.118720262341
 31
0.0
  0
LINE
  5
79
330
25
100
AcDbEntity
  8
1
  6
Continuous
 62
     0
100
AcDbLine
 10
15637.9971358269
 20
-3567.118720262341
 30
0.0
 11
15635.3721358269
 21
-3568.868720262341
 31
0.0
  0
LINE
  5
78
330
25
100
AcDbEntity
  8
1
  6
Continuous
 62
     0
100
AcDbLine
 10
15635.3721358269
 20
-3568.868720262341
 30
0.0
 11
15632.7471358269
 21
-3569.743720262341
 31
0.0
  0
LINE
  5
77
330
25
100
AcDbEntity
  8
1
  6
Continuous
 62
     0
100
AcDbLine
 10
15632.7471358269
 20
-3569.743720262341
 30
0.0
 11
15630.9971358269
 21
-3569.743720262341
 31
0.0
  0
LINE
  5
76
330
25
100
AcDbEntity
  8
1
  6
Continuous
 62
     0
100
AcDbLine
 10
15630.9971358269
 20
-3569.743720262341
 30
0.0
 11
15628.3721358269
 21
-3568.868720262341
 31
0.0
  0
LINE
  5
75
330
25
100
AcDbEntity
  8
1
  6
Continuous
 62
     0
100
AcDbLine
 10
15628.3721358269
 20
-3568.868720262341
 30
0.0
 11
15625.7471358269
 21
-3567.118720262341
 31
0.0
  0
LINE
  5
74
330
25
100
AcDbEntity
  8
1
  6
Continuous
 62
     0
100
AcDbLine
 10
15625.7471358269
 20
-3567.118720262341
 30
0.0
 11
15623.9971358269
 21
-3565.368720262341
 31
0.0
  0
LINE
  5
73
330
25
100
AcDbEntity
  8
1
  6
Continuous
 62
     0
100
AcDbLine
 10
15623.9971358269
 20
-3565.368720262341
 30
0.0
 11
15622.2471358269
 21
-3561.868720262341
 31
0.0
  0
LINE
  5
72
330
25
100
AcDbEntity
  8
1
  6
Continuous
 62
     0
100
AcDbLine
 10
15622.2471358269
 20
-3561.868720262341
 30
0.0
 11
15621.3721358269
 21
-3556.618720262341
 31
0.0
  0
LINE
  5
71
330
25
100
AcDbEntity
  8
1
  6
Continuous
 62
     0
100
AcDbLine
 10
15621.3721358269
 20
-3556.618720262341
 30
0.0
 11
15621.3721358269
 21
-3547.868720262341
 31
0.0
  0
LINE
  5
70
330
25
100
AcDbEntity
  8
1
  6
Continuous
 62
     0
100
AcDbLine
 10
15621.3721358269
 20
-3547.868720262341
 30
0.0
 11
15622.2471358269
 21
-3542.618720262341
 31
0.0
  0
LINE
  5
6F
330
25
100
AcDbEntity
  8
1
  6
Continuous
 62
     0
100
AcDbLine
 10
15622.2471358269
 20
-3542.618720262341
 30
0.0
 11
15623.9971358269
 21
-3539.118720262341
 31
0.0
  0
LINE
  5
6E
330
25
100
AcDbEntity
  8
1
  6
Continuous
 62
     0
100
AcDbLine
 10
15623.9971358269
 20
-3539.118720262341
 30
0.0
 11
15625.7471358269
 21
-3537.368720262341
 31
0.0
  0
LINE
  5
6D
330
25
100
AcDbEntity
  8
1
  6
Continuous
 62
     0
100
AcDbLine
 10
15625.7471358269
 20
-3537.368720262341
 30
0.0
 11
15628.3721358269
 21
-3535.618720262341
 31
0.0
  0
LINE
  5
6C
330
25
100
AcDbEntity
  8
1
  6
Continuous
 62
     0
100
AcDbLine
 10
15628.3721358269
 20
-3535.618720262341
 30
0.0
 11
15630.9971358269
 21
-3534.743720262341
 31
0.0
  0
LINE
  5
6B
330
25
100
AcDbEntity
  8
1
  6
Continuous
 62
     0
100
AcDbLine
 10
15630.9971358269
 20
-3534.743720262341
 30
0.0
 11
15632.7471358269
 21
-3534.743720262341
 31
0.0
  0
LINE
  5
6A
330
25
100
AcDbEntity
  8
1
  6
Continuous
 62
     0
100
AcDbLine
 10
15632.7471358269
 20
-3534.743720262341
 30
0.0
 11
15635.3721358269
 21
-3535.618720262341
 31
0.0
  0
LINE
  5
69
330
25
100
AcDbEntity
  8
1
  6
Continuous
 62
     0
100
AcDbLine
 10
15635.3721358269
 20
-3535.618720262341
 30
0.0
 11
15637.9971358269
 21
-3537.368720262341
 31
0.0
  0
LINE
  5
68
330
25
100
AcDbEntity
  8
1
  6
Continuous
 62
     0
100
AcDbLine
 10
15637.9971358269
 20
-3537.368720262341
 30
0.0
 11
15639.7471358269
 21
-3539.118720262341
 31
0.0
  0
LINE
  5
67
330
25
100
AcDbEntity
  8
1
  6
Continuous
 62
     0
100
AcDbLine
 10
15639.7471358269
 20
-3539.118720262341
 30
0.0
 11
15641.4971358269
 21
-3542.618720262341
 31
0.0
  0
LINE
  5
66
330
25
100
AcDbEntity
  8
1
  6
Continuous
 62
     0
100
AcDbLine
 10
15641.4971358269
 20
-3542.618720262341
 30
0.0
 11
15642.3721358269
 21
-3547.868720262341
 31
0.0
  0
LINE
  5
65
330
25
100
AcDbEntity
  8
1
  6
Continuous
 62
     0
100
AcDbLine
 10
15642.3721358269
 20
-3547.868720262341
 30
0.0
 11
15642.3721358269
 21
-3556.618720262341
 31
0.0
  0
LINE
  5
64
330
25
100
AcDbEntity
  8
1
  6
Continuous
 62
     0
100
AcDbLine
 10
15673.8721358269
 20
-3569.743720262341
 30
0.0
 11
15662.4971358269
 21
-3569.743720262341
 31
0.0
  0
LINE
  5
63
330
25
100
AcDbEntity
  8
1
  6
Continuous
 62
     0
100
AcDbLine
 10
15662.4971358269
 20
-3569.743720262341
 30
0.0
 11
15658.9971358269
 21
-3568.868720262341
 31
0.0
  0
LINE
  5
62
330
25
100
AcDbEntity
  8
1
  6
Continuous
 62
     0
100
AcDbLine
 10
15658.9971358269
 20
-3568.868720262341
 30
0.0
 11
15656.3721358269
 21
-3567.118720262341
 31
0.0
  0
LINE
  5
61
330
25
100
AcDbEntity
  8
1
  6
Continuous
 62
     0
100
AcDbLine
 10
15656.3721358269
 20
-3567.118720262341
 30
0.0
 11
15654.6221358269
 21
-3565.368720262341
 31
0.0
  0
LINE
  5
60
330
25
100
AcDbEntity
  8
1
  6
Continuous
 62
     0
100
AcDbLine
 10
15654.6221358269
 20
-3565.368720262341
 30
0.0
 11
15653.7471358269
 21
-3562.743720262341
 31
0.0
  0
LINE
  5
5F
330
25
100
AcDbEntity
  8
1
  6
Continuous
 62
     0
100
AcDbLine
 10
15653.7471358269
 20
-3562.743720262341
 30
0.0
 11
15652.8721358269
 21
-3559.243720262341
 31
0.0
  0
LINE
  5
5E
330
25
100
AcDbEntity
  8
1
  6
Continuous
 62
     0
100
AcDbLine
 10
15652.8721358269
 20
-3559.243720262341
 30
0.0
 11
15652.8721358269
 21
-3545.243720262341
 31
0.0
  0
LINE
  5
5D
330
25
100
AcDbEntity
  8
1
  6
Continuous
 62
     0
100
AcDbLine
 10
15652.8721358269
 20
-3545.243720262341
 30
0.0
 11
15653.7471358269
 21
-3541.743720262341
 31
0.0
  0
LINE
  5
5C
330
25
100
AcDbEntity
  8
1
  6
Continuous
 62
     0
100
AcDbLine
 10
15653.7471358269
 20
-3541.743720262341
 30
0.0
 11
15654.6221358269
 21
-3539.118720262341
 31
0.0
  0
LINE
  5
5B
330
25
100
AcDbEntity
  8
1
  6
Continuous
 62
     0
100
AcDbLine
 10
15654.6221358269
 20
-3539.118720262341
 30
0.0
 11
15656.3721358269
 21
-3537.368720262341
 31
0.0
  0
LINE
  5
5A
330
25
100
AcDbEntity
  8
1
  6
Continuous
 62
     0
100
AcDbLine
 10
15656.3721358269
 20
-3537.368720262341
 30
0.0
 11
15658.9971358269
 21
-3535.618720262341
 31
0.0
  0
LINE
  5
59
330
25
100
AcDbEntity
  8
1
  6
Continuous
 62
     0
100
AcDbLine
 10
15658.9971358269
 20
-3535.618720262341
 30
0.0
 11
15662.4971358269
 21
-3534.743720262341
 31
0.0
  0
LINE
  5
58
330
25
100
AcDbEntity
  8
1
  6
Continuous
 62
     0
100
AcDbLine
 10
15662.4971358269
 20
-3534.743720262341
 30
0.0
 11
15673.8721358269
 21
-3534.743720262341
 31
0.0
  0
LINE
  5
57
330
25
100
AcDbEntity
  8
1
  6
Continuous
 62
     0
100
AcDbLine
 10
15684.3721358269
 20
-3557.493720262341
 30
0.0
 11
15701.8721358269
 21
-3557.493720262341
 31
0.0
  0
LINE
  5
56
330
25
100
AcDbEntity
  8
1
  6
Continuous
 62
     0
100
AcDbLine
 10
15721.1221358269
 20
-3548.743720262341
 30
0.0
 11
15716.7471358269
 21
-3550.493720262341
 31
0.0
  0
LINE
  5
55
330
25
100
AcDbEntity
  8
1
  6
Continuous
 62
     0
100
AcDbLine
 10
15716.7471358269
 20
-3550.493720262341
 30
0.0
 11
15714.1221358269
 21
-3553.118720262341
 31
0.0
  0
LINE
  5
54
330
25
100
AcDbEntity
  8
1
  6
Continuous
 62
     0
100
AcDbLine
 10
15714.1221358269
 20
-3553.118720262341
 30
0.0
 11
15712.3721358269
 21
-3556.618720262341
 31
0.0
  0
LINE
  5
53
330
25
100
AcDbEntity
  8
1
  6
Continuous
 62
     0
100
AcDbLine
 10
15712.3721358269
 20
-3556.618720262341
 30
0.0
 11
15712.3721358269
 21
-3561.868720262341
 31
0.0
  0
LINE
  5
52
330
25
100
AcDbEntity
  8
1
  6
Continuous
 62
     0
100
AcDbLine
 10
15712.3721358269
 20
-3561.868720262341
 30
0.0
 11
15714.1221358269
 21
-3565.368720262341
 31
0.0
  0
LINE
  5
51
330
25
100
AcDbEntity
  8
1
  6
Continuous
 62
     0
100
AcDbLine
 10
15714.1221358269
 20
-3565.368720262341
 30
0.0
 11
15716.7471358269
 21
-3567.993720262341
 31
0.0
  0
LINE
  5
50
330
25
100
AcDbEntity
  8
1
  6
Continuous
 62
     0
100
AcDbLine
 10
15716.7471358269
 20
-3567.993720262341
 30
0.0
 11
15720.2471358269
 21
-3569.743720262341
 31
0.0
  0
LINE
  5
4F
330
25
100
AcDbEntity
  8
1
  6
Continuous
 62
     0
100
AcDbLine
 10
15720.2471358269
 20
-3569.743720262341
 30
0.0
 11
15725.4971358269
 21
-3569.743720262341
 31
0.0
  0
LINE
  5
4E
330
25
100
AcDbEntity
  8
1
  6
Continuous
 62
     0
100
AcDbLine
 10
15725.4971358269
 20
-3569.743720262341
 30
0.0
 11
15728.9971358269
 21
-3567.993720262341
 31
0.0
  0
LINE
  5
4D
330
25
100
AcDbEntity
  8
1
  6
Continuous
 62
     0
100
AcDbLine
 10
15728.9971358269
 20
-3567.993720262341
 30
0.0
 11
15731.6221358269
 21
-3565.368720262341
 31
0.0
  0
LINE
  5
4C
330
25
100
AcDbEntity
  8
1
  6
Continuous
 62
     0
100
AcDbLine
 10
15731.6221358269
 20
-3565.368720262341
 30
0.0
 11
15733.3721358269
 21
-3561.868720262341
 31
0.0
  0
LINE
  5
4B
330
25
100
AcDbEntity
  8
1
  6
Continuous
 62
     0
100
AcDbLine
 10
15733.3721358269
 20
-3561.868720262341
 30
0.0
 11
15733.3721358269
 21
-3556.618720262341
 31
0.0
  0
LINE
  5
4A
330
25
100
AcDbEntity
  8
1
  6
Continuous
 62
     0
100
AcDbLine
 10
15733.3721358269
 20
-3556.618720262341
 30
0.0
 11
15731.6221358269
 21
-3553.118720262341
 31
0.0
  0
LINE
  5
49
330
25
100
AcDbEntity
  8
1
  6
Continuous
 62
     0
100
AcDbLine
 10
15731.6221358269
 20
-3553.118720262341
 30
0.0
 11
15728.9971358269
 21
-3550.493720262341
 31
0.0
  0
LINE
  5
48
330
25
100
AcDbEntity
  8
1
  6
Continuous
 62
     0
100
AcDbLine
 10
15728.9971358269
 20
-3550.493720262341
 30
0.0
 11
15724.6221358269
 21
-3548.743720262341
 31
0.0
  0
LINE
  5
47
330
25
100
AcDbEntity
  8
1
  6
Continuous
 62
     0
100
AcDbLine
 10
15718.4971358269
 20
-3535.618720262341
 30
0.0
 11
15721.1221358269
 21
-3534.743720262341
 31
0.0
  0
LINE
  5
46
330
25
100
AcDbEntity
  8
1
  6
Continuous
 62
     0
100
AcDbLine
 10
15721.1221358269
 20
-3534.743720262341
 30
0.0
 11
15724.6221358269
 21
-3534.743720262341
 31
0.0
  0
LINE
  5
45
330
25
100
AcDbEntity
  8
1
  6
Continuous
 62
     0
100
AcDbLine
 10
15724.6221358269
 20
-3534.743720262341
 30
0.0
 11
15727.2471358269
 21
-3535.618720262341
 31
0.0
  0
LINE
  5
44
330
25
100
AcDbEntity
  8
1
  6
Continuous
 62
     0
100
AcDbLine
 10
15727.2471358269
 20
-3535.618720262341
 30
0.0
 11
15729.8721358269
 21
-3537.368720262341
 31
0.0
  0
LINE
  5
43
330
25
100
AcDbEntity
  8
1
  6
Continuous
 62
     0
100
AcDbLine
 10
15729.8721358269
 20
-3537.368720262341
 30
0.0
 11
15731.6221358269
 21
-3539.993720262341
 31
0.0
  0
LINE
  5
42
330
25
100
AcDbEntity
  8
1
  6
Continuous
 62
     0
100
AcDbLine
 10
15731.6221358269
 20
-3539.993720262341
 30
0.0
 11
15731.6221358269
 21
-3543.493720262341
 31
0.0
  0
LINE
  5
41
330
25
100
AcDbEntity
  8
1
  6
Continuous
 62
     0
100
AcDbLine
 10
15731.6221358269
 20
-3543.493720262341
 30
0.0
 11
15729.8721358269
 21
-3546.118720262341
 31
0.0
  0
LINE
  5
40
330
25
100
AcDbEntity
  8
1
  6
Continuous
 62
     0
100
AcDbLine
 10
15729.8721358269
 20
-3546.118720262341
 30
0.0
 11
15727.2471358269
 21
-3547.868720262341
 31
0.0
  0
LINE
  5
3F
330
25
100
AcDbEntity
  8
1
  6
Continuous
 62
     0
100
AcDbLine
 10
15727.2471358269
 20
-3547.868720262341
 30
0.0
 11
15724.6221358269
 21
-3548.743720262341
 31
0.0
  0
LINE
  5
3E
330
25
100
AcDbEntity
  8
1
  6
Continuous
 62
     0
100
AcDbLine
 10
15724.6221358269
 20
-3548.743720262341
 30
0.0
 11
15721.1221358269
 21
-3548.743720262341
 31
0.0
  0
LINE
  5
3D
330
25
100
AcDbEntity
  8
1
  6
Continuous
 62
     0
100
AcDbLine
 10
15721.1221358269
 20
-3548.743720262341
 30
0.0
 11
15718.4971358269
 21
-3547.868720262341
 31
0.0
  0
LINE
  5
3C
330
25
100
AcDbEntity
  8
1
  6
Continuous
 62
     0
100
AcDbLine
 10
15718.4971358269
 20
-3547.868720262341
 30
0.0
 11
15715.8721358269
 21
-3546.118720262341
 31
0.0
  0
LINE
  5
3B
330
25
100
AcDbEntity
  8
1
  6
Continuous
 62
     0
100
AcDbLine
 10
15715.8721358269
 20
-3546.118720262341
 30
0.0
 11
15714.1221358269
 21
-3543.493720262341
 31
0.0
  0
LINE
  5
3A
330
25
100
AcDbEntity
  8
1
  6
Continuous
 62
     0
100
AcDbLine
 10
15714.1221358269
 20
-3543.493720262341
 30
0.0
 11
15714.1221358269
 21
-3539.993720262341
 31
0.0
  0
LINE
  5
39
330
25
100
AcDbEntity
  8
1
  6
Continuous
 62
     0
100
AcDbLine
 10
15714.1221358269
 20
-3539.993720262341
 30
0.0
 11
15715.8721358269
 21
-3537.368720262341
 31
0.0
  0
LINE
  5
38
330
25
100
AcDbEntity
  8
1
  6
Continuous
 62
     0
100
AcDbLine
 10
15715.8721358269
 20
-3537.368720262341
 30
0.0
 11
15718.4971358269
 21
-3535.618720262341
 31
0.0
  0
LINE
  5
37
330
25
100
AcDbEntity
  8
1
  6
Continuous
 62
     0
100
AcDbLine
 10
15763.1221358269
 20
-3534.743720262341
 30
0.0
 11
15743.8721358269
 21
-3534.743720262341
 31
0.0
  0
LINE
  5
36
330
25
100
AcDbEntity
  8
1
  6
Continuous
 62
     0
100
AcDbLine
 10
15743.8721358269
 20
-3534.743720262341
 30
0.0
 11
15743.8721358269
 21
-3548.743720262341
 31
0.0
  0
LINE
  5
35
330
25
100
AcDbEntity
  8
1
  6
Continuous
 62
     0
100
AcDbLine
 10
15743.8721358269
 20
-3548.743720262341
 30
0.0
 11
15756.9971358269
 21
-3548.743720262341
 31
0.0
  0
LINE
  5
34
330
25
100
AcDbEntity
  8
1
  6
Continuous
 62
     0
100
AcDbLine
 10
15756.9971358269
 20
-3548.743720262341
 30
0.0
 11
15761.3721358269
 21
-3549.618720262341
 31
0.0
  0
LINE
  5
33
330
25
100
AcDbEntity
  8
1
  6
Continuous
 62
     0
100
AcDbLine
 10
15761.3721358269
 20
-3549.618720262341
 30
0.0
 11
15763.9971358269
 21
-3552.243720262341
 31
0.0
  0
LINE
  5
32
330
25
100
AcDbEntity
  8
1
  6
Continuous
 62
     0
100
AcDbLine
 10
15763.9971358269
 20
-3552.243720262341
 30
0.0
 11
15764.8721358269
 21
-3555.743720262341
 31
0.0
  0
LINE
  5
31
330
25
100
AcDbEntity
  8
1
  6
Continuous
 62
     0
100
AcDbLine
 10
15764.8721358269
 20
-3555.743720262341
 30
0.0
 11
15764.8721358269
 21
-3560.993720262341
 31
0.0
  0
LINE
  5
30
330
25
100
AcDbEntity
  8
1
  6
Continuous
 62
     0
100
AcDbLine
 10
15764.8721358269
 20
-3560.993720262341
 30
0.0
 11
15763.9971358269
 21
-3564.493720262341
 31
0.0
  0
LINE
  5
2F
330
25
100
AcDbEntity
  8
1
  6
Continuous
 62
     0
100
AcDbLine
 10
15763.9971358269
 20
-3564.493720262341
 30
0.0
 11
15762.2471358269
 21
-3567.118720262341
 31
0.0
  0
LINE
  5
2E
330
25
100
AcDbEntity
  8
1
  6
Continuous
 62
     0
100
AcDbLine
 10
15762.2471358269
 20
-3567.118720262341
 30
0.0
 11
15759.6221358269
 21
-3568.868720262341
 31
0.0
  0
LINE
  5
2D
330
25
100
AcDbEntity
  8
1
  6
Continuous
 62
     0
100
AcDbLine
 10
15759.6221358269
 20
-3568.868720262341
 30
0.0
 11
15756.9971358269
 21
-3569.743720262341
 31
0.0
  0
LINE
  5
2C
330
25
100
AcDbEntity
  8
1
  6
Continuous
 62
     0
100
AcDbLine
 10
15756.9971358269
 20
-3569.743720262341
 30
0.0
 11
15743.8721358269
 21
-3569.743720262341
 31
0.0
  0
POINT
  5
2B
330
25
100
AcDbEntity
  8
1
 62
     0
100
AcDbPoint
 10
11206.89262208499
 20
-1109.391457279318
 30
0.0
  0
POINT
  5
2A
330
25
100
AcDbEntity
  8
1
 62
     0
100
AcDbPoint
 10
11819.72488733182
 20
-413.050287497433
 30
0.0
  0
LINE
  5
1A7C
330
25
100
AcDbEntity
  8
0
  6
Continuous
 62
     0
100
AcDbLine
 10
14474.03762240632
 20
-1237.050287497433
 30
0.0
 11
14474.03762240632
 21
-961.0502874974377
 31
0.0
  0
LINE
  5
1A7D
330
25
100
AcDbEntity
  8
0
  6
Continuous
 62
     0
100
AcDbLine
 10
14474.03762240631
 20
-682.050287497433
 30
0.0
 11
14474.03762240632
 21
-803.0502874974329
 31
0.0
  0
ARC
  5
1A7E
330
25
100
AcDbEntity
  8
1
  6
Continuous
 62
     0
100
AcDbCircle
 10
14499.84927724543
 20
-834.716943872143
 30
0.0
 40
6.188368025608
100
AcDbArc
 50
335.9793229189551
 51
34.22849580307209
  0
ARC
  5
1A7F
330
25
100
AcDbEntity
  8
1
  6
Continuous
 62
     0
100
AcDbCircle
 10
14483.10941917604
 20
-824.307816715477
 30
0.0
 40
22.928203230274
100
AcDbArc
 50
342.4120462260016
 51
17.58795377399637
  0
ARC
  5
1A80
330
25
100
AcDbEntity
  8
1
  6
Continuous
 62
     0
100
AcDbCircle
 10
14499.84927724543
 20
-847.7234458179489
 30
0.0
 40
6.18836802561
100
AcDbArc
 50
325.7715041969303
 51
24.02067708104479
  0
ARC
  5
1A81
330
25
100
AcDbEntity
  8
1
  6
Continuous
 62
     0
100
AcDbCircle
 10
14499.84927724543
 20
-868.5417001312801
 30
0.0
 40
6.188368025608
100
AcDbArc
 50
335.9793229189551
 51
34.22849580307209
  0
ARC
  5
1A82
330
25
100
AcDbEntity
  8
1
  6
Continuous
 62
     0
100
AcDbCircle
 10
14499.84927724543
 20
-813.8986895588109
 30
0.0
 40
6.18836802561
100
AcDbArc
 50
325.7715041969287
 51
24.02067708104192
  0
ARC
  5
1A83
330
25
100
AcDbEntity
  8
1
  6
Continuous
 62
     0
100
AcDbCircle
 10
14483.10941917604
 20
-858.132572974615
 30
0.0
 40
22.928203230273
100
AcDbArc
 50
342.4120462260071
 51
17.58795377399447
  0
ARC
  5
1A84
330
25
100
AcDbEntity
  8
1
  6
Continuous
 62
     0
100
AcDbCircle
 10
14499.84927724543
 20
-895.558874863586
 30
0.0
 40
6.18836802561
100
AcDbArc
 50
325.7715041969303
 51
24.02067708104479
  0
ARC
  5
1A85
330
25
100
AcDbEntity
  8
1
  6
Continuous
 62
     0
100
AcDbCircle
 10
14499.84927724543
 20
-916.3771291769169
 30
0.0
 40
6.188368025608
100
AcDbArc
 50
335.9793229189551
 51
34.22849580307209
  0
ARC
  5
1A86
330
25
100
AcDbEntity
  8
1
  6
Continuous
 62
     0
100
AcDbCircle
 10
14926.1600676618
 20
-882.0502874974329
 30
0.0
 40
458.97244525548
100
AcDbArc
 50
170.088686020986
 51
189.9113139790138
  0
LINE
  5
1A87
330
25
100
AcDbEntity
  8
1
  6
Continuous
 62
     0
100
AcDbLine
 10
14489.03762240632
 20
-873.132572974615
 30
0.0
 11
14492.03762240632
 21
-873.132572974615
 31
0.0
  0
ARC
  5
1A88
330
25
100
AcDbEntity
  8
1
  6
Continuous
 62
     0
100
AcDbCircle
 10
14499.84927724543
 20
-950.201885436054
 30
0.0
 40
6.188368025608
100
AcDbArc
 50
335.9793229189551
 51
34.22849580307209
  0
LINE
  5
1A89
330
25
100
AcDbEntity
  8
1
  6
Continuous
 62
     0
100
AcDbLine
 10
14492.03762240632
 20
-838.307816715477
 30
0.0
 11
14496.03762240632
 21
-838.307816715477
 31
0.0
  0
LINE
  5
1A8A
330
25
100
AcDbEntity
  8
1
  6
Continuous
 62
     0
100
AcDbLine
 10
14496.03762240632
 20
-810.307816715477
 30
0.0
 11
14492.03762240632
 21
-810.307816715477
 31
0.0
  0
LINE
  5
1A8B
330
25
100
AcDbEntity
  8
1
  6
Continuous
 62
     0
100
AcDbLine
 10
14492.03762240632
 20
-873.132572974615
 30
0.0
 11
14492.03762240632
 21
-843.132572974615
 31
0.0
  0
LINE
  5
1A8C
330
25
100
AcDbEntity
  8
1
  6
Continuous
 62
     0
100
AcDbLine
 10
14496.03762240632
 20
-859.065906307947
 30
0.0
 11
14492.03762240632
 21
-860.208763450805
 31
0.0
  0
LINE
  5
1A8D
330
25
100
AcDbEntity
  8
1
  6
Continuous
 62
     0
100
AcDbLine
 10
14492.03762240632
 20
-872.132572974615
 30
0.0
 11
14496.03762240632
 21
-872.132572974615
 31
0.0
  0
LINE
  5
1A8E
330
25
100
AcDbEntity
  8
1
  6
Continuous
 62
     0
100
AcDbLine
 10
14496.03762240632
 20
-865.0607762048901
 30
0.0
 11
14504.96582563659
 21
-865.0607762048901
 31
0.0
  0
LINE
  5
1A8F
330
25
100
AcDbEntity
  8
1
  6
Continuous
 62
     0
100
AcDbLine
 10
14489.03762240632
 20
-803.0502874974329
 30
0.0
 11
14489.03762240632
 21
-961.0502874974329
 31
0.0
  0
LINE
  5
1A90
330
25
100
AcDbEntity
  8
1
  6
Continuous
 62
     0
100
AcDbLine
 10
14504.96582563659
 20
-810.4514102549269
 30
0.0
 11
14496.03762240632
 21
-810.4514102549269
 31
0.0
  0
LINE
  5
1A91
330
25
100
AcDbEntity
  8
1
  6
Continuous
 62
     0
100
AcDbLine
 10
14492.03762240632
 20
-809.307816715477
 30
0.0
 11
14489.03762240632
 21
-809.307816715477
 31
0.0
  0
LINE
  5
1A92
330
25
100
AcDbEntity
  8
1
  6
Continuous
 62
     0
100
AcDbLine
 10
14492.03762240632
 20
-843.132572974615
 30
0.0
 11
14489.03762240632
 21
-843.132572974615
 31
0.0
  0
ARC
  5
1A93
330
25
100
AcDbEntity
  8
1
  6
Continuous
 62
     0
100
AcDbCircle
 10
14483.10941917604
 20
-905.96800202025
 30
0.0
 40
22.928203230274
100
AcDbArc
 50
342.4120462260012
 51
17.58795377399555
  0
LINE
  5
1A94
330
25
100
AcDbEntity
  8
1
  6
Continuous
 62
     0
100
AcDbLine
 10
14496.03762240632
 20
-822.2316262392869
 30
0.0
 11
14492.03762240632
 21
-823.374483382144
 31
0.0
  0
LINE
  5
1A95
330
25
100
AcDbEntity
  8
1
  6
Continuous
 62
     0
100
AcDbLine
 10
14496.03762240632
 20
-844.132572974615
 30
0.0
 11
14492.03762240632
 21
-844.132572974615
 31
0.0
  0
LINE
  5
1A96
330
25
100
AcDbEntity
  8
1
  6
Continuous
 62
     0
100
AcDbLine
 10
14496.03762240632
 20
-838.307816715477
 30
0.0
 11
14496.03762240632
 21
-810.307816715477
 31
0.0
  0
LINE
  5
1A97
330
25
100
AcDbEntity
  8
1
  6
Continuous
 62
     0
100
AcDbLine
 10
14506.03762240632
 20
-836.307816715477
 30
0.0
 11
14506.03762240632
 21
-812.307816715477
 31
0.0
  0
LINE
  5
1A98
330
25
100
AcDbEntity
  8
1
  6
Continuous
 62
     0
100
AcDbLine
 10
14496.03762240632
 20
-851.2043697443389
 30
0.0
 11
14504.96582563659
 21
-851.2043697443389
 31
0.0
  0
LINE
  5
1A99
330
25
100
AcDbEntity
  8
1
  6
Continuous
 62
     0
100
AcDbLine
 10
14496.03762240632
 20
-872.132572974615
 30
0.0
 11
14496.03762240632
 21
-844.132572974615
 31
0.0
  0
LINE
  5
1A9A
330
25
100
AcDbEntity
  8
1
  6
Continuous
 62
     0
100
AcDbLine
 10
14504.96582563659
 20
-844.276166514064
 30
0.0
 11
14496.03762240632
 21
-844.276166514064
 31
0.0
  0
ARC
  5
1A9B
330
25
100
AcDbEntity
  8
1
  6
Continuous
 62
     0
100
AcDbCircle
 10
14483.10941917604
 20
-939.792758279388
 30
0.0
 40
22.928203230274
100
AcDbArc
 50
342.4120462260016
 51
17.58795377399637
  0
LINE
  5
1A9C
330
25
100
AcDbEntity
  8
1
  6
Continuous
 62
     0
100
AcDbLine
 10
14479.03762240632
 20
-803.0502874974329
 30
0.0
 11
14479.03762240632
 21
-961.0502874974329
 31
0.0
  0
LINE
  5
1A9D
330
25
100
AcDbEntity
  8
1
  6
Continuous
 62
     0
100
AcDbLine
 10
14489.03762240632
 20
-803.0502874974329
 30
0.0
 11
14474.03762240632
 21
-803.0502874974329
 31
0.0
  0
LINE
  5
1A9F
330
25
100
AcDbEntity
  8
1
  6
Continuous
 62
     0
100
AcDbLine
 10
14492.03762240632
 20
-839.307816715477
 30
0.0
 11
14492.03762240632
 21
-809.307816715477
 31
0.0
  0
LINE
  5
1AA0
330
25
100
AcDbEntity
  8
1
  6
Continuous
 62
     0
100
AcDbLine
 10
14496.03762240632
 20
-831.236019945753
 30
0.0
 11
14504.96582563659
 21
-831.236019945753
 31
0.0
  0
LINE
  5
1AA1
330
25
100
AcDbEntity
  8
1
  6
Continuous
 62
     0
100
AcDbLine
 10
14506.03762240632
 20
-812.307816715477
 30
0.0
 11
14504.96582563659
 21
-810.4514102549269
 31
0.0
  0
LINE
  5
1AA2
330
25
100
AcDbEntity
  8
1
  6
Continuous
 62
     0
100
AcDbLine
 10
14504.96582563659
 20
-838.164223176029
 30
0.0
 11
14506.03762240632
 21
-836.307816715477
 31
0.0
  0
LINE
  5
1AA3
330
25
100
AcDbEntity
  8
1
  6
Continuous
 62
     0
100
AcDbLine
 10
14489.03762240632
 20
-839.307816715477
 30
0.0
 11
14492.03762240632
 21
-839.307816715477
 31
0.0
  0
LINE
  5
1AA4
330
25
100
AcDbEntity
  8
1
  6
Continuous
 62
     0
100
AcDbLine
 10
14496.03762240632
 20
-838.164223176029
 30
0.0
 11
14504.96582563659
 21
-838.164223176029
 31
0.0
  0
LINE
  5
1AA5
330
25
100
AcDbEntity
  8
1
  6
Continuous
 62
     0
100
AcDbLine
 10
14496.03762240632
 20
-817.3796134852021
 30
0.0
 11
14504.96582563659
 21
-817.3796134852021
 31
0.0
  0
LINE
  5
1AA6
330
25
100
AcDbEntity
  8
1
  6
Continuous
 62
     0
100
AcDbLine
 10
14489.03762240632
 20
-961.0502874974329
 30
0.0
 11
14474.03762240632
 21
-961.0502874974329
 31
0.0
  0
ARC
  5
1AA7
330
25
100
AcDbEntity
  8
1
  6
Continuous
 62
     0
100
AcDbCircle
 10
14499.84927724543
 20
-929.3836311227219
 30
0.0
 40
6.18836802561
100
AcDbArc
 50
325.7715041969287
 51
24.02067708104192
  0
LINE
  5
1AA8
330
25
100
AcDbEntity
  8
1
  6
Continuous
 62
     0
100
AcDbLine
 10
14496.03762240632
 20
-825.241150048811
 30
0.0
 11
14492.03762240632
 21
-826.3840071916679
 31
0.0
  0
LINE
  5
1AA9
330
25
100
AcDbEntity
  8
1
  6
Continuous
 62
     0
100
AcDbLine
 10
14489.03762240632
 20
-809.307816715477
 30
0.0
 11
14489.03762240632
 21
-839.307816715477
 31
0.0
  0
LINE
  5
1AAC
330
25
100
AcDbEntity
  8
1
  6
Continuous
 62
     0
100
AcDbLine
 10
14489.03762240632
 20
-843.132572974615
 30
0.0
 11
14489.03762240632
 21
-873.132572974615
 31
0.0
  0
LINE
  5
1AAD
330
25
100
AcDbEntity
  8
1
  6
Continuous
 62
     0
100
AcDbLine
 10
14496.03762240632
 20
-856.056382498424
 30
0.0
 11
14492.03762240632
 21
-857.199239641282
 31
0.0
  0
LINE
  5
1AAE
330
25
100
AcDbEntity
  8
1
  6
Continuous
 62
     0
100
AcDbLine
 10
14504.96582563659
 20
-925.9363518188379
 30
0.0
 11
14496.03762240632
 21
-925.9363518188379
 31
0.0
  0
LINE
  5
1AAF
330
25
100
AcDbEntity
  8
1
  6
Continuous
 62
     0
100
AcDbLine
 10
14506.03762240632
 20
-927.792758279388
 30
0.0
 11
14504.96582563659
 21
-925.9363518188379
 31
0.0
  0
LINE
  5
1AB0
330
25
100
AcDbEntity
  8
1
  6
Continuous
 62
     0
100
AcDbLine
 10
14504.96582563659
 20
-892.1115955596999
 30
0.0
 11
14496.03762240632
 21
-892.1115955596999
 31
0.0
  0
LINE
  5
1AB1
330
25
100
AcDbEntity
  8
1
  6
Continuous
 62
     0
100
AcDbLine
 10
14489.03762240632
 20
-890.96800202025
 30
0.0
 11
14489.03762240632
 21
-920.96800202025
 31
0.0
  0
LINE
  5
1AB2
330
25
100
AcDbEntity
  8
1
  6
Continuous
 62
     0
100
AcDbLine
 10
14506.03762240632
 20
-870.132572974615
 30
0.0
 11
14506.03762240632
 21
-846.132572974615
 31
0.0
  0
LINE
  5
1AB3
330
25
100
AcDbEntity
  8
1
  6
Continuous
 62
     0
100
AcDbLine
 10
14496.03762240632
 20
-919.96800202025
 30
0.0
 11
14496.03762240632
 21
-891.96800202025
 31
0.0
  0
LINE
  5
1AB4
330
25
100
AcDbEntity
  8
1
  6
Continuous
 62
     0
100
AcDbLine
 10
14496.03762240632
 20
-925.792758279388
 30
0.0
 11
14492.03762240632
 21
-925.792758279388
 31
0.0
  0
LINE
  5
1AB5
330
25
100
AcDbEntity
  8
1
  6
Continuous
 62
     0
100
AcDbLine
 10
14504.96582563659
 20
-912.8962052505269
 30
0.0
 11
14496.03762240632
 21
-912.8962052505269
 31
0.0
  0
LINE
  5
1AB6
330
25
100
AcDbEntity
  8
1
  6
Continuous
 62
     0
100
AcDbLine
 10
14496.03762240632
 20
-871.9889794351659
 30
0.0
 11
14504.96582563659
 21
-871.9889794351659
 31
0.0
  0
LINE
  5
1AB7
330
25
100
AcDbEntity
  8
1
  6
Continuous
 62
     0
100
AcDbLine
 10
14504.96582563659
 20
-953.64916473994
 30
0.0
 11
14506.03762240632
 21
-951.792758279388
 31
0.0
  0
LINE
  5
1AB8
330
25
100
AcDbEntity
  8
1
  6
Continuous
 62
     0
100
AcDbLine
 10
14492.03762240632
 20
-920.96800202025
 30
0.0
 11
14492.03762240632
 21
-890.96800202025
 31
0.0
  0
LINE
  5
1AB9
330
25
100
AcDbEntity
  8
1
  6
Continuous
 62
     0
100
AcDbLine
 10
14504.96582563659
 20
-919.824408480802
 30
0.0
 11
14506.03762240632
 21
-917.96800202025
 31
0.0
  0
LINE
  5
1ABA
330
25
100
AcDbEntity
  8
1
  6
Continuous
 62
     0
100
AcDbLine
 10
14492.03762240632
 20
-954.792758279388
 30
0.0
 11
14492.03762240632
 21
-924.792758279388
 31
0.0
  0
LINE
  5
1ABB
330
25
100
AcDbEntity
  8
1
  6
Continuous
 62
     0
100
AcDbLine
 10
14489.03762240632
 20
-924.792758279388
 30
0.0
 11
14489.03762240632
 21
-954.792758279388
 31
0.0
  0
LINE
  5
1ABC
330
25
100
AcDbEntity
  8
1
  6
Continuous
 62
     0
100
AcDbLine
 10
14506.03762240632
 20
-917.96800202025
 30
0.0
 11
14506.03762240632
 21
-893.96800202025
 31
0.0
  0
LINE
  5
1ABD
330
25
100
AcDbEntity
  8
1
  6
Continuous
 62
     0
100
AcDbLine
 10
14492.03762240632
 20
-906.901335353585
 30
0.0
 11
14496.03762240632
 21
-908.0441924964421
 31
0.0
  0
LINE
  5
1ABE
330
25
100
AcDbEntity
  8
1
  6
Continuous
 62
     0
100
AcDbLine
 10
14496.03762240632
 20
-953.792758279388
 30
0.0
 11
14496.03762240632
 21
-925.792758279388
 31
0.0
  0
LINE
  5
1ABF
330
25
100
AcDbEntity
  8
1
  6
Continuous
 62
     0
100
AcDbLine
 10
14496.03762240632
 20
-953.64916473994
 30
0.0
 11
14504.96582563659
 21
-953.64916473994
 31
0.0
  0
LINE
  5
1AC0
330
25
100
AcDbEntity
  8
1
  6
Continuous
 62
     0
100
AcDbLine
 10
14506.03762240632
 20
-893.96800202025
 30
0.0
 11
14504.96582563659
 21
-892.1115955596999
 31
0.0
  0
LINE
  5
1AC2
330
25
100
AcDbEntity
  8
1
  6
Continuous
 62
     0
100
AcDbLine
 10
14506.03762240632
 20
-846.132572974615
 30
0.0
 11
14504.96582563659
 21
-844.276166514064
 31
0.0
  0
LINE
  5
1AC3
330
25
100
AcDbEntity
  8
1
  6
Continuous
 62
     0
100
AcDbLine
 10
14504.96582563659
 20
-871.9889794351659
 30
0.0
 11
14506.03762240632
 21
-870.132572974615
 31
0.0
  0
LINE
  5
1AC4
330
25
100
AcDbEntity
  8
1
  6
Continuous
 62
     0
100
AcDbLine
 10
14496.03762240632
 20
-919.824408480802
 30
0.0
 11
14504.96582563659
 21
-919.824408480802
 31
0.0
  0
LINE
  5
1AC5
330
25
100
AcDbEntity
  8
1
  6
Continuous
 62
     0
100
AcDbLine
 10
14496.03762240632
 20
-891.96800202025
 30
0.0
 11
14492.03762240632
 21
-891.96800202025
 31
0.0
  0
LINE
  5
1AC6
330
25
100
AcDbEntity
  8
1
  6
Continuous
 62
     0
100
AcDbLine
 10
14492.03762240632
 20
-919.96800202025
 30
0.0
 11
14496.03762240632
 21
-919.96800202025
 31
0.0
  0
LINE
  5
1AC7
330
25
100
AcDbEntity
  8
1
  6
Continuous
 62
     0
100
AcDbLine
 10
14492.03762240632
 20
-903.891811544061
 30
0.0
 11
14496.03762240632
 21
-905.0346686869179
 31
0.0
  0
LINE
  5
1AC8
330
25
100
AcDbEntity
  8
1
  6
Continuous
 62
     0
100
AcDbLine
 10
14489.03762240632
 20
-920.96800202025
 30
0.0
 11
14492.03762240632
 21
-920.96800202025
 31
0.0
  0
LINE
  5
1AC9
330
25
100
AcDbEntity
  8
1
  6
Continuous
 62
     0
100
AcDbLine
 10
14492.03762240632
 20
-890.96800202025
 30
0.0
 11
14489.03762240632
 21
-890.96800202025
 31
0.0
  0
LINE
  5
1ACB
330
25
100
AcDbEntity
  8
1
  6
Continuous
 62
     0
100
AcDbLine
 10
14492.03762240632
 20
-924.792758279388
 30
0.0
 11
14489.03762240632
 21
-924.792758279388
 31
0.0
  0
LINE
  5
1ACC
330
25
100
AcDbEntity
  8
1
  6
Continuous
 62
     0
100
AcDbLine
 10
14492.03762240632
 20
-937.7165678031979
 30
0.0
 11
14496.03762240632
 21
-938.859424946055
 31
0.0
  0
LINE
  5
1ACD
330
25
100
AcDbEntity
  8
1
  6
Continuous
 62
     0
100
AcDbLine
 10
14492.03762240632
 20
-953.792758279388
 30
0.0
 11
14496.03762240632
 21
-953.792758279388
 31
0.0
  0
LINE
  5
1ACE
330
25
100
AcDbEntity
  8
1
  6
Continuous
 62
     0
100
AcDbLine
 10
14489.03762240632
 20
-954.792758279388
 30
0.0
 11
14492.03762240632
 21
-954.792758279388
 31
0.0
  0
LINE
  5
1ACF
330
25
100
AcDbEntity
  8
1
  6
Continuous
 62
     0
100
AcDbLine
 10
14492.03762240632
 20
-940.726091612722
 30
0.0
 11
14496.03762240632
 21
-941.8689487555789
 31
0.0
  0
LINE
  5
1AD0
330
25
100
AcDbEntity
  8
1
  6
Continuous
 62
     0
100
AcDbLine
 10
14504.96582563659
 20
-946.720961509664
 30
0.0
 11
14496.03762240632
 21
-946.720961509664
 31
0.0
  0
LINE
  5
1AD1
330
25
100
AcDbEntity
  8
1
  6
Continuous
 62
     0
100
AcDbLine
 10
14504.96582563659
 20
-899.039798789976
 30
0.0
 11
14496.03762240632
 21
-899.039798789976
 31
0.0
  0
LINE
  5
1AD2
330
25
100
AcDbEntity
  8
1
  6
Continuous
 62
     0
100
AcDbLine
 10
14504.96582563659
 20
-932.864555049113
 30
0.0
 11
14496.03762240632
 21
-932.864555049113
 31
0.0
  0
LINE
  5
1AD3
330
25
100
AcDbEntity
  8
1
  6
Continuous
 62
     0
100
AcDbLine
 10
14506.03762240632
 20
-951.792758279388
 30
0.0
 11
14506.03762240632
 21
-927.792758279388
 31
0.0
  0
ENDBLK
  5
525
330
25
100
AcDbEntity
  8
0
100
AcDbBlockEnd
  0
BLOCK
  5
A8C
330
A8B
100
AcDbEntity
  8
0
100
AcDbBlockBegin
  2
*D1
 70
     1
 10
0.0
 20
0.0
 30
0.0
  3
*D1
  1

  0
LINE
  5
A8E
330
A8B
100
AcDbEntity
  8
0
  6
Continuous
 62
     0
370
    -2
100
AcDbLine
 10
11755.04143528155
 20
-882.050287497433
 30
0.0
 11
10916.64933924546
 21
-882.050287497433
 31
0.0
  0
LINE
  5
A8F
330
A8B
100
AcDbEntity
  8
0
  6
Continuous
 62
     0
370
    -2
100
AcDbLine
 10
11682.99602667947
 20
-1792.050287497433
 30
0.0
 11
10916.64933924546
 21
-1792.050287497433
 31
0.0
  0
LINE
  5
A90
330
A8B
100
AcDbEntity
  8
0
  6
Continuous
 62
     0
370
    -2
100
AcDbLine
 10
10916.82933924546
 20
-882.230287497433
 30
0.0
 11
10916.82933924546
 21
-1336.870287497433
 31
0.0
  0
LINE
  5
A91
330
A8B
100
AcDbEntity
  8
0
  6
Continuous
 62
     0
370
    -2
100
AcDbLine
 10
10916.82933924546
 20
-1791.870287497433
 30
0.0
 11
10916.82933924546
 21
-1337.230287497433
 31
0.0
  0
SOLID
  5
A92
330
A8B
100
AcDbEntity
  8
0
 62
     0
100
AcDbTrace
 10
10916.85933924546
 20
-882.230287497433
 30
0.0
 11
10916.79933924546
 21
-882.230287497433
 31
0.0
 12
10916.82933924546
 22
-882.050287497433
 32
0.0
 13
10916.82933924546
 23
-882.050287497433
 33
0.0
  0
SOLID
  5
A93
330
A8B
100
AcDbEntity
  8
0
 62
     0
100
AcDbTrace
 10
10916.79933924546
 20
-1791.870287497433
 30
0.0
 11
10916.85933924546
 21
-1791.870287497433
 31
0.0
 12
10916.82933924546
 22
-1792.050287497433
 32
0.0
 13
10916.82933924546
 23
-1792.050287497433
 33
0.0
  0
MTEXT
  5
A94
330
A8B
100
AcDbEntity
  8
0
  6
Continuous
 62
     0
100
AcDbMText
 10
10916.82933924546
 20
-1337.050287497433
 30
0.0
 40
0.18
 41
0.0
 46
0.0
 71
     5
 72
     1
  1
\A1;910.0000
 73
     1
 44
1.0
  0
POINT
  5
A95
330
A8B
100
AcDbEntity
  8
Defpoints
 62
     0
100
AcDbPoint
 10
11755.10393528155
 20
-882.050287497433
 30
0.0
  0
POINT
  5
A96
330
A8B
100
AcDbEntity
  8
Defpoints
 62
     0
100
AcDbPoint
 10
11683.05852667947
 20
-1792.050287497433
 30
0.0
  0
POINT
  5
A97
330
A8B
100
AcDbEntity
  8
Defpoints
 62
     0
100
AcDbPoint
 10
10916.82933924546
 20
-1792.050287497433
 30
0.0
  0
ENDBLK
  5
A8D
330
A8B
100
AcDbEntity
  8
0
100
AcDbBlockEnd
  0
ENDSEC
  0
SECTION
  2
ENTITIES
  0
INSERT
  5
29
330
A
100
AcDbEntity
  8
0
100
AcDbBlockReference
  2
SAT1000C85__1
 10
0.0
 20
0.0
 30
0.0
  0
VIEWPORT
  5
3471
330
346D
100
AcDbEntity
 67
     1
  8
0
100
AcDbViewport
 10
5.25
 20
3.5
 30
0.0
 40
11.55
 41
8.925
 68
     1
 69
     1
 12
5.25
 22
3.5
 13
0.0
 23
0.0
 14
0.5
 24
0.5
 15
0.0
 25
0.0
 16
0.0
 26
0.0
 36
1.0
 17
0.0
 27
0.0
 37
0.0
 42
50.0
 43
0.0
 44
0.0
 45
8.925
 50
0.0
 51
0.0
 72
   100
 90
   557152
  1

281
     0
 71
     1
 74
     0
110
0.0
120
0.0
130
0.0
111
1.0
121
0.0
131
0.0
112
0.0
122
1.0
132
0.0
 79
     0
146
0.0
170
     0
 61
     5
348
555
292
     1
282
     1
141
0.0
142
0.0
 63
   256
361
3475
  0
VIEWPORT
  5
3472
102
{ACAD_XDICTIONARY
360
3473
102
}
330
346D
100
AcDbEntity
 67
     1
  8
0
100
AcDbViewport
 10
5.25
 20
3.5
 30
0.0
 40
8.4
 41
5.600000000000001
 68
     2
 69
     2
 12
13485.88237895594
 22
-2052.234189350616
 13
0.0
 23
0.0
 14
0.5
 24
0.5
 15
0.0
 25
0.0
 16
0.0
 26
0.0
 36
1.0
 17
0.0
 27
0.0
 37
0.0
 42
50.0
 43
0.0
 44
0.0
 45
3343.935159780493
 50
0.0
 51
0.0
 72
   100
 90
   557152
  1

281
     0
 71
     1
 74
     0
110
0.0
120
0.0
130
0.0
111
1.0
121
0.0
131
0.0
112
0.0
122
1.0
132
0.0
 79
     0
146
0.0
170
     0
 61
     5
348
555
292
     1
282
     1
141
0.0
142
0.0
 63
   256
  0
ENDSEC
  0
SECTION
  2
OBJECTS
  0
DICTIONARY
  5
19
330
0
100
AcDbDictionary
281
     1
  3
ACAD_DETAILVIEWSTYLE
350
ABA
  3
ACAD_GROUP
350
1A
  3
ACAD_LAYOUT
350
54D
  3
ACAD_MATERIAL
350
569
  3
ACAD_MLEADERSTYLE
350
56F
  3
ACAD_MLINESTYLE
350
1B
  3
ACAD_PLOTSETTINGS
350
528
  3
ACAD_PLOTSTYLENAME
350
529
  3
ACAD_SCALELIST
350
52B
  3
ACAD_SECTIONVIEWSTYLE
350
ABB
  3
ACAD_TABLESTYLE
350
56D
  3
ACAD_VISUALSTYLE
350
550
  3
ACDB_RECOMPOSE_DATA
350
347B
  3
AcDbVariableDictionary
350
AB2
  3
APPDATA
350
571
  0
SUN
  5
AC0
330
15
100
AcDbSun
 90
        1
290
     0
 63
     7
421
 16777215
 40
1.0
291
     1
 91
  2455826
 92
 54000000
292
     0
 70
     2
 71
   256
280
     1
  0
DICTIONARY
  5
ABD
330
2
100
AcDbDictionary
280
     1
281
     1
  3
ACAD_LAYERSTATES
360
14C8
  0
SUN
  5
3475
330
3471
100
AcDbSun
 90
        1
290
     0
 63
     7
421
 16777215
 40
1.0
291
     1
 91
  2455826
 92
 54000000
292
     0
 70
     2
 71
   256
280
     1
  0
DICTIONARY
  5
3473
330
3472
100
AcDbDictionary
280
     1
281
     1
  3
ASDK_XREC_ANNOTATION_SCALE_INFO
360
3474
  0
DICTIONARY
  5
ABA
102
{ACAD_REACTORS
330
19
102
}
330
19
100
AcDbDictionary
281
     1
  0
DICTIONARY
  5
1A
102
{ACAD_REACTORS
330
19
102
}
330
19
100
AcDbDictionary
281
     1
  0
DICTIONARY
  5
54D
102
{ACAD_REACTORS
330
19
102
}
330
19
100
AcDbDictionary
281
     1
  3
Model
350
54E
  3
シート
350
346E
  0
DICTIONARY
  5
569
102
{ACAD_REACTORS
330
19
102
}
330
19
100
AcDbDictionary
281
     1
  3
ByBlock
350
56B
  3
ByLayer
350
56A
  3
Global
350
56C
  0
DICTIONARY
  5
56F
102
{ACAD_REACTORS
330
19
102
}
330
19
100
AcDbDictionary
281
     1
  3
Standard
350
570
  0
DICTIONARY
  5
1B
102
{ACAD_REACTORS
330
19
102
}
330
19
100
AcDbDictionary
281
     1
  3
STANDARD
350
1C
  0
DICTIONARY
  5
528
102
{ACAD_REACTORS
330
19
102
}
330
19
100
AcDbDictionary
281
     1
  0
ACDBDICTIONARYWDFLT
  5
529
102
{ACAD_REACTORS
330
19
102
}
330
19
100
AcDbDictionary
281
     1
  3
Normal
350
52A
100
AcDbDictionaryWithDefault
340
52A
  0
DICTIONARY
  5
52B
102
{ACAD_REACTORS
330
19
102
}
330
19
100
AcDbDictionary
281
     1
  3
A0
350
52C
  3
A1
350
52D
  3
A2
350
52E
  3
A3
350
52F
  3
A4
350
530
  3
A5
350
531
  3
A6
350
532
  3
A7
350
533
  3
A8
350
534
  3
A9
350
535
  3
B0
350
536
  3
B1
350
537
  3
B2
350
538
  3
B3
350
539
  3
B4
350
53A
  3
B5
350
53B
  3
B6
350
53C
  3
B7
350
53D
  3
B8
350
53E
  3
B9
350
53F
  3
C0
350
540
  3
C1
350
541
  3
C2
350
542
  3
C3
350
543
  3
C4
350
544
  3
C5
350
545
  3
C6
350
546
  3
C7
350
547
  3
C8
350
548
  3
C9
350
549
  3
D0
350
54A
  3
D1
350
54B
  3
D2
350
54C
  0
DICTIONARY
  5
ABB
102
{ACAD_REACTORS
330
19
102
}
330
19
100
AcDbDictionary
281
     1
  0
DICTIONARY
  5
56D
102
{ACAD_REACTORS
330
19
102
}
330
19
100
AcDbDictionary
281
     1
  3
Standard
350
56E
  0
DICTIONARY
  5
550
102
{ACAD_REACTORS
330
19
102
}
330
19
100
AcDbDictionary
281
     1
  3
2dWireframe
350
555
  3
Basic
350
558
  3
Brighten
350
55C
  3
ColorChange
350
560
  3
Conceptual
350
55A
  3
Dim
350
55B
  3
EdgeColorOff
350
563
  3
Facepattern
350
55F
  3
Flat
350
551
  3
FlatWithEdges
350
552
  3
Gouraud
350
553
  3
GouraudWithEdges
350
554
  3
Hidden
350
557
  3
JitterOff
350
561
  3
Linepattern
350
55E
  3
OverhangOff
350
562
  3
Realistic
350
559
  3
Shaded
350
568
  3
Shaded with edges
350
567
  3
Shades of Gray
350
564
  3
Sketchy
350
565
  3
Thicken
350
55D
  3
Wireframe
350
556
  3
X-Ray
350
566
  0
XRECORD
  5
347B
102
{ACAD_REACTORS
330
19
102
}
330
19
100
AcDbXrecord
280
     1
 90
        1
330
56E
  0
DICTIONARY
  5
AB2
102
{ACAD_REACTORS
330
19
102
}
330
19
100
AcDbDictionary
281
     1
  3
CANNOSCALE
350
AB3
  3
CMLEADERSTYLE
350
AB8
  3
CTABLESTYLE
350
AB7
  3
MSLTSCALE
350
AB9
  3
XCLIPFRAME
350
2A81
  0
DICTIONARY
  5
571
102
{ACAD_REACTORS
330
19
102
}
330
19
100
AcDbDictionary
281
     1
  0
DICTIONARY
  5
14C8
102
{ACAD_REACTORS
330
ABD
102
}
330
ABD
100
AcDbDictionary
281
     1
  0
XRECORD
  5
3474
102
{ACAD_REACTORS
330
3473
102
}
330
3473
100
AcDbXrecord
280
     1
 90
        1
340
52C
  0
LAYOUT
  5
54E
102
{ACAD_REACTORS
330
54D
102
}
330
54D
100
AcDbPlotSettings
  1

  2
none_device
  4
Letter_(8.50_x_11.00_Inches)
  6

 40
6.35
 41
6.35
 42
6.35
 43
6.35
 44
215.9
 45
279.4
 46
0.0
 47
0.0
 48
0.0
 49
0.0
140
0.0
141
0.0
142
1.0
143
0.8722256190476192
 70
  1712
 72
     0
 73
     0
 74
     0
  7

 75
     0
 76
     0
 77
     2
 78
   300
147
1.146492350330064
148
-87.33095066012679
149
0.0000127000000131
100
AcDbLayout
  1
Model
 70
     1
 71
     0
 10
9694.67115253794
 20
-4134.768094943641
 11
16619.48757111203
 21
-43.14369667990013
 12
0.0
 22
0.0
 32
0.0
 14
11206.89262208499
 24
-3691.418114068526
 34
0.0
 15
15764.8721358269
 25
-413.0502874974281
 35
0.0
146
0.0
 13
0.0
 23
0.0
 33
0.0
 16
1.0
 26
0.0
 36
0.0
 17
0.0
 27
1.0
 37
0.0
 76
     0
330
A
331
15
  0
LAYOUT
  5
346E
102
{ACAD_REACTORS
330
54D
102
}
330
54D
100
AcDbPlotSettings
  1

  2
none_device
  4
ANSI_A_(11.00_x_8.50_Inches)
  6

 40
6.35
 41
19.05
 42
6.35
 43
19.05
 44
279.4
 45
215.9
 46
0.0
 47
0.0
 48
0.0
 49
0.0
140
0.0
141
0.0
142
1.0
143
1.0
 70
   688
 72
     0
 73
     0
 74
     5
  7

 75
    16
 76
     0
 77
     2
 78
   300
147
1.0
148
0.0
149
0.0
100
AcDbLayout
  1
シート
 70
     1
 71
     1
 10
-0.25
 20
-0.7499999999999999
 11
10.75
 21
7.75
 12
0.0
 22
0.0
 32
0.0
 14
1.05
 24
0.6999999999999997
 34
0.0
 15
9.45
 25
6.300000000000001
 35
0.0
146
0.0
 13
0.0
 23
0.0
 33
0.0
 16
1.0
 26
0.0
 36
0.0
 17
0.0
 27
1.0
 37
0.0
 76
     0
330
346D
331
3471
  0
MATERIAL
  5
56B
102
{ACAD_REACTORS
330
569
102
}
330
569
100
AcDbMaterial
  1
ByBlock
 72
     1
 94
      127
  0
MATERIAL
  5
56A
102
{ACAD_REACTORS
330
569
102
}
330
569
100
AcDbMaterial
  1
ByLayer
 72
     1
 94
      127
  0
MATERIAL
  5
56C
102
{ACAD_REACTORS
330
569
102
}
330
569
100
AcDbMaterial
  1
Global
 72
     1
 94
      127
  0
MLEADERSTYLE
  5
570
102
{ACAD_REACTORS
330
56F
102
}
330
56F
100
AcDbMLeaderStyle
179
     2
170
     2
171
     1
172
     0
 90
        2
 40
0.0
 41
0.0
173
     1
 91
-1056964608
340
11
 92
       -2
290
     1
 42
0.09
291
     1
 43
0.36
  3
Standard
341
0
 44
0.18
300

342
17
174
     1
178
     1
175
     1
176
     0
 93
-1056964608
 45
0.18
292
     0
297
     0
 46
0.18
343
0
 94
-1056964608
 47
1.0
 49
1.0
140
1.0
293
     1
141
0.0
294
     1
177
     0
142
1.0
295
     0
296
     0
143
0.125
271
     0
272
     9
273
     9
298
     0
  0
MLINESTYLE
  5
1C
102
{ACAD_REACTORS
330
1B
102
}
330
1B
100
AcDbMlineStyle
  2
STANDARD
 70
     0
  3

 62
     0
 51
90.0
 52
90.0
 71
     2
 49
0.5
 62
   256
  6
BYLAYER
 49
-0.5
 62
   256
  6
BYLAYER
  0
ACDBPLACEHOLDER
  5
52A
102
{ACAD_REACTORS
330
529
102
}
330
529
  0
SCALE
  5
52C
102
{ACAD_REACTORS
330
52B
102
}
330
52B
100
AcDbScale
 70
     0
300
1:1
140
1.0
141
1.0
290
     1
  0
SCALE
  5
52D
102
{ACAD_REACTORS
330
52B
102
}
330
52B
100
AcDbScale
 70
     0
300
1:2
140
1.0
141
2.0
290
     0
  0
SCALE
  5
52E
102
{ACAD_REACTORS
330
52B
102
}
330
52B
100
AcDbScale
 70
     0
300
1:4
140
1.0
141
4.0
290
     0
  0
SCALE
  5
52F
102
{ACAD_REACTORS
330
52B
102
}
330
52B
100
AcDbScale
 70
     0
300
1:5
140
1.0
141
5.0
290
     0
  0
SCALE
  5
530
102
{ACAD_REACTORS
330
52B
102
}
330
52B
100
AcDbScale
 70
     0
300
1:8
140
1.0
141
8.0
290
     0
  0
SCALE
  5
531
102
{ACAD_REACTORS
330
52B
102
}
330
52B
100
AcDbScale
 70
     0
300
1:10
140
1.0
141
10.0
290
     0
  0
SCALE
  5
532
102
{ACAD_REACTORS
330
52B
102
}
330
52B
100
AcDbScale
 70
     0
300
1:16
140
1.0
141
16.0
290
     0
  0
SCALE
  5
533
102
{ACAD_REACTORS
330
52B
102
}
330
52B
100
AcDbScale
 70
     0
300
1:20
140
1.0
141
20.0
290
     0
  0
SCALE
  5
534
102
{ACAD_REACTORS
330
52B
102
}
330
52B
100
AcDbScale
 70
     0
300
1:30
140
1.0
141
30.0
290
     0
  0
SCALE
  5
535
102
{ACAD_REACTORS
330
52B
102
}
330
52B
100
AcDbScale
 70
     0
300
1:40
140
1.0
141
40.0
290
     0
  0
SCALE
  5
536
102
{ACAD_REACTORS
330
52B
102
}
330
52B
100
AcDbScale
 70
     0
300
1:50
140
1.0
141
50.0
290
     0
  0
SCALE
  5
537
102
{ACAD_REACTORS
330
52B
102
}
330
52B
100
AcDbScale
 70
     0
300
1:100
140
1.0
141
100.0
290
     0
  0
SCALE
  5
538
102
{ACAD_REACTORS
330
52B
102
}
330
52B
100
AcDbScale
 70
     0
300
2:1
140
2.0
141
1.0
290
     0
  0
SCALE
  5
539
102
{ACAD_REACTORS
330
52B
102
}
330
52B
100
AcDbScale
 70
     0
300
4:1
140
4.0
141
1.0
290
     0
  0
SCALE
  5
53A
102
{ACAD_REACTORS
330
52B
102
}
330
52B
100
AcDbScale
 70
     0
300
8:1
140
8.0
141
1.0
290
     0
  0
SCALE
  5
53B
102
{ACAD_REACTORS
330
52B
102
}
330
52B
100
AcDbScale
 70
     0
300
10:1
140
10.0
141
1.0
290
     0
  0
SCALE
  5
53C
102
{ACAD_REACTORS
330
52B
102
}
330
52B
100
AcDbScale
 70
     0
300
100:1
140
100.0
141
1.0
290
     0
  0
SCALE
  5
53D
102
{ACAD_REACTORS
330
52B
102
}
330
52B
100
AcDbScale
 70
     0
300
1/128" = 1'-0"
140
0.0078125
141
12.0
290
     0
  0
SCALE
  5
53E
102
{ACAD_REACTORS
330
52B
102
}
330
52B
100
AcDbScale
 70
     0
300
1/64" = 1'-0"
140
0.015625
141
12.0
290
     0
  0
SCALE
  5
53F
102
{ACAD_REACTORS
330
52B
102
}
330
52B
100
AcDbScale
 70
     0
300
1/32" = 1'-0"
140
0.03125
141
12.0
290
     0
  0
SCALE
  5
540
102
{ACAD_REACTORS
330
52B
102
}
330
52B
100
AcDbScale
 70
     0
300
1/16" = 1'-0"
140
0.0625
141
12.0
290
     0
  0
SCALE
  5
541
102
{ACAD_REACTORS
330
52B
102
}
330
52B
100
AcDbScale
 70
     0
300
3/32" = 1'-0"
140
0.09375
141
12.0
290
     0
  0
SCALE
  5
542
102
{ACAD_REACTORS
330
52B
102
}
330
52B
100
AcDbScale
 70
     0
300
1/8" = 1'-0"
140
0.125
141
12.0
290
     0
  0
SCALE
  5
543
102
{ACAD_REACTORS
330
52B
102
}
330
52B
100
AcDbScale
 70
     0
300
3/16" = 1'-0"
140
0.1875
141
12.0
290
     0
  0
SCALE
  5
544
102
{ACAD_REACTORS
330
52B
102
}
330
52B
100
AcDbScale
 70
     0
300
1/4" = 1'-0"
140
0.25
141
12.0
290
     0
  0
SCALE
  5
545
102
{ACAD_REACTORS
330
52B
102
}
330
52B
100
AcDbScale
 70
     0
300
3/8" = 1'-0"
140
0.375
141
12.0
290
     0
  0
SCALE
  5
546
102
{ACAD_REACTORS
330
52B
102
}
330
52B
100
AcDbScale
 70
     0
300
1/2" = 1'-0"
140
0.5
141
12.0
290
     0
  0
SCALE
  5
547
102
{ACAD_REACTORS
330
52B
102
}
330
52B
100
AcDbScale
 70
     0
300
3/4" = 1'-0"
140
0.75
141
12.0
290
     0
  0
SCALE
  5
548
102
{ACAD_REACTORS
330
52B
102
}
330
52B
100
AcDbScale
 70
     0
300
1" = 1'-0"
140
1.0
141
12.0
290
     0
  0
SCALE
  5
549
102
{ACAD_REACTORS
330
52B
102
}
330
52B
100
AcDbScale
 70
     0
300
1-1/2" = 1'-0"
140
1.5
141
12.0
290
     0
  0
SCALE
  5
54A
102
{ACAD_REACTORS
330
52B
102
}
330
52B
100
AcDbScale
 70
     0
300
3" = 1'-0"
140
3.0
141
12.0
290
     0
  0
SCALE
  5
54B
102
{ACAD_REACTORS
330
52B
102
}
330
52B
100
AcDbScale
 70
     0
300
6" = 1'-0"
140
6.0
141
12.0
290
     0
  0
SCALE
  5
54C
102
{ACAD_REACTORS
330
52B
102
}
330
52B
100
AcDbScale
 70
     0
300
1'-0" = 1'-0"
140
12.0
141
12.0
290
     0
  0
TABLESTYLE
  5
56E
102
{ACAD_REACTORS
330
56D
102
}
102
{ACAD_XDICTIONARY
360
3479
102
}
330
56D
100
AcDbTableStyle
  3
Standard
 70
     0
 71
     0
 40
0.06
 41
0.06
280
     0
281
     0
  7
STANDARD
140
0.18
170
     2
 62
     0
 63
   257
283
     0
 90
        4
 91
        0
  1

274
    -2
284
     1
 64
     0
275
    -2
285
     1
 65
     0
276
    -2
286
     1
 66
     0
277
    -2
287
     1
 67
     0
278
    -2
288
     1
 68
     0
279
    -2
289
     1
 69
     0
  7
STANDARD
140
0.25
170
     5
 62
     0
 63
   257
283
     0
 90
        4
 91
        0
  1

274
    -2
284
     1
 64
     0
275
    -2
285
     1
 65
     0
276
    -2
286
     1
 66
     0
277
    -2
287
     1
 67
     0
278
    -2
288
     1
 68
     0
279
    -2
289
     1
 69
     0
  7
STANDARD
140
0.18
170
     5
 62
     0
 63
   257
283
     0
 90
        4
 91
        0
  1

274
    -2
284
     1
 64
     0
275
    -2
285
     1
 65
     0
276
    -2
286
     1
 66
     0
277
    -2
287
     1
 67
     0
278
    -2
288
     1
 68
     0
279
    -2
289
     1
 69
     0
  0
VISUALSTYLE
  5
555
102
{ACAD_REACTORS
330
550
102
}
330
550
100
AcDbVisualStyle
  2
2dWireframe
 70
     4
177
     3
291
     0
 70
    58
 90
        0
176
     1
 90
        2
176
     1
 90
        0
176
     1
 90
        0
176
     1
 40
0.6
176
     1
 40
30.0
176
     1
 62
     7
420
 16777215
176
     1
 90
        1
176
     1
 90
        4
176
     1
 62
     7
176
     1
 62
   257
176
     1
 90
        1
176
     1
 90
        1
176
     1
 40
1.0
176
     1
 90
        0
176
     1
 62
   257
176
     1
 40
1.0
176
     1
 90
        1
176
     1
 90
        6
176
     1
 90
        2
176
     1
 62
     7
176
     1
 90
        5
176
     1
 90
        0
176
     1
 90
        0
176
     1
290
     0
176
     1
 90
        1
176
     1
 40
0.0
176
     1
 90
        0
176
     1
290
     1
176
     1
290
     1
176
     1
290
     0
176
     1
290
     0
176
     1
290
     0
176
     1
290
     0
176
     1
290
     0
176
     1
290
     0
176
     1
290
     0
176
     1
 90
       50
176
     1
 40
0.0
176
     1
 40
1.0
176
     1
 90
        0
176
     1
 62
    18
420
        0
176
     1
 90
       50
176
     1
 90
        3
176
     1
 62
     5
420
      255
176
     1
290
     0
176
     1
 90
       50
176
     1
 90
       50
176
     1
 90
       50
176
     1
290
     0
176
     1
 90
       50
176
     1
 62
   256
176
     0
 40
1.0
176
     0
 90
        2
176
     1
  1
strokes_ogs.tif
176
     1
290
     0
176
     1
 40
1.0
176
     1
 40
1.0
176
     1
  0
VISUALSTYLE
  5
558
102
{ACAD_REACTORS
330
550
102
}
330
550
100
AcDbVisualStyle
  2
Basic
 70
     7
177
     3
291
     1
 70
    58
 90
        1
176
     1
 90
        0
176
     1
 90
        1
176
     1
 90
        0
176
     1
 40
0.6
176
     1
 40
30.0
176
     1
 62
     7
420
 16777215
176
     1
 90
        0
176
     1
 90
        4
176
     1
 62
     7
176
     1
 62
   257
176
     1
 90
        1
176
     1
 90
        1
176
     1
 40
1.0
176
     1
 90
        8
176
     1
 62
     7
176
     1
 40
1.0
176
     1
 90
        1
176
     1
 90
        6
176
     1
 90
        2
176
     1
 62
     7
176
     1
 90
        5
176
     1
 90
        0
176
     1
 90
        0
176
     1
290
     0
176
     1
 90
        1
176
     1
 40
0.0
176
     1
 90
        0
176
     1
290
     0
176
     1
290
     1
176
     1
290
     1
176
     1
290
     0
176
     1
290
     0
176
     1
290
     0
176
     1
290
     0
176
     1
290
     0
176
     1
290
     0
176
     1
 90
       50
176
     1
 40
0.0
176
     1
 40
1.0
176
     1
 90
        0
176
     1
 62
    18
420
        0
176
     1
 90
       50
176
     1
 90
        3
176
     1
 62
     5
420
      255
176
     1
290
     0
176
     1
 90
       50
176
     1
 90
       50
176
     1
 90
       50
176
     1
290
     0
176
     1
 90
       50
176
     1
 62
   256
176
     0
 40
1.0
176
     0
 90
        2
176
     1
  1
strokes_ogs.tif
176
     1
290
     0
176
     1
 40
1.0
176
     1
 40
1.0
176
     1
  0
VISUALSTYLE
  5
55C
102
{ACAD_REACTORS
330
550
102
}
330
550
100
AcDbVisualStyle
  2
Brighten
 70
    12
177
     3
291
     1
 70
    58
 90
        2
176
     1
 90
        2
176
     1
 90
        0
176
     1
 90
        0
176
     1
 40
0.6
176
     1
 40
30.0
176
     1
 62
     7
420
 16777215
176
     1
 90
        1
176
     1
 90
        4
176
     1
 62
     7
176
     1
 62
   257
176
     1
 90
        1
176
     1
 90
        1
176
     1
 40
1.0
176
     1
 90
        8
176
     1
 62
     7
176
     1
 40
1.0
176
     1
 90
        1
176
     1
 90
        6
176
     1
 90
        2
176
     1
 62
     7
176
     1
 90
        5
176
     1
 90
        0
176
     1
 90
        0
176
     1
290
     0
176
     1
 90
        1
176
     1
 40
50.0
176
     1
 90
        0
176
     1
290
     0
176
     1
290
     1
176
     1
290
     1
176
     1
290
     0
176
     1
290
     0
176
     1
290
     0
176
     1
290
     0
176
     1
290
     0
176
     1
290
     0
176
     1
 90
       50
176
     1
 40
0.0
176
     1
 40
1.0
176
     1
 90
        0
176
     1
 62
    18
420
        0
176
     1
 90
       50
176
     1
 90
        3
176
     1
 62
     5
420
      255
176
     1
290
     0
176
     1
 90
       50
176
     1
 90
       50
176
     1
 90
       50
176
     1
290
     0
176
     1
 90
       50
176
     1
 62
   256
176
     0
 40
1.0
176
     0
 90
        2
176
     1
  1
strokes_ogs.tif
176
     1
290
     0
176
     1
 40
1.0
176
     1
 40
1.0
176
     1
  0
VISUALSTYLE
  5
560
102
{ACAD_REACTORS
330
550
102
}
330
550
100
AcDbVisualStyle
  2
ColorChange
 70
    16
177
     3
291
     1
 70
    58
 90
        2
176
     1
 90
        2
176
     1
 90
        3
176
     1
 90
        0
176
     1
 40
0.6
176
     1
 40
30.0
176
     1
 62
     8
420
  8421504
176
     1
 90
        1
176
     1
 90
        4
176
     1
 62
     7
176
     1
 62
   257
176
     1
 90
        1
176
     1
 90
        1
176
     1
 40
1.0
176
     1
 90
        8
176
     1
 62
     8
420
  8421504
176
     1
 40
1.0
176
     1
 90
        1
176
     1
 90
        6
176
     1
 90
        2
176
     1
 62
     7
176
     1
 90
        5
176
     1
 90
        0
176
     1
 90
        0
176
     1
290
     0
176
     1
 90
        1
176
     1
 40
0.0
176
     1
 90
        0
176
     1
290
     0
176
     1
290
     1
176
     1
290
     1
176
     1
290
     0
176
     1
290
     0
176
     1
290
     0
176
     1
290
     0
176
     1
290
     0
176
     1
290
     0
176
     1
 90
       50
176
     1
 40
0.0
176
     1
 40
1.0
176
     1
 90
        0
176
     1
 62
    18
420
        0
176
     1
 90
       50
176
     1
 90
        3
176
     1
 62
     5
420
      255
176
     1
290
     0
176
     1
 90
       50
176
     1
 90
       50
176
     1
 90
       50
176
     1
290
     0
176
     1
 90
       50
176
     1
 62
   256
176
     0
 40
1.0
176
     0
 90
        2
176
     1
  1
strokes_ogs.tif
176
     1
290
     0
176
     1
 40
1.0
176
     1
 40
1.0
176
     1
  0
VISUALSTYLE
  5
55A
102
{ACAD_REACTORS
330
550
102
}
330
550
100
AcDbVisualStyle
  2
Conceptual
 70
     9
177
     3
291
     0
 70
    58
 90
        3
176
     1
 90
        2
176
     1
 90
        0
176
     1
 90
        0
176
     1
 40
0.6
176
     1
 40
30.0
176
     1
 62
     7
420
 16777215
176
     1
 90
        2
176
     1
 90
        2
176
     1
 62
     7
176
     1
 62
   257
176
     1
 90
        1
176
     1
 90
        1
176
     1
 40
179.0
176
     1
 90
        8
176
     1
 62
     7
176
     1
 40
1.0
176
     1
 90
        1
176
     1
 90
        6
176
     1
 90
        2
176
     1
 62
     7
176
     1
 90
        3
176
     1
 90
        0
176
     1
 90
        0
176
     1
290
     0
176
     1
 90
        1
176
     1
 40
0.0
176
     1
 90
        0
176
     1
290
     0
176
     1
290
     1
176
     1
290
     1
176
     1
290
     0
176
     1
290
     0
176
     1
290
     0
176
     1
290
     0
176
     1
290
     0
176
     1
290
     0
176
     1
 90
       50
176
     1
 40
0.0
176
     1
 40
1.0
176
     1
 90
        0
176
     1
 62
    18
420
        0
176
     1
 90
       50
176
     1
 90
        3
176
     1
 62
     5
420
      255
176
     1
290
     0
176
     1
 90
       50
176
     1
 90
       50
176
     1
 90
       50
176
     1
290
     0
176
     1
 90
       50
176
     1
 62
   256
176
     0
 40
1.0
176
     0
 90
        2
176
     1
  1
strokes_ogs.tif
176
     1
290
     0
176
     1
 40
1.0
176
     1
 40
1.0
176
     1
  0
VISUALSTYLE
  5
55B
102
{ACAD_REACTORS
330
550
102
}
330
550
100
AcDbVisualStyle
  2
Dim
 70
    11
177
     3
291
     1
 70
    58
 90
        2
176
     1
 90
        2
176
     1
 90
        0
176
     1
 90
        0
176
     1
 40
0.6
176
     1
 40
30.0
176
     1
 62
     7
420
 16777215
176
     1
 90
        1
176
     1
 90
        4
176
     1
 62
     7
176
     1
 62
   257
176
     1
 90
        1
176
     1
 90
        1
176
     1
 40
1.0
176
     1
 90
        8
176
     1
 62
     7
176
     1
 40
1.0
176
     1
 90
        1
176
     1
 90
        6
176
     1
 90
        2
176
     1
 62
     7
176
     1
 90
        5
176
     1
 90
        0
176
     1
 90
        0
176
     1
290
     0
176
     1
 90
        1
176
     1
 40
-50.0
176
     1
 90
        0
176
     1
290
     0
176
     1
290
     1
176
     1
290
     1
176
     1
290
     0
176
     1
290
     0
176
     1
290
     0
176
     1
290
     0
176
     1
290
     0
176
     1
290
     0
176
     1
 90
       50
176
     1
 40
0.0
176
     1
 40
1.0
176
     1
 90
        0
176
     1
 62
    18
420
        0
176
     1
 90
       50
176
     1
 90
        3
176
     1
 62
     5
420
      255
176
     1
290
     0
176
     1
 90
       50
176
     1
 90
       50
176
     1
 90
       50
176
     1
290
     0
176
     1
 90
       50
176
     1
 62
   256
176
     0
 40
1.0
176
     0
 90
        2
176
     1
  1
strokes_ogs.tif
176
     1
290
     0
176
     1
 40
1.0
176
     1
 40
1.0
176
     1
  0
VISUALSTYLE
  5
563
102
{ACAD_REACTORS
330
550
102
}
330
550
100
AcDbVisualStyle
  2
EdgeColorOff
 70
    22
177
     3
291
     1
 70
    58
 90
        2
176
     1
 90
        2
176
     1
 90
        0
176
     1
 90
        0
176
     1
 40
0.6
176
     1
 40
30.0
176
     1
 62
     7
420
 16777215
176
     1
 90
        1
176
     1
 90
        4
176
     1
 62
     7
176
     1
 62
   257
176
     1
 90
        1
176
     1
 90
        1
176
     1
 40
1.0
176
     1
 90
        8
176
     1
 62
     7
176
     1
 40
1.0
176
     1
 90
        1
176
     1
 90
        6
176
     1
 90
        2
176
     1
 62
     7
176
     1
 90
        5
176
     1
 90
        0
176
     1
 90
        0
176
     1
290
     0
176
     1
 90
        1
176
     1
 40
0.0
176
     1
 90
        0
176
     1
290
     0
176
     1
290
     1
176
     1
290
     1
176
     1
290
     0
176
     1
290
     0
176
     1
290
     0
176
     1
290
     0
176
     1
290
     0
176
     1
290
     0
176
     1
 90
       50
176
     1
 40
0.0
176
     1
 40
1.0
176
     1
 90
        0
176
     1
 62
    18
420
        0
176
     1
 90
       50
176
     1
 90
        3
176
     1
 62
     5
420
      255
176
     1
290
     0
176
     1
 90
       50
176
     1
 90
       50
176
     1
 90
       50
176
     1
290
     0
176
     1
 90
       50
176
     1
 62
   256
176
     0
 40
1.0
176
     0
 90
        2
176
     1
  1
strokes_ogs.tif
176
     1
290
     0
176
     1
 40
1.0
176
     1
 40
1.0
176
     1
  0
VISUALSTYLE
  5
55F
102
{ACAD_REACTORS
330
550
102
}
330
550
100
AcDbVisualStyle
  2
Facepattern
 70
    15
177
     3
291
     1
 70
    58
 90
        2
176
     1
 90
        2
176
     1
 90
        0
176
     1
 90
        0
176
     1
 40
0.6
176
     1
 40
30.0
176
     1
 62
     7
420
 16777215
176
     1
 90
        1
176
     1
 90
        4
176
     1
 62
     7
176
     1
 62
   257
176
     1
 90
        1
176
     1
 90
        1
176
     1
 40
1.0
176
     1
 90
        8
176
     1
 62
     7
176
     1
 40
1.0
176
     1
 90
        1
176
     1
 90
        6
176
     1
 90
        2
176
     1
 62
     7
176
     1
 90
        5
176
     1
 90
        0
176
     1
 90
        0
176
     1
290
     0
176
     1
 90
        1
176
     1
 40
0.0
176
     1
 90
        0
176
     1
290
     0
176
     1
290
     1
176
     1
290
     1
176
     1
290
     0
176
     1
290
     0
176
     1
290
     0
176
     1
290
     0
176
     1
290
     0
176
     1
290
     0
176
     1
 90
       50
176
     1
 40
0.0
176
     1
 40
1.0
176
     1
 90
        0
176
     1
 62
    18
420
        0
176
     1
 90
       50
176
     1
 90
        3
176
     1
 62
     5
420
      255
176
     1
290
     0
176
     1
 90
       50
176
     1
 90
       50
176
     1
 90
       50
176
     1
290
     0
176
     1
 90
       50
176
     1
 62
   256
176
     0
 40
1.0
176
     0
 90
        2
176
     1
  1
strokes_ogs.tif
176
     1
290
     0
176
     1
 40
1.0
176
     1
 40
1.0
176
     1
  0
VISUALSTYLE
  5
551
102
{ACAD_REACTORS
330
550
102
}
330
550
100
AcDbVisualStyle
  2
Flat
 70
     0
177
     3
291
     1
 70
    58
 90
        2
176
     1
 90
        1
176
     1
 90
        1
176
     1
 90
        2
176
     1
 40
0.6
176
     1
 40
30.0
176
     1
 62
     7
420
 16777215
176
     1
 90
        0
176
     1
 90
        0
176
     1
 62
     7
176
     1
 62
   257
176
     1
 90
        1
176
     1
 90
        1
176
     1
 40
1.0
176
     1
 90
        8
176
     1
 62
     7
176
     1
 40
1.0
176
     1
 90
        1
176
     1
 90
        6
176
     1
 90
        2
176
     1
 62
     7
176
     1
 90
        5
176
     1
 90
        0
176
     1
 90
        0
176
     1
290
     0
176
     1
 90
       13
176
     1
 40
0.0
176
     1
 90
        0
176
     1
290
     0
176
     1
290
     1
176
     1
290
     1
176
     1
290
     0
176
     1
290
     0
176
     1
290
     0
176
     1
290
     0
176
     1
290
     0
176
     1
290
     0
176
     1
 90
       50
176
     1
 40
0.0
176
     1
 40
1.0
176
     1
 90
        0
176
     1
 62
    18
420
        0
176
     1
 90
       50
176
     1
 90
        3
176
     1
 62
     5
420
      255
176
     1
290
     0
176
     1
 90
       50
176
     1
 90
       50
176
     1
 90
       50
176
     1
290
     0
176
     1
 90
       50
176
     1
 62
   256
176
     0
 40
1.0
176
     0
 90
        2
176
     1
  1
strokes_ogs.tif
176
     1
290
     0
176
     1
 40
1.0
176
     1
 40
1.0
176
     1
  0
VISUALSTYLE
  5
552
102
{ACAD_REACTORS
330
550
102
}
330
550
100
AcDbVisualStyle
  2
FlatWithEdges
 70
     1
177
     3
291
     1
 70
    58
 90
        2
176
     1
 90
        1
176
     1
 90
        1
176
     1
 90
        2
176
     1
 40
0.6
176
     1
 40
30.0
176
     1
 62
     7
420
 16777215
176
     1
 90
        1
176
     1
 90
        0
176
     1
 62
     7
176
     1
 62
   257
176
     1
 90
        1
176
     1
 90
        1
176
     1
 40
1.0
176
     1
 90
        0
176
     1
 62
   257
176
     1
 40
1.0
176
     1
 90
        1
176
     1
 90
        6
176
     1
 90
        2
176
     1
 62
     7
176
     1
 90
        5
176
     1
 90
        0
176
     1
 90
        0
176
     1
290
     0
176
     1
 90
       13
176
     1
 40
0.0
176
     1
 90
        0
176
     1
290
     0
176
     1
290
     1
176
     1
290
     1
176
     1
290
     0
176
     1
290
     0
176
     1
290
     0
176
     1
290
     0
176
     1
290
     0
176
     1
290
     0
176
     1
 90
       50
176
     1
 40
0.0
176
     1
 40
1.0
176
     1
 90
        0
176
     1
 62
    18
420
        0
176
     1
 90
       50
176
     1
 90
        3
176
     1
 62
     5
420
      255
176
     1
290
     0
176
     1
 90
       50
176
     1
 90
       50
176
     1
 90
       50
176
     1
290
     0
176
     1
 90
       50
176
     1
 62
   256
176
     0
 40
1.0
176
     0
 90
        2
176
     1
  1
strokes_ogs.tif
176
     1
290
     0
176
     1
 40
1.0
176
     1
 40
1.0
176
     1
  0
VISUALSTYLE
  5
553
102
{ACAD_REACTORS
330
550
102
}
330
550
100
AcDbVisualStyle
  2
Gouraud
 70
     2
177
     3
291
     1
 70
    58
 90
        2
176
     1
 90
        2
176
     1
 90
        1
176
     1
 90
        2
176
     1
 40
0.6
176
     1
 40
30.0
176
     1
 62
     7
420
 16777215
176
     1
 90
        0
176
     1
 90
        0
176
     1
 62
     7
176
     1
 62
   257
176
     1
 90
        1
176
     1
 90
        1
176
     1
 40
1.0
176
     1
 90
        0
176
     1
 62
     7
176
     1
 40
1.0
176
     1
 90
        1
176
     1
 90
        6
176
     1
 90
        2
176
     1
 62
     7
176
     1
 90
        5
176
     1
 90
        0
176
     1
 90
        0
176
     1
290
     0
176
     1
 90
       13
176
     1
 40
0.0
176
     1
 90
        0
176
     1
290
     0
176
     1
290
     1
176
     1
290
     1
176
     1
290
     0
176
     1
290
     0
176
     1
290
     0
176
     1
290
     0
176
     1
290
     0
176
     1
290
     0
176
     1
 90
       50
176
     1
 40
0.0
176
     1
 40
1.0
176
     1
 90
        0
176
     1
 62
    18
420
        0
176
     1
 90
       50
176
     1
 90
        3
176
     1
 62
     5
420
      255
176
     1
290
     0
176
     1
 90
       50
176
     1
 90
       50
176
     1
 90
       50
176
     1
290
     0
176
     1
 90
       50
176
     1
 62
   256
176
     0
 40
1.0
176
     0
 90
        2
176
     1
  1
strokes_ogs.tif
176
     1
290
     0
176
     1
 40
1.0
176
     1
 40
1.0
176
     1
  0
VISUALSTYLE
  5
554
102
{ACAD_REACTORS
330
550
102
}
330
550
100
AcDbVisualStyle
  2
GouraudWithEdges
 70
     3
177
     3
291
     1
 70
    58
 90
        2
176
     1
 90
        2
176
     1
 90
        1
176
     1
 90
        2
176
     1
 40
0.6
176
     1
 40
30.0
176
     1
 62
     7
420
 16777215
176
     1
 90
        1
176
     1
 90
        0
176
     1
 62
     7
176
     1
 62
   257
176
     1
 90
        1
176
     1
 90
        1
176
     1
 40
1.0
176
     1
 90
        0
176
     1
 62
   257
176
     1
 40
1.0
176
     1
 90
        1
176
     1
 90
        6
176
     1
 90
        2
176
     1
 62
     7
176
     1
 90
        5
176
     1
 90
        0
176
     1
 90
        0
176
     1
290
     0
176
     1
 90
       13
176
     1
 40
0.0
176
     1
 90
        0
176
     1
290
     0
176
     1
290
     1
176
     1
290
     1
176
     1
290
     0
176
     1
290
     0
176
     1
290
     0
176
     1
290
     0
176
     1
290
     0
176
     1
290
     0
176
     1
 90
       50
176
     1
 40
0.0
176
     1
 40
1.0
176
     1
 90
        0
176
     1
 62
    18
420
        0
176
     1
 90
       50
176
     1
 90
        3
176
     1
 62
     5
420
      255
176
     1
290
     0
176
     1
 90
       50
176
     1
 90
       50
176
     1
 90
       50
176
     1
290
     0
176
     1
 90
       50
176
     1
 62
   256
176
     0
 40
1.0
176
     0
 90
        2
176
     1
  1
strokes_ogs.tif
176
     1
290
     0
176
     1
 40
1.0
176
     1
 40
1.0
176
     1
  0
VISUALSTYLE
  5
557
102
{ACAD_REACTORS
330
550
102
}
330
550
100
AcDbVisualStyle
  2
Hidden
 70
     6
177
     3
291
     0
 70
    58
 90
        1
176
     1
 90
        2
176
     1
 90
        2
176
     1
 90
        0
176
     1
 40
0.6
176
     1
 40
30.0
176
     1
 62
     7
420
 16777215
176
     1
 90
        2
176
     1
 90
        2
176
     1
 62
     7
176
     1
 62
   257
176
     1
 90
        2
176
     1
 90
        1
176
     1
 40
40.0
176
     1
 90
        0
176
     1
 62
   257
176
     1
 40
1.0
176
     1
 90
        1
176
     1
 90
        6
176
     1
 90
        2
176
     1
 62
     7
176
     1
 90
        3
176
     1
 90
        0
176
     1
 90
        0
176
     1
290
     0
176
     1
 90
        1
176
     1
 40
0.0
176
     1
 90
        0
176
     1
290
     0
176
     1
290
     1
176
     1
290
     1
176
     1
290
     0
176
     1
290
     0
176
     1
290
     0
176
     1
290
     0
176
     1
290
     0
176
     1
290
     0
176
     1
 90
       50
176
     1
 40
0.0
176
     1
 40
1.0
176
     1
 90
        0
176
     1
 62
    18
420
        0
176
     1
 90
       50
176
     1
 90
        3
176
     1
 62
     5
420
      255
176
     1
290
     0
176
     1
 90
       50
176
     1
 90
       50
176
     1
 90
       50
176
     1
290
     0
176
     1
 90
       50
176
     1
 62
   256
176
     0
 40
1.0
176
     0
 90
        2
176
     1
  1
strokes_ogs.tif
176
     1
290
     0
176
     1
 40
1.0
176
     1
 40
1.0
176
     1
  0
VISUALSTYLE
  5
561
102
{ACAD_REACTORS
330
550
102
}
330
550
100
AcDbVisualStyle
  2
JitterOff
 70
    20
177
     3
291
     1
 70
    58
 90
        2
176
     1
 90
        2
176
     1
 90
        0
176
     1
 90
        0
176
     1
 40
0.6
176
     1
 40
30.0
176
     1
 62
     7
420
 16777215
176
     1
 90
        1
176
     1
 90
        4
176
     1
 62
     7
176
     1
 62
   257
176
     1
 90
        1
176
     1
 90
        1
176
     1
 40
1.0
176
     1
 90
       10
176
     1
 62
     7
176
     1
 40
1.0
176
     1
 90
        1
176
     1
 90
        6
176
     1
 90
        2
176
     1
 62
     7
176
     1
 90
        5
176
     1
 90
        0
176
     1
 90
        0
176
     1
290
     0
176
     1
 90
        1
176
     1
 40
0.0
176
     1
 90
        0
176
     1
290
     0
176
     1
290
     1
176
     1
290
     1
176
     1
290
     0
176
     1
290
     0
176
     1
290
     0
176
     1
290
     0
176
     1
290
     0
176
     1
290
     0
176
     1
 90
       50
176
     1
 40
0.0
176
     1
 40
1.0
176
     1
 90
        0
176
     1
 62
    18
420
        0
176
     1
 90
       50
176
     1
 90
        3
176
     1
 62
     5
420
      255
176
     1
290
     0
176
     1
 90
       50
176
     1
 90
       50
176
     1
 90
       50
176
     1
290
     0
176
     1
 90
       50
176
     1
 62
   256
176
     0
 40
1.0
176
     0
 90
        2
176
     1
  1
strokes_ogs.tif
176
     1
290
     0
176
     1
 40
1.0
176
     1
 40
1.0
176
     1
  0
VISUALSTYLE
  5
55E
102
{ACAD_REACTORS
330
550
102
}
330
550
100
AcDbVisualStyle
  2
Linepattern
 70
    14
177
     3
291
     1
 70
    58
 90
        2
176
     1
 90
        2
176
     1
 90
        0
176
     1
 90
        0
176
     1
 40
0.6
176
     1
 40
30.0
176
     1
 62
     7
420
 16777215
176
     1
 90
        1
176
     1
 90
        4
176
     1
 62
     7
176
     1
 62
   257
176
     1
 90
        7
176
     1
 90
        7
176
     1
 40
1.0
176
     1
 90
        8
176
     1
 62
     7
176
     1
 40
1.0
176
     1
 90
        1
176
     1
 90
        6
176
     1
 90
        2
176
     1
 62
     7
176
     1
 90
        5
176
     1
 90
        0
176
     1
 90
        0
176
     1
290
     0
176
     1
 90
        1
176
     1
 40
0.0
176
     1
 90
        0
176
     1
290
     0
176
     1
290
     1
176
     1
290
     1
176
     1
290
     0
176
     1
290
     0
176
     1
290
     0
176
     1
290
     0
176
     1
290
     0
176
     1
290
     0
176
     1
 90
       50
176
     1
 40
0.0
176
     1
 40
1.0
176
     1
 90
        0
176
     1
 62
    18
420
        0
176
     1
 90
       50
176
     1
 90
        3
176
     1
 62
     5
420
      255
176
     1
290
     0
176
     1
 90
       50
176
     1
 90
       50
176
     1
 90
       50
176
     1
290
     0
176
     1
 90
       50
176
     1
 62
   256
176
     0
 40
1.0
176
     0
 90
        2
176
     1
  1
strokes_ogs.tif
176
     1
290
     0
176
     1
 40
1.0
176
     1
 40
1.0
176
     1
  0
VISUALSTYLE
  5
562
102
{ACAD_REACTORS
330
550
102
}
330
550
100
AcDbVisualStyle
  2
OverhangOff
 70
    21
177
     3
291
     1
 70
    58
 90
        2
176
     1
 90
        2
176
     1
 90
        0
176
     1
 90
        0
176
     1
 40
0.6
176
     1
 40
30.0
176
     1
 62
     7
420
 16777215
176
     1
 90
        1
176
     1
 90
        4
176
     1
 62
     7
176
     1
 62
   257
176
     1
 90
        1
176
     1
 90
        1
176
     1
 40
1.0
176
     1
 90
        9
176
     1
 62
     7
176
     1
 40
1.0
176
     1
 90
        1
176
     1
 90
        6
176
     1
 90
        2
176
     1
 62
     7
176
     1
 90
        5
176
     1
 90
        0
176
     1
 90
        0
176
     1
290
     0
176
     1
 90
        1
176
     1
 40
0.0
176
     1
 90
        0
176
     1
290
     0
176
     1
290
     1
176
     1
290
     1
176
     1
290
     0
176
     1
290
     0
176
     1
290
     0
176
     1
290
     0
176
     1
290
     0
176
     1
290
     0
176
     1
 90
       50
176
     1
 40
0.0
176
     1
 40
1.0
176
     1
 90
        0
176
     1
 62
    18
420
        0
176
     1
 90
       50
176
     1
 90
        3
176
     1
 62
     5
420
      255
176
     1
290
     0
176
     1
 90
       50
176
     1
 90
       50
176
     1
 90
       50
176
     1
290
     0
176
     1
 90
       50
176
     1
 62
   256
176
     0
 40
1.0
176
     0
 90
        2
176
     1
  1
strokes_ogs.tif
176
     1
290
     0
176
     1
 40
1.0
176
     1
 40
1.0
176
     1
  0
VISUALSTYLE
  5
559
102
{ACAD_REACTORS
330
550
102
}
330
550
100
AcDbVisualStyle
  2
Realistic
 70
     8
177
     3
291
     0
 70
    58
 90
        2
176
     1
 90
        3
176
     1
 90
        0
176
     1
 90
        2
176
     1
 40
0.6
176
     1
 40
30.0
176
     1
 62
     7
420
 16777215
176
     1
 90
        0
176
     1
 90
        0
176
     1
 62
     7
176
     1
 62
   257
176
     1
 90
        1
176
     1
 90
        1
176
     1
 40
1.0
176
     1
 90
        8
176
     1
 62
   257
176
     1
 40
1.0
176
     1
 90
        1
176
     1
 90
        6
176
     1
 90
        2
176
     1
 62
     7
176
     1
 90
        3
176
     1
 90
        0
176
     1
 90
        0
176
     1
290
     0
176
     1
 90
       13
176
     1
 40
0.0
176
     1
 90
        0
176
     1
290
     0
176
     1
290
     1
176
     1
290
     1
176
     1
290
     0
176
     1
290
     0
176
     1
290
     0
176
     1
290
     0
176
     1
290
     0
176
     1
290
     0
176
     1
 90
       50
176
     1
 40
0.0
176
     1
 40
1.0
176
     1
 90
        0
176
     1
 62
    18
420
        0
176
     1
 90
       50
176
     1
 90
        3
176
     1
 62
     5
420
      255
176
     1
290
     0
176
     1
 90
       50
176
     1
 90
       50
176
     1
 90
       50
176
     1
290
     0
176
     1
 90
       50
176
     1
 62
   256
176
     0
 40
1.0
176
     0
 90
        2
176
     1
  1
strokes_ogs.tif
176
     1
290
     0
176
     1
 40
1.0
176
     1
 40
1.0
176
     1
  0
VISUALSTYLE
  5
568
102
{ACAD_REACTORS
330
550
102
}
330
550
100
AcDbVisualStyle
  2
Shaded
 70
    27
177
     3
291
     0
 70
    58
 90
        2
176
     1
 90
        2
176
     1
 90
        1
176
     1
 90
        2
176
     1
 40
0.6
176
     1
 40
30.0
176
     1
 62
     7
420
 16777215
176
     1
 90
        0
176
     1
 90
        4
176
     1
 62
     7
176
     1
 62
   257
176
     1
 90
        1
176
     1
 90
        1
176
     1
 40
1.0
176
     1
 90
        8
176
     1
 62
   257
176
     1
 40
1.0
176
     1
 90
        1
176
     1
 90
        6
176
     1
 90
        2
176
     1
 62
     8
420
  7895160
176
     1
 90
        3
176
     1
 90
        0
176
     1
 90
        0
176
     1
290
     0
176
     1
 90
        5
176
     1
 40
0.0
176
     1
 90
        0
176
     1
290
     0
176
     1
290
     1
176
     1
290
     1
176
     1
290
     0
176
     1
290
     0
176
     1
290
     0
176
     1
290
     0
176
     1
290
     0
176
     1
290
     0
176
     1
 90
       50
176
     1
 40
0.0
176
     1
 40
1.0
176
     1
 90
        0
176
     1
 62
    18
420
        0
176
     1
 90
       50
176
     1
 90
        3
176
     1
 62
     5
420
      255
176
     1
290
     0
176
     1
 90
       50
176
     1
 90
       50
176
     1
 90
       50
176
     1
290
     0
176
     1
 90
       50
176
     1
 62
   256
176
     0
 40
1.0
176
     0
 90
        2
176
     1
  1
strokes_ogs.tif
176
     1
290
     0
176
     1
 40
1.0
176
     1
 40
1.0
176
     1
  0
VISUALSTYLE
  5
567
102
{ACAD_REACTORS
330
550
102
}
330
550
100
AcDbVisualStyle
  2
Shaded with edges
 70
    26
177
     3
291
     0
 70
    58
 90
        2
176
     1
 90
        2
176
     1
 90
        1
176
     1
 90
        2
176
     1
 40
0.6
176
     1
 40
30.0
176
     1
 62
     7
420
 16777215
176
     1
 90
        1
176
     1
 90
       10
176
     1
 62
     7
176
     1
 62
   257
176
     1
 90
        2
176
     1
 90
        1
176
     1
 40
1.0
176
     1
 90
        8
176
     1
 62
   257
176
     1
 40
1.0
176
     1
 90
        1
176
     1
 90
        6
176
     1
 90
        2
176
     1
 62
     7
176
     1
 90
        3
176
     1
 90
        0
176
     1
 90
        0
176
     1
290
     0
176
     1
 90
        5
176
     1
 40
0.0
176
     1
 90
        0
176
     1
290
     0
176
     1
290
     1
176
     1
290
     1
176
     1
290
     0
176
     1
290
     0
176
     1
290
     0
176
     1
290
     0
176
     1
290
     0
176
     1
290
     0
176
     1
 90
       50
176
     1
 40
0.0
176
     1
 40
1.0
176
     1
 90
        0
176
     1
 62
    18
420
        0
176
     1
 90
       50
176
     1
 90
        3
176
     1
 62
     5
420
      255
176
     1
290
     0
176
     1
 90
       50
176
     1
 90
       50
176
     1
 90
       50
176
     1
290
     0
176
     1
 90
       50
176
     1
 62
   256
176
     0
 40
1.0
176
     0
 90
        2
176
     1
  1
strokes_ogs.tif
176
     1
290
     0
176
     1
 40
1.0
176
     1
 40
1.0
176
     1
  0
VISUALSTYLE
  5
564
102
{ACAD_REACTORS
330
550
102
}
330
550
100
AcDbVisualStyle
  2
Shades of Gray
 70
    23
177
     3
291
     0
 70
    58
 90
        2
176
     1
 90
        2
176
     1
 90
        3
176
     1
 90
        0
176
     1
 40
0.6
176
     1
 40
30.0
176
     1
 62
     7
420
 16777215
176
     1
 90
        2
176
     1
 90
        2
176
     1
 62
     7
176
     1
 62
     7
176
     1
 90
        1
176
     1
 90
        1
176
     1
 40
40.0
176
     1
 90
        8
176
     1
 62
     7
176
     1
 40
1.0
176
     1
 90
        1
176
     1
 90
        6
176
     1
 90
        2
176
     1
 62
     7
176
     1
 90
        3
176
     1
 90
        0
176
     1
 90
        0
176
     1
290
     0
176
     1
 90
        1
176
     1
 40
0.0
176
     1
 90
        0
176
     1
290
     0
176
     1
290
     1
176
     1
290
     1
176
     1
290
     0
176
     1
290
     0
176
     1
290
     0
176
     1
290
     0
176
     1
290
     0
176
     1
290
     0
176
     1
 90
       50
176
     1
 40
0.0
176
     1
 40
1.0
176
     1
 90
        0
176
     1
 62
    18
420
        0
176
     1
 90
       50
176
     1
 90
        3
176
     1
 62
     5
420
      255
176
     1
290
     0
176
     1
 90
       50
176
     1
 90
       50
176
     1
 90
       50
176
     1
290
     0
176
     1
 90
       50
176
     1
 62
   256
176
     0
 40
1.0
176
     0
 90
        2
176
     1
  1
strokes_ogs.tif
176
     1
290
     0
176
     1
 40
1.0
176
     1
 40
1.0
176
     1
  0
VISUALSTYLE
  5
565
102
{ACAD_REACTORS
330
550
102
}
330
550
100
AcDbVisualStyle
  2
Sketchy
 70
    24
177
     3
291
     0
 70
    58
 90
        1
176
     1
 90
        2
176
     1
 90
        2
176
     1
 90
        0
176
     1
 40
0.6
176
     1
 40
30.0
176
     1
 62
     7
420
 16777215
176
     1
 90
        2
176
     1
 90
        2
176
     1
 62
     7
176
     1
 62
     7
176
     1
 90
        1
176
     1
 90
        1
176
     1
 40
40.0
176
     1
 90
       11
176
     1
 62
     7
176
     1
 40
1.0
176
     1
 90
        1
176
     1
 90
        6
176
     1
 90
        2
176
     1
 62
     7
176
     1
 90
        6
176
     1
 90
        0
176
     1
 90
        0
176
     1
290
     0
176
     1
 90
        1
176
     1
 40
0.0
176
     1
 90
        0
176
     1
290
     0
176
     1
290
     1
176
     1
290
     1
176
     1
290
     0
176
     1
290
     0
176
     1
290
     0
176
     1
290
     0
176
     1
290
     0
176
     1
290
     0
176
     1
 90
       50
176
     1
 40
0.0
176
     1
 40
1.0
176
     1
 90
        0
176
     1
 62
    18
420
        0
176
     1
 90
       50
176
     1
 90
        3
176
     1
 62
     5
420
      255
176
     1
290
     0
176
     1
 90
       50
176
     1
 90
       50
176
     1
 90
       50
176
     1
290
     0
176
     1
 90
       50
176
     1
 62
   256
176
     0
 40
1.0
176
     0
 90
        2
176
     1
  1
strokes_ogs.tif
176
     1
290
     0
176
     1
 40
1.0
176
     1
 40
1.0
176
     1
  0
VISUALSTYLE
  5
55D
102
{ACAD_REACTORS
330
550
102
}
330
550
100
AcDbVisualStyle
  2
Thicken
 70
    13
177
     3
291
     1
 70
    58
 90
        2
176
     1
 90
        2
176
     1
 90
        0
176
     1
 90
        0
176
     1
 40
0.6
176
     1
 40
30.0
176
     1
 62
     7
420
 16777215
176
     1
 90
        1
176
     1
 90
        4
176
     1
 62
     7
176
     1
 62
   257
176
     1
 90
        1
176
     1
 90
        1
176
     1
 40
1.0
176
     1
 90
       12
176
     1
 62
     7
176
     1
 40
1.0
176
     1
 90
        1
176
     1
 90
        6
176
     1
 90
        2
176
     1
 62
     7
176
     1
 90
        5
176
     1
 90
        0
176
     1
 90
        0
176
     1
290
     0
176
     1
 90
        1
176
     1
 40
0.0
176
     1
 90
        0
176
     1
290
     0
176
     1
290
     1
176
     1
290
     1
176
     1
290
     0
176
     1
290
     0
176
     1
290
     0
176
     1
290
     0
176
     1
290
     0
176
     1
290
     0
176
     1
 90
       50
176
     1
 40
0.0
176
     1
 40
1.0
176
     1
 90
        0
176
     1
 62
    18
420
        0
176
     1
 90
       50
176
     1
 90
        3
176
     1
 62
     5
420
      255
176
     1
290
     0
176
     1
 90
       50
176
     1
 90
       50
176
     1
 90
       50
176
     1
290
     0
176
     1
 90
       50
176
     1
 62
   256
176
     0
 40
1.0
176
     0
 90
        2
176
     1
  1
strokes_ogs.tif
176
     1
290
     0
176
     1
 40
1.0
176
     1
 40
1.0
176
     1
  0
VISUALSTYLE
  5
556
102
{ACAD_REACTORS
330
550
102
}
330
550
100
AcDbVisualStyle
  2
Wireframe
 70
     5
177
     3
291
     0
 70
    58
 90
        0
176
     1
 90
        2
176
     1
 90
        0
176
     1
 90
        0
176
     1
 40
0.6
176
     1
 40
30.0
176
     1
 62
     7
420
 16777215
176
     1
 90
        1
176
     1
 90
        4
176
     1
 62
     7
176
     1
 62
   257
176
     1
 90
        1
176
     1
 90
        1
176
     1
 40
1.0
176
     1
 90
        0
176
     1
 62
   257
176
     1
 40
1.0
176
     1
 90
        1
176
     1
 90
        6
176
     1
 90
        2
176
     1
 62
     7
176
     1
 90
        3
176
     1
 90
        0
176
     1
 90
        0
176
     1
290
     0
176
     1
 90
        1
176
     1
 40
0.0
176
     1
 90
        0
176
     1
290
     0
176
     1
290
     1
176
     1
290
     1
176
     1
290
     0
176
     1
290
     0
176
     1
290
     0
176
     1
290
     0
176
     1
290
     0
176
     1
290
     0
176
     1
 90
       50
176
     1
 40
0.0
176
     1
 40
1.0
176
     1
 90
        0
176
     1
 62
    18
420
        0
176
     1
 90
       50
176
     1
 90
        3
176
     1
 62
     5
420
      255
176
     1
290
     0
176
     1
 90
       50
176
     1
 90
       50
176
     1
 90
       50
176
     1
290
     0
176
     1
 90
       50
176
     1
 62
   256
176
     0
 40
1.0
176
     0
 90
        2
176
     1
  1
strokes_ogs.tif
176
     1
290
     0
176
     1
 40
1.0
176
     1
 40
1.0
176
     1
  0
VISUALSTYLE
  5
566
102
{ACAD_REACTORS
330
550
102
}
330
550
100
AcDbVisualStyle
  2
X-Ray
 70
    25
177
     3
291
     0
 70
    58
 90
        2
176
     1
 90
        2
176
     1
 90
        1
176
     1
 90
        1
176
     1
 40
0.5
176
     1
 40
30.0
176
     1
 62
     7
420
 16777215
176
     1
 90
        1
176
     1
 90
        0
176
     1
 62
     7
176
     1
 62
   257
176
     1
 90
        1
176
     1
 90
        1
176
     1
 40
1.0
176
     1
 90
        8
176
     1
 62
     7
176
     1
 40
1.0
176
     1
 90
        1
176
     1
 90
        6
176
     1
 90
        2
176
     1
 62
     7
176
     1
 90
        3
176
     1
 90
        0
176
     1
 90
        0
176
     1
290
     0
176
     1
 90
       13
176
     1
 40
0.0
176
     1
 90
        0
176
     1
290
     0
176
     1
290
     1
176
     1
290
     1
176
     1
290
     0
176
     1
290
     0
176
     1
290
     0
176
     1
290
     0
176
     1
290
     0
176
     1
290
     0
176
     1
 90
       50
176
     1
 40
0.0
176
     1
 40
1.0
176
     1
 90
        0
176
     1
 62
    18
420
        0
176
     1
 90
       50
176
     1
 90
        3
176
     1
 62
     5
420
      255
176
     1
290
     0
176
     1
 90
       50
176
     1
 90
       50
176
     1
 90
       50
176
     1
290
     0
176
     1
 90
       50
176
     1
 62
   256
176
     0
 40
1.0
176
     0
 90
        2
176
     1
  1
strokes_ogs.tif
176
     1
290
     0
176
     1
 40
1.0
176
     1
 40
1.0
176
     1
  0
DICTIONARYVAR
  5
AB3
102
{ACAD_REACTORS
330
AB2
102
}
330
AB2
100
DictionaryVariables
280
     0
  1
1:1
  0
DICTIONARYVAR
  5
AB8
102
{ACAD_REACTORS
330
AB2
102
}
330
AB2
100
DictionaryVariables
280
     0
  1
Standard
  0
DICTIONARYVAR
  5
AB7
102
{ACAD_REACTORS
330
AB2
102
}
330
AB2
100
DictionaryVariables
280
     0
  1
Standard
  0
DICTIONARYVAR
  5
AB9
102
{ACAD_REACTORS
330
AB2
102
}
330
AB2
100
DictionaryVariables
280
     0
  1
0
  0
DICTIONARYVAR
  5
2A81
102
{ACAD_REACTORS
330
AB2
102
}
330
AB2
100
DictionaryVariables
280
     0
  1
0
  0
DICTIONARY
  5
3479
330
56E
100
AcDbDictionary
280
     1
281
     1
  3
ACAD_ROUNDTRIP_2008_TABLESTYLE_CELLSTYLEMAP
360
347A
  0
CELLSTYLEMAP
  5
347A
102
{ACAD_REACTORS
330
3479
102
}
330
3479
100
AcDbCellStyleMap
 90
        3
300
CELLSTYLE
  1
TABLEFORMAT_BEGIN
 90
        5
170
     1
 91
        0
 92
    32768
 62
   257
 93
        1
300
CONTENTFORMAT
  1
CONTENTFORMAT_BEGIN
 90
        0
 91
        0
 92
        4
 93
        0
300

 40
0.0
140
1.0
 94
        5
 62
     0
340
17
144
0.25
309
CONTENTFORMAT_END
171
     1
301
MARGIN
  1
CELLMARGIN_BEGIN
 40
0.06
 40
0.06
 40
0.06
 40
0.06
 40
0.06
 40
0.06
309
CELLMARGIN_END
 94
        6
 95
        1
302
GRIDFORMAT
  1
GRIDFORMAT_BEGIN
 90
        0
 91
        1
 62
     0
 92
       -2
340
11
 93
        0
 40
0.045
309
GRIDFORMAT_END
 95
        2
302
GRIDFORMAT
  1
GRIDFORMAT_BEGIN
 90
        0
 91
        1
 62
     0
 92
       -2
340
11
 93
        0
 40
0.045
309
GRIDFORMAT_END
 95
        4
302
GRIDFORMAT
  1
GRIDFORMAT_BEGIN
 90
        0
 91
        1
 62
     0
 92
       -2
340
11
 93
        0
 40
0.045
309
GRIDFORMAT_END
 95
        8
302
GRIDFORMAT
  1
GRIDFORMAT_BEGIN
 90
        0
 91
        1
 62
     0
 92
       -2
340
11
 93
        0
 40
0.045
309
GRIDFORMAT_END
 95
       16
302
GRIDFORMAT
  1
GRIDFORMAT_BEGIN
 90
        0
 91
        1
 62
     0
 92
       -2
340
11
 93
        0
 40
0.045
309
GRIDFORMAT_END
 95
       32
302
GRIDFORMAT
  1
GRIDFORMAT_BEGIN
 90
        0
 91
        1
 62
     0
 92
       -2
340
11
 93
        0
 40
0.045
309
GRIDFORMAT_END
309
TABLEFORMAT_END
  1
CELLSTYLE_BEGIN
 90
        1
 91
        1
300
_TITLE
309
CELLSTYLE_END
300
CELLSTYLE
  1
TABLEFORMAT_BEGIN
 90
        5
170
     1
 91
        0
 92
        0
 62
   257
 93
        1
300
CONTENTFORMAT
  1
CONTENTFORMAT_BEGIN
 90
        0
 91
        0
 92
        4
 93
        0
300

 40
0.0
140
1.0
 94
        5
 62
     0
340
17
144
0.18
309
CONTENTFORMAT_END
171
     1
301
MARGIN
  1
CELLMARGIN_BEGIN
 40
0.06
 40
0.06
 40
0.06
 40
0.06
 40
0.06
 40
0.06
309
CELLMARGIN_END
 94
        6
 95
        1
302
GRIDFORMAT
  1
GRIDFORMAT_BEGIN
 90
        0
 91
        1
 62
     0
 92
       -2
340
11
 93
        0
 40
0.045
309
GRIDFORMAT_END
 95
        2
302
GRIDFORMAT
  1
GRIDFORMAT_BEGIN
 90
        0
 91
        1
 62
     0
 92
       -2
340
11
 93
        0
 40
0.045
309
GRIDFORMAT_END
 95
        4
302
GRIDFORMAT
  1
GRIDFORMAT_BEGIN
 90
        0
 91
        1
 62
     0
 92
       -2
340
11
 93
        0
 40
0.045
309
GRIDFORMAT_END
 95
        8
302
GRIDFORMAT
  1
GRIDFORMAT_BEGIN
 90
        0
 91
        1
 62
     0
 92
       -2
340
11
 93
        0
 40
0.045
309
GRIDFORMAT_END
 95
       16
302
GRIDFORMAT
  1
GRIDFORMAT_BEGIN
 90
        0
 91
        1
 62
     0
 92
       -2
340
11
 93
        0
 40
0.045
309
GRIDFORMAT_END
 95
       32
302
GRIDFORMAT
  1
GRIDFORMAT_BEGIN
 90
        0
 91
        1
 62
     0
 92
       -2
340
11
 93
        0
 40
0.045
309
GRIDFORMAT_END
309
TABLEFORMAT_END
  1
CELLSTYLE_BEGIN
 90
        2
 91
        1
300
_HEADER
309
CELLSTYLE_END
300
CELLSTYLE
  1
TABLEFORMAT_BEGIN
 90
        5
170
     1
 91
        0
 92
        0
 62
   257
 93
        1
300
CONTENTFORMAT
  1
CONTENTFORMAT_BEGIN
 90
        0
 91
        0
 92
        4
 93
        0
300

 40
0.0
140
1.0
 94
        2
 62
     0
340
17
144
0.18
309
CONTENTFORMAT_END
171
     1
301
MARGIN
  1
CELLMARGIN_BEGIN
 40
0.06
 40
0.06
 40
0.06
 40
0.06
 40
0.06
 40
0.06
309
CELLMARGIN_END
 94
        6
 95
        1
302
GRIDFORMAT
  1
GRIDFORMAT_BEGIN
 90
        0
 91
        1
 62
     0
 92
       -2
340
11
 93
        0
 40
0.045
309
GRIDFORMAT_END
 95
        2
302
GRIDFORMAT
  1
GRIDFORMAT_BEGIN
 90
        0
 91
        1
 62
     0
 92
       -2
340
11
 93
        0
 40
0.045
309
GRIDFORMAT_END
 95
        4
302
GRIDFORMAT
  1
GRIDFORMAT_BEGIN
 90
        0
 91
        1
 62
     0
 92
       -2
340
11
 93
        0
 40
0.045
309
GRIDFORMAT_END
 95
        8
302
GRIDFORMAT
  1
GRIDFORMAT_BEGIN
 90
        0
 91
        1
 62
     0
 92
       -2
340
11
 93
        0
 40
0.045
309
GRIDFORMAT_END
 95
       16
302
GRIDFORMAT
  1
GRIDFORMAT_BEGIN
 90
        0
 91
        1
 62
     0
 92
       -2
340
11
 93
        0
 40
0.045
309
GRIDFORMAT_END
 95
       32
302
GRIDFORMAT
  1
GRIDFORMAT_BEGIN
 90
        0
 91
        1
 62
     0
 92
       -2
340
11
 93
        0
 40
0.045
309
GRIDFORMAT_END
309
TABLEFORMAT_END
  1
CELLSTYLE_BEGIN
 90
        3
 91
        2
300
_DATA
309
CELLSTYLE_END
  0
ENDSEC
  0
SECTION
  2
ACDSDATA
 70
     2
 71
     2
  0
ACDSSCHEMA
 90
        0
  1
AcDb_Thumbnail_Schema
  2
AcDbDs::ID
280
    10
 91
        8
  2
Thumbnail_Data
280
    15
 91
        0
101
ACDSRECORD
 95
        0
 90
        2
  2
AcDbDs::TreatedAsObjectData
280
     1
291
     1
101
ACDSRECORD
 95
        0
 90
        3
  2
AcDbDs::Legacy
280
     1
291
     1
101
ACDSRECORD
  1
AcDbDs::ID
 90
        4
  2
AcDs:Indexable
280
     1
291
     1
101
ACDSRECORD
  1
AcDbDs::ID
 90
        5
  2
AcDbDs::HandleAttribute
280
     7
282
     1
  0
ACDSSCHEMA
 90
        1
  1
AcDb3DSolid_ASM_Data
  2
AcDbDs::ID
280
    10
 91
        8
  2
ASM_Data
280
    15
 91
        0
101
ACDSRECORD
 95
        1
 90
        2
  2
AcDbDs::TreatedAsObjectData
280
     1
291
     1
101
ACDSRECORD
 95
        1
 90
        3
  2
AcDbDs::Legacy
280
     1
291
     1
101
ACDSRECORD
  1
AcDbDs::ID
 90
        4
  2
AcDs:Indexable
280
     1
291
     1
101
ACDSRECORD
  1
AcDbDs::ID
 90
        5
  2
AcDbDs::HandleAttribute
280
     7
282
     1
  0
ACDSSCHEMA
 90
        2
  1
AcDbDs::TreatedAsObjectDataSchema
  2
AcDbDs::TreatedAsObjectData
280
     1
 91
        0
  0
ACDSSCHEMA
 90
        3
  1
AcDbDs::LegacySchema
  2
AcDbDs::Legacy
280
     1
 91
        0
  0
ACDSSCHEMA
 90
        4
  1
AcDbDs::IndexedPropertySchema
  2
AcDs:Indexable
280
     1
 91
        0
  0
ACDSSCHEMA
 90
        5
  1
AcDbDs::HandleAttributeSchema
  2
AcDbDs::HandleAttribute
280
     7
 91
        1
284
     1
  0
ACDSRECORD
 90
        0
  2
AcDbDs::ID
280
    10
320
54E
  2
Thumbnail_Data
280
    15
 94
     4329
310
89504E470D0A1A0A0000000D49484452000001000000009F080600000016350744000000097048597300000EC400000EC401952B0E1B0000109B49444154789CEDDD5B4C93F7FF07F077FBB4A52DA5E55026142BC819C103827840C04E32E79965A73863B2ED6A59B6EC6E5E2DF9ED62C992DD2C31D9D5DCCD62CC2E96B965
310
46613610456582A0A2480539B84271A5B680944381FE2F0CCDF8EB9CC8D37E9FE7F97E5E09312DF07CDF7C236F9E3E876F5500C220847049CD3A0021841D2A00423846054008C7A80008E1181500211CA302208463540084708C0A80108E510110C2312A00423846054008C7B82C808D1B37E2CB2FBF446D6D2DEB288AF7C9
310
279FC06C36B38E41FE059705505757876FBEF906353535ACA328DEDCDC1CE2E3E359C720FF4200F03FD62162A5BCBC1C369B0D191919D8B163078C46230281006C361BFC7E3FE6E6E658475484C579DEBC793372737391929202AD564BF32C412A28EC7660954A05BBDD8E949414582C96259F6B6B6BFBD7EF2B2E2E86C160
310
883C0E0683181919C1C8C808666767A39657AE689E95411105200802D6AF5F8FC4C4442C2C2CC0ED76C3E7F3616C6CECA5B7693018909E9E8EB4B434E8743ACCCCCCA0B5B595EBBF5E3A9D0EEBD6AD13759E8D4623D2D2D2689E19917501242525A1A8A8088220A0B3B3138140206A63C5C5C5A1BCBC1C6AB51ABDBDBDF078
310
3C511B4B6A16E71900BABABA689E1544960560B3D9909F9F0FBFDF8FAEAE2E8442A1988D2D080272727260B3D9E076BBD1DBDB1BB3B1636D719E1F3D7A84BB77EF329B67BFDF8F9B376FC66C6C9EC8AE006C361B4C2613EEDDBBC73A0A32323260341AD1D3D3C33A8AE8A434CFEBD6AD43281452E43CB326ABD3803A9D0E59
310
595992F84F090043434348484850DC796E8BC58255AB5649669EBBBABA1439CF5220AB0228282880CBE5621D630997CB85828202D63144B566CD1A3C78F080758C259438CF52A0611D6039AC562BEEDCB903B55A3ABD3535350593C9C43A86A8689EF921AB02D0EBF5A8ACAC641DE329C9C9C9AC23888AE6991FB22A80E9E9
310
695CBA7489758CA7381C0ED6114445F3CC0FE9ECE31142628E0A80108E510110D9D0E97450A954AC63280A15009105AD568BDADA5A7CF4D147ACA3288AAC0E02127EE9F57AAC5DBB96750CC5A13D00423846054064A5A3A383750445A10220B2525A5ACA3A82A2705B006BD7AE95D4A5AE2CD9ED76BACA8E535CFE06949494
310
60EBD6ADD8B97327EB28CC09828077DE7907EFBFFF3EEB28CF353535859696165A1740645C9E05A8ABAB83D168446161212E5EBCC83A0E533A9D0E292929585858404E4E0EEEDFBFCF3AD233CDCDCDE1FAF5EB686C6C641D4551B82C004110F0F0E143949494B08E22090F1F3E0400BAC88643DCBD04309BCD080683D06AB5
310
70B95CD8BB772FD7C702D6AD5B87E2E26294959561EBD6ADACE3901893EC1E80D96C86C16088FC75128B4EA7C3B973E770FBF66D00C0175F7C01A7D3C9ED92D4393939686B6B437C7C3CD2D2D258C7213126C902484E4EC6679F7D06AD560BA7D309A7D329EAF6F57A3D8C462300DAEDD56834D0683450ABD55CEF09F14A92
310
0570F8F061343434A0B8B818B5B5B5A216C0ECEC2C3EFEF863B85C2E141616E2A79F7EE27A0D7AB55A1DB9C4D6ED76334E43624D9295FFE8D123ECDBB70F6EB71B5EAF57D46D8F8F8FC3E974A2A8A8085D5D5D387FFE3C161616441D434EAE5CB9028D46038BC5C2FD19111E49B2007EFDF557B4B7B723373717DF7EFBADE8
310
DB1F1E1E467373B368A7BCAC56AB6C0FA0793C1E78BD5E747676223F3F1FE9E9E9C8CACA1265DB369B0D478E1C416161A128DB23E293640100402010C0E3C78FF1E69B6FE2D5575FC5071F7C20CA412A9D4E07B3D98CEFBFFF1EC1605094A5A647474723C714E4C8E974E2C48913F0FBFD3871E204C6C7C757BC4DB3D98CD2
310
D2529C3E7D1AF9F9F9A2950A1197248F010040381C86C7E381C3E18056AB05F0E46AB0D3A74FAF68BBF1F1F118181800008C8C8CC066B389F21F5EAE42A110044110FD00605C5C5CE4E5DBF5EBD7919A9A2AEAF68938245B005AAD16252525F8FCF3CF23CF89B128A4DFEF87D56AC5AE5DBB100804D0DDDDBDE26D5AAD56F8
310
7CBE156F8785B9B939DCB871033B77EE44767636EAEBEB919494B4E2EDFAFD7EECDBB70F369B0D76BB1D274F9E14212D8986B05C3E1C0E07F30C72CAA5B49F47AAB9E4FC21D963008490E8A302208463540084708C0A80108E510110C2312A00423846054008C7A80008E1181500211CA302208463540084708C0A80108E51
310
0110C2312A00423846054008C7A80008E1181500211CA30220846354004416743A1D6A6B6B71E4C811D6511445360560369B919E9ECE3A0661242E2E0E050505D8BC7933EB288A229B02C8CACAC2FCFC3CEB1884288A6C0A0000D7EFE1479EE8E8E8601D415164550084949696B28EA028B229008FC7038BC5C23A06218A22
310
D97706FAFFBC5E2FFAFBFB59C7208C4C4E4EE2CE9D3BB87DFB36EB288A229B02207C5B5858405353131A1B1B59475114D9BC042084888F0A80108E510110C231591D03D0EBF5D8B56B17EB184F494949611D4154068381E69913B22A80E9E969343535B18EF11487C3C13A82A8A6A6A62439CF522C25B993D54B80A1A121D8
310
6C36D6319648484880D168641D4354C3C3C392BBEF22212101131313AC63288EEC0A20232383758C256C361BDADBDB59C71095DBEDC6EAD5AB59C75862FDFAF5E8ECEC641D4371645500939393E8E9E9C1A64D9B58470100E4E5E5E1F1E3C7F0783CACA3884A6AF39C9F9F8FC1C141CCCECEB28EA2382A0061D621962B3131
310
119B366D82DFEFC7E0E020028140CCC636180CC8CECE466A6A2AEEDDBB87E1E1E1988D1D6B34CFCA27CB025894949484AD5BB7221C0E63666626EAE3C5C5C5211C0EA3BBBB1B0F1E3C88FA785241F3AC6C61B97F381C8E988CB36BD7AEB04AA562FEF3F230CFAC7F565E3E64750C402C66B319F9F9F9B05AADACA3281ACDB3
310
F4C9EA3A8095D26834A8A8A8C0F4F4348E1F3F8E53A74E617C7C1C2D2D2D989E9E7EA16D84C3E128A794BFC5797EE5955770F4E8517CF7DD770887C3CB9A67121B5CED01545454A0ADAD2D72DAEEE0C183686A6AC2860D1B5EE85CBE4AA58A764445A8A8A8406B6B2BB45A2D542A15341A0DCDB34429A200F47A3DEC76FB73
310
BFA6BABA1A2D2D2D915349FF3C75D7DDDD8DC2C2C2E77EBFC964A20B515EC0E23C87422168B55A84C3616467670378B1794E4848C0F8F8782CA21228E425C0ECEC2CBC5EEF73BF4610042C2C2C441EB7B6B6468E688F8F8FFFE76A4346A311C16070E56115EE9FF3DCD2D202411070E6CC19002F36CF06830153535351CF49
310
9E5044012C2C2C2CFBB5E5A953A7A294862CEAEBEB435F5F1FEB18E43914F1128010F272A80008E1181500211CA302208463540084708C0A80108EC9EA34A02008CF5CA9263939F93F17B0F8AFAFF9AFCFA7A4A4202929E99917A98C8E8E2AEA12578D4683B4B4B4A79EA779561E59DD0E9C90908077DF7D97758CA7343434
310
28EAB655A9CE737D7D3DFEFAEB2FD63114455605400811171D03208463540084708CDB0258BF7EFD330F7411C213599D051083D168C4B163C760B55A210802323232F0E9A79FD28AB3844BDCED01188D46F87C3E7CF5D557686868A0B79B225CE3AE0080270B532CFE3B303040CB7C116E71F71220180CE2BDF7DE43525212
310
666666F0F5D75F23140AB18E450813DC158056AB85D7EBC5F0F030D46A354C2613EB488430C3C58540797979A8A8A880C5628120084B96A90E0402989999412814427373335C2ED792A5C3085132C516407A7A3AB66DDB864D9B36A1A7A707D7AE5DC3D8D818E6E7E7313A3A1AF9BAC4C444C4C5C541A3D1A0AAAA0AF9F9F9
310
E8EBEB43535313DC6E37C39F8090E8535C0108828043870E21353515D7AE5DC38D1B3796BD8DBCBC3C545757637A7A1ABFFDF61BAD064C144B5105505A5A8AD75F7F1DE7CE9DC3CD9B37577C743F2F2F0F870E1D426B6B2BAE5CB982B9B939919212220D8A2800954A85AAAA2A582C169C3B774EF45FD4DDBB77232E2E0E0D
310
0D0D5402445114711DC0C18307A1D56A71F6ECD9A8FC823A9D4E8C8C8CE0D8B163A26F9B109664BF0750575787C1C1418C8C8C40A3D144E57EF155AB5641AFD7637E7E1EB5B5B53875EA145D3B401441D67B00DBB76FC7F4F4343A3A3AE07038F0DA6BAF45659CAAAA2AECDBB70F6EB71B2E970BBB77EF8ECA3884C49A6CF7
310
00B2B3B3B173E74EFCF8E38F31BF9477FFFEFDF07ABDB876ED5A4CC725446CB2DD033870E000CE9E3DCBE43AFE0B172EC0E170401084988F4D8898645900050505181D1D85CFE76332FECCCC0CDADADA505959C9647C42C422CB02D8BF7F3FCE9E3DCB3483D3E944656525F47A3DD31C84AC84EC0A203737175EAF17636363
310
ACA3A0A5A505DBB66D631D83909726BB02C8CACAC2C0C000EB180080C1C141646666B28E41C84B935D01545757E3D2A54BAC630000FAFAFA909393C33A06212F4D5605909A9A8ABFFFFE9B758C256EDCB8818D1B37B28E41C84B914D01A8542AE8F57AC9DDAB3F37370783C100B55A3653494884E45704B2D96C58B56A15D6
310
AE5D2BD9F3EEB9B9B930994CB870E102EB28842C8B240BE0C08103282E2E86DD6E87D96CC6E4E424525353515F5F8FCB972FB38EB7C4E5CB9771F4E8510C0D0DB18E42C8B249B2007C3E1FFC7E3FDC6E37F47A3D3C1E0F366EDC088D4623B9DB71AD56EB9215860891134916C0D5AB5771F5EAD525CFDDBD7B17E5E5E5A8A9
310
A9C19D3B7718257B5A414101743A9D24AE4B2064B96473E4AABFBF1F172F5E641DE3993A3B3BD1DEDECE3A0621CB269B02902A954A456F2C42644B5605F0F0E143C9BDA167595919FDF527B225AB0200802B57AE60FBF6EDAC6300787259727F7F3FEB1884BC34D91580946EC0D9B2650B5A5B5B59C720E4A5C9AE00028100
310
D46A35CC6633EB28C8CECE465F5F1FEB1884BC34D9150000FCF1C71F515BFFEF45555656A2A3A303C16090690E425642960570EBD62DD8ED7624262632195FA7D3A1AAAA0A4EA793C9F88488459605000067CE9C415D5D5DE471464646D40AC16834223B3B3BF2F8F0E1C3F8FDF7DF313F3F1F95F1088915D916407F7F3FFE
310
FCF34FBCFDF6DB50ABD5282F2F4759595954C6DABC797364DB0E87035EAF17B76FDF8ECA5884C4926C97055FB4F8C62081400013131351B92EDF6432C16EB743ABD522333313F5F5F5989D9D157D1C42624DF605A052A9F0D65B6FC1E7F3A1B1B1316A57E5959595A1B4B4143FFCF083E4D624206CEDD9B30783838330994C
310
484E4E86DBED465F5F1FEAEAEAE0F3F9200802044180C562414F4F0FDADBDBF1E1871FC2E7F3C1E97432BD8F4400F03F66A38BA4BBBB1B76BB1D151515B87FFFBEA8770C6AB55AECDEBD1BC9C9C9F8F9E79F25773722616FC3860DA8AEAE467C7C3CFC7E3F060606505454841D3B76007872C7684A4A0AAC562B9A9A9AB06D
310
DB36D4D4D460767616434343F0FBFDCCB2CB7E0FE09F8A8A8AB077EF5E9C3F7F1E5D5D5D2BDE5E666626F6EFDF8F5BB76EA1B9B959848444894A4A4A303131019FCF87848404783C1E004FDE53D2683442A3D14010044C4D4DC16834A2BBBB1BA5A5A5000097CB85C9C94966D9155500C09353746FBCF1066C361B1A1B1BD1
310
D3D3B3AC09D6E974C8CCCCC49E3D7B100C06F1CB2FBF306D6842A2497105B0283131110E8703B9B9B9181B1BC3F0F0309A9A9A229F0F8542D06AB591C75BB66CC1EAD5ABB166CD1A0C0E0EA2BEBE1E5EAF974172426247B105F04F191919B0D96C387EFC78E4B9D1D15158ADD6C8E393274FA2A7A707BDBDBD2C2212C28424
310
570412DBD0D010868686D0DBDB8BDCDC5C0058F2CB3F3A3A8AE6E6664C4C4CB08A4808135CEC012CB25AAD30994C4F3D3F333313397043084FB82A0042C852B2BD149810B272540084708C0A80108E510110C2312A00423846054008C7A80008E1181500211CA302208463540084708C0A80108EFD1F1993642D521FD5A900
310
00000049454E44AE426082
  0
ACDSRECORD
 90
        0
  2
AcDbDs::ID
280
    10
320
346E
  2
Thumbnail_Data
280
    15
 94
     4240
310
89504E470D0A1A0A0000000D49484452000001000000007A080600000050BC8D75000000097048597300000EC400000EC401952B0E1B0000104249444154789CEDDDDF4F53F7FF07F067A150E80F28052C548B150A3807432A6CBA4D922DBA6473C6E81633A3665E6DEE6659B2FD07BBD8BCD9DDB25DECC2C9B66CC9DC5C16
310
9765BA8F4B5032E94440D014282248C11FAD941FB5A52D7C2F08E75B04A13FCEE9695F7D3DAEB0E9FB7D5E9517AF9E1FEF1F8AD3A74F2F80319691B2E40E8031261FA5DC0188CDEBF522180CCA1D062348A150A0B8B858EE304445AE0094949460EFDEBD7287C108EAE8E8C0C3870FE50E4354E40A8046A3416969A9DC6130
310
820A0B0BC91500BE07C05806E302C05806E302C05806E302C05806E302C05806E302C05806E302C05806E302C0580623371028524F4F0F028180F0EFEAEA6AE8F57A00405F5F1F7C3E1F0040AFD7A3BABA1A0070FFFE7DDCB9734768D3D0D080DCDC5C0080DD6E175E37994CD8B8712300607878180F1E3C000028954A3436
310
3602007C3E1FFAFAFA843655555530180C00805BB76E616666060050505080DADA5A00C0E3C78FD1DBDB2BB4A9AFAF475E5EDE8A36656565309BCD0000B7DB8DA1A12100407676366C369BD0FEDAB56B989F9F07005456560A43594747473131310100D0E974D8BA752B00C0EFF7E3C68D1B42FBBABA3AE4E7E703001C0E07
310
A6A6A6000046A31115151500008FC703A7D30900C8CACAC28E1D3B84F6D7AF5F47281402006CD8B0019B376F0600DCBD7B17E3E3E3001687D836353501000281007A7A7A84F6168B4518D8D5DFDF0FAFD70B6071C0D7B66DDB00008F1E3DC2E0E0A0D066DBB66DD068340080AEAE2E6168786969292C160B00606C6C0C2E97
310
4B68D3D4D404854281603088AEAE2EE1F55028845DBB76812A05B5D9807ABD1E070E1C00B0F807DBDCDC2C73442C9D45E6D0E5CB97854247055F023096C1481780A55354C6E2453D87481700A3D12877082CCD51CF21D2058031B636D20560606040EE10589AA39E43A40BC0E4E4A4DC21B034473D87481700C6D8DA480F04
310
4A6465A0B6B63661000E4B6F7EBF1FBB77EF8EAB2DF5D5A5481780A5515FF1C8CBCB136510512010C08F3FFE88FDFBF70BA300D395C7E381CBE5425D5D9DDCA1C424720467AC12C9A174C09700121B1F1F476B6BEBB2E1ADE9CAE170E07FFFFB9FDC613011913E03181D1D15C6CB27C3E0E0201E3D7AB4ECB5DCDC5C9C3D7B
310
166363632BBE89B45A2D6A6A6A909D9D9DB418A3E1F3F9303838B86C1E05B038FFE0D8B163AB7EA39ACD66949595252BC4A449760E251BE90230313121F92F6F767616376FDE040058AD5658ADD655DF575858B8E2B5999919747777231C0EA3A2A242D641270B0B0B181A1A82C7E3815AAD466D6D2D542AD5AAEF5DED5266
310
64640476BB1D2A950A56AB156AB55AEA90932219392427D205406A0E8703A15028EE7B055AAD5698B9373C3C8CAB57AFE2F9E79F8742A11033CC7585C361D8ED76D4D4D4A0AAAA2AAE3E2A2A2A50515181402080818101180C06984C2691236562237D0F40A7D349D6F7E3C78F31373787679F7D5694FE2C160B4C26933045
310
37997A7B7B61B3D944B949A952A950575787B1B1311122939F9439940A489F012CCD719782CFE783D3E984DFEF17BDEFF2F272D1FB5C8BDBED467777B7A87DDEBE7D9BC4546C29732815902E0052ABAFAF8FFB94F969127964152F9D4E47E28F95C58EF42500B56D9C58F251CF21D205E0F6EDDB728790B1262626D0DADA2A
310
771809A39E43A40B00938FDBEDC6F9F3E7E50E83AD837401502AF916879CC47A422227EA3944BA002CADCE2BB7FEFE7E6165DE54E2703824ED9FC25CFA54C921A9902E00A9C0E3F1E0F8F1E3E8E8E8903B9465EEDDBB8723478E483647C16AB5E2EBAFBF96A46F261ED20560767656EE10E0743A515C5C2CFA73F6448D8D8D
310
C1E7F3497616A052A9480C074E851C9212E902B034465F2C636363F8ECB3CF564CF859CF1F7FFC8170382C6A2C89EAEFEF4743430399117B52113B87520DE90220B63367CEE0C18307F8F3CF3FA36E130C06B17BF7EE94FB2651ABD53877EE1CF965AFD9DAB800C4E0F8F1E3F0FBFD3878F060D46DEAEAEAB063C70EBCF1C6
310
1B51BD5FEA1B734B9A9A9AF0F1C71F63646464D9B65A6BB972E50A7EFEF96761AB2F96FE481780EDDBB78BDADFA64D9B603018F0E69B6FE2ADB7DE8AAA8DDD6EC7E79F7F2EEC43B89EA5BDF7A4A6D7EB71F4E851747777477D49130A85D0D4D49451970D62E750AA215D0072727244EFF385175EC0C58B1771F6ECD9A8DEDF
310
D2D2828E8E8EA89F89AFB66E8014D46A35D46A35F6ECD913F52C40954A85CECE4E6153D44C20450EA512D2A31CC2E1B0E8ABEDECDFBF3FA6F7E7E4E4A0A5A525EAF7D7D4D4C41A52DCB66CD9822D5BB6443D0169E7CE9D1247947AA4C8A15442FA0CA0B3B353EE10589AA39E43A40B00636C6D5C0018CB60A40B00F5D55C98
310
F4A8E710E902407D3D37263DEA3944BA0030C6D646BA00A4DA041C967EA8E710E9023037372777082CCD51CF21D2058031B636D20560F3E6CD728790B19C4E27BEF8E20BB9C34818F51C225D00366CD82059DFFFFDF79F647D53E0F7FB536E15A478489943A980740160F22A2D2D953B04B60ED20540CAB9F59934232E5ED1
310
4E814E65C95A9F412EA467034A39B7BEBCBC1C93939392F59FEE6A6B6B71E4C811B9C34858B2D667900BE93300261FA55209954A2577186C1DA4CF008C46A3A4FDDFB871031E8F47D26324C3F4F4B4E89B9252D91D58EA1C921BE90220E582974AA512CF3CF30C6A6B6B45ED9777074E2DD4174DE54B80381516168A7E7D68
310
B7DBD1D4D4246A9FD1309BCD18191911AD3F9FCF87FCFC7CD1FA63D2217D06E076BB515C5C2C59FF8D8D8DB0DBEDC8C9C94928E10381003C1E0F9A9B9BA15028448C303A656565703A9DB0DBEDD06834092D8135333303954A45625F4040FA1C921BE90230343424E92F4FA954A2B9B919737373686F6F87CD668BB98F7BF7
310
EE41ABD5E2B9E79E9320C2E8555555A1AAAA0A6D6D6D68686888AB8FCECE4EB4B4B4202B8BCE89A5D4392437D2052059727373A1D168505050B0ECF56030889B376FA2B5B515FBF6EDC3CE9D3B579C294C4D4DA5D41F8C4EA7437E7EFE8AD570DD6E372E5DBA0487C381B7DF7E7BD57B1F1A8D26A53E0B5B1FE9DF96DC5B3B
310
777777A3B6B6164EA713030303AB4E2D1D1F1F87C9649221BAD5E974BA15F73642A110060606E0F3F970E1C20514141460686848A608934BEE1C921AE94F27F7D6CE0B0B0BC8CBCBC3871F7E88A2A22204834159E38946555515EC76FBB2D3DEDEDE5ED86C366CDCB811168B05E5E5E5B0DBEDA8ACAC9431D2E4903B87A446
310
BA00A48A575E7905803C8FF8C464369B61369BE50E838988F42540AA6DC8C9D20FF51C225D00A86FEDCCA4473D87481700C6D8DAF81E4002BEFFFE7BE18E7928145AB148C893AF45F39E93274F267D3090CBE5C26FBFFDF6D498C2E130DADBDB97C5B5DE67A9ADADC5ABAFBE2A71E42C51A40B80D45B3B1F3D7A54D2FE93C5
310
6432E1830F3E903B8C94C4DB83A7B154D9DAD9E572A5C52340B652AAE49054481780F9F979B943C0952B57F0F7DF7FE39D77DE913B14168754C82129912E00D7AE5D933B04F87C3E4C4D4D61D3A64D7287C2E2900A392425D20520154C4D4DA1A7A747F47503181303E99B8072088542387FFE3C5C2E1700C06AB5E2DD77DF
310
452814C2575F7D0560712D8183070FF29C79263BD20520D9DFBA57AF5E45777737F6EDDBB7EAAAC12D2D2D0080C9C949FCF4D34F301A8D78FDF5D7931A238B0DF53337D297004F4ECF95D2AFBFFE0AA55289F7DE7B6FDD25C3F57A3D4E9C3881AD5BB7E2BBEFBE43381C4E52942C56C9CC2139902E00C972EEDC39582C1668
310
349A98DA69341AD4D4D4E0871F7E902832C6D646BA00F4F4F4487E8CCECE4E949595C16834222F2F2FA6B6797979282D2D454B4B0BCE9F3F2F51842C11C9C8213991BE0710080424ED3F1C0EA3A3A303274F9E8CAB7D414181708AF9CF3FFF60767636E6B308262DA973486EA4CF00A476F1E245ECDDBB5794BE0E1D3A845F
310
7EF94594BE188B16E90220F5D6CE4EA713555555A2F4A5D3E9303D3D8D85850551FA63E2E0EDC1D358BA6DED9C9F9F0FBFDF2F77182C42BAE550AC48DF03109BDBEDC6CCCC0CFAFBFBF1F0E143D11F11D5D7D7E3DB6FBF8DFB9E0263B1227D06D0DFDF2F6A7FBFFFFE3B8E1D3B8653A74EE1D2A54B92AC18CB6302528BD839
310
946A489F0178BD5E51FB3B71E2044E9C380100E8EAEA42575797A8FD874221180C0651FB6489113B87520DE93300296DDFBE1D3E9F4FD43EAF5FBFCED3865952912E00E976036761614196BD01D9D3A55B0EC58A740190FA11CECE9D3BF1EFBFFF8AD297CBE54AA91D82D8227E0CC89EAAB1B1119D9D9DA2F4F5D75F7FE1B5
310
D75E13A52FC6A245BA008C8E8E4ADABF42A1C09E3D7B70E1C205B85C2EDCBE7D3BA6F6E3E3E3E8EDED45777737AC562BD46AB54491B278499D4372235D00262626243F464D4D0DB45A2D6EDCB811F363C1ECEC6C783C1EB85C2EBCFCF2CB124548CBCCCC0CA6A7A7313B3B8BD9D959B8DD6E78BD5E78BD5E4C4F4FE3D1A347
310
A21E2F19392427D28F019365D7AE5D686F6F475F5F1F4C2613B2B3B3A36AD7DFDF8FD9D9595E14244AC16010A74E9D427D7D3D8A8A8AD0DEDE0E87C381F9F9791C3E7C186D6D6D686868101ED5B2F5912E00C95CCCE1C5175FC4D0D010BEF9E61B343434C066B321373777C5FB42A11086878771E1C205BCF4D24BFCCD1F83
310
9C9C1C7CFAE9A7C2BF9F9C8875E8D021D18F497D4110D20520D9CB39555656E2FDF7DF47676727CE9C3903B7DBBDAC08040201180C06582C1659760062B1A3BE2418E90220179BCD069BCD86F6F6767CF4D147C2EB9F7CF2090E1F3E2C63648C2D47BA003C78F000A5A5A571B5F5FBFDB0DBED091D3F2727075F7EF9E5B2D7
310
12ED93C52E91199689E4503A205D00868787E3FEE5EDDEBD5BE468583A4A2487D201E9C7808CB1B5912E00D4377664D2A39E43A40B00F5AD9D99F4A8E710E902C0185B1BE9023033332377082CCD51CF21D205E0D6AD5B7287C0D21CF51C225D0018636B233D0E0000060606849FCBCBCBA1D56A0100232323C2AE2F1A8D46
310
588CC3EBF5E2FEFDFB421B8BC522DC098EECCB6030A0B8B8180070FFFE7D61EDB8ECEC6C54565602581CFA3B3232B2EAF147474785012A6AB55AD850F4C93691C78F6C5354548492921200C0D4D414EEDDBB0700C8CACA5AB657C1E0E0A0B0D740595919743A1D80C5012E93939300169723DFB4691300606E6E0E77EEDC11
310
DA6FDEBC5918CE7CF7EE5D3C7EFC18C0E206A74BCFC7A7A7A78559730A850256AB5568EF743A313F3F0F60715BF4A515761E3E7CB86CE65E75753580C5093FC3C3C3C2EB1B366C4061612100606C6C4C58864DA552A1A2A202C0E269FAF8F8B8D0C66C360BDBB40D0D0D090BAD161414C0683402585CE1D9E3F1086DAC562B
310
140A0542A1D0B269DDD49769275D001A1B1B975DC3A9542AE1E7A2A2222131221FF52CEDD7B72472665FE4EB91FB006AB55AE18F24727CBF52A95CD626725E805EAF178E1F398DF8C9365959FF7F92565454845028B4E2B344C6FCE4FC82D2D252A10044B6D16AB5C2E78E3C7E7676F6533FBF5EAF170A58645F2A95EAA983
310
654A4A4A84E3477E7E8D46B3EAF4E9278F1FF9FF5C5858286C9D1619D793C78FECB7A4A44428404F1E7FB5599B595959CBFA5A2A3254294E9F3E4D6A2B1ABD5E8F03070EC81D0623E8F2E5CB703A9D7287212ABE07C05806E302C05806E302C05806E302C05806E302C05806E302C05806E302C05806E302C0580623371028
310
72182F63620A0683C2906D2AC80D05A6BE9B2B6362E24B00C632D8FF01780A43C16AD4B5080000000049454E44AE426082
  0
ENDSEC
  0
EOF
