  0
SECTION
  2
HEADER
  9
$ACADVER
  1
AC1014
  9
$ACADMAINTVER
 70
           0
  9
$DWGCODEPAGE
  3
DOS932
  9
$INSBASE
 10
0.0
 20
0.0
 30
0.0
  9
$EXTMIN
 10
1.000000000000E+20
 20
1.000000000000E+20
 30
1.000000000000E+20
  9
$EXTMAX
 10
-1.000000000000E+20
 20
-1.000000000000E+20
 30
-1.000000000000E+20
  9
$LIMMIN
 10
0.0
 20
0.0
  9
$LIMMAX
 10
0.0
 20
0.0
  9
$ORTHOMODE
 70
           0
  9
$REGENMODE
 70
           1
  9
$FILLMODE
 70
           1
  9
$QTEXTMODE
 70
           0
  9
$MIRRTEXT
 70
           1
  9
$DRAGMODE
 70
           2
  9
$LTSCALE
 40
1.0
  9
$OSMODE
 70
           0
  9
$ATTMODE
 70
           1
  9
$TEXTSIZE
 40
0.2
  9
$TRACEWID
 40
0.05
  9
$TEXTSTYLE
  7
STANDARD
  9
$CLAYER
  8
0
  9
$CELTYPE
  6
CONTINUOUS
  9
$CECOLOR
 62
         256
  9
$CELTSCALE
 40
1.0
  9
$DELOBJ
 70
           1
  9
$DISPSILH
 70
           0
  9
$DIMSCALE
 40
1.0
  9
$DIMASZ
 40
0.18
  9
$DIMEXO
 40
0.0625
  9
$DIMDLI
 40
0.38
  9
$DIMRND
 40
0.0
  9
$DIMDLE
 40
0.0
  9
$DIMEXE
 40
0.18
  9
$DIMTP
 40
0.0
  9
$DIMTM
 40
0.0
  9
$DIMTXT
 40
0.18
  9
$DIMCEN
 40
0.09
  9
$DIMTSZ
 40
0.0
  9
$DIMTOL
 70
           0
  9
$DIMLIM
 70
           0
  9
$DIMTIH
 70
           1
  9
$DIMTOH
 70
           1
  9
$DIMSE1
 70
           0
  9
$DIMSE2
 70
           0
  9
$DIMTAD
 70
           0
  9
$DIMZIN
 70
           0
  9
$DIMBLK
  1

  9
$DIMASO
 70
           1
  9
$DIMSHO
 70
           1
  9
$DIMPOST
  1

  9
$DIMAPOST
  1

  9
$DIMALT
 70
           0
  9
$DIMALTD
 70
           2
  9
$DIMALTF
 40
25.4
  9
$DIMLFAC
 40
1.0
  9
$DIMTOFL
 70
           0
  9
$DIMTVP
 40
0.0
  9
$DIMTIX
 70
           0
  9
$DIMSOXD
 70
           0
  9
$DIMSAH
 70
           0
  9
$DIMBLK1
  1

  9
$DIMBLK2
  1

  9
$DIMSTYLE
  2
STANDARD
  9
$DIMCLRD
 70
           0
  9
$DIMCLRE
 70
           0
  9
$DIMCLRT
 70
           0
  9
$DIMTFAC
 40
1.0
  9
$DIMGAP
 40
0.09
  9
$DIMJUST
 70
           0
  9
$DIMSD1
 70
           0
  9
$DIMSD2
 70
           0
  9
$DIMTOLJ
 70
           1
  9
$DIMTZIN
 70
           0
  9
$DIMALTZ
 70
           0
  9
$DIMALTTZ
 70
           0
  9
$DIMFIT
 70
           3
  9
$DIMUPT
 70
           0
  9
$DIMUNIT
 70
           2
  9
$DIMDEC
 70
           4
  9
$DIMTDEC
 70
           4
  9
$DIMALTU
 70
           2
  9
$DIMALTTD
 70
           2
  9
$DIMTXSTY
  7
STANDARD
  9
$DIMAUNIT
 70
           0
  9
$LUNITS
 70
           2
  9
$LUPREC
 70
           4
  9
$SKETCHINC
 40
0.1
  9
$FILLETRAD
 40
0.0
  9
$AUNITS
 70
           0
  9
$AUPREC
 70
           0
  9
$MENU
  1
acad
  9
$ELEVATION
 40
0.0
  9
$PELEVATION
 40
0.0
  9
$THICKNESS
 40
0.0
  9
$LIMCHECK
 70
           0
  9
$BLIPMODE
 70
           1
  9
$CHAMFERA
 40
0.0
  9
$CHAMFERB
 40
0.0
  9
$CHAMFERC
 40
0.0
  9
$CHAMFERD
 40
0.0
  9
$SKPOLY
 70
           0
  9
$TDCREATE
 40
0.000000000
  9
$TDUPDATE
 40
0.000000000
  9
$TDINDWG
 40
0.0000000000
  9
$TDUSRTIMER
 40
0.0000000000
  9
$USRTIMER
 70
           1
  9
$ANGBASE
 50
0.0
  9
$ANGDIR
 70
           0
  9
$PDMODE
 70
           0
  9
$PDSIZE
 40
0.0
  9
$PLINEWID
 40
0.0
  9
$COORDS
 70
           0
  9
$SPLFRAME
 70
           0
  9
$SPLINETYPE
 70
           6
  9
$SPLINESEGS
 70
           8
  9
$ATTDIA
 70
           0
  9
$ATTREQ
 70
           1
  9
$HANDLING
 70
           1
  9
$HANDSEED
  5
449
  9
$SURFTAB1
 70
           6
  9
$SURFTAB2
 70
           6
  9
$SURFTYPE
 70
           6
  9
$SURFU
 70
           6
  9
$SURFV
 70
           6
  9
$UCSNAME
  2

  9
$UCSORG
 10
0.0
 20
0.0
 30
0.0
  9
$UCSXDIR
 10
1.0
 20
0.0
 30
0.0
  9
$UCSYDIR
 10
0.0
 20
1.0
 30
0.0
  9
$PUCSNAME
  2

  9
$PUCSORG
 10
0.0
 20
0.0
 30
0.0
  9
$PUCSXDIR
 10
1.0
 20
0.0
 30
0.0
  9
$PUCSYDIR
 10
0.0
 20
1.0
 30
0.0
  9
$USERI1
 70
           0
  9
$USERI2
 70
           0
  9
$USERI3
 70
           0
  9
$USERI4
 70
           0
  9
$USERI5
 70
           0
  9
$USERR1
 40
0.0
  9
$USERR2
 40
0.0
  9
$USERR3
 40
0.0
  9
$USERR4
 40
0.0
  9
$USERR5
 40
0.0
  9
$WORLDVIEW
 70
           1
  9
$SHADEDGE
 70
           3
  9
$SHADEDIF
 70
          70
  9
$TILEMODE
 70
           1
  9
$MAXACTVP
 70
          16
  9
$PINSBASE
 10
0.0
 20
0.0
 30
0.0
  9
$PLIMCHECK
 70
           0
  9
$PEXTMIN
 10
1.000000000000E+20
 20
1.000000000000E+20
 30
1.000000000000E+20
  9
$PEXTMAX
 10
-1.000000000000E+20
 20
-1.000000000000E+20
 30
-1.000000000000E+20
  9
$PLIMMIN
 10
0.0
 20
0.0
  9
$PLIMMAX
 10
12.0
 20
9.0
  9
$UNITMODE
 70
           0
  9
$VISRETAIN
 70
           0
  9
$PLINEGEN
 70
           1
  9
$PSLTSCALE
 70
           0
  9
$TREEDEPTH
 70
        3020
  9
$PICKSTYLE
 70
           1
  9
$CMLSTYLE
  2
STANDARD
  9
$CMLJUST
 70
           0
  9
$CMLSCALE
 40
1.0
  9
$PROXYGRAPHICS
 70
           0
  9
$MEASUREMENT
 70
           0
  0
ENDSEC
  0
SECTION
  2
CLASSES
  0
CLASS
  1
LWPOLYLINE
  2
AcDbPolyline
  3
"AutoCAD"
 90
        0
280
           0
281
           1
  0
CLASS
  1
IMAGE
  2
AcDbRasterImage
  3
ISM
 90
      127
280
           0
281
           1
  0
CLASS
  1
OLE2FRAME
  2
AcDbOle2Frame
  3
""
 90
        0
280
           0
281
           1
  0
CLASS
  1
HATCH
  2
AcDbHatch
  3
"ACAD_SEDONA"
 90
        0
280
           0
281
           1
  0
CLASS
  1
DICTIONARYVAR
  2
AcDbDictionaryVar
  3
"AutoCAD"
 90
        0
280
           0
281
           0
  0
CLASS
  1
RASTERVARIABLES
  2
AcDbRasterVariables
  3
ISM
 90
        0
280
           0
281
           0
  0
CLASS
  1
IMAGEDEF
  2
AcDbRasterImageDef
  3
ISM
 90
        0
280
           0
281
           0
  0
CLASS
  1
IMAGEDEF_REACTOR
  2
AcDbRasterImageDefReactor
  3
ISM
 90
        1
280
           0
281
           0
  0
CLASS
  1
IDBUFFER
  2
AcDbIdBuffer
  3
"Acad"
 90
        0
280
           0
281
           0
  0
CLASS
  1
SPATIAL_FILTER
  2
AcDbSpatialFilter
  3
"Acad"
 90
        0
280
           0
281
           0
  0
CLASS
  1
XRECORD
  2
AcDbXrecord
  3
"<Built In>"
 90
        0
280
           0
281
           0
  0
CLASS
  1
SORTENTSTABLE
  2
AcDbSortentsTable
  3
"AutoCAD"
 90
        0
280
           0
281
           0
  0
CLASS
  1
LAYER_INDEX
  2
AcDbLayerIndex
  3
"Acad"
 90
        0
280
           0
281
           0
  0
CLASS
  1
SPATIAL_INDEX
  2
AcDbSpatialIndex
  3
"Acad"
 90
        0
280
           0
281
           0
  0
CLASS
  1
OBJECT_PTR
  2
CAseDLPNTableRecord
  3
"ASE-LPNTableRecord"
 90
        1
280
           0
281
           0
  0
CLASS
  1
LAYOUT
  2
AcDbLayout
  3
"AutoCAD 2000"
 90
        1
280
           0
281
           0
  0
CLASS
  1
PLOTSETTINGS
  2
AcDbPlotSettings
  3
"AutoCAD 2000"
 90
        1
280
           0
281
           0
  0
CLASS
  1
ACDBDICTIONARYWDFLT
  2
AcDbDictionaryWithDefault
  3
"AutoCAD 2000"
 90
        1
280
           0
281
           0
  0
CLASS
  1
ACDBPLACEHOLDER
  2
AcDbPlaceHolder
  3
"AutoCAD 2000"
 90
        1
280
           0
281
           0
  0
CLASS
  1
VBA_PROJECT
  2
AcDbVbaProject
  3
"acadvba"
 90
        1
280
           0
281
           0
  0
CLASS
  1
WIPEOUT
  2
AcDbWipeout
  3
WipeOut|AutoCAD Express Tool|expresstools@autodesk.com
 90
      127
280
           0
281
           1
  0
CLASS
  1
WIPEOUTVARIABLES
  2
AcDbWipeoutVariables
  3
WipeOut|AutoCAD Express Tool|expresstools@autodesk.com
 90
        0
280
           0
281
           0
  0
CLASS
  1
RTEXT
  2
RText
  3
RText|AutoCAD Express Tool|expresstools@autodesk.com
 90
        0
280
           0
281
           1
  0
CLASS
  1
ARCALIGNEDTEXT
  2
AcDbArcAlignedText
  3
ATEXT|AutoCAD Express Tool|expresstools@autodesk.com
 90
        0
280
           0
281
           1
  0
ENDSEC
  0
SECTION
  2
TABLES
  0
TABLE
  2
VPORT
  5
7
100
AcDbSymbolTable
 70
           1
  0
VPORT
  5
15
100
AcDbSymbolTableRecord
100
AcDbViewportTableRecord
  2
*ACTIVE
 70
           0
 10
0.0
 20
0.0
 11
1.0
 21
1.0
 12
6.591288
 22
4.579184
 13
0.0
 23
0.0
 14
1.0
 24
1.0
 15
0.0
 25
0.0
 16
0.0
 26
0.0
 36
1.0
 17
0.0
 27
0.0
 37
0.0
 40
9.158369
 41
0.688564
 42
50.0
 43
0.0
 44
0.0
 50
0.0
 51
0.0
 71
           0
 72
         100
 73
           1
 74
           1
 75
           0
 76
           0
 77
           0
 78
           0
  0
ENDTAB
  0
TABLE
  2
LTYPE
  5
4
100
AcDbSymbolTable
 70
          10
  0
LTYPE
  5
11
100
AcDbSymbolTableRecord
100
AcDbLinetypeTableRecord
  2
BYBLOCK
 70
          64
  3

 72
          65
 73
           0
 40
0.0
  0
LTYPE
  5
12
100
AcDbSymbolTableRecord
100
AcDbLinetypeTableRecord
  2
BYLAYER
 70
          64
  3

 72
          65
 73
           0
 40
0.0
  0
LTYPE
  5
13
100
AcDbSymbolTableRecord
100
AcDbLinetypeTableRecord
  2
CONTINUOUS
 70
          64
  3
Solid line
 72
          65
 73
           0
 40
0.0
  0
LTYPE
  5
1D
100
AcDbSymbolTableRecord
100
AcDbLinetypeTableRecord
  2
DASHED
 70
          64
  3
Dashed
 72
          65
 73
           2
 40
15.0
 49
12.0
 74
           0
 49
-3.0
 74
           0
  0
LTYPE
  5
1E
100
AcDbSymbolTableRecord
100
AcDbLinetypeTableRecord
  2
DOTTED
 70
          64
  3
Dotted
 72
          65
 73
           2
 40
3.5
 49
0.5
 74
           0
 49
-3.0
 74
           0
  0
LTYPE
  5
1F
100
AcDbSymbolTableRecord
100
AcDbLinetypeTableRecord
  2
DOT_CENTER
 70
          64
  3
Dot_Center
 72
          65
 73
           4
 40
2.0
 49
1.25
 74
           0
 49
-0.25
 74
           0
 49
0.25
 74
           0
 49
-0.25
 74
           0
  0
LTYPE
  5
20
100
AcDbSymbolTableRecord
100
AcDbLinetypeTableRecord
  2
LONG_DASHED
 70
          64
  3
Long_Dashed
 72
          65
 73
           2
 40
2.0
 49
1.5
 74
           0
 49
-0.5
 74
           0
  0
LTYPE
  5
21
100
AcDbSymbolTableRecord
100
AcDbLinetypeTableRecord
  2
DASH_CENTER
 70
          64
  3
Dash_Center
 72
          65
 73
           4
 40
36.0
 49
24.0
 74
           0
 49
-3.0
 74
           0
 49
6.0
 74
           0
 49
-3.0
 74
           0
  0
LTYPE
  5
22
100
AcDbSymbolTableRecord
100
AcDbLinetypeTableRecord
  2
PHANTOM
 70
          64
  3
Phantom
 72
          65
 73
           6
 40
2.5
 49
1.25
 74
           0
 49
-0.25
 74
           0
 49
0.25
 74
           0
 49
-0.25
 74
           0
 49
0.25
 74
           0
 49
-0.25
 74
           0
  0
LTYPE
  5
23
100
AcDbSymbolTableRecord
100
AcDbLinetypeTableRecord
  2
CENTER_DASH_DASH
 70
          64
  3
Center_Dash_Dash
 72
          65
 73
           6
 40
22.0
 49
12.0
 74
           0
 49
-3.0
 74
           0
 49
0.5
 74
           0
 49
-3.0
 74
           0
 49
0.5
 74
           0
 49
-3.0
 74
           0
  0
ENDTAB
  0
TABLE
  2
LAYER
  5
2
100
AcDbSymbolTable
 70
           2
  0
LAYER
  5
14
100
AcDbSymbolTableRecord
100
AcDbLayerTableRecord
  2
0
 70
           0
 62
           7
  6
CONTINUOUS
  0
LAYER
  5
24
100
AcDbSymbolTableRecord
100
AcDbLayerTableRecord
  2
1
 70
           0
 62
           7
  6
CONTINUOUS
  0
ENDTAB
  0
TABLE
  2
STYLE
  5
3
100
AcDbSymbolTable
 70
           2
  0
STYLE
  5
17
100
AcDbSymbolTableRecord
100
AcDbTextStyleTableRecord
  2
STANDARD
 70
           0
 40
0.0
 41
1.0
 50
0.0
 71
           0
 42
0.0
  3
txt
  4

  0
STYLE
  5
446
100
AcDbSymbolTableRecord
100
AcDbTextStyleTableRecord
  2
CONVERTER_1
 70
           0
 40
0.0
 41
0.9
 50
0.0
 71
           0
 42
0.0
  3
txt.shx
  4

  0
ENDTAB
  0
TABLE
  2
VIEW
  5
5
100
AcDbSymbolTable
 70
           0
  0
ENDTAB
  0
TABLE
  2
UCS
  5
6
100
AcDbSymbolTable
 70
           0
  0
ENDTAB
  0
TABLE
  2
APPID
  5
8
100
AcDbSymbolTable
 70
           1
  0
APPID
  5
16
100
AcDbSymbolTableRecord
100
AcDbRegAppTableRecord
  2
ACAD
 70
           0
  0
ENDTAB
  0
TABLE
  2
DIMSTYLE
  5
9
100
AcDbSymbolTable
 70
           1
  0
DIMSTYLE
105
18
100
AcDbSymbolTableRecord
100
AcDbDimStyleTableRecord
  2
STANDARD
 70
           0
  3

  4

  5

  6

  7

 40
1.0
 41
0.18
 42
0.0625
 43
0.38
 44
0.18
 45
0.0
 46
0.0
 47
0.0
 48
0.0
 71
           0
 72
           0
 73
           1
 74
           1
 75
           0
 76
           0
 77
           0
 78
           0
140
0.18
141
0.09
142
0.0
143
25.4
144
1.0
145
0.0
146
1.0
147
0.09
170
           0
171
           2
172
           0
173
           0
174
           0
175
           0
176
           0
177
           0
178
           0
270
           2
271
           4
272
           4
273
           2
274
           2
275
           0
280
           0
281
           0
282
           0
283
           1
284
           0
285
           0
286
           0
287
           0
288
           0
340
17
  0
ENDTAB
  0
TABLE
  2
BLOCK_RECORD
  5
1
100
AcDbSymbolTable
 70
           1
  0
BLOCK_RECORD
  5
A
100
AcDbSymbolTableRecord
100
AcDbBlockTableRecord
  2
*MODEL_SPACE
  0
BLOCK_RECORD
  5
B
100
AcDbSymbolTableRecord
100
AcDbBlockTableRecord
  2
*PAPER_SPACE
  0
BLOCK_RECORD
  5
25
100
AcDbSymbolTableRecord
100
AcDbBlockTableRecord
  2
SAT1001C85__1
  0
ENDTAB
  0
ENDSEC
  0
SECTION
  2
BLOCKS
  0
BLOCK
  5
D
100
AcDbEntity
  8
0
100
AcDbBlockBegin
  2
*MODEL_SPACE
 70
           0
 10
0.0
 20
0.0
 30
0.0
  3
*MODEL_SPACE
  1

  0
ENDBLK
  5
E
100
AcDbEntity
  8
0
100
AcDbBlockEnd
  0
BLOCK
  5
F
100
AcDbEntity
 67
           1
  8
0
100
AcDbBlockBegin
  2
*PAPER_SPACE
 70
           0
 10
0.0
 20
0.0
 30
0.0
  3
*PAPER_SPACE
  1

  0
ENDBLK
  5
10
100
AcDbEntity
 67
           1
  8
0
100
AcDbBlockEnd
  0
BLOCK
  5
26
100
AcDbEntity
  8
0
100
AcDbBlockBegin
  2
SAT1001C85__1
 70
           0
 10
0.0
 20
0.0
 30
0.0
  3
SAT1001C85__1
  1

  0
ARC
  5
443
100
AcDbEntity
  8
1
  6
CONTINUOUS
 62
           2
100
AcDbCircle
 10
11037.63855027825
 20
-3217.153267421795
 40
2.0
100
AcDbArc
 50
-90.0
 51
0.0
  0
ARC
  5
442
100
AcDbEntity
  8
1
  6
CONTINUOUS
 62
           2
100
AcDbCircle
 10
11037.63855027825
 20
-3186.153267421795
 40
2.0
100
AcDbArc
 50
0.0
 51
90.0
  0
ARC
  5
441
100
AcDbEntity
  8
1
  6
CONTINUOUS
 62
           2
100
AcDbCircle
 10
10963.63855027825
 20
-3217.153267421795
 40
2.0
100
AcDbArc
 50
180.0
 51
-90.0
  0
ARC
  5
440
100
AcDbEntity
  8
1
  6
CONTINUOUS
 62
           2
100
AcDbCircle
 10
10963.63855027825
 20
-3186.153267421795
 40
2.0
100
AcDbArc
 50
90.0
 51
180.0
  0
ARC
  5
43F
100
AcDbEntity
  8
1
  6
CONTINUOUS
 62
           2
100
AcDbCircle
 10
11069.39727713667
 20
-3182.153267421796
 40
3.0
100
AcDbArc
 50
90.0
 51
125.051136747414
  0
ARC
  5
43E
100
AcDbEntity
  8
1
  6
CONTINUOUS
 62
           2
100
AcDbCircle
 10
11050.39727713667
 20
-3182.153267421796
 40
3.0
100
AcDbArc
 50
54.948863252728
 51
90.0
  0
ARC
  5
43D
100
AcDbEntity
  8
1
  6
CONTINUOUS
 62
           2
100
AcDbCircle
 10
11617.13727713667
 20
-2627.417949926594
 40
1.0
100
AcDbArc
 50
-90.0
 51
0.0
  0
ARC
  5
43C
100
AcDbEntity
  8
1
  6
CONTINUOUS
 62
           2
100
AcDbCircle
 10
11617.13727713667
 20
-2684.417949926594
 40
1.0
100
AcDbArc
 50
0.0
 51
90.0
  0
ARC
  5
43B
100
AcDbEntity
  8
1
  6
CONTINUOUS
 62
           2
100
AcDbCircle
 10
11014.099021014599
 20
-1116.509568907785
 40
3.0
100
AcDbArc
 50
180.0
 51
-90.0
  0
ARC
  5
43A
100
AcDbEntity
  8
1
  6
CONTINUOUS
 62
           2
100
AcDbCircle
 10
11014.099021014599
 20
-1145.509568907785
 40
3.0
100
AcDbArc
 50
90.0
 51
180.0
  0
ARC
  5
439
100
AcDbEntity
  8
1
  6
CONTINUOUS
 62
           2
100
AcDbCircle
 10
11070.620504048549
 20
-1138.359568907783
 40
3.0
100
AcDbArc
 50
90.0
 51
145.57099604913
  0
ARC
  5
438
100
AcDbEntity
  8
1
  6
CONTINUOUS
 62
           2
100
AcDbCircle
 10
11070.620504048549
 20
-1123.659568907783
 40
3.0
100
AcDbArc
 50
-145.570996049065
 51
-90.0
  0
ARC
  5
437
100
AcDbEntity
  8
1
  6
CONTINUOUS
 62
           2
100
AcDbCircle
 10
11049.17499169748
 20
-1123.659568907783
 40
3.0
100
AcDbArc
 50
-90.0
 51
-34.429003950934
  0
ARC
  5
436
100
AcDbEntity
  8
1
  6
CONTINUOUS
 62
           2
100
AcDbCircle
 10
11049.17499169748
 20
-1138.359568907783
 40
2.999999999998
100
AcDbArc
 50
34.42900395087
 51
90.0
  0
ARC
  5
435
100
AcDbEntity
  8
1
  6
CONTINUOUS
 62
           7
100
AcDbCircle
 10
13757.59898103745
 20
-399.731827112108
 40
3.000000000001
100
AcDbArc
 50
96.234610972894
 51
173.416561971951
  0
ARC
  5
434
100
AcDbEntity
  8
1
  6
CONTINUOUS
 62
           7
100
AcDbCircle
 10
13779.648468744639
 20
-399.731827112108
 40
3.000000000002
100
AcDbArc
 50
6.583438028049
 51
83.765389027105
  0
ARC
  5
433
100
AcDbEntity
  8
1
  6
CONTINUOUS
 62
           7
100
AcDbCircle
 10
11588.90430867029
 20
-405.81842703758
 40
2.999999999997
100
AcDbArc
 50
122.574439099085
 51
-173.416561971935
  0
ARC
  5
432
100
AcDbEntity
  8
1
  6
CONTINUOUS
 62
           7
100
AcDbCircle
 10
11553.370245603041
 20
-405.81842703758
 40
3.000000000002
100
AcDbArc
 50
-6.583438028065
 51
57.425560900915
  0
ARC
  5
431
100
AcDbEntity
  8
1
  6
CONTINUOUS
 62
           7
100
AcDbCircle
 10
11582.162020990259
 20
-399.731827112108
 40
3.000000000002
100
AcDbArc
 50
6.583438028049
 51
83.765389027105
  0
ARC
  5
430
100
AcDbEntity
  8
1
  6
CONTINUOUS
 62
           7
100
AcDbCircle
 10
11560.112533283071
 20
-399.731827112108
 40
3.000000000001
100
AcDbArc
 50
96.234610972894
 51
173.416561971951
  0
ARC
  5
42F
100
AcDbEntity
  8
1
  6
CONTINUOUS
 62
           2
100
AcDbCircle
 10
11599.13727713666
 20
-2197.776199134043
 40
3.0
100
AcDbArc
 50
0.0
 51
38.091957105242
  0
ARC
  5
42E
100
AcDbEntity
  8
1
  6
CONTINUOUS
 62
           2
100
AcDbCircle
 10
11599.13727713666
 20
-2174.602938681528
 40
3.000000000001
100
AcDbArc
 50
-38.091957105194
 51
0.0
  0
ARC
  5
42D
100
AcDbEntity
  8
1
  6
CONTINUOUS
 62
           2
100
AcDbCircle
 10
13755.780925352001
 20
-2178.439568907785
 40
2.0
100
AcDbArc
 50
-90.0
 51
-31.108922510591
  0
ARC
  5
42C
100
AcDbEntity
  8
1
  6
CONTINUOUS
 62
           2
100
AcDbCircle
 10
13755.780925352001
 20
-2193.939568907785
 40
2.000000000004
100
AcDbArc
 50
31.108922510324
 51
90.0
  0
ARC
  5
42B
100
AcDbEntity
  8
1
  6
CONTINUOUS
 62
           2
100
AcDbCircle
 10
13781.46652443009
 20
-2178.439568907785
 40
2.000000000002
100
AcDbArc
 50
-148.891077489274
 51
-90.0
  0
ARC
  5
42A
100
AcDbEntity
  8
1
  6
CONTINUOUS
 62
           2
100
AcDbCircle
 10
13781.46652443009
 20
-2193.939568907785
 40
2.0
100
AcDbArc
 50
90.0
 51
148.891077489541
  0
ARC
  5
429
100
AcDbEntity
  8
1
  6
CONTINUOUS
 62
           2
100
AcDbCircle
 10
13761.873724891049
 20
-2174.189568907784
 40
2.0
100
AcDbArc
 50
90.0
 51
180.0
  0
ARC
  5
428
100
AcDbEntity
  8
1
  6
CONTINUOUS
 62
           7
100
AcDbCircle
 10
10978.318349030131
 20
-1065.287383124342
 40
0.144444444439
100
AcDbArc
 50
137.782165415781
 51
-47.782165417823
  0
ARC
  5
427
100
AcDbEntity
  8
1
  6
CONTINUOUS
 62
           2
100
AcDbCircle
 10
11552.13727713666
 20
-911.289568907785
 40
1.0
100
AcDbArc
 50
90.0
 51
180.0
  0
ARC
  5
426
100
AcDbEntity
  8
1
  6
CONTINUOUS
 62
           2
100
AcDbCircle
 10
11590.13727713666
 20
-911.289568907785
 40
1.0
100
AcDbArc
 50
0.0
 51
90.0
  0
ARC
  5
425
100
AcDbEntity
  8
1
  6
CONTINUOUS
 62
           2
100
AcDbCircle
 10
11594.13727713666
 20
-917.289568907785
 40
2.0
100
AcDbArc
 50
0.0
 51
90.0
  0
ARC
  5
424
100
AcDbEntity
  8
1
  6
CONTINUOUS
 62
           2
100
AcDbCircle
 10
11548.13727713666
 20
-917.289568907785
 40
2.0
100
AcDbArc
 50
90.0
 51
180.0
  0
ARC
  5
423
100
AcDbEntity
  8
1
  6
CONTINUOUS
 62
           2
100
AcDbCircle
 10
11549.13727713666
 20
-913.289568907785
 40
2.0
100
AcDbArc
 50
-90.0
 51
0.0
  0
ARC
  5
422
100
AcDbEntity
  8
1
  6
CONTINUOUS
 62
           2
100
AcDbCircle
 10
11593.13727713666
 20
-913.289568907785
 40
2.0
100
AcDbArc
 50
180.0
 51
-90.0
  0
ARC
  5
421
100
AcDbEntity
  8
1
  6
CONTINUOUS
 62
           2
100
AcDbCircle
 10
11596.13727713666
 20
-958.712218638595
 40
2.0
100
AcDbArc
 50
180.0
 51
-119.999999999997
  0
ARC
  5
420
100
AcDbEntity
  8
1
  6
CONTINUOUS
 62
           2
100
AcDbCircle
 10
11591.13727713666
 20
-958.289568907785
 40
1.0
100
AcDbArc
 50
-90.0
 51
0.0
  0
ARC
  5
41F
100
AcDbEntity
  8
1
  6
CONTINUOUS
 62
           2
100
AcDbCircle
 10
11580.47061047
 20
-958.289568907785
 40
1.0
100
AcDbArc
 50
180.0
 51
-90.0
  0
ARC
  5
41E
100
AcDbEntity
  8
1
  6
CONTINUOUS
 62
           2
100
AcDbCircle
 10
11576.47061047
 20
-958.289568907785
 40
1.0
100
AcDbArc
 50
-90.0
 51
0.0
  0
ARC
  5
41D
100
AcDbEntity
  8
1
  6
CONTINUOUS
 62
           2
100
AcDbCircle
 10
11565.80394380333
 20
-958.289568907785
 40
1.0
100
AcDbArc
 50
180.0
 51
-90.0
  0
ARC
  5
41C
100
AcDbEntity
  8
1
  6
CONTINUOUS
 62
           2
100
AcDbCircle
 10
11561.80394380333
 20
-958.289568907785
 40
1.0
100
AcDbArc
 50
-90.0
 51
0.0
  0
ARC
  5
41B
100
AcDbEntity
  8
1
  6
CONTINUOUS
 62
           2
100
AcDbCircle
 10
11546.13727713666
 20
-958.712218638595
 40
2.0
100
AcDbArc
 50
-60.000000000003
 51
0.0
  0
ARC
  5
41A
100
AcDbEntity
  8
1
  6
CONTINUOUS
 62
           2
100
AcDbCircle
 10
11551.13727713666
 20
-958.289568907785
 40
1.0
100
AcDbArc
 50
180.0
 51
-90.0
  0
ARC
  5
419
100
AcDbEntity
  8
1
  6
CONTINUOUS
 62
           2
100
AcDbCircle
 10
11536.13727713666
 20
-974.289568907785
 40
5.0
100
AcDbArc
 50
90.0
 51
180.0
  0
ARC
  5
418
100
AcDbEntity
  8
1
  6
CONTINUOUS
 62
           2
100
AcDbCircle
 10
11606.13727713666
 20
-974.289568907785
 40
5.0
100
AcDbArc
 50
0.0
 51
90.0
  0
ARC
  5
417
100
AcDbEntity
  8
1
  6
CONTINUOUS
 62
           2
100
AcDbCircle
 10
11536.13727713666
 20
-1027.789568907785
 40
5.0
100
AcDbArc
 50
180.0
 51
-90.0
  0
ARC
  5
416
100
AcDbEntity
  8
1
  6
CONTINUOUS
 62
           2
100
AcDbCircle
 10
11612.13727713666
 20
-975.289568907785
 40
1.0
100
AcDbArc
 50
180.0
 51
-90.0
  0
ARC
  5
415
100
AcDbEntity
  8
1
  6
CONTINUOUS
 62
           2
100
AcDbCircle
 10
11617.13727713666
 20
-975.289568907785
 40
1.0
100
AcDbArc
 50
-90.0
 51
0.0
  0
ARC
  5
414
100
AcDbEntity
  8
1
  6
CONTINUOUS
 62
           2
100
AcDbCircle
 10
11612.13727713666
 20
-1032.289568907785
 40
1.0
100
AcDbArc
 50
90.0
 51
180.0
  0
ARC
  5
413
100
AcDbEntity
  8
1
  6
CONTINUOUS
 62
           2
100
AcDbCircle
 10
11617.13727713666
 20
-1032.289568907785
 40
1.0
100
AcDbArc
 50
0.0
 51
90.0
  0
ARC
  5
412
100
AcDbEntity
  8
1
  6
CONTINUOUS
 62
           2
100
AcDbCircle
 10
11603.13727713666
 20
-1040.789568907785
 40
3.0
100
AcDbArc
 50
-90.0
 51
0.0
  0
ARC
  5
411
100
AcDbEntity
  8
1
  6
CONTINUOUS
 62
           2
100
AcDbCircle
 10
11539.13727713666
 20
-1040.789568907785
 40
3.0
100
AcDbArc
 50
180.0
 51
-90.0
  0
ARC
  5
410
100
AcDbEntity
  8
1
  6
CONTINUOUS
 62
           2
100
AcDbCircle
 10
13254.53032183086
 20
-1027.789568907785
 40
5.0
100
AcDbArc
 50
-90.0
 51
0.0
  0
ARC
  5
40F
100
AcDbEntity
  8
1
  6
CONTINUOUS
 62
           2
100
AcDbCircle
 10
13187.53032183086
 20
-1040.789568907785
 40
3.0
100
AcDbArc
 50
180.0
 51
-90.0
  0
ARC
  5
40E
100
AcDbEntity
  8
1
  6
CONTINUOUS
 62
           2
100
AcDbCircle
 10
13251.53032183086
 20
-1040.789568907785
 40
3.0
100
AcDbArc
 50
-90.0
 51
0.0
  0
ARC
  5
40D
100
AcDbEntity
  8
1
  6
CONTINUOUS
 62
           2
100
AcDbCircle
 10
13184.53032183086
 20
-1027.789568907785
 40
5.0
100
AcDbArc
 50
180.0
 51
-90.0
  0
ARC
  5
40C
100
AcDbEntity
  8
1
  6
CONTINUOUS
 62
           2
100
AcDbCircle
 10
13254.53032183086
 20
-974.289568907785
 40
5.0
100
AcDbArc
 50
0.0
 51
90.0
  0
ARC
  5
40B
100
AcDbEntity
  8
1
  6
CONTINUOUS
 62
           2
100
AcDbCircle
 10
13184.53032183086
 20
-974.289568907785
 40
5.0
100
AcDbArc
 50
90.0
 51
180.0
  0
ARC
  5
40A
100
AcDbEntity
  8
1
  6
CONTINUOUS
 62
           2
100
AcDbCircle
 10
13199.53032183086
 20
-958.289568907785
 40
1.0
100
AcDbArc
 50
180.0
 51
-90.0
  0
ARC
  5
409
100
AcDbEntity
  8
1
  6
CONTINUOUS
 62
           2
100
AcDbCircle
 10
13194.53032183086
 20
-958.712218638595
 40
2.0
100
AcDbArc
 50
-60.000000000003
 51
0.0
  0
ARC
  5
408
100
AcDbEntity
  8
1
  6
CONTINUOUS
 62
           2
100
AcDbCircle
 10
13210.196988497521
 20
-958.289568907785
 40
1.0
100
AcDbArc
 50
-90.0
 51
0.0
  0
ARC
  5
407
100
AcDbEntity
  8
1
  6
CONTINUOUS
 62
           2
100
AcDbCircle
 10
13214.196988497521
 20
-958.289568907785
 40
1.0
100
AcDbArc
 50
180.0
 51
-90.0
  0
ARC
  5
406
100
AcDbEntity
  8
1
  6
CONTINUOUS
 62
           2
100
AcDbCircle
 10
13224.86365516419
 20
-958.289568907785
 40
1.0
100
AcDbArc
 50
-90.0
 51
0.0
  0
ARC
  5
405
100
AcDbEntity
  8
1
  6
CONTINUOUS
 62
           2
100
AcDbCircle
 10
13228.86365516419
 20
-958.289568907785
 40
1.0
100
AcDbArc
 50
180.0
 51
-90.0
  0
ARC
  5
404
100
AcDbEntity
  8
1
  6
CONTINUOUS
 62
           2
100
AcDbCircle
 10
13239.53032183086
 20
-958.289568907785
 40
1.0
100
AcDbArc
 50
-90.0
 51
0.0
  0
ARC
  5
403
100
AcDbEntity
  8
1
  6
CONTINUOUS
 62
           2
100
AcDbCircle
 10
13244.53032183086
 20
-958.712218638595
 40
2.0
100
AcDbArc
 50
180.0
 51
-119.999999999997
  0
ARC
  5
402
100
AcDbEntity
  8
1
  6
CONTINUOUS
 62
           2
100
AcDbCircle
 10
13241.53032183086
 20
-913.288897569199
 40
2.0
100
AcDbArc
 50
180.0
 51
-90.0
  0
ARC
  5
401
100
AcDbEntity
  8
1
  6
CONTINUOUS
 62
           2
100
AcDbCircle
 10
13197.53032183086
 20
-913.288897569199
 40
2.0
100
AcDbArc
 50
-90.0
 51
0.0
  0
ARC
  5
400
100
AcDbEntity
  8
1
  6
CONTINUOUS
 62
           2
100
AcDbCircle
 10
13196.53032183086
 20
-917.288897569199
 40
2.0
100
AcDbArc
 50
90.0
 51
180.0
  0
ARC
  5
3FF
100
AcDbEntity
  8
1
  6
CONTINUOUS
 62
           2
100
AcDbCircle
 10
13242.53032183086
 20
-917.288897569199
 40
2.0
100
AcDbArc
 50
0.0
 51
90.0
  0
ARC
  5
3FE
100
AcDbEntity
  8
1
  6
CONTINUOUS
 62
           2
100
AcDbCircle
 10
13238.53032183086
 20
-911.288897569199
 40
1.0
100
AcDbArc
 50
0.0
 51
90.0
  0
ARC
  5
3FD
100
AcDbEntity
  8
1
  6
CONTINUOUS
 62
           2
100
AcDbCircle
 10
13200.53032183086
 20
-911.288897569199
 40
1.0
100
AcDbArc
 50
90.0
 51
180.0
  0
ARC
  5
3FC
100
AcDbEntity
  8
1
  6
CONTINUOUS
 62
           2
100
AcDbCircle
 10
13243.88840739584
 20
-1120.511113440356
 40
45.0
100
AcDbArc
 50
180.0
 51
-90.0
  0
ARC
  5
3FB
100
AcDbEntity
  8
1
  6
CONTINUOUS
 62
           2
100
AcDbCircle
 10
13245.88840739584
 20
-1090.508024375213
 40
6.0
100
AcDbArc
 50
180.0
 51
-90.0
  0
ARC
  5
3FA
100
AcDbEntity
  8
1
  6
CONTINUOUS
 62
           2
100
AcDbCircle
 10
11520.63727713666
 20
-1090.882280847323
 40
30.000000000006
100
AcDbArc
 50
-38.470645540595
 51
0.0
  0
ARC
  5
3F9
100
AcDbEntity
  8
1
  6
CONTINUOUS
 62
           2
100
AcDbCircle
 10
11621.63727713666
 20
-1090.882280847323
 40
30.0
100
AcDbArc
 50
180.0
 51
-141.529354459394
  0
ARC
  5
3F8
100
AcDbEntity
  8
1
  6
CONTINUOUS
 62
           7
100
AcDbCircle
 10
13292.623724891049
 20
-1395.009568907785
 40
18.0
100
AcDbArc
 50
90.0
 51
180.0
  0
ARC
  5
3F7
100
AcDbEntity
  8
1
  6
CONTINUOUS
 62
           7
100
AcDbCircle
 10
13254.247775535279
 20
-1347.009568907785
 40
10.0
100
AcDbArc
 50
90.0
 51
171.549301106395
  0
ARC
  5
3F6
100
AcDbEntity
  8
1
  6
CONTINUOUS
 62
           7
100
AcDbCircle
 10
13292.623724891049
 20
-1659.009568907785
 40
18.0
100
AcDbArc
 50
180.0
 51
-90.0
  0
ARC
  5
3F5
100
AcDbEntity
  8
1
  6
CONTINUOUS
 62
           7
100
AcDbCircle
 10
13292.623724891049
 20
-1659.009568907785
 40
18.0
100
AcDbArc
 50
180.0
 51
-90.0
  0
ARC
  5
3F4
100
AcDbEntity
  8
1
  6
CONTINUOUS
 62
           7
100
AcDbCircle
 10
13254.247775535279
 20
-1707.009568907785
 40
9.999999999996
100
AcDbArc
 50
-171.549301106395
 51
-90.0
  0
CIRCLE
  5
3F3
100
AcDbEntity
  8
1
  6
CONTINUOUS
 62
           2
100
AcDbCircle
 10
11000.63855027825
 20
-3205.153267421796
 40
8.331
  0
CIRCLE
  5
3F2
100
AcDbEntity
  8
1
  6
CONTINUOUS
 62
           2
100
AcDbCircle
 10
11000.63855027825
 20
-3205.153267421796
 40
7.475
  0
CIRCLE
  5
3F1
100
AcDbEntity
  8
1
  6
CONTINUOUS
 62
           7
100
AcDbCircle
 10
11853.97998961128
 20
-3487.995979896415
 40
11.5
  0
CIRCLE
  5
3F0
100
AcDbEntity
  8
1
  6
CONTINUOUS
 62
           7
100
AcDbCircle
 10
11288.29456466205
 20
-3487.995979896415
 40
11.5
  0
CIRCLE
  5
3EF
100
AcDbEntity
  8
1
  6
CONTINUOUS
 62
           7
100
AcDbCircle
 10
11288.29456466205
 20
-2922.310554947176
 40
11.5
  0
CIRCLE
  5
3EE
100
AcDbEntity
  8
1
  6
CONTINUOUS
 62
           7
100
AcDbCircle
 10
11853.97998961128
 20
-2922.310554947176
 40
11.5
  0
CIRCLE
  5
3ED
100
AcDbEntity
  8
1
  6
DOT_CENTER
 62
           2
100
AcDbCircle
 10
11571.13727713666
 20
-3205.153267421796
 40
399.999999999999
  0
CIRCLE
  5
3EC
100
AcDbEntity
  8
1
  6
CONTINUOUS
 62
           7
100
AcDbCircle
 10
11571.13727713666
 20
-3205.153267421796
 40
449.999999999999
  0
CIRCLE
  5
3EB
100
AcDbEntity
  8
1
  6
DOTTED
 62
           7
100
AcDbCircle
 10
13768.623724891049
 20
-1727.009568907785
 40
36.999999999997
  0
CIRCLE
  5
3EA
100
AcDbEntity
  8
1
  6
CONTINUOUS
 62
           2
100
AcDbCircle
 10
11059.89774787301
 20
-1131.009568907785
 40
8.5
  0
CIRCLE
  5
3E9
100
AcDbEntity
  8
1
  6
CONTINUOUS
 62
           2
100
AcDbCircle
 10
11059.89774787301
 20
-1131.009568907785
 40
5.0
  0
CIRCLE
  5
3E8
100
AcDbEntity
  8
1
  6
CONTINUOUS
 62
           2
100
AcDbCircle
 10
11059.89774787301
 20
-1131.009568907785
 40
3.0
  0
CIRCLE
  5
3E7
100
AcDbEntity
  8
1
  6
CONTINUOUS
 62
           2
100
AcDbCircle
 10
11059.89774787301
 20
-1131.009568907785
 40
6.25
  0
CIRCLE
  5
3E6
100
AcDbEntity
  8
1
  6
CONTINUOUS
 62
           7
100
AcDbCircle
 10
11571.13727713666
 20
-378.009568907785
 40
17.5
  0
CIRCLE
  5
3E5
100
AcDbEntity
  8
1
  6
CONTINUOUS
 62
           7
100
AcDbCircle
 10
11571.13727713666
 20
-3205.153267421796
 40
459.0
  0
CIRCLE
  5
3E4
100
AcDbEntity
  8
1
  6
CONTINUOUS
 62
           7
100
AcDbCircle
 10
13768.623724891049
 20
-1131.009568907785
 40
41.0
  0
CIRCLE
  5
3E3
100
AcDbEntity
  8
1
  6
CONTINUOUS
 62
           7
100
AcDbCircle
 10
13768.623724891049
 20
-1131.009568907785
 40
36.113000000001
  0
CIRCLE
  5
3E2
100
AcDbEntity
  8
1
  6
CONTINUOUS
 62
           2
100
AcDbCircle
 10
13768.623724891049
 20
-1131.009568907785
 40
37.592000000001
  0
CIRCLE
  5
3E1
100
AcDbEntity
  8
1
  6
CONTINUOUS
 62
           2
100
AcDbCircle
 10
13768.623724891049
 20
-2186.189568907785
 40
11.100000000001
  0
CIRCLE
  5
3E0
100
AcDbEntity
  8
1
  6
CONTINUOUS
 62
           2
100
AcDbCircle
 10
13768.623724891049
 20
-2186.189568907785
 40
6.0
  0
CIRCLE
  5
3DF
100
AcDbEntity
  8
1
  6
CONTINUOUS
 62
           2
100
AcDbCircle
 10
13768.623724891049
 20
-2186.189568907785
 40
7.5
  0
CIRCLE
  5
3DE
100
AcDbEntity
  8
1
  6
CONTINUOUS
 62
           2
100
AcDbCircle
 10
13768.623724891049
 20
-2186.189568907785
 40
3.600000000001
  0
CIRCLE
  5
3DD
100
AcDbEntity
  8
1
  6
CONTINUOUS
 62
           7
100
AcDbCircle
 10
10999.602210530489
 20
-1044.365000669299
 40
36.092093524148
  0
CIRCLE
  5
3DC
100
AcDbEntity
  8
1
  6
CONTINUOUS
 62
           7
100
AcDbCircle
 10
10999.599021014599
 20
-1044.360842049368
 40
2.888888888891
  0
CIRCLE
  5
3DB
100
AcDbEntity
  8
1
  6
CONTINUOUS
 62
           7
100
AcDbCircle
 10
10983.70937634138
 20
-1061.785429424082
 40
0.722222222219
  0
CIRCLE
  5
3DA
100
AcDbEntity
  8
1
  6
CONTINUOUS
 62
           2
100
AcDbCircle
 10
10999.599021014599
 20
-1056.998623484774
 40
2.247127062104
  0
CIRCLE
  5
3D9
100
AcDbEntity
  8
1
  6
CONTINUOUS
 62
           2
100
AcDbCircle
 10
13219.388407395851
 20
-1003.789568907785
 40
19.5
  0
CIRCLE
  5
3D8
100
AcDbEntity
  8
1
  6
CONTINUOUS
 62
           2
100
AcDbCircle
 10
13219.388407395851
 20
-1003.789568907785
 40
21.0
  0
CIRCLE
  5
3D7
100
AcDbEntity
  8
1
  6
CONTINUOUS
 62
           2
100
AcDbCircle
 10
13219.388407395851
 20
-1003.789568907785
 40
29.0
  0
CIRCLE
  5
3D6
100
AcDbEntity
  8
1
  6
CONTINUOUS
 62
           7
100
AcDbCircle
 10
11471.13727713666
 20
-1527.009568907785
 40
12.0
  0
CIRCLE
  5
3D5
100
AcDbEntity
  8
1
  6
CONTINUOUS
 62
           7
100
AcDbCircle
 10
11471.13727713666
 20
-1527.009568907785
 40
15.0
  0
CIRCLE
  5
3D4
100
AcDbEntity
  8
1
  6
CONTINUOUS
 62
           3
100
AcDbCircle
 10
11471.13727713666
 20
-1527.009568907785
 40
8.0
  0
CIRCLE
  5
3D3
100
AcDbEntity
  8
1
  6
CONTINUOUS
 62
           3
100
AcDbCircle
 10
11671.13727713666
 20
-1527.009568907785
 40
8.0
  0
CIRCLE
  5
3D2
100
AcDbEntity
  8
1
  6
CONTINUOUS
 62
           7
100
AcDbCircle
 10
11671.13727713666
 20
-1527.009568907785
 40
15.0
  0
CIRCLE
  5
3D1
100
AcDbEntity
  8
1
  6
CONTINUOUS
 62
           7
100
AcDbCircle
 10
11671.13727713666
 20
-1527.009568907785
 40
12.0
  0
CIRCLE
  5
3D0
100
AcDbEntity
  8
1
  6
CONTINUOUS
 62
           7
100
AcDbCircle
 10
11471.13727713666
 20
-1527.009568907785
 40
25.0
  0
CIRCLE
  5
3CF
100
AcDbEntity
  8
1
  6
CONTINUOUS
 62
           7
100
AcDbCircle
 10
11671.13727713666
 20
-1527.009568907785
 40
25.0
  0
ARC
  5
3CE
100
AcDbEntity
  8
1
  6
CONTINUOUS
 62
           2
100
AcDbCircle
 10
11000.63855027825
 20
-3205.153267421796
 40
11.500000000001
100
AcDbArc
 50
90.0
 51
-90.0
  0
ARC
  5
3CD
100
AcDbEntity
  8
1
  6
CONTINUOUS
 62
           2
100
AcDbCircle
 10
11089.08549393121
 20
-3210.403267421796
 40
15.163861141564
100
AcDbArc
 50
-171.466995559562
 51
-159.743841999587
  0
ARC
  5
3CC
100
AcDbEntity
  8
1
  6
CONTINUOUS
 62
           2
100
AcDbCircle
 10
11032.709060342129
 20
-3199.903267421796
 40
15.163861141555
100
AcDbArc
 50
8.533004440443
 51
20.256158000425
  0
ARC
  5
3CB
100
AcDbEntity
  8
1
  6
CONTINUOUS
 62
           2
100
AcDbCircle
 10
11089.08549393121
 20
-3199.903267421796
 40
15.163861141564
100
AcDbArc
 50
-173.372959072822
 51
-159.743841999587
  0
ARC
  5
3CA
100
AcDbEntity
  8
1
  6
CONTINUOUS
 62
           2
100
AcDbCircle
 10
11032.709060342129
 20
-3210.403267421796
 40
15.163861141555
100
AcDbArc
 50
6.627040927182
 51
20.256158000425
  0
ARC
  5
3C9
100
AcDbEntity
  8
1
  6
CONTINUOUS
 62
           2
100
AcDbCircle
 10
11059.89727713667
 20
-3187.842017421797
 40
9.111249999998
100
AcDbArc
 50
-117.095877976005
 51
-62.904122024045
  0
ARC
  5
3C8
100
AcDbEntity
  8
1
  6
CONTINUOUS
 62
           2
100
AcDbCircle
 10
11067.73341599511
 20
-3199.903267421796
 40
15.163861141559
100
AcDbArc
 50
-20.256158000413
 51
20.256158000413
  0
ARC
  5
3C7
100
AcDbEntity
  8
1
  6
CONTINUOUS
 62
           2
100
AcDbCircle
 10
11067.73341599511
 20
-3210.403267421796
 40
15.163861141559
100
AcDbArc
 50
-20.256158000413
 51
20.256158000413
  0
ARC
  5
3C6
100
AcDbEntity
  8
1
  6
CONTINUOUS
 62
           2
100
AcDbCircle
 10
11089.08549393121
 20
-3210.403267421796
 40
15.163861141559
100
AcDbArc
 50
159.743841999587
 51
173.372959072822
  0
ARC
  5
3C5
100
AcDbEntity
  8
1
  6
CONTINUOUS
 62
           2
100
AcDbCircle
 10
11089.08549393121
 20
-3199.903267421796
 40
15.163861141559
100
AcDbArc
 50
159.743841999587
 51
171.466995559562
  0
ARC
  5
3C4
100
AcDbEntity
  8
1
  6
CONTINUOUS
 62
           2
100
AcDbCircle
 10
11032.709060342129
 20
-3199.903267421796
 40
15.163861141551
100
AcDbArc
 50
-20.256158000425
 51
-6.627040927182
  0
ARC
  5
3C3
100
AcDbEntity
  8
1
  6
CONTINUOUS
 62
           2
100
AcDbCircle
 10
11032.709060342129
 20
-3210.403267421796
 40
15.163861141551
100
AcDbArc
 50
-20.256158000425
 51
-8.533004440443
  0
ARC
  5
3C2
100
AcDbEntity
  8
1
  6
CONTINUOUS
 62
           2
100
AcDbCircle
 10
11054.061138278221
 20
-3199.903267421796
 40
15.163861141559
100
AcDbArc
 50
159.743841999587
 51
-159.743841999587
  0
ARC
  5
3C1
100
AcDbEntity
  8
1
  6
CONTINUOUS
 62
           2
100
AcDbCircle
 10
11054.061138278221
 20
-3210.403267421796
 40
15.163861141559
100
AcDbArc
 50
159.743841999587
 51
-159.743841999587
  0
ARC
  5
3C0
100
AcDbEntity
  8
1
  6
CONTINUOUS
 62
           2
100
AcDbCircle
 10
11059.89727713667
 20
-3168.611600755124
 40
13.541666666671
100
AcDbArc
 50
-125.051136747471
 51
-54.94886325256
  0
ARC
  5
3BF
100
AcDbEntity
  8
1
  6
CONTINUOUS
 62
           2
100
AcDbCircle
 10
11571.13727713666
 20
-2655.917949926594
 40
40.141914435017
100
AcDbArc
 50
-30.740714129761
 51
-149.259285870233
  0
ARC
  5
3BE
100
AcDbEntity
  8
1
  6
CONTINUOUS
 62
           2
100
AcDbCircle
 10
11571.165946040521
 20
-2663.525705443943
 40
34.78736101242
100
AcDbArc
 50
7.71000821894
 51
173.029145890946
  0
ARC
  5
3BD
100
AcDbEntity
  8
1
  6
CONTINUOUS
 62
           2
100
AcDbCircle
 10
11526.220291104
 20
-2689.528443887055
 40
10.415441500092
100
AcDbArc
 50
-31.131490566115
 51
0.0
  0
ARC
  5
3BC
100
AcDbEntity
  8
1
  6
CONTINUOUS
 62
           2
100
AcDbCircle
 10
11616.054263169341
 20
-2689.528443887055
 40
10.415441500101
100
AcDbArc
 50
180.0
 51
-148.868509433916
  0
ARC
  5
3BB
100
AcDbEntity
  8
1
  6
CONTINUOUS
 62
           2
100
AcDbCircle
 10
11043.312549888789
 20
-1140.117555169864
 40
5.414822022412
100
AcDbArc
 50
145.771504196985
 51
-155.979322918948
  0
ARC
  5
3BA
100
AcDbEntity
  8
1
  6
CONTINUOUS
 62
           2
100
AcDbCircle
 10
11057.95992569949
 20
-1131.009568907785
 40
20.062177826479
100
AcDbArc
 50
162.412046225995
 51
-162.412046225998
  0
ARC
  5
3B9
100
AcDbEntity
  8
1
  6
CONTINUOUS
 62
           2
100
AcDbCircle
 10
11043.312549888789
 20
-1121.901582645706
 40
5.41482202241
100
AcDbArc
 50
155.979322918937
 51
-145.771504196995
  0
ARC
  5
3B8
100
AcDbEntity
  8
1
  6
CONTINUOUS
 62
           2
100
AcDbCircle
 10
11076.48294585724
 20
-1140.117555169864
 40
5.414822022409
100
AcDbArc
 50
-24.020677081052
 51
34.228495803069
  0
ARC
  5
3B7
100
AcDbEntity
  8
1
  6
CONTINUOUS
 62
           2
100
AcDbCircle
 10
11061.83557004654
 20
-1131.009568907785
 40
20.06217782647
100
AcDbArc
 50
-17.587953774009
 51
17.587953774012
  0
ARC
  5
3B6
100
AcDbEntity
  8
1
  6
CONTINUOUS
 62
           2
100
AcDbCircle
 10
11076.48294585724
 20
-1121.901582645706
 40
5.414822022403
100
AcDbArc
 50
-34.228495803059
 51
24.020677081063
  0
ARC
  5
3B5
100
AcDbEntity
  8
1
  6
CONTINUOUS
 62
           2
100
AcDbCircle
 10
11059.89774787301
 20
-1131.009568907785
 40
9.999999999995
100
AcDbArc
 50
-145.57099604927
 51
-34.4290039507
  0
ARC
  5
3B4
100
AcDbEntity
  8
1
  6
CONTINUOUS
 62
           2
100
AcDbCircle
 10
11059.89774787301
 20
-1131.009568907785
 40
10.000000000003
100
AcDbArc
 50
34.4290039507
 51
145.57099604927
  0
ARC
  5
3B3
100
AcDbEntity
  8
1
  6
CONTINUOUS
 62
           2
100
AcDbCircle
 10
11093.65992569949
 20
-1131.009568907785
 40
20.062177826472
100
AcDbArc
 50
-163.904036789937
 51
-162.412046225998
  0
ARC
  5
3B2
100
AcDbEntity
  8
1
  6
CONTINUOUS
 62
           2
100
AcDbCircle
 10
11079.01254988879
 20
-1140.117555169864
 40
5.414822022412
100
AcDbArc
 50
145.771504196985
 51
-155.979322918956
  0
ARC
  5
3B1
100
AcDbEntity
  8
1
  6
CONTINUOUS
 62
           2
100
AcDbCircle
 10
11079.01254988879
 20
-1121.901582645706
 40
5.414822022412
100
AcDbArc
 50
155.979322918945
 51
-145.771504196995
  0
ARC
  5
3B0
100
AcDbEntity
  8
1
  6
CONTINUOUS
 62
           2
100
AcDbCircle
 10
11025.873392220041
 20
-1131.009568907785
 40
20.062177826481
100
AcDbArc
 50
16.095963210058
 51
17.587953774004
  0
ARC
  5
3AF
100
AcDbEntity
  8
1
  6
CONTINUOUS
 62
           2
100
AcDbCircle
 10
11040.52076803075
 20
-1121.901582645706
 40
5.414822022403
100
AcDbArc
 50
-34.228495803059
 51
24.020677081063
  0
ARC
  5
3AE
100
AcDbEntity
  8
1
  6
CONTINUOUS
 62
           2
100
AcDbCircle
 10
11040.52076803075
 20
-1140.117555169864
 40
5.414822022409
100
AcDbArc
 50
-24.020677081052
 51
34.228495803069
  0
ARC
  5
3AD
100
AcDbEntity
  8
1
  6
CONTINUOUS
 62
           2
100
AcDbCircle
 10
11065.80062593346
 20
-1127.020739340855
 40
6.806710713919
100
AcDbArc
 50
3.041596008607
 51
41.510199687939
  0
ARC
  5
3AC
100
AcDbEntity
  8
1
  6
CONTINUOUS
 62
           2
100
AcDbCircle
 10
11025.873392220041
 20
-1131.009568907785
 40
20.062177826479
100
AcDbArc
 50
-17.587953774001
 51
-16.095963210055
  0
ARC
  5
3AB
100
AcDbEntity
  8
1
  6
CONTINUOUS
 62
           2
100
AcDbCircle
 10
11093.65992569949
 20
-1131.009568907785
 40
20.062177826479
100
AcDbArc
 50
162.412046225995
 51
163.904036789934
  0
ARC
  5
3AA
100
AcDbEntity
  8
1
  6
CONTINUOUS
 62
           7
100
AcDbCircle
 10
13768.623724891049
 20
-354.259568907785
 40
6.25
100
AcDbArc
 50
0.0
 51
180.0
  0
ARC
  5
3A9
100
AcDbEntity
  8
1
  6
CONTINUOUS
 62
           7
100
AcDbCircle
 10
13408.624153638801
 20
-1947.612648955083
 40
99.000429050294
100
AcDbArc
 50
-179.851482431229
 51
-116.487423900201
  0
ARC
  5
3A8
100
AcDbEntity
  8
1
  6
CONTINUOUS
 62
           7
100
AcDbCircle
 10
14128.623296143291
 20
-1947.612648955083
 40
99.0004290503
100
AcDbArc
 50
-63.5125760998
 51
-0.148517568771
  0
ARC
  5
3A7
100
AcDbEntity
  8
1
  6
CONTINUOUS
 62
           7
100
AcDbCircle
 10
13768.623724891049
 20
-1222.009568907787
 40
908.999999999998
100
AcDbArc
 50
-69.051064875417
 51
-63.601370788017
  0
ARC
  5
3A6
100
AcDbEntity
  8
1
  6
CONTINUOUS
 62
           7
100
AcDbCircle
 10
13768.623724891049
 20
-1322.009568907783
 40
908.999999999996
100
AcDbArc
 50
63.601370788017
 51
116.398629211983
  0
ARC
  5
3A5
100
AcDbEntity
  8
1
  6
CONTINUOUS
 62
           7
100
AcDbCircle
 10
14128.623296143291
 20
-596.406488860487
 40
99.000429050303
100
AcDbArc
 50
0.148517568771
 51
63.5125760998
  0
ARC
  5
3A4
100
AcDbEntity
  8
1
  6
CONTINUOUS
 62
           7
100
AcDbCircle
 10
13408.624153638801
 20
-596.406488860487
 40
99.000429050302
100
AcDbArc
 50
116.4874239002
 51
179.851482431229
  0
ARC
  5
3A3
100
AcDbEntity
  8
1
  6
CONTINUOUS
 62
           7
100
AcDbCircle
 10
13768.623724891049
 20
-2231.009568907785
 40
100.0
100
AcDbArc
 50
0.0
 51
180.0
  0
ARC
  5
3A2
100
AcDbEntity
  8
1
  6
CONTINUOUS
 62
           7
100
AcDbCircle
 10
13768.623724891049
 20
-1222.009568907787
 40
908.999999999999
100
AcDbArc
 50
-116.398629211983
 51
-110.948935124582
  0
ARC
  5
3A1
100
AcDbEntity
  8
1
  6
DOTTED
 62
           7
100
AcDbCircle
 10
13768.623724891049
 20
-1222.009568907787
 40
908.999999999998
100
AcDbArc
 50
-110.948935124582
 51
-69.051064875417
  0
ARC
  5
3A0
100
AcDbEntity
  8
1
  6
CONTINUOUS
 62
           7
100
AcDbCircle
 10
13307.169216130211
 20
-2198.544330697489
 40
152.252346488165
100
AcDbArc
 50
-1.151737825457
 51
26.331963153032
  0
ARC
  5
39F
100
AcDbEntity
  8
1
  6
CONTINUOUS
 62
           7
100
AcDbCircle
 10
14230.078233651881
 20
-2198.544330697489
 40
152.252346488164
100
AcDbArc
 50
153.668036846967
 51
-178.848262174543
  0
ARC
  5
39E
100
AcDbEntity
  8
1
  6
CONTINUOUS
 62
           7
100
AcDbCircle
 10
11571.13727713666
 20
-378.009568907785
 40
30.000000000004
100
AcDbArc
 50
-57.425560900821
 51
-122.574439099164
  0
ARC
  5
39D
100
AcDbEntity
  8
1
  6
CONTINUOUS
 62
           7
100
AcDbCircle
 10
12487.30245516319
 20
-1131.009568907785
 40
459.000000000031
100
AcDbArc
 50
174.875245897026
 51
-174.875245897026
  0
ARC
  5
39C
100
AcDbEntity
  8
1
  6
CONTINUOUS
 62
           7
100
AcDbCircle
 10
12032.591785897501
 20
-2198.544330697489
 40
152.252346488172
100
AcDbArc
 50
153.668036846968
 51
-178.848262174543
  0
ARC
  5
39B
100
AcDbEntity
  8
1
  6
CONTINUOUS
 62
           7
100
AcDbCircle
 10
11109.68276837582
 20
-2198.544330697489
 40
152.252346488176
100
AcDbArc
 50
-1.151737825457
 51
26.331963153031
  0
ARC
  5
39A
100
AcDbEntity
  8
1
  6
CONTINUOUS
 62
           7
100
AcDbCircle
 10
10654.972099110129
 20
-1731.009568907785
 40
459.000000000033
100
AcDbArc
 50
-5.124754102973
 51
5.124754102973
  0
ARC
  5
399
100
AcDbEntity
  8
1
  6
DOTTED
 62
           7
100
AcDbCircle
 10
11571.13727713666
 20
-1222.009568907787
 40
908.999999999998
100
AcDbArc
 50
-110.948935124582
 51
-69.051064875417
  0
ARC
  5
398
100
AcDbEntity
  8
1
  6
CONTINUOUS
 62
           7
100
AcDbCircle
 10
11571.13727713666
 20
-1222.009568907787
 40
908.999999999995
100
AcDbArc
 50
-116.398629211982
 51
-110.948935124582
  0
ARC
  5
397
100
AcDbEntity
  8
1
  6
CONTINUOUS
 62
           7
100
AcDbCircle
 10
11571.13727713666
 20
-2231.009568907785
 40
100.0
100
AcDbArc
 50
0.0
 51
180.0
  0
ARC
  5
396
100
AcDbEntity
  8
1
  6
CONTINUOUS
 62
           7
100
AcDbCircle
 10
11211.137705884419
 20
-596.406488860487
 40
99.000429050301
100
AcDbArc
 50
116.487423900199
 51
179.851482431229
  0
ARC
  5
395
100
AcDbEntity
  8
1
  6
CONTINUOUS
 62
           7
100
AcDbCircle
 10
11931.136848388909
 20
-596.406488860487
 40
99.000429050305
100
AcDbArc
 50
0.148517568771
 51
63.512576099799
  0
ARC
  5
394
100
AcDbEntity
  8
1
  6
CONTINUOUS
 62
           7
100
AcDbCircle
 10
11571.13727713666
 20
-1322.009568907783
 40
909.0
100
AcDbArc
 50
63.601370788017
 51
116.398629211982
  0
ARC
  5
393
100
AcDbEntity
  8
1
  6
CONTINUOUS
 62
           7
100
AcDbCircle
 10
11571.13727713666
 20
-1222.009568907787
 40
908.999999999998
100
AcDbArc
 50
-69.051064875417
 51
-63.601370788017
  0
ARC
  5
392
100
AcDbEntity
  8
1
  6
CONTINUOUS
 62
           7
100
AcDbCircle
 10
11931.136848388909
 20
-1947.612648955083
 40
99.000429050301
100
AcDbArc
 50
-63.512576099799
 51
-0.148517568771
  0
ARC
  5
391
100
AcDbEntity
  8
1
  6
CONTINUOUS
 62
           7
100
AcDbCircle
 10
11211.137705884419
 20
-1947.612648955083
 40
99.000429050303
100
AcDbArc
 50
-179.851482431229
 51
-116.4874239002
  0
ARC
  5
390
100
AcDbEntity
  8
1
  6
CONTINUOUS
 62
           2
100
AcDbCircle
 10
11595.28727713666
 20
-2185.939568907784
 40
14.252192813739
100
AcDbArc
 50
158.385221057213
 51
-158.385221057213
  0
ARC
  5
38F
100
AcDbEntity
  8
1
  6
CONTINUOUS
 62
           2
100
AcDbCircle
 10
11613.91852713666
 20
-2186.189568907785
 40
15.781249999999
100
AcDbArc
 50
141.908042894756
 51
-141.908042894762
  0
ARC
  5
38E
100
AcDbEntity
  8
1
  6
CONTINUOUS
 62
           2
100
AcDbCircle
 10
11564.88727713666
 20
-2197.137353263078
 40
18.052215644707
100
AcDbArc
 50
-110.256158000421
 51
-69.74384199958
  0
ARC
  5
38D
100
AcDbEntity
  8
1
  6
CONTINUOUS
 62
           2
100
AcDbCircle
 10
11577.38727713666
 20
-2197.137353263078
 40
18.052215644707
100
AcDbArc
 50
-110.25615800042
 51
-69.743841999579
  0
ARC
  5
38C
100
AcDbEntity
  8
1
  6
CONTINUOUS
 62
           2
100
AcDbCircle
 10
11564.88727713666
 20
-2176.741784552491
 40
18.052215644708
100
AcDbArc
 50
69.743841999581
 51
110.25615800042
  0
ARC
  5
38B
100
AcDbEntity
  8
1
  6
CONTINUOUS
 62
           2
100
AcDbCircle
 10
11577.38727713666
 20
-2176.741784552491
 40
18.052215644707
100
AcDbArc
 50
69.74384199958
 51
110.256158000419
  0
ARC
  5
38A
100
AcDbEntity
  8
1
  6
CONTINUOUS
 62
           2
100
AcDbCircle
 10
11577.38727713666
 20
-2151.054019929749
 40
18.052215644708
100
AcDbArc
 50
-110.256158000419
 51
-98.762318068003
  0
ARC
  5
389
100
AcDbEntity
  8
1
  6
CONTINUOUS
 62
           2
100
AcDbCircle
 10
11564.88727713666
 20
-2151.054019929749
 40
18.052215644707
100
AcDbArc
 50
-110.25615800042
 51
-98.762318068003
  0
ARC
  5
388
100
AcDbEntity
  8
1
  6
CONTINUOUS
 62
           2
100
AcDbCircle
 10
11577.38727713666
 20
-2222.825117885822
 40
18.052215644707
100
AcDbArc
 50
69.743841999579
 51
81.237681931997
  0
ARC
  5
387
100
AcDbEntity
  8
1
  6
CONTINUOUS
 62
           2
100
AcDbCircle
 10
11564.88727713666
 20
-2222.825117885822
 40
18.052215644708
100
AcDbArc
 50
69.74384199958
 51
81.237681931997
  0
ARC
  5
386
100
AcDbEntity
  8
1
  6
CONTINUOUS
 62
           2
100
AcDbCircle
 10
11564.88727713666
 20
-2151.054019929749
 40
18.052215644708
100
AcDbArc
 50
-81.237681931997
 51
-69.743841999581
  0
ARC
  5
385
100
AcDbEntity
  8
1
  6
CONTINUOUS
 62
           2
100
AcDbCircle
 10
11577.38727713666
 20
-2222.825117885822
 40
18.052215644708
100
AcDbArc
 50
98.762318068003
 51
110.256158000419
  0
ARC
  5
384
100
AcDbEntity
  8
1
  6
CONTINUOUS
 62
           2
100
AcDbCircle
 10
11577.38727713666
 20
-2151.054019929749
 40
18.052215644708
100
AcDbArc
 50
-81.237681931997
 51
-69.74384199958
  0
ARC
  5
383
100
AcDbEntity
  8
1
  6
CONTINUOUS
 62
           2
100
AcDbCircle
 10
11564.88727713666
 20
-2222.825117885822
 40
18.052215644708
100
AcDbArc
 50
98.762318068003
 51
110.25615800042
  0
ARC
  5
382
100
AcDbEntity
  8
1
  6
CONTINUOUS
 62
           2
100
AcDbCircle
 10
13768.623724891049
 20
-2231.03467562207
 40
25.76023195741
100
AcDbArc
 50
73.730496507339
 51
106.269503492633
  0
ARC
  5
381
100
AcDbEntity
  8
1
  6
CONTINUOUS
 62
           2
100
AcDbCircle
 10
13768.623724891049
 20
-2191.306023876229
 40
23.883545031554
100
AcDbArc
 50
-107.587953773976
 51
-72.412046225994
  0
ARC
  5
380
100
AcDbEntity
  8
1
  6
CONTINUOUS
 62
           2
100
AcDbCircle
 10
13768.623724891049
 20
-2147.197634447997
 40
21.615815918785
100
AcDbArc
 50
-109.503854479453
 51
-70.496145520515
  0
ARC
  5
37F
100
AcDbEntity
  8
1
  6
CONTINUOUS
 62
           2
100
AcDbCircle
 10
13768.623724891049
 20
-2182.573113939363
 40
23.88354503158
100
AcDbArc
 50
72.412046226012
 51
107.587953773959
  0
ARC
  5
37E
100
AcDbEntity
  8
1
  6
CONTINUOUS
 62
           2
100
AcDbCircle
 10
13779.466565679249
 20
-2211.635761783707
 40
6.446216693346
100
AcDbArc
 50
65.97932291894
 51
79.658790361553
  0
ARC
  5
37D
100
AcDbEntity
  8
1
  6
CONTINUOUS
 62
           2
100
AcDbCircle
 10
13757.78088410286
 20
-2211.635761783708
 40
6.446216693343
100
AcDbArc
 50
55.771504196954
 51
82.487084244369
  0
ARC
  5
37C
100
AcDbEntity
  8
1
  6
CONTINUOUS
 62
           2
100
AcDbCircle
 10
13779.466565679249
 20
-2162.243376031865
 40
6.446216693342
100
AcDbArc
 50
-124.228495803028
 51
-97.512915755728
  0
ARC
  5
37B
100
AcDbEntity
  8
1
  6
CONTINUOUS
 62
           2
100
AcDbCircle
 10
13757.78088410286
 20
-2162.243376031865
 40
6.446216693345
100
AcDbArc
 50
-114.020677081045
 51
-100.341209638543
  0
ARC
  5
37A
100
AcDbEntity
  8
1
  6
CONTINUOUS
 62
           2
100
AcDbCircle
 10
13779.466565679249
 20
-2208.743376031863
 40
6.446216693342
100
AcDbArc
 50
-124.228495803032
 51
-65.979322918935
  0
ARC
  5
379
100
AcDbEntity
  8
1
  6
CONTINUOUS
 62
           2
100
AcDbCircle
 10
13768.623724891049
 20
-2191.306023876245
 40
23.883545031542
100
AcDbArc
 50
-76.06909951585
 51
-72.412046225983
  0
ARC
  5
378
100
AcDbEntity
  8
1
  6
CONTINUOUS
 62
           2
100
AcDbCircle
 10
13757.78088410286
 20
-2208.743376031862
 40
6.446216693345
100
AcDbArc
 50
-114.020677081046
 51
-55.771504196959
  0
ARC
  5
377
100
AcDbEntity
  8
1
  6
CONTINUOUS
 62
           2
100
AcDbCircle
 10
13779.466565679249
 20
-2165.135761783705
 40
6.446216693345
100
AcDbArc
 50
65.979322918937
 51
124.22849580303
  0
ARC
  5
376
100
AcDbEntity
  8
1
  6
CONTINUOUS
 62
           2
100
AcDbCircle
 10
13768.623724891049
 20
-2182.573113939324
 40
23.88354503154
100
AcDbArc
 50
103.930900484151
 51
107.587953773987
  0
ARC
  5
375
100
AcDbEntity
  8
1
  6
CONTINUOUS
 62
           2
100
AcDbCircle
 10
13757.78088410286
 20
-2165.135761783706
 40
6.446216693344
100
AcDbArc
 50
55.771504196961
 51
114.020677081045
  0
ARC
  5
374
100
AcDbEntity
  8
1
  6
CONTINUOUS
 62
           2
100
AcDbCircle
 10
13768.623724891049
 20
-2144.806023876247
 40
23.883545031541
100
AcDbArc
 50
-76.069099515849
 51
-72.412046225983
  0
ARC
  5
373
100
AcDbEntity
  8
1
  6
CONTINUOUS
 62
           2
100
AcDbCircle
 10
13757.78088410286
 20
-2162.243376031865
 40
6.446216693345
100
AcDbArc
 50
-82.487084244368
 51
-55.771504196959
  0
ARC
  5
372
100
AcDbEntity
  8
1
  6
CONTINUOUS
 62
           2
100
AcDbCircle
 10
13779.466565679249
 20
-2162.243376031865
 40
6.446216693346
100
AcDbArc
 50
-79.65879036156
 51
-65.97932291894
  0
ARC
  5
371
100
AcDbEntity
  8
1
  6
CONTINUOUS
 62
           2
100
AcDbCircle
 10
13768.623724891049
 20
-2229.073113939325
 40
23.88354503154
100
AcDbArc
 50
103.930900484151
 51
107.587953773989
  0
ARC
  5
370
100
AcDbEntity
  8
1
  6
CONTINUOUS
 62
           2
100
AcDbCircle
 10
13757.78088410286
 20
-2211.635761783708
 40
6.446216693348
100
AcDbArc
 50
100.341209638535
 51
114.020677081041
  0
ARC
  5
36F
100
AcDbEntity
  8
1
  6
CONTINUOUS
 62
           2
100
AcDbCircle
 10
13779.466565679249
 20
-2211.635761783707
 40
6.446216693343
100
AcDbArc
 50
97.512915755732
 51
124.228495803037
  0
ARC
  5
36E
100
AcDbEntity
  8
1
  6
CONTINUOUS
 62
           2
100
AcDbCircle
 10
13768.623724891049
 20
-2144.806023876247
 40
23.883545031539
100
AcDbArc
 50
-107.587953773987
 51
-103.93090048415
  0
ARC
  5
36D
100
AcDbEntity
  8
1
  6
CONTINUOUS
 62
           2
100
AcDbCircle
 10
13768.623724891049
 20
-2229.073113939325
 40
23.883545031541
100
AcDbArc
 50
72.412046225982
 51
76.069099515849
  0
ARC
  5
36C
100
AcDbEntity
  8
1
  6
CONTINUOUS
 62
           2
100
AcDbCircle
 10
13768.623724891049
 20
-2182.573113939324
 40
23.883545031543
100
AcDbArc
 50
72.412046225983
 51
76.069099515849
  0
ARC
  5
36B
100
AcDbEntity
  8
1
  6
CONTINUOUS
 62
           2
100
AcDbCircle
 10
13768.623724891049
 20
-2191.306023876245
 40
23.883545031538
100
AcDbArc
 50
-107.587953773988
 51
-103.93090048415
  0
ARC
  5
36A
100
AcDbEntity
  8
1
  6
CONTINUOUS
 62
           2
100
AcDbCircle
 10
13768.623724891049
 20
-2186.189568907785
 40
12.999999999998
100
AcDbArc
 50
31.108922510498
 51
148.891077489497
  0
ARC
  5
369
100
AcDbEntity
  8
1
  6
CONTINUOUS
 62
           2
100
AcDbCircle
 10
13768.623724891049
 20
-2186.189568907785
 40
13.000000000002
100
AcDbArc
 50
-148.891077489456
 51
-31.10892251054
  0
ARC
  5
368
100
AcDbEntity
  8
1
  6
CONTINUOUS
 62
           7
100
AcDbCircle
 10
10999.55457657015
 20
-1044.32675471653
 40
39.044459324231
100
AcDbArc
 50
93.899904844086
 51
-153.889170205382
  0
ARC
  5
367
100
AcDbEntity
  8
1
  6
CONTINUOUS
 62
           7
100
AcDbCircle
 10
10999.55457657015
 20
-1044.32675471653
 40
39.044459324229
100
AcDbArc
 50
-153.889170205382
 51
-145.958605674407
  0
ARC
  5
366
100
AcDbEntity
  8
1
  6
CONTINUOUS
 62
           7
100
AcDbCircle
 10
10999.643465459039
 20
-1044.418790515192
 40
38.955598656249
100
AcDbArc
 50
-33.933112924655
 51
-25.984434102924
  0
ARC
  5
365
100
AcDbEntity
  8
1
  6
CONTINUOUS
 62
           7
100
AcDbCircle
 10
10999.643465459039
 20
-1044.418790515192
 40
38.955598656249
100
AcDbArc
 50
-74.88865577696
 51
-33.933112924655
  0
ARC
  5
364
100
AcDbEntity
  8
1
  6
CONTINUOUS
 62
           7
100
AcDbCircle
 10
11032.326457134281
 20
-1063.256036102952
 40
3.6375
100
AcDbArc
 50
-77.924977949246
 51
17.924977949183
  0
ARC
  5
363
100
AcDbEntity
  8
1
  6
CONTINUOUS
 62
           7
100
AcDbCircle
 10
10966.827713303779
 20
-1063.281365377902
 40
3.637499999995
100
AcDbArc
 50
162.075022050834
 51
-102.075022050755
  0
ARC
  5
362
100
AcDbEntity
  8
1
  6
CONTINUOUS
 62
           7
100
AcDbCircle
 10
10999.599021014599
 20
-1006.519795392299
 40
3.637499999994
100
AcDbArc
 50
42.075022050932
 51
137.924977949145
  0
ARC
  5
361
100
AcDbEntity
  8
1
  6
CONTINUOUS
 62
           7
100
AcDbCircle
 10
10999.55457657015
 20
-1044.32675471653
 40
39.04445932423
100
AcDbArc
 50
85.969342150797
 51
93.899904844086
  0
ARC
  5
360
100
AcDbEntity
  8
1
  6
CONTINUOUS
 62
           7
100
AcDbCircle
 10
10999.55457657015
 20
-1044.32675471653
 40
39.044459324236
100
AcDbArc
 50
-0.05002145217
 51
85.969342150797
  0
ARC
  5
35F
100
AcDbEntity
  8
1
  6
CONTINUOUS
 62
           7
100
AcDbCircle
 10
10999.601711303119
 20
-1044.364349756454
 40
28.591593842009
100
AcDbArc
 50
180.0
 51
-135.510592132964
  0
ARC
  5
35E
100
AcDbEntity
  8
1
  6
CONTINUOUS
 62
           7
100
AcDbCircle
 10
10999.601711303119
 20
-1044.364349756454
 40
28.591593842013
100
AcDbArc
 50
-44.999999999996
 51
180.0
  0
ARC
  5
35D
100
AcDbEntity
  8
1
  6
CONTINUOUS
 62
           7
100
AcDbCircle
 10
10999.59789238196
 20
-1044.359858269355
 40
32.087775151115
100
AcDbArc
 50
-45.000831183761
 51
179.926907891321
  0
ARC
  5
35C
100
AcDbEntity
  8
1
  6
CONTINUOUS
 62
           7
100
AcDbCircle
 10
10999.599021014599
 20
-1044.360842049368
 40
3.611111111112
100
AcDbArc
 50
74.697968285578
 51
-158.578178478224
  0
ARC
  5
35B
100
AcDbEntity
  8
1
  6
CONTINUOUS
 62
           7
100
AcDbCircle
 10
10999.599021014599
 20
-1044.360842049368
 40
3.611111111114
100
AcDbArc
 50
-111.421821521916
 51
0.0
  0
ARC
  5
35A
100
AcDbEntity
  8
1
  6
CONTINUOUS
 62
           7
100
AcDbCircle
 10
10999.599021014599
 20
-1044.360842049368
 40
3.611111111111
100
AcDbArc
 50
0.0
 51
15.302031714389
  0
ARC
  5
359
100
AcDbEntity
  8
1
  6
CONTINUOUS
 62
           7
100
AcDbCircle
 10
10999.643465459039
 20
-1044.418790515192
 40
38.955598656251
100
AcDbArc
 50
-25.984434102924
 51
0.085230463913
  0
ARC
  5
358
100
AcDbEntity
  8
1
  6
CONTINUOUS
 62
           7
100
AcDbCircle
 10
10999.55457657015
 20
-1044.32675471653
 40
39.044459324232
100
AcDbArc
 50
-145.958605674407
 51
-105.07613521128
  0
ARC
  5
357
100
AcDbEntity
  8
1
  6
CONTINUOUS
 62
           7
100
AcDbCircle
 10
10999.599021014599
 20
-1044.029707958945
 40
39.342857142857
100
AcDbArc
 50
-105.026113759118
 51
-74.973886240879
  0
ARC
  5
356
100
AcDbEntity
  8
1
  6
CONTINUOUS
 62
           7
100
AcDbCircle
 10
10999.59789238196
 20
-1044.359858269355
 40
32.087775151124
100
AcDbArc
 50
179.926907891321
 51
-135.444465308212
  0
ARC
  5
355
100
AcDbEntity
  8
1
  6
CONTINUOUS
 62
           7
100
AcDbCircle
 10
11032.4839637885
 20
-1074.644453986033
 40
42.897491299712
100
AcDbArc
 50
116.582304419185
 51
133.266911622695
  0
ARC
  5
354
100
AcDbEntity
  8
1
  6
CONTINUOUS
 62
           7
100
AcDbCircle
 10
11012.997125411959
 20
-1035.700099531335
 40
0.65017929019
100
AcDbArc
 50
-63.41769558113
 51
30.139023485436
  0
ARC
  5
353
100
AcDbEntity
  8
1
  6
CONTINUOUS
 62
           7
100
AcDbCircle
 10
10969.31540907793
 20
-1011.475899275462
 40
42.897491299717
100
AcDbArc
 50
-43.266911622692
 51
-26.582304419182
  0
ARC
  5
352
100
AcDbEntity
  8
1
  6
CONTINUOUS
 62
           7
100
AcDbCircle
 10
11008.259763532629
 20
-1030.962737652005
 40
0.65017929019
100
AcDbArc
 50
59.860976514582
 51
153.417695580771
  0
ARC
  5
351
100
AcDbEntity
  8
1
  6
CONTINUOUS
 62
           7
100
AcDbCircle
 10
11001.70182414768
 20
-1042.258038916282
 40
13.711205269322
100
AcDbArc
 50
30.139023485574
 51
59.860976514413
  0
ARC
  5
350
100
AcDbEntity
  8
1
  6
CONTINUOUS
 62
           2
100
AcDbCircle
 10
11571.13727713666
 20
-927.855360515337
 40
25.565791607552
100
AcDbArc
 50
68.788505585336
 51
111.211494414663
  0
ARC
  5
34F
100
AcDbEntity
  8
1
  6
CONTINUOUS
 62
           2
100
AcDbCircle
 10
11586.63727713666
 20
-914.431966756679
 40
12.142397848894
100
AcDbArc
 50
90.0
 51
120.979098861629
  0
ARC
  5
34E
100
AcDbEntity
  8
1
  6
CONTINUOUS
 62
           2
100
AcDbCircle
 10
11555.63727713666
 20
-914.431966756679
 40
12.142397848894
100
AcDbArc
 50
59.020901138371
 51
90.0
  0
ARC
  5
34D
100
AcDbEntity
  8
1
  6
CONTINUOUS
 62
           2
100
AcDbCircle
 10
11571.13727713666
 20
-893.789568907785
 40
15.0
100
AcDbArc
 50
0.0
 51
180.0
  0
ARC
  5
34C
100
AcDbEntity
  8
1
  6
CONTINUOUS
 62
           2
100
AcDbCircle
 10
11571.13727713666
 20
-994.375625891662
 40
35.086056983877
100
AcDbArc
 50
67.812245868759
 51
112.187754131241
  0
ARC
  5
34B
100
AcDbEntity
  8
1
  6
CONTINUOUS
 62
           2
100
AcDbCircle
 10
11549.13727713666
 20
-975.323067008404
 40
16.033498100619
100
AcDbArc
 50
56.925269932794
 51
90.0
  0
ARC
  5
34A
100
AcDbEntity
  8
1
  6
CONTINUOUS
 62
           2
100
AcDbCircle
 10
11593.13727713666
 20
-916.289568907785
 40
1.0
100
AcDbArc
 50
0.0
 51
180.0
  0
ARC
  5
349
100
AcDbEntity
  8
1
  6
CONTINUOUS
 62
           2
100
AcDbCircle
 10
11578.47061047
 20
-916.289568907785
 40
1.0
100
AcDbArc
 50
0.0
 51
180.0
  0
ARC
  5
348
100
AcDbEntity
  8
1
  6
CONTINUOUS
 62
           2
100
AcDbCircle
 10
11563.80394380333
 20
-916.289568907785
 40
1.0
100
AcDbArc
 50
0.0
 51
180.0
  0
ARC
  5
347
100
AcDbEntity
  8
1
  6
CONTINUOUS
 62
           2
100
AcDbCircle
 10
11549.13727713666
 20
-916.289568907785
 40
1.0
100
AcDbArc
 50
0.0
 51
180.0
  0
ARC
  5
346
100
AcDbEntity
  8
1
  6
CONTINUOUS
 62
           2
100
AcDbCircle
 10
11593.13727713666
 20
-975.323067008404
 40
16.033498100619
100
AcDbArc
 50
90.0
 51
123.074730067206
  0
ARC
  5
345
100
AcDbEntity
  8
1
  6
CONTINUOUS
 62
           2
100
AcDbCircle
 10
11571.13727713666
 20
-1007.283610127501
 40
51.505958780283
100
AcDbArc
 50
-107.222444972133
 51
-72.777555027867
  0
ARC
  5
344
100
AcDbEntity
  8
1
  6
CONTINUOUS
 62
           2
100
AcDbCircle
 10
11544.63727713666
 20
-1030.233283327788
 40
28.556285579997
100
AcDbArc
 50
-90.0
 51
-66.798947104066
  0
ARC
  5
343
100
AcDbEntity
  8
1
  6
CONTINUOUS
 62
           2
100
AcDbCircle
 10
11597.63727713666
 20
-1030.233283327788
 40
28.556285579996
100
AcDbArc
 50
-113.201052895934
 51
-90.0
  0
ARC
  5
342
100
AcDbEntity
  8
1
  6
CONTINUOUS
 62
           2
100
AcDbCircle
 10
13246.03032183086
 20
-1030.233283327788
 40
28.556285579996
100
AcDbArc
 50
-113.201052895934
 51
-90.0
  0
ARC
  5
341
100
AcDbEntity
  8
1
  6
CONTINUOUS
 62
           2
100
AcDbCircle
 10
13193.03032183086
 20
-1030.233283327788
 40
28.556285579997
100
AcDbArc
 50
-90.0
 51
-66.798947104066
  0
ARC
  5
340
100
AcDbEntity
  8
1
  6
CONTINUOUS
 62
           2
100
AcDbCircle
 10
13219.53032183086
 20
-1007.283610127501
 40
51.505958780283
100
AcDbArc
 50
-107.222444972133
 51
-72.777555027867
  0
ARC
  5
33F
100
AcDbEntity
  8
1
  6
CONTINUOUS
 62
           2
100
AcDbCircle
 10
13241.53032183086
 20
-975.323067008404
 40
16.033498100619
100
AcDbArc
 50
90.0
 51
123.074730067206
  0
ARC
  5
33E
100
AcDbEntity
  8
1
  6
CONTINUOUS
 62
           2
100
AcDbCircle
 10
13197.53032183086
 20
-916.288897569199
 40
1.0
100
AcDbArc
 50
0.0
 51
180.0
  0
ARC
  5
33D
100
AcDbEntity
  8
1
  6
CONTINUOUS
 62
           2
100
AcDbCircle
 10
13212.196988497521
 20
-916.288897569199
 40
1.0
100
AcDbArc
 50
0.0
 51
180.0
  0
ARC
  5
33C
100
AcDbEntity
  8
1
  6
CONTINUOUS
 62
           2
100
AcDbCircle
 10
13226.86365516419
 20
-916.288897569199
 40
1.0
100
AcDbArc
 50
0.0
 51
180.0
  0
ARC
  5
33B
100
AcDbEntity
  8
1
  6
CONTINUOUS
 62
           2
100
AcDbCircle
 10
13241.53032183086
 20
-916.288897569199
 40
1.0
100
AcDbArc
 50
0.0
 51
180.0
  0
ARC
  5
33A
100
AcDbEntity
  8
1
  6
CONTINUOUS
 62
           2
100
AcDbCircle
 10
13197.53032183086
 20
-975.323067008404
 40
16.033498100619
100
AcDbArc
 50
56.925269932794
 51
90.0
  0
ARC
  5
339
100
AcDbEntity
  8
1
  6
CONTINUOUS
 62
           2
100
AcDbCircle
 10
13219.53032183086
 20
-994.375625891662
 40
35.086056983877
100
AcDbArc
 50
67.812245868759
 51
112.187754131241
  0
ARC
  5
338
100
AcDbEntity
  8
1
  6
CONTINUOUS
 62
           2
100
AcDbCircle
 10
13219.53032183086
 20
-893.788897569199
 40
15.0
100
AcDbArc
 50
0.0
 51
180.0
  0
ARC
  5
337
100
AcDbEntity
  8
1
  6
CONTINUOUS
 62
           2
100
AcDbCircle
 10
13204.03032183086
 20
-914.431295418093
 40
12.142397848894
100
AcDbArc
 50
59.020901138371
 51
90.0
  0
ARC
  5
336
100
AcDbEntity
  8
1
  6
CONTINUOUS
 62
           2
100
AcDbCircle
 10
13235.03032183086
 20
-914.431295418093
 40
12.142397848894
100
AcDbArc
 50
90.0
 51
120.979098861629
  0
ARC
  5
335
100
AcDbEntity
  8
1
  6
CONTINUOUS
 62
           2
100
AcDbCircle
 10
13219.53032183086
 20
-927.854689176752
 40
25.565791607552
100
AcDbArc
 50
68.788505585336
 51
111.211494414663
  0
ARC
  5
334
100
AcDbEntity
  8
1
  6
CONTINUOUS
 62
           2
100
AcDbCircle
 10
13192.398688555861
 20
-1089.174650090049
 40
6.489718839979
100
AcDbArc
 50
0.0
 51
39.925937785437
  0
ARC
  5
333
100
AcDbEntity
  8
1
  6
CONTINUOUS
 62
           2
100
AcDbCircle
 10
13246.37812623583
 20
-1089.174650090049
 40
6.489718839986
100
AcDbArc
 50
140.074062214563
 51
180.0
  0
ARC
  5
332
100
AcDbEntity
  8
1
  6
CONTINUOUS
 62
           2
100
AcDbCircle
 10
13252.99890135631
 20
-1175.926554940456
 40
10.415441500099
100
AcDbArc
 50
58.868509433919
 51
90.0
  0
ARC
  5
331
100
AcDbEntity
  8
1
  6
CONTINUOUS
 62
           2
100
AcDbCircle
 10
13252.99890135631
 20
-1086.092582875114
 40
10.415441500099
100
AcDbArc
 50
-90.0
 51
-58.868509433916
  0
ARC
  5
330
100
AcDbEntity
  8
1
  6
CONTINUOUS
 62
           2
100
AcDbCircle
 10
11571.27919157167
 20
-1007.283610127501
 40
51.505958780283
100
AcDbArc
 50
-107.222444972133
 51
-72.777555027867
  0
ARC
  5
32F
100
AcDbEntity
  8
1
  6
CONTINUOUS
 62
           2
100
AcDbCircle
 10
11544.77919157167
 20
-1030.233283327788
 40
28.556285579997
100
AcDbArc
 50
-90.0
 51
-66.798947104066
  0
ARC
  5
32E
100
AcDbEntity
  8
1
  6
CONTINUOUS
 62
           2
100
AcDbCircle
 10
11597.77919157167
 20
-1030.233283327788
 40
28.556285579996
100
AcDbArc
 50
-113.201052895934
 51
-90.0
  0
ARC
  5
32D
100
AcDbEntity
  8
1
  6
CONTINUOUS
 62
           2
100
AcDbCircle
 10
11544.14755829668
 20
-1089.174650090049
 40
6.489718839981
100
AcDbArc
 50
0.0
 51
39.925937785427
  0
ARC
  5
32C
100
AcDbEntity
  8
1
  6
CONTINUOUS
 62
           2
100
AcDbCircle
 10
11598.126995976651
 20
-1089.174650090049
 40
6.489718839988
100
AcDbArc
 50
140.074062214573
 51
180.0
  0
ARC
  5
32B
100
AcDbEntity
  8
1
  6
CONTINUOUS
 62
           2
100
AcDbCircle
 10
11571.13727713666
 20
-1131.009568907785
 40
36.001544532569
100
AcDbArc
 50
130.373913242244
 51
-90.0
  0
ARC
  5
32A
100
AcDbEntity
  8
1
  6
CONTINUOUS
 62
           2
100
AcDbCircle
 10
11571.13727713666
 20
-1131.009568907785
 40
34.501544532566
100
AcDbArc
 50
141.529354459391
 51
-90.0
  0
ARC
  5
329
100
AcDbEntity
  8
1
  6
CONTINUOUS
 62
           2
100
AcDbCircle
 10
11571.13727713666
 20
-1131.009568907785
 40
34.501544532571
100
AcDbArc
 50
-90.0
 51
38.470645540599
  0
ARC
  5
328
100
AcDbEntity
  8
1
  6
CONTINUOUS
 62
           2
100
AcDbCircle
 10
11571.13727713666
 20
-1131.009568907785
 40
36.001544532572
100
AcDbArc
 50
-90.0
 51
49.626086757745
  0
ARC
  5
327
100
AcDbEntity
  8
1
  6
CONTINUOUS
 62
           7
100
AcDbCircle
 10
11571.13727713666
 20
-3205.153267421796
 40
465.000000000003
100
AcDbArc
 50
52.549999999999
 51
127.449999999999
  0
ARC
  5
326
100
AcDbEntity
  8
1
  6
CONTINUOUS
 62
           7
100
AcDbCircle
 10
11471.13764677242
 20
-1392.010034096149
 40
15.000403896507
100
AcDbArc
 50
2.954211820463
 51
175.643708712468
  0
ARC
  5
325
100
AcDbEntity
  8
1
  6
CONTINUOUS
 62
           7
100
AcDbCircle
 10
11471.13764677242
 20
-1662.009103719421
 40
15.000403896502
100
AcDbArc
 50
-175.643708712469
 51
-2.954211820463
  0
ARC
  5
324
100
AcDbEntity
  8
1
  6
CONTINUOUS
 62
           7
100
AcDbCircle
 10
11671.13690750091
 20
-1392.010034096149
 40
15.000403896502
100
AcDbArc
 50
4.356291287531
 51
177.045788179537
  0
ARC
  5
323
100
AcDbEntity
  8
1
  6
CONTINUOUS
 62
           7
100
AcDbCircle
 10
11671.13690750091
 20
-1662.009103719421
 40
15.000403896507
100
AcDbArc
 50
-177.045788179537
 51
-4.356291287531
  0
ARC
  5
322
100
AcDbEntity
  8
1
  6
CONTINUOUS
 62
           7
100
AcDbCircle
 10
11571.13727713666
 20
-1637.026992151154
 40
260.078843904311
100
AcDbArc
 50
70.919417098923
 51
109.080582901075
  0
ARC
  5
321
100
AcDbEntity
  8
1
  6
CONTINUOUS
 62
           7
100
AcDbCircle
 10
11486.521694264909
 20
-1527.006947844999
 40
115.384417178524
100
AcDbArc
 50
152.293160609863
 51
-152.397355398791
  0
ARC
  5
320
100
AcDbEntity
  8
1
  6
CONTINUOUS
 62
           7
100
AcDbCircle
 10
11521.10072658553
 20
-1545.962729482826
 40
154.813605199291
100
AcDbArc
 50
127.79912057457
 51
152.03230412483
  0
ARC
  5
31F
100
AcDbEntity
  8
1
  6
CONTINUOUS
 62
           7
100
AcDbCircle
 10
11547.632693452049
 20
-1578.597363410681
 40
196.863995078347
100
AcDbArc
 50
117.868291570721
 51
128.079399841649
  0
ARC
  5
31E
100
AcDbEntity
  8
1
  6
CONTINUOUS
 62
           7
100
AcDbCircle
 10
11594.641860821281
 20
-1578.597363410681
 40
196.863995078344
100
AcDbArc
 50
51.92060015835
 51
62.131708429279
  0
ARC
  5
31D
100
AcDbEntity
  8
1
  6
CONTINUOUS
 62
           7
100
AcDbCircle
 10
11621.1738276878
 20
-1545.962729482826
 40
154.813605199295
100
AcDbArc
 50
27.96769587517
 51
52.20087942543
  0
ARC
  5
31C
100
AcDbEntity
  8
1
  6
CONTINUOUS
 62
           7
100
AcDbCircle
 10
11655.752860008421
 20
-1527.006947844999
 40
115.384417178519
100
AcDbArc
 50
-27.602644601209
 51
27.706839390137
  0
ARC
  5
31B
100
AcDbEntity
  8
1
  6
CONTINUOUS
 62
           7
100
AcDbCircle
 10
11571.13727713666
 20
-1416.992145664416
 40
260.078843904308
100
AcDbArc
 50
-109.080582901075
 51
-70.919417098923
  0
ARC
  5
31A
100
AcDbEntity
  8
1
  6
CONTINUOUS
 62
           7
100
AcDbCircle
 10
11547.632693452049
 20
-1475.421774404889
 40
196.863995078344
100
AcDbArc
 50
-128.079399841649
 51
-117.868291570721
  0
ARC
  5
319
100
AcDbEntity
  8
1
  6
CONTINUOUS
 62
           7
100
AcDbCircle
 10
11521.10072658553
 20
-1508.056408332744
 40
154.813605199296
100
AcDbArc
 50
-152.032304124829
 51
-127.79912057457
  0
ARC
  5
318
100
AcDbEntity
  8
1
  6
CONTINUOUS
 62
           7
100
AcDbCircle
 10
11486.521694264909
 20
-1527.012189970571
 40
115.384417178519
100
AcDbArc
 50
152.39735539879
 51
-152.293160609862
  0
ARC
  5
317
100
AcDbEntity
  8
1
  6
CONTINUOUS
 62
           7
100
AcDbCircle
 10
11594.641860821281
 20
-1475.421774404889
 40
196.863995078347
100
AcDbArc
 50
-62.131708429279
 51
-51.92060015835
  0
ARC
  5
316
100
AcDbEntity
  8
1
  6
CONTINUOUS
 62
           7
100
AcDbCircle
 10
11655.752860008421
 20
-1527.012189970571
 40
115.384417178525
100
AcDbArc
 50
-27.706839390137
 51
27.602644601209
  0
ARC
  5
315
100
AcDbEntity
  8
1
  6
CONTINUOUS
 62
           7
100
AcDbCircle
 10
11621.1738276878
 20
-1508.056408332744
 40
154.813605199291
100
AcDbArc
 50
-52.20087942543
 51
-27.96769587517
  0
ARC
  5
314
100
AcDbEntity
  8
1
  6
CONTINUOUS
 62
           7
100
AcDbCircle
 10
12887.79512363844
 20
-1527.009568907785
 40
517.62860125261
100
AcDbArc
 50
-35.420031612006
 51
35.420031612006
  0
ARC
  5
313
100
AcDbEntity
  8
1
  6
CONTINUOUS
 62
           7
100
AcDbCircle
 10
11481.546404293331
 20
-2646.34161258268
 40
6.18836802561
100
AcDbArc
 50
65.979322918976
 51
124.22849580306
  0
ARC
  5
312
100
AcDbEntity
  8
1
  6
CONTINUOUS
 62
           7
100
AcDbCircle
 10
11471.13727713666
 20
-2663.081470652071
 40
22.928203230277
100
AcDbArc
 50
72.412046225996
 51
107.587953773982
  0
ARC
  5
311
100
AcDbEntity
  8
1
  6
CONTINUOUS
 62
           7
100
AcDbCircle
 10
11460.728149979999
 20
-2646.34161258268
 40
6.188368025611
100
AcDbArc
 50
55.771504196939
 51
114.020677081024
  0
ARC
  5
310
100
AcDbEntity
  8
1
  6
CONTINUOUS
 62
           7
100
AcDbCircle
 10
11681.546404293331
 20
-2646.34161258268
 40
6.18836802561
100
AcDbArc
 50
65.979322918976
 51
124.22849580306
  0
ARC
  5
30F
100
AcDbEntity
  8
1
  6
CONTINUOUS
 62
           7
100
AcDbCircle
 10
11671.13727713666
 20
-2663.081470652071
 40
22.928203230277
100
AcDbArc
 50
72.412046225996
 51
107.587953773982
  0
ARC
  5
30E
100
AcDbEntity
  8
1
  6
CONTINUOUS
 62
           7
100
AcDbCircle
 10
11660.728149979999
 20
-2646.34161258268
 40
6.188368025611
100
AcDbArc
 50
55.771504196939
 51
114.020677081024
  0
ARC
  5
30D
100
AcDbEntity
  8
1
  6
CONTINUOUS
 62
           7
100
AcDbCircle
 10
13209.81207005193
 20
-1516.600441751119
 40
6.188368025609
100
AcDbArc
 50
155.979322918966
 51
-145.771504196945
  0
ARC
  5
30C
100
AcDbEntity
  8
1
  6
CONTINUOUS
 62
           7
100
AcDbCircle
 10
13226.55192812132
 20
-1527.009568907785
 40
22.928203230275
100
AcDbArc
 50
162.412046226004
 51
-162.412046226004
  0
ARC
  5
30B
100
AcDbEntity
  8
1
  6
CONTINUOUS
 62
           7
100
AcDbCircle
 10
13209.81207005193
 20
-1537.418696064451
 40
6.188368025611
100
AcDbArc
 50
145.771504196945
 51
-155.979322918966
  0
ARC
  5
30A
100
AcDbEntity
  8
1
  6
CONTINUOUS
 62
           7
100
AcDbCircle
 10
13098.531888156351
 20
-1527.009568907785
 40
254.091836734698
100
AcDbArc
 50
-36.180978737384
 51
36.180978737384
  0
LINE
  5
309
100
AcDbEntity
  8
1
  6
CONTINUOUS
 62
           2
100
AcDbLine
 10
10989.326852615161
 20
-3205.153267421796
 11
10961.63855027825
 21
-3205.153267421796
  0
LINE
  5
308
100
AcDbEntity
  8
1
  6
CONTINUOUS
 62
           2
100
AcDbLine
 10
11037.63855027825
 20
-3219.153267421795
 11
10963.63855027825
 21
-3219.153267421795
  0
LINE
  5
307
100
AcDbEntity
  8
1
  6
CONTINUOUS
 62
           2
100
AcDbLine
 10
10963.63855027825
 20
-3184.153267421795
 11
11037.63855027825
 21
-3184.153267421795
  0
LINE
  5
306
100
AcDbEntity
  8
1
  6
CONTINUOUS
 62
           2
100
AcDbLine
 10
11039.63855027825
 20
-3194.653267421796
 11
11039.63855027825
 21
-3186.153267421795
  0
LINE
  5
305
100
AcDbEntity
  8
1
  6
CONTINUOUS
 62
           2
100
AcDbLine
 10
11039.63855027825
 20
-3215.653267421796
 11
11039.63855027825
 21
-3217.153267421795
  0
LINE
  5
304
100
AcDbEntity
  8
1
  6
CONTINUOUS
 62
           2
100
AcDbLine
 10
10961.63855027825
 20
-3217.153267421795
 11
10961.63855027825
 21
-3186.153267421795
  0
LINE
  5
303
100
AcDbEntity
  8
1
  6
DOT_CENTER
 62
           2
100
AcDbLine
 10
10989.808250278251
 20
-3205.153267421796
 11
11011.46885027825
 21
-3205.153267421796
  0
LINE
  5
302
100
AcDbEntity
  8
1
  6
DOT_CENTER
 62
           2
100
AcDbLine
 10
11000.63855027825
 20
-3215.983567421795
 11
11000.63855027825
 21
-3194.322967421796
  0
LINE
  5
301
100
AcDbEntity
  8
1
  6
CONTINUOUS
 62
           2
100
AcDbLine
 10
10994.63855027825
 20
-3199.153267421796
 11
11006.63855027825
 21
-3211.153267421795
  0
LINE
  5
300
100
AcDbEntity
  8
1
  6
CONTINUOUS
 62
           2
100
AcDbLine
 10
11006.63855027825
 20
-3199.153267421796
 11
10994.63855027825
 21
-3211.153267421795
  0
LINE
  5
2FF
100
AcDbEntity
  8
1
  6
CONTINUOUS
 62
           2
100
AcDbLine
 10
10994.63855027825
 20
-3199.153267421796
 11
11006.63855027825
 21
-3199.153267421796
  0
LINE
  5
2FE
100
AcDbEntity
  8
1
  6
CONTINUOUS
 62
           2
100
AcDbLine
 10
11006.63855027825
 20
-3199.153267421796
 11
11006.63855027825
 21
-3211.153267421795
  0
LINE
  5
2FD
100
AcDbEntity
  8
1
  6
CONTINUOUS
 62
           2
100
AcDbLine
 10
11006.63855027825
 20
-3211.153267421795
 11
10994.63855027825
 21
-3211.153267421795
  0
LINE
  5
2FC
100
AcDbEntity
  8
1
  6
CONTINUOUS
 62
           2
100
AcDbLine
 10
10994.63855027825
 20
-3211.153267421795
 11
10994.63855027825
 21
-3199.153267421796
  0
LINE
  5
2FB
100
AcDbEntity
  8
1
  6
DOT_CENTER
 62
           2
100
AcDbLine
 10
11000.63855027825
 20
-3227.593710906108
 11
11000.63855027825
 21
-3179.479074143042
  0
LINE
  5
2FA
100
AcDbEntity
  8
1
  6
CONTINUOUS
 62
           2
100
AcDbLine
 10
11023.63727713666
 20
-3193.653267421795
 11
11000.63855027825
 21
-3193.653267421795
  0
LINE
  5
2F9
100
AcDbEntity
  8
1
  6
CONTINUOUS
 62
           2
100
AcDbLine
 10
11023.63727713666
 20
-3193.653267421795
 11
11023.63727713666
 21
-3205.153267421796
  0
LINE
  5
2F8
100
AcDbEntity
  8
1
  6
CONTINUOUS
 62
           2
100
AcDbLine
 10
11000.63855027825
 20
-3216.653267421796
 11
11023.63727713666
 21
-3216.653267421796
  0
LINE
  5
2F7
100
AcDbEntity
  8
1
  6
CONTINUOUS
 62
           2
100
AcDbLine
 10
11023.63727713666
 20
-3205.153267421796
 11
11023.63727713666
 21
-3216.653267421796
  0
LINE
  5
2F6
100
AcDbEntity
  8
1
  6
CONTINUOUS
 62
           2
100
AcDbLine
 10
11023.63727713666
 20
-3205.153267421796
 11
11023.63727713666
 21
-3216.653267421796
  0
LINE
  5
2F5
100
AcDbEntity
  8
1
  6
CONTINUOUS
 62
           2
100
AcDbLine
 10
11023.63727713666
 20
-3193.653267421795
 11
11023.63727713666
 21
-3205.153267421796
  0
LINE
  5
2F4
100
AcDbEntity
  8
1
  6
CONTINUOUS
 62
           2
100
AcDbLine
 10
11038.937277136671
 20
-3215.653267421796
 11
11038.937277136671
 21
-3194.653267421795
  0
LINE
  5
2F3
100
AcDbEntity
  8
1
  6
CONTINUOUS
 62
           2
100
AcDbLine
 10
11030.037277136669
 20
-3196.503267421796
 11
11030.037277136669
 21
-3213.803267421795
  0
LINE
  5
2F2
100
AcDbEntity
  8
1
  6
CONTINUOUS
 62
           2
100
AcDbLine
 10
11032.537277136669
 20
-3213.803267421795
 11
11032.537277136669
 21
-3196.503267421796
  0
LINE
  5
2F1
100
AcDbEntity
  8
1
  6
CONTINUOUS
 62
           2
100
AcDbLine
 10
11032.537277136669
 20
-3196.503267421796
 11
11030.037277136669
 21
-3196.503267421796
  0
LINE
  5
2F0
100
AcDbEntity
  8
1
  6
CONTINUOUS
 62
           2
100
AcDbLine
 10
11030.037277136669
 20
-3213.803267421795
 11
11032.537277136669
 21
-3213.803267421795
  0
LINE
  5
2EF
100
AcDbEntity
  8
1
  6
CONTINUOUS
 62
           2
100
AcDbLine
 10
11038.937277136671
 20
-3213.484267421796
 11
11032.537277136669
 21
-3213.803267421795
  0
LINE
  5
2EE
100
AcDbEntity
  8
1
  6
CONTINUOUS
 62
           2
100
AcDbLine
 10
11023.63727713666
 20
-3196.822267421796
 11
11030.037277136669
 21
-3196.503267421796
  0
LINE
  5
2ED
100
AcDbEntity
  8
1
  6
CONTINUOUS
 62
           2
100
AcDbLine
 10
11030.037277136669
 20
-3213.803267421795
 11
11023.63727713666
 21
-3213.484267421796
  0
LINE
  5
2EC
100
AcDbEntity
  8
1
  6
CONTINUOUS
 62
           2
100
AcDbLine
 10
11032.537277136669
 20
-3196.503267421796
 11
11038.937277136671
 21
-3196.822267421796
  0
LINE
  5
2EB
100
AcDbEntity
  8
1
  6
CONTINUOUS
 62
           2
100
AcDbLine
 10
11089.29727713666
 20
-3213.803267421795
 11
11092.13727713666
 21
-3213.803267421795
  0
LINE
  5
2EA
100
AcDbEntity
  8
1
  6
CONTINUOUS
 62
           2
100
AcDbLine
 10
11089.29727713666
 20
-3213.803267421795
 11
11082.89727713667
 21
-3213.484267421796
  0
LINE
  5
2E9
100
AcDbEntity
  8
1
  6
CONTINUOUS
 62
           2
100
AcDbLine
 10
11082.89727713667
 20
-3196.822267421796
 11
11089.29727713666
 21
-3196.503267421796
  0
LINE
  5
2E8
100
AcDbEntity
  8
1
  6
CONTINUOUS
 62
           2
100
AcDbLine
 10
11092.13727713666
 20
-3196.503267421796
 11
11089.29727713666
 21
-3196.503267421796
  0
LINE
  5
2E7
100
AcDbEntity
  8
1
  6
CONTINUOUS
 62
           2
100
AcDbLine
 10
11089.29727713666
 20
-3196.503267421796
 11
11089.29727713666
 21
-3213.803267421795
  0
LINE
  5
2E6
100
AcDbEntity
  8
1
  6
CONTINUOUS
 62
           2
100
AcDbLine
 10
11074.44513243566
 20
-3195.953267421795
 11
11064.04727713666
 21
-3195.953267421795
  0
LINE
  5
2E5
100
AcDbEntity
  8
1
  6
CONTINUOUS
 62
           2
100
AcDbLine
 10
11047.34942183768
 20
-3195.953267421795
 11
11055.74727713667
 21
-3195.953267421795
  0
LINE
  5
2E4
100
AcDbEntity
  8
1
  6
CONTINUOUS
 62
           2
100
AcDbLine
 10
11074.85945496316
 20
-3205.153267421796
 11
11081.95945496316
 21
-3205.153267421796
  0
LINE
  5
2E3
100
AcDbEntity
  8
1
  6
CONTINUOUS
 62
           2
100
AcDbLine
 10
11039.83509931017
 20
-3205.153267421796
 11
11046.935099310171
 21
-3205.153267421796
  0
LINE
  5
2E2
100
AcDbEntity
  8
1
  6
CONTINUOUS
 62
           2
100
AcDbLine
 10
11047.197277136671
 20
-3194.653267421796
 11
11047.197277136671
 21
-3189.753267421794
  0
LINE
  5
2E1
100
AcDbEntity
  8
1
  6
CONTINUOUS
 62
           2
100
AcDbLine
 10
11047.197277136671
 20
-3189.753267421794
 11
11047.89727713667
 21
-3189.753267421794
  0
LINE
  5
2E0
100
AcDbEntity
  8
1
  6
CONTINUOUS
 62
           2
100
AcDbLine
 10
11051.39727713667
 20
-3194.653267421796
 11
11051.39727713667
 21
-3192.653267421796
  0
LINE
  5
2DF
100
AcDbEntity
  8
1
  6
CONTINUOUS
 62
           2
100
AcDbLine
 10
11047.89727713667
 20
-3192.653267421796
 11
11049.89727713667
 21
-3192.653267421796
  0
LINE
  5
2DE
100
AcDbEntity
  8
1
  6
CONTINUOUS
 62
           2
100
AcDbLine
 10
11047.89727713667
 20
-3192.653267421796
 11
11047.89727713667
 21
-3188.553267421797
  0
LINE
  5
2DD
100
AcDbEntity
  8
1
  6
CONTINUOUS
 62
           2
100
AcDbLine
 10
11082.89727713667
 20
-3194.653267421796
 11
11082.89727713667
 21
-3215.653267421796
  0
LINE
  5
2DC
100
AcDbEntity
  8
1
  6
CONTINUOUS
 62
           2
100
AcDbLine
 10
11082.89727713667
 20
-3215.653267421796
 11
11038.89727713667
 21
-3215.653267421796
  0
LINE
  5
2DB
100
AcDbEntity
  8
1
  6
CONTINUOUS
 62
           2
100
AcDbLine
 10
11038.89727713667
 20
-3215.653267421796
 11
11038.89727713667
 21
-3194.653267421796
  0
LINE
  5
2DA
100
AcDbEntity
  8
1
  6
CONTINUOUS
 62
           2
100
AcDbLine
 10
11082.89727713667
 20
-3194.653267421796
 11
11038.89727713667
 21
-3194.653267421796
  0
LINE
  5
2D9
100
AcDbEntity
  8
1
  6
DOT_CENTER
 62
           2
100
AcDbLine
 10
11085.24892203496
 20
-3205.153267421796
 11
11038.49828117632
 21
-3205.153267421796
  0
LINE
  5
2D8
100
AcDbEntity
  8
1
  6
DOT_CENTER
 62
           2
100
AcDbLine
 10
11059.89727713667
 20
-3217.744654404385
 11
11059.89727713667
 21
-3175.927961613386
  0
LINE
  5
2D7
100
AcDbEntity
  8
1
  6
CONTINUOUS
 62
           2
100
AcDbLine
 10
11069.89727713667
 20
-3192.653267421796
 11
11069.89727713667
 21
-3189.153267421796
  0
LINE
  5
2D6
100
AcDbEntity
  8
1
  6
CONTINUOUS
 62
           2
100
AcDbLine
 10
11049.89727713667
 20
-3192.653267421796
 11
11069.89727713667
 21
-3192.653267421796
  0
LINE
  5
2D5
100
AcDbEntity
  8
1
  6
CONTINUOUS
 62
           2
100
AcDbLine
 10
11049.89727713667
 20
-3189.153267421796
 11
11049.89727713667
 21
-3192.653267421796
  0
LINE
  5
2D4
100
AcDbEntity
  8
1
  6
CONTINUOUS
 62
           2
100
AcDbLine
 10
11069.89727713667
 20
-3189.153267421796
 11
11049.89727713667
 21
-3189.153267421796
  0
LINE
  5
2D3
100
AcDbEntity
  8
1
  6
CONTINUOUS
 62
           2
100
AcDbLine
 10
11079.89727713667
 20
-3186.153267421796
 11
11069.89727713667
 21
-3189.153267421796
  0
LINE
  5
2D2
100
AcDbEntity
  8
1
  6
CONTINUOUS
 62
           2
100
AcDbLine
 10
11079.89727713667
 20
-3179.153267421796
 11
11079.89727713667
 21
-3186.153267421796
  0
LINE
  5
2D1
100
AcDbEntity
  8
1
  6
CONTINUOUS
 62
           2
100
AcDbLine
 10
11069.39727713667
 20
-3179.153267421796
 11
11079.89727713667
 21
-3179.153267421796
  0
LINE
  5
2D0
100
AcDbEntity
  8
1
  6
CONTINUOUS
 62
           2
100
AcDbLine
 10
11039.89727713667
 20
-3186.153267421796
 11
11039.89727713667
 21
-3179.153267421796
  0
LINE
  5
2CF
100
AcDbEntity
  8
1
  6
CONTINUOUS
 62
           2
100
AcDbLine
 10
11049.89727713667
 20
-3189.153267421796
 11
11039.89727713667
 21
-3186.153267421796
  0
LINE
  5
2CE
100
AcDbEntity
  8
1
  6
CONTINUOUS
 62
           2
100
AcDbLine
 10
11039.89727713667
 20
-3179.153267421796
 11
11050.39727713667
 21
-3179.153267421796
  0
LINE
  5
2CD
100
AcDbEntity
  8
1
  6
CONTINUOUS
 62
           2
100
AcDbLine
 10
11054.89727713667
 20
-3192.653267421796
 11
11054.89727713667
 21
-3194.653267421796
  0
LINE
  5
2CC
100
AcDbEntity
  8
1
  6
CONTINUOUS
 62
           2
100
AcDbLine
 10
11064.89727713667
 20
-3192.653267421796
 11
11064.89727713667
 21
-3194.653267421796
  0
LINE
  5
2CB
100
AcDbEntity
  8
1
  6
CONTINUOUS
 62
           2
100
AcDbLine
 10
11558.329721779701
 20
-2631.170481024587
 11
11571.13727713666
 21
-2623.776035491584
  0
LINE
  5
2CA
100
AcDbEntity
  8
1
  6
CONTINUOUS
 62
           2
100
AcDbLine
 10
11571.13727713666
 20
-2623.776035491584
 11
11583.944832493629
 21
-2631.170481024587
  0
LINE
  5
2C9
100
AcDbEntity
  8
1
  6
CONTINUOUS
 62
           2
100
AcDbLine
 10
11605.638821669239
 20
-2683.417949926594
 11
11617.13727713667
 21
-2683.417949926594
  0
LINE
  5
2C8
100
AcDbEntity
  8
1
  6
CONTINUOUS
 62
           2
100
AcDbLine
 10
11600.42836090828
 20
-2628.417949926594
 11
11617.13727713667
 21
-2628.417949926594
  0
LINE
  5
2C7
100
AcDbEntity
  8
1
  6
DOT_CENTER
 62
           2
100
AcDbLine
 10
11523.592508858639
 20
-2655.917949926594
 11
11648.02740059903
 21
-2655.917949926594
  0
LINE
  5
2C6
100
AcDbEntity
  8
1
  6
CONTINUOUS
 62
           2
100
AcDbLine
 10
11618.13727713667
 20
-2684.917949926594
 11
11618.13727713667
 21
-2684.417949926594
  0
LINE
  5
2C5
100
AcDbEntity
  8
1
  6
CONTINUOUS
 62
           2
100
AcDbLine
 10
11618.13727713667
 20
-2684.917949926594
 11
11623.13727713667
 21
-2684.917949926594
  0
LINE
  5
2C4
100
AcDbEntity
  8
1
  6
CONTINUOUS
 62
           2
100
AcDbLine
 10
11623.13727713667
 20
-2684.917949926594
 11
11623.13727713667
 21
-2626.917949926594
  0
LINE
  5
2C3
100
AcDbEntity
  8
1
  6
CONTINUOUS
 62
           2
100
AcDbLine
 10
11623.13727713667
 20
-2626.917949926594
 11
11618.13727713667
 21
-2626.917949926594
  0
LINE
  5
2C2
100
AcDbEntity
  8
1
  6
CONTINUOUS
 62
           2
100
AcDbLine
 10
11618.13727713667
 20
-2626.917949926594
 11
11618.13727713667
 21
-2627.417949926594
  0
LINE
  5
2C1
100
AcDbEntity
  8
1
  6
CONTINUOUS
 62
           2
100
AcDbLine
 10
11618.13727713667
 20
-2627.559194934566
 11
11618.13727713667
 21
-2684.917949926594
  0
LINE
  5
2C0
100
AcDbEntity
  8
1
  6
CONTINUOUS
 62
           2
100
AcDbLine
 10
11536.635732604091
 20
-2683.93007794856
 11
11536.635732604091
 21
-2659.303757286614
  0
LINE
  5
2BF
100
AcDbEntity
  8
1
  6
CONTINUOUS
 62
           2
100
AcDbLine
 10
11605.638821669239
 20
-2658.858657973077
 11
11605.638821669239
 21
-2683.775460957403
  0
LINE
  5
2BE
100
AcDbEntity
  8
1
  6
CONTINUOUS
 62
           2
100
AcDbLine
 10
11605.638821669239
 20
-2689.528443887055
 11
11605.638821669239
 21
-2682.417949926593
  0
LINE
  5
2BD
100
AcDbEntity
  8
1
  6
CONTINUOUS
 62
           2
100
AcDbLine
 10
11535.135732604091
 20
-2699.913267421796
 11
11571.13727713666
 21
-2699.913267421796
  0
LINE
  5
2BC
100
AcDbEntity
  8
1
  6
CONTINUOUS
 62
           2
100
AcDbLine
 10
11607.138821669239
 20
-2694.913267421796
 11
11605.638821669239
 21
-2694.913267421796
  0
LINE
  5
2BB
100
AcDbEntity
  8
1
  6
CONTINUOUS
 62
           2
100
AcDbLine
 10
11535.135732604091
 20
-2694.913267421796
 11
11536.635732604091
 21
-2694.913267421796
  0
LINE
  5
2BA
100
AcDbEntity
  8
1
  6
CONTINUOUS
 62
           2
100
AcDbLine
 10
11536.635732604091
 20
-2694.913267421796
 11
11605.638821669239
 21
-2694.913267421796
  0
LINE
  5
2B9
100
AcDbEntity
  8
1
  6
CONTINUOUS
 62
           2
100
AcDbLine
 10
11535.135732604091
 20
-2699.913267421796
 11
11535.135732604091
 21
-2694.913267421796
  0
LINE
  5
2B8
100
AcDbEntity
  8
1
  6
CONTINUOUS
 62
           2
100
AcDbLine
 10
11607.138821669239
 20
-2699.913267421796
 11
11607.138821669239
 21
-2694.913267421796
  0
LINE
  5
2B7
100
AcDbEntity
  8
1
  6
CONTINUOUS
 62
           2
100
AcDbLine
 10
11571.13727713666
 20
-2699.913267421796
 11
11607.138821669239
 21
-2699.913267421796
  0
LINE
  5
2B6
100
AcDbEntity
  8
1
  6
CONTINUOUS
 62
           2
100
AcDbLine
 10
11536.635732604091
 20
-2689.528443887055
 11
11536.635732604091
 21
-2680.417949926593
  0
LINE
  5
2B5
100
AcDbEntity
  8
1
  6
CONTINUOUS
 62
           2
100
AcDbLine
 10
11540.88727713666
 20
-2711.033267421796
 11
11541.33027713666
 21
-2699.913267421796
  0
LINE
  5
2B4
100
AcDbEntity
  8
1
  6
CONTINUOUS
 62
           2
100
AcDbLine
 10
11600.94427713667
 20
-2699.913267421796
 11
11601.38727713666
 21
-2711.033267421796
  0
LINE
  5
2B3
100
AcDbEntity
  8
1
  6
CONTINUOUS
 62
           2
100
AcDbLine
 10
11541.33027713666
 20
-2726.153267421796
 11
11540.88727713666
 21
-2715.033267421796
  0
LINE
  5
2B2
100
AcDbEntity
  8
1
  6
CONTINUOUS
 62
           2
100
AcDbLine
 10
11600.94427713667
 20
-2726.153267421796
 11
11601.38727713666
 21
-2715.033267421796
  0
LINE
  5
2B1
100
AcDbEntity
  8
1
  6
CONTINUOUS
 62
           2
100
AcDbLine
 10
11540.88727713666
 20
-2711.033267421796
 11
11540.88727713666
 21
-2715.033267421796
  0
LINE
  5
2B0
100
AcDbEntity
  8
1
  6
CONTINUOUS
 62
           2
100
AcDbLine
 10
11601.38727713666
 20
-2715.033267421796
 11
11601.38727713666
 21
-2711.033267421796
  0
LINE
  5
2AF
100
AcDbEntity
  8
1
  6
CONTINUOUS
 62
           2
100
AcDbLine
 10
11540.88727713666
 20
-2711.033267421796
 11
11601.38727713666
 21
-2711.033267421796
  0
LINE
  5
2AE
100
AcDbEntity
  8
1
  6
CONTINUOUS
 62
           2
100
AcDbLine
 10
11601.38727713666
 20
-2715.033267421796
 11
11540.88727713666
 21
-2715.033267421796
  0
LINE
  5
2AD
100
AcDbEntity
  8
1
  6
CONTINUOUS
 62
           2
100
AcDbLine
 10
11537.987277136661
 20
-2726.153267421796
 11
11604.28727713666
 21
-2726.153267421796
  0
LINE
  5
2AC
100
AcDbEntity
  8
1
  6
CONTINUOUS
 62
           2
100
AcDbLine
 10
11537.987277136661
 20
-2726.153267421796
 11
11537.987277136661
 21
-2746.153267421796
  0
LINE
  5
2AB
100
AcDbEntity
  8
1
  6
CONTINUOUS
 62
           2
100
AcDbLine
 10
11604.28727713666
 20
-2726.153267421796
 11
11604.287277136669
 21
-2746.153267421796
  0
LINE
  5
2AA
100
AcDbEntity
  8
1
  6
CONTINUOUS
 62
           2
100
AcDbLine
 10
11537.987277136661
 20
-2726.153267421796
 11
11604.28727713666
 21
-2726.153267421796
  0
LINE
  5
2A9
100
AcDbEntity
  8
1
  6
CONTINUOUS
 62
           7
100
AcDbLine
 10
11092.13727713666
 20
-3164.153267421795
 11
11092.13727713666
 21
-3246.153267421795
  0
LINE
  5
2A8
100
AcDbEntity
  8
1
  6
CONTINUOUS
 62
           7
100
AcDbLine
 10
11092.13727713666
 20
-3246.153267421795
 11
11113.972099110169
 21
-3246.153267421795
  0
LINE
  5
2A7
100
AcDbEntity
  8
1
  6
CONTINUOUS
 62
           7
100
AcDbLine
 10
11092.13727713666
 20
-3164.153267421795
 11
11113.972099110169
 21
-3164.153267421795
  0
LINE
  5
2A6
100
AcDbEntity
  8
1
  6
CONTINUOUS
 62
           7
100
AcDbLine
 10
12028.302455163161
 20
-3164.153267421795
 11
12050.13727713666
 21
-3164.153267421795
  0
LINE
  5
2A5
100
AcDbEntity
  8
1
  6
CONTINUOUS
 62
           7
100
AcDbLine
 10
12028.302455163161
 20
-3246.153267421795
 11
12050.13727713666
 21
-3246.153267421795
  0
LINE
  5
2A4
100
AcDbEntity
  8
1
  6
CONTINUOUS
 62
           7
100
AcDbLine
 10
12050.13727713666
 20
-3246.153267421795
 11
12050.13727713666
 21
-3164.153267421795
  0
LINE
  5
2A3
100
AcDbEntity
  8
1
  6
DOT_CENTER
 62
           2
100
AcDbLine
 10
11210.58744636852
 20
-3565.703098189941
 11
11931.468259631711
 21
-2844.822284926748
  0
LINE
  5
2A2
100
AcDbEntity
  8
1
  6
DOT_CENTER
 62
           2
100
AcDbLine
 10
11928.533227172569
 20
-3562.549217457697
 11
11227.15764448245
 21
-2861.173634767581
  0
LINE
  5
2A1
100
AcDbEntity
  8
1
  6
DOT_CENTER
 62
           2
100
AcDbLine
 10
13683.28789609643
 20
-1727.009568907785
 11
13845.82289728133
 21
-1727.009568907785
  0
LINE
  5
2A0
100
AcDbEntity
  8
1
  6
CONTINUOUS
 62
           2
100
AcDbLine
 10
10999.599021014599
 20
-1108.010842049368
 11
11011.099021014599
 21
-1108.010842049368
  0
LINE
  5
29F
100
AcDbEntity
  8
1
  6
CONTINUOUS
 62
           2
100
AcDbLine
 10
11011.099021014599
 20
-1108.010842049368
 11
11011.099021014599
 21
-1116.509568907785
  0
LINE
  5
29E
100
AcDbEntity
  8
1
  6
CONTINUOUS
 62
           2
100
AcDbLine
 10
11022.597747873009
 20
-1119.509568907785
 11
11014.099021014599
 21
-1119.509568907785
  0
LINE
  5
29D
100
AcDbEntity
  8
1
  6
CONTINUOUS
 62
           2
100
AcDbLine
 10
10988.099021014599
 20
-1108.010842049368
 11
10999.599021014599
 21
-1108.010842049368
  0
LINE
  5
29C
100
AcDbEntity
  8
1
  6
CONTINUOUS
 62
           2
100
AcDbLine
 10
11022.597747873009
 20
-1119.509568907785
 11
11022.597747873009
 21
-1131.009568907785
  0
LINE
  5
29B
100
AcDbEntity
  8
1
  6
CONTINUOUS
 62
           2
100
AcDbLine
 10
10988.099021014599
 20
-1108.010842049368
 11
10988.099021014599
 21
-1131.009568907785
  0
LINE
  5
29A
100
AcDbEntity
  8
1
  6
CONTINUOUS
 62
           2
100
AcDbLine
 10
10988.099021014599
 20
-1131.009568907785
 11
10988.099021014599
 21
-1154.008295766202
  0
LINE
  5
299
100
AcDbEntity
  8
1
  6
CONTINUOUS
 62
           2
100
AcDbLine
 10
11022.597747873009
 20
-1131.009568907785
 11
11022.597747873009
 21
-1142.509568907785
  0
LINE
  5
298
100
AcDbEntity
  8
1
  6
CONTINUOUS
 62
           2
100
AcDbLine
 10
10999.599021014599
 20
-1154.008295766202
 11
10988.099021014599
 21
-1154.008295766202
  0
LINE
  5
297
100
AcDbEntity
  8
1
  6
CONTINUOUS
 62
           2
100
AcDbLine
 10
11014.099021014599
 20
-1142.509568907785
 11
11022.597747873009
 21
-1142.509568907785
  0
LINE
  5
296
100
AcDbEntity
  8
1
  6
CONTINUOUS
 62
           2
100
AcDbLine
 10
11011.099021014599
 20
-1145.509568907785
 11
11011.099021014599
 21
-1154.008295766202
  0
LINE
  5
295
100
AcDbEntity
  8
1
  6
CONTINUOUS
 62
           2
100
AcDbLine
 10
11011.099021014599
 20
-1154.008295766202
 11
10999.599021014599
 21
-1154.008295766202
  0
LINE
  5
294
100
AcDbEntity
  8
1
  6
CONTINUOUS
 62
           2
100
AcDbLine
 10
11038.83557004652
 20
-1143.133924560766
 11
11037.89774787301
 21
-1141.509568907785
  0
LINE
  5
293
100
AcDbEntity
  8
1
  6
CONTINUOUS
 62
           2
100
AcDbLine
 10
11037.89774787301
 20
-1120.509568907785
 11
11038.83557004652
 21
-1118.885213254804
  0
LINE
  5
292
100
AcDbEntity
  8
1
  6
CONTINUOUS
 62
           2
100
AcDbLine
 10
11037.89774787301
 20
-1141.509568907785
 11
11037.89774787301
 21
-1120.509568907785
  0
LINE
  5
291
100
AcDbEntity
  8
1
  6
CONTINUOUS
 62
           2
100
AcDbLine
 10
11038.83557004652
 20
-1137.071746734275
 11
11044.997747873011
 21
-1137.071746734275
  0
LINE
  5
290
100
AcDbEntity
  8
1
  6
CONTINUOUS
 62
           2
100
AcDbLine
 10
11038.83557004652
 20
-1124.947391081294
 11
11044.997747873011
 21
-1124.947391081294
  0
LINE
  5
28F
100
AcDbEntity
  8
1
  6
CONTINUOUS
 62
           2
100
AcDbLine
 10
11081.89774787301
 20
-1141.509568907785
 11
11080.959925699501
 21
-1143.133924560766
  0
LINE
  5
28E
100
AcDbEntity
  8
1
  6
CONTINUOUS
 62
           2
100
AcDbLine
 10
11080.959925699501
 20
-1118.885213254804
 11
11081.89774787301
 21
-1120.509568907785
  0
LINE
  5
28D
100
AcDbEntity
  8
1
  6
CONTINUOUS
 62
           2
100
AcDbLine
 10
11080.959925699501
 20
-1143.133924560766
 11
11074.535570046521
 21
-1143.133924560766
  0
LINE
  5
28C
100
AcDbEntity
  8
1
  6
CONTINUOUS
 62
           2
100
AcDbLine
 10
11081.89774787301
 20
-1120.509568907785
 11
11081.89774787301
 21
-1141.509568907785
  0
LINE
  5
28B
100
AcDbEntity
  8
1
  6
CONTINUOUS
 62
           2
100
AcDbLine
 10
11080.959925699501
 20
-1118.885213254804
 11
11074.535570046521
 21
-1118.885213254804
  0
LINE
  5
28A
100
AcDbEntity
  8
1
  6
CONTINUOUS
 62
           2
100
AcDbLine
 10
11079.89774787301
 20
-1126.659568907783
 11
11070.620504048549
 21
-1126.659568907783
  0
LINE
  5
289
100
AcDbEntity
  8
1
  6
CONTINUOUS
 62
           2
100
AcDbLine
 10
11079.89774787301
 20
-1126.659568907783
 11
11079.89774787301
 21
-1135.359568907783
  0
LINE
  5
288
100
AcDbEntity
  8
1
  6
CONTINUOUS
 62
           2
100
AcDbLine
 10
11079.89774787301
 20
-1135.359568907783
 11
11070.620504048549
 21
-1135.359568907783
  0
LINE
  5
287
100
AcDbEntity
  8
1
  6
CONTINUOUS
 62
           2
100
AcDbLine
 10
11039.89774787301
 20
-1126.659568907783
 11
11049.17499169748
 21
-1126.659568907783
  0
LINE
  5
286
100
AcDbEntity
  8
1
  6
CONTINUOUS
 62
           2
100
AcDbLine
 10
11039.89774787301
 20
-1126.659568907783
 11
11039.89774787301
 21
-1135.359568907783
  0
LINE
  5
285
100
AcDbEntity
  8
1
  6
CONTINUOUS
 62
           2
100
AcDbLine
 10
11039.89774787301
 20
-1135.359568907783
 11
11049.17499169748
 21
-1135.359568907783
  0
LINE
  5
284
100
AcDbEntity
  8
1
  6
DOT_CENTER
 62
           2
100
AcDbLine
 10
11059.89774787301
 20
-1115.613174557284
 11
11059.89774787301
 21
-1146.362020641484
  0
LINE
  5
283
100
AcDbEntity
  8
1
  6
CONTINUOUS
 62
           2
100
AcDbLine
 10
11059.89774787301
 20
-1122.009568907785
 11
11059.89774787301
 21
-1140.009568907785
  0
LINE
  5
282
100
AcDbEntity
  8
1
  6
CONTINUOUS
 62
           2
100
AcDbLine
 10
11054.89774787301
 20
-1128.122817561833
 11
11054.89774787301
 21
-1133.896320253733
  0
LINE
  5
281
100
AcDbEntity
  8
1
  6
CONTINUOUS
 62
           2
100
AcDbLine
 10
11054.89774787301
 20
-1133.896320253733
 11
11059.89774787301
 21
-1136.783071599685
  0
LINE
  5
280
100
AcDbEntity
  8
1
  6
CONTINUOUS
 62
           2
100
AcDbLine
 10
11059.89774787301
 20
-1136.783071599685
 11
11064.89774787301
 21
-1133.896320253733
  0
LINE
  5
27F
100
AcDbEntity
  8
1
  6
CONTINUOUS
 62
           2
100
AcDbLine
 10
11064.89774787301
 20
-1133.896320253733
 11
11064.89774787301
 21
-1128.122817561833
  0
LINE
  5
27E
100
AcDbEntity
  8
1
  6
CONTINUOUS
 62
           2
100
AcDbLine
 10
11064.89774787301
 20
-1128.122817561833
 11
11059.89774787301
 21
-1125.236066215885
  0
LINE
  5
27D
100
AcDbEntity
  8
1
  6
CONTINUOUS
 62
           2
100
AcDbLine
 10
11059.89774787301
 20
-1125.236066215885
 11
11054.89774787301
 21
-1128.122817561833
  0
LINE
  5
27C
100
AcDbEntity
  8
1
  6
CONTINUOUS
 62
           2
100
AcDbLine
 10
11059.89774787301
 20
-1124.759568907785
 11
11054.181604396181
 21
-1124.759568907785
  0
LINE
  5
27B
100
AcDbEntity
  8
1
  6
CONTINUOUS
 62
           2
100
AcDbLine
 10
11066.14774787301
 20
-1131.009568907785
 11
11068.39774787301
 21
-1131.009568907785
  0
LINE
  5
27A
100
AcDbEntity
  8
1
  6
CONTINUOUS
 62
           2
100
AcDbLine
 10
11057.66167989552
 20
-1129.009568907785
 11
11062.13381585052
 21
-1129.009568907785
  0
LINE
  5
279
100
AcDbEntity
  8
1
  6
CONTINUOUS
 62
           2
100
AcDbLine
 10
11057.66167989552
 20
-1133.009568907785
 11
11062.13381585052
 21
-1133.009568907785
  0
LINE
  5
278
100
AcDbEntity
  8
1
  6
CONTINUOUS
 62
           2
100
AcDbLine
 10
11073.597747873009
 20
-1120.509568907785
 11
11074.535570046521
 21
-1118.885213254804
  0
LINE
  5
277
100
AcDbEntity
  8
1
  6
CONTINUOUS
 62
           2
100
AcDbLine
 10
11074.535570046521
 20
-1143.133924560766
 11
11073.597747873009
 21
-1141.509568907785
  0
LINE
  5
276
100
AcDbEntity
  8
1
  6
CONTINUOUS
 62
           2
100
AcDbLine
 10
11045.93557004652
 20
-1141.509568907785
 11
11044.997747873011
 21
-1143.133924560766
  0
LINE
  5
275
100
AcDbEntity
  8
1
  6
CONTINUOUS
 62
           2
100
AcDbLine
 10
11044.997747873011
 20
-1118.885213254804
 11
11045.93557004652
 21
-1120.509568907785
  0
LINE
  5
274
100
AcDbEntity
  8
1
  6
CONTINUOUS
 62
           2
100
AcDbLine
 10
11073.597747873009
 20
-1120.509568907785
 11
11045.93557004652
 21
-1120.509568907785
  0
LINE
  5
273
100
AcDbEntity
  8
1
  6
CONTINUOUS
 62
           2
100
AcDbLine
 10
11044.997747873011
 20
-1118.885213254804
 11
11038.83557004652
 21
-1118.885213254804
  0
LINE
  5
272
100
AcDbEntity
  8
1
  6
CONTINUOUS
 62
           2
100
AcDbLine
 10
11073.597747873009
 20
-1141.509568907785
 11
11045.93557004652
 21
-1141.509568907785
  0
LINE
  5
271
100
AcDbEntity
  8
1
  6
CONTINUOUS
 62
           2
100
AcDbLine
 10
11044.997747873011
 20
-1143.133924560766
 11
11038.83557004652
 21
-1143.133924560766
  0
LINE
  5
270
100
AcDbEntity
  8
1
  6
CONTINUOUS
 62
           2
100
AcDbLine
 10
11074.535570046521
 20
-1137.071746734275
 11
11080.959925699501
 21
-1137.071746734275
  0
LINE
  5
26F
100
AcDbEntity
  8
1
  6
CONTINUOUS
 62
           2
100
AcDbLine
 10
11074.535570046521
 20
-1124.947391081294
 11
11080.959925699501
 21
-1124.947391081294
  0
LINE
  5
26E
100
AcDbEntity
  8
1
  6
CONTINUOUS
 62
           2
100
AcDbLine
 10
11068.39774787301
 20
-1125.674353011384
 11
11068.39774787301
 21
-1122.509568907785
  0
LINE
  5
26D
100
AcDbEntity
  8
1
  6
CONTINUOUS
 62
           2
100
AcDbLine
 10
11068.39774787301
 20
-1122.509568907785
 11
11070.89774787301
 21
-1122.509568907785
  0
LINE
  5
26C
100
AcDbEntity
  8
1
  6
CONTINUOUS
 62
           2
100
AcDbLine
 10
11045.14910639534
 20
-1136.571746734275
 11
11051.584076975319
 21
-1136.571746734275
  0
LINE
  5
26B
100
AcDbEntity
  8
1
  6
CONTINUOUS
 62
           2
100
AcDbLine
 10
11045.14910639534
 20
-1125.447391081294
 11
11051.584076975319
 21
-1125.447391081294
  0
LINE
  5
26A
100
AcDbEntity
  8
1
  6
CONTINUOUS
 62
           2
100
AcDbLine
 10
11074.384211524201
 20
-1136.571746734275
 11
11068.1460218542
 21
-1136.571746734275
  0
LINE
  5
269
100
AcDbEntity
  8
1
  6
CONTINUOUS
 62
           2
100
AcDbLine
 10
11074.384211524201
 20
-1125.447391081294
 11
11072.44324046869
 21
-1125.447391081294
  0
LINE
  5
268
100
AcDbEntity
  8
1
  6
CONTINUOUS
 62
           2
100
AcDbLine
 10
11097.13727713666
 20
-1139.340568907785
 11
11090.737277136661
 21
-1139.659568907785
  0
LINE
  5
267
100
AcDbEntity
  8
1
  6
CONTINUOUS
 62
           2
100
AcDbLine
 10
11081.83727713667
 20
-1122.678568907785
 11
11088.237277136661
 21
-1122.359568907785
  0
LINE
  5
266
100
AcDbEntity
  8
1
  6
CONTINUOUS
 62
           2
100
AcDbLine
 10
11088.237277136661
 20
-1139.659568907785
 11
11081.83727713667
 21
-1139.340568907785
  0
LINE
  5
265
100
AcDbEntity
  8
1
  6
CONTINUOUS
 62
           2
100
AcDbLine
 10
11090.737277136661
 20
-1122.359568907785
 11
11097.13727713666
 21
-1122.678568907785
  0
LINE
  5
264
100
AcDbEntity
  8
1
  6
CONTINUOUS
 62
           2
100
AcDbLine
 10
11090.737277136661
 20
-1122.359568907785
 11
11088.237277136661
 21
-1122.359568907785
  0
LINE
  5
263
100
AcDbEntity
  8
1
  6
CONTINUOUS
 62
           2
100
AcDbLine
 10
11088.237277136661
 20
-1139.659568907785
 11
11090.737277136661
 21
-1139.659568907785
  0
LINE
  5
262
100
AcDbEntity
  8
1
  6
CONTINUOUS
 62
           2
100
AcDbLine
 10
11090.737277136661
 20
-1139.659568907785
 11
11090.737277136661
 21
-1122.359568907785
  0
LINE
  5
261
100
AcDbEntity
  8
1
  6
CONTINUOUS
 62
           2
100
AcDbLine
 10
11088.237277136661
 20
-1122.359568907785
 11
11088.237277136661
 21
-1139.659568907785
  0
LINE
  5
260
100
AcDbEntity
  8
1
  6
CONTINUOUS
 62
           2
100
AcDbLine
 10
11028.997747873011
 20
-1122.359568907785
 11
11028.997747873011
 21
-1139.659568907785
  0
LINE
  5
25F
100
AcDbEntity
  8
1
  6
CONTINUOUS
 62
           2
100
AcDbLine
 10
11031.497747873011
 20
-1139.659568907785
 11
11031.497747873011
 21
-1122.359568907785
  0
LINE
  5
25E
100
AcDbEntity
  8
1
  6
CONTINUOUS
 62
           2
100
AcDbLine
 10
11028.997747873011
 20
-1139.659568907785
 11
11031.497747873011
 21
-1139.659568907785
  0
LINE
  5
25D
100
AcDbEntity
  8
1
  6
CONTINUOUS
 62
           2
100
AcDbLine
 10
11031.497747873011
 20
-1122.359568907785
 11
11028.997747873011
 21
-1122.359568907785
  0
LINE
  5
25C
100
AcDbEntity
  8
1
  6
CONTINUOUS
 62
           2
100
AcDbLine
 10
11031.497747873011
 20
-1122.359568907785
 11
11037.89774787301
 21
-1122.678568907785
  0
LINE
  5
25B
100
AcDbEntity
  8
1
  6
CONTINUOUS
 62
           2
100
AcDbLine
 10
11028.997747873011
 20
-1139.659568907785
 11
11022.597747873009
 21
-1139.340568907785
  0
LINE
  5
25A
100
AcDbEntity
  8
1
  6
CONTINUOUS
 62
           2
100
AcDbLine
 10
11022.597747873009
 20
-1122.678568907785
 11
11028.997747873011
 21
-1122.359568907785
  0
LINE
  5
259
100
AcDbEntity
  8
1
  6
CONTINUOUS
 62
           2
100
AcDbLine
 10
11037.89774787301
 20
-1139.340568907785
 11
11031.497747873011
 21
-1139.659568907785
  0
LINE
  5
258
100
AcDbEntity
  8
1
  6
CONTINUOUS
 62
           2
100
AcDbLine
 10
11097.13727713666
 20
-1120.359568907785
 11
11097.13727713666
 21
-1141.659568907785
  0
LINE
  5
257
100
AcDbEntity
  8
1
  6
CONTINUOUS
 62
           2
100
AcDbLine
 10
11112.13727713666
 20
-1141.659568907785
 11
11097.13727713666
 21
-1141.659568907785
  0
LINE
  5
256
100
AcDbEntity
  8
1
  6
CONTINUOUS
 62
           2
100
AcDbLine
 10
11112.13727713666
 20
-1120.359568907785
 11
11097.13727713666
 21
-1120.359568907785
  0
LINE
  5
255
100
AcDbEntity
  8
1
  6
CONTINUOUS
 62
           7
100
AcDbLine
 10
14227.623724891049
 20
-1806.009568907785
 11
14227.623724891049
 21
-1927.009568907785
  0
LINE
  5
254
100
AcDbEntity
  8
1
  6
CONTINUOUS
 62
           7
100
AcDbLine
 10
13762.373724891049
 20
-396.192356463913
 11
13757.27318140303
 21
-396.749570483611
  0
LINE
  5
253
100
AcDbEntity
  8
1
  6
CONTINUOUS
 62
           7
100
AcDbLine
 10
13762.373724891049
 20
-354.259568907785
 11
13762.373724891049
 21
-405.606460687949
  0
LINE
  5
252
100
AcDbEntity
  8
1
  6
CONTINUOUS
 62
           7
100
AcDbLine
 10
13774.873724891049
 20
-354.259568907785
 11
13774.873724891049
 21
-405.606460687949
  0
LINE
  5
251
100
AcDbEntity
  8
1
  6
CONTINUOUS
 62
           7
100
AcDbLine
 10
13309.623724891049
 20
-1948.081237804944
 11
13309.623724891049
 21
-1927.009568907785
  0
LINE
  5
250
100
AcDbEntity
  8
1
  6
CONTINUOUS
 62
           7
100
AcDbLine
 10
14227.623724891049
 20
-1927.009568907785
 11
14227.623724891049
 21
-1948.081237804944
  0
LINE
  5
24F
100
AcDbEntity
  8
1
  6
CONTINUOUS
 62
           7
100
AcDbLine
 10
14227.623724891049
 20
-1927.009568907785
 11
13309.623724891049
 21
-1927.009568907785
  0
LINE
  5
24E
100
AcDbEntity
  8
1
  6
CONTINUOUS
 62
           7
100
AcDbLine
 10
13309.623724891049
 20
-617.009568907784
 11
14227.623724891049
 21
-617.009568907784
  0
LINE
  5
24D
100
AcDbEntity
  8
1
  6
CONTINUOUS
 62
           7
100
AcDbLine
 10
14227.623724891049
 20
-595.937900010625
 11
14227.623724891049
 21
-617.009568907784
  0
LINE
  5
24C
100
AcDbEntity
  8
1
  6
CONTINUOUS
 62
           7
100
AcDbLine
 10
13309.623724891049
 20
-617.009568907784
 11
13309.623724891049
 21
-595.937900010625
  0
LINE
  5
24B
100
AcDbEntity
  8
1
  6
CONTINUOUS
 62
           7
100
AcDbLine
 10
14227.623724891049
 20
-617.009568907784
 11
14227.623724891049
 21
-1199.526522491694
  0
LINE
  5
24A
100
AcDbEntity
  8
1
  6
CONTINUOUS
 62
           7
100
AcDbLine
 10
13309.623724891049
 20
-617.009568907784
 11
13309.623724891049
 21
-1227.009568907785
  0
LINE
  5
249
100
AcDbEntity
  8
1
  6
CONTINUOUS
 62
           7
100
AcDbLine
 10
13318.623724891049
 20
-2425.009568907785
 11
14218.623724891049
 21
-2425.009568907785
  0
LINE
  5
248
100
AcDbEntity
  8
1
  6
CONTINUOUS
 62
           7
100
AcDbLine
 10
14218.623724891049
 20
-2425.009568907785
 11
14218.623724891049
 21
-2431.009568907785
  0
LINE
  5
247
100
AcDbEntity
  8
1
  6
CONTINUOUS
 62
           7
100
AcDbLine
 10
14218.623724891049
 20
-2431.009568907785
 11
13318.623724891049
 21
-2431.009568907785
  0
LINE
  5
246
100
AcDbEntity
  8
1
  6
CONTINUOUS
 62
           7
100
AcDbLine
 10
13318.623724891049
 20
-2431.009568907785
 11
13318.623724891049
 21
-2425.009568907785
  0
LINE
  5
245
100
AcDbEntity
  8
1
  6
CONTINUOUS
 62
           7
100
AcDbLine
 10
14093.623724891049
 20
-2070.92417003089
 11
13443.623724891049
 21
-2070.92417003089
  0
LINE
  5
244
100
AcDbEntity
  8
1
  6
CONTINUOUS
 62
           7
100
AcDbLine
 10
13443.623724891049
 20
-2070.92417003089
 11
13443.623724891049
 21
-2131.009568907785
  0
LINE
  5
243
100
AcDbEntity
  8
1
  6
CONTINUOUS
 62
           7
100
AcDbLine
 10
13868.623724891049
 20
-2231.009568907785
 11
13868.623724891049
 21
-2425.009568907785
  0
LINE
  5
242
100
AcDbEntity
  8
1
  6
CONTINUOUS
 62
           7
100
AcDbLine
 10
13668.623724891049
 20
-2231.009568907785
 11
13668.623724891049
 21
-2425.009568907785
  0
LINE
  5
241
100
AcDbEntity
  8
1
  6
CONTINUOUS
 62
           2
100
AcDbLine
 10
13755.42372489105
 20
-2141.009568907785
 11
13781.82372489105
 21
-2141.009568907785
  0
LINE
  5
240
100
AcDbEntity
  8
1
  6
CONTINUOUS
 62
           2
100
AcDbLine
 10
13781.82372489105
 20
-2141.009568907785
 11
13781.82372489105
 21
-2131.884597281055
  0
LINE
  5
23F
100
AcDbEntity
  8
1
  6
CONTINUOUS
 62
           2
100
AcDbLine
 10
13755.42372489105
 20
-2141.009568907785
 11
13755.42372489105
 21
-2131.884597281055
  0
LINE
  5
23E
100
AcDbEntity
  8
1
  6
DOTTED
 62
           2
100
AcDbLine
 10
13781.82372489105
 20
-2131.884597281055
 11
13781.82372489105
 21
-2130.913722270504
  0
LINE
  5
23D
100
AcDbEntity
  8
1
  6
DOTTED
 62
           2
100
AcDbLine
 10
13755.42372489105
 20
-2131.884597281055
 11
13755.42372489105
 21
-2130.913722270504
  0
LINE
  5
23C
100
AcDbEntity
  8
1
  6
CONTINUOUS
 62
           7
100
AcDbLine
 10
13459.39080296972
 20
-2201.604642971431
 11
13459.39080296972
 21
-2425.009568907785
  0
LINE
  5
23B
100
AcDbEntity
  8
1
  6
CONTINUOUS
 62
           7
100
AcDbLine
 10
14077.85664681237
 20
-2425.009568907785
 11
14077.85664681237
 21
-2201.604642971431
  0
LINE
  5
23A
100
AcDbEntity
  8
1
  6
CONTINUOUS
 62
           7
100
AcDbLine
 10
14093.623724891049
 20
-2131.009568907785
 11
14093.623724891049
 21
-2070.92417003089
  0
LINE
  5
239
100
AcDbEntity
  8
1
  6
CONTINUOUS
 62
           7
100
AcDbLine
 10
14227.623724891049
 20
-1172.009568907785
 11
14227.623724891049
 21
-1806.009568907785
  0
LINE
  5
238
100
AcDbEntity
  8
1
  6
DOT_CENTER
 62
           2
100
AcDbLine
 10
13169.412167173859
 20
-1131.009568907785
 11
13915.50158646268
 21
-1131.009568907785
  0
LINE
  5
237
100
AcDbEntity
  8
1
  6
DOT_CENTER
 62
           2
100
AcDbLine
 10
13768.623724891049
 20
-287.816855480448
 11
13768.623724891049
 21
-2484.06562207045
  0
LINE
  5
236
100
AcDbEntity
  8
1
  6
CONTINUOUS
 62
           7
100
AcDbLine
 10
13753.623724891049
 20
-408.009568907785
 11
13753.836911201241
 21
-406.162377038866
  0
LINE
  5
235
100
AcDbEntity
  8
1
  6
CONTINUOUS
 62
           7
100
AcDbLine
 10
13779.974268379059
 20
-396.749570483611
 11
13774.873724891049
 21
-396.192356463913
  0
LINE
  5
234
100
AcDbEntity
  8
1
  6
CONTINUOUS
 62
           7
100
AcDbLine
 10
13783.410538580851
 20
-406.162377038866
 11
13783.623724891049
 21
-408.009568907785
  0
LINE
  5
233
100
AcDbEntity
  8
1
  6
CONTINUOUS
 62
           7
100
AcDbLine
 10
13753.623724891049
 20
-408.009568907785
 11
13753.623724891049
 21
-413.009568907785
  0
LINE
  5
232
100
AcDbEntity
  8
1
  6
CONTINUOUS
 62
           7
100
AcDbLine
 10
13783.623724891049
 20
-408.009568907785
 11
13783.623724891049
 21
-413.009568907785
  0
LINE
  5
231
100
AcDbEntity
  8
1
  6
CONTINUOUS
 62
           7
100
AcDbLine
 10
13753.77256277038
 20
-406.719935815267
 11
13754.61876319363
 21
-399.387877110822
  0
LINE
  5
230
100
AcDbEntity
  8
1
  6
CONTINUOUS
 62
           7
100
AcDbLine
 10
13782.628686588459
 20
-399.387877110822
 11
13783.410538580851
 21
-406.162377038866
  0
LINE
  5
22F
100
AcDbEntity
  8
1
  6
CONTINUOUS
 62
           7
100
AcDbLine
 10
13753.623724891049
 20
-408.009568907785
 11
13783.623724891049
 21
-408.009568907785
  0
LINE
  5
22E
100
AcDbEntity
  8
1
  6
CONTINUOUS
 62
           7
100
AcDbLine
 10
11556.13727713666
 20
-408.009568907785
 11
11586.13727713666
 21
-408.009568907785
  0
LINE
  5
22D
100
AcDbEntity
  8
1
  6
CONTINUOUS
 62
           7
100
AcDbLine
 10
11585.14223883408
 20
-399.387877110822
 11
11585.924090826469
 21
-406.162377038866
  0
LINE
  5
22C
100
AcDbEntity
  8
1
  6
CONTINUOUS
 62
           7
100
AcDbLine
 10
11556.286115016001
 20
-406.719935815267
 11
11557.13231543925
 21
-399.387877110822
  0
LINE
  5
22B
100
AcDbEntity
  8
1
  6
CONTINUOUS
 62
           7
100
AcDbLine
 10
11563.14531420871
 20
-397.009568907785
 11
11576.36885056629
 21
-397.009568907785
  0
LINE
  5
22A
100
AcDbEntity
  8
1
  6
CONTINUOUS
 62
           7
100
AcDbLine
 10
11586.13727713666
 20
-408.009568907785
 11
11586.13727713666
 21
-413.009568907785
  0
LINE
  5
229
100
AcDbEntity
  8
1
  6
CONTINUOUS
 62
           7
100
AcDbLine
 10
11556.13727713666
 20
-408.009568907785
 11
11556.13727713666
 21
-413.009568907785
  0
LINE
  5
228
100
AcDbEntity
  8
1
  6
CONTINUOUS
 62
           7
100
AcDbLine
 10
11585.924090826469
 20
-406.162377038866
 11
11586.13727713666
 21
-408.009568907785
  0
LINE
  5
227
100
AcDbEntity
  8
1
  6
CONTINUOUS
 62
           7
100
AcDbLine
 10
11582.487820624679
 20
-396.749570483611
 11
11571.13727713666
 21
-395.509568907785
  0
LINE
  5
226
100
AcDbEntity
  8
1
  6
CONTINUOUS
 62
           7
100
AcDbLine
 10
11571.13727713666
 20
-395.509568907785
 11
11559.786733648651
 21
-396.749570483611
  0
LINE
  5
225
100
AcDbEntity
  8
1
  6
CONTINUOUS
 62
           7
100
AcDbLine
 10
11556.13727713666
 20
-408.009568907785
 11
11556.350463446861
 21
-406.162377038866
  0
LINE
  5
224
100
AcDbEntity
  8
1
  6
DOT_CENTER
 62
           2
100
AcDbLine
 10
11571.13727713666
 20
-287.816855480448
 11
11571.13727713666
 21
-2554.00014068394
  0
LINE
  5
223
100
AcDbEntity
  8
1
  6
CONTINUOUS
 62
           7
100
AcDbLine
 10
12030.13727713666
 20
-1172.009568907785
 11
12030.13727713666
 21
-1927.009568907785
  0
LINE
  5
222
100
AcDbEntity
  8
1
  6
CONTINUOUS
 62
           7
100
AcDbLine
 10
12030.13727713666
 20
-1090.009568907785
 11
12050.13727713666
 21
-1090.009568907785
  0
LINE
  5
221
100
AcDbEntity
  8
1
  6
CONTINUOUS
 62
           7
100
AcDbLine
 10
12030.13727713666
 20
-1172.009568907785
 11
12050.13727713666
 21
-1172.009568907785
  0
LINE
  5
220
100
AcDbEntity
  8
1
  6
CONTINUOUS
 62
           7
100
AcDbLine
 10
12050.13727713666
 20
-1172.009568907785
 11
12050.13727713666
 21
-1090.009568907785
  0
LINE
  5
21F
100
AcDbEntity
  8
1
  6
CONTINUOUS
 62
           7
100
AcDbLine
 10
11896.13727713666
 20
-2131.009568907785
 11
11896.13727713666
 21
-2070.92417003089
  0
LINE
  5
21E
100
AcDbEntity
  8
1
  6
CONTINUOUS
 62
           7
100
AcDbLine
 10
11880.37019905799
 20
-2425.009568907785
 11
11880.37019905799
 21
-2201.604642971431
  0
LINE
  5
21D
100
AcDbEntity
  8
1
  6
CONTINUOUS
 62
           7
100
AcDbLine
 10
11261.90435521534
 20
-2201.604642971431
 11
11261.90435521534
 21
-2425.009568907785
  0
LINE
  5
21C
100
AcDbEntity
  8
1
  6
CONTINUOUS
 62
           7
100
AcDbLine
 10
11112.13727713666
 20
-1772.009568907785
 11
11112.13727713666
 21
-1927.009568907785
  0
LINE
  5
21B
100
AcDbEntity
  8
1
  6
DOT_CENTER
 62
           2
100
AcDbLine
 10
11571.13727713666
 20
-3711.595214045155
 11
11571.13727713666
 21
-2554.00014068394
  0
LINE
  5
21A
100
AcDbEntity
  8
1
  6
DOT_CENTER
 62
           2
100
AcDbLine
 10
12128.685815333511
 20
-3205.153267421796
 11
10909.140168826199
 21
-3205.153267421796
  0
LINE
  5
219
100
AcDbEntity
  8
1
  6
CONTINUOUS
 62
           7
100
AcDbLine
 10
11092.13727713666
 20
-1690.009568907785
 11
11092.13727713666
 21
-1772.009568907785
  0
LINE
  5
218
100
AcDbEntity
  8
1
  6
CONTINUOUS
 62
           7
100
AcDbLine
 10
11092.13727713666
 20
-1772.009568907785
 11
11112.13727713666
 21
-1772.009568907785
  0
LINE
  5
217
100
AcDbEntity
  8
1
  6
CONTINUOUS
 62
           7
100
AcDbLine
 10
11092.13727713666
 20
-1690.009568907785
 11
11112.13727713666
 21
-1690.009568907785
  0
LINE
  5
216
100
AcDbEntity
  8
1
  6
DOT_CENTER
 62
           2
100
AcDbLine
 10
11042.19250670425
 20
-1731.009568907785
 11
11143.59614264988
 21
-1731.009568907785
  0
LINE
  5
215
100
AcDbEntity
  8
1
  6
DOTTED
 62
           2
100
AcDbLine
 10
11557.93727713666
 20
-2131.884597281055
 11
11557.93727713666
 21
-2130.913722270504
  0
LINE
  5
214
100
AcDbEntity
  8
1
  6
DOTTED
 62
           2
100
AcDbLine
 10
11584.33727713667
 20
-2131.884597281055
 11
11584.33727713667
 21
-2130.913722270504
  0
LINE
  5
213
100
AcDbEntity
  8
1
  6
CONTINUOUS
 62
           2
100
AcDbLine
 10
11557.93727713666
 20
-2141.009568907785
 11
11557.93727713666
 21
-2131.884597281055
  0
LINE
  5
212
100
AcDbEntity
  8
1
  6
CONTINUOUS
 62
           2
100
AcDbLine
 10
11584.33727713667
 20
-2141.009568907785
 11
11584.33727713667
 21
-2131.884597281055
  0
LINE
  5
211
100
AcDbEntity
  8
1
  6
CONTINUOUS
 62
           2
100
AcDbLine
 10
11557.93727713666
 20
-2141.009568907785
 11
11584.33727713667
 21
-2141.009568907785
  0
LINE
  5
210
100
AcDbEntity
  8
1
  6
CONTINUOUS
 62
           7
100
AcDbLine
 10
11471.13727713666
 20
-2231.009568907785
 11
11471.13727713666
 21
-2425.009568907785
  0
LINE
  5
20F
100
AcDbEntity
  8
1
  6
CONTINUOUS
 62
           7
100
AcDbLine
 10
11671.13727713666
 20
-2231.009568907785
 11
11671.13727713666
 21
-2425.009568907785
  0
LINE
  5
20E
100
AcDbEntity
  8
1
  6
CONTINUOUS
 62
           7
100
AcDbLine
 10
11246.13727713666
 20
-2070.92417003089
 11
11246.13727713666
 21
-2131.009568907785
  0
LINE
  5
20D
100
AcDbEntity
  8
1
  6
CONTINUOUS
 62
           7
100
AcDbLine
 10
11896.13727713666
 20
-2070.92417003089
 11
11246.13727713666
 21
-2070.92417003089
  0
LINE
  5
20C
100
AcDbEntity
  8
1
  6
CONTINUOUS
 62
           7
100
AcDbLine
 10
11121.13727713666
 20
-2431.009568907785
 11
11121.13727713666
 21
-2425.009568907785
  0
LINE
  5
20B
100
AcDbEntity
  8
1
  6
CONTINUOUS
 62
           7
100
AcDbLine
 10
12021.13727713666
 20
-2431.009568907785
 11
11121.13727713666
 21
-2431.009568907785
  0
LINE
  5
20A
100
AcDbEntity
  8
1
  6
CONTINUOUS
 62
           7
100
AcDbLine
 10
12021.13727713666
 20
-2425.009568907785
 11
12021.13727713666
 21
-2431.009568907785
  0
LINE
  5
209
100
AcDbEntity
  8
1
  6
CONTINUOUS
 62
           7
100
AcDbLine
 10
11121.13727713666
 20
-2425.009568907785
 11
12021.13727713666
 21
-2425.009568907785
  0
LINE
  5
208
100
AcDbEntity
  8
1
  6
CONTINUOUS
 62
           7
100
AcDbLine
 10
11112.13727713666
 20
-617.009568907784
 11
11112.13727713666
 21
-1690.009568907785
  0
LINE
  5
207
100
AcDbEntity
  8
1
  6
CONTINUOUS
 62
           7
100
AcDbLine
 10
12030.13727713666
 20
-617.009568907784
 11
12030.13727713666
 21
-1090.009568907785
  0
LINE
  5
206
100
AcDbEntity
  8
1
  6
CONTINUOUS
 62
           7
100
AcDbLine
 10
11112.13727713666
 20
-617.009568907784
 11
11112.13727713666
 21
-595.937900010625
  0
LINE
  5
205
100
AcDbEntity
  8
1
  6
CONTINUOUS
 62
           7
100
AcDbLine
 10
12030.13727713666
 20
-595.937900010625
 11
12030.13727713666
 21
-617.009568907784
  0
LINE
  5
204
100
AcDbEntity
  8
1
  6
CONTINUOUS
 62
           7
100
AcDbLine
 10
11112.13727713666
 20
-617.009568907784
 11
12030.13727713666
 21
-617.009568907784
  0
LINE
  5
203
100
AcDbEntity
  8
1
  6
CONTINUOUS
 62
           7
100
AcDbLine
 10
12030.13727713666
 20
-1927.009568907785
 11
11112.13727713666
 21
-1927.009568907785
  0
LINE
  5
202
100
AcDbEntity
  8
1
  6
CONTINUOUS
 62
           7
100
AcDbLine
 10
12030.13727713666
 20
-1927.009568907785
 11
12030.13727713666
 21
-1948.081237804944
  0
LINE
  5
201
100
AcDbEntity
  8
1
  6
CONTINUOUS
 62
           7
100
AcDbLine
 10
11112.13727713666
 20
-1948.081237804944
 11
11112.13727713666
 21
-1927.009568907785
  0
LINE
  5
200
100
AcDbEntity
  8
1
  6
CONTINUOUS
 62
           2
100
AcDbLine
 10
13289.623724891049
 20
-1164.159568907785
 11
13289.623724891049
 21
-1097.859568907785
  0
LINE
  5
1FF
100
AcDbEntity
  8
1
  6
CONTINUOUS
 62
           2
100
AcDbLine
 10
13309.623724891049
 20
-1164.159568907785
 11
13289.623724891049
 21
-1164.159568907785
  0
LINE
  5
1FE
100
AcDbEntity
  8
1
  6
CONTINUOUS
 62
           2
100
AcDbLine
 10
13309.623724891049
 20
-1097.859568907785
 11
13289.623724891049
 21
-1097.859568907785
  0
LINE
  5
1FD
100
AcDbEntity
  8
1
  6
DOT_CENTER
 62
           2
100
AcDbLine
 10
13719.754124891049
 20
-1131.009568907785
 11
13817.493324891049
 21
-1131.009568907785
  0
LINE
  5
1FC
100
AcDbEntity
  8
1
  6
DOT_CENTER
 62
           2
100
AcDbLine
 10
13768.623724891049
 20
-1179.879168907785
 11
13768.623724891049
 21
-1082.139968907785
  0
LINE
  5
1FB
100
AcDbEntity
  8
1
  6
CONTINUOUS
 62
           2
100
AcDbLine
 10
11560.65977713666
 20
-2158.689568907785
 11
11560.28727713666
 21
-2151.349568907785
  0
LINE
  5
1FA
100
AcDbEntity
  8
1
  6
CONTINUOUS
 62
           2
100
AcDbLine
 10
11581.61477713667
 20
-2158.689568907785
 11
11581.987277136661
 21
-2151.349568907785
  0
LINE
  5
1F9
100
AcDbEntity
  8
1
  6
CONTINUOUS
 62
           2
100
AcDbLine
 10
11581.987277136661
 20
-2148.349568907785
 11
11581.61477713667
 21
-2141.009568907785
  0
LINE
  5
1F8
100
AcDbEntity
  8
1
  6
CONTINUOUS
 62
           2
100
AcDbLine
 10
11560.28727713666
 20
-2148.349568907785
 11
11560.65977713666
 21
-2141.009568907785
  0
LINE
  5
1F7
100
AcDbEntity
  8
1
  6
CONTINUOUS
 62
           2
100
AcDbLine
 10
11560.28727713666
 20
-2148.349568907785
 11
11560.28727713666
 21
-2151.349568907785
  0
LINE
  5
1F6
100
AcDbEntity
  8
1
  6
CONTINUOUS
 62
           2
100
AcDbLine
 10
11581.987277136661
 20
-2151.349568907785
 11
11560.28727713666
 21
-2151.349568907785
  0
LINE
  5
1F5
100
AcDbEntity
  8
1
  6
CONTINUOUS
 62
           2
100
AcDbLine
 10
11560.28727713666
 20
-2148.349568907785
 11
11581.987277136661
 21
-2148.349568907785
  0
LINE
  5
1F4
100
AcDbEntity
  8
1
  6
CONTINUOUS
 62
           2
100
AcDbLine
 10
11581.987277136661
 20
-2148.349568907785
 11
11581.987277136661
 21
-2151.349568907785
  0
LINE
  5
1F3
100
AcDbEntity
  8
1
  6
CONTINUOUS
 62
           2
100
AcDbLine
 10
11559.7710338664
 20
-2190.239568907786
 11
11581.03727713666
 21
-2190.239568907786
  0
LINE
  5
1F2
100
AcDbEntity
  8
1
  6
CONTINUOUS
 62
           2
100
AcDbLine
 10
11559.7710338664
 20
-2179.239568907786
 11
11581.03727713666
 21
-2179.239568907786
  0
LINE
  5
1F1
100
AcDbEntity
  8
1
  6
CONTINUOUS
 62
           2
100
AcDbLine
 10
11582.03727713666
 20
-2191.639568907784
 11
11581.03727713666
 21
-2190.239568907786
  0
LINE
  5
1F0
100
AcDbEntity
  8
1
  6
CONTINUOUS
 62
           2
100
AcDbLine
 10
11582.03727713666
 20
-2177.839568907784
 11
11581.03727713666
 21
-2179.239568907786
  0
LINE
  5
1EF
100
AcDbEntity
  8
1
  6
CONTINUOUS
 62
           2
100
AcDbLine
 10
11559.7710338664
 20
-2179.239568907786
 11
11559.7710338664
 21
-2190.239568907786
  0
LINE
  5
1EE
100
AcDbEntity
  8
1
  6
CONTINUOUS
 62
           2
100
AcDbLine
 10
11558.63727713666
 20
-2191.639568907784
 11
11559.7710338664
 21
-2190.239568907786
  0
LINE
  5
1ED
100
AcDbEntity
  8
1
  6
CONTINUOUS
 62
           2
100
AcDbLine
 10
11558.63727713666
 20
-2177.839568907784
 11
11559.7710338664
 21
-2179.239568907786
  0
LINE
  5
1EC
100
AcDbEntity
  8
1
  6
CONTINUOUS
 62
           2
100
AcDbLine
 10
11582.03727713666
 20
-2205.382067989573
 11
11582.03727713666
 21
-2191.189568907784
  0
LINE
  5
1EB
100
AcDbEntity
  8
1
  6
CONTINUOUS
 62
           2
100
AcDbLine
 10
11582.03727713666
 20
-2168.497069825998
 11
11582.03727713666
 21
-2180.689568907784
  0
LINE
  5
1EA
100
AcDbEntity
  8
1
  6
CONTINUOUS
 62
           2
100
AcDbLine
 10
11583.63727713666
 20
-2192.689568907785
 11
11585.237277136661
 21
-2192.689568907785
  0
LINE
  5
1E9
100
AcDbEntity
  8
1
  6
CONTINUOUS
 62
           2
100
AcDbLine
 10
11583.63727713666
 20
-2179.689568907785
 11
11585.237277136661
 21
-2179.689568907785
  0
LINE
  5
1E8
100
AcDbEntity
  8
1
  6
CONTINUOUS
 62
           2
100
AcDbLine
 10
11589.66592578531
 20
-2198.589568907784
 11
11585.237277136661
 21
-2198.589568907784
  0
LINE
  5
1E7
100
AcDbEntity
  8
1
  6
CONTINUOUS
 62
           2
100
AcDbLine
 10
11594.13727713666
 20
-2216.189568907785
 11
11589.43727713666
 21
-2197.689568907785
  0
LINE
  5
1E6
100
AcDbEntity
  8
1
  6
CONTINUOUS
 62
           2
100
AcDbLine
 10
11594.13727713666
 20
-2216.189568907785
 11
11602.13727713666
 21
-2216.189568907785
  0
LINE
  5
1E5
100
AcDbEntity
  8
1
  6
CONTINUOUS
 62
           2
100
AcDbLine
 10
11602.13727713666
 20
-2197.776199134043
 11
11602.13727713666
 21
-2216.189568907785
  0
LINE
  5
1E4
100
AcDbEntity
  8
1
  6
CONTINUOUS
 62
           2
100
AcDbLine
 10
11585.237277136661
 20
-2173.789568907786
 11
11589.66592578531
 21
-2173.789568907786
  0
LINE
  5
1E3
100
AcDbEntity
  8
1
  6
CONTINUOUS
 62
           2
100
AcDbLine
 10
11585.237277136661
 20
-2173.289568907786
 11
11589.79295281234
 21
-2173.289568907786
  0
LINE
  5
1E2
100
AcDbEntity
  8
1
  6
CONTINUOUS
 62
           2
100
AcDbLine
 10
11589.43727713666
 20
-2174.689568907785
 11
11594.13727713666
 21
-2156.189568907785
  0
LINE
  5
1E1
100
AcDbEntity
  8
1
  6
CONTINUOUS
 62
           2
100
AcDbLine
 10
11594.13727713666
 20
-2156.189568907785
 11
11602.13727713666
 21
-2156.189568907785
  0
LINE
  5
1E0
100
AcDbEntity
  8
1
  6
CONTINUOUS
 62
           2
100
AcDbLine
 10
11583.63727713666
 20
-2215.189568907784
 11
11558.63727713666
 21
-2215.189568907784
  0
LINE
  5
1DF
100
AcDbEntity
  8
1
  6
CONTINUOUS
 62
           2
100
AcDbLine
 10
11558.63727713666
 20
-2215.189568907784
 11
11558.63727713666
 21
-2158.689568907784
  0
LINE
  5
1DE
100
AcDbEntity
  8
1
  6
CONTINUOUS
 62
           2
100
AcDbLine
 10
11558.63727713666
 20
-2158.689568907784
 11
11583.63727713666
 21
-2158.689568907785
  0
LINE
  5
1DD
100
AcDbEntity
  8
1
  6
CONTINUOUS
 62
           2
100
AcDbLine
 10
11583.63727713666
 20
-2215.189568907784
 11
11583.63727713666
 21
-2158.689568907785
  0
LINE
  5
1DC
100
AcDbEntity
  8
1
  6
CONTINUOUS
 62
           2
100
AcDbLine
 10
11602.13727713666
 20
-2156.189568907785
 11
11602.13727713666
 21
-2174.602938681528
  0
LINE
  5
1DB
100
AcDbEntity
  8
1
  6
CONTINUOUS
 62
           2
100
AcDbLine
 10
11589.43727713666
 20
-2197.689568907785
 11
11589.43727713666
 21
-2174.689568907785
  0
LINE
  5
1DA
100
AcDbEntity
  8
1
  6
CONTINUOUS
 62
           2
100
AcDbLine
 10
11585.237277136661
 20
-2198.589568907784
 11
11585.237277136661
 21
-2176.189568907785
  0
LINE
  5
1D9
100
AcDbEntity
  8
1
  6
CONTINUOUS
 62
           2
100
AcDbLine
 10
11585.237277136661
 20
-2173.289568907786
 11
11585.237277136661
 21
-2176.189568907785
  0
LINE
  5
1D8
100
AcDbEntity
  8
1
  6
DOT_CENTER
 62
           2
100
AcDbLine
 10
11551.63571196036
 20
-2186.189568907785
 11
11606.44915630106
 21
-2186.189568907785
  0
LINE
  5
1D7
100
AcDbEntity
  8
1
  6
CONTINUOUS
 62
           2
100
AcDbLine
 10
11571.13727713666
 20
-2159.806023876246
 11
11571.13727713666
 21
-2167.989780605994
  0
LINE
  5
1D6
100
AcDbEntity
  8
1
  6
CONTINUOUS
 62
           2
100
AcDbLine
 10
11571.13727713666
 20
-2205.889357209577
 11
11571.13727713666
 21
-2214.073113939322
  0
LINE
  5
1D5
100
AcDbEntity
  8
1
  6
DOT_CENTER
 62
           2
100
AcDbLine
 10
11571.13727713666
 20
-2154.977045525835
 11
11571.13727713666
 21
-2218.417148730556
  0
LINE
  5
1D4
100
AcDbEntity
  8
1
  6
CONTINUOUS
 62
           2
100
AcDbLine
 10
11588.737277136661
 20
-2172.189568907784
 11
11588.737277136661
 21
-2173.289568907786
  0
LINE
  5
1D3
100
AcDbEntity
  8
1
  6
CONTINUOUS
 62
           2
100
AcDbLine
 10
11583.63727713666
 20
-2172.189568907784
 11
11588.737277136661
 21
-2172.189568907784
  0
LINE
  5
1D2
100
AcDbEntity
  8
1
  6
CONTINUOUS
 62
           2
100
AcDbLine
 10
11583.63727713666
 20
-2177.189568907784
 11
11585.237277136661
 21
-2177.189568907784
  0
LINE
  5
1D1
100
AcDbEntity
  8
1
  6
DOT_CENTER
 62
           2
100
AcDbLine
 10
13768.623724891049
 20
-2218.417148730556
 11
13768.623724891049
 21
-2154.977045525835
  0
LINE
  5
1D0
100
AcDbEntity
  8
1
  6
CONTINUOUS
 62
           2
100
AcDbLine
 10
13768.623724891049
 20
-2167.989780605994
 11
13768.623724891049
 21
-2159.806023876246
  0
LINE
  5
1CF
100
AcDbEntity
  8
1
  6
CONTINUOUS
 62
           2
100
AcDbLine
 10
13756.123724891049
 20
-2158.689568907784
 11
13781.123724891049
 21
-2158.689568907785
  0
LINE
  5
1CE
100
AcDbEntity
  8
1
  6
CONTINUOUS
 62
           2
100
AcDbLine
 10
13779.47372489105
 20
-2148.349568907785
 11
13779.47372489105
 21
-2151.349568907785
  0
LINE
  5
1CD
100
AcDbEntity
  8
1
  6
CONTINUOUS
 62
           2
100
AcDbLine
 10
13757.773724891051
 20
-2148.349568907785
 11
13779.47372489105
 21
-2148.349568907785
  0
LINE
  5
1CC
100
AcDbEntity
  8
1
  6
CONTINUOUS
 62
           2
100
AcDbLine
 10
13779.47372489105
 20
-2151.349568907785
 11
13757.773724891051
 21
-2151.349568907785
  0
LINE
  5
1CB
100
AcDbEntity
  8
1
  6
CONTINUOUS
 62
           2
100
AcDbLine
 10
13757.773724891051
 20
-2148.349568907785
 11
13757.773724891051
 21
-2151.349568907785
  0
LINE
  5
1CA
100
AcDbEntity
  8
1
  6
CONTINUOUS
 62
           2
100
AcDbLine
 10
13757.773724891051
 20
-2148.349568907785
 11
13758.14622489105
 21
-2141.009568907785
  0
LINE
  5
1C9
100
AcDbEntity
  8
1
  6
CONTINUOUS
 62
           2
100
AcDbLine
 10
13779.47372489105
 20
-2148.349568907785
 11
13779.10122489105
 21
-2141.009568907785
  0
LINE
  5
1C8
100
AcDbEntity
  8
1
  6
CONTINUOUS
 62
           2
100
AcDbLine
 10
13779.10122489105
 20
-2158.689568907785
 11
13779.47372489105
 21
-2151.349568907785
  0
LINE
  5
1C7
100
AcDbEntity
  8
1
  6
CONTINUOUS
 62
           2
100
AcDbLine
 10
13758.14622489105
 20
-2158.689568907785
 11
13757.773724891051
 21
-2151.349568907785
  0
LINE
  5
1C6
100
AcDbEntity
  8
1
  6
CONTINUOUS
 62
           2
100
AcDbLine
 10
13755.42372489105
 20
-2141.009568907785
 11
13781.82372489105
 21
-2141.009568907785
  0
LINE
  5
1C5
100
AcDbEntity
  8
1
  6
CONTINUOUS
 62
           2
100
AcDbLine
 10
13783.057481620801
 20
-2214.073113939321
 11
13781.123724891049
 21
-2215.189568907784
  0
LINE
  5
1C4
100
AcDbEntity
  8
1
  6
CONTINUOUS
 62
           2
100
AcDbLine
 10
13756.123724891049
 20
-2215.189568907784
 11
13754.18996816131
 21
-2214.073113939321
  0
LINE
  5
1C3
100
AcDbEntity
  8
1
  6
CONTINUOUS
 62
           2
100
AcDbLine
 10
13783.057481620801
 20
-2214.073113939321
 11
13783.057481620801
 21
-2206.30602387625
  0
LINE
  5
1C2
100
AcDbEntity
  8
1
  6
CONTINUOUS
 62
           2
100
AcDbLine
 10
13781.123724891049
 20
-2215.189568907784
 11
13774.373724891049
 21
-2215.189568907784
  0
LINE
  5
1C1
100
AcDbEntity
  8
1
  6
CONTINUOUS
 62
           2
100
AcDbLine
 10
13754.18996816131
 20
-2214.073113939321
 11
13754.18996816131
 21
-2206.30602387625
  0
LINE
  5
1C0
100
AcDbEntity
  8
1
  6
CONTINUOUS
 62
           2
100
AcDbLine
 10
13775.840603255931
 20
-2214.073113939321
 11
13775.840603255931
 21
-2197.002369963325
  0
LINE
  5
1BF
100
AcDbEntity
  8
1
  6
CONTINUOUS
 62
           2
100
AcDbLine
 10
13761.406846526181
 20
-2214.073113939321
 11
13761.406846526181
 21
-2197.002369963325
  0
LINE
  5
1BE
100
AcDbEntity
  8
1
  6
CONTINUOUS
 62
           2
100
AcDbLine
 10
13781.123724891049
 20
-2158.689568907785
 11
13783.057481620801
 21
-2159.806023876247
  0
LINE
  5
1BD
100
AcDbEntity
  8
1
  6
CONTINUOUS
 62
           2
100
AcDbLine
 10
13754.18996816131
 20
-2159.806023876247
 11
13756.123724891049
 21
-2158.689568907784
  0
LINE
  5
1BC
100
AcDbEntity
  8
1
  6
CONTINUOUS
 62
           2
100
AcDbLine
 10
13783.057481620801
 20
-2159.806023876247
 11
13783.057481620801
 21
-2167.573113939324
  0
LINE
  5
1BB
100
AcDbEntity
  8
1
  6
CONTINUOUS
 62
           2
100
AcDbLine
 10
13756.123724891049
 20
-2158.689568907784
 11
13774.969890213641
 21
-2158.689568907784
  0
LINE
  5
1BA
100
AcDbEntity
  8
1
  6
CONTINUOUS
 62
           2
100
AcDbLine
 10
13754.18996816131
 20
-2159.806023876247
 11
13754.18996816131
 21
-2167.573113939324
  0
LINE
  5
1B9
100
AcDbEntity
  8
1
  6
CONTINUOUS
 62
           2
100
AcDbLine
 10
13775.840603255931
 20
-2159.806023876247
 11
13775.840603255931
 21
-2175.376767852246
  0
LINE
  5
1B8
100
AcDbEntity
  8
1
  6
CONTINUOUS
 62
           2
100
AcDbLine
 10
13761.406846526181
 20
-2159.806023876247
 11
13761.406846526181
 21
-2172.244826098974
  0
LINE
  5
1B7
100
AcDbEntity
  8
1
  6
CONTINUOUS
 62
           2
100
AcDbLine
 10
13783.057481620801
 20
-2167.573113939324
 11
13781.2574816208
 21
-2168.612344423864
  0
LINE
  5
1B6
100
AcDbEntity
  8
1
  6
CONTINUOUS
 62
           2
100
AcDbLine
 10
13755.98996816131
 20
-2168.612344423861
 11
13754.18996816131
 21
-2167.573113939324
  0
LINE
  5
1B5
100
AcDbEntity
  8
1
  6
CONTINUOUS
 62
           2
100
AcDbLine
 10
13754.18996816131
 20
-2206.30602387625
 11
13755.98996816131
 21
-2205.26679339171
  0
LINE
  5
1B4
100
AcDbEntity
  8
1
  6
CONTINUOUS
 62
           2
100
AcDbLine
 10
13781.2574816208
 20
-2205.26679339171
 11
13783.057481620801
 21
-2206.30602387625
  0
LINE
  5
1B3
100
AcDbEntity
  8
1
  6
CONTINUOUS
 62
           2
100
AcDbLine
 10
13755.98996816131
 20
-2168.612344423861
 11
13755.98996816131
 21
-2177.839568907784
  0
LINE
  5
1B2
100
AcDbEntity
  8
1
  6
CONTINUOUS
 62
           2
100
AcDbLine
 10
13781.2574816208
 20
-2205.26679339171
 11
13781.2574816208
 21
-2191.639568907784
  0
LINE
  5
1B1
100
AcDbEntity
  8
1
  6
CONTINUOUS
 62
           2
100
AcDbLine
 10
13755.98996816131
 20
-2177.839568907784
 11
13757.123724891049
 21
-2179.239568907786
  0
LINE
  5
1B0
100
AcDbEntity
  8
1
  6
CONTINUOUS
 62
           2
100
AcDbLine
 10
13755.98996816131
 20
-2191.639568907784
 11
13756.53379862498
 21
-2190.968029212212
  0
LINE
  5
1AF
100
AcDbEntity
  8
1
  6
CONTINUOUS
 62
           2
100
AcDbLine
 10
13780.123724891049
 20
-2179.239568907786
 11
13781.2574816208
 21
-2177.839568907784
  0
LINE
  5
1AE
100
AcDbEntity
  8
1
  6
CONTINUOUS
 62
           2
100
AcDbLine
 10
13781.2574816208
 20
-2177.839568907784
 11
13781.2574816208
 21
-2168.612344423864
  0
LINE
  5
1AD
100
AcDbEntity
  8
1
  6
CONTINUOUS
 62
           2
100
AcDbLine
 10
13755.98996816131
 20
-2191.639568907784
 11
13755.98996816131
 21
-2205.26679339171
  0
LINE
  5
1AC
100
AcDbEntity
  8
1
  6
CONTINUOUS
 62
           2
100
AcDbLine
 10
13798.623724891049
 20
-2180.439568907785
 11
13798.623724891049
 21
-2191.939568907785
  0
LINE
  5
1AB
100
AcDbEntity
  8
1
  6
CONTINUOUS
 62
           2
100
AcDbLine
 10
13738.623724891049
 20
-2180.439568907785
 11
13738.623724891049
 21
-2191.939568907785
  0
LINE
  5
1AA
100
AcDbEntity
  8
1
  6
CONTINUOUS
 62
           2
100
AcDbLine
 10
13780.713651157121
 20
-2190.968029212215
 11
13781.2574816208
 21
-2191.639568907784
  0
LINE
  5
1A9
100
AcDbEntity
  8
1
  6
CONTINUOUS
 62
           2
100
AcDbLine
 10
13780.123724891049
 20
-2180.127391081294
 11
13780.123724891049
 21
-2179.239568907786
  0
LINE
  5
1A8
100
AcDbEntity
  8
1
  6
CONTINUOUS
 62
           2
100
AcDbLine
 10
13779.609966286551
 20
-2179.239568907786
 11
13780.123724891049
 21
-2179.239568907786
  0
LINE
  5
1A7
100
AcDbEntity
  8
1
  6
CONTINUOUS
 62
           2
100
AcDbLine
 10
13757.123724891049
 20
-2180.127391081294
 11
13757.123724891049
 21
-2179.239568907786
  0
LINE
  5
1A6
100
AcDbEntity
  8
1
  6
CONTINUOUS
 62
           2
100
AcDbLine
 10
13798.623724891049
 20
-2180.439568907785
 11
13781.46652443009
 21
-2180.439568907785
  0
LINE
  5
1A5
100
AcDbEntity
  8
1
  6
CONTINUOUS
 62
           2
100
AcDbLine
 10
13798.623724891049
 20
-2191.939568907785
 11
13781.46652443009
 21
-2191.939568907785
  0
LINE
  5
1A4
100
AcDbEntity
  8
1
  6
CONTINUOUS
 62
           2
100
AcDbLine
 10
13755.780925352001
 20
-2191.939568907785
 11
13738.623724891049
 21
-2191.939568907785
  0
LINE
  5
1A3
100
AcDbEntity
  8
1
  6
CONTINUOUS
 62
           2
100
AcDbLine
 10
13738.623724891049
 20
-2180.439568907785
 11
13755.780925352001
 21
-2180.439568907785
  0
LINE
  5
1A2
100
AcDbEntity
  8
1
  6
CONTINUOUS
 62
           2
100
AcDbLine
 10
13757.123724891049
 20
-2179.239568907786
 11
13757.638187502371
 21
-2179.239568907786
  0
LINE
  5
1A1
100
AcDbEntity
  8
1
  6
CONTINUOUS
 62
           2
100
AcDbLine
 10
13774.373724891049
 20
-2158.689568907784
 11
13781.123724891049
 21
-2158.689568907785
  0
LINE
  5
1A0
100
AcDbEntity
  8
1
  6
CONTINUOUS
 62
           2
100
AcDbLine
 10
13775.38266921166
 20
-2215.189568907785
 11
13756.123724891049
 21
-2215.189568907784
  0
LINE
  5
19F
100
AcDbEntity
  8
1
  6
CONTINUOUS
 62
           2
100
AcDbLine
 10
13765.15962327592
 20
-2192.189568907785
 11
13772.087826506189
 21
-2192.189568907785
  0
LINE
  5
19E
100
AcDbEntity
  8
1
  6
CONTINUOUS
 62
           2
100
AcDbLine
 10
13772.087826506189
 20
-2192.189568907785
 11
13775.551928121329
 21
-2186.189568907785
  0
LINE
  5
19D
100
AcDbEntity
  8
1
  6
CONTINUOUS
 62
           2
100
AcDbLine
 10
13775.551928121329
 20
-2186.189568907785
 11
13772.087826506189
 21
-2180.189568907785
  0
LINE
  5
19C
100
AcDbEntity
  8
1
  6
CONTINUOUS
 62
           2
100
AcDbLine
 10
13772.087826506189
 20
-2180.189568907785
 11
13765.15962327592
 21
-2180.189568907785
  0
LINE
  5
19B
100
AcDbEntity
  8
1
  6
CONTINUOUS
 62
           2
100
AcDbLine
 10
13765.15962327592
 20
-2180.189568907785
 11
13761.69552166078
 21
-2186.189568907785
  0
LINE
  5
19A
100
AcDbEntity
  8
1
  6
CONTINUOUS
 62
           2
100
AcDbLine
 10
13761.69552166078
 20
-2186.189568907785
 11
13765.15962327592
 21
-2192.189568907785
  0
LINE
  5
199
100
AcDbEntity
  8
1
  6
DOT_CENTER
 62
           2
100
AcDbLine
 10
13768.623724891049
 20
-2220.127771823864
 11
13768.623724891049
 21
-2152.621512049994
  0
LINE
  5
198
100
AcDbEntity
  8
1
  6
DOT_CENTER
 62
           2
100
AcDbLine
 10
13734.12281492757
 20
-2186.189568907785
 11
13803.91524713955
 21
-2186.189568907785
  0
LINE
  5
197
100
AcDbEntity
  8
1
  6
CONTINUOUS
 62
           2
100
AcDbLine
 10
13761.873724891049
 20
-2172.189568907784
 11
13762.873724891049
 21
-2172.189568907784
  0
LINE
  5
196
100
AcDbEntity
  8
1
  6
CONTINUOUS
 62
           2
100
AcDbLine
 10
13759.873724891049
 20
-2174.189568907784
 11
13759.873724891049
 21
-2176.57512664627
  0
LINE
  5
195
100
AcDbEntity
  8
1
  6
CONTINUOUS
 62
           2
100
AcDbLine
 10
13768.623724891049
 20
-2178.689568907785
 11
13760.40196502736
 21
-2178.689568907785
  0
LINE
  5
194
100
AcDbEntity
  8
1
  6
CONTINUOUS
 62
           2
100
AcDbLine
 10
13776.123724891049
 20
-2186.189568907785
 11
13779.72372489105
 21
-2186.189568907785
  0
LINE
  5
193
100
AcDbEntity
  8
1
  6
CONTINUOUS
 62
           2
100
AcDbLine
 10
13766.123724891049
 20
-2188.779935677183
 11
13766.123724891049
 21
-2183.599202138389
  0
LINE
  5
192
100
AcDbEntity
  8
1
  6
CONTINUOUS
 62
           2
100
AcDbLine
 10
13771.123724891049
 20
-2188.779935677183
 11
13771.123724891049
 21
-2183.599202138389
  0
LINE
  5
191
100
AcDbEntity
  8
1
  6
CONTINUOUS
 62
           2
100
AcDbLine
 10
10999.599021014599
 20
-1101.637242049368
 11
11008.129196014601
 21
-1101.637242049368
  0
LINE
  5
190
100
AcDbEntity
  8
1
  6
CONTINUOUS
 62
           2
100
AcDbLine
 10
10999.599021014599
 20
-1104.310842049368
 11
11007.1896460146
 21
-1104.310842049368
  0
LINE
  5
18F
100
AcDbEntity
  8
1
  6
CONTINUOUS
 62
           2
100
AcDbLine
 10
11008.129196014601
 20
-1101.637242049368
 11
11007.1896460146
 21
-1104.310842049368
  0
LINE
  5
18E
100
AcDbEntity
  8
1
  6
CONTINUOUS
 62
           2
100
AcDbLine
 10
11008.129196014601
 20
-1101.637242049368
 11
11008.249021014601
 21
-1097.802842049367
  0
LINE
  5
18D
100
AcDbEntity
  8
1
  6
CONTINUOUS
 62
           2
100
AcDbLine
 10
10991.068846014599
 20
-1101.637242049368
 11
10990.9490210146
 21
-1097.802842049368
  0
LINE
  5
18C
100
AcDbEntity
  8
1
  6
CONTINUOUS
 62
           2
100
AcDbLine
 10
10992.0083960146
 20
-1104.310842049368
 11
10991.068846014599
 21
-1101.637242049368
  0
LINE
  5
18B
100
AcDbEntity
  8
1
  6
CONTINUOUS
 62
           2
100
AcDbLine
 10
10991.268021014601
 20
-1108.010842049368
 11
10991.068846014599
 21
-1101.637242049368
  0
LINE
  5
18A
100
AcDbEntity
  8
1
  6
CONTINUOUS
 62
           2
100
AcDbLine
 10
10992.124021014601
 20
-1108.010842049368
 11
10992.0083960146
 21
-1104.310842049368
  0
LINE
  5
189
100
AcDbEntity
  8
1
  6
CONTINUOUS
 62
           2
100
AcDbLine
 10
11007.0740210146
 20
-1108.010842049368
 11
11007.1896460146
 21
-1104.310842049368
  0
LINE
  5
188
100
AcDbEntity
  8
1
  6
CONTINUOUS
 62
           2
100
AcDbLine
 10
11007.930021014599
 20
-1108.010842049368
 11
11008.129196014601
 21
-1101.637242049368
  0
LINE
  5
187
100
AcDbEntity
  8
1
  6
CONTINUOUS
 62
           2
100
AcDbLine
 10
10992.0083960146
 20
-1104.310842049368
 11
10999.599021014599
 21
-1104.310842049368
  0
LINE
  5
186
100
AcDbEntity
  8
1
  6
CONTINUOUS
 62
           2
100
AcDbLine
 10
10991.068846014599
 20
-1101.637242049368
 11
10999.599021014599
 21
-1101.637242049368
  0
LINE
  5
185
100
AcDbEntity
  8
1
  6
CONTINUOUS
 62
           2
100
AcDbLine
 10
10990.9039585146
 20
-1096.360842049368
 11
10990.9490210146
 21
-1097.802842049368
  0
LINE
  5
184
100
AcDbEntity
  8
1
  6
CONTINUOUS
 62
           2
100
AcDbLine
 10
10990.9039585146
 20
-1096.360842049368
 11
11008.2940835146
 21
-1096.360842049368
  0
LINE
  5
183
100
AcDbEntity
  8
1
  6
CONTINUOUS
 62
           2
100
AcDbLine
 10
11008.2940835146
 20
-1096.360842049368
 11
11008.249021014601
 21
-1097.802842049367
  0
LINE
  5
182
100
AcDbEntity
  8
1
  6
CONTINUOUS
 62
           7
100
AcDbLine
 10
11006.599021014599
 20
-1084.360842049368
 11
11006.599021014599
 21
-1096.360842049368
  0
LINE
  5
181
100
AcDbEntity
  8
1
  6
CONTINUOUS
 62
           7
100
AcDbLine
 10
10992.599021014599
 20
-1084.360842049368
 11
10992.599021014599
 21
-1096.360842049368
  0
LINE
  5
180
100
AcDbEntity
  8
1
  6
CONTINUOUS
 62
           7
100
AcDbLine
 10
11006.599021014599
 20
-1084.360842049368
 11
11008.599021014599
 21
-1084.360842049368
  0
LINE
  5
17F
100
AcDbEntity
  8
1
  6
CONTINUOUS
 62
           7
100
AcDbLine
 10
11008.599021014599
 20
-1082.32932164059
 11
11008.599021014599
 21
-1084.360842049368
  0
LINE
  5
17E
100
AcDbEntity
  8
1
  6
CONTINUOUS
 62
           7
100
AcDbLine
 10
10990.599021014599
 20
-1082.32932164059
 11
10990.599021014599
 21
-1084.360842049368
  0
LINE
  5
17D
100
AcDbEntity
  8
1
  6
CONTINUOUS
 62
           7
100
AcDbLine
 10
10990.59114968724
 20
-1084.360842049368
 11
10992.599021014599
 21
-1084.360842049368
  0
LINE
  5
17C
100
AcDbEntity
  8
1
  6
DOT_CENTER
 62
           2
100
AcDbLine
 10
10961.85931927602
 20
-1066.149869007274
 11
10967.79179510159
 21
-1062.72475249242
  0
LINE
  5
17B
100
AcDbEntity
  8
1
  6
DOT_CENTER
 62
           2
100
AcDbLine
 10
11031.64001291215
 20
-1062.859717346521
 11
11037.29588171109
 21
-1066.125134720094
  0
LINE
  5
17A
100
AcDbEntity
  8
1
  6
CONTINUOUS
 62
           7
100
AcDbLine
 10
11033.087394056
 20
-1066.813054693171
 11
11031.96452867209
 21
-1066.164768061505
  0
LINE
  5
179
100
AcDbEntity
  8
1
  6
CONTINUOUS
 62
           7
100
AcDbLine
 10
10963.366776382059
 20
-1062.161846787685
 11
10964.49482279851
 21
-1061.510568885489
  0
LINE
  5
178
100
AcDbEntity
  8
1
  6
CONTINUOUS
 62
           7
100
AcDbLine
 10
11035.787394056
 20
-1062.136517512734
 11
11034.661163725659
 21
-1061.486288128341
  0
LINE
  5
177
100
AcDbEntity
  8
1
  6
CONTINUOUS
 62
           7
100
AcDbLine
 10
10966.06677638206
 20
-1066.83838396812
 11
10967.20103514244
 21
-1066.183519367481
  0
LINE
  5
176
100
AcDbEntity
  8
1
  6
CONTINUOUS
 62
           7
100
AcDbLine
 10
11035.787394056
 20
-1062.136517512734
 11
11033.087394056
 21
-1066.813054693171
  0
LINE
  5
175
100
AcDbEntity
  8
1
  6
CONTINUOUS
 62
           7
100
AcDbLine
 10
10966.06677638206
 20
-1066.83838396812
 11
10963.366776382059
 21
-1062.161846787685
  0
LINE
  5
174
100
AcDbEntity
  8
1
  6
CONTINUOUS
 62
           7
100
AcDbLine
 10
11002.299021014591
 20
-1004.082295392299
 11
11002.299021014591
 21
-1005.37886865563
  0
LINE
  5
173
100
AcDbEntity
  8
1
  6
CONTINUOUS
 62
           7
100
AcDbLine
 10
10996.8990210146
 20
-1004.082295392299
 11
11002.299021014591
 21
-1004.082295392299
  0
LINE
  5
172
100
AcDbEntity
  8
1
  6
CONTINUOUS
 62
           7
100
AcDbLine
 10
10996.8990210146
 20
-1005.372707062751
 11
10996.8990210146
 21
-1004.082295392299
  0
LINE
  5
171
100
AcDbEntity
  8
1
  6
CONTINUOUS
 62
           7
100
AcDbLine
 10
10979.20503973427
 20
-1064.400692420203
 11
10975.0644192167
 21
-1068.541312937779
  0
LINE
  5
170
100
AcDbEntity
  8
1
  6
CONTINUOUS
 62
           7
100
AcDbLine
 10
11019.81902119374
 20
-1064.581659647072
 11
11023.960431910769
 21
-1068.723070364104
  0
LINE
  5
16F
100
AcDbEntity
  8
1
  6
CONTINUOUS
 62
           7
100
AcDbLine
 10
10996.23737707846
 20
-1045.679733062078
 11
10978.211374128559
 21
-1065.190323513983
  0
LINE
  5
16E
100
AcDbEntity
  8
1
  6
CONTINUOUS
 62
           7
100
AcDbLine
 10
10998.28013000188
 20
-1047.722485985507
 11
10978.415408640491
 21
-1065.394358025922
  0
LINE
  5
16D
100
AcDbEntity
  8
1
  6
DOT_CENTER
 62
           2
100
AcDbLine
 10
10953.96182757273
 20
-1044.360842049368
 11
11047.378589080339
 21
-1044.360842049368
  0
LINE
  5
16C
100
AcDbEntity
  8
1
  6
DOT_CENTER
 62
           2
100
AcDbLine
 10
10999.599021014599
 20
-998.196008376651
 11
10999.599021014599
 21
-1053.081641222963
  0
LINE
  5
16B
100
AcDbEntity
  8
1
  6
CONTINUOUS
 62
           2
100
AcDbLine
 10
10999.638238789399
 20
-1054.751838671004
 11
10999.599021014599
 21
-1056.998623484774
  0
LINE
  5
16A
100
AcDbEntity
  8
1
  6
CONTINUOUS
 62
           2
100
AcDbLine
 10
10999.599021014599
 20
-1056.998623484774
 11
10999.55980323979
 21
-1054.751838671004
  0
LINE
  5
169
100
AcDbEntity
  8
1
  6
DOT_CENTER
 62
           2
100
AcDbLine
 10
10999.599021014599
 20
-1055.328768285069
 11
10999.599021014599
 21
-1142.872946800014
  0
LINE
  5
168
100
AcDbEntity
  8
1
  6
CONTINUOUS
 62
           2
100
AcDbLine
 10
10999.599021014599
 20
-1056.998623484774
 11
10997.67285717644
 21
-1058.15597948092
  0
LINE
  5
167
100
AcDbEntity
  8
1
  6
CONTINUOUS
 62
           2
100
AcDbLine
 10
10997.633639401631
 20
-1058.088052302399
 11
10999.599021014599
 21
-1056.998623484774
  0
LINE
  5
166
100
AcDbEntity
  8
1
  6
CONTINUOUS
 62
           2
100
AcDbLine
 10
10999.599021014599
 20
-1056.998623484774
 11
11001.56440262756
 21
-1058.088052302399
  0
LINE
  5
165
100
AcDbEntity
  8
1
  6
CONTINUOUS
 62
           2
100
AcDbLine
 10
11001.52518485275
 20
-1058.15597948092
 11
10999.599021014599
 21
-1056.998623484774
  0
LINE
  5
164
100
AcDbEntity
  8
1
  6
CONTINUOUS
 62
           2
100
AcDbLine
 10
10991.268021014601
 20
-1154.008295766202
 11
10991.0602085146
 21
-1160.658295766202
  0
LINE
  5
163
100
AcDbEntity
  8
1
  6
CONTINUOUS
 62
           2
100
AcDbLine
 10
11007.930021014599
 20
-1154.008295766202
 11
11008.1378335146
 21
-1160.658295766202
  0
LINE
  5
162
100
AcDbEntity
  8
1
  6
CONTINUOUS
 62
           2
100
AcDbLine
 10
11005.599021014599
 20
-1160.658295766202
 11
11005.599021014599
 21
-1169.658295766202
  0
LINE
  5
161
100
AcDbEntity
  8
1
  6
CONTINUOUS
 62
           2
100
AcDbLine
 10
11005.599021014599
 20
-1169.658295766202
 11
10993.599021014599
 21
-1169.658295766202
  0
LINE
  5
160
100
AcDbEntity
  8
1
  6
CONTINUOUS
 62
           2
100
AcDbLine
 10
10993.599021014599
 20
-1169.658295766202
 11
10993.599021014599
 21
-1160.658295766202
  0
LINE
  5
15F
100
AcDbEntity
  8
1
  6
DOT_CENTER
 62
           2
100
AcDbLine
 10
10999.599021014599
 20
-1173.552673766689
 11
10999.599021014599
 21
-1142.872946800014
  0
LINE
  5
15E
100
AcDbEntity
  8
1
  6
CONTINUOUS
 62
           2
100
AcDbLine
 10
11008.1378335146
 20
-1160.658295766202
 11
10991.0602085146
 21
-1160.658295766202
  0
LINE
  5
15D
100
AcDbEntity
  8
1
  6
DOT_CENTER
 62
           2
100
AcDbLine
 10
10970.894154570031
 20
-1131.009568907785
 11
12111.992586529361
 21
-1131.009568907785
  0
LINE
  5
15C
100
AcDbEntity
  8
1
  6
DOT_CENTER
 62
           2
100
AcDbLine
 10
11589.27900986185
 20
-1003.789568907785
 11
11648.02740059903
 21
-1003.789568907785
  0
LINE
  5
15B
100
AcDbEntity
  8
1
  6
CONTINUOUS
 62
           2
100
AcDbLine
 10
11586.63727713666
 20
-902.289568907785
 11
11589.63727713666
 21
-904.021619715354
  0
LINE
  5
15A
100
AcDbEntity
  8
1
  6
CONTINUOUS
 62
           2
100
AcDbLine
 10
11589.63727713666
 20
-904.021619715354
 11
11589.63727713666
 21
-910.289568907785
  0
LINE
  5
159
100
AcDbEntity
  8
1
  6
CONTINUOUS
 62
           2
100
AcDbLine
 10
11589.63727713666
 20
-910.289568907785
 11
11552.63727713666
 21
-910.289568907785
  0
LINE
  5
158
100
AcDbEntity
  8
1
  6
CONTINUOUS
 62
           2
100
AcDbLine
 10
11552.63727713666
 20
-910.289568907785
 11
11552.63727713666
 21
-904.021619715354
  0
LINE
  5
157
100
AcDbEntity
  8
1
  6
CONTINUOUS
 62
           2
100
AcDbLine
 10
11552.63727713666
 20
-904.021619715354
 11
11555.63727713666
 21
-902.289568907785
  0
LINE
  5
156
100
AcDbEntity
  8
1
  6
CONTINUOUS
 62
           2
100
AcDbLine
 10
11555.63727713666
 20
-902.289568907785
 11
11586.63727713666
 21
-902.289568907785
  0
LINE
  5
155
100
AcDbEntity
  8
1
  6
CONTINUOUS
 62
           2
100
AcDbLine
 10
11586.13727713666
 20
-893.789568907785
 11
11586.13727713666
 21
-902.299867782436
  0
LINE
  5
154
100
AcDbEntity
  8
1
  6
CONTINUOUS
 62
           2
100
AcDbLine
 10
11556.13727713666
 20
-893.789568907785
 11
11556.13727713666
 21
-902.289568907785
  0
LINE
  5
153
100
AcDbEntity
  8
1
  6
CONTINUOUS
 62
           2
100
AcDbLine
 10
11580.38727713666
 20
-904.021619715354
 11
11580.38727713666
 21
-910.289568907785
  0
LINE
  5
152
100
AcDbEntity
  8
1
  6
CONTINUOUS
 62
           2
100
AcDbLine
 10
11561.88727713666
 20
-904.021619715354
 11
11561.88727713666
 21
-910.289568907785
  0
LINE
  5
151
100
AcDbEntity
  8
1
  6
CONTINUOUS
 62
           2
100
AcDbLine
 10
11591.13727713666
 20
-911.289568907785
 11
11591.13727713666
 21
-913.289568907785
  0
LINE
  5
150
100
AcDbEntity
  8
1
  6
CONTINUOUS
 62
           2
100
AcDbLine
 10
11552.13727713666
 20
-910.289568907785
 11
11590.13727713666
 21
-910.289568907785
  0
LINE
  5
14F
100
AcDbEntity
  8
1
  6
CONTINUOUS
 62
           2
100
AcDbLine
 10
11551.13727713666
 20
-911.289568907785
 11
11551.13727713666
 21
-913.289568907785
  0
LINE
  5
14E
100
AcDbEntity
  8
1
  6
CONTINUOUS
 62
           2
100
AcDbLine
 10
11597.63727713666
 20
-961.887645119138
 11
11597.63727713666
 21
-969.289568907785
  0
LINE
  5
14D
100
AcDbEntity
  8
1
  6
CONTINUOUS
 62
           2
100
AcDbLine
 10
11597.63727713666
 20
-969.289568907785
 11
11544.63727713666
 21
-969.289568907785
  0
LINE
  5
14C
100
AcDbEntity
  8
1
  6
CONTINUOUS
 62
           2
100
AcDbLine
 10
11544.63727713666
 20
-969.289568907785
 11
11544.63727713666
 21
-961.887645119138
  0
LINE
  5
14B
100
AcDbEntity
  8
1
  6
CONTINUOUS
 62
           2
100
AcDbLine
 10
11584.38727713666
 20
-961.887645119138
 11
11584.38727713666
 21
-969.289568907785
  0
LINE
  5
14A
100
AcDbEntity
  8
1
  6
CONTINUOUS
 62
           2
100
AcDbLine
 10
11557.88727713666
 20
-961.887645119138
 11
11557.88727713666
 21
-969.289568907785
  0
LINE
  5
149
100
AcDbEntity
  8
1
  6
CONTINUOUS
 62
           2
100
AcDbLine
 10
11546.13727713666
 20
-961.021619715354
 11
11546.13727713666
 21
-917.289568907785
  0
LINE
  5
148
100
AcDbEntity
  8
1
  6
CONTINUOUS
 62
           2
100
AcDbLine
 10
11596.13727713666
 20
-961.021619715354
 11
11596.13727713666
 21
-917.289568907785
  0
LINE
  5
147
100
AcDbEntity
  8
1
  6
CONTINUOUS
 62
           2
100
AcDbLine
 10
11548.13727713666
 20
-915.289568907785
 11
11549.13727713666
 21
-915.289568907785
  0
LINE
  5
146
100
AcDbEntity
  8
1
  6
CONTINUOUS
 62
           2
100
AcDbLine
 10
11594.13727713666
 20
-915.289568907785
 11
11593.13727713666
 21
-915.289568907785
  0
LINE
  5
145
100
AcDbEntity
  8
1
  6
CONTINUOUS
 62
           2
100
AcDbLine
 10
11549.13727713666
 20
-915.289568907785
 11
11551.13727713666
 21
-915.289568907785
  0
LINE
  5
144
100
AcDbEntity
  8
1
  6
CONTINUOUS
 62
           2
100
AcDbLine
 10
11591.13727713666
 20
-915.289568907785
 11
11551.13727713666
 21
-915.289568907785
  0
LINE
  5
143
100
AcDbEntity
  8
1
  6
CONTINUOUS
 62
           2
100
AcDbLine
 10
11593.13727713666
 20
-915.289568907785
 11
11591.13727713666
 21
-915.289568907785
  0
LINE
  5
142
100
AcDbEntity
  8
1
  6
CONTINUOUS
 62
           2
100
AcDbLine
 10
11593.13727713666
 20
-959.289568907785
 11
11597.63727713666
 21
-961.887645119138
  0
LINE
  5
141
100
AcDbEntity
  8
1
  6
CONTINUOUS
 62
           2
100
AcDbLine
 10
11593.13727713666
 20
-959.289568907785
 11
11549.13727713666
 21
-959.289568907785
  0
LINE
  5
140
100
AcDbEntity
  8
1
  6
CONTINUOUS
 62
           2
100
AcDbLine
 10
11549.13727713666
 20
-959.289568907785
 11
11544.63727713666
 21
-961.887645119138
  0
LINE
  5
13F
100
AcDbEntity
  8
1
  6
CONTINUOUS
 62
           2
100
AcDbLine
 10
11544.63727713666
 20
-969.289568907785
 11
11536.13727713666
 21
-969.289568907785
  0
LINE
  5
13E
100
AcDbEntity
  8
1
  6
CONTINUOUS
 62
           2
100
AcDbLine
 10
11531.13727713666
 20
-974.289568907785
 11
11531.13727713666
 21
-1027.789568907785
  0
LINE
  5
13D
100
AcDbEntity
  8
1
  6
CONTINUOUS
 62
           2
100
AcDbLine
 10
11611.13727713666
 20
-1032.789568907785
 11
11536.13727713666
 21
-1032.789568907785
  0
LINE
  5
13C
100
AcDbEntity
  8
1
  6
CONTINUOUS
 62
           2
100
AcDbLine
 10
11611.13727713666
 20
-1032.789568907785
 11
11611.13727713666
 21
-1032.289568907785
  0
LINE
  5
13B
100
AcDbEntity
  8
1
  6
CONTINUOUS
 62
           2
100
AcDbLine
 10
11612.13727713666
 20
-1031.289568907785
 11
11617.13727713666
 21
-1031.289568907785
  0
LINE
  5
13A
100
AcDbEntity
  8
1
  6
CONTINUOUS
 62
           2
100
AcDbLine
 10
11618.13727713666
 20
-1032.789568907785
 11
11618.13727713666
 21
-1032.289568907785
  0
LINE
  5
139
100
AcDbEntity
  8
1
  6
CONTINUOUS
 62
           2
100
AcDbLine
 10
11618.13727713666
 20
-1032.789568907785
 11
11623.13727713666
 21
-1032.789568907785
  0
LINE
  5
138
100
AcDbEntity
  8
1
  6
CONTINUOUS
 62
           2
100
AcDbLine
 10
11623.13727713666
 20
-1032.789568907785
 11
11623.13727713666
 21
-974.789568907785
  0
LINE
  5
137
100
AcDbEntity
  8
1
  6
CONTINUOUS
 62
           2
100
AcDbLine
 10
11623.13727713666
 20
-974.789568907785
 11
11618.13727713666
 21
-974.789568907785
  0
LINE
  5
136
100
AcDbEntity
  8
1
  6
CONTINUOUS
 62
           2
100
AcDbLine
 10
11618.13727713666
 20
-974.789568907785
 11
11618.13727713666
 21
-975.289568907785
  0
LINE
  5
135
100
AcDbEntity
  8
1
  6
CONTINUOUS
 62
           2
100
AcDbLine
 10
11612.13727713666
 20
-976.289568907785
 11
11617.13727713666
 21
-976.289568907785
  0
LINE
  5
134
100
AcDbEntity
  8
1
  6
CONTINUOUS
 62
           2
100
AcDbLine
 10
11611.13727713666
 20
-974.289568907785
 11
11611.13727713666
 21
-975.289568907785
  0
LINE
  5
133
100
AcDbEntity
  8
1
  6
CONTINUOUS
 62
           2
100
AcDbLine
 10
11597.63727713666
 20
-969.289568907785
 11
11606.13727713666
 21
-969.289568907785
  0
LINE
  5
132
100
AcDbEntity
  8
1
  6
CONTINUOUS
 62
           2
100
AcDbLine
 10
11592.13727713666
 20
-1058.789568907785
 11
11550.13727713666
 21
-1058.789568907785
  0
LINE
  5
131
100
AcDbEntity
  8
1
  6
CONTINUOUS
 62
           2
100
AcDbLine
 10
11606.13727713666
 20
-1032.789568907785
 11
11536.13727713666
 21
-1032.789568907785
  0
LINE
  5
130
100
AcDbEntity
  8
1
  6
CONTINUOUS
 62
           2
100
AcDbLine
 10
11601.63727713666
 20
-1043.789568907785
 11
11540.63727713666
 21
-1043.789568907785
  0
LINE
  5
12F
100
AcDbEntity
  8
1
  6
CONTINUOUS
 62
           2
100
AcDbLine
 10
11540.63727713666
 20
-1043.789568907785
 11
11540.63727713666
 21
-1056.480167831026
  0
LINE
  5
12E
100
AcDbEntity
  8
1
  6
CONTINUOUS
 62
           2
100
AcDbLine
 10
11603.13727713666
 20
-1043.789568907785
 11
11539.13727713666
 21
-1043.789568907785
  0
LINE
  5
12D
100
AcDbEntity
  8
1
  6
CONTINUOUS
 62
           2
100
AcDbLine
 10
11606.13727713666
 20
-1032.789568907785
 11
11536.13727713666
 21
-1032.789568907785
  0
LINE
  5
12C
100
AcDbEntity
  8
1
  6
CONTINUOUS
 62
           2
100
AcDbLine
 10
11544.63727713666
 20
-1058.789568907785
 11
11597.63727713666
 21
-1058.789568907785
  0
LINE
  5
12B
100
AcDbEntity
  8
1
  6
CONTINUOUS
 62
           2
100
AcDbLine
 10
11601.63727713666
 20
-1056.480167831026
 11
11601.63727713666
 21
-1043.789568907785
  0
LINE
  5
12A
100
AcDbEntity
  8
1
  6
CONTINUOUS
 62
           2
100
AcDbLine
 10
11601.63727713666
 20
-1056.480167831026
 11
11597.63727713666
 21
-1058.789568907785
  0
LINE
  5
129
100
AcDbEntity
  8
1
  6
CONTINUOUS
 62
           2
100
AcDbLine
 10
11540.63727713666
 20
-1056.480167831026
 11
11544.63727713666
 21
-1058.789568907785
  0
LINE
  5
128
100
AcDbEntity
  8
1
  6
CONTINUOUS
 62
           2
100
AcDbLine
 10
11586.38727713666
 20
-1056.480167831026
 11
11586.38727713666
 21
-1043.789568907785
  0
LINE
  5
127
100
AcDbEntity
  8
1
  6
CONTINUOUS
 62
           2
100
AcDbLine
 10
11555.88727713666
 20
-1056.480167831026
 11
11555.88727713666
 21
-1043.789568907785
  0
LINE
  5
126
100
AcDbEntity
  8
1
  6
CONTINUOUS
 62
           2
100
AcDbLine
 10
11618.13727713666
 20
-975.430813915756
 11
11618.13727713666
 21
-1032.789568907785
  0
LINE
  5
125
100
AcDbEntity
  8
1
  6
CONTINUOUS
 62
           2
100
AcDbLine
 10
13204.28032183086
 20
-1056.480167831026
 11
13204.28032183086
 21
-1043.789568907785
  0
LINE
  5
124
100
AcDbEntity
  8
1
  6
CONTINUOUS
 62
           2
100
AcDbLine
 10
13234.78032183086
 20
-1056.480167831026
 11
13234.78032183086
 21
-1043.789568907785
  0
LINE
  5
123
100
AcDbEntity
  8
1
  6
CONTINUOUS
 62
           2
100
AcDbLine
 10
13189.03032183086
 20
-1056.480167831026
 11
13193.03032183086
 21
-1058.789568907785
  0
LINE
  5
122
100
AcDbEntity
  8
1
  6
CONTINUOUS
 62
           2
100
AcDbLine
 10
13250.03032183086
 20
-1056.480167831026
 11
13246.03032183086
 21
-1058.789568907785
  0
LINE
  5
121
100
AcDbEntity
  8
1
  6
CONTINUOUS
 62
           2
100
AcDbLine
 10
13250.03032183086
 20
-1056.480167831026
 11
13250.03032183086
 21
-1043.789568907785
  0
LINE
  5
120
100
AcDbEntity
  8
1
  6
CONTINUOUS
 62
           2
100
AcDbLine
 10
13193.03032183086
 20
-1058.789568907785
 11
13246.03032183086
 21
-1058.789568907785
  0
LINE
  5
11F
100
AcDbEntity
  8
1
  6
CONTINUOUS
 62
           2
100
AcDbLine
 10
13254.53032183086
 20
-1032.789568907785
 11
13184.53032183086
 21
-1032.789568907785
  0
LINE
  5
11E
100
AcDbEntity
  8
1
  6
CONTINUOUS
 62
           2
100
AcDbLine
 10
13251.53032183086
 20
-1043.789568907785
 11
13187.53032183086
 21
-1043.789568907785
  0
LINE
  5
11D
100
AcDbEntity
  8
1
  6
CONTINUOUS
 62
           2
100
AcDbLine
 10
13189.03032183086
 20
-1043.789568907785
 11
13189.03032183086
 21
-1056.480167831026
  0
LINE
  5
11C
100
AcDbEntity
  8
1
  6
CONTINUOUS
 62
           2
100
AcDbLine
 10
13250.03032183086
 20
-1043.789568907785
 11
13189.03032183086
 21
-1043.789568907785
  0
LINE
  5
11B
100
AcDbEntity
  8
1
  6
CONTINUOUS
 62
           2
100
AcDbLine
 10
13254.53032183086
 20
-1032.789568907785
 11
13184.53032183086
 21
-1032.789568907785
  0
LINE
  5
11A
100
AcDbEntity
  8
1
  6
CONTINUOUS
 62
           2
100
AcDbLine
 10
13240.53032183086
 20
-1058.789568907785
 11
13198.53032183086
 21
-1058.789568907785
  0
LINE
  5
119
100
AcDbEntity
  8
1
  6
CONTINUOUS
 62
           2
100
AcDbLine
 10
13246.03032183086
 20
-969.289568907785
 11
13254.53032183086
 21
-969.289568907785
  0
LINE
  5
118
100
AcDbEntity
  8
1
  6
CONTINUOUS
 62
           2
100
AcDbLine
 10
13259.53032183086
 20
-974.289568907785
 11
13259.53032183086
 21
-1027.789568907785
  0
LINE
  5
117
100
AcDbEntity
  8
1
  6
CONTINUOUS
 62
           2
100
AcDbLine
 10
13184.53032183086
 20
-1032.789568907785
 11
13254.53032183086
 21
-1032.789568907785
  0
LINE
  5
116
100
AcDbEntity
  8
1
  6
CONTINUOUS
 62
           2
100
AcDbLine
 10
13179.53032183086
 20
-974.289568907785
 11
13179.53032183086
 21
-1027.789568907785
  0
LINE
  5
115
100
AcDbEntity
  8
1
  6
CONTINUOUS
 62
           2
100
AcDbLine
 10
13193.03032183086
 20
-969.289568907785
 11
13184.53032183086
 21
-969.289568907785
  0
LINE
  5
114
100
AcDbEntity
  8
1
  6
CONTINUOUS
 62
           2
100
AcDbLine
 10
13197.53032183086
 20
-959.289568907785
 11
13193.03032183086
 21
-961.887645119138
  0
LINE
  5
113
100
AcDbEntity
  8
1
  6
CONTINUOUS
 62
           2
100
AcDbLine
 10
13241.53032183086
 20
-959.289568907785
 11
13197.53032183086
 21
-959.289568907785
  0
LINE
  5
112
100
AcDbEntity
  8
1
  6
CONTINUOUS
 62
           2
100
AcDbLine
 10
13241.53032183086
 20
-959.289568907785
 11
13246.03032183086
 21
-961.887645119138
  0
LINE
  5
111
100
AcDbEntity
  8
1
  6
CONTINUOUS
 62
           2
100
AcDbLine
 10
13241.53032183086
 20
-915.288897569199
 11
13239.53032183086
 21
-915.288897569199
  0
LINE
  5
110
100
AcDbEntity
  8
1
  6
CONTINUOUS
 62
           2
100
AcDbLine
 10
13239.53032183086
 20
-915.288897569199
 11
13199.53032183086
 21
-915.288897569199
  0
LINE
  5
10F
100
AcDbEntity
  8
1
  6
CONTINUOUS
 62
           2
100
AcDbLine
 10
13197.53032183086
 20
-915.288897569199
 11
13199.53032183086
 21
-915.288897569199
  0
LINE
  5
10E
100
AcDbEntity
  8
1
  6
CONTINUOUS
 62
           2
100
AcDbLine
 10
13242.53032183086
 20
-915.288897569199
 11
13241.53032183086
 21
-915.288897569199
  0
LINE
  5
10D
100
AcDbEntity
  8
1
  6
CONTINUOUS
 62
           2
100
AcDbLine
 10
13196.53032183086
 20
-915.288897569199
 11
13197.53032183086
 21
-915.288897569199
  0
LINE
  5
10C
100
AcDbEntity
  8
1
  6
CONTINUOUS
 62
           2
100
AcDbLine
 10
13244.53032183086
 20
-961.021619715354
 11
13244.53032183086
 21
-917.288897569199
  0
LINE
  5
10B
100
AcDbEntity
  8
1
  6
CONTINUOUS
 62
           2
100
AcDbLine
 10
13194.53032183086
 20
-961.021619715354
 11
13194.53032183086
 21
-917.288897569199
  0
LINE
  5
10A
100
AcDbEntity
  8
1
  6
CONTINUOUS
 62
           2
100
AcDbLine
 10
13206.28032183086
 20
-961.887645119138
 11
13206.28032183086
 21
-969.289568907785
  0
LINE
  5
109
100
AcDbEntity
  8
1
  6
CONTINUOUS
 62
           2
100
AcDbLine
 10
13232.78032183086
 20
-961.887645119138
 11
13232.78032183086
 21
-969.289568907785
  0
LINE
  5
108
100
AcDbEntity
  8
1
  6
CONTINUOUS
 62
           2
100
AcDbLine
 10
13193.03032183086
 20
-969.289568907785
 11
13193.03032183086
 21
-961.887645119138
  0
LINE
  5
107
100
AcDbEntity
  8
1
  6
CONTINUOUS
 62
           2
100
AcDbLine
 10
13246.03032183086
 20
-969.289568907785
 11
13193.03032183086
 21
-969.289568907785
  0
LINE
  5
106
100
AcDbEntity
  8
1
  6
CONTINUOUS
 62
           2
100
AcDbLine
 10
13246.03032183086
 20
-961.887645119138
 11
13246.03032183086
 21
-969.289568907785
  0
LINE
  5
105
100
AcDbEntity
  8
1
  6
CONTINUOUS
 62
           2
100
AcDbLine
 10
13199.53032183086
 20
-911.288897569199
 11
13199.53032183086
 21
-913.288897569199
  0
LINE
  5
104
100
AcDbEntity
  8
1
  6
CONTINUOUS
 62
           2
100
AcDbLine
 10
13200.53032183086
 20
-910.288897569199
 11
13238.53032183086
 21
-910.288897569199
  0
LINE
  5
103
100
AcDbEntity
  8
1
  6
CONTINUOUS
 62
           2
100
AcDbLine
 10
13239.53032183086
 20
-911.288897569199
 11
13239.53032183086
 21
-913.288897569199
  0
LINE
  5
102
100
AcDbEntity
  8
1
  6
CONTINUOUS
 62
           2
100
AcDbLine
 10
13210.28032183086
 20
-904.020948376768
 11
13210.28032183086
 21
-910.288897569199
  0
LINE
  5
101
100
AcDbEntity
  8
1
  6
CONTINUOUS
 62
           2
100
AcDbLine
 10
13228.78032183086
 20
-904.020948376768
 11
13228.78032183086
 21
-910.288897569199
  0
LINE
  5
100
100
AcDbEntity
  8
1
  6
CONTINUOUS
 62
           2
100
AcDbLine
 10
13204.53032183086
 20
-893.788897569199
 11
13204.53032183086
 21
-902.288897569199
  0
LINE
  5
FF
100
AcDbEntity
  8
1
  6
CONTINUOUS
 62
           2
100
AcDbLine
 10
13234.53032183086
 20
-893.788897569199
 11
13234.53032183086
 21
-902.299196443851
  0
LINE
  5
FE
100
AcDbEntity
  8
1
  6
CONTINUOUS
 62
           2
100
AcDbLine
 10
13204.03032183086
 20
-902.288897569199
 11
13235.03032183086
 21
-902.288897569199
  0
LINE
  5
FD
100
AcDbEntity
  8
1
  6
CONTINUOUS
 62
           2
100
AcDbLine
 10
13201.03032183086
 20
-904.020948376768
 11
13204.03032183086
 21
-902.288897569199
  0
LINE
  5
FC
100
AcDbEntity
  8
1
  6
CONTINUOUS
 62
           2
100
AcDbLine
 10
13201.03032183086
 20
-910.288897569199
 11
13201.03032183086
 21
-904.020948376768
  0
LINE
  5
FB
100
AcDbEntity
  8
1
  6
CONTINUOUS
 62
           2
100
AcDbLine
 10
13238.03032183086
 20
-910.288897569199
 11
13201.03032183086
 21
-910.288897569199
  0
LINE
  5
FA
100
AcDbEntity
  8
1
  6
CONTINUOUS
 62
           2
100
AcDbLine
 10
13238.03032183086
 20
-904.020948376768
 11
13238.03032183086
 21
-910.288897569199
  0
LINE
  5
F9
100
AcDbEntity
  8
1
  6
CONTINUOUS
 62
           2
100
AcDbLine
 10
13235.03032183086
 20
-902.288897569199
 11
13238.03032183086
 21
-904.020948376768
  0
LINE
  5
F8
100
AcDbEntity
  8
1
  6
DOT_CENTER
 62
           2
100
AcDbLine
 10
13219.38840739584
 20
-1171.872088580407
 11
13219.388407395851
 21
-856.107090708793
  0
LINE
  5
F7
100
AcDbEntity
  8
1
  6
CONTINUOUS
 62
           2
100
AcDbLine
 10
13278.50372489105
 20
-1100.759568907785
 11
13278.50372489105
 21
-1161.259568907785
  0
LINE
  5
F6
100
AcDbEntity
  8
1
  6
CONTINUOUS
 62
           2
100
AcDbLine
 10
13274.50372489105
 20
-1161.259568907785
 11
13274.50372489105
 21
-1100.759568907785
  0
LINE
  5
F5
100
AcDbEntity
  8
1
  6
CONTINUOUS
 62
           2
100
AcDbLine
 10
13274.50372489105
 20
-1161.259568907785
 11
13278.50372489105
 21
-1161.259568907785
  0
LINE
  5
F4
100
AcDbEntity
  8
1
  6
CONTINUOUS
 62
           2
100
AcDbLine
 10
13278.50372489105
 20
-1100.759568907785
 11
13274.50372489105
 21
-1100.759568907785
  0
LINE
  5
F3
100
AcDbEntity
  8
1
  6
CONTINUOUS
 62
           2
100
AcDbLine
 10
13278.50372489105
 20
-1161.259568907785
 11
13289.623724891049
 21
-1160.816568907785
  0
LINE
  5
F2
100
AcDbEntity
  8
1
  6
CONTINUOUS
 62
           2
100
AcDbLine
 10
13278.50372489105
 20
-1100.759568907785
 11
13289.623724891049
 21
-1101.202568907785
  0
LINE
  5
F1
100
AcDbEntity
  8
1
  6
CONTINUOUS
 62
           2
100
AcDbLine
 10
13274.50372489105
 20
-1161.259568907785
 11
13263.383724891049
 21
-1160.816568907785
  0
LINE
  5
F0
100
AcDbEntity
  8
1
  6
CONTINUOUS
 62
           2
100
AcDbLine
 10
13263.383724891049
 20
-1101.202568907785
 11
13274.50372489105
 21
-1100.759568907785
  0
LINE
  5
EF
100
AcDbEntity
  8
1
  6
CONTINUOUS
 62
           2
100
AcDbLine
 10
13219.38840739584
 20
-1080.009568907785
 11
13241.40132511792
 21
-1080.009568907785
  0
LINE
  5
EE
100
AcDbEntity
  8
1
  6
CONTINUOUS
 62
           2
100
AcDbLine
 10
13198.88840739584
 20
-1089.174650090049
 11
13198.88840739584
 21
-1120.511113440356
  0
LINE
  5
ED
100
AcDbEntity
  8
1
  6
CONTINUOUS
 62
           2
100
AcDbLine
 10
13239.88840739584
 20
-1089.174650090049
 11
13239.88840739584
 21
-1090.508024375213
  0
LINE
  5
EC
100
AcDbEntity
  8
1
  6
CONTINUOUS
 62
           2
100
AcDbLine
 10
13197.37548967377
 20
-1080.009568907785
 11
13219.38840739584
 21
-1080.009568907785
  0
LINE
  5
EB
100
AcDbEntity
  8
1
  6
CONTINUOUS
 62
           2
100
AcDbLine
 10
13197.37548967377
 20
-1080.009568907785
 11
13197.37548967377
 21
-1085.009568907785
  0
LINE
  5
EA
100
AcDbEntity
  8
1
  6
CONTINUOUS
 62
           2
100
AcDbLine
 10
13241.40132511792
 20
-1080.009568907785
 11
13241.40132511792
 21
-1085.009568907785
  0
LINE
  5
E9
100
AcDbEntity
  8
1
  6
CONTINUOUS
 62
           2
100
AcDbLine
 10
13197.37548967377
 20
-1085.009568907785
 11
13241.40132511792
 21
-1085.009568907785
  0
LINE
  5
E8
100
AcDbEntity
  8
1
  6
DOT_CENTER
 62
           2
100
AcDbLine
 10
13219.38840739584
 20
-1172.450243998207
 11
13219.38840739584
 21
-1070.602258878845
  0
LINE
  5
E7
100
AcDbEntity
  8
1
  6
CONTINUOUS
 62
           2
100
AcDbLine
 10
13252.99890135631
 20
-1165.511113440356
 11
13243.88840739584
 21
-1165.511113440356
  0
LINE
  5
E6
100
AcDbEntity
  8
1
  6
CONTINUOUS
 62
           2
100
AcDbLine
 10
13263.383724891049
 20
-1167.011113440356
 11
13263.383724891049
 21
-1131.009568907785
  0
LINE
  5
E5
100
AcDbEntity
  8
1
  6
CONTINUOUS
 62
           2
100
AcDbLine
 10
13258.383724891049
 20
-1167.011113440356
 11
13263.383724891049
 21
-1167.011113440356
  0
LINE
  5
E4
100
AcDbEntity
  8
1
  6
CONTINUOUS
 62
           2
100
AcDbLine
 10
13258.383724891049
 20
-1095.008024375213
 11
13263.383724891049
 21
-1095.008024375213
  0
LINE
  5
E3
100
AcDbEntity
  8
1
  6
CONTINUOUS
 62
           2
100
AcDbLine
 10
13258.383724891049
 20
-1165.511113440356
 11
13258.383724891049
 21
-1096.508024375213
  0
LINE
  5
E2
100
AcDbEntity
  8
1
  6
CONTINUOUS
 62
           2
100
AcDbLine
 10
13258.383724891049
 20
-1096.508024375213
 11
13258.383724891049
 21
-1095.008024375213
  0
LINE
  5
E1
100
AcDbEntity
  8
1
  6
CONTINUOUS
 62
           2
100
AcDbLine
 10
13258.383724891049
 20
-1165.511113440356
 11
13258.383724891049
 21
-1167.011113440356
  0
LINE
  5
E0
100
AcDbEntity
  8
1
  6
CONTINUOUS
 62
           2
100
AcDbLine
 10
13263.383724891049
 20
-1131.009568907785
 11
13263.383724891049
 21
-1095.008024375213
  0
LINE
  5
DF
100
AcDbEntity
  8
1
  6
CONTINUOUS
 62
           2
100
AcDbLine
 10
13252.99890135631
 20
-1096.508024375213
 11
13245.88840739584
 21
-1096.508024375213
  0
LINE
  5
DE
100
AcDbEntity
  8
1
  6
CONTINUOUS
 62
           2
100
AcDbLine
 10
13202.388407395851
 20
-1067.549568907785
 11
13236.388407395851
 21
-1067.549568907785
  0
LINE
  5
DD
100
AcDbEntity
  8
1
  6
CONTINUOUS
 62
           2
100
AcDbLine
 10
13236.388407395851
 20
-1071.249568907785
 11
13202.388407395851
 21
-1071.249568907785
  0
LINE
  5
DC
100
AcDbEntity
  8
1
  6
CONTINUOUS
 62
           2
100
AcDbLine
 10
13202.388407395851
 20
-1067.549568907785
 11
13202.388407395851
 21
-1071.249568907785
  0
LINE
  5
DB
100
AcDbEntity
  8
1
  6
CONTINUOUS
 62
           2
100
AcDbLine
 10
13236.388407395851
 20
-1071.249568907785
 11
13236.388407395851
 21
-1067.549568907785
  0
LINE
  5
DA
100
AcDbEntity
  8
1
  6
CONTINUOUS
 62
           2
100
AcDbLine
 10
13202.388407395851
 20
-1067.549568907785
 11
13202.76390739584
 21
-1058.789568907785
  0
LINE
  5
D9
100
AcDbEntity
  8
1
  6
CONTINUOUS
 62
           2
100
AcDbLine
 10
13202.388407395851
 20
-1071.249568907785
 11
13202.76390739584
 21
-1080.009568907785
  0
LINE
  5
D8
100
AcDbEntity
  8
1
  6
CONTINUOUS
 62
           2
100
AcDbLine
 10
13236.012907395851
 20
-1080.009568907785
 11
13236.388407395851
 21
-1071.249568907785
  0
LINE
  5
D7
100
AcDbEntity
  8
1
  6
CONTINUOUS
 62
           2
100
AcDbLine
 10
13236.012907395851
 20
-1058.789568907785
 11
13236.388407395851
 21
-1067.549568907785
  0
LINE
  5
D6
100
AcDbEntity
  8
1
  6
DOT_CENTER
 62
           2
100
AcDbLine
 10
13170.10970055982
 20
-1003.789568907785
 11
13270.805574778071
 21
-1003.789568907785
  0
LINE
  5
D5
100
AcDbEntity
  8
1
  6
CONTINUOUS
 62
           2
100
AcDbLine
 10
13254.53032183086
 20
-1032.789568907785
 11
13254.53032183086
 21
-1040.789568907785
  0
LINE
  5
D4
100
AcDbEntity
  8
1
  6
CONTINUOUS
 62
           2
100
AcDbLine
 10
13184.53032183086
 20
-1032.789568907785
 11
13184.53032183086
 21
-1040.789568907785
  0
LINE
  5
D3
100
AcDbEntity
  8
1
  6
CONTINUOUS
 62
           2
100
AcDbLine
 10
13242.53032183086
 20
-916.288897569199
 11
13242.53032183086
 21
-958.712218638595
  0
LINE
  5
D2
100
AcDbEntity
  8
1
  6
CONTINUOUS
 62
           2
100
AcDbLine
 10
13240.53032183086
 20
-916.288897569199
 11
13240.53032183086
 21
-958.289568907785
  0
LINE
  5
D1
100
AcDbEntity
  8
1
  6
CONTINUOUS
 62
           2
100
AcDbLine
 10
13227.86365516419
 20
-916.288897569199
 11
13227.86365516419
 21
-958.289568907785
  0
LINE
  5
D0
100
AcDbEntity
  8
1
  6
CONTINUOUS
 62
           2
100
AcDbLine
 10
13225.86365516419
 20
-916.288897569199
 11
13225.86365516419
 21
-958.289568907785
  0
LINE
  5
CF
100
AcDbEntity
  8
1
  6
CONTINUOUS
 62
           2
100
AcDbLine
 10
13213.196988497521
 20
-916.288897569199
 11
13213.196988497521
 21
-958.289568907785
  0
LINE
  5
CE
100
AcDbEntity
  8
1
  6
CONTINUOUS
 62
           2
100
AcDbLine
 10
13211.196988497521
 20
-916.288897569199
 11
13211.196988497521
 21
-958.289568907785
  0
LINE
  5
CD
100
AcDbEntity
  8
1
  6
CONTINUOUS
 62
           2
100
AcDbLine
 10
13198.53032183086
 20
-916.288897569199
 11
13198.53032183086
 21
-958.289568907785
  0
LINE
  5
CC
100
AcDbEntity
  8
1
  6
CONTINUOUS
 62
           2
100
AcDbLine
 10
13196.53032183086
 20
-916.288897569199
 11
13196.53032183086
 21
-958.712218638595
  0
LINE
  5
CB
100
AcDbEntity
  8
1
  6
CONTINUOUS
 62
           2
100
AcDbLine
 10
11587.76177713666
 20
-1058.789568907785
 11
11588.13727713666
 21
-1067.549568907785
  0
LINE
  5
CA
100
AcDbEntity
  8
1
  6
CONTINUOUS
 62
           2
100
AcDbLine
 10
11587.76177713666
 20
-1080.009568907785
 11
11588.13727713666
 21
-1071.249568907785
  0
LINE
  5
C9
100
AcDbEntity
  8
1
  6
CONTINUOUS
 62
           2
100
AcDbLine
 10
11554.13727713666
 20
-1071.249568907785
 11
11554.512777136661
 21
-1080.009568907785
  0
LINE
  5
C8
100
AcDbEntity
  8
1
  6
CONTINUOUS
 62
           2
100
AcDbLine
 10
11554.13727713666
 20
-1067.549568907785
 11
11554.512777136661
 21
-1058.789568907785
  0
LINE
  5
C7
100
AcDbEntity
  8
1
  6
CONTINUOUS
 62
           2
100
AcDbLine
 10
11588.13727713666
 20
-1071.249568907785
 11
11588.13727713666
 21
-1067.549568907785
  0
LINE
  5
C6
100
AcDbEntity
  8
1
  6
CONTINUOUS
 62
           2
100
AcDbLine
 10
11554.13727713666
 20
-1067.549568907785
 11
11554.13727713666
 21
-1071.249568907785
  0
LINE
  5
C5
100
AcDbEntity
  8
1
  6
CONTINUOUS
 62
           2
100
AcDbLine
 10
11588.13727713666
 20
-1071.249568907785
 11
11554.13727713666
 21
-1071.249568907785
  0
LINE
  5
C4
100
AcDbEntity
  8
1
  6
CONTINUOUS
 62
           2
100
AcDbLine
 10
11554.13727713666
 20
-1067.549568907785
 11
11588.13727713666
 21
-1067.549568907785
  0
LINE
  5
C3
100
AcDbEntity
  8
1
  6
CONTINUOUS
 62
           2
100
AcDbLine
 10
11549.124359414591
 20
-1085.009568907785
 11
11593.150194858739
 21
-1085.009568907785
  0
LINE
  5
C2
100
AcDbEntity
  8
1
  6
CONTINUOUS
 62
           2
100
AcDbLine
 10
11593.150194858739
 20
-1080.009568907785
 11
11593.150194858739
 21
-1085.009568907785
  0
LINE
  5
C1
100
AcDbEntity
  8
1
  6
CONTINUOUS
 62
           2
100
AcDbLine
 10
11549.124359414591
 20
-1080.009568907785
 11
11549.124359414591
 21
-1085.009568907785
  0
LINE
  5
C0
100
AcDbEntity
  8
1
  6
CONTINUOUS
 62
           2
100
AcDbLine
 10
11549.124359414591
 20
-1080.009568907785
 11
11571.13727713666
 21
-1080.009568907785
  0
LINE
  5
BF
100
AcDbEntity
  8
1
  6
CONTINUOUS
 62
           2
100
AcDbLine
 10
11571.13727713666
 20
-1080.009568907785
 11
11593.150194858739
 21
-1080.009568907785
  0
LINE
  5
BE
100
AcDbEntity
  8
1
  6
CONTINUOUS
 62
           2
100
AcDbLine
 10
11592.27919157167
 20
-1058.789568907785
 11
11550.27919157167
 21
-1058.789568907785
  0
LINE
  5
BD
100
AcDbEntity
  8
1
  6
CONTINUOUS
 62
           2
100
AcDbLine
 10
11544.77919157167
 20
-1058.789568907785
 11
11597.77919157167
 21
-1058.789568907785
  0
LINE
  5
BC
100
AcDbEntity
  8
1
  6
CONTINUOUS
 62
           2
100
AcDbLine
 10
11601.77919157167
 20
-1056.480167831026
 11
11597.77919157167
 21
-1058.789568907785
  0
LINE
  5
BB
100
AcDbEntity
  8
1
  6
CONTINUOUS
 62
           2
100
AcDbLine
 10
11540.77919157167
 20
-1056.480167831026
 11
11544.77919157167
 21
-1058.789568907785
  0
LINE
  5
BA
100
AcDbEntity
  8
1
  6
CONTINUOUS
 62
           2
100
AcDbLine
 10
11550.63727713666
 20
-1089.174650090049
 11
11550.63727713666
 21
-1090.882280847323
  0
LINE
  5
B9
100
AcDbEntity
  8
1
  6
CONTINUOUS
 62
           2
100
AcDbLine
 10
11591.63727713666
 20
-1089.174650090049
 11
11591.63727713666
 21
-1090.508024375213
  0
LINE
  5
B8
100
AcDbEntity
  8
1
  6
CONTINUOUS
 62
           2
100
AcDbLine
 10
11591.63727713666
 20
-1090.882280847323
 11
11591.63727713666
 21
-1089.174650090049
  0
LINE
  5
B7
100
AcDbEntity
  8
1
  6
CONTINUOUS
 62
           2
100
AcDbLine
 10
11606.13727713666
 20
-1032.789568907785
 11
11606.13727713666
 21
-1040.789568907785
  0
LINE
  5
B6
100
AcDbEntity
  8
1
  6
CONTINUOUS
 62
           2
100
AcDbLine
 10
11536.13727713666
 20
-1032.789568907785
 11
11536.13727713666
 21
-1040.789568907785
  0
LINE
  5
B5
100
AcDbEntity
  8
1
  6
CONTINUOUS
 62
           2
100
AcDbLine
 10
11594.13727713666
 20
-916.289568907785
 11
11594.13727713666
 21
-958.712218638595
  0
LINE
  5
B4
100
AcDbEntity
  8
1
  6
CONTINUOUS
 62
           2
100
AcDbLine
 10
11592.13727713666
 20
-916.289568907785
 11
11592.13727713666
 21
-958.289568907785
  0
LINE
  5
B3
100
AcDbEntity
  8
1
  6
CONTINUOUS
 62
           2
100
AcDbLine
 10
11579.47061047
 20
-916.289568907785
 11
11579.47061047
 21
-958.289568907785
  0
LINE
  5
B2
100
AcDbEntity
  8
1
  6
CONTINUOUS
 62
           2
100
AcDbLine
 10
11577.47061047
 20
-916.289568907785
 11
11577.47061047
 21
-958.289568907785
  0
LINE
  5
B1
100
AcDbEntity
  8
1
  6
CONTINUOUS
 62
           2
100
AcDbLine
 10
11564.80394380333
 20
-916.289568907785
 11
11564.80394380333
 21
-958.289568907785
  0
LINE
  5
B0
100
AcDbEntity
  8
1
  6
CONTINUOUS
 62
           2
100
AcDbLine
 10
11562.80394380333
 20
-916.289568907785
 11
11562.80394380333
 21
-958.289568907785
  0
LINE
  5
AF
100
AcDbEntity
  8
1
  6
CONTINUOUS
 62
           2
100
AcDbLine
 10
11550.13727713666
 20
-916.289568907785
 11
11550.13727713666
 21
-958.289568907785
  0
LINE
  5
AE
100
AcDbEntity
  8
1
  6
CONTINUOUS
 62
           2
100
AcDbLine
 10
11548.13727713666
 20
-916.289568907785
 11
11548.13727713666
 21
-958.712218638595
  0
LINE
  5
AD
100
AcDbEntity
  8
1
  6
CONTINUOUS
 62
           7
100
AcDbLine
 10
11288.38525449249
 20
-2835.99707596535
 11
11292.0336676879
 21
-2840.760381661562
  0
LINE
  5
AC
100
AcDbEntity
  8
1
  6
CONTINUOUS
 62
           7
100
AcDbLine
 10
11853.88929978084
 20
-2835.99707596535
 11
11850.24088658543
 21
-2840.760381661562
  0
LINE
  5
AB
100
AcDbEntity
  8
1
  6
DOT_CENTER
 62
           2
100
AcDbLine
 10
11226.15278906773
 20
-1527.009568907785
 11
11925.658786042761
 21
-1527.009568907785
  0
LINE
  5
AA
100
AcDbEntity
  8
1
  6
CONTINUOUS
 62
           7
100
AcDbLine
 10
11478.06548036694
 20
-1515.009568907785
 11
11464.20907390639
 21
-1515.009568907785
  0
LINE
  5
A9
100
AcDbEntity
  8
1
  6
CONTINUOUS
 62
           7
100
AcDbLine
 10
11464.20907390639
 20
-1515.009568907785
 11
11457.28087067611
 21
-1527.009568907785
  0
LINE
  5
A8
100
AcDbEntity
  8
1
  6
CONTINUOUS
 62
           7
100
AcDbLine
 10
11457.28087067611
 20
-1527.009568907785
 11
11464.20907390639
 21
-1539.009568907785
  0
LINE
  5
A7
100
AcDbEntity
  8
1
  6
CONTINUOUS
 62
           7
100
AcDbLine
 10
11464.20907390639
 20
-1539.009568907785
 11
11478.06548036694
 21
-1539.009568907785
  0
LINE
  5
A6
100
AcDbEntity
  8
1
  6
CONTINUOUS
 62
           7
100
AcDbLine
 10
11478.06548036694
 20
-1539.009568907785
 11
11484.99368359722
 21
-1527.009568907785
  0
LINE
  5
A5
100
AcDbEntity
  8
1
  6
CONTINUOUS
 62
           7
100
AcDbLine
 10
11484.99368359722
 20
-1527.009568907785
 11
11478.06548036694
 21
-1515.009568907785
  0
LINE
  5
A4
100
AcDbEntity
  8
1
  6
DOT_CENTER
 62
           2
100
AcDbLine
 10
11489.88727713666
 20
-1527.009568907785
 11
11452.38727713666
 21
-1527.009568907785
  0
LINE
  5
A3
100
AcDbEntity
  8
1
  6
DOT_CENTER
 62
           2
100
AcDbLine
 10
11471.13727713666
 20
-1508.259568907785
 11
11471.13727713666
 21
-1545.759568907785
  0
LINE
  5
A2
100
AcDbEntity
  8
1
  6
DOT_CENTER
 62
           2
100
AcDbLine
 10
11671.13727713666
 20
-1508.259568907785
 11
11671.13727713666
 21
-1545.759568907785
  0
LINE
  5
A1
100
AcDbEntity
  8
1
  6
DOT_CENTER
 62
           2
100
AcDbLine
 10
11689.88727713666
 20
-1527.009568907785
 11
11652.38727713666
 21
-1527.009568907785
  0
LINE
  5
A0
100
AcDbEntity
  8
1
  6
CONTINUOUS
 62
           7
100
AcDbLine
 10
11684.99368359722
 20
-1527.009568907785
 11
11678.06548036694
 21
-1515.009568907785
  0
LINE
  5
9F
100
AcDbEntity
  8
1
  6
CONTINUOUS
 62
           7
100
AcDbLine
 10
11678.06548036694
 20
-1539.009568907785
 11
11684.99368359722
 21
-1527.009568907785
  0
LINE
  5
9E
100
AcDbEntity
  8
1
  6
CONTINUOUS
 62
           7
100
AcDbLine
 10
11664.20907390639
 20
-1539.009568907785
 11
11678.06548036694
 21
-1539.009568907785
  0
LINE
  5
9D
100
AcDbEntity
  8
1
  6
CONTINUOUS
 62
           7
100
AcDbLine
 10
11657.28087067611
 20
-1527.009568907785
 11
11664.20907390639
 21
-1539.009568907785
  0
LINE
  5
9C
100
AcDbEntity
  8
1
  6
CONTINUOUS
 62
           7
100
AcDbLine
 10
11664.20907390639
 20
-1515.009568907785
 11
11657.28087067611
 21
-1527.009568907785
  0
LINE
  5
9B
100
AcDbEntity
  8
1
  6
CONTINUOUS
 62
           7
100
AcDbLine
 10
11678.06548036694
 20
-1515.009568907785
 11
11664.20907390639
 21
-1515.009568907785
  0
LINE
  5
9A
100
AcDbEntity
  8
1
  6
CONTINUOUS
 62
           7
100
AcDbLine
 10
11456.18057922202
 20
-1390.870627517727
 11
11451.13727713666
 21
-1512.009568907785
  0
LINE
  5
99
100
AcDbEntity
  8
1
  6
CONTINUOUS
 62
           7
100
AcDbLine
 10
11491.13727713666
 20
-1512.009568907785
 11
11486.09397505131
 21
-1390.870627517727
  0
LINE
  5
98
100
AcDbEntity
  8
1
  6
CONTINUOUS
 62
           7
100
AcDbLine
 10
11486.09397505131
 20
-1663.148510297843
 11
11491.13727713666
 21
-1542.009568907785
  0
LINE
  5
97
100
AcDbEntity
  8
1
  6
CONTINUOUS
 62
           7
100
AcDbLine
 10
11451.13727713666
 20
-1542.009568907785
 11
11456.18057922202
 21
-1663.148510297843
  0
LINE
  5
96
100
AcDbEntity
  8
1
  6
CONTINUOUS
 62
           7
100
AcDbLine
 10
11691.13727713666
 20
-1512.009568907785
 11
11686.09397505131
 21
-1390.870627517727
  0
LINE
  5
95
100
AcDbEntity
  8
1
  6
CONTINUOUS
 62
           7
100
AcDbLine
 10
11656.18057922202
 20
-1390.870627517727
 11
11651.13727713666
 21
-1512.009568907785
  0
LINE
  5
94
100
AcDbEntity
  8
1
  6
CONTINUOUS
 62
           7
100
AcDbLine
 10
11651.13727713666
 20
-1542.009568907785
 11
11656.18057922202
 21
-1663.148510297843
  0
LINE
  5
93
100
AcDbEntity
  8
1
  6
CONTINUOUS
 62
           7
100
AcDbLine
 10
11686.09397505131
 20
-1663.148510297843
 11
11691.13727713666
 21
-1542.009568907785
  0
LINE
  5
92
100
AcDbEntity
  8
1
  6
DOT_CENTER
 62
           2
100
AcDbLine
 10
11471.13727713666
 20
-1352.009568907785
 11
11471.13727713666
 21
-1702.009568907785
  0
LINE
  5
91
100
AcDbEntity
  8
1
  6
DOT_CENTER
 62
           2
100
AcDbLine
 10
11671.13727713666
 20
-1702.009568907785
 11
11671.13727713666
 21
-1352.009568907785
  0
LINE
  5
90
100
AcDbEntity
  8
1
  6
DOT_CENTER
 62
           2
100
AcDbLine
 10
13159.175530197181
 20
-1527.009568907785
 11
13447.00636717318
 21
-1527.009568907785
  0
LINE
  5
8F
100
AcDbEntity
  8
1
  6
CONTINUOUS
 62
           7
100
AcDbLine
 10
13303.623724891049
 20
-1227.009568907785
 11
13309.623724891049
 21
-1227.009568907785
  0
LINE
  5
8E
100
AcDbEntity
  8
1
  6
CONTINUOUS
 62
           7
100
AcDbLine
 10
13303.623724891049
 20
-1827.009568907785
 11
13309.623724891049
 21
-1827.009568907785
  0
LINE
  5
8D
100
AcDbEntity
  8
1
  6
CONTINUOUS
 62
           7
100
AcDbLine
 10
13303.623724891049
 20
-1227.009568907785
 11
13303.623724891049
 21
-1377.009568907785
  0
LINE
  5
8C
100
AcDbEntity
  8
1
  6
CONTINUOUS
 62
           7
100
AcDbLine
 10
13309.623724891049
 20
-1827.009568907785
 11
13309.623724891049
 21
-1927.009568907785
  0
LINE
  5
8B
100
AcDbEntity
  8
1
  6
CONTINUOUS
 62
           7
100
AcDbLine
 10
11456.13727713666
 20
-2754.598054379043
 11
11456.13727713666
 21
-2656.153267421796
  0
LINE
  5
8A
100
AcDbEntity
  8
1
  6
CONTINUOUS
 62
           7
100
AcDbLine
 10
11486.13727713666
 20
-2747.988089395297
 11
11486.13727713666
 21
-2656.153267421796
  0
LINE
  5
89
100
AcDbEntity
  8
1
  6
CONTINUOUS
 62
           7
100
AcDbLine
 10
11496.13727713666
 20
-2656.153267421796
 11
11446.13727713666
 21
-2656.153267421796
  0
LINE
  5
88
100
AcDbEntity
  8
1
  6
CONTINUOUS
 62
           7
100
AcDbLine
 10
11446.13727713666
 20
-2711.153267421796
 11
11446.13727713666
 21
-2656.153267421796
  0
LINE
  5
87
100
AcDbEntity
  8
1
  6
CONTINUOUS
 62
           7
100
AcDbLine
 10
11496.13727713666
 20
-2711.153267421796
 11
11496.13727713666
 21
-2656.153267421796
  0
LINE
  5
86
100
AcDbEntity
  8
1
  6
CONTINUOUS
 62
           7
100
AcDbLine
 10
11456.13727713666
 20
-2711.153267421796
 11
11446.13727713666
 21
-2711.153267421796
  0
LINE
  5
85
100
AcDbEntity
  8
1
  6
CONTINUOUS
 62
           7
100
AcDbLine
 10
11486.13727713666
 20
-2711.153267421796
 11
11496.13727713666
 21
-2711.153267421796
  0
LINE
  5
84
100
AcDbEntity
  8
1
  6
CONTINUOUS
 62
           7
100
AcDbLine
 10
11486.13727713666
 20
-2656.153267421796
 11
11456.13727713666
 21
-2656.153267421796
  0
LINE
  5
83
100
AcDbEntity
  8
1
  6
CONTINUOUS
 62
           7
100
AcDbLine
 10
11486.13727713666
 20
-2653.153267421796
 11
11486.13727713666
 21
-2656.153267421796
  0
LINE
  5
82
100
AcDbEntity
  8
1
  6
CONTINUOUS
 62
           7
100
AcDbLine
 10
11456.13727713666
 20
-2653.153267421796
 11
11486.13727713666
 21
-2653.153267421796
  0
LINE
  5
81
100
AcDbEntity
  8
1
  6
CONTINUOUS
 62
           7
100
AcDbLine
 10
11456.13727713666
 20
-2656.153267421796
 11
11456.13727713666
 21
-2653.153267421796
  0
LINE
  5
80
100
AcDbEntity
  8
1
  6
CONTINUOUS
 62
           7
100
AcDbLine
 10
11486.13727713666
 20
-2653.153267421796
 11
11484.99368359722
 21
-2653.153267421796
  0
LINE
  5
7F
100
AcDbEntity
  8
1
  6
CONTINUOUS
 62
           7
100
AcDbLine
 10
11456.13727713666
 20
-2653.153267421796
 11
11457.28087067611
 21
-2653.153267421796
  0
LINE
  5
7E
100
AcDbEntity
  8
1
  6
CONTINUOUS
 62
           7
100
AcDbLine
 10
11483.13727713666
 20
-2640.153267421796
 11
11484.99368359722
 21
-2641.22506419152
  0
LINE
  5
7D
100
AcDbEntity
  8
1
  6
CONTINUOUS
 62
           7
100
AcDbLine
 10
11457.28087067611
 20
-2641.22506419152
 11
11459.13727713666
 21
-2640.153267421796
  0
LINE
  5
7C
100
AcDbEntity
  8
1
  6
CONTINUOUS
 62
           7
100
AcDbLine
 10
11484.99368359722
 20
-2641.22506419152
 11
11484.99368359722
 21
-2653.153267421796
  0
LINE
  5
7B
100
AcDbEntity
  8
1
  6
CONTINUOUS
 62
           7
100
AcDbLine
 10
11459.13727713666
 20
-2640.153267421796
 11
11483.13727713666
 21
-2640.153267421796
  0
LINE
  5
7A
100
AcDbEntity
  8
1
  6
CONTINUOUS
 62
           7
100
AcDbLine
 10
11457.28087067611
 20
-2653.153267421796
 11
11457.28087067611
 21
-2641.22506419152
  0
LINE
  5
79
100
AcDbEntity
  8
1
  6
CONTINUOUS
 62
           7
100
AcDbLine
 10
11478.06548036694
 20
-2641.22506419152
 11
11478.06548036694
 21
-2653.153267421796
  0
LINE
  5
78
100
AcDbEntity
  8
1
  6
CONTINUOUS
 62
           7
100
AcDbLine
 10
11464.20907390639
 20
-2641.22506419152
 11
11464.20907390639
 21
-2653.153267421796
  0
LINE
  5
77
100
AcDbEntity
  8
1
  6
DOT_CENTER
 62
           2
100
AcDbLine
 10
11471.13727713666
 20
-2612.311916192473
 11
11471.13727713666
 21
-2763.034128675991
  0
LINE
  5
76
100
AcDbEntity
  8
1
  6
CONTINUOUS
 62
           7
100
AcDbLine
 10
11477.13727713666
 20
-2626.153267421796
 11
11479.13727713666
 21
-2628.153267421796
  0
LINE
  5
75
100
AcDbEntity
  8
1
  6
CONTINUOUS
 62
           7
100
AcDbLine
 10
11465.13727713666
 20
-2626.153267421796
 11
11477.13727713666
 21
-2626.153267421796
  0
LINE
  5
74
100
AcDbEntity
  8
1
  6
CONTINUOUS
 62
           7
100
AcDbLine
 10
11463.13727713666
 20
-2628.153267421796
 11
11465.13727713666
 21
-2626.153267421796
  0
LINE
  5
73
100
AcDbEntity
  8
1
  6
CONTINUOUS
 62
           7
100
AcDbLine
 10
11463.13727713666
 20
-2640.153267421796
 11
11463.13727713666
 21
-2628.153267421796
  0
LINE
  5
72
100
AcDbEntity
  8
1
  6
CONTINUOUS
 62
           7
100
AcDbLine
 10
11463.13727713666
 20
-2628.153267421796
 11
11479.13727713666
 21
-2628.153267421796
  0
LINE
  5
71
100
AcDbEntity
  8
1
  6
CONTINUOUS
 62
           3
100
AcDbLine
 10
11464.21977713667
 20
-2627.070767421796
 11
11464.21977713667
 21
-2640.153267421796
  0
LINE
  5
70
100
AcDbEntity
  8
1
  6
CONTINUOUS
 62
           3
100
AcDbLine
 10
11478.05477713666
 20
-2627.070767421796
 11
11478.05477713666
 21
-2640.153267421796
  0
LINE
  5
6F
100
AcDbEntity
  8
1
  6
CONTINUOUS
 62
           7
100
AcDbLine
 10
11479.13727713666
 20
-2628.153267421796
 11
11479.13727713666
 21
-2640.153267421796
  0
LINE
  5
6E
100
AcDbEntity
  8
1
  6
CONTINUOUS
 62
           7
100
AcDbLine
 10
11663.13727713666
 20
-2640.153267421796
 11
11663.13727713666
 21
-2628.153267421796
  0
LINE
  5
6D
100
AcDbEntity
  8
1
  6
CONTINUOUS
 62
           3
100
AcDbLine
 10
11664.21977713667
 20
-2640.153267421796
 11
11664.21977713667
 21
-2627.070767421796
  0
LINE
  5
6C
100
AcDbEntity
  8
1
  6
CONTINUOUS
 62
           3
100
AcDbLine
 10
11678.05477713666
 20
-2640.153267421796
 11
11678.05477713666
 21
-2627.070767421796
  0
LINE
  5
6B
100
AcDbEntity
  8
1
  6
CONTINUOUS
 62
           7
100
AcDbLine
 10
11663.13727713666
 20
-2628.153267421796
 11
11679.13727713666
 21
-2628.153267421796
  0
LINE
  5
6A
100
AcDbEntity
  8
1
  6
CONTINUOUS
 62
           7
100
AcDbLine
 10
11679.13727713666
 20
-2628.153267421796
 11
11679.13727713666
 21
-2640.153267421796
  0
LINE
  5
69
100
AcDbEntity
  8
1
  6
CONTINUOUS
 62
           7
100
AcDbLine
 10
11677.13727713666
 20
-2626.153267421796
 11
11679.13727713666
 21
-2628.153267421796
  0
LINE
  5
68
100
AcDbEntity
  8
1
  6
CONTINUOUS
 62
           7
100
AcDbLine
 10
11665.13727713666
 20
-2626.153267421796
 11
11677.13727713666
 21
-2626.153267421796
  0
LINE
  5
67
100
AcDbEntity
  8
1
  6
CONTINUOUS
 62
           7
100
AcDbLine
 10
11663.13727713666
 20
-2628.153267421796
 11
11665.13727713666
 21
-2626.153267421796
  0
LINE
  5
66
100
AcDbEntity
  8
1
  6
DOT_CENTER
 62
           2
100
AcDbLine
 10
11671.13727713666
 20
-2763.034128675991
 11
11671.13727713666
 21
-2612.311916192473
  0
LINE
  5
65
100
AcDbEntity
  8
1
  6
CONTINUOUS
 62
           7
100
AcDbLine
 10
11678.06548036694
 20
-2653.153267421796
 11
11678.06548036694
 21
-2641.22506419152
  0
LINE
  5
64
100
AcDbEntity
  8
1
  6
CONTINUOUS
 62
           7
100
AcDbLine
 10
11664.20907390639
 20
-2653.153267421796
 11
11664.20907390639
 21
-2641.22506419152
  0
LINE
  5
63
100
AcDbEntity
  8
1
  6
CONTINUOUS
 62
           7
100
AcDbLine
 10
11684.99368359722
 20
-2641.22506419152
 11
11684.99368359722
 21
-2653.153267421796
  0
LINE
  5
62
100
AcDbEntity
  8
1
  6
CONTINUOUS
 62
           7
100
AcDbLine
 10
11659.13727713666
 20
-2640.153267421796
 11
11683.13727713666
 21
-2640.153267421796
  0
LINE
  5
61
100
AcDbEntity
  8
1
  6
CONTINUOUS
 62
           7
100
AcDbLine
 10
11657.28087067611
 20
-2653.153267421796
 11
11657.28087067611
 21
-2641.22506419152
  0
LINE
  5
60
100
AcDbEntity
  8
1
  6
CONTINUOUS
 62
           7
100
AcDbLine
 10
11683.13727713666
 20
-2640.153267421796
 11
11684.99368359722
 21
-2641.22506419152
  0
LINE
  5
5F
100
AcDbEntity
  8
1
  6
CONTINUOUS
 62
           7
100
AcDbLine
 10
11657.28087067611
 20
-2641.22506419152
 11
11659.13727713666
 21
-2640.153267421796
  0
LINE
  5
5E
100
AcDbEntity
  8
1
  6
CONTINUOUS
 62
           7
100
AcDbLine
 10
11684.99368359722
 20
-2653.153267421796
 11
11686.13727713666
 21
-2653.153267421796
  0
LINE
  5
5D
100
AcDbEntity
  8
1
  6
CONTINUOUS
 62
           7
100
AcDbLine
 10
11657.28087067611
 20
-2653.153267421796
 11
11656.13727713666
 21
-2653.153267421796
  0
LINE
  5
5C
100
AcDbEntity
  8
1
  6
CONTINUOUS
 62
           7
100
AcDbLine
 10
11686.13727713666
 20
-2653.153267421796
 11
11686.13727713666
 21
-2656.153267421796
  0
LINE
  5
5B
100
AcDbEntity
  8
1
  6
CONTINUOUS
 62
           7
100
AcDbLine
 10
11656.13727713666
 20
-2653.153267421796
 11
11686.13727713666
 21
-2653.153267421796
  0
LINE
  5
5A
100
AcDbEntity
  8
1
  6
CONTINUOUS
 62
           7
100
AcDbLine
 10
11656.13727713666
 20
-2656.153267421796
 11
11656.13727713666
 21
-2653.153267421796
  0
LINE
  5
59
100
AcDbEntity
  8
1
  6
CONTINUOUS
 62
           7
100
AcDbLine
 10
11686.13727713666
 20
-2656.153267421796
 11
11656.13727713666
 21
-2656.153267421796
  0
LINE
  5
58
100
AcDbEntity
  8
1
  6
CONTINUOUS
 62
           7
100
AcDbLine
 10
11646.13727713666
 20
-2711.153267421796
 11
11656.13727713666
 21
-2711.153267421796
  0
LINE
  5
57
100
AcDbEntity
  8
1
  6
CONTINUOUS
 62
           7
100
AcDbLine
 10
11696.13727713666
 20
-2711.153267421796
 11
11686.13727713666
 21
-2711.153267421796
  0
LINE
  5
56
100
AcDbEntity
  8
1
  6
CONTINUOUS
 62
           7
100
AcDbLine
 10
11646.13727713666
 20
-2656.153267421796
 11
11646.13727713666
 21
-2711.153267421796
  0
LINE
  5
55
100
AcDbEntity
  8
1
  6
CONTINUOUS
 62
           7
100
AcDbLine
 10
11696.13727713666
 20
-2656.153267421796
 11
11696.13727713666
 21
-2711.153267421796
  0
LINE
  5
54
100
AcDbEntity
  8
1
  6
CONTINUOUS
 62
           7
100
AcDbLine
 10
11696.13727713666
 20
-2656.153267421796
 11
11646.13727713666
 21
-2656.153267421796
  0
LINE
  5
53
100
AcDbEntity
  8
1
  6
CONTINUOUS
 62
           7
100
AcDbLine
 10
11656.13727713666
 20
-2656.153267421796
 11
11656.13727713666
 21
-2747.988089395297
  0
LINE
  5
52
100
AcDbEntity
  8
1
  6
CONTINUOUS
 62
           7
100
AcDbLine
 10
11686.13727713666
 20
-2656.153267421796
 11
11686.13727713666
 21
-2754.598054379043
  0
LINE
  5
51
100
AcDbEntity
  8
1
  6
CONTINUOUS
 62
           7
100
AcDbLine
 10
13219.623724891049
 20
-1512.009568907785
 11
13274.623724891049
 21
-1512.009568907785
  0
LINE
  5
50
100
AcDbEntity
  8
1
  6
CONTINUOUS
 62
           7
100
AcDbLine
 10
13274.623724891049
 20
-1512.009568907785
 11
13274.623724891049
 21
-1542.009568907785
  0
LINE
  5
4F
100
AcDbEntity
  8
1
  6
CONTINUOUS
 62
           7
100
AcDbLine
 10
13274.623724891049
 20
-1542.009568907785
 11
13219.623724891049
 21
-1542.009568907785
  0
LINE
  5
4E
100
AcDbEntity
  8
1
  6
CONTINUOUS
 62
           7
100
AcDbLine
 10
13219.623724891049
 20
-1542.009568907785
 11
13219.623724891049
 21
-1512.009568907785
  0
LINE
  5
4D
100
AcDbEntity
  8
1
  6
CONTINUOUS
 62
           7
100
AcDbLine
 10
13254.247775535279
 20
-1337.009568907785
 11
13303.623724891049
 21
-1337.009568907785
  0
LINE
  5
4C
100
AcDbEntity
  8
1
  6
CONTINUOUS
 62
           7
100
AcDbLine
 10
13244.35634871251
 20
-1345.539985494116
 11
13219.623724891049
 21
-1512.009568907785
  0
LINE
  5
4B
100
AcDbEntity
  8
1
  6
CONTINUOUS
 62
           7
100
AcDbLine
 10
13274.623724891049
 20
-1512.009568907785
 11
13274.623724891049
 21
-1395.009568907785
  0
LINE
  5
4A
100
AcDbEntity
  8
1
  6
CONTINUOUS
 62
           7
100
AcDbLine
 10
13303.623724891049
 20
-1377.009568907785
 11
13292.623724891049
 21
-1377.009568907785
  0
LINE
  5
49
100
AcDbEntity
  8
1
  6
CONTINUOUS
 62
           7
100
AcDbLine
 10
13274.623724891049
 20
-1659.009568907785
 11
13274.623724891049
 21
-1542.009568907785
  0
LINE
  5
48
100
AcDbEntity
  8
1
  6
CONTINUOUS
 62
           7
100
AcDbLine
 10
13292.623724891049
 20
-1677.009568907785
 11
13303.623724891049
 21
-1677.009568907785
  0
LINE
  5
47
100
AcDbEntity
  8
1
  6
CONTINUOUS
 62
           7
100
AcDbLine
 10
13219.623724891049
 20
-1542.009568907785
 11
13244.35634871251
 21
-1708.479152321454
  0
LINE
  5
46
100
AcDbEntity
  8
1
  6
CONTINUOUS
 62
           7
100
AcDbLine
 10
13219.623724891049
 20
-1542.009568907785
 11
13244.35634871251
 21
-1708.479152321454
  0
LINE
  5
45
100
AcDbEntity
  8
1
  6
CONTINUOUS
 62
           7
100
AcDbLine
 10
13303.623724891049
 20
-1717.009568907785
 11
13254.247775535279
 21
-1717.009568907785
  0
LINE
  5
44
100
AcDbEntity
  8
1
  6
CONTINUOUS
 62
           7
100
AcDbLine
 10
13203.623724891049
 20
-1535.009568907785
 11
13191.623724891049
 21
-1535.009568907785
  0
LINE
  5
43
100
AcDbEntity
  8
1
  6
CONTINUOUS
 62
           3
100
AcDbLine
 10
13203.623724891049
 20
-1533.927068907785
 11
13190.541224891051
 21
-1533.927068907785
  0
LINE
  5
42
100
AcDbEntity
  8
1
  6
CONTINUOUS
 62
           3
100
AcDbLine
 10
13203.623724891049
 20
-1520.092068907785
 11
13190.541224891051
 21
-1520.092068907785
  0
LINE
  5
41
100
AcDbEntity
  8
1
  6
CONTINUOUS
 62
           7
100
AcDbLine
 10
13191.623724891049
 20
-1535.009568907785
 11
13191.623724891049
 21
-1519.009568907785
  0
LINE
  5
40
100
AcDbEntity
  8
1
  6
CONTINUOUS
 62
           7
100
AcDbLine
 10
13191.623724891049
 20
-1519.009568907785
 11
13203.623724891049
 21
-1519.009568907785
  0
LINE
  5
3F
100
AcDbEntity
  8
1
  6
CONTINUOUS
 62
           7
100
AcDbLine
 10
13189.623724891049
 20
-1521.009568907785
 11
13191.623724891049
 21
-1519.009568907785
  0
LINE
  5
3E
100
AcDbEntity
  8
1
  6
CONTINUOUS
 62
           7
100
AcDbLine
 10
13189.623724891049
 20
-1533.009568907785
 11
13189.623724891049
 21
-1521.009568907785
  0
LINE
  5
3D
100
AcDbEntity
  8
1
  6
CONTINUOUS
 62
           7
100
AcDbLine
 10
13191.623724891049
 20
-1535.009568907785
 11
13189.623724891049
 21
-1533.009568907785
  0
LINE
  5
3C
100
AcDbEntity
  8
1
  6
CONTINUOUS
 62
           7
100
AcDbLine
 10
13216.623724891049
 20
-1520.081365677509
 11
13204.695521660769
 21
-1520.081365677509
  0
LINE
  5
3B
100
AcDbEntity
  8
1
  6
CONTINUOUS
 62
           7
100
AcDbLine
 10
13216.623724891049
 20
-1533.937772138061
 11
13204.695521660769
 21
-1533.937772138061
  0
LINE
  5
3A
100
AcDbEntity
  8
1
  6
CONTINUOUS
 62
           7
100
AcDbLine
 10
13204.695521660769
 20
-1513.153162447234
 11
13216.623724891049
 21
-1513.153162447234
  0
LINE
  5
39
100
AcDbEntity
  8
1
  6
CONTINUOUS
 62
           7
100
AcDbLine
 10
13203.623724891049
 20
-1539.009568907785
 11
13203.623724891049
 21
-1515.009568907785
  0
LINE
  5
38
100
AcDbEntity
  8
1
  6
CONTINUOUS
 62
           7
100
AcDbLine
 10
13216.623724891049
 20
-1540.865975368336
 11
13204.695521660769
 21
-1540.865975368336
  0
LINE
  5
37
100
AcDbEntity
  8
1
  6
CONTINUOUS
 62
           7
100
AcDbLine
 10
13203.623724891049
 20
-1515.009568907785
 11
13204.695521660769
 21
-1513.153162447234
  0
LINE
  5
36
100
AcDbEntity
  8
1
  6
CONTINUOUS
 62
           7
100
AcDbLine
 10
13204.695521660769
 20
-1540.865975368336
 11
13203.623724891049
 21
-1539.009568907785
  0
LINE
  5
35
100
AcDbEntity
  8
1
  6
CONTINUOUS
 62
           7
100
AcDbLine
 10
13216.623724891049
 20
-1513.153162447234
 11
13216.623724891049
 21
-1512.009568907785
  0
LINE
  5
34
100
AcDbEntity
  8
1
  6
CONTINUOUS
 62
           7
100
AcDbLine
 10
13216.623724891049
 20
-1540.865975368336
 11
13216.623724891049
 21
-1542.009568907785
  0
LINE
  5
33
100
AcDbEntity
  8
1
  6
CONTINUOUS
 62
           7
100
AcDbLine
 10
13216.623724891049
 20
-1512.009568907785
 11
13219.623724891049
 21
-1512.009568907785
  0
LINE
  5
32
100
AcDbEntity
  8
1
  6
CONTINUOUS
 62
           7
100
AcDbLine
 10
13216.623724891049
 20
-1542.009568907785
 11
13216.623724891049
 21
-1512.009568907785
  0
LINE
  5
31
100
AcDbEntity
  8
1
  6
CONTINUOUS
 62
           7
100
AcDbLine
 10
13219.623724891049
 20
-1542.009568907785
 11
13216.623724891049
 21
-1542.009568907785
  0
LINE
  5
30
100
AcDbEntity
  8
1
  6
CONTINUOUS
 62
           7
100
AcDbLine
 10
13219.623724891049
 20
-1512.009568907785
 11
13219.623724891049
 21
-1542.009568907785
  0
LINE
  5
2F
100
AcDbEntity
  8
1
  6
CONTINUOUS
 62
           7
100
AcDbLine
 10
13303.623724891049
 20
-1677.009568907785
 11
13303.623724891049
 21
-1827.009568907785
  0
LINE
  5
2E
100
AcDbEntity
  8
1
  6
CONTINUOUS
 62
           7
100
AcDbLine
 10
13314.386848965651
 20
-1661.059176849118
 11
13314.386848965651
 21
-1392.959960966452
  0
LINE
  5
2D
100
AcDbEntity
  8
1
  6
CONTINUOUS
 62
           7
100
AcDbLine
 10
13274.623724891049
 20
-1499.509568907785
 11
13314.386848965651
 21
-1499.509568907785
  0
LINE
  5
2C
100
AcDbEntity
  8
1
  6
CONTINUOUS
 62
           7
100
AcDbLine
 10
13274.623724891049
 20
-1554.509568907785
 11
13314.386848965651
 21
-1554.509568907785
  0
POINT
  5
2B
100
AcDbEntity
  8
1
 62
           6
100
AcDbPoint
 10
10960.478724569721
 20
-1044.350738689671
  0
POINT
  5
2A
100
AcDbEntity
  8
1
 62
           6
100
AcDbPoint
 10
11573.310989816549
 20
-348.009568907785
  0
ENDBLK
  5
444
100
AcDbEntity
  8
0
100
AcDbBlockEnd
  0
ENDSEC
  0
SECTION
  2
ENTITIES
  0
TEXT
  5
447
100
AcDbEntity
  8
1
 62
           2
100
AcDbText
 10
15400.872135826899
 20
-3569.743720262341
 40
35.0
  1
SAT-1001C-85
 41
0.9
  7
CONVERTER_1
100
AcDbText
  0
INSERT
  5
29
100
AcDbEntity
  8
0
100
AcDbBlockReference
  2
SAT1001C85__1
 10
0.0
 20
0.0
  0
ENDSEC
  0
SECTION
  2
OBJECTS
  0
DICTIONARY
  5
19
100
AcDbDictionary
  3
ACAD_GROUP
350
1A
  3
ACAD_MLINESTYLE
350
1B
  0
DICTIONARY
  5
1A
102
{ACAD_REACTORS
330
19
102
}
100
AcDbDictionary
  0
DICTIONARY
  5
1B
102
{ACAD_REACTORS
330
19
102
}
100
AcDbDictionary
  3
STANDARD
350
1C
  0
MLINESTYLE
  5
1C
102
{ACAD_REACTORS
330
1B
102
}
100
AcDbMlineStyle
  2
STANDARD
 70
           0
  3

 62
           0
 51
90.0
 52
90.0
 71
           2
 49
0.5
 62
         256
  6
BYLAYER
 49
-0.5
 62
         256
  6
BYLAYER
  0
ENDSEC
  0
EOF
