  0
SECTION
  2
HEADER
  9
$ACADVER
  1
AC1027
  9
$ACADMAINTVER
 70
   105
  9
$DWGCODEPAGE
  3
ANSI_932
  9
$REQUIREDVERSIONS
160
                 0
  9
$LASTSAVEDBY
  1
kurimoto
  9
$INSBASE
 10
0.0
 20
0.0
 30
0.0
  9
$EXTMIN
 10
10285.4369192256
 20
-4422.626875858115
 30
0.0
  9
$EXTMAX
 10
17025.77712890613
 20
-237.626650913724
 30
0.0
  9
$LIMMIN
 10
0.0
 20
0.0
  9
$LIMMAX
 10
0.0
 20
0.0
  9
$ORTHOMODE
 70
     0
  9
$REGENMODE
 70
     1
  9
$FILLMODE
 70
     1
  9
$QTEXTMODE
 70
     0
  9
$MIRRTEXT
 70
     1
  9
$LTSCALE
 40
1.0
  9
$ATTMODE
 70
     1
  9
$TEXTSIZE
 40
0.0
  9
$TRACEWID
 40
0.05
  9
$TEXTSTYLE
  7
STANDARD
  9
$CLAYER
  8
0
  9
$CELTYPE
  6
CONTINUOUS
  9
$CECOLOR
 62
   256
  9
$CELTSCALE
 40
1.0
  9
$DISPSILH
 70
     0
  9
$DIMSCALE
 40
1.0
  9
$DIMASZ
 40
0.18
  9
$DIMEXO
 40
0.0625
  9
$DIMDLI
 40
0.38
  9
$DIMRND
 40
0.0
  9
$DIMDLE
 40
0.0
  9
$DIMEXE
 40
0.18
  9
$DIMTP
 40
0.0
  9
$DIMTM
 40
0.0
  9
$DIMTXT
 40
0.18
  9
$DIMCEN
 40
0.09
  9
$DIMTSZ
 40
0.0
  9
$DIMTOL
 70
     0
  9
$DIMLIM
 70
     0
  9
$DIMTIH
 70
     1
  9
$DIMTOH
 70
     1
  9
$DIMSE1
 70
     0
  9
$DIMSE2
 70
     0
  9
$DIMTAD
 70
     0
  9
$DIMZIN
 70
     0
  9
$DIMBLK
  1

  9
$DIMASO
 70
     1
  9
$DIMSHO
 70
     1
  9
$DIMPOST
  1

  9
$DIMAPOST
  1

  9
$DIMALT
 70
     0
  9
$DIMALTD
 70
     2
  9
$DIMALTF
 40
25.4
  9
$DIMLFAC
 40
1.0
  9
$DIMTOFL
 70
     0
  9
$DIMTVP
 40
0.0
  9
$DIMTIX
 70
     0
  9
$DIMSOXD
 70
     0
  9
$DIMSAH
 70
     0
  9
$DIMBLK1
  1

  9
$DIMBLK2
  1

  9
$DIMSTYLE
  2
STANDARD
  9
$DIMCLRD
 70
     0
  9
$DIMCLRE
 70
     0
  9
$DIMCLRT
 70
     0
  9
$DIMTFAC
 40
1.0
  9
$DIMGAP
 40
0.09
  9
$DIMJUST
 70
     0
  9
$DIMSD1
 70
     0
  9
$DIMSD2
 70
     0
  9
$DIMTOLJ
 70
     1
  9
$DIMTZIN
 70
     0
  9
$DIMALTZ
 70
     0
  9
$DIMALTTZ
 70
     0
  9
$DIMUPT
 70
     0
  9
$DIMDEC
 70
     4
  9
$DIMTDEC
 70
     4
  9
$DIMALTU
 70
     2
  9
$DIMALTTD
 70
     2
  9
$DIMTXSTY
  7
STANDARD
  9
$DIMAUNIT
 70
     0
  9
$DIMADEC
 70
     0
  9
$DIMALTRND
 40
0.0
  9
$DIMAZIN
 70
     0
  9
$DIMDSEP
 70
    46
  9
$DIMATFIT
 70
     3
  9
$DIMFRAC
 70
     0
  9
$DIMLDRBLK
  1

  9
$DIMLUNIT
 70
     2
  9
$DIMLWD
 70
    -2
  9
$DIMLWE
 70
    -2
  9
$DIMTMOVE
 70
     2
  9
$DIMFXL
 40
1.0
  9
$DIMFXLON
 70
     0
  9
$DIMJOGANG
 40
0.7853981633974483
  9
$DIMTFILL
 70
     0
  9
$DIMTFILLCLR
 70
     0
  9
$DIMARCSYM
 70
     0
  9
$DIMLTYPE
  6

  9
$DIMLTEX1
  6

  9
$DIMLTEX2
  6

  9
$DIMTXTDIRECTION
 70
     0
  9
$LUNITS
 70
     2
  9
$LUPREC
 70
     4
  9
$SKETCHINC
 40
0.1
  9
$FILLETRAD
 40
0.0
  9
$AUNITS
 70
     0
  9
$AUPREC
 70
     0
  9
$MENU
  1
acad
  9
$ELEVATION
 40
0.0
  9
$PELEVATION
 40
0.0
  9
$THICKNESS
 40
0.0
  9
$LIMCHECK
 70
     0
  9
$CHAMFERA
 40
0.0
  9
$CHAMFERB
 40
0.0
  9
$CHAMFERC
 40
0.0
  9
$CHAMFERD
 40
0.0
  9
$SKPOLY
 70
     0
  9
$TDCREATE
 40
2447893.0
  9
$TDUCREATE
 40
2447892.625
  9
$TDUPDATE
 40
2458624.381730162
  9
$TDUUPDATE
 40
2458624.006730162
  9
$TDINDWG
 40
0.0071201505
  9
$TDUSRTIMER
 40
0.0000984838
  9
$USRTIMER
 70
     1
  9
$ANGBASE
 50
0.0
  9
$ANGDIR
 70
     0
  9
$PDMODE
 70
     0
  9
$PDSIZE
 40
0.0
  9
$PLINEWID
 40
0.0
  9
$SPLFRAME
 70
     0
  9
$SPLINETYPE
 70
     6
  9
$SPLINESEGS
 70
     8
  9
$HANDSEED
  5
22CE
  9
$SURFTAB1
 70
     6
  9
$SURFTAB2
 70
     6
  9
$SURFTYPE
 70
     6
  9
$SURFU
 70
     6
  9
$SURFV
 70
     6
  9
$UCSBASE
  2

  9
$UCSNAME
  2

  9
$UCSORG
 10
0.0
 20
0.0
 30
0.0
  9
$UCSXDIR
 10
1.0
 20
0.0
 30
0.0
  9
$UCSYDIR
 10
0.0
 20
1.0
 30
0.0
  9
$UCSORTHOREF
  2

  9
$UCSORTHOVIEW
 70
     0
  9
$UCSORGTOP
 10
0.0
 20
0.0
 30
0.0
  9
$UCSORGBOTTOM
 10
0.0
 20
0.0
 30
0.0
  9
$UCSORGLEFT
 10
0.0
 20
0.0
 30
0.0
  9
$UCSORGRIGHT
 10
0.0
 20
0.0
 30
0.0
  9
$UCSORGFRONT
 10
0.0
 20
0.0
 30
0.0
  9
$UCSORGBACK
 10
0.0
 20
0.0
 30
0.0
  9
$PUCSBASE
  2

  9
$PUCSNAME
  2

  9
$PUCSORG
 10
0.0
 20
0.0
 30
0.0
  9
$PUCSXDIR
 10
1.0
 20
0.0
 30
0.0
  9
$PUCSYDIR
 10
0.0
 20
1.0
 30
0.0
  9
$PUCSORTHOREF
  2

  9
$PUCSORTHOVIEW
 70
     0
  9
$PUCSORGTOP
 10
0.0
 20
0.0
 30
0.0
  9
$PUCSORGBOTTOM
 10
0.0
 20
0.0
 30
0.0
  9
$PUCSORGLEFT
 10
0.0
 20
0.0
 30
0.0
  9
$PUCSORGRIGHT
 10
0.0
 20
0.0
 30
0.0
  9
$PUCSORGFRONT
 10
0.0
 20
0.0
 30
0.0
  9
$PUCSORGBACK
 10
0.0
 20
0.0
 30
0.0
  9
$USERI1
 70
     0
  9
$USERI2
 70
     0
  9
$USERI3
 70
     0
  9
$USERI4
 70
     0
  9
$USERI5
 70
     0
  9
$USERR1
 40
0.0
  9
$USERR2
 40
0.0
  9
$USERR3
 40
0.0
  9
$USERR4
 40
0.0
  9
$USERR5
 40
0.0
  9
$WORLDVIEW
 70
     1
  9
$SHADEDGE
 70
     3
  9
$SHADEDIF
 70
    70
  9
$TILEMODE
 70
     1
  9
$MAXACTVP
 70
    16
  9
$PINSBASE
 10
0.0
 20
0.0
 30
0.0
  9
$PLIMCHECK
 70
     0
  9
$PEXTMIN
 10
1.05
 20
0.6999999999999997
 30
0.0
  9
$PEXTMAX
 10
9.45
 20
6.300000000000001
 30
0.0
  9
$PLIMMIN
 10
-0.25
 20
-0.7500000000000001
  9
$PLIMMAX
 10
10.75
 20
7.75
  9
$UNITMODE
 70
     0
  9
$VISRETAIN
 70
     0
  9
$PLINEGEN
 70
     1
  9
$PSLTSCALE
 70
     1
  9
$TREEDEPTH
 70
  3020
  9
$CMLSTYLE
  2
STANDARD
  9
$CMLJUST
 70
     0
  9
$CMLSCALE
 40
1.0
  9
$PROXYGRAPHICS
 70
     0
  9
$MEASUREMENT
 70
     0
  9
$CELWEIGHT
370
    -1
  9
$ENDCAPS
280
     0
  9
$JOINSTYLE
280
     0
  9
$LWDISPLAY
290
     0
  9
$INSUNITS
 70
     0
  9
$HYPERLINKBASE
  1

  9
$STYLESHEET
  1

  9
$XEDIT
290
     1
  9
$CEPSNTYPE
380
     0
  9
$PSTYLEMODE
290
     1
  9
$FINGERPRINTGUID
  2
{56B29931-717C-4443-A223-2934E974387B}
  9
$VERSIONGUID
  2
{FAEB1C32-E019-11D5-929B-00C0DF256EC4}
  9
$EXTNAMES
290
     1
  9
$PSVPSCALE
 40
0.0
  9
$OLESTARTUP
290
     0
  9
$SORTENTS
280
   127
  9
$INDEXCTL
280
     0
  9
$HIDETEXT
280
     1
  9
$XCLIPFRAME
280
     2
  9
$HALOGAP
280
     0
  9
$OBSCOLOR
 70
   257
  9
$OBSLTYPE
280
     0
  9
$INTERSECTIONDISPLAY
280
     0
  9
$INTERSECTIONCOLOR
 70
   257
  9
$DIMASSOC
280
     2
  9
$PROJECTNAME
  1

  9
$CAMERADISPLAY
290
     0
  9
$LENSLENGTH
 40
50.0
  9
$CAMERAHEIGHT
 40
0.0
  9
$STEPSPERSEC
 40
2.0
  9
$STEPSIZE
 40
6.0
  9
$3DDWFPREC
 40
2.0
  9
$PSOLWIDTH
 40
0.25
  9
$PSOLHEIGHT
 40
4.0
  9
$LOFTANG1
 40
1.570796326794897
  9
$LOFTANG2
 40
1.570796326794897
  9
$LOFTMAG1
 40
0.0
  9
$LOFTMAG2
 40
0.0
  9
$LOFTPARAM
 70
     7
  9
$LOFTNORMALS
280
     1
  9
$LATITUDE
 40
37.795
  9
$LONGITUDE
 40
-122.394
  9
$NORTHDIRECTION
 40
0.0
  9
$TIMEZONE
 70
 -8000
  9
$LIGHTGLYPHDISPLAY
280
     1
  9
$TILEMODELIGHTSYNCH
280
     1
  9
$SOLIDHIST
280
     0
  9
$SHOWHIST
280
     1
  9
$DWFFRAME
280
     2
  9
$DGNFRAME
280
     2
  9
$REALWORLDSCALE
290
     1
  9
$INTERFERECOLOR
 62
   256
  9
$CSHADOW
280
     0
  9
$SHADOWPLANELOCATION
 40
0.0
  0
ENDSEC
  0
SECTION
  2
CLASSES
  0
CLASS
  1
LWPOLYLINE
  2
AcDbPolyline
  3
ObjectDBX Classes
 90
        0
 91
        1
280
     0
281
     1
  0
CLASS
  1
IMAGE
  2
AcDbRasterImage
  3
ISM
 90
      127
 91
        5
280
     0
281
     1
  0
CLASS
  1
OLE2FRAME
  2
AcDbOle2Frame
  3
ObjectDBX Classes
 90
        0
 91
        1
280
     0
281
     1
  0
CLASS
  1
HATCH
  2
AcDbHatch
  3
ObjectDBX Classes
 90
        0
 91
        1
280
     0
281
     1
  0
CLASS
  1
DICTIONARYVAR
  2
AcDbDictionaryVar
  3
ObjectDBX Classes
 90
        0
 91
        4
280
     0
281
     0
  0
CLASS
  1
RASTERVARIABLES
  2
AcDbRasterVariables
  3
ISM
 90
        0
 91
        4
280
     0
281
     0
  0
CLASS
  1
IMAGEDEF
  2
AcDbRasterImageDef
  3
ISM
 90
        0
 91
        4
280
     0
281
     0
  0
CLASS
  1
IMAGEDEF_REACTOR
  2
AcDbRasterImageDefReactor
  3
ISM
 90
        1
 91
        4
280
     0
281
     0
  0
CLASS
  1
IDBUFFER
  2
AcDbIdBuffer
  3
ObjectDBX Classes
 90
        0
 91
        4
280
     0
281
     0
  0
CLASS
  1
SPATIAL_FILTER
  2
AcDbSpatialFilter
  3
ObjectDBX Classes
 90
        0
 91
        4
280
     0
281
     0
  0
CLASS
  1
XRECORD
  2
AcDbXrecord
  3
ObjectDBX Classes
 90
        0
 91
        1
280
     0
281
     0
  0
CLASS
  1
SORTENTSTABLE
  2
AcDbSortentsTable
  3
ObjectDBX Classes
 90
        0
 91
        4
280
     0
281
     0
  0
CLASS
  1
LAYER_INDEX
  2
AcDbLayerIndex
  3
ObjectDBX Classes
 90
        0
 91
        4
280
     0
281
     0
  0
CLASS
  1
SPATIAL_INDEX
  2
AcDbSpatialIndex
  3
AutoCAD 2000
 90
        0
 91
        4
280
     0
281
     0
  0
CLASS
  1
OBJECT_PTR
  2
CAseDLPNTableRecord
  3
ASE-LPNTableRecord
 90
        1
 91
        4
280
     0
281
     0
  0
CLASS
  1
LAYOUT
  2
AcDbLayout
  3
ObjectDBX Classes
 90
        0
 91
        1
280
     0
281
     0
  0
CLASS
  1
PLOTSETTINGS
  2
AcDbPlotSettings
  3
ObjectDBX Classes
 90
        0
 91
        4
280
     0
281
     0
  0
CLASS
  1
ACDBDICTIONARYWDFLT
  2
AcDbDictionaryWithDefault
  3
ObjectDBX Classes
 90
        0
 91
        4
280
     0
281
     0
  0
CLASS
  1
ACDBPLACEHOLDER
  2
AcDbPlaceHolder
  3
ObjectDBX Classes
 90
        0
 91
        1
280
     0
281
     0
  0
CLASS
  1
VBA_PROJECT
  2
AcDbVbaProject
  3
ObjectDBX Classes
 90
        0
 91
        1
280
     0
281
     0
  0
CLASS
  1
WIPEOUT
  2
AcDbWipeout
  3
WipeOut|AutoCAD Express Tool|expresstools@autodesk.com
 90
      127
 91
        4
280
     0
281
     1
  0
CLASS
  1
WIPEOUTVARIABLES
  2
AcDbWipeoutVariables
  3
WipeOut|AutoCAD Express Tool|expresstools@autodesk.com
 90
        0
 91
        4
280
     0
281
     0
  0
CLASS
  1
RTEXT
  2
RText
  3
RText|AutoCAD Express Tool|expresstools@autodesk.com
 90
        0
 91
        4
280
     0
281
     1
  0
CLASS
  1
ARCALIGNEDTEXT
  2
AcDbArcAlignedText
  3
ATEXT|AutoCAD Express Tool|expresstools@autodesk.com
 90
        0
 91
        4
280
     0
281
     1
  0
CLASS
  1
SCALE
  2
AcDbScale
  3
ObjectDBX Classes
 90
     1153
 91
        4
280
     0
281
     0
  0
CLASS
  1
VISUALSTYLE
  2
AcDbVisualStyle
  3
ObjectDBX Classes
 90
     4095
 91
        4
280
     0
281
     0
  0
CLASS
  1
MATERIAL
  2
AcDbMaterial
  3
ObjectDBX Classes
 90
     1153
 91
        4
280
     0
281
     0
  0
CLASS
  1
TABLESTYLE
  2
AcDbTableStyle
  3
ObjectDBX Classes
 90
     4095
 91
        4
280
     0
281
     0
  0
CLASS
  1
MLEADERSTYLE
  2
AcDbMLeaderStyle
  3
ACDB_MLEADERSTYLE_CLASS
 90
     4095
 91
        4
280
     0
281
     0
  0
CLASS
  1
DIMASSOC
  2
AcDbDimAssoc
  3
"AcDbDimAssoc|Product Desc:     AcDim ARX App For Dimension|Company:          Autodesk, Inc.|WEB Address:      www.autodesk.com"
 90
        0
 91
        4
280
     0
281
     0
  0
CLASS
  1
CELLSTYLEMAP
  2
AcDbCellStyleMap
  3
ObjectDBX Classes
 90
     1152
 91
        4
280
     0
281
     0
  0
CLASS
  1
SUN
  2
AcDbSun
  3
SCENEOE
 90
     1153
 91
        4
280
     0
281
     0
  0
ENDSEC
  0
SECTION
  2
TABLES
  0
TABLE
  2
VPORT
  5
7
330
0
100
AcDbSymbolTable
 70
     1
  0
VPORT
  5
15
330
7
100
AcDbSymbolTableRecord
100
AcDbViewportTableRecord
  2
*ACTIVE
 70
     0
 10
0.0
 20
0.0
 11
1.0
 21
1.0
 12
13655.60702406587
 22
-2330.126794097863
 13
0.0
 23
0.0
 14
1.0
 24
1.0
 15
0.0
 25
0.0
 16
0.0
 26
0.0
 36
1.0
 17
0.0
 27
0.0
 37
0.0
 40
4268.700120146877
 41
2.085858585858586
 42
50.0
 43
0.0
 44
0.0
 50
0.0
 51
0.0
 71
    16
 72
   100
 73
     1
 74
     1
 75
     0
 76
     0
 77
     0
 78
     0
281
     0
 65
     1
110
0.0
120
0.0
130
0.0
111
1.0
121
0.0
131
0.0
112
0.0
122
1.0
132
0.0
 79
     0
146
0.0
348
514
 60
     3
 61
     5
292
     1
282
     1
141
0.0
142
0.0
 63
   256
361
14B5
  0
ENDTAB
  0
TABLE
  2
LTYPE
  5
4
330
0
100
AcDbSymbolTable
 70
     8
  0
LTYPE
  5
11
330
4
100
AcDbSymbolTableRecord
100
AcDbLinetypeTableRecord
  2
BYBLOCK
 70
     0
  3

 72
    65
 73
     0
 40
0.0
  0
LTYPE
  5
12
330
4
100
AcDbSymbolTableRecord
100
AcDbLinetypeTableRecord
  2
BYLAYER
 70
     0
  3

 72
    65
 73
     0
 40
0.0
  0
LTYPE
  5
13
330
4
100
AcDbSymbolTableRecord
100
AcDbLinetypeTableRecord
  2
CONTINUOUS
 70
     0
  3
Solid line
 72
    65
 73
     0
 40
0.0
  0
LTYPE
  5
1D
330
4
100
AcDbSymbolTableRecord
100
AcDbLinetypeTableRecord
  2
DASHED
 70
     0
  3
Dashed
 72
    65
 73
     2
 40
15.0
 49
12.0
 74
     0
 49
-3.0
 74
     0
  0
LTYPE
  5
1E
330
4
100
AcDbSymbolTableRecord
100
AcDbLinetypeTableRecord
  2
DOTTED
 70
     0
  3
Dotted
 72
    65
 73
     2
 40
3.5
 49
0.5
 74
     0
 49
-3.0
 74
     0
  0
LTYPE
  5
1F
330
4
100
AcDbSymbolTableRecord
100
AcDbLinetypeTableRecord
  2
DOT_CENTER
 70
     0
  3
Dot_Center
 72
    65
 73
     4
 40
2.0
 49
1.25
 74
     0
 49
-0.25
 74
     0
 49
0.25
 74
     0
 49
-0.25
 74
     0
  0
LTYPE
  5
20
330
4
100
AcDbSymbolTableRecord
100
AcDbLinetypeTableRecord
  2
LONG_DASHED
 70
     0
  3
Long_Dashed
 72
    65
 73
     2
 40
2.0
 49
1.5
 74
     0
 49
-0.5
 74
     0
  0
LTYPE
  5
21
330
4
100
AcDbSymbolTableRecord
100
AcDbLinetypeTableRecord
  2
DASH_CENTER
 70
     0
  3
Dash_Center
 72
    65
 73
     4
 40
36.0
 49
24.0
 74
     0
 49
-3.0
 74
     0
 49
6.0
 74
     0
 49
-3.0
 74
     0
  0
LTYPE
  5
22
330
4
100
AcDbSymbolTableRecord
100
AcDbLinetypeTableRecord
  2
PHANTOM
 70
     0
  3
Phantom
 72
    65
 73
     6
 40
2.5
 49
1.25
 74
     0
 49
-0.25
 74
     0
 49
0.25
 74
     0
 49
-0.25
 74
     0
 49
0.25
 74
     0
 49
-0.25
 74
     0
  0
LTYPE
  5
23
330
4
100
AcDbSymbolTableRecord
100
AcDbLinetypeTableRecord
  2
CENTER_DASH_DASH
 70
     0
  3
Center_Dash_Dash
 72
    65
 73
     6
 40
22.0
 49
12.0
 74
     0
 49
-3.0
 74
     0
 49
0.5
 74
     0
 49
-3.0
 74
     0
 49
0.5
 74
     0
 49
-3.0
 74
     0
  0
ENDTAB
  0
TABLE
  2
LAYER
  5
2
330
0
100
AcDbSymbolTable
 70
     3
  0
LAYER
  5
14
330
2
100
AcDbSymbolTableRecord
100
AcDbLayerTableRecord
  2
0
 70
     0
 62
     7
  6
CONTINUOUS
370
    -3
390
4E9
347
52B
348
0
  0
LAYER
  5
24
330
2
100
AcDbSymbolTableRecord
100
AcDbLayerTableRecord
  2
1
 70
     0
 62
     7
  6
CONTINUOUS
370
    -3
390
4E9
347
52B
348
0
  0
LAYER
  5
9ED
330
2
100
AcDbSymbolTableRecord
100
AcDbLayerTableRecord
  2
Defpoints
 70
     0
 62
     7
  6
CONTINUOUS
290
     0
370
    -3
390
4E9
347
52B
348
0
  0
ENDTAB
  0
TABLE
  2
STYLE
  5
3
330
0
100
AcDbSymbolTable
 70
     2
  0
STYLE
  5
17
330
3
100
AcDbSymbolTableRecord
100
AcDbTextStyleTableRecord
  2
STANDARD
 70
     0
 40
0.0
 41
1.0
 50
0.0
 71
     0
 42
0.0
  3
txt
  4

  0
STYLE
  5
4E4
330
3
100
AcDbSymbolTableRecord
100
AcDbTextStyleTableRecord
  2
CONVERTER_1
 70
     0
 40
0.0
 41
0.9
 50
0.0
 71
     0
 42
0.0
  3
txt.shx
  4

  0
ENDTAB
  0
TABLE
  2
VIEW
  5
5
330
0
100
AcDbSymbolTable
 70
     0
  0
ENDTAB
  0
TABLE
  2
UCS
  5
6
330
0
100
AcDbSymbolTable
 70
     0
  0
ENDTAB
  0
TABLE
  2
APPID
  5
8
330
0
100
AcDbSymbolTable
 70
     1
  0
APPID
  5
16
330
8
100
AcDbSymbolTableRecord
100
AcDbRegAppTableRecord
  2
ACAD
 70
     0
  0
ENDTAB
  0
TABLE
  2
DIMSTYLE
  5
9
330
0
100
AcDbSymbolTable
 70
     1
100
AcDbDimStyleTable
  0
DIMSTYLE
105
18
330
9
100
AcDbSymbolTableRecord
100
AcDbDimStyleTableRecord
  2
STANDARD
 70
     0
178
     0
289
     0
340
17
  0
ENDTAB
  0
TABLE
  2
BLOCK_RECORD
  5
1
330
0
100
AcDbSymbolTable
 70
     1
  0
BLOCK_RECORD
  5
A
330
1
100
AcDbSymbolTableRecord
100
AcDbBlockTableRecord
  2
*MODEL_SPACE
340
50D
 70
     0
280
     1
281
     0
  0
BLOCK_RECORD
  5
22BF
330
1
100
AcDbSymbolTableRecord
100
AcDbBlockTableRecord
  2
*Paper_Space
340
22C0
 70
     0
280
     1
281
     0
  0
BLOCK_RECORD
  5
25
330
1
100
AcDbSymbolTableRecord
100
AcDbBlockTableRecord
  2
SAT1500C100__1
340
0
102
{BLKREFS
331
29
102
}
 70
     0
280
     1
281
     0
  0
ENDTAB
  0
ENDSEC
  0
SECTION
  2
BLOCKS
  0
BLOCK
  5
D
330
A
100
AcDbEntity
  8
0
100
AcDbBlockBegin
  2
*MODEL_SPACE
 70
     0
 10
0.0
 20
0.0
 30
0.0
  3
*MODEL_SPACE
  1

  0
ENDBLK
  5
E
330
A
100
AcDbEntity
  8
0
100
AcDbBlockEnd
  0
BLOCK
  5
22C1
330
22BF
100
AcDbEntity
 67
     1
  8
0
100
AcDbBlockBegin
  2
*Paper_Space
 70
     0
 10
0.0
 20
0.0
 30
0.0
  3
*Paper_Space
  1

  0
ENDBLK
  5
22C2
330
22BF
100
AcDbEntity
 67
     1
  8
0
100
AcDbBlockEnd
  0
BLOCK
  5
26
330
25
100
AcDbEntity
  8
0
100
AcDbBlockBegin
  2
SAT1500C100__1
 70
     0
 10
0.0
 20
0.0
 30
0.0
  3
SAT1500C100__1
  1

  0
ARC
  5
4E1
330
25
100
AcDbEntity
  8
1
  6
Continuous
 62
     0
100
AcDbCircle
 10
10362.59674493412
 20
-3918.62685299339
 30
0.0
 40
2.0
100
AcDbArc
 50
270.0
 51
0.0
  0
ARC
  5
4E0
330
25
100
AcDbEntity
  8
1
  6
Continuous
 62
     0
100
AcDbCircle
 10
10362.59674493412
 20
-3887.62685299339
 30
0.0
 40
2.0
100
AcDbArc
 50
0.0
 51
90.0
  0
ARC
  5
4DF
330
25
100
AcDbEntity
  8
1
  6
Continuous
 62
     0
100
AcDbCircle
 10
10288.59674493412
 20
-3918.62685299339
 30
0.0
 40
2.0
100
AcDbArc
 50
180.0
 51
270.0
  0
ARC
  5
4DE
330
25
100
AcDbEntity
  8
1
  6
Continuous
 62
     0
100
AcDbCircle
 10
10288.59674493412
 20
-3887.62685299339
 30
0.0
 40
2.0
100
AcDbArc
 50
90.0
 51
180.0
  0
ARC
  5
4DD
330
25
100
AcDbEntity
  8
1
  6
Continuous
 62
     0
100
AcDbCircle
 10
10394.35547179254
 20
-3883.62685299339
 30
0.0
 40
3.0
100
AcDbArc
 50
90.0
 51
125.0511367474353
  0
ARC
  5
4DC
330
25
100
AcDbEntity
  8
1
  6
Continuous
 62
     0
100
AcDbCircle
 10
10375.35547179254
 20
-3883.62685299339
 30
0.0
 40
3.000000000005
100
AcDbArc
 50
54.9488632525427
 51
90.0
  0
ARC
  5
4DB
330
25
100
AcDbEntity
  8
1
  6
Continuous
 62
     0
100
AcDbCircle
 10
10967.09547179254
 20
-3303.891535498189
 30
0.0
 40
1.0
100
AcDbArc
 50
270.0
 51
0.0
  0
ARC
  5
4DA
330
25
100
AcDbEntity
  8
1
  6
Continuous
 62
     0
100
AcDbCircle
 10
10967.09547179254
 20
-3360.891535498189
 30
0.0
 40
1.0
100
AcDbArc
 50
0.0
 51
90.0
  0
ARC
  5
4D9
330
25
100
AcDbEntity
  8
1
  6
Continuous
 62
     0
100
AcDbCircle
 10
10339.05721567047
 20
-1265.629811676175
 30
0.0
 40
3.0
100
AcDbArc
 50
180.0
 51
270.0
  0
ARC
  5
4D8
330
25
100
AcDbEntity
  8
1
  6
Continuous
 62
     0
100
AcDbCircle
 10
10339.05721567047
 20
-1294.629811676175
 30
0.0
 40
3.0
100
AcDbArc
 50
90.0
 51
180.0
  0
ARC
  5
4D7
330
25
100
AcDbEntity
  8
1
  6
Continuous
 62
     0
100
AcDbCircle
 10
10395.57869870443
 20
-1287.479811676174
 30
0.0
 40
3.0
100
AcDbArc
 50
90.0
 51
145.5709960492125
  0
ARC
  5
4D6
330
25
100
AcDbEntity
  8
1
  6
Continuous
 62
     0
100
AcDbCircle
 10
10395.57869870443
 20
-1272.779811676172
 30
0.0
 40
3.00000000001
100
AcDbArc
 50
214.4290039508271
 51
270.0
  0
ARC
  5
4D5
330
25
100
AcDbEntity
  8
1
  6
Continuous
 62
     0
100
AcDbCircle
 10
10374.13318635335
 20
-1272.779811676172
 30
0.0
 40
3.0
100
AcDbArc
 50
270.0
 51
325.5709960491499
  0
ARC
  5
4D4
330
25
100
AcDbEntity
  8
1
  6
Continuous
 62
     0
100
AcDbCircle
 10
10374.13318635335
 20
-1287.479811676174
 30
0.0
 40
3.000000000006
100
AcDbArc
 50
34.42900395078583
 51
90.0
  0
ARC
  5
4D3
330
25
100
AcDbEntity
  8
1
  6
Continuous
 62
     0
100
AcDbCircle
 10
10688.35647145251
 20
-289.889499045063
 30
0.0
 40
3.000000000001
100
AcDbArc
 50
137.5744390992132
 51
201.5834380280388
  0
ARC
  5
4D2
330
25
100
AcDbEntity
  8
1
  6
Continuous
 62
     0
100
AcDbCircle
 10
10654.03320222286
 20
-299.086391316743
 30
0.0
 40
3.000000000003
100
AcDbArc
 50
8.416561971944557
 51
72.42556090079326
  0
ARC
  5
4D1
330
25
100
AcDbEntity
  8
1
  6
Continuous
 62
     0
100
AcDbCircle
 10
10680.26859367346
 20
-285.755327441913
 30
0.0
 40
3.000000000003
100
AcDbArc
 50
21.58343802803913
 51
98.76538902695302
  0
ARC
  5
4D0
330
25
100
AcDbEntity
  8
1
  6
Continuous
 62
     0
100
AcDbCircle
 10
10658.97042404064
 20
-291.462154795288
 30
0.0
 40
3.000000000001
100
AcDbArc
 50
111.234610972902
 51
188.416561971941
  0
ARC
  5
4CF
330
25
100
AcDbEntity
  8
1
  6
Continuous
 62
     0
100
AcDbCircle
 10
10949.09547179254
 20
-2596.896441902432
 30
0.0
 40
3.0
100
AcDbArc
 50
0.0
 51
38.09195710516668
  0
ARC
  5
4CE
330
25
100
AcDbEntity
  8
1
  6
Continuous
 62
     0
100
AcDbCircle
 10
10949.09547179254
 20
-2573.723181449917
 30
0.0
 40
3.000000000004
100
AcDbArc
 50
321.9080428948069
 51
0.0
  0
ARC
  5
4CD
330
25
100
AcDbEntity
  8
1
  6
Continuous
 62
     0
100
AcDbCircle
 10
13697.39833861726
 20
-2577.559811676175
 30
0.0
 40
2.0
100
AcDbArc
 50
270.0
 51
328.8910774892695
  0
ARC
  5
4CC
330
25
100
AcDbEntity
  8
1
  6
Continuous
 62
     0
100
AcDbCircle
 10
13697.39833861726
 20
-2593.059811676175
 30
0.0
 40
1.999999999996
100
AcDbArc
 50
31.10892251044708
 51
90.0
  0
ARC
  5
4CB
330
25
100
AcDbEntity
  8
1
  6
Continuous
 62
     0
100
AcDbCircle
 10
13723.08393769535
 20
-2577.559811676175
 30
0.0
 40
2.00000000001
100
AcDbArc
 50
211.1089225106025
 51
270.0
  0
ARC
  5
4CA
330
25
100
AcDbEntity
  8
1
  6
Continuous
 62
     0
100
AcDbCircle
 10
13723.08393769535
 20
-2593.059811676175
 30
0.0
 40
2.0
100
AcDbArc
 50
90.0
 51
148.8910774896783
  0
ARC
  5
4C9
330
25
100
AcDbEntity
  8
1
  6
Continuous
 62
     0
100
AcDbCircle
 10
13703.4911381563
 20
-2573.309811676174
 30
0.0
 40
2.0
100
AcDbArc
 50
90.0
 51
180.0
  0
ARC
  5
4C8
330
25
100
AcDbEntity
  8
1
  6
Continuous
 62
     0
100
AcDbCircle
 10
10303.27654368601
 20
-1214.407625892732
 30
0.0
 40
0.144444444446
100
AcDbArc
 50
137.7821654181386
 51
312.2178345821163
  0
ARC
  5
4C7
330
25
100
AcDbEntity
  8
1
  6
Continuous
 62
     0
100
AcDbCircle
 10
10902.09547179254
 20
-1060.409811676174
 30
0.0
 40
1.0
100
AcDbArc
 50
90.0
 51
180.0
  0
ARC
  5
4C6
330
25
100
AcDbEntity
  8
1
  6
Continuous
 62
     0
100
AcDbCircle
 10
10940.09547179254
 20
-1060.409811676174
 30
0.0
 40
1.0
100
AcDbArc
 50
0.0
 51
90.0
  0
ARC
  5
4C5
330
25
100
AcDbEntity
  8
1
  6
Continuous
 62
     0
100
AcDbCircle
 10
10944.09547179254
 20
-1066.409811676174
 30
0.0
 40
2.0
100
AcDbArc
 50
0.0
 51
90.0
  0
ARC
  5
4C4
330
25
100
AcDbEntity
  8
1
  6
Continuous
 62
     0
100
AcDbCircle
 10
10898.09547179254
 20
-1066.409811676174
 30
0.0
 40
2.0
100
AcDbArc
 50
90.0
 51
180.0
  0
ARC
  5
4C3
330
25
100
AcDbEntity
  8
1
  6
Continuous
 62
     0
100
AcDbCircle
 10
10899.09547179254
 20
-1062.409811676174
 30
0.0
 40
2.0
100
AcDbArc
 50
270.0
 51
0.0
  0
ARC
  5
4C2
330
25
100
AcDbEntity
  8
1
  6
Continuous
 62
     0
100
AcDbCircle
 10
10943.09547179254
 20
-1062.409811676174
 30
0.0
 40
2.0
100
AcDbArc
 50
180.0
 51
270.0
  0
ARC
  5
4C1
330
25
100
AcDbEntity
  8
1
  6
Continuous
 62
     0
100
AcDbCircle
 10
10946.09547179254
 20
-1107.832461406984
 30
0.0
 40
2.0
100
AcDbArc
 50
180.0
 51
239.9999999999994
  0
ARC
  5
4C0
330
25
100
AcDbEntity
  8
1
  6
Continuous
 62
     0
100
AcDbCircle
 10
10941.09547179254
 20
-1107.409811676174
 30
0.0
 40
1.0
100
AcDbArc
 50
270.0
 51
0.0
  0
ARC
  5
4BF
330
25
100
AcDbEntity
  8
1
  6
Continuous
 62
     0
100
AcDbCircle
 10
10930.42880512587
 20
-1107.409811676174
 30
0.0
 40
1.0
100
AcDbArc
 50
180.0
 51
270.0
  0
ARC
  5
4BE
330
25
100
AcDbEntity
  8
1
  6
Continuous
 62
     0
100
AcDbCircle
 10
10926.42880512587
 20
-1107.409811676174
 30
0.0
 40
1.0
100
AcDbArc
 50
270.0
 51
0.0
  0
ARC
  5
4BD
330
25
100
AcDbEntity
  8
1
  6
Continuous
 62
     0
100
AcDbCircle
 10
10915.76213845921
 20
-1107.409811676174
 30
0.0
 40
1.0
100
AcDbArc
 50
180.0
 51
270.0
  0
ARC
  5
4BC
330
25
100
AcDbEntity
  8
1
  6
Continuous
 62
     0
100
AcDbCircle
 10
10911.76213845921
 20
-1107.409811676174
 30
0.0
 40
1.0
100
AcDbArc
 50
270.0
 51
0.0
  0
ARC
  5
4BB
330
25
100
AcDbEntity
  8
1
  6
Continuous
 62
     0
100
AcDbCircle
 10
10896.09547179254
 20
-1107.832461406984
 30
0.0
 40
2.000000000001
100
AcDbArc
 50
299.9999999999842
 51
0.0
  0
ARC
  5
4BA
330
25
100
AcDbEntity
  8
1
  6
Continuous
 62
     0
100
AcDbCircle
 10
10901.09547179254
 20
-1107.409811676174
 30
0.0
 40
1.0
100
AcDbArc
 50
180.0
 51
270.0
  0
ARC
  5
4B9
330
25
100
AcDbEntity
  8
1
  6
Continuous
 62
     0
100
AcDbCircle
 10
10886.09547179254
 20
-1123.409811676174
 30
0.0
 40
5.0
100
AcDbArc
 50
90.0
 51
180.0
  0
ARC
  5
4B8
330
25
100
AcDbEntity
  8
1
  6
Continuous
 62
     0
100
AcDbCircle
 10
10956.09547179254
 20
-1123.409811676174
 30
0.0
 40
5.0
100
AcDbArc
 50
0.0
 51
90.0
  0
ARC
  5
4B7
330
25
100
AcDbEntity
  8
1
  6
Continuous
 62
     0
100
AcDbCircle
 10
10886.09547179254
 20
-1176.909811676174
 30
0.0
 40
5.0
100
AcDbArc
 50
180.0
 51
270.0
  0
ARC
  5
4B6
330
25
100
AcDbEntity
  8
1
  6
Continuous
 62
     0
100
AcDbCircle
 10
10962.09547179254
 20
-1124.409811676174
 30
0.0
 40
1.0
100
AcDbArc
 50
180.0
 51
270.0
  0
ARC
  5
4B5
330
25
100
AcDbEntity
  8
1
  6
Continuous
 62
     0
100
AcDbCircle
 10
10967.09547179254
 20
-1124.409811676174
 30
0.0
 40
1.0
100
AcDbArc
 50
270.0
 51
0.0
  0
ARC
  5
4B4
330
25
100
AcDbEntity
  8
1
  6
Continuous
 62
     0
100
AcDbCircle
 10
10962.09547179254
 20
-1181.409811676174
 30
0.0
 40
1.0
100
AcDbArc
 50
90.0
 51
180.0
  0
ARC
  5
4B3
330
25
100
AcDbEntity
  8
1
  6
Continuous
 62
     0
100
AcDbCircle
 10
10967.09547179254
 20
-1181.409811676174
 30
0.0
 40
1.0
100
AcDbArc
 50
0.0
 51
90.0
  0
ARC
  5
4B2
330
25
100
AcDbEntity
  8
1
  6
Continuous
 62
     0
100
AcDbCircle
 10
10953.09547179254
 20
-1189.909811676174
 30
0.0
 40
3.0
100
AcDbArc
 50
270.0
 51
0.0
  0
ARC
  5
4B1
330
25
100
AcDbEntity
  8
1
  6
Continuous
 62
     0
100
AcDbCircle
 10
10889.09547179254
 20
-1189.909811676174
 30
0.0
 40
3.0
100
AcDbArc
 50
180.0
 51
270.0
  0
ARC
  5
4B0
330
25
100
AcDbEntity
  8
1
  6
Continuous
 62
     0
100
AcDbCircle
 10
13171.14773509611
 20
-1176.909811676174
 30
0.0
 40
5.0
100
AcDbArc
 50
270.0
 51
0.0
  0
ARC
  5
4AF
330
25
100
AcDbEntity
  8
1
  6
Continuous
 62
     0
100
AcDbCircle
 10
13104.14773509611
 20
-1189.909811676174
 30
0.0
 40
3.0
100
AcDbArc
 50
180.0
 51
270.0
  0
ARC
  5
4AE
330
25
100
AcDbEntity
  8
1
  6
Continuous
 62
     0
100
AcDbCircle
 10
13168.14773509611
 20
-1189.909811676174
 30
0.0
 40
3.0
100
AcDbArc
 50
270.0
 51
0.0
  0
ARC
  5
4AD
330
25
100
AcDbEntity
  8
1
  6
Continuous
 62
     0
100
AcDbCircle
 10
13101.14773509611
 20
-1176.909811676174
 30
0.0
 40
5.0
100
AcDbArc
 50
180.0
 51
270.0
  0
ARC
  5
4AC
330
25
100
AcDbEntity
  8
1
  6
Continuous
 62
     0
100
AcDbCircle
 10
13171.14773509611
 20
-1123.409811676174
 30
0.0
 40
5.0
100
AcDbArc
 50
0.0
 51
90.0
  0
ARC
  5
4AB
330
25
100
AcDbEntity
  8
1
  6
Continuous
 62
     0
100
AcDbCircle
 10
13101.14773509611
 20
-1123.409811676174
 30
0.0
 40
5.0
100
AcDbArc
 50
90.0
 51
180.0
  0
ARC
  5
4AA
330
25
100
AcDbEntity
  8
1
  6
Continuous
 62
     0
100
AcDbCircle
 10
13116.14773509611
 20
-1107.409811676174
 30
0.0
 40
1.0
100
AcDbArc
 50
180.0
 51
270.0
  0
ARC
  5
4A9
330
25
100
AcDbEntity
  8
1
  6
Continuous
 62
     0
100
AcDbCircle
 10
13111.14773509611
 20
-1107.832461406984
 30
0.0
 40
2.000000000001
100
AcDbArc
 50
299.9999999999842
 51
0.0
  0
ARC
  5
4A8
330
25
100
AcDbEntity
  8
1
  6
Continuous
 62
     0
100
AcDbCircle
 10
13126.81440176278
 20
-1107.409811676174
 30
0.0
 40
1.0
100
AcDbArc
 50
270.0
 51
0.0
  0
ARC
  5
4A7
330
25
100
AcDbEntity
  8
1
  6
Continuous
 62
     0
100
AcDbCircle
 10
13130.81440176278
 20
-1107.409811676174
 30
0.0
 40
1.0
100
AcDbArc
 50
180.0
 51
270.0
  0
ARC
  5
4A6
330
25
100
AcDbEntity
  8
1
  6
Continuous
 62
     0
100
AcDbCircle
 10
13141.48106842944
 20
-1107.409811676174
 30
0.0
 40
1.0
100
AcDbArc
 50
270.0
 51
0.0
  0
ARC
  5
4A5
330
25
100
AcDbEntity
  8
1
  6
Continuous
 62
     0
100
AcDbCircle
 10
13145.48106842944
 20
-1107.409811676174
 30
0.0
 40
1.0
100
AcDbArc
 50
180.0
 51
270.0
  0
ARC
  5
4A4
330
25
100
AcDbEntity
  8
1
  6
Continuous
 62
     0
100
AcDbCircle
 10
13156.14773509611
 20
-1107.409811676174
 30
0.0
 40
1.0
100
AcDbArc
 50
270.0
 51
0.0
  0
ARC
  5
4A3
330
25
100
AcDbEntity
  8
1
  6
Continuous
 62
     0
100
AcDbCircle
 10
13161.14773509611
 20
-1107.832461406984
 30
0.0
 40
2.0
100
AcDbArc
 50
180.0
 51
239.9999999999994
  0
ARC
  5
4A2
330
25
100
AcDbEntity
  8
1
  6
Continuous
 62
     0
100
AcDbCircle
 10
13158.14773509611
 20
-1062.40914033759
 30
0.0
 40
2.0
100
AcDbArc
 50
180.0
 51
270.0
  0
ARC
  5
4A1
330
25
100
AcDbEntity
  8
1
  6
Continuous
 62
     0
100
AcDbCircle
 10
13114.14773509611
 20
-1062.40914033759
 30
0.0
 40
2.0
100
AcDbArc
 50
270.0
 51
0.0
  0
ARC
  5
4A0
330
25
100
AcDbEntity
  8
1
  6
Continuous
 62
     0
100
AcDbCircle
 10
13113.14773509611
 20
-1066.40914033759
 30
0.0
 40
2.0
100
AcDbArc
 50
90.0
 51
180.0
  0
ARC
  5
49F
330
25
100
AcDbEntity
  8
1
  6
Continuous
 62
     0
100
AcDbCircle
 10
13159.14773509611
 20
-1066.40914033759
 30
0.0
 40
2.0
100
AcDbArc
 50
0.0
 51
90.0
  0
ARC
  5
49E
330
25
100
AcDbEntity
  8
1
  6
Continuous
 62
     0
100
AcDbCircle
 10
13155.14773509611
 20
-1060.40914033759
 30
0.0
 40
1.0
100
AcDbArc
 50
0.0
 51
90.0
  0
ARC
  5
49D
330
25
100
AcDbEntity
  8
1
  6
Continuous
 62
     0
100
AcDbCircle
 10
13117.14773509611
 20
-1060.40914033759
 30
0.0
 40
1.0
100
AcDbArc
 50
90.0
 51
180.0
  0
ARC
  5
49C
330
25
100
AcDbEntity
  8
1
  6
Continuous
 62
     0
100
AcDbCircle
 10
13160.5058206611
 20
-1269.631356208746
 30
0.0
 40
45.0
100
AcDbArc
 50
180.0
 51
270.0
  0
ARC
  5
49B
330
25
100
AcDbEntity
  8
1
  6
Continuous
 62
     0
100
AcDbCircle
 10
13162.5058206611
 20
-1239.628267143603
 30
0.0
 40
6.0
100
AcDbArc
 50
180.0
 51
270.0
  0
ARC
  5
49A
330
25
100
AcDbEntity
  8
1
  6
Continuous
 62
     0
100
AcDbCircle
 10
10870.59547179254
 20
-1240.002523615713
 30
0.0
 40
29.999999999999
100
AcDbArc
 50
321.5293544593936
 51
0.0
  0
ARC
  5
499
330
25
100
AcDbEntity
  8
1
  6
Continuous
 62
     0
100
AcDbCircle
 10
10971.59547179254
 20
-1240.002523615713
 30
0.0
 40
30.0
100
AcDbArc
 50
180.0
 51
218.4706455406088
  0
ARC
  5
498
330
25
100
AcDbEntity
  8
1
  6
Continuous
 62
     0
100
AcDbCircle
 10
11183.22051954444
 20
-291.462154795288
 30
0.0
 40
2.999999999992
100
AcDbArc
 50
351.5834380280581
 51
68.76538902714286
  0
ARC
  5
497
330
25
100
AcDbEntity
  8
1
  6
Continuous
 62
     0
100
AcDbCircle
 10
11161.92234991162
 20
-285.755327441913
 30
0.0
 40
3.000000000001
100
AcDbArc
 50
81.23461097283024
 51
158.4165619719612
  0
ARC
  5
496
330
25
100
AcDbEntity
  8
1
  6
Continuous
 62
     0
100
AcDbCircle
 10
11188.15774136222
 20
-299.086391316743
 30
0.0
 40
3.0
100
AcDbArc
 50
107.5744390991887
 51
171.5834380280463
  0
ARC
  5
495
330
25
100
AcDbEntity
  8
1
  6
Continuous
 62
     0
100
AcDbCircle
 10
11153.83447213257
 20
-289.889499045063
 30
0.0
 40
3.000000000003
100
AcDbArc
 50
338.4165619719599
 51
42.42556090077296
  0
ARC
  5
48C
330
25
100
AcDbEntity
  8
1
  6
Continuous
 62
     0
100
AcDbCircle
 10
10919.09547179254
 20
-4417.62685299339
 30
0.0
 40
2.0
100
AcDbArc
 50
180.0
 51
270.0
  0
ARC
  5
48B
330
25
100
AcDbEntity
  8
1
  6
Continuous
 62
     0
100
AcDbCircle
 10
10923.09547179254
 20
-4417.62685299339
 30
0.0
 40
2.0
100
AcDbArc
 50
270.0
 51
0.0
  0
ARC
  5
48A
330
25
100
AcDbEntity
  8
1
  6
Continuous
 62
     0
100
AcDbCircle
 10
10919.09547179254
 20
-4417.62685299339
 30
0.0
 40
2.0
100
AcDbArc
 50
180.0
 51
270.0
  0
ARC
  5
489
330
25
100
AcDbEntity
  8
1
  6
Continuous
 62
     0
100
AcDbCircle
 10
10923.09547179254
 20
-4417.62685299339
 30
0.0
 40
2.0
100
AcDbArc
 50
270.0
 51
0.0
  0
ARC
  5
488
330
25
100
AcDbEntity
  8
1
  6
Continuous
 62
     0
100
AcDbCircle
 10
10919.09547179254
 20
-4417.62685299339
 30
0.0
 40
2.0
100
AcDbArc
 50
180.0
 51
270.0
  0
ARC
  5
487
330
25
100
AcDbEntity
  8
1
  6
Continuous
 62
     0
100
AcDbCircle
 10
10923.09547179254
 20
-4417.62685299339
 30
0.0
 40
2.0
100
AcDbArc
 50
270.0
 51
0.0
  0
ARC
  5
486
330
25
100
AcDbEntity
  8
1
  6
Continuous
 62
     0
100
AcDbCircle
 10
10919.09547179254
 20
-4417.62685299339
 30
0.0
 40
2.0
100
AcDbArc
 50
180.0
 51
270.0
  0
ARC
  5
485
330
25
100
AcDbEntity
  8
1
  6
Continuous
 62
     0
100
AcDbCircle
 10
10923.09547179254
 20
-4417.62685299339
 30
0.0
 40
2.0
100
AcDbArc
 50
270.0
 51
0.0
  0
CIRCLE
  5
484
330
25
100
AcDbEntity
  8
1
  6
Continuous
 62
     0
100
AcDbCircle
 10
10325.59674493412
 20
-3906.626852993391
 30
0.0
 40
8.330999999999
  0
CIRCLE
  5
483
330
25
100
AcDbEntity
  8
1
  6
Continuous
 62
     0
100
AcDbCircle
 10
10325.59674493412
 20
-3906.626852993391
 30
0.0
 40
7.474999999999
  0
CIRCLE
  5
482
330
25
100
AcDbEntity
  8
1
  6
Continuous
 62
     0
100
AcDbCircle
 10
11221.61585379682
 20
-3606.106470989108
 30
0.0
 40
11.5
  0
CIRCLE
  5
481
330
25
100
AcDbEntity
  8
1
  6
Continuous
 62
     0
100
AcDbCircle
 10
10620.57508978826
 20
-3606.106470989108
 30
0.0
 40
11.5
  0
CIRCLE
  5
480
330
25
100
AcDbEntity
  8
1
  6
Continuous
 62
     0
100
AcDbCircle
 10
10620.57508978826
 20
-4207.147234997674
 30
0.0
 40
11.5
  0
CIRCLE
  5
47F
330
25
100
AcDbEntity
  8
1
  6
Continuous
 62
     0
100
AcDbCircle
 10
11221.61585379682
 20
-4207.147234997674
 30
0.0
 40
11.5
  0
CIRCLE
  5
47D
330
25
100
AcDbEntity
  8
1
  6
Continuous
 62
     0
100
AcDbCircle
 10
10384.85594252889
 20
-1280.129811676175
 30
0.0
 40
8.5
  0
CIRCLE
  5
47C
330
25
100
AcDbEntity
  8
1
  6
Continuous
 62
     0
100
AcDbCircle
 10
10384.85594252889
 20
-1280.129811676175
 30
0.0
 40
5.0
  0
CIRCLE
  5
47B
330
25
100
AcDbEntity
  8
1
  6
Continuous
 62
     0
100
AcDbCircle
 10
10384.85594252889
 20
-1280.129811676175
 30
0.0
 40
3.0
  0
CIRCLE
  5
47A
330
25
100
AcDbEntity
  8
1
  6
Continuous
 62
     0
100
AcDbCircle
 10
10384.85594252889
 20
-1280.129811676175
 30
0.0
 40
6.25
  0
CIRCLE
  5
46C
330
25
100
AcDbEntity
  8
1
  6
Continuous
 62
     0
100
AcDbCircle
 10
10663.99737473114
 20
-267.626650913725
 30
0.0
 40
17.500000000001
  0
CIRCLE
  5
46B
330
25
100
AcDbEntity
  8
1
  6
Continuous
 62
     0
100
AcDbCircle
 10
13710.2411381563
 20
-1280.129811676175
 30
0.0
 40
41.0
  0
CIRCLE
  5
46A
330
25
100
AcDbEntity
  8
1
  6
Continuous
 62
     0
100
AcDbCircle
 10
13710.2411381563
 20
-1280.129811676175
 30
0.0
 40
36.113000000001
  0
CIRCLE
  5
468
330
25
100
AcDbEntity
  8
1
  6
Continuous
 62
     0
100
AcDbCircle
 10
13710.2411381563
 20
-2585.309811676175
 30
0.0
 40
11.100000000001
  0
CIRCLE
  5
467
330
25
100
AcDbEntity
  8
1
  6
Continuous
 62
     0
100
AcDbCircle
 10
13710.2411381563
 20
-2585.309811676175
 30
0.0
 40
6.0
  0
CIRCLE
  5
466
330
25
100
AcDbEntity
  8
1
  6
Continuous
 62
     0
100
AcDbCircle
 10
13710.2411381563
 20
-2585.309811676175
 30
0.0
 40
7.5
  0
CIRCLE
  5
465
330
25
100
AcDbEntity
  8
1
  6
Continuous
 62
     0
100
AcDbCircle
 10
13710.2411381563
 20
-2585.309811676175
 30
0.0
 40
3.600000000001
  0
CIRCLE
  5
464
330
25
100
AcDbEntity
  8
1
  6
Continuous
 62
     0
100
AcDbCircle
 10
10324.56040518636
 20
-1193.485243437689
 30
0.0
 40
36.092093524148
  0
CIRCLE
  5
463
330
25
100
AcDbEntity
  8
1
  6
Continuous
 62
     0
100
AcDbCircle
 10
10324.55721567047
 20
-1193.481084817758
 30
0.0
 40
2.888888888891
  0
CIRCLE
  5
462
330
25
100
AcDbEntity
  8
1
  6
Continuous
 62
     0
100
AcDbCircle
 10
10308.66757099726
 20
-1210.905672192473
 30
0.0
 40
0.72222222223
  0
CIRCLE
  5
461
330
25
100
AcDbEntity
  8
1
  6
Continuous
 62
     0
100
AcDbCircle
 10
10324.55721567047
 20
-1206.118866253164
 30
0.0
 40
2.247127062104
  0
CIRCLE
  5
460
330
25
100
AcDbEntity
  8
1
  6
Continuous
 62
     0
100
AcDbCircle
 10
13136.0058206611
 20
-1152.909811676174
 30
0.0
 40
19.5
  0
CIRCLE
  5
45F
330
25
100
AcDbEntity
  8
1
  6
Continuous
 62
     0
100
AcDbCircle
 10
13136.0058206611
 20
-1152.909811676174
 30
0.0
 40
21.0
  0
CIRCLE
  5
45E
330
25
100
AcDbEntity
  8
1
  6
Continuous
 62
     0
100
AcDbCircle
 10
13136.0058206611
 20
-1152.909811676174
 30
0.0
 40
29.0
  0
CIRCLE
  5
45D
330
25
100
AcDbEntity
  8
1
  6
Continuous
 62
     0
100
AcDbCircle
 10
11178.19356885394
 20
-267.626650913725
 30
0.0
 40
17.500000000001
  0
CIRCLE
  5
45C
330
25
100
AcDbEntity
  8
1
  6
Continuous
 62
     0
100
AcDbCircle
 10
10921.09547179254
 20
-3906.626852993391
 30
0.0
 40
484.000000000003
  0
CIRCLE
  5
45B
330
25
100
AcDbEntity
  8
1
  6
Continuous
 62
     0
100
AcDbCircle
 10
10921.09547179254
 20
-3906.626852993391
 30
0.0
 40
475.000000000002
  0
ARC
  5
459
330
25
100
AcDbEntity
  8
1
  6
Continuous
 62
     0
100
AcDbCircle
 10
13330.2411381563
 20
-461.215325587813
 30
0.0
 40
103.999999999999
100
AcDbArc
 50
116.3877999612413
 51
180.0
  0
ARC
  5
458
330
25
100
AcDbEntity
  8
1
  6
Continuous
 62
     0
100
AcDbCircle
 10
14090.2411381563
 20
-461.215325587813
 30
0.0
 40
104.0
100
AcDbArc
 50
0.0
 51
63.61220003875338
  0
ARC
  5
457
330
25
100
AcDbEntity
  8
1
  6
Continuous
 62
     0
100
AcDbCircle
 10
14090.2411381563
 20
-461.215325587813
 30
0.0
 40
104.0
100
AcDbArc
 50
0.0
 51
63.61220003875338
  0
ARC
  5
456
330
25
100
AcDbEntity
  8
1
  6
Continuous
 62
     0
100
AcDbCircle
 10
14090.2411381563
 20
-461.215325587813
 30
0.0
 40
104.0
100
AcDbArc
 50
0.0
 51
63.61220003875338
  0
ARC
  5
455
330
25
100
AcDbEntity
  8
1
  6
Continuous
 62
     0
100
AcDbCircle
 10
13710.24113815638
 20
-1227.129811675982
 30
0.0
 40
958.999999999796
100
AcDbArc
 50
63.61220003875601
 51
70.19045356819002
  0
ARC
  5
454
330
25
100
AcDbEntity
  8
1
  6
Continuous
 62
     0
100
AcDbCircle
 10
13710.2411381563
 20
-1227.129811676158
 30
0.0
 40
958.999999999985
100
AcDbArc
 50
90.37341100832404
 51
109.8095464318101
  0
ARC
  5
453
330
25
100
AcDbEntity
  8
1
  6
Continuous
 62
     0
100
AcDbCircle
 10
13710.24113815622
 20
-1227.129811675982
 30
0.0
 40
958.999999999792
100
AcDbArc
 50
109.809546431809
 51
116.387799961243
  0
ARC
  5
452
330
25
100
AcDbEntity
  8
1
  6
Continuous
 62
     0
100
AcDbCircle
 10
13330.2411381563
 20
-461.215325587813
 30
0.0
 40
103.999999999999
100
AcDbArc
 50
116.3877999612413
 51
180.0
  0
ARC
  5
451
330
25
100
AcDbEntity
  8
1
  6
Continuous
 62
     0
100
AcDbCircle
 10
14090.2411381563
 20
-2337.044297764537
 30
0.0
 40
104.000000000003
100
AcDbArc
 50
296.3877999612469
 51
0.0
  0
ARC
  5
450
330
25
100
AcDbEntity
  8
1
  6
Continuous
 62
     0
100
AcDbCircle
 10
14090.2411381563
 20
-2337.044297764537
 30
0.0
 40
104.000000000003
100
AcDbArc
 50
296.3877999612469
 51
0.0
  0
ARC
  5
44F
330
25
100
AcDbEntity
  8
1
  6
Continuous
 62
     0
100
AcDbCircle
 10
14090.2411381563
 20
-2337.044297764537
 30
0.0
 40
104.000000000003
100
AcDbArc
 50
296.3877999612469
 51
0.0
  0
ARC
  5
44E
330
25
100
AcDbEntity
  8
1
  6
Continuous
 62
     0
100
AcDbCircle
 10
14090.2411381563
 20
-2337.044297764537
 30
0.0
 40
104.000000000003
100
AcDbArc
 50
296.3877999612469
 51
0.0
  0
ARC
  5
44D
330
25
100
AcDbEntity
  8
1
  6
Continuous
 62
     0
100
AcDbCircle
 10
13710.24113815638
 20
-1571.129811676368
 30
0.0
 40
958.999999999791
100
AcDbArc
 50
291.405336673901
 51
296.387799961244
  0
ARC
  5
44C
330
25
100
AcDbEntity
  8
1
  6
Continuous
 62
     0
100
AcDbCircle
 10
13330.2411381563
 20
-2337.044297764537
 30
0.0
 40
104.0
100
AcDbArc
 50
180.0
 51
243.6122000387589
  0
ARC
  5
44B
330
25
100
AcDbEntity
  8
1
  6
Continuous
 62
     0
100
AcDbCircle
 10
13330.2411381563
 20
-2337.044297764537
 30
0.0
 40
104.0
100
AcDbArc
 50
180.0
 51
243.6122000387589
  0
ARC
  5
44A
330
25
100
AcDbEntity
  8
1
  6
Continuous
 62
     0
100
AcDbCircle
 10
10325.59674493412
 20
-3906.626852993391
 30
0.0
 40
11.5
100
AcDbArc
 50
90.0
 51
270.0
  0
ARC
  5
449
330
25
100
AcDbEntity
  8
1
  6
Continuous
 62
     0
100
AcDbCircle
 10
10414.04368858708
 20
-3911.876852993391
 30
0.0
 40
15.163861141553
100
AcDbArc
 50
188.5330044404436
 51
200.2561580004122
  0
ARC
  5
448
330
25
100
AcDbEntity
  8
1
  6
Continuous
 62
     0
100
AcDbCircle
 10
10357.667254998
 20
-3901.376852993391
 30
0.0
 40
15.163861141555
100
AcDbArc
 50
8.533004440442632
 51
20.25615800041301
  0
ARC
  5
447
330
25
100
AcDbEntity
  8
1
  6
Continuous
 62
     0
100
AcDbCircle
 10
10414.04368858708
 20
-3901.376852993391
 30
0.0
 40
15.163861141555
100
AcDbArc
 50
186.6270409271821
 51
200.256158000413
  0
ARC
  5
446
330
25
100
AcDbEntity
  8
1
  6
Continuous
 62
     0
100
AcDbCircle
 10
10357.667254998
 20
-3911.876852993391
 30
0.0
 40
15.163861141555
100
AcDbArc
 50
6.627040927182041
 51
20.25615800041301
  0
ARC
  5
445
330
25
100
AcDbEntity
  8
1
  6
Continuous
 62
     0
100
AcDbCircle
 10
10384.85547179254
 20
-3889.315602993391
 30
0.0
 40
9.111249999998
100
AcDbArc
 50
242.9041220239957
 51
297.0958779760057
  0
ARC
  5
444
330
25
100
AcDbEntity
  8
1
  6
Continuous
 62
     0
100
AcDbCircle
 10
10392.69161065099
 20
-3901.376852993391
 30
0.0
 40
15.163861141549
100
AcDbArc
 50
339.7438419995726
 51
20.25615800042737
  0
ARC
  5
443
330
25
100
AcDbEntity
  8
1
  6
Continuous
 62
     0
100
AcDbCircle
 10
10392.69161065099
 20
-3911.876852993391
 30
0.0
 40
15.163861141549
100
AcDbArc
 50
339.7438419995759
 51
20.25615800042737
  0
ARC
  5
442
330
25
100
AcDbEntity
  8
1
  6
Continuous
 62
     0
100
AcDbCircle
 10
10414.04368858708
 20
-3911.876852993391
 30
0.0
 40
15.163861141559
100
AcDbArc
 50
159.7438419995869
 51
173.3729590728144
  0
ARC
  5
441
330
25
100
AcDbEntity
  8
1
  6
Continuous
 62
     0
100
AcDbCircle
 10
10414.04368858708
 20
-3901.376852993391
 30
0.0
 40
15.163861141559
100
AcDbArc
 50
159.7438419995869
 51
171.4669955595526
  0
ARC
  5
440
330
25
100
AcDbEntity
  8
1
  6
Continuous
 62
     0
100
AcDbCircle
 10
10357.667254998
 20
-3901.376852993391
 30
0.0
 40
15.163861141559
100
AcDbArc
 50
339.7438419995869
 51
353.3729590728178
  0
ARC
  5
43F
330
25
100
AcDbEntity
  8
1
  6
Continuous
 62
     0
100
AcDbCircle
 10
10357.667254998
 20
-3911.876852993391
 30
0.0
 40
15.163861141559
100
AcDbArc
 50
339.7438419995901
 51
351.4669955595576
  0
ARC
  5
43E
330
25
100
AcDbEntity
  8
1
  6
Continuous
 62
     0
100
AcDbCircle
 10
10379.0193329341
 20
-3901.376852993391
 30
0.0
 40
15.163861141559
100
AcDbArc
 50
159.7438419995869
 51
200.2561580004131
  0
ARC
  5
43D
330
25
100
AcDbEntity
  8
1
  6
Continuous
 62
     0
100
AcDbCircle
 10
10379.0193329341
 20
-3911.876852993391
 30
0.0
 40
15.163861141559
100
AcDbArc
 50
159.7438419995869
 51
200.2561580004098
  0
ARC
  5
43C
330
25
100
AcDbEntity
  8
1
  6
Continuous
 62
     0
100
AcDbCircle
 10
10384.85547179254
 20
-3870.085186326718
 30
0.0
 40
13.541666666666
100
AcDbArc
 50
234.9488632525697
 51
305.0511367474399
  0
ARC
  5
43B
330
25
100
AcDbEntity
  8
1
  6
Continuous
 62
     0
100
AcDbCircle
 10
10921.09547179254
 20
-3332.391535498189
 30
0.0
 40
40.141914435008
100
AcDbArc
 50
329.2592858702342
 51
210.7407141297658
  0
ARC
  5
43A
330
25
100
AcDbEntity
  8
1
  6
Continuous
 62
     0
100
AcDbCircle
 10
10921.12414069639
 20
-3339.999291015538
 30
0.0
 40
34.78736101242
100
AcDbArc
 50
7.710008218939394
 51
173.029145890944
  0
ARC
  5
439
330
25
100
AcDbEntity
  8
1
  6
Continuous
 62
     0
100
AcDbCircle
 10
10876.17848575987
 20
-3366.00202945865
 30
0.0
 40
10.415441500099
100
AcDbArc
 50
328.8685094339133
 51
0.0
  0
ARC
  5
438
330
25
100
AcDbEntity
  8
1
  6
Continuous
 62
     0
100
AcDbCircle
 10
10966.01245782521
 20
-3366.00202945865
 30
0.0
 40
10.415441500101
100
AcDbArc
 50
180.0
 51
211.1314905660837
  0
ARC
  5
437
330
25
100
AcDbEntity
  8
1
  6
Continuous
 62
     0
100
AcDbCircle
 10
10968.42881541783
 20
-4416.438507832506
 30
0.0
 40
6.18836802561
100
AcDbArc
 50
245.979322918974
 51
304.2284958030679
  0
ARC
  5
436
330
25
100
AcDbEntity
  8
1
  6
Continuous
 62
     0
100
AcDbCircle
 10
10989.24706973116
 20
-4416.438507832506
 30
0.0
 40
6.18836802561
100
AcDbArc
 50
235.7715041969322
 51
294.020677081026
  0
ARC
  5
435
330
25
100
AcDbEntity
  8
1
  6
Continuous
 62
     0
100
AcDbCircle
 10
10978.8379425745
 20
-4399.698649763115
 30
0.0
 40
22.928203230276
100
AcDbArc
 50
252.4120462259947
 51
287.5879537739808
  0
ARC
  5
434
330
25
100
AcDbEntity
  8
1
  6
Continuous
 62
     0
100
AcDbCircle
 10
10945.01318631536
 20
-4399.698649763115
 30
0.0
 40
22.928203230276
100
AcDbArc
 50
252.4120462259947
 51
287.5879537740051
  0
ARC
  5
433
330
25
100
AcDbEntity
  8
1
  6
Continuous
 62
     0
100
AcDbCircle
 10
10955.42231347202
 20
-4416.438507832506
 30
0.0
 40
6.188368025604
100
AcDbArc
 50
235.7715041970157
 51
294.0206770811253
  0
ARC
  5
432
330
25
100
AcDbEntity
  8
1
  6
Continuous
 62
     0
100
AcDbCircle
 10
10934.60405915869
 20
-4416.438507832506
 30
0.0
 40
6.18836802561
100
AcDbArc
 50
245.979322918974
 51
304.2284958030679
  0
ARC
  5
431
330
25
100
AcDbEntity
  8
1
  6
Continuous
 62
     0
100
AcDbCircle
 10
10907.58688442639
 20
-4416.438507832506
 30
0.0
 40
6.18836802561
100
AcDbArc
 50
235.7715041969322
 51
294.020677081026
  0
ARC
  5
430
330
25
100
AcDbEntity
  8
1
  6
Continuous
 62
     0
100
AcDbCircle
 10
10886.76863011306
 20
-4416.438507832506
 30
0.0
 40
6.18836802561
100
AcDbArc
 50
245.979322918974
 51
304.2284958030679
  0
ARC
  5
42F
330
25
100
AcDbEntity
  8
1
  6
Continuous
 62
     0
100
AcDbCircle
 10
10897.17775726972
 20
-4399.698649763115
 30
0.0
 40
22.928203230272
100
AcDbArc
 50
252.4120462260208
 51
287.5879537740036
  0
ARC
  5
42E
330
25
100
AcDbEntity
  8
1
  6
Continuous
 62
     0
100
AcDbCircle
 10
10863.35300101059
 20
-4399.698649763115
 30
0.0
 40
22.928203230276
100
AcDbArc
 50
252.4120462259947
 51
287.5879537739859
  0
ARC
  5
42D
330
25
100
AcDbEntity
  8
1
  6
Continuous
 62
     0
100
AcDbCircle
 10
10852.94387385392
 20
-4416.438507832506
 30
0.0
 40
6.18836802561
100
AcDbArc
 50
245.979322918974
 51
304.2284958030679
  0
ARC
  5
42C
330
25
100
AcDbEntity
  8
1
  6
Continuous
 62
     0
100
AcDbCircle
 10
10873.76212816725
 20
-4416.438507832506
 30
0.0
 40
6.188368025609
100
AcDbArc
 50
235.7715041969461
 51
294.0206770810482
  0
ARC
  5
42B
330
25
100
AcDbEntity
  8
1
  6
Continuous
 62
     0
100
AcDbCircle
 10
10368.27074454466
 20
-1289.237797938255
 30
0.0
 40
5.414822022404
100
AcDbArc
 50
145.7715041969331
 51
204.0206770810576
  0
ARC
  5
42A
330
25
100
AcDbEntity
  8
1
  6
Continuous
 62
     0
100
AcDbCircle
 10
10382.91812035537
 20
-1280.129811676175
 30
0.0
 40
20.062177826481
100
AcDbArc
 50
162.4120462259997
 51
197.5879537740028
  0
ARC
  5
429
330
25
100
AcDbEntity
  8
1
  6
Continuous
 62
     0
100
AcDbCircle
 10
10368.27074454466
 20
-1271.021825414096
 30
0.0
 40
5.414822022409
100
AcDbArc
 50
155.9793229189528
 51
214.2284958030732
  0
ARC
  5
428
330
25
100
AcDbEntity
  8
1
  6
Continuous
 62
     0
100
AcDbCircle
 10
10401.44114051312
 20
-1289.237797938255
 30
0.0
 40
5.414822022411
100
AcDbArc
 50
335.979322918954
 51
34.22849580307228
  0
ARC
  5
427
330
25
100
AcDbEntity
  8
1
  6
Continuous
 62
     0
100
AcDbCircle
 10
10386.79376470241
 20
-1280.129811676175
 30
0.0
 40
20.062177826479
100
AcDbArc
 50
342.4120462259963
 51
17.58795377400126
  0
ARC
  5
426
330
25
100
AcDbEntity
  8
1
  6
Continuous
 62
     0
100
AcDbCircle
 10
10401.44114051312
 20
-1271.021825414096
 30
0.0
 40
5.414822022404
100
AcDbArc
 50
325.771504196931
 51
24.02067708104876
  0
ARC
  5
425
330
25
100
AcDbEntity
  8
1
  6
Continuous
 62
     0
100
AcDbCircle
 10
10384.85594252889
 20
-1280.129811676175
 30
0.0
 40
9.999999999995
100
AcDbArc
 50
214.4290039507271
 51
325.5709960492729
  0
ARC
  5
424
330
25
100
AcDbEntity
  8
1
  6
Continuous
 62
     0
100
AcDbCircle
 10
10384.85594252889
 20
-1280.129811676175
 30
0.0
 40
9.999999999996
100
AcDbArc
 50
34.42900395073357
 51
145.5709960492664
  0
ARC
  5
423
330
25
100
AcDbEntity
  8
1
  6
Continuous
 62
     0
100
AcDbCircle
 10
10418.61812035537
 20
-1280.129811676175
 30
0.0
 40
20.062177826481
100
AcDbArc
 50
196.095963210059
 51
197.5879537740046
  0
ARC
  5
422
330
25
100
AcDbEntity
  8
1
  6
Continuous
 62
     0
100
AcDbCircle
 10
10403.97074454466
 20
-1289.237797938255
 30
0.0
 40
5.414822022404
100
AcDbArc
 50
145.7715041969331
 51
204.020677081051
  0
ARC
  5
421
330
25
100
AcDbEntity
  8
1
  6
Continuous
 62
     0
100
AcDbCircle
 10
10403.97074454466
 20
-1271.021825414096
 30
0.0
 40
5.414822022411
100
AcDbArc
 50
155.9793229189562
 51
214.2284958030723
  0
ARC
  5
420
330
25
100
AcDbEntity
  8
1
  6
Continuous
 62
     0
100
AcDbCircle
 10
10350.83158687592
 20
-1280.129811676175
 30
0.0
 40
20.06217782648
100
AcDbArc
 50
16.09596321005463
 51
17.58795377399969
  0
ARC
  5
41F
330
25
100
AcDbEntity
  8
1
  6
Continuous
 62
     0
100
AcDbCircle
 10
10365.47896268663
 20
-1271.021825414096
 30
0.0
 40
5.414822022404
100
AcDbArc
 50
325.771504196931
 51
24.02067708104876
  0
ARC
  5
41E
330
25
100
AcDbEntity
  8
1
  6
Continuous
 62
     0
100
AcDbCircle
 10
10365.47896268663
 20
-1289.237797938255
 30
0.0
 40
5.414822022411
100
AcDbArc
 50
335.979322918954
 51
34.22849580307228
  0
ARC
  5
41D
330
25
100
AcDbEntity
  8
1
  6
Continuous
 62
     0
100
AcDbCircle
 10
10390.75882058933
 20
-1276.140982109245
 30
0.0
 40
6.806710713919
100
AcDbArc
 50
3.041596008616065
 51
41.51019968788864
  0
ARC
  5
41C
330
25
100
AcDbEntity
  8
1
  6
Continuous
 62
     0
100
AcDbCircle
 10
10350.83158687592
 20
-1280.129811676175
 30
0.0
 40
20.062177826479
100
AcDbArc
 50
342.4120462259963
 51
343.9040367899421
  0
ARC
  5
41B
330
25
100
AcDbEntity
  8
1
  6
Continuous
 62
     0
100
AcDbCircle
 10
10418.61812035537
 20
-1280.129811676175
 30
0.0
 40
20.062177826479
100
AcDbArc
 50
162.4120462259981
 51
163.9040367899439
  0
ARC
  5
41A
330
25
100
AcDbEntity
  8
1
  6
Continuous
 62
     0
100
AcDbCircle
 10
14646.36358341179
 20
-2117.129811676175
 30
0.0
 40
458.97244525549
100
AcDbArc
 50
170.088686020987
 51
189.9113139790129
  0
ARC
  5
419
330
25
100
AcDbEntity
  8
1
  6
Continuous
 62
     0
100
AcDbCircle
 10
13710.2411381563
 20
-2630.129811676175
 30
0.0
 40
100.0
100
AcDbArc
 50
0.0
 51
180.0
  0
ARC
  5
418
330
25
100
AcDbEntity
  8
1
  6
Continuous
 62
     0
100
AcDbCircle
 10
10663.99737473114
 20
-267.626650913725
 30
0.0
 40
29.999999999999
100
AcDbArc
 50
317.5744390991671
 51
252.4255609008288
  0
ARC
  5
417
330
25
100
AcDbEntity
  8
1
  6
Continuous
 62
     0
100
AcDbCircle
 10
11862.26064981907
 20
-1280.129811676175
 30
0.0
 40
459.000000000033
100
AcDbArc
 50
174.875245897026
 51
185.124754102974
  0
ARC
  5
416
330
25
100
AcDbEntity
  8
1
  6
Continuous
 62
     0
100
AcDbCircle
 10
11407.54998055338
 20
-2597.66457346588
 30
0.0
 40
152.252346488172
100
AcDbArc
 50
153.6680368469681
 51
181.151737825457
  0
ARC
  5
415
330
25
100
AcDbEntity
  8
1
  6
Continuous
 62
     0
100
AcDbCircle
 10
10434.6409630317
 20
-2597.66457346588
 30
0.0
 40
152.252346488166
100
AcDbArc
 50
358.8482621745441
 51
26.33196315303195
  0
ARC
  5
414
330
25
100
AcDbEntity
  8
1
  6
Continuous
 62
     0
100
AcDbCircle
 10
9979.93029376601
 20
-2080.129811676175
 30
0.0
 40
459.000000000031
100
AcDbArc
 50
354.875245897027
 51
5.124754102973002
  0
ARC
  5
413
330
25
100
AcDbEntity
  8
1
  6
Continuous
 62
     0
100
AcDbCircle
 10
10921.09547179254
 20
-2630.129811676175
 30
0.0
 40
100.0
100
AcDbArc
 50
0.0
 51
180.0
  0
ARC
  5
412
330
25
100
AcDbEntity
  8
1
  6
Continuous
 62
     0
100
AcDbCircle
 10
14220.05279299542
 20
-2069.796468050885
 30
0.0
 40
6.188368025607
100
AcDbArc
 50
335.9793229189676
 51
34.22849580306339
  0
ARC
  5
411
330
25
100
AcDbEntity
  8
1
  6
Continuous
 62
     0
100
AcDbCircle
 10
14220.05279299542
 20
-2048.978213737553
 30
0.0
 40
6.18836802561
100
AcDbArc
 50
325.7715041969252
 51
24.02067708103518
  0
ARC
  5
410
330
25
100
AcDbEntity
  8
1
  6
Continuous
 62
     0
100
AcDbCircle
 10
14203.31293492603
 20
-2059.387340894219
 30
0.0
 40
22.928203230273
100
AcDbArc
 50
342.4120462260061
 51
17.58795377399393
  0
ARC
  5
40F
330
25
100
AcDbEntity
  8
1
  6
Continuous
 62
     0
100
AcDbCircle
 10
14203.31293492603
 20
-2093.212097153357
 30
0.0
 40
22.928203230273
100
AcDbArc
 50
342.412046226005
 51
17.58795377399393
  0
ARC
  5
40E
330
25
100
AcDbEntity
  8
1
  6
Continuous
 62
     0
100
AcDbCircle
 10
14220.05279299542
 20
-2082.802969996691
 30
0.0
 40
6.18836802561
100
AcDbArc
 50
325.7715041969287
 51
24.02067708103711
  0
ARC
  5
40D
330
25
100
AcDbEntity
  8
1
  6
Continuous
 62
     0
100
AcDbCircle
 10
14220.05279299542
 20
-2103.621224310023
 30
0.0
 40
6.188368025607
100
AcDbArc
 50
335.9793229189676
 51
34.22849580306339
  0
ARC
  5
40C
330
25
100
AcDbEntity
  8
1
  6
Continuous
 62
     0
100
AcDbCircle
 10
14220.05279299542
 20
-2130.638399042327
 30
0.0
 40
6.18836802561
100
AcDbArc
 50
325.7715041969287
 51
24.02067708103711
  0
ARC
  5
40B
330
25
100
AcDbEntity
  8
1
  6
Continuous
 62
     0
100
AcDbCircle
 10
14220.05279299542
 20
-2151.456653355659
 30
0.0
 40
6.188368025608
100
AcDbArc
 50
335.9793229189599
 51
34.22849580307035
  0
ARC
  5
40A
330
25
100
AcDbEntity
  8
1
  6
Continuous
 62
     0
100
AcDbCircle
 10
14203.31293492603
 20
-2141.047526198993
 30
0.0
 40
22.928203230274
100
AcDbArc
 50
342.4120462260039
 51
17.58795377399501
  0
ARC
  5
409
330
25
100
AcDbEntity
  8
1
  6
Continuous
 62
     0
100
AcDbCircle
 10
14203.31293492603
 20
-2174.87228245813
 30
0.0
 40
22.928203230273
100
AcDbArc
 50
342.4120462260061
 51
17.58795377399393
  0
ARC
  5
408
330
25
100
AcDbEntity
  8
1
  6
Continuous
 62
     0
100
AcDbCircle
 10
14220.05279299542
 20
-2185.281409614796
 30
0.0
 40
6.188368025607
100
AcDbArc
 50
335.9793229189676
 51
34.22849580306339
  0
ARC
  5
407
330
25
100
AcDbEntity
  8
1
  6
Continuous
 62
     0
100
AcDbCircle
 10
14220.05279299542
 20
-2164.463155301464
 30
0.0
 40
6.18836802561
100
AcDbArc
 50
325.7715041969287
 51
24.02067708103711
  0
ARC
  5
406
330
25
100
AcDbEntity
  8
1
  6
Continuous
 62
     0
100
AcDbCircle
 10
10945.24547179254
 20
-2585.059811676174
 30
0.0
 40
14.252192813739
100
AcDbArc
 50
158.3852210572138
 51
201.6147789427863
  0
ARC
  5
405
330
25
100
AcDbEntity
  8
1
  6
Continuous
 62
     0
100
AcDbCircle
 10
10963.87672179254
 20
-2585.309811676175
 30
0.0
 40
15.781249999997
100
AcDbArc
 50
141.9080428947535
 51
218.0919571052452
  0
ARC
  5
404
330
25
100
AcDbEntity
  8
1
  6
Continuous
 62
     0
100
AcDbCircle
 10
10914.84547179254
 20
-2596.257596031468
 30
0.0
 40
18.052215644705
100
AcDbArc
 50
249.7438419995769
 51
290.2561580004231
  0
ARC
  5
403
330
25
100
AcDbEntity
  8
1
  6
Continuous
 62
     0
100
AcDbCircle
 10
10927.34547179254
 20
-2596.257596031468
 30
0.0
 40
18.052215644707
100
AcDbArc
 50
249.7438419995794
 51
290.2561580004206
  0
ARC
  5
402
330
25
100
AcDbEntity
  8
1
  6
Continuous
 62
     0
100
AcDbCircle
 10
10914.84547179254
 20
-2575.862027320881
 30
0.0
 40
18.052215644708
100
AcDbArc
 50
69.74384199958037
 51
110.2561580004196
  0
ARC
  5
401
330
25
100
AcDbEntity
  8
1
  6
Continuous
 62
     0
100
AcDbCircle
 10
10927.34547179254
 20
-2575.862027320881
 30
0.0
 40
18.052215644707
100
AcDbArc
 50
69.74384199957936
 51
110.2561580004206
  0
ARC
  5
400
330
25
100
AcDbEntity
  8
1
  6
Continuous
 62
     0
100
AcDbCircle
 10
10927.34547179254
 20
-2550.17426269814
 30
0.0
 40
18.052215644707
100
AcDbArc
 50
249.7438419995794
 51
261.2376819319964
  0
ARC
  5
3FF
330
25
100
AcDbEntity
  8
1
  6
Continuous
 62
     0
100
AcDbCircle
 10
10914.84547179254
 20
-2550.17426269814
 30
0.0
 40
18.052215644707
100
AcDbArc
 50
249.7438419995794
 51
261.2376819319964
  0
ARC
  5
3FE
330
25
100
AcDbEntity
  8
1
  6
Continuous
 62
     0
100
AcDbCircle
 10
10927.34547179254
 20
-2621.945360654212
 30
0.0
 40
18.052215644707
100
AcDbArc
 50
69.74384199957936
 51
81.23768193199643
  0
ARC
  5
3FD
330
25
100
AcDbEntity
  8
1
  6
Continuous
 62
     0
100
AcDbCircle
 10
10914.84547179254
 20
-2621.945360654212
 30
0.0
 40
18.052215644709
100
AcDbArc
 50
69.74384199958187
 51
81.23768193199732
  0
ARC
  5
3FC
330
25
100
AcDbEntity
  8
1
  6
Continuous
 62
     0
100
AcDbCircle
 10
10914.84547179254
 20
-2550.17426269814
 30
0.0
 40
18.052215644708
100
AcDbArc
 50
278.7623180680031
 51
290.2561580004195
  0
ARC
  5
3FB
330
25
100
AcDbEntity
  8
1
  6
Continuous
 62
     0
100
AcDbCircle
 10
10927.34547179254
 20
-2621.945360654212
 30
0.0
 40
18.052215644708
100
AcDbArc
 50
98.76231806800313
 51
110.2561580004196
  0
ARC
  5
3FA
330
25
100
AcDbEntity
  8
1
  6
Continuous
 62
     0
100
AcDbCircle
 10
10927.34547179254
 20
-2550.17426269814
 30
0.0
 40
18.052215644706
100
AcDbArc
 50
278.7623180680043
 51
290.2561580004216
  0
ARC
  5
3F9
330
25
100
AcDbEntity
  8
1
  6
Continuous
 62
     0
100
AcDbCircle
 10
10914.84547179254
 20
-2621.945360654212
 30
0.0
 40
18.052215644708
100
AcDbArc
 50
98.76231806800313
 51
110.2561580004196
  0
ARC
  5
3F8
330
25
100
AcDbEntity
  8
1
  6
Continuous
 62
     0
100
AcDbCircle
 10
13710.24113815631
 20
-2630.15491839046
 30
0.0
 40
25.76023195741
100
AcDbArc
 50
73.73049650734407
 51
106.2695034926601
  0
ARC
  5
3F7
330
25
100
AcDbEntity
  8
1
  6
Continuous
 62
     0
100
AcDbCircle
 10
13710.24113815631
 20
-2590.426266644618
 30
0.0
 40
23.883545031557
100
AcDbArc
 50
252.4120462259938
 51
287.5879537740016
  0
ARC
  5
3F6
330
25
100
AcDbEntity
  8
1
  6
Continuous
 62
     0
100
AcDbCircle
 10
13710.24113815631
 20
-2546.317877216387
 30
0.0
 40
21.615815918789
100
AcDbArc
 50
250.4961455205159
 51
289.5038544794792
  0
ARC
  5
3F5
330
25
100
AcDbEntity
  8
1
  6
Continuous
 62
     0
100
AcDbCircle
 10
13710.24113815631
 20
-2581.693356707753
 30
0.0
 40
23.883545031579
100
AcDbArc
 50
72.4120462260152
 51
107.5879537739893
  0
ARC
  5
3F4
330
25
100
AcDbEntity
  8
1
  6
Continuous
 62
     0
100
AcDbCircle
 10
13721.08397894451
 20
-2610.756004552097
 30
0.0
 40
6.446216693345
100
AcDbArc
 50
65.97932291895343
 51
79.65879036165703
  0
ARC
  5
3F3
330
25
100
AcDbEntity
  8
1
  6
Continuous
 62
     0
100
AcDbCircle
 10
13699.39829736812
 20
-2610.756004552099
 30
0.0
 40
6.446216693338
100
AcDbArc
 50
55.77150419704589
 51
82.4870842444571
  0
ARC
  5
3F2
330
25
100
AcDbEntity
  8
1
  6
Continuous
 62
     0
100
AcDbCircle
 10
13721.08397894451
 20
-2561.363618800255
 30
0.0
 40
6.446216693343
100
AcDbArc
 50
235.7715041969566
 51
262.4870842441696
  0
ARC
  5
3F1
330
25
100
AcDbEntity
  8
1
  6
Continuous
 62
     0
100
AcDbCircle
 10
13699.39829736812
 20
-2561.363618800255
 30
0.0
 40
6.446216693349
100
AcDbArc
 50
245.9793229188632
 51
259.6587903613678
  0
ARC
  5
3F0
330
25
100
AcDbEntity
  8
1
  6
Continuous
 62
     0
100
AcDbCircle
 10
13721.08397894451
 20
-2607.863618800253
 30
0.0
 40
6.446216693342
100
AcDbArc
 50
235.7715041969498
 51
294.0206770810417
  0
ARC
  5
3EF
330
25
100
AcDbEntity
  8
1
  6
Continuous
 62
     0
100
AcDbCircle
 10
13710.2411381563
 20
-2590.426266644635
 30
0.0
 40
23.883545031542
100
AcDbArc
 50
283.9309004841498
 51
287.5879537740404
  0
ARC
  5
3EE
330
25
100
AcDbEntity
  8
1
  6
Continuous
 62
     0
100
AcDbCircle
 10
13699.39829736812
 20
-2607.863618800252
 30
0.0
 40
6.44621669335
100
AcDbArc
 50
245.9793229188665
 51
304.2284958029621
  0
ARC
  5
3ED
330
25
100
AcDbEntity
  8
1
  6
Continuous
 62
     0
100
AcDbCircle
 10
13721.08397894451
 20
-2564.256004552095
 30
0.0
 40
6.446216693345
100
AcDbArc
 50
65.97932291895343
 51
124.22849580305
  0
ARC
  5
3EC
330
25
100
AcDbEntity
  8
1
  6
Continuous
 62
     0
100
AcDbCircle
 10
13710.2411381563
 20
-2581.693356707714
 30
0.0
 40
23.88354503154
100
AcDbArc
 50
103.9309004841509
 51
107.5879537739917
  0
ARC
  5
3EB
330
25
100
AcDbEntity
  8
1
  6
Continuous
 62
     0
100
AcDbCircle
 10
13699.39829736812
 20
-2564.256004552096
 30
0.0
 40
6.446216693336
100
AcDbArc
 50
55.77150419703224
 51
114.0206770811353
  0
ARC
  5
3EA
330
25
100
AcDbEntity
  8
1
  6
Continuous
 62
     0
100
AcDbCircle
 10
13710.2411381563
 20
-2543.926266644638
 30
0.0
 40
23.883545031538
100
AcDbArc
 50
283.9309004841522
 51
287.5879537740389
  0
ARC
  5
3E9
330
25
100
AcDbEntity
  8
1
  6
Continuous
 62
     0
100
AcDbCircle
 10
13699.39829736812
 20
-2561.363618800255
 30
0.0
 40
6.446216693343
100
AcDbArc
 50
277.5129157555531
 51
304.2284958029649
  0
ARC
  5
3E8
330
25
100
AcDbEntity
  8
1
  6
Continuous
 62
     0
100
AcDbCircle
 10
13721.08397894451
 20
-2561.363618800255
 30
0.0
 40
6.446216693343
100
AcDbArc
 50
280.3412096383459
 51
294.0206770810548
  0
ARC
  5
3E7
330
25
100
AcDbEntity
  8
1
  6
Continuous
 62
     0
100
AcDbCircle
 10
13710.2411381563
 20
-2628.193356707715
 30
0.0
 40
23.883545031539
100
AcDbArc
 50
103.9309004841516
 51
107.5879537739924
  0
ARC
  5
3E6
330
25
100
AcDbEntity
  8
1
  6
Continuous
 62
     0
100
AcDbCircle
 10
13699.39829736812
 20
-2610.756004552099
 30
0.0
 40
6.44621669335
100
AcDbArc
 50
100.3412096386141
 51
114.0206770811335
  0
ARC
  5
3E5
330
25
100
AcDbEntity
  8
1
  6
Continuous
 62
     0
100
AcDbCircle
 10
13721.08397894451
 20
-2610.756004552097
 30
0.0
 40
6.446216693345
100
AcDbArc
 50
97.51291575582826
 51
124.22849580305
  0
ARC
  5
3E4
330
25
100
AcDbEntity
  8
1
  6
Continuous
 62
     0
100
AcDbCircle
 10
13710.2411381563
 20
-2543.926266644638
 30
0.0
 40
23.883545031539
100
AcDbArc
 50
252.4120462260076
 51
256.0690995158483
  0
ARC
  5
3E3
330
25
100
AcDbEntity
  8
1
  6
Continuous
 62
     0
100
AcDbCircle
 10
13710.2411381563
 20
-2628.193356707715
 30
0.0
 40
23.883545031545
100
AcDbArc
 50
72.41204622596189
 51
76.06909951584753
  0
ARC
  5
3E2
330
25
100
AcDbEntity
  8
1
  6
Continuous
 62
     0
100
AcDbCircle
 10
13710.2411381563
 20
-2581.693356707714
 30
0.0
 40
23.883545031545
100
AcDbArc
 50
72.41204622596189
 51
76.06909951584753
  0
ARC
  5
3E1
330
25
100
AcDbEntity
  8
1
  6
Continuous
 62
     0
100
AcDbCircle
 10
13710.2411381563
 20
-2590.426266644635
 30
0.0
 40
23.883545031538
100
AcDbArc
 50
252.412046226007
 51
256.0690995158478
  0
ARC
  5
3E0
330
25
100
AcDbEntity
  8
1
  6
Continuous
 62
     0
100
AcDbCircle
 10
13710.2411381563
 20
-2585.309811676175
 30
0.0
 40
12.999999999998
100
AcDbArc
 50
31.10892251049853
 51
148.8910774894998
  0
ARC
  5
3DF
330
25
100
AcDbEntity
  8
1
  6
Continuous
 62
     0
100
AcDbCircle
 10
13710.2411381563
 20
-2585.309811676175
 30
0.0
 40
13.000000000002
100
AcDbArc
 50
211.1089225105438
 51
328.891077489458
  0
ARC
  5
3DE
330
25
100
AcDbEntity
  8
1
  6
Continuous
 62
     0
100
AcDbCircle
 10
10324.51277122603
 20
-1193.44699748492
 30
0.0
 40
39.044459324231
100
AcDbArc
 50
93.89990484409955
 51
206.110829794612
  0
ARC
  5
3DD
330
25
100
AcDbEntity
  8
1
  6
Continuous
 62
     0
100
AcDbCircle
 10
10324.51277122603
 20
-1193.44699748492
 30
0.0
 40
39.044459324237
100
AcDbArc
 50
206.110829794612
 51
214.0413943255936
  0
ARC
  5
3DC
330
25
100
AcDbEntity
  8
1
  6
Continuous
 62
     0
100
AcDbCircle
 10
10324.60166011492
 20
-1193.539033283581
 30
0.0
 40
38.95559865625
100
AcDbArc
 50
326.0668870753425
 51
334.0155658970665
  0
ARC
  5
3DB
330
25
100
AcDbEntity
  8
1
  6
Continuous
 62
     0
100
AcDbCircle
 10
10324.60166011492
 20
-1193.539033283581
 30
0.0
 40
38.955598656247
100
AcDbArc
 50
285.1113442230236
 51
326.0668870753435
  0
ARC
  5
3DA
330
25
100
AcDbEntity
  8
1
  6
Continuous
 62
     0
100
AcDbCircle
 10
10357.28465179015
 20
-1212.376278871342
 30
0.0
 40
3.637500000002
100
AcDbArc
 50
282.0750220509215
 51
17.92497794913733
  0
ARC
  5
3D9
330
25
100
AcDbEntity
  8
1
  6
Continuous
 62
     0
100
AcDbCircle
 10
10291.78590795966
 20
-1212.401608146292
 30
0.0
 40
3.637500000006
100
AcDbArc
 50
162.0750220508701
 51
257.9249779490631
  0
ARC
  5
3D8
330
25
100
AcDbEntity
  8
1
  6
Continuous
 62
     0
100
AcDbCircle
 10
10324.55721567047
 20
-1155.640038160689
 30
0.0
 40
3.637500000001
100
AcDbArc
 50
42.07502205084127
 51
137.9249779491534
  0
ARC
  5
3D7
330
25
100
AcDbEntity
  8
1
  6
Continuous
 62
     0
100
AcDbCircle
 10
10324.51277122603
 20
-1193.44699748492
 30
0.0
 40
39.04445932423
100
AcDbArc
 50
85.96934215079706
 51
93.89990484409967
  0
ARC
  5
3D6
330
25
100
AcDbEntity
  8
1
  6
Continuous
 62
     0
100
AcDbCircle
 10
10324.51277122603
 20
-1193.44699748492
 30
0.0
 40
39.044459324227
100
AcDbArc
 50
359.9499785478301
 51
85.96934215079676
  0
ARC
  5
3D5
330
25
100
AcDbEntity
  8
1
  6
Continuous
 62
     0
100
AcDbCircle
 10
10324.559905959
 20
-1193.484592524844
 30
0.0
 40
28.59159384202
100
AcDbArc
 50
180.0
 51
224.4894078670326
  0
ARC
  5
3D4
330
25
100
AcDbEntity
  8
1
  6
Continuous
 62
     0
100
AcDbCircle
 10
10324.559905959
 20
-1193.484592524844
 30
0.0
 40
28.591593842006
100
AcDbArc
 50
314.9999999999877
 51
180.0
  0
ARC
  5
3D3
330
25
100
AcDbEntity
  8
1
  6
Continuous
 62
     0
100
AcDbCircle
 10
10324.55608703783
 20
-1193.480101037745
 30
0.0
 40
32.087775151115
100
AcDbArc
 50
314.9991688162391
 51
179.9269078913212
  0
ARC
  5
3D2
330
25
100
AcDbEntity
  8
1
  6
Continuous
 62
     0
100
AcDbCircle
 10
10324.55721567047
 20
-1193.481084817758
 30
0.0
 40
3.611111111113
100
AcDbArc
 50
74.69796828558367
 51
201.4218215217857
  0
ARC
  5
3D1
330
25
100
AcDbEntity
  8
1
  6
Continuous
 62
     0
100
AcDbCircle
 10
10324.55721567047
 20
-1193.481084817758
 30
0.0
 40
3.61111111111
100
AcDbArc
 50
248.5781784782126
 51
0.0
  0
ARC
  5
3D0
330
25
100
AcDbEntity
  8
1
  6
Continuous
 62
     0
100
AcDbCircle
 10
10324.55721567047
 20
-1193.481084817758
 30
0.0
 40
3.611111111111
100
AcDbArc
 50
0.0
 51
15.30203171435688
  0
ARC
  5
3CF
330
25
100
AcDbEntity
  8
1
  6
Continuous
 62
     0
100
AcDbCircle
 10
10324.60166011492
 20
-1193.539033283581
 30
0.0
 40
38.955598656241
100
AcDbArc
 50
334.0155658970676
 51
0.0852304639110631
  0
ARC
  5
3CE
330
25
100
AcDbEntity
  8
1
  6
Continuous
 62
     0
100
AcDbCircle
 10
10324.51277122603
 20
-1193.44699748492
 30
0.0
 40
39.044459324231
100
AcDbArc
 50
214.0413943255942
 51
254.9238647887063
  0
ARC
  5
3CD
330
25
100
AcDbEntity
  8
1
  6
Continuous
 62
     0
100
AcDbCircle
 10
10324.55721567047
 20
-1193.149950727336
 30
0.0
 40
39.342857142856
100
AcDbArc
 50
254.9738862408818
 51
285.026113759121
  0
ARC
  5
3CC
330
25
100
AcDbEntity
  8
1
  6
Continuous
 62
     0
100
AcDbCircle
 10
10324.55608703783
 20
-1193.480101037745
 30
0.0
 40
32.087775151113
100
AcDbArc
 50
179.9269078913212
 51
224.5555346917872
  0
ARC
  5
3CB
330
25
100
AcDbEntity
  8
1
  6
Continuous
 62
     0
100
AcDbCircle
 10
10357.44215844438
 20
-1223.764696754423
 30
0.0
 40
42.897491299712
100
AcDbArc
 50
116.5823044191849
 51
133.2669116226952
  0
ARC
  5
3CA
330
25
100
AcDbEntity
  8
1
  6
Continuous
 62
     0
100
AcDbCircle
 10
10337.95532006784
 20
-1184.820342299725
 30
0.0
 40
0.65017929019
100
AcDbArc
 50
296.5823044188792
 51
30.13902348590229
  0
ARC
  5
3C9
330
25
100
AcDbEntity
  8
1
  6
Continuous
 62
     0
100
AcDbCircle
 10
10294.27360373381
 20
-1160.596142043852
 30
0.0
 40
42.897491299708
100
AcDbArc
 50
316.7330883772993
 51
333.4176955808119
  0
ARC
  5
3C8
330
25
100
AcDbEntity
  8
1
  6
Continuous
 62
     0
100
AcDbCircle
 10
10333.2179581885
 20
-1180.082980420395
 30
0.0
 40
0.650179290194
100
AcDbArc
 50
59.86097651384896
 51
153.4176955807714
  0
ARC
  5
3C7
330
25
100
AcDbEntity
  8
1
  6
Continuous
 62
     0
100
AcDbCircle
 10
10326.66001880356
 20
-1191.378281684672
 30
0.0
 40
13.711205269313
100
AcDbArc
 50
30.13902348559888
 51
59.86097651441904
  0
ARC
  5
3C6
330
25
100
AcDbEntity
  8
1
  6
Continuous
 62
     0
100
AcDbCircle
 10
10921.09547179254
 20
-1076.975603283727
 30
0.0
 40
25.565791607552
100
AcDbArc
 50
68.78850558533613
 51
111.2114944146639
  0
ARC
  5
3C5
330
25
100
AcDbEntity
  8
1
  6
Continuous
 62
     0
100
AcDbCircle
 10
10936.59547179254
 20
-1063.552209525069
 30
0.0
 40
12.142397848895
100
AcDbArc
 50
90.0
 51
120.9790988616256
  0
ARC
  5
3C4
330
25
100
AcDbEntity
  8
1
  6
Continuous
 62
     0
100
AcDbCircle
 10
10905.59547179254
 20
-1063.552209525069
 30
0.0
 40
12.142397848894
100
AcDbArc
 50
59.02090113837222
 51
90.0
  0
ARC
  5
3C3
330
25
100
AcDbEntity
  8
1
  6
Continuous
 62
     0
100
AcDbCircle
 10
10921.09547179254
 20
-1042.909811676174
 30
0.0
 40
15.0
100
AcDbArc
 50
0.0
 51
180.0
  0
ARC
  5
3C2
330
25
100
AcDbEntity
  8
1
  6
Continuous
 62
     0
100
AcDbCircle
 10
10921.09547179254
 20
-1143.495868660051
 30
0.0
 40
35.086056983876
100
AcDbArc
 50
67.81224586875801
 51
112.1877541312418
  0
ARC
  5
3C1
330
25
100
AcDbEntity
  8
1
  6
Continuous
 62
     0
100
AcDbCircle
 10
10899.09547179254
 20
-1124.443309776794
 30
0.0
 40
16.033498100619
100
AcDbArc
 50
56.92526993279299
 51
90.0
  0
ARC
  5
3C0
330
25
100
AcDbEntity
  8
1
  6
Continuous
 62
     0
100
AcDbCircle
 10
10943.09547179254
 20
-1065.409811676174
 30
0.0
 40
1.0
100
AcDbArc
 50
0.0
 51
180.0
  0
ARC
  5
3BF
330
25
100
AcDbEntity
  8
1
  6
Continuous
 62
     0
100
AcDbCircle
 10
10928.42880512587
 20
-1065.409811676174
 30
0.0
 40
1.0
100
AcDbArc
 50
0.0
 51
180.0
  0
ARC
  5
3BE
330
25
100
AcDbEntity
  8
1
  6
Continuous
 62
     0
100
AcDbCircle
 10
10913.76213845921
 20
-1065.409811676174
 30
0.0
 40
1.0
100
AcDbArc
 50
0.0
 51
180.0
  0
ARC
  5
3BD
330
25
100
AcDbEntity
  8
1
  6
Continuous
 62
     0
100
AcDbCircle
 10
10899.09547179254
 20
-1065.409811676174
 30
0.0
 40
1.0
100
AcDbArc
 50
0.0
 51
180.0
  0
ARC
  5
3BC
330
25
100
AcDbEntity
  8
1
  6
Continuous
 62
     0
100
AcDbCircle
 10
10943.09547179254
 20
-1124.443309776794
 30
0.0
 40
16.03349810062
100
AcDbArc
 50
90.0
 51
123.0747300672048
  0
ARC
  5
3BB
330
25
100
AcDbEntity
  8
1
  6
Continuous
 62
     0
100
AcDbCircle
 10
10921.09547179254
 20
-1156.40385289589
 30
0.0
 40
51.505958780284
100
AcDbArc
 50
252.7775550278672
 51
287.2224449721328
  0
ARC
  5
3BA
330
25
100
AcDbEntity
  8
1
  6
Continuous
 62
     0
100
AcDbCircle
 10
10894.59547179254
 20
-1179.353526096178
 30
0.0
 40
28.556285579996
100
AcDbArc
 50
270.0
 51
293.2010528959344
  0
ARC
  5
3B9
330
25
100
AcDbEntity
  8
1
  6
Continuous
 62
     0
100
AcDbCircle
 10
10947.59547179254
 20
-1179.353526096178
 30
0.0
 40
28.556285579996
100
AcDbArc
 50
246.7989471040657
 51
270.0
  0
ARC
  5
3B8
330
25
100
AcDbEntity
  8
1
  6
Continuous
 62
     0
100
AcDbCircle
 10
13162.64773509611
 20
-1179.353526096178
 30
0.0
 40
28.556285579996
100
AcDbArc
 50
246.7989471040657
 51
270.0
  0
ARC
  5
3B7
330
25
100
AcDbEntity
  8
1
  6
Continuous
 62
     0
100
AcDbCircle
 10
13109.64773509611
 20
-1179.353526096178
 30
0.0
 40
28.556285579996
100
AcDbArc
 50
270.0
 51
293.2010528959344
  0
ARC
  5
3B6
330
25
100
AcDbEntity
  8
1
  6
Continuous
 62
     0
100
AcDbCircle
 10
13136.14773509611
 20
-1156.40385289589
 30
0.0
 40
51.505958780284
100
AcDbArc
 50
252.7775550278672
 51
287.2224449721328
  0
ARC
  5
3B5
330
25
100
AcDbEntity
  8
1
  6
Continuous
 62
     0
100
AcDbCircle
 10
13158.14773509611
 20
-1124.443309776794
 30
0.0
 40
16.03349810062
100
AcDbArc
 50
90.0
 51
123.0747300672048
  0
ARC
  5
3B4
330
25
100
AcDbEntity
  8
1
  6
Continuous
 62
     0
100
AcDbCircle
 10
13114.14773509611
 20
-1065.40914033759
 30
0.0
 40
1.0
100
AcDbArc
 50
0.0
 51
180.0
  0
ARC
  5
3B3
330
25
100
AcDbEntity
  8
1
  6
Continuous
 62
     0
100
AcDbCircle
 10
13128.81440176278
 20
-1065.40914033759
 30
0.0
 40
1.0
100
AcDbArc
 50
0.0
 51
180.0
  0
ARC
  5
3B2
330
25
100
AcDbEntity
  8
1
  6
Continuous
 62
     0
100
AcDbCircle
 10
13143.48106842944
 20
-1065.40914033759
 30
0.0
 40
1.0
100
AcDbArc
 50
0.0
 51
180.0
  0
ARC
  5
3B1
330
25
100
AcDbEntity
  8
1
  6
Continuous
 62
     0
100
AcDbCircle
 10
13158.14773509611
 20
-1065.40914033759
 30
0.0
 40
1.0
100
AcDbArc
 50
0.0
 51
180.0
  0
ARC
  5
3B0
330
25
100
AcDbEntity
  8
1
  6
Continuous
 62
     0
100
AcDbCircle
 10
13114.14773509611
 20
-1124.443309776794
 30
0.0
 40
16.033498100619
100
AcDbArc
 50
56.92526993279299
 51
90.0
  0
ARC
  5
3AF
330
25
100
AcDbEntity
  8
1
  6
Continuous
 62
     0
100
AcDbCircle
 10
13136.14773509611
 20
-1143.495868660051
 30
0.0
 40
35.086056983876
100
AcDbArc
 50
67.81224586875801
 51
112.1877541312418
  0
ARC
  5
3AE
330
25
100
AcDbEntity
  8
1
  6
Continuous
 62
     0
100
AcDbCircle
 10
13136.14773509611
 20
-1042.90914033759
 30
0.0
 40
15.0
100
AcDbArc
 50
0.0
 51
180.0
  0
ARC
  5
3AD
330
25
100
AcDbEntity
  8
1
  6
Continuous
 62
     0
100
AcDbCircle
 10
13120.64773509611
 20
-1063.551538186483
 30
0.0
 40
12.142397848893
100
AcDbArc
 50
59.02090113836891
 51
90.0
  0
ARC
  5
3AC
330
25
100
AcDbEntity
  8
1
  6
Continuous
 62
     0
100
AcDbCircle
 10
13151.64773509611
 20
-1063.551538186483
 30
0.0
 40
12.142397848893
100
AcDbArc
 50
90.0
 51
120.9790988616305
  0
ARC
  5
3AB
330
25
100
AcDbEntity
  8
1
  6
Continuous
 62
     0
100
AcDbCircle
 10
13136.14773509611
 20
-1076.974931945142
 30
0.0
 40
25.565791607552
100
AcDbArc
 50
68.78850558533613
 51
111.2114944146637
  0
ARC
  5
3AA
330
25
100
AcDbEntity
  8
1
  6
Continuous
 62
     0
100
AcDbCircle
 10
13109.01610182111
 20
-1238.294892858438
 30
0.0
 40
6.48971883999
100
AcDbArc
 50
0.0
 51
39.92593778537285
  0
ARC
  5
3A9
330
25
100
AcDbEntity
  8
1
  6
Continuous
 62
     0
100
AcDbCircle
 10
13162.99553950109
 20
-1238.294892858438
 30
0.0
 40
6.489718839986
100
AcDbArc
 50
140.0740622145675
 51
180.0
  0
ARC
  5
3A8
330
25
100
AcDbEntity
  8
1
  6
Continuous
 62
     0
100
AcDbCircle
 10
13169.61631462156
 20
-1325.046797708846
 30
0.0
 40
10.415441500099
100
AcDbArc
 50
58.86850943391821
 51
90.0
  0
ARC
  5
3A7
330
25
100
AcDbEntity
  8
1
  6
Continuous
 62
     0
100
AcDbCircle
 10
13169.61631462156
 20
-1235.212825643504
 30
0.0
 40
10.415441500099
100
AcDbArc
 50
270.0
 51
301.1314905660818
  0
ARC
  5
3A6
330
25
100
AcDbEntity
  8
1
  6
Continuous
 62
     0
100
AcDbCircle
 10
10921.23738622755
 20
-1156.40385289589
 30
0.0
 40
51.505958780284
100
AcDbArc
 50
252.7775550278672
 51
287.2224449721328
  0
ARC
  5
3A5
330
25
100
AcDbEntity
  8
1
  6
Continuous
 62
     0
100
AcDbCircle
 10
10894.73738622755
 20
-1179.353526096178
 30
0.0
 40
28.556285579996
100
AcDbArc
 50
270.0
 51
293.2010528959344
  0
ARC
  5
3A4
330
25
100
AcDbEntity
  8
1
  6
Continuous
 62
     0
100
AcDbCircle
 10
10947.73738622755
 20
-1179.353526096178
 30
0.0
 40
28.556285579996
100
AcDbArc
 50
246.7989471040657
 51
270.0
  0
ARC
  5
3A3
330
25
100
AcDbEntity
  8
1
  6
Continuous
 62
     0
100
AcDbCircle
 10
10894.10575295255
 20
-1238.294892858438
 30
0.0
 40
6.48971883999
100
AcDbArc
 50
0.0
 51
39.92593778537285
  0
ARC
  5
3A2
330
25
100
AcDbEntity
  8
1
  6
Continuous
 62
     0
100
AcDbCircle
 10
10948.08519063253
 20
-1238.294892858438
 30
0.0
 40
6.489718839986
100
AcDbArc
 50
140.0740622145675
 51
180.0
  0
ARC
  5
3A1
330
25
100
AcDbEntity
  8
1
  6
Continuous
 62
     0
100
AcDbCircle
 10
10921.09547179254
 20
-1280.129811676175
 30
0.0
 40
36.001544532575
100
AcDbArc
 50
130.3739132422553
 51
270.0
  0
ARC
  5
3A0
330
25
100
AcDbEntity
  8
1
  6
Continuous
 62
     0
100
AcDbCircle
 10
10921.09547179254
 20
-1280.129811676175
 30
0.0
 40
34.501544532573
100
AcDbArc
 50
141.5293544594008
 51
270.0
  0
ARC
  5
39F
330
25
100
AcDbEntity
  8
1
  6
Continuous
 62
     0
100
AcDbCircle
 10
10921.09547179254
 20
-1280.129811676175
 30
0.0
 40
34.501544532571
100
AcDbArc
 50
270.0
 51
38.47064554059568
  0
ARC
  5
39E
330
25
100
AcDbEntity
  8
1
  6
Continuous
 62
     0
100
AcDbCircle
 10
10921.09547179254
 20
-1280.129811676175
 30
0.0
 40
36.001544532572
100
AcDbArc
 50
270.0
 51
49.62608675775566
  0
ARC
  5
39D
330
25
100
AcDbEntity
  8
1
  6
Continuous
 62
     0
100
AcDbCircle
 10
10541.09547179254
 20
-2337.044297764537
 30
0.0
 40
104.0
100
AcDbArc
 50
180.0
 51
243.6122000387589
  0
ARC
  5
39A
330
25
100
AcDbEntity
  8
1
  6
Continuous
 62
     0
100
AcDbCircle
 10
11301.09547179254
 20
-2337.044297764537
 30
0.0
 40
103.999999999999
100
AcDbArc
 50
296.3877999612437
 51
0.0
  0
ARC
  5
399
330
25
100
AcDbEntity
  8
1
  6
Continuous
 62
     0
100
AcDbCircle
 10
10921.09547179262
 20
-1571.129811676368
 30
0.0
 40
958.999999999791
100
AcDbArc
 50
291.405336673901
 51
296.387799961244
  0
ARC
  5
398
330
25
100
AcDbEntity
  8
1
  6
Continuous
 62
     0
100
AcDbCircle
 10
11301.09547179254
 20
-2337.044297764537
 30
0.0
 40
103.999999999999
100
AcDbArc
 50
296.3877999612437
 51
0.0
  0
ARC
  5
396
330
25
100
AcDbEntity
  8
1
  6
Continuous
 62
     0
100
AcDbCircle
 10
10541.09547179254
 20
-461.215325587813
 30
0.0
 40
103.999999999999
100
AcDbArc
 50
116.3877999612413
 51
180.0
  0
ARC
  5
395
330
25
100
AcDbEntity
  8
1
  6
Continuous
 62
     0
100
AcDbCircle
 10
10921.09547179246
 20
-1227.129811675982
 30
0.0
 40
958.999999999792
100
AcDbArc
 50
109.809546431809
 51
116.387799961243
  0
ARC
  5
394
330
25
100
AcDbEntity
  8
1
  6
Continuous
 62
     0
100
AcDbCircle
 10
10921.09547179254
 20
-1227.129811676158
 30
0.0
 40
958.999999999982
100
AcDbArc
 50
90.0
 51
109.80954643181
  0
ARC
  5
393
330
25
100
AcDbEntity
  8
1
  6
Continuous
 62
     0
100
AcDbCircle
 10
10921.09547179254
 20
-1227.129811676158
 30
0.0
 40
958.999999999984
100
AcDbArc
 50
70.190453568189
 51
90.0
  0
ARC
  5
392
330
25
100
AcDbEntity
  8
1
  6
Continuous
 62
     0
100
AcDbCircle
 10
10921.09547179262
 20
-1227.129811675982
 30
0.0
 40
958.999999999792
100
AcDbArc
 50
63.61220003875601
 51
70.19045356818994
  0
ARC
  5
391
330
25
100
AcDbEntity
  8
1
  6
Continuous
 62
     0
100
AcDbCircle
 10
11301.09547179254
 20
-461.215325587813
 30
0.0
 40
104.0
100
AcDbArc
 50
0.0
 51
63.6122000387579
  0
ARC
  5
390
330
25
100
AcDbEntity
  8
1
  6
Continuous
 62
     0
100
AcDbCircle
 10
11301.09547179254
 20
-461.215325587813
 30
0.0
 40
104.0
100
AcDbArc
 50
0.0
 51
63.6122000387579
  0
ARC
  5
38F
330
25
100
AcDbEntity
  8
1
  6
Continuous
 62
     0
100
AcDbCircle
 10
11301.09547179254
 20
-461.215325587813
 30
0.0
 40
104.0
100
AcDbArc
 50
0.0
 51
63.6122000387579
  0
ARC
  5
38E
330
25
100
AcDbEntity
  8
1
  6
Continuous
 62
     0
100
AcDbCircle
 10
10541.09547179254
 20
-461.215325587813
 30
0.0
 40
103.999999999999
100
AcDbArc
 50
116.3877999612413
 51
180.0
  0
ARC
  5
38D
330
25
100
AcDbEntity
  8
1
  6
Continuous
 62
     0
100
AcDbCircle
 10
11178.19356885394
 20
-267.626650913725
 30
0.0
 40
30.000000000001
100
AcDbArc
 50
287.5744390991699
 51
222.4255609008367
  0
ARC
  5
38C
330
25
100
AcDbEntity
  8
1
  6
Continuous
 62
     0
100
AcDbCircle
 10
13710.2411381563
 20
-244.053805878641
 30
0.0
 40
6.25
100
AcDbArc
 50
0.0
 51
180.0
  0
ARC
  5
38B
330
25
100
AcDbEntity
  8
1
  6
Continuous
 62
     0
100
AcDbCircle
 10
13710.23668390802
 20
-255.630295166166
 30
0.0
 40
49.686199239439
100
AcDbArc
 50
257.4837911585823
 51
282.5777966181303
  0
ARC
  5
38A
330
25
100
AcDbEntity
  8
1
  6
Continuous
 62
     0
100
AcDbCircle
 10
13718.98357070498
 20
-294.476665290613
 30
0.0
 40
9.867633396018
100
AcDbArc
 50
282.1272645669558
 51
302.2267359302314
  0
ARC
  5
389
330
25
100
AcDbEntity
  8
1
  6
Continuous
 62
     0
100
AcDbCircle
 10
13723.48384329593
 20
-301.227117645023
 30
0.0
 40
1.769429344085
100
AcDbArc
 50
295.503298161422
 51
353.2860179514245
  0
ARC
  5
388
330
25
100
AcDbEntity
  8
1
  6
Continuous
 62
     0
100
AcDbCircle
 10
13701.49870560763
 20
-294.476665290613
 30
0.0
 40
9.86763339602
100
AcDbArc
 50
237.7732640697136
 51
257.8727354330467
  0
ARC
  5
387
330
25
100
AcDbEntity
  8
1
  6
Continuous
 62
     0
100
AcDbCircle
 10
13696.99843301667
 20
-301.227117645023
 30
0.0
 40
1.769429344085
100
AcDbArc
 50
186.7139820485755
 51
244.496701838578
  0
ARC
  5
386
330
25
100
AcDbEntity
  8
1
  6
Continuous
 62
     0
100
AcDbCircle
 10
13698.73739287709
 20
-287.55926998153
 30
0.0
 40
1.612338933402
100
AcDbArc
 50
140.745956303959
 51
219.5080394082111
  0
ARC
  5
385
330
25
100
AcDbEntity
  8
1
  6
Continuous
 62
     0
100
AcDbCircle
 10
13701.30672966919
 20
-285.39485330448
 30
0.0
 40
4.971771314831
100
AcDbArc
 50
219.9153846100848
 51
242.2240275229092
  0
ARC
  5
384
330
25
100
AcDbEntity
  8
1
  6
Continuous
 62
     0
100
AcDbCircle
 10
13705.86757758127
 20
-276.382264922537
 30
0.0
 40
15.072223653273
100
AcDbArc
 50
242.8500425616256
 51
258.3232295382518
  0
ARC
  5
383
330
25
100
AcDbEntity
  8
1
  6
Continuous
 62
     0
100
AcDbCircle
 10
13708.6035697394
 20
-265.569295531554
 30
0.0
 40
26.219752682683
100
AcDbArc
 50
257.2503777040138
 51
259.8681261417141
  0
ARC
  5
382
330
25
100
AcDbEntity
  8
1
  6
Continuous
 62
     0
100
AcDbCircle
 10
13701.30672966919
 20
-289.72297567212
 30
0.0
 40
4.97177131483
100
AcDbArc
 50
117.7759724770963
 51
140.0846153899243
  0
ARC
  5
381
330
25
100
AcDbEntity
  8
1
  6
Continuous
 62
     0
100
AcDbCircle
 10
13705.86757758127
 20
-298.735564054065
 30
0.0
 40
15.072223653274
100
AcDbArc
 50
101.6767704617475
 51
117.1499574383725
  0
ARC
  5
380
330
25
100
AcDbEntity
  8
1
  6
Continuous
 62
     0
100
AcDbCircle
 10
13708.6035697394
 20
-309.548533445047
 30
0.0
 40
26.219752682684
100
AcDbArc
 50
100.1318738582855
 51
102.7496222959857
  0
ARC
  5
37F
330
25
100
AcDbEntity
  8
1
  6
Continuous
 62
     0
100
AcDbCircle
 10
13721.74488343552
 20
-287.55926998153
 30
0.0
 40
1.612338933398
100
AcDbArc
 50
320.4919605915512
 51
39.25404369606184
  0
ARC
  5
37E
330
25
100
AcDbEntity
  8
1
  6
Continuous
 62
     0
100
AcDbCircle
 10
13719.17554664341
 20
-289.72297567212
 30
0.0
 40
4.971771314831
100
AcDbArc
 50
39.91538461008479
 51
62.22402752279113
  0
ARC
  5
37D
330
25
100
AcDbEntity
  8
1
  6
Continuous
 62
     0
100
AcDbCircle
 10
13714.61469873134
 20
-298.735564054065
 30
0.0
 40
15.072223653274
100
AcDbArc
 50
62.85004256162748
 51
78.32322953825962
  0
ARC
  5
37C
330
25
100
AcDbEntity
  8
1
  6
Continuous
 62
     0
100
AcDbCircle
 10
13711.8787065732
 20
-309.548533445047
 30
0.0
 40
26.219752682685
100
AcDbArc
 50
77.25037770399443
 51
79.86812614171484
  0
ARC
  5
37B
330
25
100
AcDbEntity
  8
1
  6
Continuous
 62
     0
100
AcDbCircle
 10
13711.8787065732
 20
-265.569295531554
 30
0.0
 40
26.219752682683
100
AcDbArc
 50
280.1318738582859
 51
282.7496222960066
  0
ARC
  5
37A
330
25
100
AcDbEntity
  8
1
  6
Continuous
 62
     0
100
AcDbCircle
 10
13714.61469873134
 20
-276.382264922537
 30
0.0
 40
15.072223653273
100
AcDbArc
 50
281.6767704617413
 51
297.1499574383745
  0
ARC
  5
379
330
25
100
AcDbEntity
  8
1
  6
Continuous
 62
     0
100
AcDbCircle
 10
13719.17554664341
 20
-285.39485330448
 30
0.0
 40
4.971771314835
100
AcDbArc
 50
297.7759724772082
 51
320.084615389922
  0
ARC
  5
378
330
25
100
AcDbEntity
  8
1
  6
Continuous
 62
     0
100
AcDbCircle
 10
13710.24113815631
 20
-1227.129811676158
 30
0.0
 40
958.999999999981
100
AcDbArc
 50
70.19045356818998
 51
89.62658899167597
  0
ARC
  5
377
330
25
100
AcDbEntity
  8
1
  6
Continuous
 62
     0
100
AcDbCircle
 10
10921.09547179246
 20
-1571.129811676368
 30
0.0
 40
958.99999999979
100
AcDbArc
 50
243.6122000387571
 51
248.5946633261
  0
ARC
  5
375
330
25
100
AcDbEntity
  8
1
  6
Continuous
 62
     0
100
AcDbCircle
 10
13710.24113815622
 20
-1571.129811676368
 30
0.0
 40
958.99999999979
100
AcDbArc
 50
243.6122000387571
 51
248.5946633261
  0
ARC
  5
374
330
25
100
AcDbEntity
  8
1
  6
Continuous
 62
     0
100
AcDbCircle
 10
13330.2411381563
 20
-2337.044297764537
 30
0.0
 40
104.0
100
AcDbArc
 50
180.0
 51
243.6122000387589
  0
ARC
  5
372
330
25
100
AcDbEntity
  8
1
  6
Continuous
 62
     0
100
AcDbCircle
 10
14196.69564691714
 20
-2597.66457346588
 30
0.0
 40
152.252346488172
100
AcDbArc
 50
153.6680368469681
 51
181.151737825457
  0
ARC
  5
371
330
25
100
AcDbEntity
  8
1
  6
Continuous
 62
     0
100
AcDbCircle
 10
14090.2411381563
 20
-2337.044297764537
 30
0.0
 40
104.000000000003
100
AcDbArc
 50
296.3877999612469
 51
0.0
  0
ARC
  5
370
330
25
100
AcDbEntity
  8
1
  6
Continuous
 62
     0
100
AcDbCircle
 10
13710.24113815638
 20
-1571.129811676368
 30
0.0
 40
958.999999999791
100
AcDbArc
 50
291.405336673901
 51
296.387799961244
  0
ARC
  5
36F
330
25
100
AcDbEntity
  8
1
  6
Continuous
 62
     0
100
AcDbCircle
 10
14090.2411381563
 20
-2337.044297764537
 30
0.0
 40
104.000000000003
100
AcDbArc
 50
296.3877999612469
 51
0.0
  0
ARC
  5
36E
330
25
100
AcDbEntity
  8
1
  6
Continuous
 62
     0
100
AcDbCircle
 10
13223.78662939547
 20
-2597.66457346588
 30
0.0
 40
152.252346488166
100
AcDbArc
 50
358.8482621745441
 51
26.33196315303364
  0
ARC
  5
36D
330
25
100
AcDbEntity
  8
1
  6
Continuous
 62
     0
100
AcDbCircle
 10
13223.78662939547
 20
-2597.66457346588
 30
0.0
 40
152.252346488166
100
AcDbArc
 50
358.8482621745441
 51
26.33196315303364
  0
ARC
  5
36C
330
25
100
AcDbEntity
  8
1
  6
Continuous
 62
     0
100
AcDbCircle
 10
14196.69564691714
 20
-2597.66457346588
 30
0.0
 40
152.252346488172
100
AcDbArc
 50
153.6680368469681
 51
181.151737825457
  0
ARC
  5
36B
330
25
100
AcDbEntity
  8
1
  6
Continuous
 62
     0
100
AcDbCircle
 10
14196.69564691714
 20
-2597.66457346588
 30
0.0
 40
152.252346488172
100
AcDbArc
 50
153.6680368469681
 51
181.151737825457
  0
LINE
  5
364
330
25
100
AcDbEntity
  8
1
  6
Continuous
 62
     0
100
AcDbLine
 10
13810.2411381563
 20
-2630.129811676175
 30
0.0
 11
13810.2411381563
 21
-2821.129811676175
 31
0.0
  0
LINE
  5
363
330
25
100
AcDbEntity
  8
1
  6
Continuous
 62
     0
100
AcDbLine
 10
13610.2411381563
 20
-2630.129811676175
 30
0.0
 11
13610.2411381563
 21
-2821.129811676175
 31
0.0
  0
LINE
  5
362
330
25
100
AcDbEntity
  8
1
  6
Continuous
 62
     0
100
AcDbLine
 10
13235.2411381563
 20
-2821.129811676175
 30
0.0
 11
14185.2411381563
 21
-2821.129811676175
 31
0.0
  0
LINE
  5
361
330
25
100
AcDbEntity
  8
1
  6
Continuous
 62
     0
100
AcDbLine
 10
14185.2411381563
 20
-2821.129811676175
 30
0.0
 11
14185.2411381563
 21
-2830.129811676175
 31
0.0
  0
LINE
  5
360
330
25
100
AcDbEntity
  8
1
  6
Continuous
 62
     0
100
AcDbLine
 10
14185.2411381563
 20
-2830.129811676175
 30
0.0
 11
13235.2411381563
 21
-2830.129811676175
 31
0.0
  0
LINE
  5
35F
330
25
100
AcDbEntity
  8
1
  6
Continuous
 62
     0
100
AcDbLine
 10
13235.2411381563
 20
-2830.129811676175
 30
0.0
 11
13235.2411381563
 21
-2821.129811676175
 31
0.0
  0
LINE
  5
35E
330
25
100
AcDbEntity
  8
1
  6
Continuous
 62
     0
100
AcDbLine
 10
11255.32839371386
 20
-2821.129811676175
 30
0.0
 11
11255.32839371386
 21
-2600.724885739821
 31
0.0
  0
LINE
  5
35D
330
25
100
AcDbEntity
  8
1
  6
Continuous
 62
     0
100
AcDbLine
 10
10446.09547179254
 20
-2830.129811676175
 30
0.0
 11
10446.09547179254
 21
-2821.129811676175
 31
0.0
  0
LINE
  5
35C
330
25
100
AcDbEntity
  8
1
  6
Continuous
 62
     0
100
AcDbLine
 10
11396.09547179254
 20
-2830.129811676175
 30
0.0
 11
10446.09547179254
 21
-2830.129811676175
 31
0.0
  0
LINE
  5
35B
330
25
100
AcDbEntity
  8
1
  6
Continuous
 62
     0
100
AcDbLine
 10
11396.09547179254
 20
-2821.129811676175
 30
0.0
 11
11396.09547179254
 21
-2830.129811676175
 31
0.0
  0
LINE
  5
35A
330
25
100
AcDbEntity
  8
1
  6
Continuous
 62
     0
100
AcDbLine
 10
10446.09547179254
 20
-2821.129811676175
 30
0.0
 11
11396.09547179254
 21
-2821.129811676175
 31
0.0
  0
LINE
  5
359
330
25
100
AcDbEntity
  8
1
  6
Continuous
 62
     0
100
AcDbLine
 10
13226.2411381563
 20
-481.129811676176
 30
0.0
 11
13226.2411381563
 21
-2039.129811676175
 31
0.0
  0
LINE
  5
358
330
25
100
AcDbEntity
  8
1
  6
Continuous
 62
     0
100
AcDbLine
 10
13226.2411381563
 20
-461.215325587813
 30
0.0
 11
13226.2411381563
 21
-481.129811676176
 31
0.0
  0
LINE
  5
357
330
25
100
AcDbEntity
  8
1
  6
Continuous
 62
     0
100
AcDbLine
 10
14194.2411381563
 20
-481.129811676176
 30
0.0
 11
14194.2411381563
 21
-461.215325587813
 31
0.0
  0
LINE
  5
356
330
25
100
AcDbEntity
  8
1
  6
Continuous
 62
     0
100
AcDbLine
 10
13226.2411381563
 20
-461.215325587813
 30
0.0
 11
13226.2411381563
 21
-481.129811676176
 31
0.0
  0
LINE
  5
355
330
25
100
AcDbEntity
  8
1
  6
Continuous
 62
     0
100
AcDbLine
 10
13710.2411381563
 20
-481.129811676176
 30
0.0
 11
13226.2411381563
 21
-481.129811676176
 31
0.0
  0
LINE
  5
354
330
25
100
AcDbEntity
  8
1
  6
Continuous
 62
     0
100
AcDbLine
 10
14194.2411381563
 20
-481.129811676176
 30
0.0
 11
13710.2411381563
 21
-481.129811676176
 31
0.0
  0
LINE
  5
353
330
25
100
AcDbEntity
  8
1
  6
Continuous
 62
     0
100
AcDbLine
 10
13710.2411381563
 20
-2317.129811676175
 30
0.0
 11
14194.2411381563
 21
-2317.129811676175
 31
0.0
  0
LINE
  5
352
330
25
100
AcDbEntity
  8
1
  6
Continuous
 62
     0
100
AcDbLine
 10
13226.2411381563
 20
-2317.129811676175
 30
0.0
 11
13710.2411381563
 21
-2317.129811676175
 31
0.0
  0
LINE
  5
351
330
25
100
AcDbEntity
  8
1
  6
Continuous
 62
     0
100
AcDbLine
 10
14194.2411381563
 20
-2337.044297764537
 30
0.0
 11
14194.2411381563
 21
-2317.129811676175
 31
0.0
  0
LINE
  5
350
330
25
100
AcDbEntity
  8
1
  6
Continuous
 62
     0
100
AcDbLine
 10
13226.2411381563
 20
-2317.129811676175
 30
0.0
 11
13226.2411381563
 21
-2337.044297764537
 31
0.0
  0
LINE
  5
34F
330
25
100
AcDbEntity
  8
1
  6
Continuous
 62
     0
100
AcDbLine
 10
10314.28504727103
 20
-3906.626852993391
 30
0.0
 11
10286.59674493412
 21
-3906.626852993391
 31
0.0
  0
LINE
  5
34E
330
25
100
AcDbEntity
  8
1
  6
Continuous
 62
     0
100
AcDbLine
 10
10362.59674493412
 20
-3920.62685299339
 30
0.0
 11
10288.59674493412
 21
-3920.62685299339
 31
0.0
  0
LINE
  5
34D
330
25
100
AcDbEntity
  8
1
  6
Continuous
 62
     0
100
AcDbLine
 10
10288.59674493412
 20
-3885.62685299339
 30
0.0
 11
10362.59674493412
 21
-3885.62685299339
 31
0.0
  0
LINE
  5
34C
330
25
100
AcDbEntity
  8
1
  6
Continuous
 62
     0
100
AcDbLine
 10
10364.59674493412
 20
-3896.126852993391
 30
0.0
 11
10364.59674493412
 21
-3887.62685299339
 31
0.0
  0
LINE
  5
34B
330
25
100
AcDbEntity
  8
1
  6
Continuous
 62
     0
100
AcDbLine
 10
10364.59674493412
 20
-3917.126852993391
 30
0.0
 11
10364.59674493412
 21
-3918.62685299339
 31
0.0
  0
LINE
  5
34A
330
25
100
AcDbEntity
  8
1
  6
Continuous
 62
     0
100
AcDbLine
 10
10286.59674493412
 20
-3918.62685299339
 30
0.0
 11
10286.59674493412
 21
-3887.62685299339
 31
0.0
  0
LINE
  5
347
330
25
100
AcDbEntity
  8
1
  6
Continuous
 62
     0
100
AcDbLine
 10
10319.59674493412
 20
-3900.626852993391
 30
0.0
 11
10331.59674493412
 21
-3912.626852993391
 31
0.0
  0
LINE
  5
346
330
25
100
AcDbEntity
  8
1
  6
Continuous
 62
     0
100
AcDbLine
 10
10331.59674493412
 20
-3900.626852993391
 30
0.0
 11
10319.59674493412
 21
-3912.626852993391
 31
0.0
  0
LINE
  5
345
330
25
100
AcDbEntity
  8
1
  6
Continuous
 62
     0
100
AcDbLine
 10
10319.59674493412
 20
-3900.626852993391
 30
0.0
 11
10331.59674493412
 21
-3900.626852993391
 31
0.0
  0
LINE
  5
344
330
25
100
AcDbEntity
  8
1
  6
Continuous
 62
     0
100
AcDbLine
 10
10331.59674493412
 20
-3900.626852993391
 30
0.0
 11
10331.59674493412
 21
-3912.626852993391
 31
0.0
  0
LINE
  5
343
330
25
100
AcDbEntity
  8
1
  6
Continuous
 62
     0
100
AcDbLine
 10
10331.59674493412
 20
-3912.626852993391
 30
0.0
 11
10319.59674493412
 21
-3912.626852993391
 31
0.0
  0
LINE
  5
342
330
25
100
AcDbEntity
  8
1
  6
Continuous
 62
     0
100
AcDbLine
 10
10319.59674493412
 20
-3912.626852993391
 30
0.0
 11
10319.59674493412
 21
-3900.626852993391
 31
0.0
  0
LINE
  5
340
330
25
100
AcDbEntity
  8
1
  6
Continuous
 62
     0
100
AcDbLine
 10
10348.59547179254
 20
-3895.126852993391
 30
0.0
 11
10325.59674493412
 21
-3895.126852993391
 31
0.0
  0
LINE
  5
33F
330
25
100
AcDbEntity
  8
1
  6
Continuous
 62
     0
100
AcDbLine
 10
10348.59547179254
 20
-3895.126852993391
 30
0.0
 11
10348.59547179254
 21
-3906.626852993391
 31
0.0
  0
LINE
  5
33E
330
25
100
AcDbEntity
  8
1
  6
Continuous
 62
     0
100
AcDbLine
 10
10325.59674493412
 20
-3918.126852993391
 30
0.0
 11
10348.59547179254
 21
-3918.126852993391
 31
0.0
  0
LINE
  5
33D
330
25
100
AcDbEntity
  8
1
  6
Continuous
 62
     0
100
AcDbLine
 10
10348.59547179254
 20
-3906.626852993391
 30
0.0
 11
10348.59547179254
 21
-3918.126852993391
 31
0.0
  0
LINE
  5
33C
330
25
100
AcDbEntity
  8
1
  6
Continuous
 62
     0
100
AcDbLine
 10
10348.59547179254
 20
-3906.626852993391
 30
0.0
 11
10348.59547179254
 21
-3918.126852993391
 31
0.0
  0
LINE
  5
33B
330
25
100
AcDbEntity
  8
1
  6
Continuous
 62
     0
100
AcDbLine
 10
10348.59547179254
 20
-3895.126852993391
 30
0.0
 11
10348.59547179254
 21
-3906.626852993391
 31
0.0
  0
LINE
  5
33A
330
25
100
AcDbEntity
  8
1
  6
Continuous
 62
     0
100
AcDbLine
 10
10363.89547179254
 20
-3917.126852993391
 30
0.0
 11
10363.89547179254
 21
-3896.126852993391
 31
0.0
  0
LINE
  5
339
330
25
100
AcDbEntity
  8
1
  6
Continuous
 62
     0
100
AcDbLine
 10
10354.99547179254
 20
-3897.97685299339
 30
0.0
 11
10354.99547179254
 21
-3915.276852993391
 31
0.0
  0
LINE
  5
338
330
25
100
AcDbEntity
  8
1
  6
Continuous
 62
     0
100
AcDbLine
 10
10357.49547179254
 20
-3915.276852993391
 30
0.0
 11
10357.49547179254
 21
-3897.97685299339
 31
0.0
  0
LINE
  5
337
330
25
100
AcDbEntity
  8
1
  6
Continuous
 62
     0
100
AcDbLine
 10
10357.49547179254
 20
-3897.97685299339
 30
0.0
 11
10354.99547179254
 21
-3897.97685299339
 31
0.0
  0
LINE
  5
336
330
25
100
AcDbEntity
  8
1
  6
Continuous
 62
     0
100
AcDbLine
 10
10354.99547179254
 20
-3915.276852993391
 30
0.0
 11
10357.49547179254
 21
-3915.276852993391
 31
0.0
  0
LINE
  5
335
330
25
100
AcDbEntity
  8
1
  6
Continuous
 62
     0
100
AcDbLine
 10
10363.89547179254
 20
-3914.957852993391
 30
0.0
 11
10357.49547179254
 21
-3915.276852993391
 31
0.0
  0
LINE
  5
334
330
25
100
AcDbEntity
  8
1
  6
Continuous
 62
     0
100
AcDbLine
 10
10348.59547179254
 20
-3898.29585299339
 30
0.0
 11
10354.99547179254
 21
-3897.97685299339
 31
0.0
  0
LINE
  5
333
330
25
100
AcDbEntity
  8
1
  6
Continuous
 62
     0
100
AcDbLine
 10
10354.99547179254
 20
-3915.276852993391
 30
0.0
 11
10348.59547179254
 21
-3914.95785299339
 31
0.0
  0
LINE
  5
332
330
25
100
AcDbEntity
  8
1
  6
Continuous
 62
     0
100
AcDbLine
 10
10357.49547179254
 20
-3897.97685299339
 30
0.0
 11
10363.89547179254
 21
-3898.29585299339
 31
0.0
  0
LINE
  5
331
330
25
100
AcDbEntity
  8
1
  6
Continuous
 62
     0
100
AcDbLine
 10
10414.25547179254
 20
-3915.276852993391
 30
0.0
 11
10417.09547179254
 21
-3915.276852993391
 31
0.0
  0
LINE
  5
330
330
25
100
AcDbEntity
  8
1
  6
Continuous
 62
     0
100
AcDbLine
 10
10414.25547179254
 20
-3915.276852993391
 30
0.0
 11
10407.85547179254
 21
-3914.957852993391
 31
0.0
  0
LINE
  5
32F
330
25
100
AcDbEntity
  8
1
  6
Continuous
 62
     0
100
AcDbLine
 10
10407.85547179254
 20
-3898.29585299339
 30
0.0
 11
10414.25547179254
 21
-3897.97685299339
 31
0.0
  0
LINE
  5
32E
330
25
100
AcDbEntity
  8
1
  6
Continuous
 62
     0
100
AcDbLine
 10
10417.09547179254
 20
-3897.97685299339
 30
0.0
 11
10414.25547179254
 21
-3897.97685299339
 31
0.0
  0
LINE
  5
32D
330
25
100
AcDbEntity
  8
1
  6
Continuous
 62
     0
100
AcDbLine
 10
10414.25547179254
 20
-3897.97685299339
 30
0.0
 11
10414.25547179254
 21
-3915.276852993391
 31
0.0
  0
LINE
  5
32C
330
25
100
AcDbEntity
  8
1
  6
Continuous
 62
     0
100
AcDbLine
 10
10399.40332709153
 20
-3897.426852993389
 30
0.0
 11
10389.00547179254
 21
-3897.426852993389
 31
0.0
  0
LINE
  5
32B
330
25
100
AcDbEntity
  8
1
  6
Continuous
 62
     0
100
AcDbLine
 10
10372.30761649355
 20
-3897.426852993389
 30
0.0
 11
10380.70547179254
 21
-3897.426852993389
 31
0.0
  0
LINE
  5
32A
330
25
100
AcDbEntity
  8
1
  6
Continuous
 62
     0
100
AcDbLine
 10
10399.81764961903
 20
-3906.626852993391
 30
0.0
 11
10406.91764961903
 21
-3906.626852993391
 31
0.0
  0
LINE
  5
329
330
25
100
AcDbEntity
  8
1
  6
Continuous
 62
     0
100
AcDbLine
 10
10364.79329396605
 20
-3906.626852993391
 30
0.0
 11
10371.89329396605
 21
-3906.626852993391
 31
0.0
  0
LINE
  5
328
330
25
100
AcDbEntity
  8
1
  6
Continuous
 62
     0
100
AcDbLine
 10
10372.15547179254
 20
-3896.12685299339
 30
0.0
 11
10372.15547179254
 21
-3891.226852993388
 31
0.0
  0
LINE
  5
327
330
25
100
AcDbEntity
  8
1
  6
Continuous
 62
     0
100
AcDbLine
 10
10372.15547179254
 20
-3891.226852993388
 30
0.0
 11
10372.85547179254
 21
-3891.226852993388
 31
0.0
  0
LINE
  5
326
330
25
100
AcDbEntity
  8
1
  6
Continuous
 62
     0
100
AcDbLine
 10
10376.35547179254
 20
-3896.12685299339
 30
0.0
 11
10376.35547179254
 21
-3894.12685299339
 31
0.0
  0
LINE
  5
325
330
25
100
AcDbEntity
  8
1
  6
Continuous
 62
     0
100
AcDbLine
 10
10372.85547179254
 20
-3894.12685299339
 30
0.0
 11
10374.85547179254
 21
-3894.12685299339
 31
0.0
  0
LINE
  5
324
330
25
100
AcDbEntity
  8
1
  6
Continuous
 62
     0
100
AcDbLine
 10
10372.85547179254
 20
-3894.12685299339
 30
0.0
 11
10372.85547179254
 21
-3890.026852993391
 31
0.0
  0
LINE
  5
323
330
25
100
AcDbEntity
  8
1
  6
Continuous
 62
     0
100
AcDbLine
 10
10407.85547179254
 20
-3896.126852993391
 30
0.0
 11
10407.85547179254
 21
-3917.126852993391
 31
0.0
  0
LINE
  5
322
330
25
100
AcDbEntity
  8
1
  6
Continuous
 62
     0
100
AcDbLine
 10
10407.85547179254
 20
-3917.126852993391
 30
0.0
 11
10363.85547179254
 21
-3917.126852993391
 31
0.0
  0
LINE
  5
321
330
25
100
AcDbEntity
  8
1
  6
Continuous
 62
     0
100
AcDbLine
 10
10363.85547179254
 20
-3917.126852993391
 30
0.0
 11
10363.85547179254
 21
-3896.126852993391
 31
0.0
  0
LINE
  5
320
330
25
100
AcDbEntity
  8
1
  6
Continuous
 62
     0
100
AcDbLine
 10
10407.85547179254
 20
-3896.126852993391
 30
0.0
 11
10363.85547179254
 21
-3896.126852993391
 31
0.0
  0
LINE
  5
31D
330
25
100
AcDbEntity
  8
1
  6
Continuous
 62
     0
100
AcDbLine
 10
10394.85547179254
 20
-3894.12685299339
 30
0.0
 11
10394.85547179254
 21
-3890.62685299339
 31
0.0
  0
LINE
  5
31C
330
25
100
AcDbEntity
  8
1
  6
Continuous
 62
     0
100
AcDbLine
 10
10374.85547179254
 20
-3894.12685299339
 30
0.0
 11
10394.85547179254
 21
-3894.12685299339
 31
0.0
  0
LINE
  5
31B
330
25
100
AcDbEntity
  8
1
  6
Continuous
 62
     0
100
AcDbLine
 10
10374.85547179254
 20
-3890.62685299339
 30
0.0
 11
10374.85547179254
 21
-3894.12685299339
 31
0.0
  0
LINE
  5
31A
330
25
100
AcDbEntity
  8
1
  6
Continuous
 62
     0
100
AcDbLine
 10
10394.85547179254
 20
-3890.62685299339
 30
0.0
 11
10374.85547179254
 21
-3890.62685299339
 31
0.0
  0
LINE
  5
319
330
25
100
AcDbEntity
  8
1
  6
Continuous
 62
     0
100
AcDbLine
 10
10404.85547179254
 20
-3887.62685299339
 30
0.0
 11
10394.85547179254
 21
-3890.62685299339
 31
0.0
  0
LINE
  5
318
330
25
100
AcDbEntity
  8
1
  6
Continuous
 62
     0
100
AcDbLine
 10
10404.85547179254
 20
-3880.62685299339
 30
0.0
 11
10404.85547179254
 21
-3887.62685299339
 31
0.0
  0
LINE
  5
317
330
25
100
AcDbEntity
  8
1
  6
Continuous
 62
     0
100
AcDbLine
 10
10394.35547179254
 20
-3880.62685299339
 30
0.0
 11
10404.85547179254
 21
-3880.62685299339
 31
0.0
  0
LINE
  5
316
330
25
100
AcDbEntity
  8
1
  6
Continuous
 62
     0
100
AcDbLine
 10
10364.85547179254
 20
-3887.62685299339
 30
0.0
 11
10364.85547179254
 21
-3880.62685299339
 31
0.0
  0
LINE
  5
315
330
25
100
AcDbEntity
  8
1
  6
Continuous
 62
     0
100
AcDbLine
 10
10374.85547179254
 20
-3890.62685299339
 30
0.0
 11
10364.85547179254
 21
-3887.62685299339
 31
0.0
  0
LINE
  5
314
330
25
100
AcDbEntity
  8
1
  6
Continuous
 62
     0
100
AcDbLine
 10
10364.85547179254
 20
-3880.62685299339
 30
0.0
 11
10375.35547179254
 21
-3880.62685299339
 31
0.0
  0
LINE
  5
313
330
25
100
AcDbEntity
  8
1
  6
Continuous
 62
     0
100
AcDbLine
 10
10379.85547179254
 20
-3894.12685299339
 30
0.0
 11
10379.85547179254
 21
-3896.12685299339
 31
0.0
  0
LINE
  5
312
330
25
100
AcDbEntity
  8
1
  6
Continuous
 62
     0
100
AcDbLine
 10
10389.85547179254
 20
-3894.12685299339
 30
0.0
 11
10389.85547179254
 21
-3896.12685299339
 31
0.0
  0
LINE
  5
311
330
25
100
AcDbEntity
  8
1
  6
Continuous
 62
     0
100
AcDbLine
 10
10908.28791643558
 20
-3307.644066596182
 30
0.0
 11
10921.09547179254
 21
-3300.249621063179
 31
0.0
  0
LINE
  5
310
330
25
100
AcDbEntity
  8
1
  6
Continuous
 62
     0
100
AcDbLine
 10
10921.09547179254
 20
-3300.249621063179
 30
0.0
 11
10933.9030271495
 21
-3307.644066596182
 31
0.0
  0
LINE
  5
30F
330
25
100
AcDbEntity
  8
1
  6
Continuous
 62
     0
100
AcDbLine
 10
10955.59701632511
 20
-3359.891535498189
 30
0.0
 11
10967.09547179254
 21
-3359.891535498189
 31
0.0
  0
LINE
  5
30E
330
25
100
AcDbEntity
  8
1
  6
Continuous
 62
     0
100
AcDbLine
 10
10950.38655556416
 20
-3304.891535498189
 30
0.0
 11
10967.09547179254
 21
-3304.891535498189
 31
0.0
  0
LINE
  5
30C
330
25
100
AcDbEntity
  8
1
  6
Continuous
 62
     0
100
AcDbLine
 10
10968.09547179254
 20
-3361.391535498189
 30
0.0
 11
10968.09547179254
 21
-3360.891535498189
 31
0.0
  0
LINE
  5
30B
330
25
100
AcDbEntity
  8
1
  6
Continuous
 62
     0
100
AcDbLine
 10
10968.09547179254
 20
-3361.391535498189
 30
0.0
 11
10973.09547179254
 21
-3361.391535498189
 31
0.0
  0
LINE
  5
30A
330
25
100
AcDbEntity
  8
1
  6
Continuous
 62
     0
100
AcDbLine
 10
10973.09547179254
 20
-3361.391535498189
 30
0.0
 11
10973.09547179254
 21
-3303.391535498189
 31
0.0
  0
LINE
  5
309
330
25
100
AcDbEntity
  8
1
  6
Continuous
 62
     0
100
AcDbLine
 10
10973.09547179254
 20
-3303.391535498189
 30
0.0
 11
10968.09547179254
 21
-3303.391535498189
 31
0.0
  0
LINE
  5
308
330
25
100
AcDbEntity
  8
1
  6
Continuous
 62
     0
100
AcDbLine
 10
10968.09547179254
 20
-3303.391535498189
 30
0.0
 11
10968.09547179254
 21
-3303.891535498189
 31
0.0
  0
LINE
  5
307
330
25
100
AcDbEntity
  8
1
  6
Continuous
 62
     0
100
AcDbLine
 10
10968.09547179254
 20
-3304.032780506161
 30
0.0
 11
10968.09547179254
 21
-3361.391535498189
 31
0.0
  0
LINE
  5
306
330
25
100
AcDbEntity
  8
1
  6
Continuous
 62
     0
100
AcDbLine
 10
10886.59392725997
 20
-3360.403663520155
 30
0.0
 11
10886.59392725997
 21
-3335.777342858209
 31
0.0
  0
LINE
  5
305
330
25
100
AcDbEntity
  8
1
  6
Continuous
 62
     0
100
AcDbLine
 10
10955.59701632511
 20
-3335.332243544672
 30
0.0
 11
10955.59701632511
 21
-3360.249046528998
 31
0.0
  0
LINE
  5
304
330
25
100
AcDbEntity
  8
1
  6
Continuous
 62
     0
100
AcDbLine
 10
10955.59701632511
 20
-3366.00202945865
 30
0.0
 11
10955.59701632511
 21
-3358.891535498188
 31
0.0
  0
LINE
  5
303
330
25
100
AcDbEntity
  8
1
  6
Continuous
 62
     0
100
AcDbLine
 10
10885.09392725997
 20
-3376.386852993391
 30
0.0
 11
10921.09547179254
 21
-3376.386852993391
 31
0.0
  0
LINE
  5
302
330
25
100
AcDbEntity
  8
1
  6
Continuous
 62
     0
100
AcDbLine
 10
10957.09701632511
 20
-3371.386852993391
 30
0.0
 11
10955.59701632511
 21
-3371.386852993391
 31
0.0
  0
LINE
  5
301
330
25
100
AcDbEntity
  8
1
  6
Continuous
 62
     0
100
AcDbLine
 10
10885.09392725997
 20
-3371.386852993391
 30
0.0
 11
10886.59392725997
 21
-3371.386852993391
 31
0.0
  0
LINE
  5
300
330
25
100
AcDbEntity
  8
1
  6
Continuous
 62
     0
100
AcDbLine
 10
10886.59392725997
 20
-3371.386852993391
 30
0.0
 11
10955.59701632511
 21
-3371.386852993391
 31
0.0
  0
LINE
  5
2FF
330
25
100
AcDbEntity
  8
1
  6
Continuous
 62
     0
100
AcDbLine
 10
10885.09392725997
 20
-3376.386852993391
 30
0.0
 11
10885.09392725997
 21
-3371.386852993391
 31
0.0
  0
LINE
  5
2FE
330
25
100
AcDbEntity
  8
1
  6
Continuous
 62
     0
100
AcDbLine
 10
10957.09701632511
 20
-3376.386852993391
 30
0.0
 11
10957.09701632511
 21
-3371.386852993391
 31
0.0
  0
LINE
  5
2FD
330
25
100
AcDbEntity
  8
1
  6
Continuous
 62
     0
100
AcDbLine
 10
10921.09547179254
 20
-3376.386852993391
 30
0.0
 11
10957.09701632511
 21
-3376.386852993391
 31
0.0
  0
LINE
  5
2FC
330
25
100
AcDbEntity
  8
1
  6
Continuous
 62
     0
100
AcDbLine
 10
10886.59392725997
 20
-3366.00202945865
 30
0.0
 11
10886.59392725997
 21
-3356.891535498188
 31
0.0
  0
LINE
  5
2FB
330
25
100
AcDbEntity
  8
1
  6
Continuous
 62
     0
100
AcDbLine
 10
10890.84547179254
 20
-3387.506852993391
 30
0.0
 11
10891.28847179254
 21
-3376.386852993391
 31
0.0
  0
LINE
  5
2FA
330
25
100
AcDbEntity
  8
1
  6
Continuous
 62
     0
100
AcDbLine
 10
10950.90247179254
 20
-3376.386852993391
 30
0.0
 11
10951.34547179254
 21
-3387.506852993391
 31
0.0
  0
LINE
  5
2F9
330
25
100
AcDbEntity
  8
1
  6
Continuous
 62
     0
100
AcDbLine
 10
10891.28847179254
 20
-3402.626852993391
 30
0.0
 11
10890.84547179254
 21
-3391.506852993391
 31
0.0
  0
LINE
  5
2F8
330
25
100
AcDbEntity
  8
1
  6
Continuous
 62
     0
100
AcDbLine
 10
10950.90247179254
 20
-3402.626852993391
 30
0.0
 11
10951.34547179254
 21
-3391.506852993391
 31
0.0
  0
LINE
  5
2F7
330
25
100
AcDbEntity
  8
1
  6
Continuous
 62
     0
100
AcDbLine
 10
10890.84547179254
 20
-3387.506852993391
 30
0.0
 11
10890.84547179254
 21
-3391.506852993391
 31
0.0
  0
LINE
  5
2F6
330
25
100
AcDbEntity
  8
1
  6
Continuous
 62
     0
100
AcDbLine
 10
10951.34547179254
 20
-3391.506852993391
 30
0.0
 11
10951.34547179254
 21
-3387.506852993391
 31
0.0
  0
LINE
  5
2F5
330
25
100
AcDbEntity
  8
1
  6
Continuous
 62
     0
100
AcDbLine
 10
10890.84547179254
 20
-3387.506852993391
 30
0.0
 11
10951.34547179254
 21
-3387.506852993391
 31
0.0
  0
LINE
  5
2F4
330
25
100
AcDbEntity
  8
1
  6
Continuous
 62
     0
100
AcDbLine
 10
10951.34547179254
 20
-3391.506852993391
 30
0.0
 11
10890.84547179254
 21
-3391.506852993391
 31
0.0
  0
LINE
  5
2F3
330
25
100
AcDbEntity
  8
1
  6
Continuous
 62
     0
100
AcDbLine
 10
10887.94547179254
 20
-3402.626852993391
 30
0.0
 11
10954.24547179254
 21
-3402.626852993391
 31
0.0
  0
LINE
  5
2F2
330
25
100
AcDbEntity
  8
1
  6
Continuous
 62
     0
100
AcDbLine
 10
10887.94547179254
 20
-3402.626852993391
 30
0.0
 11
10887.94547179254
 21
-3422.626852993391
 31
0.0
  0
LINE
  5
2F1
330
25
100
AcDbEntity
  8
1
  6
Continuous
 62
     0
100
AcDbLine
 10
10954.24547179254
 20
-3402.626852993391
 30
0.0
 11
10954.24547179254
 21
-3422.626852993391
 31
0.0
  0
LINE
  5
2F0
330
25
100
AcDbEntity
  8
1
  6
Continuous
 62
     0
100
AcDbLine
 10
10887.94547179254
 20
-3402.626852993391
 30
0.0
 11
10954.24547179254
 21
-3402.626852993391
 31
0.0
  0
LINE
  5
2EF
330
25
100
AcDbEntity
  8
1
  6
Continuous
 62
     0
100
AcDbLine
 10
10417.09547179254
 20
-3865.626852993391
 30
0.0
 11
10417.09547179254
 21
-3947.626852993391
 31
0.0
  0
LINE
  5
2EE
330
25
100
AcDbEntity
  8
1
  6
Continuous
 62
     0
100
AcDbLine
 10
10438.93029376604
 20
-3865.626852993391
 30
0.0
 11
10417.09547179254
 21
-3865.626852993391
 31
0.0
  0
LINE
  5
2ED
330
25
100
AcDbEntity
  8
1
  6
Continuous
 62
     0
100
AcDbLine
 10
10438.93029376604
 20
-3947.626852993391
 30
0.0
 11
10417.09547179254
 21
-3947.626852993391
 31
0.0
  0
LINE
  5
2EC
330
25
100
AcDbEntity
  8
1
  6
Continuous
 62
     0
100
AcDbLine
 10
11425.09547179254
 20
-3947.626852993391
 30
0.0
 11
11403.26064981904
 21
-3947.626852993391
 31
0.0
  0
LINE
  5
2EB
330
25
100
AcDbEntity
  8
1
  6
Continuous
 62
     0
100
AcDbLine
 10
11425.09547179254
 20
-3865.626852993391
 30
0.0
 11
11403.26064981904
 21
-3865.626852993391
 31
0.0
  0
LINE
  5
2EA
330
25
100
AcDbEntity
  8
1
  6
Continuous
 62
     0
100
AcDbLine
 10
11425.09547179254
 20
-3947.626852993391
 30
0.0
 11
11425.09547179254
 21
-3865.626852993391
 31
0.0
  0
LINE
  5
2E9
330
25
100
AcDbEntity
  8
1
  6
Continuous
 62
     0
100
AcDbLine
 10
10990.8379425745
 20
-4422.626852993391
 30
0.0
 11
10992.69434903505
 21
-4421.555056223665
 31
0.0
  0
LINE
  5
2E8
330
25
100
AcDbEntity
  8
1
  6
Continuous
 62
     0
100
AcDbLine
 10
10964.98153611394
 20
-4421.555056223665
 30
0.0
 11
10966.8379425745
 21
-4422.626852993391
 31
0.0
  0
LINE
  5
2E7
330
25
100
AcDbEntity
  8
1
  6
Continuous
 62
     0
100
AcDbLine
 10
10964.98153611394
 20
-4412.626852993391
 30
0.0
 11
10964.98153611394
 21
-4421.555056223665
 31
0.0
  0
LINE
  5
2E6
330
25
100
AcDbEntity
  8
1
  6
Continuous
 62
     0
100
AcDbLine
 10
10966.8379425745
 20
-4422.626852993391
 30
0.0
 11
10990.8379425745
 21
-4422.626852993391
 31
0.0
  0
LINE
  5
2E5
330
25
100
AcDbEntity
  8
1
  6
Continuous
 62
     0
100
AcDbLine
 10
10992.69434903505
 20
-4421.555056223665
 30
0.0
 11
10992.69434903505
 21
-4412.626852993391
 31
0.0
  0
LINE
  5
2E4
330
25
100
AcDbEntity
  8
1
  6
Continuous
 62
     0
100
AcDbLine
 10
10971.90973934422
 20
-4412.626852993391
 30
0.0
 11
10971.90973934422
 21
-4421.555056223665
 31
0.0
  0
LINE
  5
2E3
330
25
100
AcDbEntity
  8
1
  6
Continuous
 62
     0
100
AcDbLine
 10
10985.76614580477
 20
-4412.626852993391
 30
0.0
 11
10985.76614580477
 21
-4421.555056223665
 31
0.0
  0
LINE
  5
2E2
330
25
100
AcDbEntity
  8
1
  6
Continuous
 62
     0
100
AcDbLine
 10
10964.8379425745
 20
-4408.626852993391
 30
0.0
 11
10964.8379425745
 21
-4412.626852993391
 31
0.0
  0
LINE
  5
2E1
330
25
100
AcDbEntity
  8
1
  6
Continuous
 62
     0
100
AcDbLine
 10
10964.8379425745
 20
-4412.626852993391
 30
0.0
 11
10992.8379425745
 21
-4412.626852993391
 31
0.0
  0
LINE
  5
2E0
330
25
100
AcDbEntity
  8
1
  6
Continuous
 62
     0
100
AcDbLine
 10
10992.8379425745
 20
-4412.626852993391
 30
0.0
 11
10992.8379425745
 21
-4408.626852993391
 31
0.0
  0
LINE
  5
2DF
330
25
100
AcDbEntity
  8
1
  6
Continuous
 62
     0
100
AcDbLine
 10
10977.90460924116
 20
-4412.626852993391
 30
0.0
 11
10976.7617520983
 21
-4408.626852993391
 31
0.0
  0
LINE
  5
2DE
330
25
100
AcDbEntity
  8
1
  6
Continuous
 62
     0
100
AcDbLine
 10
10980.91413305069
 20
-4412.626852993391
 30
0.0
 11
10979.77127590783
 21
-4408.626852993391
 31
0.0
  0
LINE
  5
2DD
330
25
100
AcDbEntity
  8
1
  6
Continuous
 62
     0
100
AcDbLine
 10
10963.8379425745
 20
-4405.626852993391
 30
0.0
 11
10963.8379425745
 21
-4408.626852993391
 31
0.0
  0
LINE
  5
2DC
330
25
100
AcDbEntity
  8
1
  6
Continuous
 62
     0
100
AcDbLine
 10
10963.8379425745
 20
-4408.626852993391
 30
0.0
 11
10993.8379425745
 21
-4408.626852993391
 31
0.0
  0
LINE
  5
2DB
330
25
100
AcDbEntity
  8
1
  6
Continuous
 62
     0
100
AcDbLine
 10
10993.8379425745
 20
-4408.626852993391
 30
0.0
 11
10993.8379425745
 21
-4405.626852993391
 31
0.0
  0
LINE
  5
2DA
330
25
100
AcDbEntity
  8
1
  6
Continuous
 62
     0
100
AcDbLine
 10
10993.8379425745
 20
-4405.626852993391
 30
0.0
 11
10963.8379425745
 21
-4405.626852993391
 31
0.0
  0
LINE
  5
2D7
330
25
100
AcDbEntity
  8
1
  6
Continuous
 62
     0
100
AcDbLine
 10
10960.01318631536
 20
-4405.626852993391
 30
0.0
 11
10930.01318631536
 21
-4405.626852993391
 31
0.0
  0
LINE
  5
2D6
330
25
100
AcDbEntity
  8
1
  6
Continuous
 62
     0
100
AcDbLine
 10
10960.01318631536
 20
-4408.626852993391
 30
0.0
 11
10960.01318631536
 21
-4405.626852993391
 31
0.0
  0
LINE
  5
2D5
330
25
100
AcDbEntity
  8
1
  6
Continuous
 62
     0
100
AcDbLine
 10
10930.01318631536
 20
-4408.626852993391
 30
0.0
 11
10960.01318631536
 21
-4408.626852993391
 31
0.0
  0
LINE
  5
2D4
330
25
100
AcDbEntity
  8
1
  6
Continuous
 62
     0
100
AcDbLine
 10
10930.01318631536
 20
-4405.626852993391
 30
0.0
 11
10930.01318631536
 21
-4408.626852993391
 31
0.0
  0
LINE
  5
2D3
330
25
100
AcDbEntity
  8
1
  6
Continuous
 62
     0
100
AcDbLine
 10
10947.08937679155
 20
-4412.626852993391
 30
0.0
 11
10945.94651964869
 21
-4408.626852993391
 31
0.0
  0
LINE
  5
2D2
330
25
100
AcDbEntity
  8
1
  6
Continuous
 62
     0
100
AcDbLine
 10
10944.07985298202
 20
-4412.626852993391
 30
0.0
 11
10942.93699583917
 21
-4408.626852993391
 31
0.0
  0
LINE
  5
2D1
330
25
100
AcDbEntity
  8
1
  6
Continuous
 62
     0
100
AcDbLine
 10
10959.01318631536
 20
-4412.626852993391
 30
0.0
 11
10959.01318631536
 21
-4408.626852993391
 31
0.0
  0
LINE
  5
2D0
330
25
100
AcDbEntity
  8
1
  6
Continuous
 62
     0
100
AcDbLine
 10
10931.01318631536
 20
-4412.626852993391
 30
0.0
 11
10959.01318631536
 21
-4412.626852993391
 31
0.0
  0
LINE
  5
2CF
330
25
100
AcDbEntity
  8
1
  6
Continuous
 62
     0
100
AcDbLine
 10
10931.01318631536
 20
-4408.626852993391
 30
0.0
 11
10931.01318631536
 21
-4412.626852993391
 31
0.0
  0
LINE
  5
2CE
330
25
100
AcDbEntity
  8
1
  6
Continuous
 62
     0
100
AcDbLine
 10
10951.94138954564
 20
-4412.626852993391
 30
0.0
 11
10951.94138954564
 21
-4421.555056223665
 31
0.0
  0
LINE
  5
2CD
330
25
100
AcDbEntity
  8
1
  6
Continuous
 62
     0
100
AcDbLine
 10
10938.08498308508
 20
-4412.626852993391
 30
0.0
 11
10938.08498308508
 21
-4421.555056223665
 31
0.0
  0
LINE
  5
2CC
330
25
100
AcDbEntity
  8
1
  6
Continuous
 62
     0
100
AcDbLine
 10
10958.86959277591
 20
-4421.555056223665
 30
0.0
 11
10958.86959277591
 21
-4412.626852993391
 31
0.0
  0
LINE
  5
2CB
330
25
100
AcDbEntity
  8
1
  6
Continuous
 62
     0
100
AcDbLine
 10
10933.01318631536
 20
-4422.626852993391
 30
0.0
 11
10957.01318631536
 21
-4422.626852993391
 31
0.0
  0
LINE
  5
2CA
330
25
100
AcDbEntity
  8
1
  6
Continuous
 62
     0
100
AcDbLine
 10
10931.15677985481
 20
-4412.626852993391
 30
0.0
 11
10931.15677985481
 21
-4421.555056223665
 31
0.0
  0
LINE
  5
2C9
330
25
100
AcDbEntity
  8
1
  6
Continuous
 62
     0
100
AcDbLine
 10
10931.15677985481
 20
-4421.555056223665
 30
0.0
 11
10933.01318631536
 21
-4422.626852993391
 31
0.0
  0
LINE
  5
2C8
330
25
100
AcDbEntity
  8
1
  6
Continuous
 62
     0
100
AcDbLine
 10
10957.01318631536
 20
-4422.626852993391
 30
0.0
 11
10958.86959277591
 21
-4421.555056223665
 31
0.0
  0
LINE
  5
2C7
330
25
100
AcDbEntity
  8
1
  6
Continuous
 62
     0
100
AcDbLine
 10
10883.32135080917
 20
-4421.555056223665
 30
0.0
 11
10885.17775726972
 21
-4422.626852993391
 31
0.0
  0
LINE
  5
2C6
330
25
100
AcDbEntity
  8
1
  6
Continuous
 62
     0
100
AcDbLine
 10
10909.17775726972
 20
-4422.626852993391
 30
0.0
 11
10911.03416373027
 21
-4421.555056223665
 31
0.0
  0
LINE
  5
2C5
330
25
100
AcDbEntity
  8
1
  6
Continuous
 62
     0
100
AcDbLine
 10
10911.03416373027
 20
-4421.555056223665
 30
0.0
 11
10911.03416373027
 21
-4412.626852993391
 31
0.0
  0
LINE
  5
2C4
330
25
100
AcDbEntity
  8
1
  6
Continuous
 62
     0
100
AcDbLine
 10
10885.17775726972
 20
-4422.626852993391
 30
0.0
 11
10909.17775726972
 21
-4422.626852993391
 31
0.0
  0
LINE
  5
2C3
330
25
100
AcDbEntity
  8
1
  6
Continuous
 62
     0
100
AcDbLine
 10
10883.32135080917
 20
-4412.626852993391
 30
0.0
 11
10883.32135080917
 21
-4421.555056223665
 31
0.0
  0
LINE
  5
2C2
330
25
100
AcDbEntity
  8
1
  6
Continuous
 62
     0
100
AcDbLine
 10
10904.1059605
 20
-4421.555056223665
 30
0.0
 11
10904.1059605
 21
-4412.626852993391
 31
0.0
  0
LINE
  5
2C1
330
25
100
AcDbEntity
  8
1
  6
Continuous
 62
     0
100
AcDbLine
 10
10890.24955403945
 20
-4421.555056223665
 30
0.0
 11
10890.24955403945
 21
-4412.626852993391
 31
0.0
  0
LINE
  5
2C0
330
25
100
AcDbEntity
  8
1
  6
Continuous
 62
     0
100
AcDbLine
 10
10911.17775726972
 20
-4412.626852993391
 30
0.0
 11
10911.17775726972
 21
-4408.626852993391
 31
0.0
  0
LINE
  5
2BF
330
25
100
AcDbEntity
  8
1
  6
Continuous
 62
     0
100
AcDbLine
 10
10883.17775726972
 20
-4412.626852993391
 30
0.0
 11
10911.17775726972
 21
-4412.626852993391
 31
0.0
  0
LINE
  5
2BE
330
25
100
AcDbEntity
  8
1
  6
Continuous
 62
     0
100
AcDbLine
 10
10883.17775726972
 20
-4408.626852993391
 30
0.0
 11
10883.17775726972
 21
-4412.626852993391
 31
0.0
  0
LINE
  5
2BD
330
25
100
AcDbEntity
  8
1
  6
Continuous
 62
     0
100
AcDbLine
 10
10899.25394774591
 20
-4408.626852993391
 30
0.0
 11
10898.11109060306
 21
-4412.626852993391
 31
0.0
  0
LINE
  5
2BC
330
25
100
AcDbEntity
  8
1
  6
Continuous
 62
     0
100
AcDbLine
 10
10896.24442393639
 20
-4408.626852993391
 30
0.0
 11
10895.10156679353
 21
-4412.626852993391
 31
0.0
  0
LINE
  5
2BB
330
25
100
AcDbEntity
  8
1
  6
Continuous
 62
     0
100
AcDbLine
 10
10912.17775726972
 20
-4408.626852993391
 30
0.0
 11
10912.17775726972
 21
-4405.626852993391
 31
0.0
  0
LINE
  5
2BA
330
25
100
AcDbEntity
  8
1
  6
Continuous
 62
     0
100
AcDbLine
 10
10882.17775726972
 20
-4408.626852993391
 30
0.0
 11
10912.17775726972
 21
-4408.626852993391
 31
0.0
  0
LINE
  5
2B9
330
25
100
AcDbEntity
  8
1
  6
Continuous
 62
     0
100
AcDbLine
 10
10882.17775726972
 20
-4405.626852993391
 30
0.0
 11
10882.17775726972
 21
-4408.626852993391
 31
0.0
  0
LINE
  5
2B8
330
25
100
AcDbEntity
  8
1
  6
Continuous
 62
     0
100
AcDbLine
 10
10912.17775726972
 20
-4405.626852993391
 30
0.0
 11
10882.17775726972
 21
-4405.626852993391
 31
0.0
  0
LINE
  5
2B5
330
25
100
AcDbEntity
  8
1
  6
Continuous
 62
     0
100
AcDbLine
 10
10878.35300101059
 20
-4405.626852993391
 30
0.0
 11
10848.35300101059
 21
-4405.626852993391
 31
0.0
  0
LINE
  5
2B4
330
25
100
AcDbEntity
  8
1
  6
Continuous
 62
     0
100
AcDbLine
 10
10848.35300101059
 20
-4405.626852993391
 30
0.0
 11
10848.35300101059
 21
-4408.626852993391
 31
0.0
  0
LINE
  5
2B3
330
25
100
AcDbEntity
  8
1
  6
Continuous
 62
     0
100
AcDbLine
 10
10848.35300101059
 20
-4408.626852993391
 30
0.0
 11
10878.35300101059
 21
-4408.626852993391
 31
0.0
  0
LINE
  5
2B2
330
25
100
AcDbEntity
  8
1
  6
Continuous
 62
     0
100
AcDbLine
 10
10878.35300101059
 20
-4408.626852993391
 30
0.0
 11
10878.35300101059
 21
-4405.626852993391
 31
0.0
  0
LINE
  5
2B1
330
25
100
AcDbEntity
  8
1
  6
Continuous
 62
     0
100
AcDbLine
 10
10862.41966767725
 20
-4408.626852993391
 30
0.0
 11
10861.27681053439
 21
-4412.626852993391
 31
0.0
  0
LINE
  5
2B0
330
25
100
AcDbEntity
  8
1
  6
Continuous
 62
     0
100
AcDbLine
 10
10865.42919148678
 20
-4408.626852993391
 30
0.0
 11
10864.28633434392
 21
-4412.626852993391
 31
0.0
  0
LINE
  5
2AF
330
25
100
AcDbEntity
  8
1
  6
Continuous
 62
     0
100
AcDbLine
 10
10849.35300101059
 20
-4408.626852993391
 30
0.0
 11
10849.35300101059
 21
-4412.626852993391
 31
0.0
  0
LINE
  5
2AE
330
25
100
AcDbEntity
  8
1
  6
Continuous
 62
     0
100
AcDbLine
 10
10849.35300101059
 20
-4412.626852993391
 30
0.0
 11
10877.35300101059
 21
-4412.626852993391
 31
0.0
  0
LINE
  5
2AD
330
25
100
AcDbEntity
  8
1
  6
Continuous
 62
     0
100
AcDbLine
 10
10877.35300101059
 20
-4412.626852993391
 30
0.0
 11
10877.35300101059
 21
-4408.626852993391
 31
0.0
  0
LINE
  5
2AC
330
25
100
AcDbEntity
  8
1
  6
Continuous
 62
     0
100
AcDbLine
 10
10856.42479778031
 20
-4421.555056223665
 30
0.0
 11
10856.42479778031
 21
-4412.626852993391
 31
0.0
  0
LINE
  5
2AB
330
25
100
AcDbEntity
  8
1
  6
Continuous
 62
     0
100
AcDbLine
 10
10870.28120424086
 20
-4421.555056223665
 30
0.0
 11
10870.28120424086
 21
-4412.626852993391
 31
0.0
  0
LINE
  5
2AA
330
25
100
AcDbEntity
  8
1
  6
Continuous
 62
     0
100
AcDbLine
 10
10849.49659455003
 20
-4412.626852993391
 30
0.0
 11
10849.49659455003
 21
-4421.555056223665
 31
0.0
  0
LINE
  5
2A9
330
25
100
AcDbEntity
  8
1
  6
Continuous
 62
     0
100
AcDbLine
 10
10851.35300101059
 20
-4422.626852993391
 30
0.0
 11
10875.35300101059
 21
-4422.626852993391
 31
0.0
  0
LINE
  5
2A8
330
25
100
AcDbEntity
  8
1
  6
Continuous
 62
     0
100
AcDbLine
 10
10877.20940747114
 20
-4421.555056223665
 30
0.0
 11
10877.20940747114
 21
-4412.626852993391
 31
0.0
  0
LINE
  5
2A7
330
25
100
AcDbEntity
  8
1
  6
Continuous
 62
     0
100
AcDbLine
 10
10875.35300101059
 20
-4422.626852993391
 30
0.0
 11
10877.20940747114
 21
-4421.555056223665
 31
0.0
  0
LINE
  5
2A6
330
25
100
AcDbEntity
  8
1
  6
Continuous
 62
     0
100
AcDbLine
 10
10849.49659455003
 20
-4421.555056223665
 30
0.0
 11
10851.35300101059
 21
-4422.626852993391
 31
0.0
  0
LINE
  5
2A5
330
25
100
AcDbEntity
  8
1
  6
Continuous
 62
     0
100
AcDbLine
 10
10842.09547179254
 20
-4383.763289895916
 30
0.0
 11
10842.09547179254
 21
-4405.626852993391
 31
0.0
  0
LINE
  5
2A4
330
25
100
AcDbEntity
  8
1
  6
Continuous
 62
     0
100
AcDbLine
 10
11000.09547179254
 20
-4383.756473351302
 30
0.0
 11
11000.09547179254
 21
-4405.626852993391
 31
0.0
  0
LINE
  5
2A2
330
25
100
AcDbEntity
  8
1
  6
Continuous
 62
     0
100
AcDbLine
 10
11000.09547179254
 20
-4405.626852993391
 30
0.0
 11
10842.09547179254
 21
-4405.626852993391
 31
0.0
  0
LINE
  5
2A1
330
25
100
AcDbEntity
  8
1
  6
Continuous
 62
     0
100
AcDbLine
 10
11000.09547179254
 20
-4395.626852993391
 30
0.0
 11
10842.09547179254
 21
-4395.626852993391
 31
0.0
  0
LINE
  5
29C
330
25
100
AcDbEntity
  8
1
  6
Continuous
 62
     0
100
AcDbLine
 10
10324.55721567047
 20
-1257.131084817757
 30
0.0
 11
10336.05721567047
 21
-1257.131084817757
 31
0.0
  0
LINE
  5
29B
330
25
100
AcDbEntity
  8
1
  6
Continuous
 62
     0
100
AcDbLine
 10
10336.05721567047
 20
-1257.131084817757
 30
0.0
 11
10336.05721567047
 21
-1265.629811676175
 31
0.0
  0
LINE
  5
29A
330
25
100
AcDbEntity
  8
1
  6
Continuous
 62
     0
100
AcDbLine
 10
10347.55594252889
 20
-1268.629811676175
 30
0.0
 11
10339.05721567047
 21
-1268.629811676175
 31
0.0
  0
LINE
  5
299
330
25
100
AcDbEntity
  8
1
  6
Continuous
 62
     0
100
AcDbLine
 10
10313.05721567047
 20
-1257.131084817758
 30
0.0
 11
10324.55721567047
 21
-1257.131084817757
 31
0.0
  0
LINE
  5
298
330
25
100
AcDbEntity
  8
1
  6
Continuous
 62
     0
100
AcDbLine
 10
10347.55594252889
 20
-1268.629811676175
 30
0.0
 11
10347.55594252889
 21
-1280.129811676175
 31
0.0
  0
LINE
  5
297
330
25
100
AcDbEntity
  8
1
  6
Continuous
 62
     0
100
AcDbLine
 10
10313.05721567047
 20
-1257.131084817758
 30
0.0
 11
10313.05721567047
 21
-1280.129811676175
 31
0.0
  0
LINE
  5
296
330
25
100
AcDbEntity
  8
1
  6
Continuous
 62
     0
100
AcDbLine
 10
10313.05721567047
 20
-1280.129811676175
 30
0.0
 11
10313.05721567047
 21
-1303.128538534592
 31
0.0
  0
LINE
  5
295
330
25
100
AcDbEntity
  8
1
  6
Continuous
 62
     0
100
AcDbLine
 10
10347.55594252889
 20
-1280.129811676175
 30
0.0
 11
10347.55594252889
 21
-1291.629811676175
 31
0.0
  0
LINE
  5
294
330
25
100
AcDbEntity
  8
1
  6
Continuous
 62
     0
100
AcDbLine
 10
10324.55721567047
 20
-1303.128538534592
 30
0.0
 11
10313.05721567047
 21
-1303.128538534592
 31
0.0
  0
LINE
  5
293
330
25
100
AcDbEntity
  8
1
  6
Continuous
 62
     0
100
AcDbLine
 10
10339.05721567047
 20
-1291.629811676175
 30
0.0
 11
10347.55594252889
 21
-1291.629811676175
 31
0.0
  0
LINE
  5
292
330
25
100
AcDbEntity
  8
1
  6
Continuous
 62
     0
100
AcDbLine
 10
10336.05721567047
 20
-1294.629811676175
 30
0.0
 11
10336.05721567047
 21
-1303.128538534593
 31
0.0
  0
LINE
  5
291
330
25
100
AcDbEntity
  8
1
  6
Continuous
 62
     0
100
AcDbLine
 10
10336.05721567047
 20
-1303.128538534593
 30
0.0
 11
10324.55721567047
 21
-1303.128538534592
 31
0.0
  0
LINE
  5
290
330
25
100
AcDbEntity
  8
1
  6
Continuous
 62
     0
100
AcDbLine
 10
10363.7937647024
 20
-1292.254167329156
 30
0.0
 11
10362.85594252889
 21
-1290.629811676175
 31
0.0
  0
LINE
  5
28F
330
25
100
AcDbEntity
  8
1
  6
Continuous
 62
     0
100
AcDbLine
 10
10362.85594252889
 20
-1269.629811676175
 30
0.0
 11
10363.7937647024
 21
-1268.005456023195
 31
0.0
  0
LINE
  5
28E
330
25
100
AcDbEntity
  8
1
  6
Continuous
 62
     0
100
AcDbLine
 10
10362.85594252889
 20
-1290.629811676175
 30
0.0
 11
10362.85594252889
 21
-1269.629811676175
 31
0.0
  0
LINE
  5
28D
330
25
100
AcDbEntity
  8
1
  6
Continuous
 62
     0
100
AcDbLine
 10
10363.7937647024
 20
-1286.191989502666
 30
0.0
 11
10369.95594252889
 21
-1286.191989502666
 31
0.0
  0
LINE
  5
28C
330
25
100
AcDbEntity
  8
1
  6
Continuous
 62
     0
100
AcDbLine
 10
10363.7937647024
 20
-1274.067633849685
 30
0.0
 11
10369.95594252889
 21
-1274.067633849685
 31
0.0
  0
LINE
  5
28B
330
25
100
AcDbEntity
  8
1
  6
Continuous
 62
     0
100
AcDbLine
 10
10406.85594252889
 20
-1290.629811676175
 30
0.0
 11
10405.91812035538
 21
-1292.254167329156
 31
0.0
  0
LINE
  5
28A
330
25
100
AcDbEntity
  8
1
  6
Continuous
 62
     0
100
AcDbLine
 10
10405.91812035538
 20
-1268.005456023195
 30
0.0
 11
10406.85594252889
 21
-1269.629811676175
 31
0.0
  0
LINE
  5
289
330
25
100
AcDbEntity
  8
1
  6
Continuous
 62
     0
100
AcDbLine
 10
10405.91812035538
 20
-1292.254167329156
 30
0.0
 11
10399.4937647024
 21
-1292.254167329156
 31
0.0
  0
LINE
  5
288
330
25
100
AcDbEntity
  8
1
  6
Continuous
 62
     0
100
AcDbLine
 10
10406.85594252889
 20
-1269.629811676175
 30
0.0
 11
10406.85594252889
 21
-1290.629811676175
 31
0.0
  0
LINE
  5
287
330
25
100
AcDbEntity
  8
1
  6
Continuous
 62
     0
100
AcDbLine
 10
10405.91812035538
 20
-1268.005456023195
 30
0.0
 11
10399.4937647024
 21
-1268.005456023195
 31
0.0
  0
LINE
  5
286
330
25
100
AcDbEntity
  8
1
  6
Continuous
 62
     0
100
AcDbLine
 10
10404.85594252889
 20
-1275.779811676172
 30
0.0
 11
10395.57869870443
 21
-1275.779811676172
 31
0.0
  0
LINE
  5
285
330
25
100
AcDbEntity
  8
1
  6
Continuous
 62
     0
100
AcDbLine
 10
10404.85594252889
 20
-1275.779811676172
 30
0.0
 11
10404.85594252889
 21
-1284.479811676174
 31
0.0
  0
LINE
  5
284
330
25
100
AcDbEntity
  8
1
  6
Continuous
 62
     0
100
AcDbLine
 10
10404.85594252889
 20
-1284.479811676174
 30
0.0
 11
10395.57869870443
 21
-1284.479811676174
 31
0.0
  0
LINE
  5
283
330
25
100
AcDbEntity
  8
1
  6
Continuous
 62
     0
100
AcDbLine
 10
10364.85594252889
 20
-1275.779811676172
 30
0.0
 11
10374.13318635335
 21
-1275.779811676172
 31
0.0
  0
LINE
  5
282
330
25
100
AcDbEntity
  8
1
  6
Continuous
 62
     0
100
AcDbLine
 10
10364.85594252889
 20
-1275.779811676172
 30
0.0
 11
10364.85594252889
 21
-1284.479811676174
 31
0.0
  0
LINE
  5
281
330
25
100
AcDbEntity
  8
1
  6
Continuous
 62
     0
100
AcDbLine
 10
10364.85594252889
 20
-1284.479811676174
 30
0.0
 11
10374.13318635335
 21
-1284.479811676174
 31
0.0
  0
LINE
  5
27E
330
25
100
AcDbEntity
  8
1
  6
Continuous
 62
     0
100
AcDbLine
 10
10379.85594252889
 20
-1277.243060330223
 30
0.0
 11
10379.85594252889
 21
-1283.016563022124
 31
0.0
  0
LINE
  5
27D
330
25
100
AcDbEntity
  8
1
  6
Continuous
 62
     0
100
AcDbLine
 10
10379.85594252889
 20
-1283.016563022124
 30
0.0
 11
10384.85594252889
 21
-1285.903314368075
 31
0.0
  0
LINE
  5
27C
330
25
100
AcDbEntity
  8
1
  6
Continuous
 62
     0
100
AcDbLine
 10
10384.85594252889
 20
-1285.903314368075
 30
0.0
 11
10389.85594252889
 21
-1283.016563022124
 31
0.0
  0
LINE
  5
27B
330
25
100
AcDbEntity
  8
1
  6
Continuous
 62
     0
100
AcDbLine
 10
10389.85594252889
 20
-1283.016563022124
 30
0.0
 11
10389.85594252889
 21
-1277.243060330223
 31
0.0
  0
LINE
  5
27A
330
25
100
AcDbEntity
  8
1
  6
Continuous
 62
     0
100
AcDbLine
 10
10389.85594252889
 20
-1277.243060330223
 30
0.0
 11
10384.85594252889
 21
-1274.356308984275
 31
0.0
  0
LINE
  5
279
330
25
100
AcDbEntity
  8
1
  6
Continuous
 62
     0
100
AcDbLine
 10
10384.85594252889
 20
-1274.356308984275
 30
0.0
 11
10379.85594252889
 21
-1277.243060330223
 31
0.0
  0
LINE
  5
278
330
25
100
AcDbEntity
  8
1
  6
Continuous
 62
     0
100
AcDbLine
 10
10384.85594252889
 20
-1273.879811676175
 30
0.0
 11
10379.13979905206
 21
-1273.879811676175
 31
0.0
  0
LINE
  5
277
330
25
100
AcDbEntity
  8
1
  6
Continuous
 62
     0
100
AcDbLine
 10
10391.10594252889
 20
-1280.129811676175
 30
0.0
 11
10393.35594252889
 21
-1280.129811676175
 31
0.0
  0
LINE
  5
276
330
25
100
AcDbEntity
  8
1
  6
Continuous
 62
     0
100
AcDbLine
 10
10382.61987455139
 20
-1278.129811676175
 30
0.0
 11
10387.09201050639
 21
-1278.129811676175
 31
0.0
  0
LINE
  5
275
330
25
100
AcDbEntity
  8
1
  6
Continuous
 62
     0
100
AcDbLine
 10
10382.61987455139
 20
-1282.129811676175
 30
0.0
 11
10387.09201050639
 21
-1282.129811676175
 31
0.0
  0
LINE
  5
274
330
25
100
AcDbEntity
  8
1
  6
Continuous
 62
     0
100
AcDbLine
 10
10398.55594252889
 20
-1269.629811676175
 30
0.0
 11
10399.4937647024
 21
-1268.005456023195
 31
0.0
  0
LINE
  5
273
330
25
100
AcDbEntity
  8
1
  6
Continuous
 62
     0
100
AcDbLine
 10
10399.4937647024
 20
-1292.254167329156
 30
0.0
 11
10398.55594252889
 21
-1290.629811676175
 31
0.0
  0
LINE
  5
272
330
25
100
AcDbEntity
  8
1
  6
Continuous
 62
     0
100
AcDbLine
 10
10370.8937647024
 20
-1290.629811676175
 30
0.0
 11
10369.95594252889
 21
-1292.254167329156
 31
0.0
  0
LINE
  5
271
330
25
100
AcDbEntity
  8
1
  6
Continuous
 62
     0
100
AcDbLine
 10
10369.95594252889
 20
-1268.005456023195
 30
0.0
 11
10370.8937647024
 21
-1269.629811676175
 31
0.0
  0
LINE
  5
270
330
25
100
AcDbEntity
  8
1
  6
Continuous
 62
     0
100
AcDbLine
 10
10398.55594252889
 20
-1269.629811676175
 30
0.0
 11
10370.8937647024
 21
-1269.629811676175
 31
0.0
  0
LINE
  5
26F
330
25
100
AcDbEntity
  8
1
  6
Continuous
 62
     0
100
AcDbLine
 10
10369.95594252889
 20
-1268.005456023195
 30
0.0
 11
10363.7937647024
 21
-1268.005456023195
 31
0.0
  0
LINE
  5
26E
330
25
100
AcDbEntity
  8
1
  6
Continuous
 62
     0
100
AcDbLine
 10
10398.55594252889
 20
-1290.629811676175
 30
0.0
 11
10370.8937647024
 21
-1290.629811676175
 31
0.0
  0
LINE
  5
26D
330
25
100
AcDbEntity
  8
1
  6
Continuous
 62
     0
100
AcDbLine
 10
10369.95594252889
 20
-1292.254167329156
 30
0.0
 11
10363.7937647024
 21
-1292.254167329156
 31
0.0
  0
LINE
  5
26C
330
25
100
AcDbEntity
  8
1
  6
Continuous
 62
     0
100
AcDbLine
 10
10399.4937647024
 20
-1286.191989502666
 30
0.0
 11
10405.91812035538
 21
-1286.191989502666
 31
0.0
  0
LINE
  5
26B
330
25
100
AcDbEntity
  8
1
  6
Continuous
 62
     0
100
AcDbLine
 10
10399.4937647024
 20
-1274.067633849685
 30
0.0
 11
10405.91812035538
 21
-1274.067633849685
 31
0.0
  0
LINE
  5
26A
330
25
100
AcDbEntity
  8
1
  6
Continuous
 62
     0
100
AcDbLine
 10
10393.35594252889
 20
-1274.794595779775
 30
0.0
 11
10393.35594252889
 21
-1271.629811676175
 31
0.0
  0
LINE
  5
269
330
25
100
AcDbEntity
  8
1
  6
Continuous
 62
     0
100
AcDbLine
 10
10393.35594252889
 20
-1271.629811676175
 30
0.0
 11
10395.85594252889
 21
-1271.629811676175
 31
0.0
  0
LINE
  5
268
330
25
100
AcDbEntity
  8
1
  6
Continuous
 62
     0
100
AcDbLine
 10
10370.10730105122
 20
-1285.691989502666
 30
0.0
 11
10376.5422716312
 21
-1285.691989502666
 31
0.0
  0
LINE
  5
267
330
25
100
AcDbEntity
  8
1
  6
Continuous
 62
     0
100
AcDbLine
 10
10370.10730105122
 20
-1274.567633849685
 30
0.0
 11
10376.5422716312
 21
-1274.567633849685
 31
0.0
  0
LINE
  5
266
330
25
100
AcDbEntity
  8
1
  6
Continuous
 62
     0
100
AcDbLine
 10
10399.34240618007
 20
-1285.691989502666
 30
0.0
 11
10393.10421651007
 21
-1285.691989502666
 31
0.0
  0
LINE
  5
265
330
25
100
AcDbEntity
  8
1
  6
Continuous
 62
     0
100
AcDbLine
 10
10399.34240618007
 20
-1274.567633849685
 30
0.0
 11
10397.40143512456
 21
-1274.567633849685
 31
0.0
  0
LINE
  5
264
330
25
100
AcDbEntity
  8
1
  6
Continuous
 62
     0
100
AcDbLine
 10
10422.09547179254
 20
-1288.460811676175
 30
0.0
 11
10415.69547179254
 21
-1288.779811676175
 31
0.0
  0
LINE
  5
263
330
25
100
AcDbEntity
  8
1
  6
Continuous
 62
     0
100
AcDbLine
 10
10406.79547179254
 20
-1271.798811676175
 30
0.0
 11
10413.19547179254
 21
-1271.479811676175
 31
0.0
  0
LINE
  5
262
330
25
100
AcDbEntity
  8
1
  6
Continuous
 62
     0
100
AcDbLine
 10
10413.19547179254
 20
-1288.779811676175
 30
0.0
 11
10406.79547179254
 21
-1288.460811676175
 31
0.0
  0
LINE
  5
261
330
25
100
AcDbEntity
  8
1
  6
Continuous
 62
     0
100
AcDbLine
 10
10415.69547179254
 20
-1271.479811676175
 30
0.0
 11
10422.09547179254
 21
-1271.798811676175
 31
0.0
  0
LINE
  5
260
330
25
100
AcDbEntity
  8
1
  6
Continuous
 62
     0
100
AcDbLine
 10
10415.69547179254
 20
-1271.479811676175
 30
0.0
 11
10413.19547179254
 21
-1271.479811676175
 31
0.0
  0
LINE
  5
25F
330
25
100
AcDbEntity
  8
1
  6
Continuous
 62
     0
100
AcDbLine
 10
10413.19547179254
 20
-1288.779811676175
 30
0.0
 11
10415.69547179254
 21
-1288.779811676175
 31
0.0
  0
LINE
  5
25E
330
25
100
AcDbEntity
  8
1
  6
Continuous
 62
     0
100
AcDbLine
 10
10415.69547179254
 20
-1288.779811676175
 30
0.0
 11
10415.69547179254
 21
-1271.479811676175
 31
0.0
  0
LINE
  5
25D
330
25
100
AcDbEntity
  8
1
  6
Continuous
 62
     0
100
AcDbLine
 10
10413.19547179254
 20
-1271.479811676175
 30
0.0
 11
10413.19547179254
 21
-1288.779811676175
 31
0.0
  0
LINE
  5
25C
330
25
100
AcDbEntity
  8
1
  6
Continuous
 62
     0
100
AcDbLine
 10
10353.95594252889
 20
-1271.479811676175
 30
0.0
 11
10353.95594252889
 21
-1288.779811676175
 31
0.0
  0
LINE
  5
25B
330
25
100
AcDbEntity
  8
1
  6
Continuous
 62
     0
100
AcDbLine
 10
10356.45594252889
 20
-1288.779811676175
 30
0.0
 11
10356.45594252889
 21
-1271.479811676175
 31
0.0
  0
LINE
  5
25A
330
25
100
AcDbEntity
  8
1
  6
Continuous
 62
     0
100
AcDbLine
 10
10353.95594252889
 20
-1288.779811676175
 30
0.0
 11
10356.45594252889
 21
-1288.779811676175
 31
0.0
  0
LINE
  5
259
330
25
100
AcDbEntity
  8
1
  6
Continuous
 62
     0
100
AcDbLine
 10
10356.45594252889
 20
-1271.479811676175
 30
0.0
 11
10353.95594252889
 21
-1271.479811676175
 31
0.0
  0
LINE
  5
258
330
25
100
AcDbEntity
  8
1
  6
Continuous
 62
     0
100
AcDbLine
 10
10356.45594252889
 20
-1271.479811676175
 30
0.0
 11
10362.85594252889
 21
-1271.798811676175
 31
0.0
  0
LINE
  5
257
330
25
100
AcDbEntity
  8
1
  6
Continuous
 62
     0
100
AcDbLine
 10
10353.95594252889
 20
-1288.779811676175
 30
0.0
 11
10347.55594252889
 21
-1288.460811676175
 31
0.0
  0
LINE
  5
256
330
25
100
AcDbEntity
  8
1
  6
Continuous
 62
     0
100
AcDbLine
 10
10347.55594252889
 20
-1271.798811676175
 30
0.0
 11
10353.95594252889
 21
-1271.479811676175
 31
0.0
  0
LINE
  5
255
330
25
100
AcDbEntity
  8
1
  6
Continuous
 62
     0
100
AcDbLine
 10
10362.85594252889
 20
-1288.460811676175
 30
0.0
 11
10356.45594252889
 21
-1288.779811676175
 31
0.0
  0
LINE
  5
254
330
25
100
AcDbEntity
  8
1
  6
Continuous
 62
     0
100
AcDbLine
 10
10422.09547179254
 20
-1269.479811676175
 30
0.0
 11
10422.09547179254
 21
-1290.779811676175
 31
0.0
  0
LINE
  5
253
330
25
100
AcDbEntity
  8
1
  6
Continuous
 62
     0
100
AcDbLine
 10
10437.09547179254
 20
-1290.779811676175
 30
0.0
 11
10422.09547179254
 21
-1290.779811676175
 31
0.0
  0
LINE
  5
252
330
25
100
AcDbEntity
  8
1
  6
Continuous
 62
     0
100
AcDbLine
 10
10437.09547179254
 20
-1269.479811676175
 30
0.0
 11
10422.09547179254
 21
-1269.479811676175
 31
0.0
  0
LINE
  5
251
330
25
100
AcDbEntity
  8
1
  6
Continuous
 62
     0
100
AcDbLine
 10
14194.2411381563
 20
-2196.129811676175
 30
0.0
 11
14194.2411381563
 21
-2317.129811676175
 31
0.0
  0
LINE
  5
250
330
25
100
AcDbEntity
  8
1
  6
Continuous
 62
     0
100
AcDbLine
 10
14199.2411381563
 20
-2038.129811676175
 30
0.0
 11
14199.2411381563
 21
-2196.129811676175
 31
0.0
  0
LINE
  5
24F
330
25
100
AcDbEntity
  8
1
  6
Continuous
 62
     0
100
AcDbLine
 10
14209.2411381563
 20
-2038.129811676175
 30
0.0
 11
14209.2411381563
 21
-2196.129811676175
 31
0.0
  0
LINE
  5
24D
330
25
100
AcDbEntity
  8
1
  6
Continuous
 62
     0
100
AcDbLine
 10
14209.2411381563
 20
-2196.129811676175
 30
0.0
 11
14194.2411381563
 21
-2196.129811676175
 31
0.0
  0
LINE
  5
24C
330
25
100
AcDbEntity
  8
1
  6
Continuous
 62
     0
100
AcDbLine
 10
14209.2411381563
 20
-2038.129811676175
 30
0.0
 11
14194.2411381563
 21
-2038.129811676175
 31
0.0
  0
LINE
  5
24B
330
25
100
AcDbEntity
  8
1
  6
Continuous
 62
     0
100
AcDbLine
 10
14194.2411381563
 20
-460.058142779016
 30
0.0
 11
14194.2411381563
 21
-481.129811676176
 31
0.0
  0
LINE
  5
249
330
25
100
AcDbEntity
  8
1
  6
Continuous
 62
     0
100
AcDbLine
 10
13226.2411381563
 20
-1016.129811676175
 30
0.0
 11
13226.2411381563
 21
-2317.129811676175
 31
0.0
  0
LINE
  5
248
330
25
100
AcDbEntity
  8
1
  6
Continuous
 62
     0
100
AcDbLine
 10
13697.0411381563
 20
-2540.129811676175
 30
0.0
 11
13723.4411381563
 21
-2540.129811676175
 31
0.0
  0
LINE
  5
247
330
25
100
AcDbEntity
  8
1
  6
Continuous
 62
     0
100
AcDbLine
 10
13723.4411381563
 20
-2540.129811676175
 30
0.0
 11
13723.4411381563
 21
-2531.004840049445
 31
0.0
  0
LINE
  5
246
330
25
100
AcDbEntity
  8
1
  6
Continuous
 62
     0
100
AcDbLine
 10
13697.0411381563
 20
-2540.129811676175
 30
0.0
 11
13697.0411381563
 21
-2531.004840049445
 31
0.0
  0
LINE
  5
245
330
25
100
AcDbEntity
  8
1
  6
DOTTED
 62
     0
100
AcDbLine
 10
13723.4411381563
 20
-2531.004840049445
 30
0.0
 11
13723.4411381563
 21
-2530.033965038893
 31
0.0
  0
LINE
  5
244
330
25
100
AcDbEntity
  8
1
  6
DOTTED
 62
     0
100
AcDbLine
 10
13697.0411381563
 20
-2531.004840049445
 30
0.0
 11
13697.0411381563
 21
-2530.033965038893
 31
0.0
  0
LINE
  5
243
330
25
100
AcDbEntity
  8
1
  6
Continuous
 62
     0
100
AcDbLine
 10
14194.2411381563
 20
-1050.760247354034
 30
0.0
 11
14194.2411381563
 21
-2038.129811676175
 31
0.0
  0
LINE
  5
23D
330
25
100
AcDbEntity
  8
1
  6
Continuous
 62
     0
100
AcDbLine
 10
10657.27305868988
 20
-300.486711378935
 30
0.0
 11
10686.25083347855
 21
-292.722140025859
 31
0.0
  0
LINE
  5
23C
330
25
100
AcDbEntity
  8
1
  6
Continuous
 62
     0
100
AcDbLine
 10
10683.05824224588
 20
-284.651760116184
 30
0.0
 11
10685.56682288009
 21
-290.993066370792
 31
0.0
  0
LINE
  5
23B
330
25
100
AcDbEntity
  8
1
  6
Continuous
 62
     0
100
AcDbLine
 10
10657.08304343592
 20
-299.20249939063
 30
0.0
 11
10656.00273384644
 21
-291.901261742628
 31
0.0
  0
LINE
  5
23A
330
25
100
AcDbEntity
  8
1
  6
Continuous
 62
     0
100
AcDbLine
 10
10661.19529319323
 20
-288.047713826727
 30
0.0
 11
10673.96824847589
 21
-284.625210773779
 31
0.0
  0
LINE
  5
239
330
25
100
AcDbEntity
  8
1
  6
Continuous
 62
     0
100
AcDbLine
 10
10686.25083347855
 20
-292.722140025859
 30
0.0
 11
10687.54492870407
 21
-297.551769157305
 31
0.0
  0
LINE
  5
238
330
25
100
AcDbEntity
  8
1
  6
Continuous
 62
     0
100
AcDbLine
 10
10657.27305868988
 20
-300.486711378935
 30
0.0
 11
10658.56715391539
 21
-305.31634051038
 31
0.0
  0
LINE
  5
237
330
25
100
AcDbEntity
  8
1
  6
Continuous
 62
     0
100
AcDbLine
 10
10685.56682288009
 20
-290.993066370792
 30
0.0
 11
10686.25083347855
 21
-292.722140025859
 31
0.0
  0
LINE
  5
236
330
25
100
AcDbEntity
  8
1
  6
Continuous
 62
     0
100
AcDbLine
 10
10679.81142714171
 20
-282.790365593551
 30
0.0
 11
10668.52670802043
 21
-284.530352873784
 31
0.0
  0
LINE
  5
235
330
25
100
AcDbEntity
  8
1
  6
Continuous
 62
     0
100
AcDbLine
 10
10668.52670802043
 20
-284.530352873784
 30
0.0
 11
10657.88386094672
 21
-288.665839247477
 31
0.0
  0
LINE
  5
234
330
25
100
AcDbEntity
  8
1
  6
Continuous
 62
     0
100
AcDbLine
 10
10657.27305868988
 20
-300.486711378935
 30
0.0
 11
10657.00089241707
 21
-298.647284369402
 31
0.0
  0
LINE
  5
233
330
25
100
AcDbEntity
  8
1
  6
Continuous
 62
     0
100
AcDbLine
 10
11405.09547179254
 20
-1321.129811676175
 30
0.0
 11
11405.09547179254
 21
-2317.129811676175
 31
0.0
  0
LINE
  5
232
330
25
100
AcDbEntity
  8
1
  6
Continuous
 62
     0
100
AcDbLine
 10
11405.09547179254
 20
-1239.129811676175
 30
0.0
 11
11425.09547179254
 21
-1239.129811676175
 31
0.0
  0
LINE
  5
231
330
25
100
AcDbEntity
  8
1
  6
Continuous
 62
     0
100
AcDbLine
 10
11405.09547179254
 20
-1321.129811676175
 30
0.0
 11
11425.09547179254
 21
-1321.129811676175
 31
0.0
  0
LINE
  5
230
330
25
100
AcDbEntity
  8
1
  6
Continuous
 62
     0
100
AcDbLine
 10
11425.09547179254
 20
-1321.129811676175
 30
0.0
 11
11425.09547179254
 21
-1239.129811676175
 31
0.0
  0
LINE
  5
22F
330
25
100
AcDbEntity
  8
1
  6
Continuous
 62
     0
100
AcDbLine
 10
11271.09547179254
 20
-2530.129811676175
 30
0.0
 11
11271.09547179254
 21
-2463.979743075623
 31
0.0
  0
LINE
  5
22E
330
25
100
AcDbEntity
  8
1
  6
Continuous
 62
     0
100
AcDbLine
 10
10586.86254987121
 20
-2600.724885739821
 30
0.0
 11
10586.86254987121
 21
-2821.129811676175
 31
0.0
  0
LINE
  5
22B
330
25
100
AcDbEntity
  8
1
  6
Continuous
 62
     0
100
AcDbLine
 10
10417.09547179254
 20
-2039.129811676175
 30
0.0
 11
10417.09547179254
 21
-2121.129811676175
 31
0.0
  0
LINE
  5
22A
330
25
100
AcDbEntity
  8
1
  6
Continuous
 62
     0
100
AcDbLine
 10
10417.09547179254
 20
-2121.129811676175
 30
0.0
 11
10437.09547179254
 21
-2121.129811676175
 31
0.0
  0
LINE
  5
229
330
25
100
AcDbEntity
  8
1
  6
Continuous
 62
     0
100
AcDbLine
 10
10417.09547179254
 20
-2039.129811676175
 30
0.0
 11
10437.09547179254
 21
-2039.129811676175
 31
0.0
  0
LINE
  5
227
330
25
100
AcDbEntity
  8
1
  6
DOTTED
 62
     0
100
AcDbLine
 10
10907.89547179254
 20
-2531.004840049445
 30
0.0
 11
10907.89547179254
 21
-2530.033965038893
 31
0.0
  0
LINE
  5
226
330
25
100
AcDbEntity
  8
1
  6
DOTTED
 62
     0
100
AcDbLine
 10
10934.29547179254
 20
-2531.004840049445
 30
0.0
 11
10934.29547179254
 21
-2530.033965038893
 31
0.0
  0
LINE
  5
225
330
25
100
AcDbEntity
  8
1
  6
Continuous
 62
     0
100
AcDbLine
 10
10907.89547179254
 20
-2540.129811676175
 30
0.0
 11
10907.89547179254
 21
-2531.004840049445
 31
0.0
  0
LINE
  5
224
330
25
100
AcDbEntity
  8
1
  6
Continuous
 62
     0
100
AcDbLine
 10
10934.29547179254
 20
-2540.129811676175
 30
0.0
 11
10934.29547179254
 21
-2531.004840049445
 31
0.0
  0
LINE
  5
223
330
25
100
AcDbEntity
  8
1
  6
Continuous
 62
     0
100
AcDbLine
 10
10907.89547179254
 20
-2540.129811676175
 30
0.0
 11
10934.29547179254
 21
-2540.129811676175
 31
0.0
  0
LINE
  5
222
330
25
100
AcDbEntity
  8
1
  6
Continuous
 62
     0
100
AcDbLine
 10
10821.09547179254
 20
-2630.129811676175
 30
0.0
 11
10821.09547179254
 21
-2821.129811676175
 31
0.0
  0
LINE
  5
221
330
25
100
AcDbEntity
  8
1
  6
Continuous
 62
     0
100
AcDbLine
 10
11021.09547179254
 20
-2630.129811676175
 30
0.0
 11
11021.09547179254
 21
-2821.129811676175
 31
0.0
  0
LINE
  5
220
330
25
100
AcDbEntity
  8
1
  6
Continuous
 62
     0
100
AcDbLine
 10
10437.09547179254
 20
-481.129811676176
 30
0.0
 11
10437.09547179254
 21
-2039.129811676175
 31
0.0
  0
LINE
  5
21F
330
25
100
AcDbEntity
  8
1
  6
Continuous
 62
     0
100
AcDbLine
 10
11405.09547179254
 20
-481.129811676176
 30
0.0
 11
11405.09547179254
 21
-1239.129811676175
 31
0.0
  0
LINE
  5
21E
330
25
100
AcDbEntity
  8
1
  6
Continuous
 62
     0
100
AcDbLine
 10
13206.2411381563
 20
-1313.279811676175
 30
0.0
 11
13206.2411381563
 21
-1246.979811676175
 31
0.0
  0
LINE
  5
21D
330
25
100
AcDbEntity
  8
1
  6
Continuous
 62
     0
100
AcDbLine
 10
13226.2411381563
 20
-1313.279811676175
 30
0.0
 11
13206.2411381563
 21
-1313.279811676175
 31
0.0
  0
LINE
  5
21C
330
25
100
AcDbEntity
  8
1
  6
Continuous
 62
     0
100
AcDbLine
 10
13226.2411381563
 20
-1246.979811676175
 30
0.0
 11
13206.2411381563
 21
-1246.979811676175
 31
0.0
  0
LINE
  5
219
330
25
100
AcDbEntity
  8
1
  6
Continuous
 62
     0
100
AcDbLine
 10
14226.2411381563
 20
-2047.387340894219
 30
0.0
 11
14225.16934138658
 21
-2045.530934433668
 31
0.0
  0
LINE
  5
218
330
25
100
AcDbEntity
  8
1
  6
Continuous
 62
     0
100
AcDbLine
 10
14225.16934138658
 20
-2073.243747354771
 30
0.0
 11
14226.2411381563
 21
-2071.387340894219
 31
0.0
  0
LINE
  5
217
330
25
100
AcDbEntity
  8
1
  6
Continuous
 62
     0
100
AcDbLine
 10
14216.2411381563
 20
-2073.243747354771
 30
0.0
 11
14225.16934138658
 21
-2073.243747354771
 31
0.0
  0
LINE
  5
216
330
25
100
AcDbEntity
  8
1
  6
Continuous
 62
     0
100
AcDbLine
 10
14226.2411381563
 20
-2071.387340894219
 30
0.0
 11
14226.2411381563
 21
-2047.387340894219
 31
0.0
  0
LINE
  5
215
330
25
100
AcDbEntity
  8
1
  6
Continuous
 62
     0
100
AcDbLine
 10
14225.16934138658
 20
-2045.530934433668
 30
0.0
 11
14216.2411381563
 21
-2045.530934433668
 31
0.0
  0
LINE
  5
214
330
25
100
AcDbEntity
  8
1
  6
Continuous
 62
     0
100
AcDbLine
 10
14216.2411381563
 20
-2066.315544124494
 30
0.0
 11
14225.16934138658
 21
-2066.315544124494
 31
0.0
  0
LINE
  5
213
330
25
100
AcDbEntity
  8
1
  6
Continuous
 62
     0
100
AcDbLine
 10
14216.2411381563
 20
-2052.459137663944
 30
0.0
 11
14225.16934138658
 21
-2052.459137663944
 31
0.0
  0
LINE
  5
212
330
25
100
AcDbEntity
  8
1
  6
Continuous
 62
     0
100
AcDbLine
 10
14212.2411381563
 20
-2073.387340894219
 30
0.0
 11
14216.2411381563
 21
-2073.387340894219
 31
0.0
  0
LINE
  5
211
330
25
100
AcDbEntity
  8
1
  6
Continuous
 62
     0
100
AcDbLine
 10
14216.2411381563
 20
-2073.387340894219
 30
0.0
 11
14216.2411381563
 21
-2045.387340894219
 31
0.0
  0
LINE
  5
210
330
25
100
AcDbEntity
  8
1
  6
Continuous
 62
     0
100
AcDbLine
 10
14216.2411381563
 20
-2045.387340894219
 30
0.0
 11
14212.2411381563
 21
-2045.387340894219
 31
0.0
  0
LINE
  5
20F
330
25
100
AcDbEntity
  8
1
  6
Continuous
 62
     0
100
AcDbLine
 10
14216.2411381563
 20
-2060.320674227552
 30
0.0
 11
14212.2411381563
 21
-2061.46353137041
 31
0.0
  0
LINE
  5
20E
330
25
100
AcDbEntity
  8
1
  6
Continuous
 62
     0
100
AcDbLine
 10
14216.2411381563
 20
-2057.311150418029
 30
0.0
 11
14212.2411381563
 21
-2058.454007560886
 31
0.0
  0
LINE
  5
20D
330
25
100
AcDbEntity
  8
1
  6
Continuous
 62
     0
100
AcDbLine
 10
14209.2411381563
 20
-2074.387340894219
 30
0.0
 11
14212.2411381563
 21
-2074.387340894219
 31
0.0
  0
LINE
  5
20C
330
25
100
AcDbEntity
  8
1
  6
Continuous
 62
     0
100
AcDbLine
 10
14212.2411381563
 20
-2074.387340894219
 30
0.0
 11
14212.2411381563
 21
-2044.387340894219
 31
0.0
  0
LINE
  5
20B
330
25
100
AcDbEntity
  8
1
  6
Continuous
 62
     0
100
AcDbLine
 10
14212.2411381563
 20
-2044.387340894219
 30
0.0
 11
14209.2411381563
 21
-2044.387340894219
 31
0.0
  0
LINE
  5
20A
330
25
100
AcDbEntity
  8
1
  6
Continuous
 62
     0
100
AcDbLine
 10
14209.2411381563
 20
-2044.387340894219
 30
0.0
 11
14209.2411381563
 21
-2074.387340894219
 31
0.0
  0
LINE
  5
207
330
25
100
AcDbEntity
  8
1
  6
Continuous
 62
     0
100
AcDbLine
 10
14209.2411381563
 20
-2078.212097153357
 30
0.0
 11
14209.2411381563
 21
-2108.212097153357
 31
0.0
  0
LINE
  5
206
330
25
100
AcDbEntity
  8
1
  6
Continuous
 62
     0
100
AcDbLine
 10
14212.2411381563
 20
-2078.212097153357
 30
0.0
 11
14209.2411381563
 21
-2078.212097153357
 31
0.0
  0
LINE
  5
205
330
25
100
AcDbEntity
  8
1
  6
Continuous
 62
     0
100
AcDbLine
 10
14212.2411381563
 20
-2108.212097153357
 30
0.0
 11
14212.2411381563
 21
-2078.212097153357
 31
0.0
  0
LINE
  5
204
330
25
100
AcDbEntity
  8
1
  6
Continuous
 62
     0
100
AcDbLine
 10
14209.2411381563
 20
-2108.212097153357
 30
0.0
 11
14212.2411381563
 21
-2108.212097153357
 31
0.0
  0
LINE
  5
203
330
25
100
AcDbEntity
  8
1
  6
Continuous
 62
     0
100
AcDbLine
 10
14216.2411381563
 20
-2091.135906677166
 30
0.0
 11
14212.2411381563
 21
-2092.278763820023
 31
0.0
  0
LINE
  5
202
330
25
100
AcDbEntity
  8
1
  6
Continuous
 62
     0
100
AcDbLine
 10
14216.2411381563
 20
-2094.14543048669
 30
0.0
 11
14212.2411381563
 21
-2095.288287629547
 31
0.0
  0
LINE
  5
201
330
25
100
AcDbEntity
  8
1
  6
Continuous
 62
     0
100
AcDbLine
 10
14216.2411381563
 20
-2079.212097153357
 30
0.0
 11
14212.2411381563
 21
-2079.212097153357
 31
0.0
  0
LINE
  5
200
330
25
100
AcDbEntity
  8
1
  6
Continuous
 62
     0
100
AcDbLine
 10
14216.2411381563
 20
-2107.212097153357
 30
0.0
 11
14216.2411381563
 21
-2079.212097153357
 31
0.0
  0
LINE
  5
1FF
330
25
100
AcDbEntity
  8
1
  6
Continuous
 62
     0
100
AcDbLine
 10
14212.2411381563
 20
-2107.212097153357
 30
0.0
 11
14216.2411381563
 21
-2107.212097153357
 31
0.0
  0
LINE
  5
1FE
330
25
100
AcDbEntity
  8
1
  6
Continuous
 62
     0
100
AcDbLine
 10
14216.2411381563
 20
-2086.283893923082
 30
0.0
 11
14225.16934138658
 21
-2086.283893923082
 31
0.0
  0
LINE
  5
1FD
330
25
100
AcDbEntity
  8
1
  6
Continuous
 62
     0
100
AcDbLine
 10
14216.2411381563
 20
-2100.140300383632
 30
0.0
 11
14225.16934138658
 21
-2100.140300383632
 31
0.0
  0
LINE
  5
1FC
330
25
100
AcDbEntity
  8
1
  6
Continuous
 62
     0
100
AcDbLine
 10
14225.16934138658
 20
-2079.355690692805
 30
0.0
 11
14216.2411381563
 21
-2079.355690692805
 31
0.0
  0
LINE
  5
1FB
330
25
100
AcDbEntity
  8
1
  6
Continuous
 62
     0
100
AcDbLine
 10
14226.2411381563
 20
-2105.212097153357
 30
0.0
 11
14226.2411381563
 21
-2081.212097153357
 31
0.0
  0
LINE
  5
1FA
330
25
100
AcDbEntity
  8
1
  6
Continuous
 62
     0
100
AcDbLine
 10
14216.2411381563
 20
-2107.068503613908
 30
0.0
 11
14225.16934138658
 21
-2107.068503613908
 31
0.0
  0
LINE
  5
1F9
330
25
100
AcDbEntity
  8
1
  6
Continuous
 62
     0
100
AcDbLine
 10
14225.16934138658
 20
-2107.068503613908
 30
0.0
 11
14226.2411381563
 21
-2105.212097153357
 31
0.0
  0
LINE
  5
1F8
330
25
100
AcDbEntity
  8
1
  6
Continuous
 62
     0
100
AcDbLine
 10
14226.2411381563
 20
-2081.212097153357
 30
0.0
 11
14225.16934138658
 21
-2079.355690692805
 31
0.0
  0
LINE
  5
1F7
330
25
100
AcDbEntity
  8
1
  6
Continuous
 62
     0
100
AcDbLine
 10
14225.16934138658
 20
-2154.903932659544
 30
0.0
 11
14226.2411381563
 21
-2153.047526198993
 31
0.0
  0
LINE
  5
1F6
330
25
100
AcDbEntity
  8
1
  6
Continuous
 62
     0
100
AcDbLine
 10
14226.2411381563
 20
-2129.047526198993
 30
0.0
 11
14225.16934138658
 21
-2127.191119738442
 31
0.0
  0
LINE
  5
1F5
330
25
100
AcDbEntity
  8
1
  6
Continuous
 62
     0
100
AcDbLine
 10
14225.16934138658
 20
-2127.191119738442
 30
0.0
 11
14216.2411381563
 21
-2127.191119738442
 31
0.0
  0
LINE
  5
1F4
330
25
100
AcDbEntity
  8
1
  6
Continuous
 62
     0
100
AcDbLine
 10
14226.2411381563
 20
-2153.047526198993
 30
0.0
 11
14226.2411381563
 21
-2129.047526198993
 31
0.0
  0
LINE
  5
1F3
330
25
100
AcDbEntity
  8
1
  6
Continuous
 62
     0
100
AcDbLine
 10
14216.2411381563
 20
-2154.903932659544
 30
0.0
 11
14225.16934138658
 21
-2154.903932659544
 31
0.0
  0
LINE
  5
1F2
330
25
100
AcDbEntity
  8
1
  6
Continuous
 62
     0
100
AcDbLine
 10
14225.16934138658
 20
-2134.119322968718
 30
0.0
 11
14216.2411381563
 21
-2134.119322968718
 31
0.0
  0
LINE
  5
1F1
330
25
100
AcDbEntity
  8
1
  6
Continuous
 62
     0
100
AcDbLine
 10
14225.16934138658
 20
-2147.975729429269
 30
0.0
 11
14216.2411381563
 21
-2147.975729429269
 31
0.0
  0
LINE
  5
1F0
330
25
100
AcDbEntity
  8
1
  6
Continuous
 62
     0
100
AcDbLine
 10
14216.2411381563
 20
-2127.047526198993
 30
0.0
 11
14212.2411381563
 21
-2127.047526198993
 31
0.0
  0
LINE
  5
1EF
330
25
100
AcDbEntity
  8
1
  6
Continuous
 62
     0
100
AcDbLine
 10
14216.2411381563
 20
-2155.047526198993
 30
0.0
 11
14216.2411381563
 21
-2127.047526198993
 31
0.0
  0
LINE
  5
1EE
330
25
100
AcDbEntity
  8
1
  6
Continuous
 62
     0
100
AcDbLine
 10
14212.2411381563
 20
-2155.047526198993
 30
0.0
 11
14216.2411381563
 21
-2155.047526198993
 31
0.0
  0
LINE
  5
1ED
330
25
100
AcDbEntity
  8
1
  6
Continuous
 62
     0
100
AcDbLine
 10
14212.2411381563
 20
-2138.971335722803
 30
0.0
 11
14216.2411381563
 21
-2140.11419286566
 31
0.0
  0
LINE
  5
1EC
330
25
100
AcDbEntity
  8
1
  6
Continuous
 62
     0
100
AcDbLine
 10
14212.2411381563
 20
-2141.980859532327
 30
0.0
 11
14216.2411381563
 21
-2143.123716675184
 31
0.0
  0
LINE
  5
1EB
330
25
100
AcDbEntity
  8
1
  6
Continuous
 62
     0
100
AcDbLine
 10
14212.2411381563
 20
-2126.047526198993
 30
0.0
 11
14209.2411381563
 21
-2126.047526198993
 31
0.0
  0
LINE
  5
1EA
330
25
100
AcDbEntity
  8
1
  6
Continuous
 62
     0
100
AcDbLine
 10
14212.2411381563
 20
-2156.047526198993
 30
0.0
 11
14212.2411381563
 21
-2126.047526198993
 31
0.0
  0
LINE
  5
1E9
330
25
100
AcDbEntity
  8
1
  6
Continuous
 62
     0
100
AcDbLine
 10
14209.2411381563
 20
-2156.047526198993
 30
0.0
 11
14212.2411381563
 21
-2156.047526198993
 31
0.0
  0
LINE
  5
1E8
330
25
100
AcDbEntity
  8
1
  6
Continuous
 62
     0
100
AcDbLine
 10
14209.2411381563
 20
-2126.047526198993
 30
0.0
 11
14209.2411381563
 21
-2156.047526198993
 31
0.0
  0
LINE
  5
1E5
330
25
100
AcDbEntity
  8
1
  6
Continuous
 62
     0
100
AcDbLine
 10
14209.2411381563
 20
-2159.87228245813
 30
0.0
 11
14209.2411381563
 21
-2189.87228245813
 31
0.0
  0
LINE
  5
1E4
330
25
100
AcDbEntity
  8
1
  6
Continuous
 62
     0
100
AcDbLine
 10
14209.2411381563
 20
-2189.87228245813
 30
0.0
 11
14212.2411381563
 21
-2189.87228245813
 31
0.0
  0
LINE
  5
1E3
330
25
100
AcDbEntity
  8
1
  6
Continuous
 62
     0
100
AcDbLine
 10
14212.2411381563
 20
-2189.87228245813
 30
0.0
 11
14212.2411381563
 21
-2159.87228245813
 31
0.0
  0
LINE
  5
1E2
330
25
100
AcDbEntity
  8
1
  6
Continuous
 62
     0
100
AcDbLine
 10
14212.2411381563
 20
-2159.87228245813
 30
0.0
 11
14209.2411381563
 21
-2159.87228245813
 31
0.0
  0
LINE
  5
1E1
330
25
100
AcDbEntity
  8
1
  6
Continuous
 62
     0
100
AcDbLine
 10
14212.2411381563
 20
-2175.805615791463
 30
0.0
 11
14216.2411381563
 21
-2176.94847293432
 31
0.0
  0
LINE
  5
1E0
330
25
100
AcDbEntity
  8
1
  6
Continuous
 62
     0
100
AcDbLine
 10
14212.2411381563
 20
-2172.79609198194
 30
0.0
 11
14216.2411381563
 21
-2173.938949124797
 31
0.0
  0
LINE
  5
1DF
330
25
100
AcDbEntity
  8
1
  6
Continuous
 62
     0
100
AcDbLine
 10
14212.2411381563
 20
-2188.87228245813
 30
0.0
 11
14216.2411381563
 21
-2188.87228245813
 31
0.0
  0
LINE
  5
1DE
330
25
100
AcDbEntity
  8
1
  6
Continuous
 62
     0
100
AcDbLine
 10
14216.2411381563
 20
-2188.87228245813
 30
0.0
 11
14216.2411381563
 21
-2160.87228245813
 31
0.0
  0
LINE
  5
1DD
330
25
100
AcDbEntity
  8
1
  6
Continuous
 62
     0
100
AcDbLine
 10
14216.2411381563
 20
-2160.87228245813
 30
0.0
 11
14212.2411381563
 21
-2160.87228245813
 31
0.0
  0
LINE
  5
1DC
330
25
100
AcDbEntity
  8
1
  6
Continuous
 62
     0
100
AcDbLine
 10
14225.16934138658
 20
-2181.800485688405
 30
0.0
 11
14216.2411381563
 21
-2181.800485688405
 31
0.0
  0
LINE
  5
1DB
330
25
100
AcDbEntity
  8
1
  6
Continuous
 62
     0
100
AcDbLine
 10
14225.16934138658
 20
-2167.944079227855
 30
0.0
 11
14216.2411381563
 21
-2167.944079227855
 31
0.0
  0
LINE
  5
1DA
330
25
100
AcDbEntity
  8
1
  6
Continuous
 62
     0
100
AcDbLine
 10
14216.2411381563
 20
-2188.728688918682
 30
0.0
 11
14225.16934138658
 21
-2188.728688918682
 31
0.0
  0
LINE
  5
1D9
330
25
100
AcDbEntity
  8
1
  6
Continuous
 62
     0
100
AcDbLine
 10
14226.2411381563
 20
-2186.87228245813
 30
0.0
 11
14226.2411381563
 21
-2162.87228245813
 31
0.0
  0
LINE
  5
1D8
330
25
100
AcDbEntity
  8
1
  6
Continuous
 62
     0
100
AcDbLine
 10
14225.16934138658
 20
-2161.015875997579
 30
0.0
 11
14216.2411381563
 21
-2161.015875997579
 31
0.0
  0
LINE
  5
1D7
330
25
100
AcDbEntity
  8
1
  6
Continuous
 62
     0
100
AcDbLine
 10
14226.2411381563
 20
-2162.87228245813
 30
0.0
 11
14225.16934138658
 21
-2161.015875997579
 31
0.0
  0
LINE
  5
1D6
330
25
100
AcDbEntity
  8
1
  6
Continuous
 62
     0
100
AcDbLine
 10
14225.16934138658
 20
-2188.728688918682
 30
0.0
 11
14226.2411381563
 21
-2186.87228245813
 31
0.0
  0
LINE
  5
1D5
330
25
100
AcDbEntity
  8
1
  6
Continuous
 62
     0
100
AcDbLine
 10
10910.61797179254
 20
-2557.809811676175
 30
0.0
 11
10910.24547179254
 21
-2550.469811676175
 31
0.0
  0
LINE
  5
1D4
330
25
100
AcDbEntity
  8
1
  6
Continuous
 62
     0
100
AcDbLine
 10
10931.57297179254
 20
-2557.809811676175
 30
0.0
 11
10931.94547179254
 21
-2550.469811676175
 31
0.0
  0
LINE
  5
1D3
330
25
100
AcDbEntity
  8
1
  6
Continuous
 62
     0
100
AcDbLine
 10
10931.94547179254
 20
-2547.469811676175
 30
0.0
 11
10931.57297179254
 21
-2540.129811676175
 31
0.0
  0
LINE
  5
1D2
330
25
100
AcDbEntity
  8
1
  6
Continuous
 62
     0
100
AcDbLine
 10
10910.24547179254
 20
-2547.469811676175
 30
0.0
 11
10910.61797179254
 21
-2540.129811676175
 31
0.0
  0
LINE
  5
1D1
330
25
100
AcDbEntity
  8
1
  6
Continuous
 62
     0
100
AcDbLine
 10
10910.24547179254
 20
-2547.469811676175
 30
0.0
 11
10910.24547179254
 21
-2550.469811676175
 31
0.0
  0
LINE
  5
1D0
330
25
100
AcDbEntity
  8
1
  6
Continuous
 62
     0
100
AcDbLine
 10
10931.94547179254
 20
-2550.469811676175
 30
0.0
 11
10910.24547179254
 21
-2550.469811676175
 31
0.0
  0
LINE
  5
1CF
330
25
100
AcDbEntity
  8
1
  6
Continuous
 62
     0
100
AcDbLine
 10
10910.24547179254
 20
-2547.469811676175
 30
0.0
 11
10931.94547179254
 21
-2547.469811676175
 31
0.0
  0
LINE
  5
1CE
330
25
100
AcDbEntity
  8
1
  6
Continuous
 62
     0
100
AcDbLine
 10
10931.94547179254
 20
-2547.469811676175
 30
0.0
 11
10931.94547179254
 21
-2550.469811676175
 31
0.0
  0
LINE
  5
1CD
330
25
100
AcDbEntity
  8
1
  6
Continuous
 62
     0
100
AcDbLine
 10
10909.72922852228
 20
-2589.359811676175
 30
0.0
 11
10930.99547179254
 21
-2589.359811676175
 31
0.0
  0
LINE
  5
1CC
330
25
100
AcDbEntity
  8
1
  6
Continuous
 62
     0
100
AcDbLine
 10
10909.72922852228
 20
-2578.359811676175
 30
0.0
 11
10930.99547179254
 21
-2578.359811676175
 31
0.0
  0
LINE
  5
1CB
330
25
100
AcDbEntity
  8
1
  6
Continuous
 62
     0
100
AcDbLine
 10
10931.99547179254
 20
-2590.759811676174
 30
0.0
 11
10930.99547179254
 21
-2589.359811676175
 31
0.0
  0
LINE
  5
1CA
330
25
100
AcDbEntity
  8
1
  6
Continuous
 62
     0
100
AcDbLine
 10
10931.99547179254
 20
-2576.959811676174
 30
0.0
 11
10930.99547179254
 21
-2578.359811676175
 31
0.0
  0
LINE
  5
1C9
330
25
100
AcDbEntity
  8
1
  6
Continuous
 62
     0
100
AcDbLine
 10
10909.72922852228
 20
-2578.359811676175
 30
0.0
 11
10909.72922852228
 21
-2589.359811676175
 31
0.0
  0
LINE
  5
1C8
330
25
100
AcDbEntity
  8
1
  6
Continuous
 62
     0
100
AcDbLine
 10
10908.59547179254
 20
-2590.759811676174
 30
0.0
 11
10909.72922852228
 21
-2589.359811676175
 31
0.0
  0
LINE
  5
1C7
330
25
100
AcDbEntity
  8
1
  6
Continuous
 62
     0
100
AcDbLine
 10
10908.59547179254
 20
-2576.959811676174
 30
0.0
 11
10909.72922852228
 21
-2578.359811676175
 31
0.0
  0
LINE
  5
1C6
330
25
100
AcDbEntity
  8
1
  6
Continuous
 62
     0
100
AcDbLine
 10
10931.99547179254
 20
-2604.502310757963
 30
0.0
 11
10931.99547179254
 21
-2590.309811676174
 31
0.0
  0
LINE
  5
1C5
330
25
100
AcDbEntity
  8
1
  6
Continuous
 62
     0
100
AcDbLine
 10
10931.99547179254
 20
-2567.617312594388
 30
0.0
 11
10931.99547179254
 21
-2579.809811676174
 31
0.0
  0
LINE
  5
1C4
330
25
100
AcDbEntity
  8
1
  6
Continuous
 62
     0
100
AcDbLine
 10
10933.59547179254
 20
-2591.809811676175
 30
0.0
 11
10935.19547179254
 21
-2591.809811676175
 31
0.0
  0
LINE
  5
1C3
330
25
100
AcDbEntity
  8
1
  6
Continuous
 62
     0
100
AcDbLine
 10
10933.59547179254
 20
-2578.809811676175
 30
0.0
 11
10935.19547179254
 21
-2578.809811676175
 31
0.0
  0
LINE
  5
1C2
330
25
100
AcDbEntity
  8
1
  6
Continuous
 62
     0
100
AcDbLine
 10
10939.62412044119
 20
-2597.709811676174
 30
0.0
 11
10935.19547179254
 21
-2597.709811676174
 31
0.0
  0
LINE
  5
1C1
330
25
100
AcDbEntity
  8
1
  6
Continuous
 62
     0
100
AcDbLine
 10
10944.09547179254
 20
-2615.309811676175
 30
0.0
 11
10939.39547179254
 21
-2596.809811676175
 31
0.0
  0
LINE
  5
1C0
330
25
100
AcDbEntity
  8
1
  6
Continuous
 62
     0
100
AcDbLine
 10
10944.09547179254
 20
-2615.309811676175
 30
0.0
 11
10952.09547179254
 21
-2615.309811676175
 31
0.0
  0
LINE
  5
1BF
330
25
100
AcDbEntity
  8
1
  6
Continuous
 62
     0
100
AcDbLine
 10
10952.09547179254
 20
-2596.896441902432
 30
0.0
 11
10952.09547179254
 21
-2615.309811676175
 31
0.0
  0
LINE
  5
1BE
330
25
100
AcDbEntity
  8
1
  6
Continuous
 62
     0
100
AcDbLine
 10
10935.19547179254
 20
-2572.909811676176
 30
0.0
 11
10939.62412044119
 21
-2572.909811676176
 31
0.0
  0
LINE
  5
1BD
330
25
100
AcDbEntity
  8
1
  6
Continuous
 62
     0
100
AcDbLine
 10
10935.19547179254
 20
-2572.409811676176
 30
0.0
 11
10939.75114746822
 21
-2572.409811676176
 31
0.0
  0
LINE
  5
1BC
330
25
100
AcDbEntity
  8
1
  6
Continuous
 62
     0
100
AcDbLine
 10
10939.39547179254
 20
-2573.809811676175
 30
0.0
 11
10944.09547179254
 21
-2555.309811676175
 31
0.0
  0
LINE
  5
1BB
330
25
100
AcDbEntity
  8
1
  6
Continuous
 62
     0
100
AcDbLine
 10
10944.09547179254
 20
-2555.309811676175
 30
0.0
 11
10952.09547179254
 21
-2555.309811676175
 31
0.0
  0
LINE
  5
1BA
330
25
100
AcDbEntity
  8
1
  6
Continuous
 62
     0
100
AcDbLine
 10
10933.59547179254
 20
-2614.309811676174
 30
0.0
 11
10908.59547179254
 21
-2614.309811676174
 31
0.0
  0
LINE
  5
1B9
330
25
100
AcDbEntity
  8
1
  6
Continuous
 62
     0
100
AcDbLine
 10
10908.59547179254
 20
-2614.309811676174
 30
0.0
 11
10908.59547179254
 21
-2557.809811676174
 31
0.0
  0
LINE
  5
1B8
330
25
100
AcDbEntity
  8
1
  6
Continuous
 62
     0
100
AcDbLine
 10
10908.59547179254
 20
-2557.809811676174
 30
0.0
 11
10933.59547179254
 21
-2557.809811676175
 31
0.0
  0
LINE
  5
1B7
330
25
100
AcDbEntity
  8
1
  6
Continuous
 62
     0
100
AcDbLine
 10
10933.59547179254
 20
-2614.309811676174
 30
0.0
 11
10933.59547179254
 21
-2557.809811676175
 31
0.0
  0
LINE
  5
1B6
330
25
100
AcDbEntity
  8
1
  6
Continuous
 62
     0
100
AcDbLine
 10
10952.09547179254
 20
-2555.309811676175
 30
0.0
 11
10952.09547179254
 21
-2573.723181449917
 31
0.0
  0
LINE
  5
1B5
330
25
100
AcDbEntity
  8
1
  6
Continuous
 62
     0
100
AcDbLine
 10
10939.39547179254
 20
-2596.809811676175
 30
0.0
 11
10939.39547179254
 21
-2573.809811676175
 31
0.0
  0
LINE
  5
1B4
330
25
100
AcDbEntity
  8
1
  6
Continuous
 62
     0
100
AcDbLine
 10
10935.19547179254
 20
-2597.709811676174
 30
0.0
 11
10935.19547179254
 21
-2575.309811676175
 31
0.0
  0
LINE
  5
1B3
330
25
100
AcDbEntity
  8
1
  6
Continuous
 62
     0
100
AcDbLine
 10
10935.19547179254
 20
-2572.409811676176
 30
0.0
 11
10935.19547179254
 21
-2575.309811676175
 31
0.0
  0
LINE
  5
1B1
330
25
100
AcDbEntity
  8
1
  6
Continuous
 62
     0
100
AcDbLine
 10
10921.09547179254
 20
-2558.926266644636
 30
0.0
 11
10921.09547179254
 21
-2567.110023374384
 31
0.0
  0
LINE
  5
1B0
330
25
100
AcDbEntity
  8
1
  6
Continuous
 62
     0
100
AcDbLine
 10
10921.09547179254
 20
-2605.009599977966
 30
0.0
 11
10921.09547179254
 21
-2613.193356707712
 31
0.0
  0
LINE
  5
1AE
330
25
100
AcDbEntity
  8
1
  6
Continuous
 62
     0
100
AcDbLine
 10
10938.69547179254
 20
-2571.309811676174
 30
0.0
 11
10938.69547179254
 21
-2572.409811676176
 31
0.0
  0
LINE
  5
1AD
330
25
100
AcDbEntity
  8
1
  6
Continuous
 62
     0
100
AcDbLine
 10
10933.59547179254
 20
-2571.309811676174
 30
0.0
 11
10938.69547179254
 21
-2571.309811676174
 31
0.0
  0
LINE
  5
1AC
330
25
100
AcDbEntity
  8
1
  6
Continuous
 62
     0
100
AcDbLine
 10
10933.59547179254
 20
-2576.309811676174
 30
0.0
 11
10935.19547179254
 21
-2576.309811676174
 31
0.0
  0
LINE
  5
1A9
330
25
100
AcDbEntity
  8
1
  6
Continuous
 62
     0
100
AcDbLine
 10
13697.7411381563
 20
-2557.809811676174
 30
0.0
 11
13722.7411381563
 21
-2557.809811676175
 31
0.0
  0
LINE
  5
1A8
330
25
100
AcDbEntity
  8
1
  6
Continuous
 62
     0
100
AcDbLine
 10
13721.0911381563
 20
-2547.469811676175
 30
0.0
 11
13721.0911381563
 21
-2550.469811676175
 31
0.0
  0
LINE
  5
1A7
330
25
100
AcDbEntity
  8
1
  6
Continuous
 62
     0
100
AcDbLine
 10
13699.3911381563
 20
-2547.469811676175
 30
0.0
 11
13721.0911381563
 21
-2547.469811676175
 31
0.0
  0
LINE
  5
1A6
330
25
100
AcDbEntity
  8
1
  6
Continuous
 62
     0
100
AcDbLine
 10
13721.0911381563
 20
-2550.469811676175
 30
0.0
 11
13699.3911381563
 21
-2550.469811676175
 31
0.0
  0
LINE
  5
1A5
330
25
100
AcDbEntity
  8
1
  6
Continuous
 62
     0
100
AcDbLine
 10
13699.3911381563
 20
-2547.469811676175
 30
0.0
 11
13699.3911381563
 21
-2550.469811676175
 31
0.0
  0
LINE
  5
1A4
330
25
100
AcDbEntity
  8
1
  6
Continuous
 62
     0
100
AcDbLine
 10
13699.3911381563
 20
-2547.469811676175
 30
0.0
 11
13699.7636381563
 21
-2540.129811676175
 31
0.0
  0
LINE
  5
1A3
330
25
100
AcDbEntity
  8
1
  6
Continuous
 62
     0
100
AcDbLine
 10
13721.0911381563
 20
-2547.469811676175
 30
0.0
 11
13720.7186381563
 21
-2540.129811676175
 31
0.0
  0
LINE
  5
1A2
330
25
100
AcDbEntity
  8
1
  6
Continuous
 62
     0
100
AcDbLine
 10
13720.7186381563
 20
-2557.809811676175
 30
0.0
 11
13721.0911381563
 21
-2550.469811676175
 31
0.0
  0
LINE
  5
1A1
330
25
100
AcDbEntity
  8
1
  6
Continuous
 62
     0
100
AcDbLine
 10
13699.7636381563
 20
-2557.809811676175
 30
0.0
 11
13699.3911381563
 21
-2550.469811676175
 31
0.0
  0
LINE
  5
1A0
330
25
100
AcDbEntity
  8
1
  6
Continuous
 62
     0
100
AcDbLine
 10
13697.0411381563
 20
-2540.129811676175
 30
0.0
 11
13723.4411381563
 21
-2540.129811676175
 31
0.0
  0
LINE
  5
19F
330
25
100
AcDbEntity
  8
1
  6
Continuous
 62
     0
100
AcDbLine
 10
13724.67489488606
 20
-2613.19335670771
 30
0.0
 11
13722.7411381563
 21
-2614.309811676174
 31
0.0
  0
LINE
  5
19E
330
25
100
AcDbEntity
  8
1
  6
Continuous
 62
     0
100
AcDbLine
 10
13697.7411381563
 20
-2614.309811676174
 30
0.0
 11
13695.80738142656
 21
-2613.19335670771
 31
0.0
  0
LINE
  5
19D
330
25
100
AcDbEntity
  8
1
  6
Continuous
 62
     0
100
AcDbLine
 10
13724.67489488606
 20
-2613.19335670771
 30
0.0
 11
13724.67489488606
 21
-2605.426266644639
 31
0.0
  0
LINE
  5
19C
330
25
100
AcDbEntity
  8
1
  6
Continuous
 62
     0
100
AcDbLine
 10
13722.7411381563
 20
-2614.309811676174
 30
0.0
 11
13715.9911381563
 21
-2614.309811676174
 31
0.0
  0
LINE
  5
19B
330
25
100
AcDbEntity
  8
1
  6
Continuous
 62
     0
100
AcDbLine
 10
13695.80738142656
 20
-2613.19335670771
 30
0.0
 11
13695.80738142656
 21
-2605.426266644639
 31
0.0
  0
LINE
  5
19A
330
25
100
AcDbEntity
  8
1
  6
Continuous
 62
     0
100
AcDbLine
 10
13717.45801652119
 20
-2613.19335670771
 30
0.0
 11
13717.45801652119
 21
-2596.122612731715
 31
0.0
  0
LINE
  5
199
330
25
100
AcDbEntity
  8
1
  6
Continuous
 62
     0
100
AcDbLine
 10
13703.02425979143
 20
-2613.19335670771
 30
0.0
 11
13703.02425979143
 21
-2596.122612731715
 31
0.0
  0
LINE
  5
198
330
25
100
AcDbEntity
  8
1
  6
Continuous
 62
     0
100
AcDbLine
 10
13722.7411381563
 20
-2557.809811676175
 30
0.0
 11
13724.67489488606
 21
-2558.926266644638
 31
0.0
  0
LINE
  5
197
330
25
100
AcDbEntity
  8
1
  6
Continuous
 62
     0
100
AcDbLine
 10
13695.80738142656
 20
-2558.926266644638
 30
0.0
 11
13697.7411381563
 21
-2557.809811676174
 31
0.0
  0
LINE
  5
196
330
25
100
AcDbEntity
  8
1
  6
Continuous
 62
     0
100
AcDbLine
 10
13724.67489488606
 20
-2558.926266644638
 30
0.0
 11
13724.67489488606
 21
-2566.693356707714
 31
0.0
  0
LINE
  5
195
330
25
100
AcDbEntity
  8
1
  6
Continuous
 62
     0
100
AcDbLine
 10
13697.7411381563
 20
-2557.809811676174
 30
0.0
 11
13716.5873034789
 21
-2557.809811676174
 31
0.0
  0
LINE
  5
194
330
25
100
AcDbEntity
  8
1
  6
Continuous
 62
     0
100
AcDbLine
 10
13695.80738142656
 20
-2558.926266644638
 30
0.0
 11
13695.80738142656
 21
-2566.693356707714
 31
0.0
  0
LINE
  5
193
330
25
100
AcDbEntity
  8
1
  6
Continuous
 62
     0
100
AcDbLine
 10
13717.45801652119
 20
-2558.926266644638
 30
0.0
 11
13717.45801652119
 21
-2574.497010620637
 31
0.0
  0
LINE
  5
192
330
25
100
AcDbEntity
  8
1
  6
Continuous
 62
     0
100
AcDbLine
 10
13703.02425979143
 20
-2558.926266644638
 30
0.0
 11
13703.02425979143
 21
-2571.365068867363
 31
0.0
  0
LINE
  5
191
330
25
100
AcDbEntity
  8
1
  6
Continuous
 62
     0
100
AcDbLine
 10
13724.67489488606
 20
-2566.693356707714
 30
0.0
 11
13722.87489488606
 21
-2567.732587192254
 31
0.0
  0
LINE
  5
190
330
25
100
AcDbEntity
  8
1
  6
Continuous
 62
     0
100
AcDbLine
 10
13697.60738142657
 20
-2567.73258719225
 30
0.0
 11
13695.80738142656
 21
-2566.693356707714
 31
0.0
  0
LINE
  5
18F
330
25
100
AcDbEntity
  8
1
  6
Continuous
 62
     0
100
AcDbLine
 10
13695.80738142656
 20
-2605.426266644639
 30
0.0
 11
13697.60738142657
 21
-2604.387036160099
 31
0.0
  0
LINE
  5
18E
330
25
100
AcDbEntity
  8
1
  6
Continuous
 62
     0
100
AcDbLine
 10
13722.87489488606
 20
-2604.387036160099
 30
0.0
 11
13724.67489488606
 21
-2605.426266644639
 31
0.0
  0
LINE
  5
18D
330
25
100
AcDbEntity
  8
1
  6
Continuous
 62
     0
100
AcDbLine
 10
13697.60738142657
 20
-2567.73258719225
 30
0.0
 11
13697.60738142657
 21
-2576.959811676174
 31
0.0
  0
LINE
  5
18C
330
25
100
AcDbEntity
  8
1
  6
Continuous
 62
     0
100
AcDbLine
 10
13722.87489488606
 20
-2604.387036160099
 30
0.0
 11
13722.87489488606
 21
-2590.759811676174
 31
0.0
  0
LINE
  5
18B
330
25
100
AcDbEntity
  8
1
  6
Continuous
 62
     0
100
AcDbLine
 10
13697.60738142657
 20
-2576.959811676174
 30
0.0
 11
13698.7411381563
 21
-2578.359811676175
 31
0.0
  0
LINE
  5
18A
330
25
100
AcDbEntity
  8
1
  6
Continuous
 62
     0
100
AcDbLine
 10
13697.60738142657
 20
-2590.759811676174
 30
0.0
 11
13698.15121189024
 21
-2590.088271980601
 31
0.0
  0
LINE
  5
189
330
25
100
AcDbEntity
  8
1
  6
Continuous
 62
     0
100
AcDbLine
 10
13721.7411381563
 20
-2578.359811676175
 30
0.0
 11
13722.87489488606
 21
-2576.959811676174
 31
0.0
  0
LINE
  5
188
330
25
100
AcDbEntity
  8
1
  6
Continuous
 62
     0
100
AcDbLine
 10
13722.87489488606
 20
-2576.959811676174
 30
0.0
 11
13722.87489488606
 21
-2567.732587192254
 31
0.0
  0
LINE
  5
187
330
25
100
AcDbEntity
  8
1
  6
Continuous
 62
     0
100
AcDbLine
 10
13697.60738142657
 20
-2590.759811676174
 30
0.0
 11
13697.60738142657
 21
-2604.387036160099
 31
0.0
  0
LINE
  5
186
330
25
100
AcDbEntity
  8
1
  6
Continuous
 62
     0
100
AcDbLine
 10
13740.2411381563
 20
-2579.559811676175
 30
0.0
 11
13740.2411381563
 21
-2591.059811676175
 31
0.0
  0
LINE
  5
185
330
25
100
AcDbEntity
  8
1
  6
Continuous
 62
     0
100
AcDbLine
 10
13680.2411381563
 20
-2579.559811676175
 30
0.0
 11
13680.2411381563
 21
-2591.059811676175
 31
0.0
  0
LINE
  5
184
330
25
100
AcDbEntity
  8
1
  6
Continuous
 62
     0
100
AcDbLine
 10
13722.33106442238
 20
-2590.088271980605
 30
0.0
 11
13722.87489488606
 21
-2590.759811676174
 31
0.0
  0
LINE
  5
183
330
25
100
AcDbEntity
  8
1
  6
Continuous
 62
     0
100
AcDbLine
 10
13721.7411381563
 20
-2579.247633849684
 30
0.0
 11
13721.7411381563
 21
-2578.359811676175
 31
0.0
  0
LINE
  5
182
330
25
100
AcDbEntity
  8
1
  6
Continuous
 62
     0
100
AcDbLine
 10
13721.22737955181
 20
-2578.359811676175
 30
0.0
 11
13721.7411381563
 21
-2578.359811676175
 31
0.0
  0
LINE
  5
181
330
25
100
AcDbEntity
  8
1
  6
Continuous
 62
     0
100
AcDbLine
 10
13698.7411381563
 20
-2579.247633849684
 30
0.0
 11
13698.7411381563
 21
-2578.359811676175
 31
0.0
  0
LINE
  5
180
330
25
100
AcDbEntity
  8
1
  6
Continuous
 62
     0
100
AcDbLine
 10
13740.2411381563
 20
-2579.559811676175
 30
0.0
 11
13723.08393769535
 21
-2579.559811676175
 31
0.0
  0
LINE
  5
17F
330
25
100
AcDbEntity
  8
1
  6
Continuous
 62
     0
100
AcDbLine
 10
13740.2411381563
 20
-2591.059811676175
 30
0.0
 11
13723.08393769535
 21
-2591.059811676175
 31
0.0
  0
LINE
  5
17E
330
25
100
AcDbEntity
  8
1
  6
Continuous
 62
     0
100
AcDbLine
 10
13697.39833861726
 20
-2591.059811676175
 30
0.0
 11
13680.2411381563
 21
-2591.059811676175
 31
0.0
  0
LINE
  5
17D
330
25
100
AcDbEntity
  8
1
  6
Continuous
 62
     0
100
AcDbLine
 10
13680.2411381563
 20
-2579.559811676175
 30
0.0
 11
13697.39833861726
 21
-2579.559811676175
 31
0.0
  0
LINE
  5
17C
330
25
100
AcDbEntity
  8
1
  6
Continuous
 62
     0
100
AcDbLine
 10
13698.7411381563
 20
-2578.359811676175
 30
0.0
 11
13699.25560076763
 21
-2578.359811676175
 31
0.0
  0
LINE
  5
17B
330
25
100
AcDbEntity
  8
1
  6
Continuous
 62
     0
100
AcDbLine
 10
13715.9911381563
 20
-2557.809811676174
 30
0.0
 11
13722.7411381563
 21
-2557.809811676175
 31
0.0
  0
LINE
  5
17A
330
25
100
AcDbEntity
  8
1
  6
Continuous
 62
     0
100
AcDbLine
 10
13717.00008247691
 20
-2614.309811676174
 30
0.0
 11
13697.7411381563
 21
-2614.309811676174
 31
0.0
  0
LINE
  5
179
330
25
100
AcDbEntity
  8
1
  6
Continuous
 62
     0
100
AcDbLine
 10
13706.77703654117
 20
-2591.309811676175
 30
0.0
 11
13713.70523977144
 21
-2591.309811676175
 31
0.0
  0
LINE
  5
178
330
25
100
AcDbEntity
  8
1
  6
Continuous
 62
     0
100
AcDbLine
 10
13713.70523977144
 20
-2591.309811676175
 30
0.0
 11
13717.16934138658
 21
-2585.309811676175
 31
0.0
  0
LINE
  5
177
330
25
100
AcDbEntity
  8
1
  6
Continuous
 62
     0
100
AcDbLine
 10
13717.16934138658
 20
-2585.309811676175
 30
0.0
 11
13713.70523977144
 21
-2579.309811676175
 31
0.0
  0
LINE
  5
176
330
25
100
AcDbEntity
  8
1
  6
Continuous
 62
     0
100
AcDbLine
 10
13713.70523977144
 20
-2579.309811676175
 30
0.0
 11
13706.77703654117
 21
-2579.309811676175
 31
0.0
  0
LINE
  5
175
330
25
100
AcDbEntity
  8
1
  6
Continuous
 62
     0
100
AcDbLine
 10
13706.77703654117
 20
-2579.309811676175
 30
0.0
 11
13703.31293492603
 21
-2585.309811676175
 31
0.0
  0
LINE
  5
174
330
25
100
AcDbEntity
  8
1
  6
Continuous
 62
     0
100
AcDbLine
 10
13703.31293492603
 20
-2585.309811676175
 30
0.0
 11
13706.77703654117
 21
-2591.309811676175
 31
0.0
  0
LINE
  5
171
330
25
100
AcDbEntity
  8
1
  6
Continuous
 62
     0
100
AcDbLine
 10
13703.4911381563
 20
-2571.309811676174
 30
0.0
 11
13704.4911381563
 21
-2571.309811676174
 31
0.0
  0
LINE
  5
170
330
25
100
AcDbEntity
  8
1
  6
Continuous
 62
     0
100
AcDbLine
 10
13701.4911381563
 20
-2573.309811676174
 30
0.0
 11
13701.4911381563
 21
-2575.69536941466
 31
0.0
  0
LINE
  5
16F
330
25
100
AcDbEntity
  8
1
  6
Continuous
 62
     0
100
AcDbLine
 10
13710.2411381563
 20
-2577.809811676175
 30
0.0
 11
13702.01937829261
 21
-2577.809811676175
 31
0.0
  0
LINE
  5
16E
330
25
100
AcDbEntity
  8
1
  6
Continuous
 62
     0
100
AcDbLine
 10
13717.7411381563
 20
-2585.309811676175
 30
0.0
 11
13721.3411381563
 21
-2585.309811676175
 31
0.0
  0
LINE
  5
16D
330
25
100
AcDbEntity
  8
1
  6
Continuous
 62
     0
100
AcDbLine
 10
13707.7411381563
 20
-2587.900178445573
 30
0.0
 11
13707.7411381563
 21
-2582.719444906778
 31
0.0
  0
LINE
  5
16C
330
25
100
AcDbEntity
  8
1
  6
Continuous
 62
     0
100
AcDbLine
 10
13712.7411381563
 20
-2587.900178445573
 30
0.0
 11
13712.7411381563
 21
-2582.719444906778
 31
0.0
  0
LINE
  5
16B
330
25
100
AcDbEntity
  8
1
  6
Continuous
 62
     0
100
AcDbLine
 10
10324.55721567047
 20
-1250.757484817757
 30
0.0
 11
10333.08739067047
 21
-1250.757484817757
 31
0.0
  0
LINE
  5
16A
330
25
100
AcDbEntity
  8
1
  6
Continuous
 62
     0
100
AcDbLine
 10
10324.55721567047
 20
-1253.431084817757
 30
0.0
 11
10332.14784067047
 21
-1253.431084817757
 31
0.0
  0
LINE
  5
169
330
25
100
AcDbEntity
  8
1
  6
Continuous
 62
     0
100
AcDbLine
 10
10333.08739067047
 20
-1250.757484817757
 30
0.0
 11
10332.14784067047
 21
-1253.431084817757
 31
0.0
  0
LINE
  5
168
330
25
100
AcDbEntity
  8
1
  6
Continuous
 62
     0
100
AcDbLine
 10
10333.08739067047
 20
-1250.757484817757
 30
0.0
 11
10333.20721567047
 21
-1246.923084817758
 31
0.0
  0
LINE
  5
167
330
25
100
AcDbEntity
  8
1
  6
Continuous
 62
     0
100
AcDbLine
 10
10316.02704067047
 20
-1250.757484817757
 30
0.0
 11
10315.90721567047
 21
-1246.923084817758
 31
0.0
  0
LINE
  5
166
330
25
100
AcDbEntity
  8
1
  6
Continuous
 62
     0
100
AcDbLine
 10
10316.96659067047
 20
-1253.431084817757
 30
0.0
 11
10316.02704067047
 21
-1250.757484817757
 31
0.0
  0
LINE
  5
165
330
25
100
AcDbEntity
  8
1
  6
Continuous
 62
     0
100
AcDbLine
 10
10316.22621567047
 20
-1257.131084817757
 30
0.0
 11
10316.02704067047
 21
-1250.757484817757
 31
0.0
  0
LINE
  5
164
330
25
100
AcDbEntity
  8
1
  6
Continuous
 62
     0
100
AcDbLine
 10
10317.08221567047
 20
-1257.131084817757
 30
0.0
 11
10316.96659067047
 21
-1253.431084817757
 31
0.0
  0
LINE
  5
163
330
25
100
AcDbEntity
  8
1
  6
Continuous
 62
     0
100
AcDbLine
 10
10332.03221567047
 20
-1257.131084817757
 30
0.0
 11
10332.14784067047
 21
-1253.431084817757
 31
0.0
  0
LINE
  5
162
330
25
100
AcDbEntity
  8
1
  6
Continuous
 62
     0
100
AcDbLine
 10
10332.88821567047
 20
-1257.131084817757
 30
0.0
 11
10333.08739067047
 21
-1250.757484817757
 31
0.0
  0
LINE
  5
161
330
25
100
AcDbEntity
  8
1
  6
Continuous
 62
     0
100
AcDbLine
 10
10316.96659067047
 20
-1253.431084817757
 30
0.0
 11
10324.55721567047
 21
-1253.431084817757
 31
0.0
  0
LINE
  5
160
330
25
100
AcDbEntity
  8
1
  6
Continuous
 62
     0
100
AcDbLine
 10
10316.02704067047
 20
-1250.757484817757
 30
0.0
 11
10324.55721567047
 21
-1250.757484817757
 31
0.0
  0
LINE
  5
15F
330
25
100
AcDbEntity
  8
1
  6
Continuous
 62
     0
100
AcDbLine
 10
10315.86215317047
 20
-1245.481084817758
 30
0.0
 11
10315.90721567047
 21
-1246.923084817758
 31
0.0
  0
LINE
  5
15E
330
25
100
AcDbEntity
  8
1
  6
Continuous
 62
     0
100
AcDbLine
 10
10315.86215317047
 20
-1245.481084817758
 30
0.0
 11
10333.25227817047
 21
-1245.481084817758
 31
0.0
  0
LINE
  5
15D
330
25
100
AcDbEntity
  8
1
  6
Continuous
 62
     0
100
AcDbLine
 10
10333.25227817047
 20
-1245.481084817758
 30
0.0
 11
10333.20721567047
 21
-1246.923084817758
 31
0.0
  0
LINE
  5
15C
330
25
100
AcDbEntity
  8
1
  6
Continuous
 62
     0
100
AcDbLine
 10
10331.55721567047
 20
-1233.481084817758
 30
0.0
 11
10331.55721567047
 21
-1245.481084817758
 31
0.0
  0
LINE
  5
15B
330
25
100
AcDbEntity
  8
1
  6
Continuous
 62
     0
100
AcDbLine
 10
10317.55721567047
 20
-1233.481084817758
 30
0.0
 11
10317.55721567047
 21
-1245.481084817758
 31
0.0
  0
LINE
  5
15A
330
25
100
AcDbEntity
  8
1
  6
Continuous
 62
     0
100
AcDbLine
 10
10331.55721567047
 20
-1233.481084817758
 30
0.0
 11
10333.55721567047
 21
-1233.481084817758
 31
0.0
  0
LINE
  5
159
330
25
100
AcDbEntity
  8
1
  6
Continuous
 62
     0
100
AcDbLine
 10
10333.55721567047
 20
-1231.449564408979
 30
0.0
 11
10333.55721567047
 21
-1233.481084817758
 31
0.0
  0
LINE
  5
158
330
25
100
AcDbEntity
  8
1
  6
Continuous
 62
     0
100
AcDbLine
 10
10315.55721567047
 20
-1231.449564408979
 30
0.0
 11
10315.55721567047
 21
-1233.481084817758
 31
0.0
  0
LINE
  5
157
330
25
100
AcDbEntity
  8
1
  6
Continuous
 62
     0
100
AcDbLine
 10
10315.54934434312
 20
-1233.481084817758
 30
0.0
 11
10317.55721567047
 21
-1233.481084817758
 31
0.0
  0
LINE
  5
154
330
25
100
AcDbEntity
  8
1
  6
Continuous
 62
     0
100
AcDbLine
 10
10358.04558871188
 20
-1215.933297461561
 30
0.0
 11
10356.92272332797
 21
-1215.285010829895
 31
0.0
  0
LINE
  5
153
330
25
100
AcDbEntity
  8
1
  6
Continuous
 62
     0
100
AcDbLine
 10
10288.32497103793
 20
-1211.282089556074
 30
0.0
 11
10289.45301745438
 21
-1210.630811653879
 31
0.0
  0
LINE
  5
152
330
25
100
AcDbEntity
  8
1
  6
Continuous
 62
     0
100
AcDbLine
 10
10360.74558871188
 20
-1211.256760281124
 30
0.0
 11
10359.61935838153
 21
-1210.606530896731
 31
0.0
  0
LINE
  5
151
330
25
100
AcDbEntity
  8
1
  6
Continuous
 62
     0
100
AcDbLine
 10
10291.02497103793
 20
-1215.95862673651
 30
0.0
 11
10292.15922979832
 21
-1215.303762135871
 31
0.0
  0
LINE
  5
150
330
25
100
AcDbEntity
  8
1
  6
Continuous
 62
     0
100
AcDbLine
 10
10360.74558871188
 20
-1211.256760281124
 30
0.0
 11
10358.04558871188
 21
-1215.933297461561
 31
0.0
  0
LINE
  5
14F
330
25
100
AcDbEntity
  8
1
  6
Continuous
 62
     0
100
AcDbLine
 10
10291.02497103793
 20
-1215.95862673651
 30
0.0
 11
10288.32497103793
 21
-1211.282089556074
 31
0.0
  0
LINE
  5
14E
330
25
100
AcDbEntity
  8
1
  6
Continuous
 62
     0
100
AcDbLine
 10
10327.25721567047
 20
-1153.202538160689
 30
0.0
 11
10327.25721567047
 21
-1154.49911142402
 31
0.0
  0
LINE
  5
14D
330
25
100
AcDbEntity
  8
1
  6
Continuous
 62
     0
100
AcDbLine
 10
10321.85721567047
 20
-1153.202538160689
 30
0.0
 11
10327.25721567047
 21
-1153.202538160689
 31
0.0
  0
LINE
  5
14C
330
25
100
AcDbEntity
  8
1
  6
Continuous
 62
     0
100
AcDbLine
 10
10321.85721567047
 20
-1154.492949831141
 30
0.0
 11
10321.85721567047
 21
-1153.202538160689
 31
0.0
  0
LINE
  5
14B
330
25
100
AcDbEntity
  8
1
  6
Continuous
 62
     0
100
AcDbLine
 10
10304.16323439015
 20
-1213.520935188592
 30
0.0
 11
10300.02261387257
 21
-1217.66155570617
 31
0.0
  0
LINE
  5
14A
330
25
100
AcDbEntity
  8
1
  6
Continuous
 62
     0
100
AcDbLine
 10
10344.77721584961
 20
-1213.701902415462
 30
0.0
 11
10348.91862656665
 21
-1217.843313132495
 31
0.0
  0
LINE
  5
149
330
25
100
AcDbEntity
  8
1
  6
Continuous
 62
     0
100
AcDbLine
 10
10321.19557173433
 20
-1194.799975830469
 30
0.0
 11
10303.16956878443
 21
-1214.310566282373
 31
0.0
  0
LINE
  5
148
330
25
100
AcDbEntity
  8
1
  6
Continuous
 62
     0
100
AcDbLine
 10
10323.23832465776
 20
-1196.842728753896
 30
0.0
 11
10303.37360329637
 21
-1214.514600794311
 31
0.0
  0
LINE
  5
145
330
25
100
AcDbEntity
  8
1
  6
Continuous
 62
     0
100
AcDbLine
 10
10324.59643344527
 20
-1203.872081439395
 30
0.0
 11
10324.55721567047
 21
-1206.118866253164
 31
0.0
  0
LINE
  5
144
330
25
100
AcDbEntity
  8
1
  6
Continuous
 62
     0
100
AcDbLine
 10
10324.55721567047
 20
-1206.118866253164
 30
0.0
 11
10324.51799789567
 21
-1203.872081439395
 31
0.0
  0
LINE
  5
142
330
25
100
AcDbEntity
  8
1
  6
Continuous
 62
     0
100
AcDbLine
 10
10324.55721567047
 20
-1206.118866253164
 30
0.0
 11
10322.63105183231
 21
-1207.276222249309
 31
0.0
  0
LINE
  5
141
330
25
100
AcDbEntity
  8
1
  6
Continuous
 62
     0
100
AcDbLine
 10
10322.59183405751
 20
-1207.208295070789
 30
0.0
 11
10324.55721567047
 21
-1206.118866253164
 31
0.0
  0
LINE
  5
140
330
25
100
AcDbEntity
  8
1
  6
Continuous
 62
     0
100
AcDbLine
 10
10324.55721567047
 20
-1206.118866253164
 30
0.0
 11
10326.52259728343
 21
-1207.208295070789
 31
0.0
  0
LINE
  5
13F
330
25
100
AcDbEntity
  8
1
  6
Continuous
 62
     0
100
AcDbLine
 10
10326.48337950863
 20
-1207.276222249309
 30
0.0
 11
10324.55721567047
 21
-1206.118866253164
 31
0.0
  0
LINE
  5
13E
330
25
100
AcDbEntity
  8
1
  6
Continuous
 62
     0
100
AcDbLine
 10
10316.22621567047
 20
-1303.128538534592
 30
0.0
 11
10316.01840317047
 21
-1309.778538534592
 31
0.0
  0
LINE
  5
13D
330
25
100
AcDbEntity
  8
1
  6
Continuous
 62
     0
100
AcDbLine
 10
10332.88821567047
 20
-1303.128538534592
 30
0.0
 11
10333.09602817047
 21
-1309.778538534592
 31
0.0
  0
LINE
  5
13C
330
25
100
AcDbEntity
  8
1
  6
Continuous
 62
     0
100
AcDbLine
 10
10330.55721567047
 20
-1309.778538534592
 30
0.0
 11
10330.55721567047
 21
-1318.778538534592
 31
0.0
  0
LINE
  5
13B
330
25
100
AcDbEntity
  8
1
  6
Continuous
 62
     0
100
AcDbLine
 10
10330.55721567047
 20
-1318.778538534592
 30
0.0
 11
10318.55721567047
 21
-1318.778538534592
 31
0.0
  0
LINE
  5
13A
330
25
100
AcDbEntity
  8
1
  6
Continuous
 62
     0
100
AcDbLine
 10
10318.55721567047
 20
-1318.778538534592
 30
0.0
 11
10318.55721567047
 21
-1309.778538534592
 31
0.0
  0
LINE
  5
138
330
25
100
AcDbEntity
  8
1
  6
Continuous
 62
     0
100
AcDbLine
 10
10333.09602817047
 20
-1309.778538534592
 30
0.0
 11
10316.01840317047
 21
-1309.778538534592
 31
0.0
  0
LINE
  5
135
330
25
100
AcDbEntity
  8
1
  6
Continuous
 62
     0
100
AcDbLine
 10
10936.59547179254
 20
-1051.409811676174
 30
0.0
 11
10939.59547179254
 21
-1053.141862483744
 31
0.0
  0
LINE
  5
134
330
25
100
AcDbEntity
  8
1
  6
Continuous
 62
     0
100
AcDbLine
 10
10939.59547179254
 20
-1053.141862483744
 30
0.0
 11
10939.59547179254
 21
-1059.409811676174
 31
0.0
  0
LINE
  5
133
330
25
100
AcDbEntity
  8
1
  6
Continuous
 62
     0
100
AcDbLine
 10
10939.59547179254
 20
-1059.409811676174
 30
0.0
 11
10902.59547179254
 21
-1059.409811676174
 31
0.0
  0
LINE
  5
132
330
25
100
AcDbEntity
  8
1
  6
Continuous
 62
     0
100
AcDbLine
 10
10902.59547179254
 20
-1059.409811676174
 30
0.0
 11
10902.59547179254
 21
-1053.141862483744
 31
0.0
  0
LINE
  5
131
330
25
100
AcDbEntity
  8
1
  6
Continuous
 62
     0
100
AcDbLine
 10
10902.59547179254
 20
-1053.141862483744
 30
0.0
 11
10905.59547179254
 21
-1051.409811676174
 31
0.0
  0
LINE
  5
130
330
25
100
AcDbEntity
  8
1
  6
Continuous
 62
     0
100
AcDbLine
 10
10905.59547179254
 20
-1051.409811676174
 30
0.0
 11
10936.59547179254
 21
-1051.409811676174
 31
0.0
  0
LINE
  5
12F
330
25
100
AcDbEntity
  8
1
  6
Continuous
 62
     0
100
AcDbLine
 10
10936.09547179254
 20
-1042.909811676174
 30
0.0
 11
10936.09547179254
 21
-1051.420110550826
 31
0.0
  0
LINE
  5
12E
330
25
100
AcDbEntity
  8
1
  6
Continuous
 62
     0
100
AcDbLine
 10
10906.09547179254
 20
-1042.909811676174
 30
0.0
 11
10906.09547179254
 21
-1051.409811676174
 31
0.0
  0
LINE
  5
12D
330
25
100
AcDbEntity
  8
1
  6
Continuous
 62
     0
100
AcDbLine
 10
10930.34547179254
 20
-1053.141862483744
 30
0.0
 11
10930.34547179254
 21
-1059.409811676174
 31
0.0
  0
LINE
  5
12C
330
25
100
AcDbEntity
  8
1
  6
Continuous
 62
     0
100
AcDbLine
 10
10911.84547179254
 20
-1053.141862483744
 30
0.0
 11
10911.84547179254
 21
-1059.409811676174
 31
0.0
  0
LINE
  5
12B
330
25
100
AcDbEntity
  8
1
  6
Continuous
 62
     0
100
AcDbLine
 10
10941.09547179254
 20
-1060.409811676174
 30
0.0
 11
10941.09547179254
 21
-1062.409811676174
 31
0.0
  0
LINE
  5
12A
330
25
100
AcDbEntity
  8
1
  6
Continuous
 62
     0
100
AcDbLine
 10
10902.09547179254
 20
-1059.409811676174
 30
0.0
 11
10940.09547179254
 21
-1059.409811676174
 31
0.0
  0
LINE
  5
129
330
25
100
AcDbEntity
  8
1
  6
Continuous
 62
     0
100
AcDbLine
 10
10901.09547179254
 20
-1060.409811676174
 30
0.0
 11
10901.09547179254
 21
-1062.409811676174
 31
0.0
  0
LINE
  5
128
330
25
100
AcDbEntity
  8
1
  6
Continuous
 62
     0
100
AcDbLine
 10
10947.59547179254
 20
-1111.007887887528
 30
0.0
 11
10947.59547179254
 21
-1118.409811676174
 31
0.0
  0
LINE
  5
127
330
25
100
AcDbEntity
  8
1
  6
Continuous
 62
     0
100
AcDbLine
 10
10947.59547179254
 20
-1118.409811676174
 30
0.0
 11
10894.59547179254
 21
-1118.409811676174
 31
0.0
  0
LINE
  5
126
330
25
100
AcDbEntity
  8
1
  6
Continuous
 62
     0
100
AcDbLine
 10
10894.59547179254
 20
-1118.409811676174
 30
0.0
 11
10894.59547179254
 21
-1111.007887887528
 31
0.0
  0
LINE
  5
125
330
25
100
AcDbEntity
  8
1
  6
Continuous
 62
     0
100
AcDbLine
 10
10934.34547179254
 20
-1111.007887887528
 30
0.0
 11
10934.34547179254
 21
-1118.409811676174
 31
0.0
  0
LINE
  5
124
330
25
100
AcDbEntity
  8
1
  6
Continuous
 62
     0
100
AcDbLine
 10
10907.84547179254
 20
-1111.007887887528
 30
0.0
 11
10907.84547179254
 21
-1118.409811676174
 31
0.0
  0
LINE
  5
123
330
25
100
AcDbEntity
  8
1
  6
Continuous
 62
     0
100
AcDbLine
 10
10896.09547179254
 20
-1110.141862483744
 30
0.0
 11
10896.09547179254
 21
-1066.409811676174
 31
0.0
  0
LINE
  5
122
330
25
100
AcDbEntity
  8
1
  6
Continuous
 62
     0
100
AcDbLine
 10
10946.09547179254
 20
-1110.141862483744
 30
0.0
 11
10946.09547179254
 21
-1066.409811676174
 31
0.0
  0
LINE
  5
121
330
25
100
AcDbEntity
  8
1
  6
Continuous
 62
     0
100
AcDbLine
 10
10898.09547179254
 20
-1064.409811676174
 30
0.0
 11
10899.09547179254
 21
-1064.409811676174
 31
0.0
  0
LINE
  5
120
330
25
100
AcDbEntity
  8
1
  6
Continuous
 62
     0
100
AcDbLine
 10
10944.09547179254
 20
-1064.409811676174
 30
0.0
 11
10943.09547179254
 21
-1064.409811676174
 31
0.0
  0
LINE
  5
11F
330
25
100
AcDbEntity
  8
1
  6
Continuous
 62
     0
100
AcDbLine
 10
10899.09547179254
 20
-1064.409811676174
 30
0.0
 11
10901.09547179254
 21
-1064.409811676174
 31
0.0
  0
LINE
  5
11E
330
25
100
AcDbEntity
  8
1
  6
Continuous
 62
     0
100
AcDbLine
 10
10941.09547179254
 20
-1064.409811676174
 30
0.0
 11
10901.09547179254
 21
-1064.409811676174
 31
0.0
  0
LINE
  5
11D
330
25
100
AcDbEntity
  8
1
  6
Continuous
 62
     0
100
AcDbLine
 10
10943.09547179254
 20
-1064.409811676174
 30
0.0
 11
10941.09547179254
 21
-1064.409811676174
 31
0.0
  0
LINE
  5
11C
330
25
100
AcDbEntity
  8
1
  6
Continuous
 62
     0
100
AcDbLine
 10
10943.09547179254
 20
-1108.409811676174
 30
0.0
 11
10947.59547179254
 21
-1111.007887887528
 31
0.0
  0
LINE
  5
11B
330
25
100
AcDbEntity
  8
1
  6
Continuous
 62
     0
100
AcDbLine
 10
10943.09547179254
 20
-1108.409811676174
 30
0.0
 11
10899.09547179254
 21
-1108.409811676174
 31
0.0
  0
LINE
  5
11A
330
25
100
AcDbEntity
  8
1
  6
Continuous
 62
     0
100
AcDbLine
 10
10899.09547179254
 20
-1108.409811676174
 30
0.0
 11
10894.59547179254
 21
-1111.007887887528
 31
0.0
  0
LINE
  5
119
330
25
100
AcDbEntity
  8
1
  6
Continuous
 62
     0
100
AcDbLine
 10
10894.59547179254
 20
-1118.409811676174
 30
0.0
 11
10886.09547179254
 21
-1118.409811676174
 31
0.0
  0
LINE
  5
118
330
25
100
AcDbEntity
  8
1
  6
Continuous
 62
     0
100
AcDbLine
 10
10881.09547179254
 20
-1123.409811676174
 30
0.0
 11
10881.09547179254
 21
-1176.909811676174
 31
0.0
  0
LINE
  5
117
330
25
100
AcDbEntity
  8
1
  6
Continuous
 62
     0
100
AcDbLine
 10
10961.09547179254
 20
-1181.909811676174
 30
0.0
 11
10886.09547179254
 21
-1181.909811676174
 31
0.0
  0
LINE
  5
116
330
25
100
AcDbEntity
  8
1
  6
Continuous
 62
     0
100
AcDbLine
 10
10961.09547179254
 20
-1181.909811676174
 30
0.0
 11
10961.09547179254
 21
-1181.409811676174
 31
0.0
  0
LINE
  5
115
330
25
100
AcDbEntity
  8
1
  6
Continuous
 62
     0
100
AcDbLine
 10
10962.09547179254
 20
-1180.409811676174
 30
0.0
 11
10967.09547179254
 21
-1180.409811676174
 31
0.0
  0
LINE
  5
114
330
25
100
AcDbEntity
  8
1
  6
Continuous
 62
     0
100
AcDbLine
 10
10968.09547179254
 20
-1181.909811676174
 30
0.0
 11
10968.09547179254
 21
-1181.409811676174
 31
0.0
  0
LINE
  5
113
330
25
100
AcDbEntity
  8
1
  6
Continuous
 62
     0
100
AcDbLine
 10
10968.09547179254
 20
-1181.909811676174
 30
0.0
 11
10973.09547179254
 21
-1181.909811676174
 31
0.0
  0
LINE
  5
112
330
25
100
AcDbEntity
  8
1
  6
Continuous
 62
     0
100
AcDbLine
 10
10973.09547179254
 20
-1181.909811676174
 30
0.0
 11
10973.09547179254
 21
-1123.909811676174
 31
0.0
  0
LINE
  5
111
330
25
100
AcDbEntity
  8
1
  6
Continuous
 62
     0
100
AcDbLine
 10
10973.09547179254
 20
-1123.909811676174
 30
0.0
 11
10968.09547179254
 21
-1123.909811676174
 31
0.0
  0
LINE
  5
110
330
25
100
AcDbEntity
  8
1
  6
Continuous
 62
     0
100
AcDbLine
 10
10968.09547179254
 20
-1123.909811676174
 30
0.0
 11
10968.09547179254
 21
-1124.409811676174
 31
0.0
  0
LINE
  5
10F
330
25
100
AcDbEntity
  8
1
  6
Continuous
 62
     0
100
AcDbLine
 10
10962.09547179254
 20
-1125.409811676174
 30
0.0
 11
10967.09547179254
 21
-1125.409811676174
 31
0.0
  0
LINE
  5
10E
330
25
100
AcDbEntity
  8
1
  6
Continuous
 62
     0
100
AcDbLine
 10
10961.09547179254
 20
-1123.409811676174
 30
0.0
 11
10961.09547179254
 21
-1124.409811676174
 31
0.0
  0
LINE
  5
10D
330
25
100
AcDbEntity
  8
1
  6
Continuous
 62
     0
100
AcDbLine
 10
10947.59547179254
 20
-1118.409811676174
 30
0.0
 11
10956.09547179254
 21
-1118.409811676174
 31
0.0
  0
LINE
  5
10C
330
25
100
AcDbEntity
  8
1
  6
Continuous
 62
     0
100
AcDbLine
 10
10942.09547179254
 20
-1207.909811676174
 30
0.0
 11
10900.09547179254
 21
-1207.909811676174
 31
0.0
  0
LINE
  5
10B
330
25
100
AcDbEntity
  8
1
  6
Continuous
 62
     0
100
AcDbLine
 10
10956.09547179254
 20
-1181.909811676174
 30
0.0
 11
10886.09547179254
 21
-1181.909811676174
 31
0.0
  0
LINE
  5
10A
330
25
100
AcDbEntity
  8
1
  6
Continuous
 62
     0
100
AcDbLine
 10
10951.59547179254
 20
-1192.909811676174
 30
0.0
 11
10890.59547179254
 21
-1192.909811676174
 31
0.0
  0
LINE
  5
109
330
25
100
AcDbEntity
  8
1
  6
Continuous
 62
     0
100
AcDbLine
 10
10890.59547179254
 20
-1192.909811676174
 30
0.0
 11
10890.59547179254
 21
-1205.600410599416
 31
0.0
  0
LINE
  5
108
330
25
100
AcDbEntity
  8
1
  6
Continuous
 62
     0
100
AcDbLine
 10
10953.09547179254
 20
-1192.909811676174
 30
0.0
 11
10889.09547179254
 21
-1192.909811676174
 31
0.0
  0
LINE
  5
107
330
25
100
AcDbEntity
  8
1
  6
Continuous
 62
     0
100
AcDbLine
 10
10956.09547179254
 20
-1181.909811676174
 30
0.0
 11
10886.09547179254
 21
-1181.909811676174
 31
0.0
  0
LINE
  5
106
330
25
100
AcDbEntity
  8
1
  6
Continuous
 62
     0
100
AcDbLine
 10
10894.59547179254
 20
-1207.909811676174
 30
0.0
 11
10947.59547179254
 21
-1207.909811676174
 31
0.0
  0
LINE
  5
105
330
25
100
AcDbEntity
  8
1
  6
Continuous
 62
     0
100
AcDbLine
 10
10951.59547179254
 20
-1205.600410599416
 30
0.0
 11
10951.59547179254
 21
-1192.909811676174
 31
0.0
  0
LINE
  5
104
330
25
100
AcDbEntity
  8
1
  6
Continuous
 62
     0
100
AcDbLine
 10
10951.59547179254
 20
-1205.600410599416
 30
0.0
 11
10947.59547179254
 21
-1207.909811676174
 31
0.0
  0
LINE
  5
103
330
25
100
AcDbEntity
  8
1
  6
Continuous
 62
     0
100
AcDbLine
 10
10890.59547179254
 20
-1205.600410599416
 30
0.0
 11
10894.59547179254
 21
-1207.909811676174
 31
0.0
  0
LINE
  5
102
330
25
100
AcDbEntity
  8
1
  6
Continuous
 62
     0
100
AcDbLine
 10
10936.34547179254
 20
-1205.600410599416
 30
0.0
 11
10936.34547179254
 21
-1192.909811676174
 31
0.0
  0
LINE
  5
101
330
25
100
AcDbEntity
  8
1
  6
Continuous
 62
     0
100
AcDbLine
 10
10905.84547179254
 20
-1205.600410599416
 30
0.0
 11
10905.84547179254
 21
-1192.909811676174
 31
0.0
  0
LINE
  5
100
330
25
100
AcDbEntity
  8
1
  6
Continuous
 62
     0
100
AcDbLine
 10
10968.09547179254
 20
-1124.551056684146
 30
0.0
 11
10968.09547179254
 21
-1181.909811676174
 31
0.0
  0
LINE
  5
FF
330
25
100
AcDbEntity
  8
1
  6
Continuous
 62
     0
100
AcDbLine
 10
13120.89773509611
 20
-1205.600410599416
 30
0.0
 11
13120.89773509611
 21
-1192.909811676174
 31
0.0
  0
LINE
  5
FE
330
25
100
AcDbEntity
  8
1
  6
Continuous
 62
     0
100
AcDbLine
 10
13151.39773509611
 20
-1205.600410599416
 30
0.0
 11
13151.39773509611
 21
-1192.909811676174
 31
0.0
  0
LINE
  5
FD
330
25
100
AcDbEntity
  8
1
  6
Continuous
 62
     0
100
AcDbLine
 10
13105.64773509611
 20
-1205.600410599416
 30
0.0
 11
13109.64773509611
 21
-1207.909811676174
 31
0.0
  0
LINE
  5
FC
330
25
100
AcDbEntity
  8
1
  6
Continuous
 62
     0
100
AcDbLine
 10
13166.64773509611
 20
-1205.600410599416
 30
0.0
 11
13162.64773509611
 21
-1207.909811676174
 31
0.0
  0
LINE
  5
FB
330
25
100
AcDbEntity
  8
1
  6
Continuous
 62
     0
100
AcDbLine
 10
13166.64773509611
 20
-1205.600410599416
 30
0.0
 11
13166.64773509611
 21
-1192.909811676174
 31
0.0
  0
LINE
  5
FA
330
25
100
AcDbEntity
  8
1
  6
Continuous
 62
     0
100
AcDbLine
 10
13109.64773509611
 20
-1207.909811676174
 30
0.0
 11
13162.64773509611
 21
-1207.909811676174
 31
0.0
  0
LINE
  5
F9
330
25
100
AcDbEntity
  8
1
  6
Continuous
 62
     0
100
AcDbLine
 10
13171.14773509611
 20
-1181.909811676174
 30
0.0
 11
13101.14773509611
 21
-1181.909811676174
 31
0.0
  0
LINE
  5
F8
330
25
100
AcDbEntity
  8
1
  6
Continuous
 62
     0
100
AcDbLine
 10
13168.14773509611
 20
-1192.909811676174
 30
0.0
 11
13104.14773509611
 21
-1192.909811676174
 31
0.0
  0
LINE
  5
F7
330
25
100
AcDbEntity
  8
1
  6
Continuous
 62
     0
100
AcDbLine
 10
13105.64773509611
 20
-1192.909811676174
 30
0.0
 11
13105.64773509611
 21
-1205.600410599416
 31
0.0
  0
LINE
  5
F6
330
25
100
AcDbEntity
  8
1
  6
Continuous
 62
     0
100
AcDbLine
 10
13166.64773509611
 20
-1192.909811676174
 30
0.0
 11
13105.64773509611
 21
-1192.909811676174
 31
0.0
  0
LINE
  5
F5
330
25
100
AcDbEntity
  8
1
  6
Continuous
 62
     0
100
AcDbLine
 10
13171.14773509611
 20
-1181.909811676174
 30
0.0
 11
13101.14773509611
 21
-1181.909811676174
 31
0.0
  0
LINE
  5
F4
330
25
100
AcDbEntity
  8
1
  6
Continuous
 62
     0
100
AcDbLine
 10
13157.14773509611
 20
-1207.909811676174
 30
0.0
 11
13115.14773509611
 21
-1207.909811676174
 31
0.0
  0
LINE
  5
F3
330
25
100
AcDbEntity
  8
1
  6
Continuous
 62
     0
100
AcDbLine
 10
13162.64773509611
 20
-1118.409811676174
 30
0.0
 11
13171.14773509611
 21
-1118.409811676174
 31
0.0
  0
LINE
  5
F2
330
25
100
AcDbEntity
  8
1
  6
Continuous
 62
     0
100
AcDbLine
 10
13176.14773509611
 20
-1123.409811676174
 30
0.0
 11
13176.14773509611
 21
-1176.909811676174
 31
0.0
  0
LINE
  5
F1
330
25
100
AcDbEntity
  8
1
  6
Continuous
 62
     0
100
AcDbLine
 10
13101.14773509611
 20
-1181.909811676174
 30
0.0
 11
13171.14773509611
 21
-1181.909811676174
 31
0.0
  0
LINE
  5
F0
330
25
100
AcDbEntity
  8
1
  6
Continuous
 62
     0
100
AcDbLine
 10
13096.14773509611
 20
-1123.409811676174
 30
0.0
 11
13096.14773509611
 21
-1176.909811676174
 31
0.0
  0
LINE
  5
EF
330
25
100
AcDbEntity
  8
1
  6
Continuous
 62
     0
100
AcDbLine
 10
13109.64773509611
 20
-1118.409811676174
 30
0.0
 11
13101.14773509611
 21
-1118.409811676174
 31
0.0
  0
LINE
  5
EE
330
25
100
AcDbEntity
  8
1
  6
Continuous
 62
     0
100
AcDbLine
 10
13114.14773509611
 20
-1108.409811676174
 30
0.0
 11
13109.64773509611
 21
-1111.007887887528
 31
0.0
  0
LINE
  5
ED
330
25
100
AcDbEntity
  8
1
  6
Continuous
 62
     0
100
AcDbLine
 10
13158.14773509611
 20
-1108.409811676174
 30
0.0
 11
13114.14773509611
 21
-1108.409811676174
 31
0.0
  0
LINE
  5
EC
330
25
100
AcDbEntity
  8
1
  6
Continuous
 62
     0
100
AcDbLine
 10
13158.14773509611
 20
-1108.409811676174
 30
0.0
 11
13162.64773509611
 21
-1111.007887887528
 31
0.0
  0
LINE
  5
EB
330
25
100
AcDbEntity
  8
1
  6
Continuous
 62
     0
100
AcDbLine
 10
13158.14773509611
 20
-1064.40914033759
 30
0.0
 11
13156.14773509611
 21
-1064.40914033759
 31
0.0
  0
LINE
  5
EA
330
25
100
AcDbEntity
  8
1
  6
Continuous
 62
     0
100
AcDbLine
 10
13156.14773509611
 20
-1064.40914033759
 30
0.0
 11
13116.14773509611
 21
-1064.40914033759
 31
0.0
  0
LINE
  5
E9
330
25
100
AcDbEntity
  8
1
  6
Continuous
 62
     0
100
AcDbLine
 10
13114.14773509611
 20
-1064.40914033759
 30
0.0
 11
13116.14773509611
 21
-1064.40914033759
 31
0.0
  0
LINE
  5
E8
330
25
100
AcDbEntity
  8
1
  6
Continuous
 62
     0
100
AcDbLine
 10
13159.14773509611
 20
-1064.40914033759
 30
0.0
 11
13158.14773509611
 21
-1064.40914033759
 31
0.0
  0
LINE
  5
E7
330
25
100
AcDbEntity
  8
1
  6
Continuous
 62
     0
100
AcDbLine
 10
13113.14773509611
 20
-1064.40914033759
 30
0.0
 11
13114.14773509611
 21
-1064.40914033759
 31
0.0
  0
LINE
  5
E6
330
25
100
AcDbEntity
  8
1
  6
Continuous
 62
     0
100
AcDbLine
 10
13161.14773509611
 20
-1110.141862483744
 30
0.0
 11
13161.14773509611
 21
-1066.40914033759
 31
0.0
  0
LINE
  5
E5
330
25
100
AcDbEntity
  8
1
  6
Continuous
 62
     0
100
AcDbLine
 10
13111.14773509611
 20
-1110.141862483744
 30
0.0
 11
13111.14773509611
 21
-1066.40914033759
 31
0.0
  0
LINE
  5
E4
330
25
100
AcDbEntity
  8
1
  6
Continuous
 62
     0
100
AcDbLine
 10
13122.89773509611
 20
-1111.007887887528
 30
0.0
 11
13122.89773509611
 21
-1118.409811676174
 31
0.0
  0
LINE
  5
E3
330
25
100
AcDbEntity
  8
1
  6
Continuous
 62
     0
100
AcDbLine
 10
13149.39773509611
 20
-1111.007887887528
 30
0.0
 11
13149.39773509611
 21
-1118.409811676174
 31
0.0
  0
LINE
  5
E2
330
25
100
AcDbEntity
  8
1
  6
Continuous
 62
     0
100
AcDbLine
 10
13109.64773509611
 20
-1118.409811676174
 30
0.0
 11
13109.64773509611
 21
-1111.007887887528
 31
0.0
  0
LINE
  5
E1
330
25
100
AcDbEntity
  8
1
  6
Continuous
 62
     0
100
AcDbLine
 10
13162.64773509611
 20
-1118.409811676174
 30
0.0
 11
13109.64773509611
 21
-1118.409811676174
 31
0.0
  0
LINE
  5
E0
330
25
100
AcDbEntity
  8
1
  6
Continuous
 62
     0
100
AcDbLine
 10
13162.64773509611
 20
-1111.007887887528
 30
0.0
 11
13162.64773509611
 21
-1118.409811676174
 31
0.0
  0
LINE
  5
DF
330
25
100
AcDbEntity
  8
1
  6
Continuous
 62
     0
100
AcDbLine
 10
13116.14773509611
 20
-1060.40914033759
 30
0.0
 11
13116.14773509611
 21
-1062.40914033759
 31
0.0
  0
LINE
  5
DE
330
25
100
AcDbEntity
  8
1
  6
Continuous
 62
     0
100
AcDbLine
 10
13117.14773509611
 20
-1059.40914033759
 30
0.0
 11
13155.14773509611
 21
-1059.40914033759
 31
0.0
  0
LINE
  5
DD
330
25
100
AcDbEntity
  8
1
  6
Continuous
 62
     0
100
AcDbLine
 10
13156.14773509611
 20
-1060.40914033759
 30
0.0
 11
13156.14773509611
 21
-1062.40914033759
 31
0.0
  0
LINE
  5
DC
330
25
100
AcDbEntity
  8
1
  6
Continuous
 62
     0
100
AcDbLine
 10
13126.89773509611
 20
-1053.141191145159
 30
0.0
 11
13126.89773509611
 21
-1059.40914033759
 31
0.0
  0
LINE
  5
DB
330
25
100
AcDbEntity
  8
1
  6
Continuous
 62
     0
100
AcDbLine
 10
13145.39773509611
 20
-1053.141191145159
 30
0.0
 11
13145.39773509611
 21
-1059.40914033759
 31
0.0
  0
LINE
  5
DA
330
25
100
AcDbEntity
  8
1
  6
Continuous
 62
     0
100
AcDbLine
 10
13121.14773509611
 20
-1042.90914033759
 30
0.0
 11
13121.14773509611
 21
-1051.40914033759
 31
0.0
  0
LINE
  5
D9
330
25
100
AcDbEntity
  8
1
  6
Continuous
 62
     0
100
AcDbLine
 10
13151.14773509611
 20
-1042.90914033759
 30
0.0
 11
13151.14773509611
 21
-1051.419439212241
 31
0.0
  0
LINE
  5
D8
330
25
100
AcDbEntity
  8
1
  6
Continuous
 62
     0
100
AcDbLine
 10
13120.64773509611
 20
-1051.40914033759
 30
0.0
 11
13151.64773509611
 21
-1051.40914033759
 31
0.0
  0
LINE
  5
D7
330
25
100
AcDbEntity
  8
1
  6
Continuous
 62
     0
100
AcDbLine
 10
13117.64773509611
 20
-1053.141191145159
 30
0.0
 11
13120.64773509611
 21
-1051.40914033759
 31
0.0
  0
LINE
  5
D6
330
25
100
AcDbEntity
  8
1
  6
Continuous
 62
     0
100
AcDbLine
 10
13117.64773509611
 20
-1059.40914033759
 30
0.0
 11
13117.64773509611
 21
-1053.141191145159
 31
0.0
  0
LINE
  5
D5
330
25
100
AcDbEntity
  8
1
  6
Continuous
 62
     0
100
AcDbLine
 10
13154.64773509611
 20
-1059.40914033759
 30
0.0
 11
13117.64773509611
 21
-1059.40914033759
 31
0.0
  0
LINE
  5
D4
330
25
100
AcDbEntity
  8
1
  6
Continuous
 62
     0
100
AcDbLine
 10
13154.64773509611
 20
-1053.141191145159
 30
0.0
 11
13154.64773509611
 21
-1059.40914033759
 31
0.0
  0
LINE
  5
D3
330
25
100
AcDbEntity
  8
1
  6
Continuous
 62
     0
100
AcDbLine
 10
13151.64773509611
 20
-1051.40914033759
 30
0.0
 11
13154.64773509611
 21
-1053.141191145159
 31
0.0
  0
LINE
  5
D1
330
25
100
AcDbEntity
  8
1
  6
Continuous
 62
     0
100
AcDbLine
 10
13195.1211381563
 20
-1249.879811676175
 30
0.0
 11
13195.1211381563
 21
-1310.379811676175
 31
0.0
  0
LINE
  5
D0
330
25
100
AcDbEntity
  8
1
  6
Continuous
 62
     0
100
AcDbLine
 10
13191.1211381563
 20
-1310.379811676175
 30
0.0
 11
13191.1211381563
 21
-1249.879811676175
 31
0.0
  0
LINE
  5
CF
330
25
100
AcDbEntity
  8
1
  6
Continuous
 62
     0
100
AcDbLine
 10
13191.1211381563
 20
-1310.379811676175
 30
0.0
 11
13195.1211381563
 21
-1310.379811676175
 31
0.0
  0
LINE
  5
CE
330
25
100
AcDbEntity
  8
1
  6
Continuous
 62
     0
100
AcDbLine
 10
13195.1211381563
 20
-1249.879811676175
 30
0.0
 11
13191.1211381563
 21
-1249.879811676175
 31
0.0
  0
LINE
  5
CD
330
25
100
AcDbEntity
  8
1
  6
Continuous
 62
     0
100
AcDbLine
 10
13195.1211381563
 20
-1310.379811676175
 30
0.0
 11
13206.2411381563
 21
-1309.936811676174
 31
0.0
  0
LINE
  5
CC
330
25
100
AcDbEntity
  8
1
  6
Continuous
 62
     0
100
AcDbLine
 10
13195.1211381563
 20
-1249.879811676175
 30
0.0
 11
13206.2411381563
 21
-1250.322811676175
 31
0.0
  0
LINE
  5
CB
330
25
100
AcDbEntity
  8
1
  6
Continuous
 62
     0
100
AcDbLine
 10
13191.1211381563
 20
-1310.379811676175
 30
0.0
 11
13180.0011381563
 21
-1309.936811676174
 31
0.0
  0
LINE
  5
CA
330
25
100
AcDbEntity
  8
1
  6
Continuous
 62
     0
100
AcDbLine
 10
13180.0011381563
 20
-1250.322811676175
 30
0.0
 11
13191.1211381563
 21
-1249.879811676175
 31
0.0
  0
LINE
  5
C9
330
25
100
AcDbEntity
  8
1
  6
Continuous
 62
     0
100
AcDbLine
 10
13136.0058206611
 20
-1229.129811676175
 30
0.0
 11
13158.01873838318
 21
-1229.129811676175
 31
0.0
  0
LINE
  5
C8
330
25
100
AcDbEntity
  8
1
  6
Continuous
 62
     0
100
AcDbLine
 10
13115.5058206611
 20
-1238.294892858438
 30
0.0
 11
13115.5058206611
 21
-1269.631356208746
 31
0.0
  0
LINE
  5
C7
330
25
100
AcDbEntity
  8
1
  6
Continuous
 62
     0
100
AcDbLine
 10
13156.5058206611
 20
-1238.294892858438
 30
0.0
 11
13156.5058206611
 21
-1239.628267143603
 31
0.0
  0
LINE
  5
C6
330
25
100
AcDbEntity
  8
1
  6
Continuous
 62
     0
100
AcDbLine
 10
13113.99290293903
 20
-1229.129811676175
 30
0.0
 11
13136.0058206611
 21
-1229.129811676175
 31
0.0
  0
LINE
  5
C5
330
25
100
AcDbEntity
  8
1
  6
Continuous
 62
     0
100
AcDbLine
 10
13113.99290293903
 20
-1229.129811676175
 30
0.0
 11
13113.99290293903
 21
-1234.129811676175
 31
0.0
  0
LINE
  5
C4
330
25
100
AcDbEntity
  8
1
  6
Continuous
 62
     0
100
AcDbLine
 10
13158.01873838318
 20
-1229.129811676175
 30
0.0
 11
13158.01873838318
 21
-1234.129811676175
 31
0.0
  0
LINE
  5
C3
330
25
100
AcDbEntity
  8
1
  6
Continuous
 62
     0
100
AcDbLine
 10
13113.99290293903
 20
-1234.129811676175
 30
0.0
 11
13158.01873838318
 21
-1234.129811676175
 31
0.0
  0
LINE
  5
C1
330
25
100
AcDbEntity
  8
1
  6
Continuous
 62
     0
100
AcDbLine
 10
13169.61631462156
 20
-1314.631356208746
 30
0.0
 11
13160.5058206611
 21
-1314.631356208746
 31
0.0
  0
LINE
  5
C0
330
25
100
AcDbEntity
  8
1
  6
Continuous
 62
     0
100
AcDbLine
 10
13180.0011381563
 20
-1316.131356208746
 30
0.0
 11
13180.0011381563
 21
-1280.129811676175
 31
0.0
  0
LINE
  5
BF
330
25
100
AcDbEntity
  8
1
  6
Continuous
 62
     0
100
AcDbLine
 10
13175.0011381563
 20
-1316.131356208746
 30
0.0
 11
13180.0011381563
 21
-1316.131356208746
 31
0.0
  0
LINE
  5
BE
330
25
100
AcDbEntity
  8
1
  6
Continuous
 62
     0
100
AcDbLine
 10
13175.0011381563
 20
-1244.128267143603
 30
0.0
 11
13180.0011381563
 21
-1244.128267143603
 31
0.0
  0
LINE
  5
BD
330
25
100
AcDbEntity
  8
1
  6
Continuous
 62
     0
100
AcDbLine
 10
13175.0011381563
 20
-1314.631356208746
 30
0.0
 11
13175.0011381563
 21
-1245.628267143603
 31
0.0
  0
LINE
  5
BC
330
25
100
AcDbEntity
  8
1
  6
Continuous
 62
     0
100
AcDbLine
 10
13175.0011381563
 20
-1245.628267143603
 30
0.0
 11
13175.0011381563
 21
-1244.128267143603
 31
0.0
  0
LINE
  5
BB
330
25
100
AcDbEntity
  8
1
  6
Continuous
 62
     0
100
AcDbLine
 10
13175.0011381563
 20
-1314.631356208746
 30
0.0
 11
13175.0011381563
 21
-1316.131356208746
 31
0.0
  0
LINE
  5
BA
330
25
100
AcDbEntity
  8
1
  6
Continuous
 62
     0
100
AcDbLine
 10
13180.0011381563
 20
-1280.129811676175
 30
0.0
 11
13180.0011381563
 21
-1244.128267143603
 31
0.0
  0
LINE
  5
B9
330
25
100
AcDbEntity
  8
1
  6
Continuous
 62
     0
100
AcDbLine
 10
13169.61631462156
 20
-1245.628267143603
 30
0.0
 11
13162.5058206611
 21
-1245.628267143603
 31
0.0
  0
LINE
  5
B8
330
25
100
AcDbEntity
  8
1
  6
Continuous
 62
     0
100
AcDbLine
 10
13119.0058206611
 20
-1216.669811676175
 30
0.0
 11
13153.0058206611
 21
-1216.669811676175
 31
0.0
  0
LINE
  5
B7
330
25
100
AcDbEntity
  8
1
  6
Continuous
 62
     0
100
AcDbLine
 10
13153.0058206611
 20
-1220.369811676175
 30
0.0
 11
13119.0058206611
 21
-1220.369811676175
 31
0.0
  0
LINE
  5
B6
330
25
100
AcDbEntity
  8
1
  6
Continuous
 62
     0
100
AcDbLine
 10
13119.0058206611
 20
-1216.669811676175
 30
0.0
 11
13119.0058206611
 21
-1220.369811676175
 31
0.0
  0
LINE
  5
B5
330
25
100
AcDbEntity
  8
1
  6
Continuous
 62
     0
100
AcDbLine
 10
13153.0058206611
 20
-1220.369811676175
 30
0.0
 11
13153.0058206611
 21
-1216.669811676175
 31
0.0
  0
LINE
  5
B4
330
25
100
AcDbEntity
  8
1
  6
Continuous
 62
     0
100
AcDbLine
 10
13119.0058206611
 20
-1216.669811676175
 30
0.0
 11
13119.3813206611
 21
-1207.909811676174
 31
0.0
  0
LINE
  5
B3
330
25
100
AcDbEntity
  8
1
  6
Continuous
 62
     0
100
AcDbLine
 10
13119.0058206611
 20
-1220.369811676175
 30
0.0
 11
13119.3813206611
 21
-1229.129811676175
 31
0.0
  0
LINE
  5
B2
330
25
100
AcDbEntity
  8
1
  6
Continuous
 62
     0
100
AcDbLine
 10
13152.6303206611
 20
-1229.129811676175
 30
0.0
 11
13153.0058206611
 21
-1220.369811676175
 31
0.0
  0
LINE
  5
B1
330
25
100
AcDbEntity
  8
1
  6
Continuous
 62
     0
100
AcDbLine
 10
13152.6303206611
 20
-1207.909811676174
 30
0.0
 11
13153.0058206611
 21
-1216.669811676175
 31
0.0
  0
LINE
  5
AF
330
25
100
AcDbEntity
  8
1
  6
Continuous
 62
     0
100
AcDbLine
 10
13171.14773509611
 20
-1181.909811676174
 30
0.0
 11
13171.14773509611
 21
-1189.909811676174
 31
0.0
  0
LINE
  5
AE
330
25
100
AcDbEntity
  8
1
  6
Continuous
 62
     0
100
AcDbLine
 10
13101.14773509611
 20
-1181.909811676174
 30
0.0
 11
13101.14773509611
 21
-1189.909811676174
 31
0.0
  0
LINE
  5
AD
330
25
100
AcDbEntity
  8
1
  6
Continuous
 62
     0
100
AcDbLine
 10
13159.14773509611
 20
-1065.40914033759
 30
0.0
 11
13159.14773509611
 21
-1107.832461406984
 31
0.0
  0
LINE
  5
AC
330
25
100
AcDbEntity
  8
1
  6
Continuous
 62
     0
100
AcDbLine
 10
13157.14773509611
 20
-1065.40914033759
 30
0.0
 11
13157.14773509611
 21
-1107.409811676174
 31
0.0
  0
LINE
  5
AB
330
25
100
AcDbEntity
  8
1
  6
Continuous
 62
     0
100
AcDbLine
 10
13144.48106842944
 20
-1065.40914033759
 30
0.0
 11
13144.48106842944
 21
-1107.409811676174
 31
0.0
  0
LINE
  5
AA
330
25
100
AcDbEntity
  8
1
  6
Continuous
 62
     0
100
AcDbLine
 10
13142.48106842944
 20
-1065.40914033759
 30
0.0
 11
13142.48106842944
 21
-1107.409811676174
 31
0.0
  0
LINE
  5
A9
330
25
100
AcDbEntity
  8
1
  6
Continuous
 62
     0
100
AcDbLine
 10
13129.81440176278
 20
-1065.40914033759
 30
0.0
 11
13129.81440176278
 21
-1107.409811676174
 31
0.0
  0
LINE
  5
A8
330
25
100
AcDbEntity
  8
1
  6
Continuous
 62
     0
100
AcDbLine
 10
13127.81440176278
 20
-1065.40914033759
 30
0.0
 11
13127.81440176278
 21
-1107.409811676174
 31
0.0
  0
LINE
  5
A7
330
25
100
AcDbEntity
  8
1
  6
Continuous
 62
     0
100
AcDbLine
 10
13115.14773509611
 20
-1065.40914033759
 30
0.0
 11
13115.14773509611
 21
-1107.409811676174
 31
0.0
  0
LINE
  5
A6
330
25
100
AcDbEntity
  8
1
  6
Continuous
 62
     0
100
AcDbLine
 10
13113.14773509611
 20
-1065.40914033759
 30
0.0
 11
13113.14773509611
 21
-1107.832461406984
 31
0.0
  0
LINE
  5
A5
330
25
100
AcDbEntity
  8
1
  6
Continuous
 62
     0
100
AcDbLine
 10
10937.71997179254
 20
-1207.909811676174
 30
0.0
 11
10938.09547179254
 21
-1216.669811676175
 31
0.0
  0
LINE
  5
A4
330
25
100
AcDbEntity
  8
1
  6
Continuous
 62
     0
100
AcDbLine
 10
10937.71997179254
 20
-1229.129811676175
 30
0.0
 11
10938.09547179254
 21
-1220.369811676175
 31
0.0
  0
LINE
  5
A3
330
25
100
AcDbEntity
  8
1
  6
Continuous
 62
     0
100
AcDbLine
 10
10904.09547179254
 20
-1220.369811676175
 30
0.0
 11
10904.47097179254
 21
-1229.129811676175
 31
0.0
  0
LINE
  5
A2
330
25
100
AcDbEntity
  8
1
  6
Continuous
 62
     0
100
AcDbLine
 10
10904.09547179254
 20
-1216.669811676175
 30
0.0
 11
10904.47097179254
 21
-1207.909811676174
 31
0.0
  0
LINE
  5
A1
330
25
100
AcDbEntity
  8
1
  6
Continuous
 62
     0
100
AcDbLine
 10
10938.09547179254
 20
-1220.369811676175
 30
0.0
 11
10938.09547179254
 21
-1216.669811676175
 31
0.0
  0
LINE
  5
A0
330
25
100
AcDbEntity
  8
1
  6
Continuous
 62
     0
100
AcDbLine
 10
10904.09547179254
 20
-1216.669811676175
 30
0.0
 11
10904.09547179254
 21
-1220.369811676175
 31
0.0
  0
LINE
  5
9F
330
25
100
AcDbEntity
  8
1
  6
Continuous
 62
     0
100
AcDbLine
 10
10938.09547179254
 20
-1220.369811676175
 30
0.0
 11
10904.09547179254
 21
-1220.369811676175
 31
0.0
  0
LINE
  5
9E
330
25
100
AcDbEntity
  8
1
  6
Continuous
 62
     0
100
AcDbLine
 10
10904.09547179254
 20
-1216.669811676175
 30
0.0
 11
10938.09547179254
 21
-1216.669811676175
 31
0.0
  0
LINE
  5
9D
330
25
100
AcDbEntity
  8
1
  6
Continuous
 62
     0
100
AcDbLine
 10
10899.08255407047
 20
-1234.129811676175
 30
0.0
 11
10943.10838951462
 21
-1234.129811676175
 31
0.0
  0
LINE
  5
9C
330
25
100
AcDbEntity
  8
1
  6
Continuous
 62
     0
100
AcDbLine
 10
10943.10838951462
 20
-1229.129811676175
 30
0.0
 11
10943.10838951462
 21
-1234.129811676175
 31
0.0
  0
LINE
  5
9B
330
25
100
AcDbEntity
  8
1
  6
Continuous
 62
     0
100
AcDbLine
 10
10899.08255407047
 20
-1229.129811676175
 30
0.0
 11
10899.08255407047
 21
-1234.129811676175
 31
0.0
  0
LINE
  5
9A
330
25
100
AcDbEntity
  8
1
  6
Continuous
 62
     0
100
AcDbLine
 10
10899.08255407047
 20
-1229.129811676175
 30
0.0
 11
10921.09547179254
 21
-1229.129811676175
 31
0.0
  0
LINE
  5
99
330
25
100
AcDbEntity
  8
1
  6
Continuous
 62
     0
100
AcDbLine
 10
10921.09547179254
 20
-1229.129811676175
 30
0.0
 11
10943.10838951462
 21
-1229.129811676175
 31
0.0
  0
LINE
  5
98
330
25
100
AcDbEntity
  8
1
  6
Continuous
 62
     0
100
AcDbLine
 10
10942.23738622755
 20
-1207.909811676174
 30
0.0
 11
10900.23738622755
 21
-1207.909811676174
 31
0.0
  0
LINE
  5
97
330
25
100
AcDbEntity
  8
1
  6
Continuous
 62
     0
100
AcDbLine
 10
10894.73738622755
 20
-1207.909811676174
 30
0.0
 11
10947.73738622755
 21
-1207.909811676174
 31
0.0
  0
LINE
  5
96
330
25
100
AcDbEntity
  8
1
  6
Continuous
 62
     0
100
AcDbLine
 10
10951.73738622755
 20
-1205.600410599416
 30
0.0
 11
10947.73738622755
 21
-1207.909811676174
 31
0.0
  0
LINE
  5
95
330
25
100
AcDbEntity
  8
1
  6
Continuous
 62
     0
100
AcDbLine
 10
10890.73738622755
 20
-1205.600410599416
 30
0.0
 11
10894.73738622755
 21
-1207.909811676174
 31
0.0
  0
LINE
  5
94
330
25
100
AcDbEntity
  8
1
  6
Continuous
 62
     0
100
AcDbLine
 10
10900.59547179254
 20
-1238.294892858438
 30
0.0
 11
10900.59547179254
 21
-1240.002523615713
 31
0.0
  0
LINE
  5
93
330
25
100
AcDbEntity
  8
1
  6
Continuous
 62
     0
100
AcDbLine
 10
10941.59547179254
 20
-1238.294892858438
 30
0.0
 11
10941.59547179254
 21
-1239.628267143604
 31
0.0
  0
LINE
  5
92
330
25
100
AcDbEntity
  8
1
  6
Continuous
 62
     0
100
AcDbLine
 10
10941.59547179254
 20
-1240.002523615713
 30
0.0
 11
10941.59547179254
 21
-1238.294892858438
 31
0.0
  0
LINE
  5
91
330
25
100
AcDbEntity
  8
1
  6
Continuous
 62
     0
100
AcDbLine
 10
10956.09547179254
 20
-1181.909811676174
 30
0.0
 11
10956.09547179254
 21
-1189.909811676174
 31
0.0
  0
LINE
  5
90
330
25
100
AcDbEntity
  8
1
  6
Continuous
 62
     0
100
AcDbLine
 10
10886.09547179254
 20
-1181.909811676174
 30
0.0
 11
10886.09547179254
 21
-1189.909811676174
 31
0.0
  0
LINE
  5
8F
330
25
100
AcDbEntity
  8
1
  6
Continuous
 62
     0
100
AcDbLine
 10
10944.09547179254
 20
-1065.409811676174
 30
0.0
 11
10944.09547179254
 21
-1107.832461406984
 31
0.0
  0
LINE
  5
8E
330
25
100
AcDbEntity
  8
1
  6
Continuous
 62
     0
100
AcDbLine
 10
10942.09547179254
 20
-1065.409811676174
 30
0.0
 11
10942.09547179254
 21
-1107.409811676174
 31
0.0
  0
LINE
  5
8D
330
25
100
AcDbEntity
  8
1
  6
Continuous
 62
     0
100
AcDbLine
 10
10929.42880512587
 20
-1065.409811676174
 30
0.0
 11
10929.42880512587
 21
-1107.409811676174
 31
0.0
  0
LINE
  5
8C
330
25
100
AcDbEntity
  8
1
  6
Continuous
 62
     0
100
AcDbLine
 10
10927.42880512587
 20
-1065.409811676174
 30
0.0
 11
10927.42880512587
 21
-1107.409811676174
 31
0.0
  0
LINE
  5
8B
330
25
100
AcDbEntity
  8
1
  6
Continuous
 62
     0
100
AcDbLine
 10
10914.76213845921
 20
-1065.409811676174
 30
0.0
 11
10914.76213845921
 21
-1107.409811676174
 31
0.0
  0
LINE
  5
8A
330
25
100
AcDbEntity
  8
1
  6
Continuous
 62
     0
100
AcDbLine
 10
10912.76213845921
 20
-1065.409811676174
 30
0.0
 11
10912.76213845921
 21
-1107.409811676174
 31
0.0
  0
LINE
  5
89
330
25
100
AcDbEntity
  8
1
  6
Continuous
 62
     0
100
AcDbLine
 10
10900.09547179254
 20
-1065.409811676174
 30
0.0
 11
10900.09547179254
 21
-1107.409811676174
 31
0.0
  0
LINE
  5
88
330
25
100
AcDbEntity
  8
1
  6
Continuous
 62
     0
100
AcDbLine
 10
10898.09547179254
 20
-1065.409811676174
 30
0.0
 11
10898.09547179254
 21
-1107.832461406984
 31
0.0
  0
LINE
  5
87
330
25
100
AcDbEntity
  8
1
  6
Continuous
 62
     0
100
AcDbLine
 10
10437.09547179254
 20
-2317.129811676175
 30
0.0
 11
10437.09547179254
 21
-2337.044297764537
 31
0.0
  0
LINE
  5
86
330
25
100
AcDbEntity
  8
1
  6
Continuous
 62
     0
100
AcDbLine
 10
10437.09547179254
 20
-2317.129811676175
 30
0.0
 11
10921.09547179254
 21
-2317.129811676175
 31
0.0
  0
LINE
  5
85
330
25
100
AcDbEntity
  8
1
  6
Continuous
 62
     0
100
AcDbLine
 10
10571.09547179254
 20
-2463.979743075623
 30
0.0
 11
10571.09547179254
 21
-2530.129811676175
 31
0.0
  0
LINE
  5
84
330
25
100
AcDbEntity
  8
1
  6
Continuous
 62
     0
100
AcDbLine
 10
10921.09547179254
 20
-2317.129811676175
 30
0.0
 11
11405.09547179254
 21
-2317.129811676175
 31
0.0
  0
LINE
  5
83
330
25
100
AcDbEntity
  8
1
  6
Continuous
 62
     0
100
AcDbLine
 10
11405.09547179254
 20
-2337.044297764537
 30
0.0
 11
11405.09547179254
 21
-2317.129811676175
 31
0.0
  0
LINE
  5
82
330
25
100
AcDbEntity
  8
1
  6
Continuous
 62
     0
100
AcDbLine
 10
11405.09547179254
 20
-481.129811676176
 30
0.0
 11
10921.09547179254
 21
-481.129811676176
 31
0.0
  0
LINE
  5
81
330
25
100
AcDbEntity
  8
1
  6
Continuous
 62
     0
100
AcDbLine
 10
10921.09547179254
 20
-481.129811676176
 30
0.0
 11
10437.09547179254
 21
-481.129811676176
 31
0.0
  0
LINE
  5
80
330
25
100
AcDbEntity
  8
1
  6
Continuous
 62
     0
100
AcDbLine
 10
10437.09547179254
 20
-461.215325587813
 30
0.0
 11
10437.09547179254
 21
-481.129811676176
 31
0.0
  0
LINE
  5
7F
330
25
100
AcDbEntity
  8
1
  6
Continuous
 62
     0
100
AcDbLine
 10
11405.09547179254
 20
-481.129811676176
 30
0.0
 11
11405.09547179254
 21
-461.215325587813
 31
0.0
  0
LINE
  5
7E
330
25
100
AcDbEntity
  8
1
  6
Continuous
 62
     0
100
AcDbLine
 10
10437.09547179254
 20
-461.215325587813
 30
0.0
 11
10437.09547179254
 21
-481.129811676176
 31
0.0
  0
LINE
  5
7D
330
25
100
AcDbEntity
  8
1
  6
Continuous
 62
     0
100
AcDbLine
 10
11185.19005116801
 20
-298.647284369402
 30
0.0
 11
11184.9178848952
 21
-300.486711378935
 31
0.0
  0
LINE
  5
7C
330
25
100
AcDbEntity
  8
1
  6
Continuous
 62
     0
100
AcDbLine
 10
11184.30708263836
 20
-288.665839247477
 30
0.0
 11
11173.66423556465
 21
-284.530352873784
 31
0.0
  0
LINE
  5
7B
330
25
100
AcDbEntity
  8
1
  6
Continuous
 62
     0
100
AcDbLine
 10
11173.66423556465
 20
-284.530352873784
 30
0.0
 11
11162.37951644338
 21
-282.790365593551
 31
0.0
  0
LINE
  5
7A
330
25
100
AcDbEntity
  8
1
  6
Continuous
 62
     0
100
AcDbLine
 10
11155.94011010653
 20
-292.722140025859
 30
0.0
 11
11156.62412070499
 21
-290.993066370792
 31
0.0
  0
LINE
  5
79
330
25
100
AcDbEntity
  8
1
  6
Continuous
 62
     0
100
AcDbLine
 10
11183.62378966969
 20
-305.31634051038
 30
0.0
 11
11184.9178848952
 21
-300.486711378935
 31
0.0
  0
LINE
  5
78
330
25
100
AcDbEntity
  8
1
  6
Continuous
 62
     0
100
AcDbLine
 10
11154.64601488102
 20
-297.551769157305
 30
0.0
 11
11155.94011010653
 21
-292.722140025859
 31
0.0
  0
LINE
  5
77
330
25
100
AcDbEntity
  8
1
  6
Continuous
 62
     0
100
AcDbLine
 10
11168.22269510919
 20
-284.625210773779
 30
0.0
 11
11180.99565039186
 21
-288.047713826727
 31
0.0
  0
LINE
  5
76
330
25
100
AcDbEntity
  8
1
  6
Continuous
 62
     0
100
AcDbLine
 10
11186.18820973864
 20
-291.901261742628
 30
0.0
 11
11185.10790014916
 21
-299.20249939063
 31
0.0
  0
LINE
  5
75
330
25
100
AcDbEntity
  8
1
  6
Continuous
 62
     0
100
AcDbLine
 10
11156.62412070499
 20
-290.993066370792
 30
0.0
 11
11159.1327013392
 21
-284.651760116184
 31
0.0
  0
LINE
  5
74
330
25
100
AcDbEntity
  8
1
  6
Continuous
 62
     0
100
AcDbLine
 10
11155.94011010653
 20
-292.722140025859
 30
0.0
 11
11184.9178848952
 21
-300.486711378935
 31
0.0
  0
LINE
  5
73
330
25
100
AcDbEntity
  8
1
  6
Continuous
 62
     0
100
AcDbLine
 10
10437.09547179254
 20
-2317.129811676175
 30
0.0
 11
10437.09547179254
 21
-2117.129811676175
 31
0.0
  0
LINE
  5
72
330
25
100
AcDbEntity
  8
1
  6
Continuous
 62
     0
100
AcDbLine
 10
13716.4911381563
 20
-244.053805878641
 30
0.0
 11
13716.4911381563
 21
-295.400697658805
 31
0.0
  0
LINE
  5
71
330
25
100
AcDbEntity
  8
1
  6
Continuous
 62
     0
100
AcDbLine
 10
13703.9911381563
 20
-244.053805878641
 30
0.0
 11
13703.9911381563
 21
-295.400697658805
 31
0.0
  0
LINE
  5
70
330
25
100
AcDbEntity
  8
1
  6
Continuous
 62
     0
100
AcDbLine
 10
13697.1247711741
 20
-287.559076793049
 30
0.0
 11
13695.2411381563
 21
-301.433987114596
 31
0.0
  0
LINE
  5
6F
330
25
100
AcDbEntity
  8
1
  6
Continuous
 62
     0
100
AcDbLine
 10
13723.28188683146
 20
-287.558752183385
 30
0.0
 11
13725.2411381563
 21
-301.433987114555
 31
0.0
  0
LINE
  5
6C
330
25
100
AcDbEntity
  8
1
  6
Continuous
 62
     0
100
AcDbLine
 10
10571.09547179254
 20
-2463.979743075623
 30
0.0
 11
11271.09547179254
 21
-2463.979743075623
 31
0.0
  0
LINE
  5
6B
330
25
100
AcDbEntity
  8
1
  6
Continuous
 62
     0
100
AcDbLine
 10
13360.2411381563
 20
-2463.979743075623
 30
0.0
 11
14060.2411381563
 21
-2463.979743075623
 31
0.0
  0
LINE
  5
6A
330
25
100
AcDbEntity
  8
1
  6
Continuous
 62
     0
100
AcDbLine
 10
14060.2411381563
 20
-2530.129811676175
 30
0.0
 11
14060.2411381563
 21
-2463.979743075623
 31
0.0
  0
LINE
  5
69
330
25
100
AcDbEntity
  8
1
  6
Continuous
 62
     0
100
AcDbLine
 10
13376.00821623498
 20
-2600.724885739821
 30
0.0
 11
13376.00821623498
 21
-2821.129811676175
 31
0.0
  0
LINE
  5
68
330
25
100
AcDbEntity
  8
1
  6
Continuous
 62
     0
100
AcDbLine
 10
13376.00821623498
 20
-2600.724885739821
 30
0.0
 11
13376.00821623498
 21
-2821.129811676175
 31
0.0
  0
LINE
  5
67
330
25
100
AcDbEntity
  8
1
  6
Continuous
 62
     0
100
AcDbLine
 10
13360.2411381563
 20
-2463.979743075623
 30
0.0
 11
13360.2411381563
 21
-2530.129811676175
 31
0.0
  0
LINE
  5
66
330
25
100
AcDbEntity
  8
1
  6
Continuous
 62
     0
100
AcDbLine
 10
14060.2411381563
 20
-2530.129811676175
 30
0.0
 11
14060.2411381563
 21
-2463.979743075623
 31
0.0
  0
LINE
  5
65
330
25
100
AcDbEntity
  8
1
  6
Continuous
 62
     0
100
AcDbLine
 10
14044.47406007763
 20
-2821.129811676175
 30
0.0
 11
14044.47406007763
 21
-2600.724885739821
 31
0.0
  0
LINE
  5
4F
330
25
100
AcDbEntity
  8
1
  6
Continuous
 62
     0
100
AcDbLine
 10
10930.01318631536
 20
-4405.626852993391
 30
0.0
 11
10930.01318631536
 21
-4408.626852993391
 31
0.0
  0
LINE
  5
4E
330
25
100
AcDbEntity
  8
1
  6
Continuous
 62
     0
100
AcDbLine
 10
10931.01318631536
 20
-4408.626852993391
 30
0.0
 11
10931.01318631536
 21
-4412.626852993391
 31
0.0
  0
LINE
  5
4D
330
25
100
AcDbEntity
  8
1
  6
Continuous
 62
     0
100
AcDbLine
 10
10931.15677985481
 20
-4412.626852993391
 30
0.0
 11
10931.15677985481
 21
-4421.555056223665
 31
0.0
  0
LINE
  5
4C
330
25
100
AcDbEntity
  8
1
  6
Continuous
 62
     0
100
AcDbLine
 10
10931.15677985481
 20
-4421.555056223665
 30
0.0
 11
10933.01318631536
 21
-4422.626852993391
 31
0.0
  0
LINE
  5
4B
330
25
100
AcDbEntity
  8
1
  6
Continuous
 62
     0
100
AcDbLine
 10
10909.17775726972
 20
-4422.626852993391
 30
0.0
 11
10911.03416373027
 21
-4421.555056223665
 31
0.0
  0
LINE
  5
4A
330
25
100
AcDbEntity
  8
1
  6
Continuous
 62
     0
100
AcDbLine
 10
10911.03416373027
 20
-4421.555056223665
 30
0.0
 11
10911.03416373027
 21
-4412.626852993391
 31
0.0
  0
LINE
  5
49
330
25
100
AcDbEntity
  8
1
  6
Continuous
 62
     0
100
AcDbLine
 10
10911.17775726972
 20
-4412.626852993391
 30
0.0
 11
10911.17775726972
 21
-4408.626852993391
 31
0.0
  0
LINE
  5
48
330
25
100
AcDbEntity
  8
1
  6
Continuous
 62
     0
100
AcDbLine
 10
10912.17775726972
 20
-4408.626852993391
 30
0.0
 11
10912.17775726972
 21
-4405.626852993391
 31
0.0
  0
LINE
  5
47
330
25
100
AcDbEntity
  8
1
  6
Continuous
 62
     0
100
AcDbLine
 10
10921.09547179254
 20
-4422.62685299339
 30
0.0
 11
10934.59547179254
 21
-4422.62685299339
 31
0.0
  0
LINE
  5
46
330
25
100
AcDbEntity
  8
1
  6
Continuous
 62
     0
100
AcDbLine
 10
10930.01318631536
 20
-4405.626852993391
 30
0.0
 11
10930.01318631536
 21
-4408.626852993391
 31
0.0
  0
LINE
  5
45
330
25
100
AcDbEntity
  8
1
  6
Continuous
 62
     0
100
AcDbLine
 10
10931.01318631536
 20
-4408.626852993391
 30
0.0
 11
10931.01318631536
 21
-4412.626852993391
 31
0.0
  0
LINE
  5
44
330
25
100
AcDbEntity
  8
1
  6
Continuous
 62
     0
100
AcDbLine
 10
10931.15677985481
 20
-4412.626852993391
 30
0.0
 11
10931.15677985481
 21
-4421.555056223665
 31
0.0
  0
LINE
  5
43
330
25
100
AcDbEntity
  8
1
  6
Continuous
 62
     0
100
AcDbLine
 10
10931.15677985481
 20
-4421.555056223665
 30
0.0
 11
10933.01318631536
 21
-4422.626852993391
 31
0.0
  0
LINE
  5
42
330
25
100
AcDbEntity
  8
1
  6
Continuous
 62
     0
100
AcDbLine
 10
10909.17775726972
 20
-4422.626852993391
 30
0.0
 11
10911.03416373027
 21
-4421.555056223665
 31
0.0
  0
LINE
  5
41
330
25
100
AcDbEntity
  8
1
  6
Continuous
 62
     0
100
AcDbLine
 10
10911.03416373027
 20
-4421.555056223665
 30
0.0
 11
10911.03416373027
 21
-4412.626852993391
 31
0.0
  0
LINE
  5
40
330
25
100
AcDbEntity
  8
1
  6
Continuous
 62
     0
100
AcDbLine
 10
10911.17775726972
 20
-4412.626852993391
 30
0.0
 11
10911.17775726972
 21
-4408.626852993391
 31
0.0
  0
LINE
  5
3F
330
25
100
AcDbEntity
  8
1
  6
Continuous
 62
     0
100
AcDbLine
 10
10912.17775726972
 20
-4408.626852993391
 30
0.0
 11
10912.17775726972
 21
-4405.626852993391
 31
0.0
  0
LINE
  5
3E
330
25
100
AcDbEntity
  8
1
  6
Continuous
 62
     0
100
AcDbLine
 10
10917.09547179254
 20
-4410.62685299339
 30
0.0
 11
10917.09547179254
 21
-4417.62685299339
 31
0.0
  0
LINE
  5
3D
330
25
100
AcDbEntity
  8
1
  6
Continuous
 62
     0
100
AcDbLine
 10
10925.09547179254
 20
-4417.62685299339
 30
0.0
 11
10925.09547179254
 21
-4410.62685299339
 31
0.0
  0
LINE
  5
3C
330
25
100
AcDbEntity
  8
1
  6
Continuous
 62
     0
100
AcDbLine
 10
10921.09547179254
 20
-4422.62685299339
 30
0.0
 11
10934.59547179254
 21
-4422.62685299339
 31
0.0
  0
LINE
  5
3B
330
25
100
AcDbEntity
  8
1
  6
Continuous
 62
     0
100
AcDbLine
 10
10916.52748070677
 20
-4419.62685299339
 30
0.0
 11
10911.03416373027
 21
-4419.62685299339
 31
0.0
  0
LINE
  5
3A
330
25
100
AcDbEntity
  8
1
  6
Continuous
 62
     0
100
AcDbLine
 10
10907.59547179254
 20
-4422.62685299339
 30
0.0
 11
10921.09547179254
 21
-4422.62685299339
 31
0.0
  0
LINE
  5
39
330
25
100
AcDbEntity
  8
1
  6
Continuous
 62
     0
100
AcDbLine
 10
10923.09547179254
 20
-4419.62685299339
 30
0.0
 11
10919.09547179254
 21
-4419.62685299339
 31
0.0
  0
LINE
  5
38
330
25
100
AcDbEntity
  8
1
  6
Continuous
 62
     0
100
AcDbLine
 10
10917.09547179254
 20
-4410.62685299339
 30
0.0
 11
10917.09547179254
 21
-4417.62685299339
 31
0.0
  0
LINE
  5
37
330
25
100
AcDbEntity
  8
1
  6
Continuous
 62
     0
100
AcDbLine
 10
10925.09547179254
 20
-4417.62685299339
 30
0.0
 11
10925.09547179254
 21
-4410.62685299339
 31
0.0
  0
LINE
  5
36
330
25
100
AcDbEntity
  8
1
  6
Continuous
 62
     0
100
AcDbLine
 10
10931.01318631536
 20
-4410.62685299339
 30
0.0
 11
10911.17775726972
 21
-4410.62685299339
 31
0.0
  0
LINE
  5
35
330
25
100
AcDbEntity
  8
1
  6
Continuous
 62
     0
100
AcDbLine
 10
10931.15677985481
 20
-4419.62685299339
 30
0.0
 11
10925.66346287831
 21
-4419.62685299339
 31
0.0
  0
LINE
  5
34
330
25
100
AcDbEntity
  8
1
  6
Continuous
 62
     0
100
AcDbLine
 10
10907.59547179254
 20
-4422.62685299339
 30
0.0
 11
10921.09547179254
 21
-4422.62685299339
 31
0.0
  0
LINE
  5
33
330
25
100
AcDbEntity
  8
1
  6
Continuous
 62
     0
100
AcDbLine
 10
10916.52748070677
 20
-4419.62685299339
 30
0.0
 11
10911.03416373027
 21
-4419.62685299339
 31
0.0
  0
LINE
  5
32
330
25
100
AcDbEntity
  8
1
  6
Continuous
 62
     0
100
AcDbLine
 10
10931.15677985481
 20
-4419.62685299339
 30
0.0
 11
10925.66346287831
 21
-4419.62685299339
 31
0.0
  0
LINE
  5
31
330
25
100
AcDbEntity
  8
1
  6
Continuous
 62
     0
100
AcDbLine
 10
10917.09547179254
 20
-4410.62685299339
 30
0.0
 11
10917.09547179254
 21
-4417.62685299339
 31
0.0
  0
LINE
  5
30
330
25
100
AcDbEntity
  8
1
  6
Continuous
 62
     0
100
AcDbLine
 10
10925.09547179254
 20
-4417.62685299339
 30
0.0
 11
10925.09547179254
 21
-4410.62685299339
 31
0.0
  0
LINE
  5
2F
330
25
100
AcDbEntity
  8
1
  6
Continuous
 62
     0
100
AcDbLine
 10
10923.09547179254
 20
-4419.62685299339
 30
0.0
 11
10919.09547179254
 21
-4419.62685299339
 31
0.0
  0
LINE
  5
2E
330
25
100
AcDbEntity
  8
1
  6
Continuous
 62
     0
100
AcDbLine
 10
10917.09547179254
 20
-4410.62685299339
 30
0.0
 11
10917.09547179254
 21
-4417.62685299339
 31
0.0
  0
LINE
  5
2D
330
25
100
AcDbEntity
  8
1
  6
Continuous
 62
     0
100
AcDbLine
 10
10925.09547179254
 20
-4417.62685299339
 30
0.0
 11
10925.09547179254
 21
-4410.62685299339
 31
0.0
  0
LINE
  5
2C
330
25
100
AcDbEntity
  8
1
  6
Continuous
 62
     0
100
AcDbLine
 10
10931.01318631536
 20
-4410.62685299339
 30
0.0
 11
10911.17775726972
 21
-4410.62685299339
 31
0.0
  0
POINT
  5
2B
330
25
100
AcDbEntity
  8
1
 62
     0
100
AcDbPoint
 10
10285.4369192256
 20
-1193.47098145806
 30
0.0
  0
POINT
  5
2A
330
25
100
AcDbEntity
  8
1
 62
     0
100
AcDbPoint
 10
11197.83022547667
 20
-237.626735202335
 30
0.0
  0
LINE
  5
F3D
330
25
100
AcDbEntity
  8
0
  6
Continuous
 62
     0
100
AcDbLine
 10
14194.2411381563
 20
-1050.760247354034
 30
0.0
 11
14194.2411381563
 21
-760.1298116761735
 31
0.0
  0
LINE
  5
F3E
330
25
100
AcDbEntity
  8
1
  6
Continuous
 62
     0
100
AcDbLine
 10
14209.2411381563
 20
-602.129811676175
 30
0.0
 11
14194.2411381563
 21
-602.129811676175
 31
0.0
  0
LINE
  5
F3F
330
25
100
AcDbEntity
  8
1
  6
Continuous
 62
     0
100
AcDbLine
 10
14209.2411381563
 20
-602.129811676175
 30
0.0
 11
14209.2411381563
 21
-760.129811676175
 31
0.0
  0
LINE
  5
F40
330
25
100
AcDbEntity
  8
1
  6
Continuous
 62
     0
100
AcDbLine
 10
14226.2411381563
 20
-611.387340894219
 30
0.0
 11
14225.16934138658
 21
-609.5309344336681
 31
0.0
  0
LINE
  5
F41
330
25
100
AcDbEntity
  8
1
  6
Continuous
 62
     0
100
AcDbLine
 10
14225.16934138658
 20
-637.2437473547711
 30
0.0
 11
14226.2411381563
 21
-635.387340894219
 31
0.0
  0
LINE
  5
F42
330
25
100
AcDbEntity
  8
1
  6
Continuous
 62
     0
100
AcDbLine
 10
14216.2411381563
 20
-637.2437473547711
 30
0.0
 11
14225.16934138658
 21
-637.2437473547711
 31
0.0
  0
ARC
  5
F43
330
25
100
AcDbEntity
  8
1
  6
Continuous
 62
     0
100
AcDbCircle
 10
14646.36358341179
 20
-681.129811676175
 30
0.0
 40
458.97244525549
100
AcDbArc
 50
170.088686020987
 51
189.9113139790128
  0
ARC
  5
F44
330
25
100
AcDbEntity
  8
1
  6
Continuous
 62
     0
100
AcDbCircle
 10
14203.31293492603
 20
-623.387340894219
 30
0.0
 40
22.928203230273
100
AcDbArc
 50
342.4120462260071
 51
17.58795377399285
  0
ARC
  5
F45
330
25
100
AcDbEntity
  8
1
  6
Continuous
 62
     0
100
AcDbCircle
 10
14203.31293492603
 20
-657.2120971533568
 30
0.0
 40
22.928203230273
100
AcDbArc
 50
342.4120462260063
 51
17.58795377399285
  0
ARC
  5
F46
330
25
100
AcDbEntity
  8
1
  6
Continuous
 62
     0
100
AcDbCircle
 10
14220.05279299542
 20
-646.802969996691
 30
0.0
 40
6.18836802561
100
AcDbArc
 50
325.7715041969287
 51
24.02067708104288
  0
ARC
  5
F47
330
25
100
AcDbEntity
  8
1
  6
Continuous
 62
     0
100
AcDbCircle
 10
14220.05279299542
 20
-633.7964680508849
 30
0.0
 40
6.188368025607
100
AcDbArc
 50
335.9793229189714
 51
34.2284958030599
  0
ARC
  5
F48
330
25
100
AcDbEntity
  8
1
  6
Continuous
 62
     0
100
AcDbCircle
 10
14220.05279299542
 20
-715.456653355659
 30
0.0
 40
6.188368025608
100
AcDbArc
 50
335.9793229189551
 51
34.22849580307209
  0
ARC
  5
F49
330
25
100
AcDbEntity
  8
1
  6
Continuous
 62
     0
100
AcDbCircle
 10
14203.31293492603
 20
-705.0475261989932
 30
0.0
 40
22.928203230274
100
AcDbArc
 50
342.4120462260025
 51
17.58795377399637
  0
ARC
  5
F4A
330
25
100
AcDbEntity
  8
1
  6
Continuous
 62
     0
100
AcDbCircle
 10
14203.31293492603
 20
-738.87228245813
 30
0.0
 40
22.928203230273
100
AcDbArc
 50
342.4120462260071
 51
17.58795377399285
  0
ARC
  5
F4B
330
25
100
AcDbEntity
  8
1
  6
Continuous
 62
     0
100
AcDbCircle
 10
14220.05279299542
 20
-667.6212243100231
 30
0.0
 40
6.188368025607
100
AcDbArc
 50
335.9793229189714
 51
34.2284958030599
  0
ARC
  5
F4C
330
25
100
AcDbEntity
  8
1
  6
Continuous
 62
     0
100
AcDbCircle
 10
14220.05279299542
 20
-612.9782137375528
 30
0.0
 40
6.18836802561
100
AcDbArc
 50
325.7715041969287
 51
24.02067708104192
  0
ARC
  5
F4D
330
25
100
AcDbEntity
  8
1
  6
Continuous
 62
     0
100
AcDbCircle
 10
14220.05279299542
 20
-749.2814096147958
 30
0.0
 40
6.188368025607
100
AcDbArc
 50
335.9793229189714
 51
34.2284958030599
  0
LINE
  5
F4E
330
25
100
AcDbEntity
  8
1
  6
Continuous
 62
     0
100
AcDbLine
 10
14199.2411381563
 20
-602.129811676175
 30
0.0
 11
14199.2411381563
 21
-760.129811676175
 31
0.0
  0
ARC
  5
F4F
330
25
100
AcDbEntity
  8
1
  6
Continuous
 62
     0
100
AcDbCircle
 10
14220.05279299542
 20
-694.6383990423269
 30
0.0
 40
6.18836802561
100
AcDbArc
 50
325.7715041969287
 51
24.02067708104288
  0
ARC
  5
F50
330
25
100
AcDbEntity
  8
1
  6
Continuous
 62
     0
100
AcDbCircle
 10
14220.05279299542
 20
-728.4631553014642
 30
0.0
 40
6.18836802561
100
AcDbArc
 50
325.7715041969287
 51
24.02067708104288
  0
LINE
  5
F52
330
25
100
AcDbEntity
  8
1
  6
Continuous
 62
     0
100
AcDbLine
 10
14209.2411381563
 20
-760.129811676175
 30
0.0
 11
14194.2411381563
 21
-760.129811676175
 31
0.0
  0
LINE
  5
F53
330
25
100
AcDbEntity
  8
1
  6
Continuous
 62
     0
100
AcDbLine
 10
14216.2411381563
 20
-621.3111504180288
 30
0.0
 11
14212.2411381563
 21
-622.4540075608861
 31
0.0
  0
LINE
  5
F54
330
25
100
AcDbEntity
  8
1
  6
Continuous
 62
     0
100
AcDbLine
 10
14212.2411381563
 20
-638.387340894219
 30
0.0
 11
14212.2411381563
 21
-608.387340894219
 31
0.0
  0
LINE
  5
F55
330
25
100
AcDbEntity
  8
1
  6
Continuous
 62
     0
100
AcDbLine
 10
14212.2411381563
 20
-672.2120971533568
 30
0.0
 11
14212.2411381563
 21
-642.2120971533568
 31
0.0
  0
LINE
  5
F56
330
25
100
AcDbEntity
  8
1
  6
Continuous
 62
     0
100
AcDbLine
 10
14212.2411381563
 20
-637.387340894219
 30
0.0
 11
14216.2411381563
 21
-637.387340894219
 31
0.0
  0
LINE
  5
F57
330
25
100
AcDbEntity
  8
1
  6
Continuous
 62
     0
100
AcDbLine
 10
14216.2411381563
 20
-609.387340894219
 30
0.0
 11
14212.2411381563
 21
-609.387340894219
 31
0.0
  0
LINE
  5
F59
330
25
100
AcDbEntity
  8
1
  6
Continuous
 62
     0
100
AcDbLine
 10
14216.2411381563
 20
-655.1359066771661
 30
0.0
 11
14212.2411381563
 21
-656.278763820023
 31
0.0
  0
LINE
  5
F5A
330
25
100
AcDbEntity
  8
1
  6
Continuous
 62
     0
100
AcDbLine
 10
14212.2411381563
 20
-671.2120971533568
 30
0.0
 11
14216.2411381563
 21
-671.2120971533568
 31
0.0
  0
LINE
  5
F5B
330
25
100
AcDbEntity
  8
1
  6
Continuous
 62
     0
100
AcDbLine
 10
14216.2411381563
 20
-624.320674227552
 30
0.0
 11
14212.2411381563
 21
-625.4635313704098
 31
0.0
  0
LINE
  5
F5C
330
25
100
AcDbEntity
  8
1
  6
Continuous
 62
     0
100
AcDbLine
 10
14216.2411381563
 20
-650.2838939230819
 30
0.0
 11
14225.16934138658
 21
-650.2838939230819
 31
0.0
  0
LINE
  5
F5D
330
25
100
AcDbEntity
  8
1
  6
Continuous
 62
     0
100
AcDbLine
 10
14216.2411381563
 20
-664.1403003836322
 30
0.0
 11
14225.16934138658
 21
-664.1403003836322
 31
0.0
  0
LINE
  5
F5E
330
25
100
AcDbEntity
  8
1
  6
Continuous
 62
     0
100
AcDbLine
 10
14225.16934138658
 20
-643.3556906928052
 30
0.0
 11
14216.2411381563
 21
-643.3556906928052
 31
0.0
  0
LINE
  5
F5F
330
25
100
AcDbEntity
  8
1
  6
Continuous
 62
     0
100
AcDbLine
 10
14216.2411381563
 20
-630.315544124494
 30
0.0
 11
14225.16934138658
 21
-630.315544124494
 31
0.0
  0
LINE
  5
F60
330
25
100
AcDbEntity
  8
1
  6
Continuous
 62
     0
100
AcDbLine
 10
14225.16934138658
 20
-609.5309344336681
 30
0.0
 11
14216.2411381563
 21
-609.5309344336681
 31
0.0
  0
LINE
  5
F61
330
25
100
AcDbEntity
  8
1
  6
Continuous
 62
     0
100
AcDbLine
 10
14216.2411381563
 20
-616.4591376639441
 30
0.0
 11
14225.16934138658
 21
-616.4591376639441
 31
0.0
  0
LINE
  5
F62
330
25
100
AcDbEntity
  8
1
  6
Continuous
 62
     0
100
AcDbLine
 10
14216.2411381563
 20
-637.387340894219
 30
0.0
 11
14216.2411381563
 21
-609.387340894219
 31
0.0
  0
LINE
  5
F63
330
25
100
AcDbEntity
  8
1
  6
Continuous
 62
     0
100
AcDbLine
 10
14226.2411381563
 20
-635.387340894219
 30
0.0
 11
14226.2411381563
 21
-611.387340894219
 31
0.0
  0
LINE
  5
F64
330
25
100
AcDbEntity
  8
1
  6
Continuous
 62
     0
100
AcDbLine
 10
14209.2411381563
 20
-638.387340894219
 30
0.0
 11
14212.2411381563
 21
-638.387340894219
 31
0.0
  0
LINE
  5
F65
330
25
100
AcDbEntity
  8
1
  6
Continuous
 62
     0
100
AcDbLine
 10
14212.2411381563
 20
-608.387340894219
 30
0.0
 11
14209.2411381563
 21
-608.387340894219
 31
0.0
  0
LINE
  5
F66
330
25
100
AcDbEntity
  8
1
  6
Continuous
 62
     0
100
AcDbLine
 10
14209.2411381563
 20
-608.387340894219
 30
0.0
 11
14209.2411381563
 21
-638.387340894219
 31
0.0
  0
LINE
  5
F67
330
25
100
AcDbEntity
  8
1
  6
Continuous
 62
     0
100
AcDbLine
 10
14209.2411381563
 20
-642.2120971533568
 30
0.0
 11
14209.2411381563
 21
-672.2120971533568
 31
0.0
  0
LINE
  5
F68
330
25
100
AcDbEntity
  8
1
  6
Continuous
 62
     0
100
AcDbLine
 10
14212.2411381563
 20
-642.2120971533568
 30
0.0
 11
14209.2411381563
 21
-642.2120971533568
 31
0.0
  0
LINE
  5
F69
330
25
100
AcDbEntity
  8
1
  6
Continuous
 62
     0
100
AcDbLine
 10
14209.2411381563
 20
-672.2120971533568
 30
0.0
 11
14212.2411381563
 21
-672.2120971533568
 31
0.0
  0
LINE
  5
F6B
330
25
100
AcDbEntity
  8
1
  6
Continuous
 62
     0
100
AcDbLine
 10
14216.2411381563
 20
-643.2120971533568
 30
0.0
 11
14212.2411381563
 21
-643.2120971533568
 31
0.0
  0
LINE
  5
F6C
330
25
100
AcDbEntity
  8
1
  6
Continuous
 62
     0
100
AcDbLine
 10
14216.2411381563
 20
-658.1454304866902
 30
0.0
 11
14212.2411381563
 21
-659.2882876295471
 31
0.0
  0
LINE
  5
F6D
330
25
100
AcDbEntity
  8
1
  6
Continuous
 62
     0
100
AcDbLine
 10
14216.2411381563
 20
-671.2120971533568
 30
0.0
 11
14216.2411381563
 21
-643.2120971533568
 31
0.0
  0
LINE
  5
F6E
330
25
100
AcDbEntity
  8
1
  6
Continuous
 62
     0
100
AcDbLine
 10
14216.2411381563
 20
-691.0475261989932
 30
0.0
 11
14212.2411381563
 21
-691.0475261989932
 31
0.0
  0
LINE
  5
F6F
330
25
100
AcDbEntity
  8
1
  6
Continuous
 62
     0
100
AcDbLine
 10
14212.2411381563
 20
-719.0475261989932
 30
0.0
 11
14216.2411381563
 21
-719.0475261989932
 31
0.0
  0
LINE
  5
F70
330
25
100
AcDbEntity
  8
1
  6
Continuous
 62
     0
100
AcDbLine
 10
14212.2411381563
 20
-702.9713357228029
 30
0.0
 11
14216.2411381563
 21
-704.1141928656598
 31
0.0
  0
LINE
  5
F71
330
25
100
AcDbEntity
  8
1
  6
Continuous
 62
     0
100
AcDbLine
 10
14212.2411381563
 20
-705.980859532327
 30
0.0
 11
14216.2411381563
 21
-707.1237166751839
 31
0.0
  0
LINE
  5
F72
330
25
100
AcDbEntity
  8
1
  6
Continuous
 62
     0
100
AcDbLine
 10
14216.2411381563
 20
-718.9039326595439
 30
0.0
 11
14225.16934138658
 21
-718.9039326595439
 31
0.0
  0
LINE
  5
F73
330
25
100
AcDbEntity
  8
1
  6
Continuous
 62
     0
100
AcDbLine
 10
14226.2411381563
 20
-717.0475261989932
 30
0.0
 11
14226.2411381563
 21
-693.0475261989932
 31
0.0
  0
LINE
  5
F74
330
25
100
AcDbEntity
  8
1
  6
Continuous
 62
     0
100
AcDbLine
 10
14216.2411381563
 20
-671.068503613908
 30
0.0
 11
14225.16934138658
 21
-671.068503613908
 31
0.0
  0
LINE
  5
F75
330
25
100
AcDbEntity
  8
1
  6
Continuous
 62
     0
100
AcDbLine
 10
14226.2411381563
 20
-693.0475261989932
 30
0.0
 11
14225.16934138658
 21
-691.191119738442
 31
0.0
  0
LINE
  5
F76
330
25
100
AcDbEntity
  8
1
  6
Continuous
 62
     0
100
AcDbLine
 10
14226.2411381563
 20
-645.2120971533568
 30
0.0
 11
14225.16934138658
 21
-643.3556906928052
 31
0.0
  0
LINE
  5
F77
330
25
100
AcDbEntity
  8
1
  6
Continuous
 62
     0
100
AcDbLine
 10
14226.2411381563
 20
-669.2120971533568
 30
0.0
 11
14226.2411381563
 21
-645.2120971533568
 31
0.0
  0
LINE
  5
F78
330
25
100
AcDbEntity
  8
1
  6
Continuous
 62
     0
100
AcDbLine
 10
14225.16934138658
 20
-671.068503613908
 30
0.0
 11
14226.2411381563
 21
-669.2120971533568
 31
0.0
  0
LINE
  5
F79
330
25
100
AcDbEntity
  8
1
  6
Continuous
 62
     0
100
AcDbLine
 10
14225.16934138658
 20
-718.9039326595439
 30
0.0
 11
14226.2411381563
 21
-717.0475261989932
 31
0.0
  0
LINE
  5
F7A
330
25
100
AcDbEntity
  8
1
  6
Continuous
 62
     0
100
AcDbLine
 10
14225.16934138658
 20
-691.191119738442
 30
0.0
 11
14216.2411381563
 21
-691.191119738442
 31
0.0
  0
LINE
  5
F7B
330
25
100
AcDbEntity
  8
1
  6
Continuous
 62
     0
100
AcDbLine
 10
14225.16934138658
 20
-698.1193229687178
 30
0.0
 11
14216.2411381563
 21
-698.1193229687178
 31
0.0
  0
LINE
  5
F7C
330
25
100
AcDbEntity
  8
1
  6
Continuous
 62
     0
100
AcDbLine
 10
14225.16934138658
 20
-711.975729429269
 30
0.0
 11
14216.2411381563
 21
-711.975729429269
 31
0.0
  0
LINE
  5
F7D
330
25
100
AcDbEntity
  8
1
  6
Continuous
 62
     0
100
AcDbLine
 10
14216.2411381563
 20
-719.0475261989932
 30
0.0
 11
14216.2411381563
 21
-691.0475261989932
 31
0.0
  0
LINE
  5
F7E
330
25
100
AcDbEntity
  8
1
  6
Continuous
 62
     0
100
AcDbLine
 10
14216.2411381563
 20
-752.87228245813
 30
0.0
 11
14216.2411381563
 21
-724.87228245813
 31
0.0
  0
LINE
  5
F7F
330
25
100
AcDbEntity
  8
1
  6
Continuous
 62
     0
100
AcDbLine
 10
14212.2411381563
 20
-690.0475261989932
 30
0.0
 11
14209.2411381563
 21
-690.0475261989932
 31
0.0
  0
LINE
  5
F80
330
25
100
AcDbEntity
  8
1
  6
Continuous
 62
     0
100
AcDbLine
 10
14212.2411381563
 20
-753.87228245813
 30
0.0
 11
14212.2411381563
 21
-723.87228245813
 31
0.0
  0
LINE
  5
F81
330
25
100
AcDbEntity
  8
1
  6
Continuous
 62
     0
100
AcDbLine
 10
14212.2411381563
 20
-739.805615791463
 30
0.0
 11
14216.2411381563
 21
-740.9484729343199
 31
0.0
  0
LINE
  5
F82
330
25
100
AcDbEntity
  8
1
  6
Continuous
 62
     0
100
AcDbLine
 10
14226.2411381563
 20
-726.87228245813
 30
0.0
 11
14225.16934138658
 21
-725.0158759975789
 31
0.0
  0
LINE
  5
F83
330
25
100
AcDbEntity
  8
1
  6
Continuous
 62
     0
100
AcDbLine
 10
14225.16934138658
 20
-752.7286889186821
 30
0.0
 11
14226.2411381563
 21
-750.87228245813
 31
0.0
  0
LINE
  5
F84
330
25
100
AcDbEntity
  8
1
  6
Continuous
 62
     0
100
AcDbLine
 10
14216.2411381563
 20
-752.7286889186821
 30
0.0
 11
14225.16934138658
 21
-752.7286889186821
 31
0.0
  0
LINE
  5
F85
330
25
100
AcDbEntity
  8
1
  6
Continuous
 62
     0
100
AcDbLine
 10
14212.2411381563
 20
-720.0475261989932
 30
0.0
 11
14212.2411381563
 21
-690.0475261989932
 31
0.0
  0
LINE
  5
F86
330
25
100
AcDbEntity
  8
1
  6
Continuous
 62
     0
100
AcDbLine
 10
14209.2411381563
 20
-720.0475261989932
 30
0.0
 11
14212.2411381563
 21
-720.0475261989932
 31
0.0
  0
LINE
  5
F87
330
25
100
AcDbEntity
  8
1
  6
Continuous
 62
     0
100
AcDbLine
 10
14209.2411381563
 20
-690.0475261989932
 30
0.0
 11
14209.2411381563
 21
-720.0475261989932
 31
0.0
  0
LINE
  5
F88
330
25
100
AcDbEntity
  8
1
  6
Continuous
 62
     0
100
AcDbLine
 10
14226.2411381563
 20
-750.87228245813
 30
0.0
 11
14226.2411381563
 21
-726.87228245813
 31
0.0
  0
LINE
  5
F89
330
25
100
AcDbEntity
  8
1
  6
Continuous
 62
     0
100
AcDbLine
 10
14225.16934138658
 20
-745.8004856884049
 30
0.0
 11
14216.2411381563
 21
-745.8004856884049
 31
0.0
  0
LINE
  5
F8B
330
25
100
AcDbEntity
  8
1
  6
Continuous
 62
     0
100
AcDbLine
 10
14212.2411381563
 20
-736.7960919819402
 30
0.0
 11
14216.2411381563
 21
-737.9389491247971
 31
0.0
  0
LINE
  5
F8C
330
25
100
AcDbEntity
  8
1
  6
Continuous
 62
     0
100
AcDbLine
 10
14212.2411381563
 20
-752.87228245813
 30
0.0
 11
14216.2411381563
 21
-752.87228245813
 31
0.0
  0
LINE
  5
F8D
330
25
100
AcDbEntity
  8
1
  6
Continuous
 62
     0
100
AcDbLine
 10
14212.2411381563
 20
-723.87228245813
 30
0.0
 11
14209.2411381563
 21
-723.87228245813
 31
0.0
  0
LINE
  5
F8E
330
25
100
AcDbEntity
  8
1
  6
Continuous
 62
     0
100
AcDbLine
 10
14209.2411381563
 20
-723.87228245813
 30
0.0
 11
14209.2411381563
 21
-753.87228245813
 31
0.0
  0
LINE
  5
F90
330
25
100
AcDbEntity
  8
1
  6
Continuous
 62
     0
100
AcDbLine
 10
14216.2411381563
 20
-724.87228245813
 30
0.0
 11
14212.2411381563
 21
-724.87228245813
 31
0.0
  0
LINE
  5
F91
330
25
100
AcDbEntity
  8
1
  6
Continuous
 62
     0
100
AcDbLine
 10
14225.16934138658
 20
-731.9440792278551
 30
0.0
 11
14216.2411381563
 21
-731.9440792278551
 31
0.0
  0
LINE
  5
F92
330
25
100
AcDbEntity
  8
1
  6
Continuous
 62
     0
100
AcDbLine
 10
14209.2411381563
 20
-753.87228245813
 30
0.0
 11
14212.2411381563
 21
-753.87228245813
 31
0.0
  0
LINE
  5
F93
330
25
100
AcDbEntity
  8
1
  6
Continuous
 62
     0
100
AcDbLine
 10
14225.16934138658
 20
-725.0158759975789
 30
0.0
 11
14216.2411381563
 21
-725.0158759975789
 31
0.0
  0
LINE
  5
FA0
330
25
100
AcDbEntity
  8
0
  6
Continuous
 62
     0
100
AcDbLine
 10
14194.2411381563
 20
-481.129811676176
 30
0.0
 11
14194.2411381563
 21
-602.129811676176
 31
0.0
  0
ENDBLK
  5
4E2
330
25
100
AcDbEntity
  8
0
100
AcDbBlockEnd
  0
ENDSEC
  0
SECTION
  2
ENTITIES
  0
TEXT
  5
4E5
330
A
100
AcDbEntity
  8
1
 62
     0
100
AcDbText
 10
16490.27712890613
 20
-4366.656868680892
 30
0.0
 40
52.5
  1
SAT-1500C-100
 41
0.9
  7
CONVERTER_1
100
AcDbText
  0
INSERT
  5
29
330
A
100
AcDbEntity
  8
0
100
AcDbBlockReference
  2
SAT1500C100__1
 10
0.0
 20
0.0
 30
0.0
  0
VIEWPORT
  5
22C3
330
22BF
100
AcDbEntity
 67
     1
  8
0
100
AcDbViewport
 10
5.25
 20
3.5
 30
0.0
 40
11.55
 41
8.925
 68
     1
 69
     1
 12
5.25
 22
3.5
 13
0.0
 23
0.0
 14
0.5
 24
0.5
 15
0.0
 25
0.0
 16
0.0
 26
0.0
 36
1.0
 17
0.0
 27
0.0
 37
0.0
 42
50.0
 43
0.0
 44
0.0
 45
8.925
 50
0.0
 51
0.0
 72
   100
 90
   557152
  1

281
     0
 71
     1
 74
     0
110
0.0
120
0.0
130
0.0
111
1.0
121
0.0
131
0.0
112
0.0
122
1.0
132
0.0
 79
     0
146
0.0
170
     0
 61
     5
348
514
292
     1
282
     1
141
0.0
142
0.0
 63
   256
361
22C7
  0
VIEWPORT
  5
22C4
102
{ACAD_XDICTIONARY
360
22C5
102
}
330
22BF
100
AcDbEntity
 67
     1
  8
0
100
AcDbViewport
 10
5.25
 20
3.5
 30
0.0
 40
8.4
 41
5.600000000000001
 68
     2
 69
     2
 12
13655.60702406587
 22
-2330.126794097863
 13
0.0
 23
0.0
 14
0.5
 24
0.5
 15
0.0
 25
0.0
 16
0.0
 26
0.0
 36
1.0
 17
0.0
 27
0.0
 37
0.0
 42
50.0
 43
0.0
 44
0.0
 45
4583.43134258276
 50
0.0
 51
0.0
 72
   100
 90
   557152
  1

281
     0
 71
     1
 74
     0
110
0.0
120
0.0
130
0.0
111
1.0
121
0.0
131
0.0
112
0.0
122
1.0
132
0.0
 79
     0
146
0.0
170
     0
 61
     5
348
514
292
     1
282
     1
141
0.0
142
0.0
 63
   256
  0
ENDSEC
  0
SECTION
  2
OBJECTS
  0
DICTIONARY
  5
19
330
0
100
AcDbDictionary
281
     1
  3
ACAD_DETAILVIEWSTYLE
350
FA9
  3
ACAD_GROUP
350
1A
  3
ACAD_LAYOUT
350
50C
  3
ACAD_MATERIAL
350
528
  3
ACAD_MLEADERSTYLE
350
52E
  3
ACAD_MLINESTYLE
350
1B
  3
ACAD_PLOTSETTINGS
350
4E7
  3
ACAD_PLOTSTYLENAME
350
4E8
  3
ACAD_SCALELIST
350
4EA
  3
ACAD_SECTIONVIEWSTYLE
350
FAA
  3
ACAD_TABLESTYLE
350
52C
  3
ACAD_VISUALSTYLE
350
50F
  3
ACDB_RECOMPOSE_DATA
350
22CD
  3
AcDbVariableDictionary
350
FA1
  3
APPDATA
350
530
  0
SUN
  5
14B5
330
15
100
AcDbSun
 90
        1
290
     0
 63
     7
421
 16777215
 40
1.0
291
     1
 91
  2455826
 92
 54000000
292
     0
 70
     2
 71
   256
280
     1
  0
SUN
  5
22C7
330
22C3
100
AcDbSun
 90
        1
290
     0
 63
     7
421
 16777215
 40
1.0
291
     1
 91
  2455826
 92
 54000000
292
     0
 70
     2
 71
   256
280
     1
  0
DICTIONARY
  5
22C5
330
22C4
100
AcDbDictionary
280
     1
281
     1
  3
ASDK_XREC_ANNOTATION_SCALE_INFO
360
22C6
  0
DICTIONARY
  5
FA9
102
{ACAD_REACTORS
330
19
102
}
330
19
100
AcDbDictionary
281
     1
  0
DICTIONARY
  5
1A
102
{ACAD_REACTORS
330
19
102
}
330
19
100
AcDbDictionary
281
     1
  0
DICTIONARY
  5
50C
102
{ACAD_REACTORS
330
19
102
}
330
19
100
AcDbDictionary
281
     1
  3
Model
350
50D
  3
シート1
350
22C0
  0
DICTIONARY
  5
528
102
{ACAD_REACTORS
330
19
102
}
330
19
100
AcDbDictionary
281
     1
  3
ByBlock
350
52A
  3
ByLayer
350
529
  3
Global
350
52B
  0
DICTIONARY
  5
52E
102
{ACAD_REACTORS
330
19
102
}
330
19
100
AcDbDictionary
281
     1
  3
Standard
350
52F
  0
DICTIONARY
  5
1B
102
{ACAD_REACTORS
330
19
102
}
330
19
100
AcDbDictionary
281
     1
  3
STANDARD
350
1C
  0
DICTIONARY
  5
4E7
102
{ACAD_REACTORS
330
19
102
}
330
19
100
AcDbDictionary
281
     1
  0
ACDBDICTIONARYWDFLT
  5
4E8
102
{ACAD_REACTORS
330
19
102
}
330
19
100
AcDbDictionary
281
     1
  3
Normal
350
4E9
100
AcDbDictionaryWithDefault
340
4E9
  0
DICTIONARY
  5
4EA
102
{ACAD_REACTORS
330
19
102
}
330
19
100
AcDbDictionary
281
     1
  3
A0
350
4EB
  3
A1
350
4EC
  3
A2
350
4ED
  3
A3
350
4EE
  3
A4
350
4EF
  3
A5
350
4F0
  3
A6
350
4F1
  3
A7
350
4F2
  3
A8
350
4F3
  3
A9
350
4F4
  3
B0
350
4F5
  3
B1
350
4F6
  3
B2
350
4F7
  3
B3
350
4F8
  3
B4
350
4F9
  3
B5
350
4FA
  3
B6
350
4FB
  3
B7
350
4FC
  3
B8
350
4FD
  3
B9
350
4FE
  3
C0
350
4FF
  3
C1
350
500
  3
C2
350
501
  3
C3
350
502
  3
C4
350
503
  3
C5
350
504
  3
C6
350
505
  3
C7
350
506
  3
C8
350
507
  3
C9
350
508
  3
D0
350
509
  3
D1
350
50A
  3
D2
350
50B
  0
DICTIONARY
  5
FAA
102
{ACAD_REACTORS
330
19
102
}
330
19
100
AcDbDictionary
281
     1
  0
DICTIONARY
  5
52C
102
{ACAD_REACTORS
330
19
102
}
330
19
100
AcDbDictionary
281
     1
  3
Standard
350
52D
  0
DICTIONARY
  5
50F
102
{ACAD_REACTORS
330
19
102
}
330
19
100
AcDbDictionary
281
     1
  3
2dWireframe
350
514
  3
Basic
350
517
  3
Brighten
350
51B
  3
ColorChange
350
51F
  3
Conceptual
350
519
  3
Dim
350
51A
  3
EdgeColorOff
350
522
  3
Facepattern
350
51E
  3
Flat
350
510
  3
FlatWithEdges
350
511
  3
Gouraud
350
512
  3
GouraudWithEdges
350
513
  3
Hidden
350
516
  3
JitterOff
350
520
  3
Linepattern
350
51D
  3
OverhangOff
350
521
  3
Realistic
350
518
  3
Shaded
350
527
  3
Shaded with edges
350
526
  3
Shades of Gray
350
523
  3
Sketchy
350
524
  3
Thicken
350
51C
  3
Wireframe
350
515
  3
X-Ray
350
525
  0
XRECORD
  5
22CD
102
{ACAD_REACTORS
330
19
102
}
330
19
100
AcDbXrecord
280
     1
 90
        1
330
52D
  0
DICTIONARY
  5
FA1
102
{ACAD_REACTORS
330
19
102
}
330
19
100
AcDbDictionary
281
     1
  3
CANNOSCALE
350
FA2
  3
CMLEADERSTYLE
350
FA7
  3
CTABLESTYLE
350
FA6
  3
MSLTSCALE
350
FA8
  0
DICTIONARY
  5
530
102
{ACAD_REACTORS
330
19
102
}
330
19
100
AcDbDictionary
281
     1
  0
XRECORD
  5
22C6
102
{ACAD_REACTORS
330
22C5
102
}
330
22C5
100
AcDbXrecord
280
     1
 90
        1
340
4EB
  0
LAYOUT
  5
50D
102
{ACAD_REACTORS
330
50C
102
}
330
50C
100
AcDbPlotSettings
  1

  2
none_device
  4
Letter_(8.50_x_11.00_Inches)
  6

 40
6.35
 41
6.35
 42
6.35
 43
6.35
 44
215.9
 45
279.4
 46
0.0
 47
0.0
 48
0.0
 49
0.0
140
0.0
141
0.0
142
1.0
143
0.8722256190476192
 70
  1712
 72
     0
 73
     0
 74
     0
  7

 75
     0
 76
     0
 77
     2
 78
   300
147
1.146492350330064
148
-87.33095066012679
149
0.0000127000000131
100
AcDbLayout
  1
Model
 70
     1
 71
     0
 10
0.0
 20
0.0
 11
0.0
 21
0.0
 12
0.0
 22
0.0
 32
0.0
 14
10285.4369192256
 24
-4422.626875858115
 34
0.0
 15
17025.77712890613
 25
-237.626650913724
 35
0.0
146
0.0
 13
0.0
 23
0.0
 33
0.0
 16
1.0
 26
0.0
 36
0.0
 17
0.0
 27
1.0
 37
0.0
 76
     0
330
A
331
15
  0
LAYOUT
  5
22C0
102
{ACAD_REACTORS
330
50C
102
}
330
50C
100
AcDbPlotSettings
  1

  2
none_device
  4
ANSI_A_(11.00_x_8.50_Inches)
  6

 40
6.35
 41
19.05
 42
6.35
 43
19.05
 44
279.4
 45
215.9
 46
0.0
 47
0.0
 48
0.0
 49
0.0
140
0.0
141
0.0
142
1.0
143
1.0
 70
   688
 72
     0
 73
     0
 74
     5
  7

 75
    16
 76
     0
 77
     2
 78
   300
147
1.0
148
0.0
149
0.0
100
AcDbLayout
  1
シート1
 70
     1
 71
     1
 10
-0.25
 20
-0.7499999999999999
 11
10.75
 21
7.75
 12
0.0
 22
0.0
 32
0.0
 14
1.05
 24
0.6999999999999997
 34
0.0
 15
9.45
 25
6.300000000000001
 35
0.0
146
0.0
 13
0.0
 23
0.0
 33
0.0
 16
1.0
 26
0.0
 36
0.0
 17
0.0
 27
1.0
 37
0.0
 76
     0
330
22BF
331
22C3
  0
MATERIAL
  5
52A
102
{ACAD_REACTORS
330
528
102
}
330
528
100
AcDbMaterial
  1
ByBlock
 72
     1
 94
      127
  0
MATERIAL
  5
529
102
{ACAD_REACTORS
330
528
102
}
330
528
100
AcDbMaterial
  1
ByLayer
 72
     1
 94
      127
  0
MATERIAL
  5
52B
102
{ACAD_REACTORS
330
528
102
}
330
528
100
AcDbMaterial
  1
Global
 72
     1
 94
      127
  0
MLEADERSTYLE
  5
52F
102
{ACAD_REACTORS
330
52E
102
}
330
52E
100
AcDbMLeaderStyle
179
     2
170
     2
171
     1
172
     0
 90
        2
 40
0.0
 41
0.0
173
     1
 91
-1056964608
340
11
 92
       -2
290
     1
 42
0.09
291
     1
 43
0.36
  3
Standard
341
0
 44
0.18
300

342
17
174
     1
178
     1
175
     1
176
     0
 93
-1056964608
 45
0.18
292
     0
297
     0
 46
0.18
343
0
 94
-1056964608
 47
1.0
 49
1.0
140
1.0
293
     1
141
0.0
294
     1
177
     0
142
1.0
295
     0
296
     0
143
0.125
271
     0
272
     9
273
     9
298
     0
  0
MLINESTYLE
  5
1C
102
{ACAD_REACTORS
330
1B
102
}
330
1B
100
AcDbMlineStyle
  2
STANDARD
 70
     0
  3

 62
     0
 51
90.0
 52
90.0
 71
     2
 49
0.5
 62
   256
  6
BYLAYER
 49
-0.5
 62
   256
  6
BYLAYER
  0
ACDBPLACEHOLDER
  5
4E9
102
{ACAD_REACTORS
330
4E8
102
}
330
4E8
  0
SCALE
  5
4EB
102
{ACAD_REACTORS
330
4EA
102
}
330
4EA
100
AcDbScale
 70
     0
300
1:1
140
1.0
141
1.0
290
     1
  0
SCALE
  5
4EC
102
{ACAD_REACTORS
330
4EA
102
}
330
4EA
100
AcDbScale
 70
     0
300
1:2
140
1.0
141
2.0
290
     0
  0
SCALE
  5
4ED
102
{ACAD_REACTORS
330
4EA
102
}
330
4EA
100
AcDbScale
 70
     0
300
1:4
140
1.0
141
4.0
290
     0
  0
SCALE
  5
4EE
102
{ACAD_REACTORS
330
4EA
102
}
330
4EA
100
AcDbScale
 70
     0
300
1:5
140
1.0
141
5.0
290
     0
  0
SCALE
  5
4EF
102
{ACAD_REACTORS
330
4EA
102
}
330
4EA
100
AcDbScale
 70
     0
300
1:8
140
1.0
141
8.0
290
     0
  0
SCALE
  5
4F0
102
{ACAD_REACTORS
330
4EA
102
}
330
4EA
100
AcDbScale
 70
     0
300
1:10
140
1.0
141
10.0
290
     0
  0
SCALE
  5
4F1
102
{ACAD_REACTORS
330
4EA
102
}
330
4EA
100
AcDbScale
 70
     0
300
1:16
140
1.0
141
16.0
290
     0
  0
SCALE
  5
4F2
102
{ACAD_REACTORS
330
4EA
102
}
330
4EA
100
AcDbScale
 70
     0
300
1:20
140
1.0
141
20.0
290
     0
  0
SCALE
  5
4F3
102
{ACAD_REACTORS
330
4EA
102
}
330
4EA
100
AcDbScale
 70
     0
300
1:30
140
1.0
141
30.0
290
     0
  0
SCALE
  5
4F4
102
{ACAD_REACTORS
330
4EA
102
}
330
4EA
100
AcDbScale
 70
     0
300
1:40
140
1.0
141
40.0
290
     0
  0
SCALE
  5
4F5
102
{ACAD_REACTORS
330
4EA
102
}
330
4EA
100
AcDbScale
 70
     0
300
1:50
140
1.0
141
50.0
290
     0
  0
SCALE
  5
4F6
102
{ACAD_REACTORS
330
4EA
102
}
330
4EA
100
AcDbScale
 70
     0
300
1:100
140
1.0
141
100.0
290
     0
  0
SCALE
  5
4F7
102
{ACAD_REACTORS
330
4EA
102
}
330
4EA
100
AcDbScale
 70
     0
300
2:1
140
2.0
141
1.0
290
     0
  0
SCALE
  5
4F8
102
{ACAD_REACTORS
330
4EA
102
}
330
4EA
100
AcDbScale
 70
     0
300
4:1
140
4.0
141
1.0
290
     0
  0
SCALE
  5
4F9
102
{ACAD_REACTORS
330
4EA
102
}
330
4EA
100
AcDbScale
 70
     0
300
8:1
140
8.0
141
1.0
290
     0
  0
SCALE
  5
4FA
102
{ACAD_REACTORS
330
4EA
102
}
330
4EA
100
AcDbScale
 70
     0
300
10:1
140
10.0
141
1.0
290
     0
  0
SCALE
  5
4FB
102
{ACAD_REACTORS
330
4EA
102
}
330
4EA
100
AcDbScale
 70
     0
300
100:1
140
100.0
141
1.0
290
     0
  0
SCALE
  5
4FC
102
{ACAD_REACTORS
330
4EA
102
}
330
4EA
100
AcDbScale
 70
     0
300
1/128" = 1'-0"
140
0.0078125
141
12.0
290
     0
  0
SCALE
  5
4FD
102
{ACAD_REACTORS
330
4EA
102
}
330
4EA
100
AcDbScale
 70
     0
300
1/64" = 1'-0"
140
0.015625
141
12.0
290
     0
  0
SCALE
  5
4FE
102
{ACAD_REACTORS
330
4EA
102
}
330
4EA
100
AcDbScale
 70
     0
300
1/32" = 1'-0"
140
0.03125
141
12.0
290
     0
  0
SCALE
  5
4FF
102
{ACAD_REACTORS
330
4EA
102
}
330
4EA
100
AcDbScale
 70
     0
300
1/16" = 1'-0"
140
0.0625
141
12.0
290
     0
  0
SCALE
  5
500
102
{ACAD_REACTORS
330
4EA
102
}
330
4EA
100
AcDbScale
 70
     0
300
3/32" = 1'-0"
140
0.09375
141
12.0
290
     0
  0
SCALE
  5
501
102
{ACAD_REACTORS
330
4EA
102
}
330
4EA
100
AcDbScale
 70
     0
300
1/8" = 1'-0"
140
0.125
141
12.0
290
     0
  0
SCALE
  5
502
102
{ACAD_REACTORS
330
4EA
102
}
330
4EA
100
AcDbScale
 70
     0
300
3/16" = 1'-0"
140
0.1875
141
12.0
290
     0
  0
SCALE
  5
503
102
{ACAD_REACTORS
330
4EA
102
}
330
4EA
100
AcDbScale
 70
     0
300
1/4" = 1'-0"
140
0.25
141
12.0
290
     0
  0
SCALE
  5
504
102
{ACAD_REACTORS
330
4EA
102
}
330
4EA
100
AcDbScale
 70
     0
300
3/8" = 1'-0"
140
0.375
141
12.0
290
     0
  0
SCALE
  5
505
102
{ACAD_REACTORS
330
4EA
102
}
330
4EA
100
AcDbScale
 70
     0
300
1/2" = 1'-0"
140
0.5
141
12.0
290
     0
  0
SCALE
  5
506
102
{ACAD_REACTORS
330
4EA
102
}
330
4EA
100
AcDbScale
 70
     0
300
3/4" = 1'-0"
140
0.75
141
12.0
290
     0
  0
SCALE
  5
507
102
{ACAD_REACTORS
330
4EA
102
}
330
4EA
100
AcDbScale
 70
     0
300
1" = 1'-0"
140
1.0
141
12.0
290
     0
  0
SCALE
  5
508
102
{ACAD_REACTORS
330
4EA
102
}
330
4EA
100
AcDbScale
 70
     0
300
1-1/2" = 1'-0"
140
1.5
141
12.0
290
     0
  0
SCALE
  5
509
102
{ACAD_REACTORS
330
4EA
102
}
330
4EA
100
AcDbScale
 70
     0
300
3" = 1'-0"
140
3.0
141
12.0
290
     0
  0
SCALE
  5
50A
102
{ACAD_REACTORS
330
4EA
102
}
330
4EA
100
AcDbScale
 70
     0
300
6" = 1'-0"
140
6.0
141
12.0
290
     0
  0
SCALE
  5
50B
102
{ACAD_REACTORS
330
4EA
102
}
330
4EA
100
AcDbScale
 70
     0
300
1'-0" = 1'-0"
140
12.0
141
12.0
290
     0
  0
TABLESTYLE
  5
52D
102
{ACAD_REACTORS
330
52C
102
}
102
{ACAD_XDICTIONARY
360
22CB
102
}
330
52C
100
AcDbTableStyle
  3
Standard
 70
     0
 71
     0
 40
0.06
 41
0.06
280
     0
281
     0
  7
STANDARD
140
0.18
170
     2
 62
     0
 63
   257
283
     0
 90
        4
 91
        0
  1

274
    -2
284
     1
 64
     0
275
    -2
285
     1
 65
     0
276
    -2
286
     1
 66
     0
277
    -2
287
     1
 67
     0
278
    -2
288
     1
 68
     0
279
    -2
289
     1
 69
     0
  7
STANDARD
140
0.25
170
     5
 62
     0
 63
   257
283
     0
 90
        4
 91
        0
  1

274
    -2
284
     1
 64
     0
275
    -2
285
     1
 65
     0
276
    -2
286
     1
 66
     0
277
    -2
287
     1
 67
     0
278
    -2
288
     1
 68
     0
279
    -2
289
     1
 69
     0
  7
STANDARD
140
0.18
170
     5
 62
     0
 63
   257
283
     0
 90
        4
 91
        0
  1

274
    -2
284
     1
 64
     0
275
    -2
285
     1
 65
     0
276
    -2
286
     1
 66
     0
277
    -2
287
     1
 67
     0
278
    -2
288
     1
 68
     0
279
    -2
289
     1
 69
     0
  0
VISUALSTYLE
  5
514
102
{ACAD_REACTORS
330
50F
102
}
330
50F
100
AcDbVisualStyle
  2
2dWireframe
 70
     4
177
     3
291
     0
 70
    58
 90
        0
176
     1
 90
        2
176
     1
 90
        0
176
     1
 90
        0
176
     1
 40
0.6
176
     1
 40
30.0
176
     1
 62
     7
420
 16777215
176
     1
 90
        1
176
     1
 90
        4
176
     1
 62
     7
176
     1
 62
   257
176
     1
 90
        1
176
     1
 90
        1
176
     1
 40
1.0
176
     1
 90
        0
176
     1
 62
   257
176
     1
 40
1.0
176
     1
 90
        1
176
     1
 90
        6
176
     1
 90
        2
176
     1
 62
     7
176
     1
 90
        5
176
     1
 90
        0
176
     1
 90
        0
176
     1
290
     0
176
     1
 90
        1
176
     1
 40
0.0
176
     1
 90
        0
176
     1
290
     1
176
     1
290
     1
176
     1
290
     0
176
     1
290
     0
176
     1
290
     0
176
     1
290
     0
176
     1
290
     0
176
     1
290
     0
176
     1
290
     0
176
     1
 90
       50
176
     1
 40
0.0
176
     1
 40
1.0
176
     1
 90
        0
176
     1
 62
    18
420
        0
176
     1
 90
       50
176
     1
 90
        3
176
     1
 62
     5
420
      255
176
     1
290
     0
176
     1
 90
       50
176
     1
 90
       50
176
     1
 90
       50
176
     1
290
     0
176
     1
 90
       50
176
     1
 62
   256
176
     0
 40
1.0
176
     0
 90
        2
176
     1
  1
strokes_ogs.tif
176
     1
290
     0
176
     1
 40
1.0
176
     1
 40
1.0
176
     1
  0
VISUALSTYLE
  5
517
102
{ACAD_REACTORS
330
50F
102
}
330
50F
100
AcDbVisualStyle
  2
Basic
 70
     7
177
     3
291
     1
 70
    58
 90
        1
176
     1
 90
        0
176
     1
 90
        1
176
     1
 90
        0
176
     1
 40
0.6
176
     1
 40
30.0
176
     1
 62
     7
420
 16777215
176
     1
 90
        0
176
     1
 90
        4
176
     1
 62
     7
176
     1
 62
   257
176
     1
 90
        1
176
     1
 90
        1
176
     1
 40
1.0
176
     1
 90
        8
176
     1
 62
     7
176
     1
 40
1.0
176
     1
 90
        1
176
     1
 90
        6
176
     1
 90
        2
176
     1
 62
     7
176
     1
 90
        5
176
     1
 90
        0
176
     1
 90
        0
176
     1
290
     0
176
     1
 90
        1
176
     1
 40
0.0
176
     1
 90
        0
176
     1
290
     0
176
     1
290
     1
176
     1
290
     1
176
     1
290
     0
176
     1
290
     0
176
     1
290
     0
176
     1
290
     0
176
     1
290
     0
176
     1
290
     0
176
     1
 90
       50
176
     1
 40
0.0
176
     1
 40
1.0
176
     1
 90
        0
176
     1
 62
    18
420
        0
176
     1
 90
       50
176
     1
 90
        3
176
     1
 62
     5
420
      255
176
     1
290
     0
176
     1
 90
       50
176
     1
 90
       50
176
     1
 90
       50
176
     1
290
     0
176
     1
 90
       50
176
     1
 62
   256
176
     0
 40
1.0
176
     0
 90
        2
176
     1
  1
strokes_ogs.tif
176
     1
290
     0
176
     1
 40
1.0
176
     1
 40
1.0
176
     1
  0
VISUALSTYLE
  5
51B
102
{ACAD_REACTORS
330
50F
102
}
330
50F
100
AcDbVisualStyle
  2
Brighten
 70
    12
177
     3
291
     1
 70
    58
 90
        2
176
     1
 90
        2
176
     1
 90
        0
176
     1
 90
        0
176
     1
 40
0.6
176
     1
 40
30.0
176
     1
 62
     7
420
 16777215
176
     1
 90
        1
176
     1
 90
        4
176
     1
 62
     7
176
     1
 62
   257
176
     1
 90
        1
176
     1
 90
        1
176
     1
 40
1.0
176
     1
 90
        8
176
     1
 62
     7
176
     1
 40
1.0
176
     1
 90
        1
176
     1
 90
        6
176
     1
 90
        2
176
     1
 62
     7
176
     1
 90
        5
176
     1
 90
        0
176
     1
 90
        0
176
     1
290
     0
176
     1
 90
        1
176
     1
 40
50.0
176
     1
 90
        0
176
     1
290
     0
176
     1
290
     1
176
     1
290
     1
176
     1
290
     0
176
     1
290
     0
176
     1
290
     0
176
     1
290
     0
176
     1
290
     0
176
     1
290
     0
176
     1
 90
       50
176
     1
 40
0.0
176
     1
 40
1.0
176
     1
 90
        0
176
     1
 62
    18
420
        0
176
     1
 90
       50
176
     1
 90
        3
176
     1
 62
     5
420
      255
176
     1
290
     0
176
     1
 90
       50
176
     1
 90
       50
176
     1
 90
       50
176
     1
290
     0
176
     1
 90
       50
176
     1
 62
   256
176
     0
 40
1.0
176
     0
 90
        2
176
     1
  1
strokes_ogs.tif
176
     1
290
     0
176
     1
 40
1.0
176
     1
 40
1.0
176
     1
  0
VISUALSTYLE
  5
51F
102
{ACAD_REACTORS
330
50F
102
}
330
50F
100
AcDbVisualStyle
  2
ColorChange
 70
    16
177
     3
291
     1
 70
    58
 90
        2
176
     1
 90
        2
176
     1
 90
        3
176
     1
 90
        0
176
     1
 40
0.6
176
     1
 40
30.0
176
     1
 62
     8
420
  8421504
176
     1
 90
        1
176
     1
 90
        4
176
     1
 62
     7
176
     1
 62
   257
176
     1
 90
        1
176
     1
 90
        1
176
     1
 40
1.0
176
     1
 90
        8
176
     1
 62
     8
420
  8421504
176
     1
 40
1.0
176
     1
 90
        1
176
     1
 90
        6
176
     1
 90
        2
176
     1
 62
     7
176
     1
 90
        5
176
     1
 90
        0
176
     1
 90
        0
176
     1
290
     0
176
     1
 90
        1
176
     1
 40
0.0
176
     1
 90
        0
176
     1
290
     0
176
     1
290
     1
176
     1
290
     1
176
     1
290
     0
176
     1
290
     0
176
     1
290
     0
176
     1
290
     0
176
     1
290
     0
176
     1
290
     0
176
     1
 90
       50
176
     1
 40
0.0
176
     1
 40
1.0
176
     1
 90
        0
176
     1
 62
    18
420
        0
176
     1
 90
       50
176
     1
 90
        3
176
     1
 62
     5
420
      255
176
     1
290
     0
176
     1
 90
       50
176
     1
 90
       50
176
     1
 90
       50
176
     1
290
     0
176
     1
 90
       50
176
     1
 62
   256
176
     0
 40
1.0
176
     0
 90
        2
176
     1
  1
strokes_ogs.tif
176
     1
290
     0
176
     1
 40
1.0
176
     1
 40
1.0
176
     1
  0
VISUALSTYLE
  5
519
102
{ACAD_REACTORS
330
50F
102
}
330
50F
100
AcDbVisualStyle
  2
Conceptual
 70
     9
177
     3
291
     0
 70
    58
 90
        3
176
     1
 90
        2
176
     1
 90
        0
176
     1
 90
        0
176
     1
 40
0.6
176
     1
 40
30.0
176
     1
 62
     7
420
 16777215
176
     1
 90
        2
176
     1
 90
        2
176
     1
 62
     7
176
     1
 62
   257
176
     1
 90
        1
176
     1
 90
        1
176
     1
 40
179.0
176
     1
 90
        8
176
     1
 62
     7
176
     1
 40
1.0
176
     1
 90
        1
176
     1
 90
        6
176
     1
 90
        2
176
     1
 62
     7
176
     1
 90
        3
176
     1
 90
        0
176
     1
 90
        0
176
     1
290
     0
176
     1
 90
        1
176
     1
 40
0.0
176
     1
 90
        0
176
     1
290
     0
176
     1
290
     1
176
     1
290
     1
176
     1
290
     0
176
     1
290
     0
176
     1
290
     0
176
     1
290
     0
176
     1
290
     0
176
     1
290
     0
176
     1
 90
       50
176
     1
 40
0.0
176
     1
 40
1.0
176
     1
 90
        0
176
     1
 62
    18
420
        0
176
     1
 90
       50
176
     1
 90
        3
176
     1
 62
     5
420
      255
176
     1
290
     0
176
     1
 90
       50
176
     1
 90
       50
176
     1
 90
       50
176
     1
290
     0
176
     1
 90
       50
176
     1
 62
   256
176
     0
 40
1.0
176
     0
 90
        2
176
     1
  1
strokes_ogs.tif
176
     1
290
     0
176
     1
 40
1.0
176
     1
 40
1.0
176
     1
  0
VISUALSTYLE
  5
51A
102
{ACAD_REACTORS
330
50F
102
}
330
50F
100
AcDbVisualStyle
  2
Dim
 70
    11
177
     3
291
     1
 70
    58
 90
        2
176
     1
 90
        2
176
     1
 90
        0
176
     1
 90
        0
176
     1
 40
0.6
176
     1
 40
30.0
176
     1
 62
     7
420
 16777215
176
     1
 90
        1
176
     1
 90
        4
176
     1
 62
     7
176
     1
 62
   257
176
     1
 90
        1
176
     1
 90
        1
176
     1
 40
1.0
176
     1
 90
        8
176
     1
 62
     7
176
     1
 40
1.0
176
     1
 90
        1
176
     1
 90
        6
176
     1
 90
        2
176
     1
 62
     7
176
     1
 90
        5
176
     1
 90
        0
176
     1
 90
        0
176
     1
290
     0
176
     1
 90
        1
176
     1
 40
-50.0
176
     1
 90
        0
176
     1
290
     0
176
     1
290
     1
176
     1
290
     1
176
     1
290
     0
176
     1
290
     0
176
     1
290
     0
176
     1
290
     0
176
     1
290
     0
176
     1
290
     0
176
     1
 90
       50
176
     1
 40
0.0
176
     1
 40
1.0
176
     1
 90
        0
176
     1
 62
    18
420
        0
176
     1
 90
       50
176
     1
 90
        3
176
     1
 62
     5
420
      255
176
     1
290
     0
176
     1
 90
       50
176
     1
 90
       50
176
     1
 90
       50
176
     1
290
     0
176
     1
 90
       50
176
     1
 62
   256
176
     0
 40
1.0
176
     0
 90
        2
176
     1
  1
strokes_ogs.tif
176
     1
290
     0
176
     1
 40
1.0
176
     1
 40
1.0
176
     1
  0
VISUALSTYLE
  5
522
102
{ACAD_REACTORS
330
50F
102
}
330
50F
100
AcDbVisualStyle
  2
EdgeColorOff
 70
    22
177
     3
291
     1
 70
    58
 90
        2
176
     0
 90
        2
176
     0
 90
        0
176
     0
 90
        0
176
     0
 40
0.6
176
     0
 40
30.0
176
     0
 62
     7
420
 16777215
176
     0
 90
        1
176
     0
 90
        4
176
     0
 62
     7
176
     0
 62
   257
176
     0
 90
        1
176
     0
 90
        1
176
     0
 40
1.0
176
     0
 90
        8
176
     2
 62
     7
176
     0
 40
1.0
176
     0
 90
        1
176
     0
 90
        6
176
     0
 90
        2
176
     0
 62
     7
176
     0
 90
        5
176
     0
 90
        0
176
     0
 90
        0
176
     0
290
     0
176
     0
 90
        1
176
     0
 40
0.0
176
     0
 90
        0
176
     0
290
     0
176
     0
290
     1
176
     0
290
     1
176
     0
290
     0
176
     0
290
     0
176
     0
290
     0
176
     0
290
     0
176
     0
290
     0
176
     0
290
     0
176
     0
 90
       50
176
     0
 40
0.0
176
     0
 40
1.0
176
     0
 90
        0
176
     0
 62
    18
420
        0
176
     0
 90
       50
176
     0
 90
        3
176
     0
 62
     5
420
      255
176
     0
290
     0
176
     0
 90
       50
176
     0
 90
       50
176
     0
 90
       50
176
     0
290
     0
176
     0
 90
       50
176
     0
 62
   256
176
     0
 40
1.0
176
     0
 90
        2
176
     0
  1
strokes_ogs.tif
176
     0
290
     0
176
     0
 40
1.0
176
     0
 40
1.0
176
     0
  0
VISUALSTYLE
  5
51E
102
{ACAD_REACTORS
330
50F
102
}
330
50F
100
AcDbVisualStyle
  2
Facepattern
 70
    15
177
     3
291
     1
 70
    58
 90
        2
176
     1
 90
        2
176
     1
 90
        0
176
     1
 90
        0
176
     1
 40
0.6
176
     1
 40
30.0
176
     1
 62
     7
420
 16777215
176
     1
 90
        1
176
     1
 90
        4
176
     1
 62
     7
176
     1
 62
   257
176
     1
 90
        1
176
     1
 90
        1
176
     1
 40
1.0
176
     1
 90
        8
176
     1
 62
     7
176
     1
 40
1.0
176
     1
 90
        1
176
     1
 90
        6
176
     1
 90
        2
176
     1
 62
     7
176
     1
 90
        5
176
     1
 90
        0
176
     1
 90
        0
176
     1
290
     0
176
     1
 90
        1
176
     1
 40
0.0
176
     1
 90
        0
176
     1
290
     0
176
     1
290
     1
176
     1
290
     1
176
     1
290
     0
176
     1
290
     0
176
     1
290
     0
176
     1
290
     0
176
     1
290
     0
176
     1
290
     0
176
     1
 90
       50
176
     1
 40
0.0
176
     1
 40
1.0
176
     1
 90
        0
176
     1
 62
    18
420
        0
176
     1
 90
       50
176
     1
 90
        3
176
     1
 62
     5
420
      255
176
     1
290
     0
176
     1
 90
       50
176
     1
 90
       50
176
     1
 90
       50
176
     1
290
     0
176
     1
 90
       50
176
     1
 62
   256
176
     0
 40
1.0
176
     0
 90
        2
176
     1
  1
strokes_ogs.tif
176
     1
290
     0
176
     1
 40
1.0
176
     1
 40
1.0
176
     1
  0
VISUALSTYLE
  5
510
102
{ACAD_REACTORS
330
50F
102
}
330
50F
100
AcDbVisualStyle
  2
Flat
 70
     0
177
     3
291
     1
 70
    58
 90
        2
176
     1
 90
        1
176
     1
 90
        1
176
     1
 90
        2
176
     1
 40
0.6
176
     1
 40
30.0
176
     1
 62
     7
420
 16777215
176
     1
 90
        0
176
     1
 90
        0
176
     1
 62
     7
176
     1
 62
   257
176
     1
 90
        1
176
     1
 90
        1
176
     1
 40
1.0
176
     1
 90
        8
176
     1
 62
     7
176
     1
 40
1.0
176
     1
 90
        1
176
     1
 90
        6
176
     1
 90
        2
176
     1
 62
     7
176
     1
 90
        5
176
     1
 90
        0
176
     1
 90
        0
176
     1
290
     0
176
     1
 90
       13
176
     1
 40
0.0
176
     1
 90
        0
176
     1
290
     0
176
     1
290
     1
176
     1
290
     1
176
     1
290
     0
176
     1
290
     0
176
     1
290
     0
176
     1
290
     0
176
     1
290
     0
176
     1
290
     0
176
     1
 90
       50
176
     1
 40
0.0
176
     1
 40
1.0
176
     1
 90
        0
176
     1
 62
    18
420
        0
176
     1
 90
       50
176
     1
 90
        3
176
     1
 62
     5
420
      255
176
     1
290
     0
176
     1
 90
       50
176
     1
 90
       50
176
     1
 90
       50
176
     1
290
     0
176
     1
 90
       50
176
     1
 62
   256
176
     0
 40
1.0
176
     0
 90
        2
176
     1
  1
strokes_ogs.tif
176
     1
290
     0
176
     1
 40
1.0
176
     1
 40
1.0
176
     1
  0
VISUALSTYLE
  5
511
102
{ACAD_REACTORS
330
50F
102
}
330
50F
100
AcDbVisualStyle
  2
FlatWithEdges
 70
     1
177
     3
291
     1
 70
    58
 90
        2
176
     1
 90
        1
176
     1
 90
        1
176
     1
 90
        2
176
     1
 40
0.6
176
     1
 40
30.0
176
     1
 62
     7
420
 16777215
176
     1
 90
        1
176
     1
 90
        0
176
     1
 62
     7
176
     1
 62
   257
176
     1
 90
        1
176
     1
 90
        1
176
     1
 40
1.0
176
     1
 90
        0
176
     1
 62
   257
176
     1
 40
1.0
176
     1
 90
        1
176
     1
 90
        6
176
     1
 90
        2
176
     1
 62
     7
176
     1
 90
        5
176
     1
 90
        0
176
     1
 90
        0
176
     1
290
     0
176
     1
 90
       13
176
     1
 40
0.0
176
     1
 90
        0
176
     1
290
     0
176
     1
290
     1
176
     1
290
     1
176
     1
290
     0
176
     1
290
     0
176
     1
290
     0
176
     1
290
     0
176
     1
290
     0
176
     1
290
     0
176
     1
 90
       50
176
     1
 40
0.0
176
     1
 40
1.0
176
     1
 90
        0
176
     1
 62
    18
420
        0
176
     1
 90
       50
176
     1
 90
        3
176
     1
 62
     5
420
      255
176
     1
290
     0
176
     1
 90
       50
176
     1
 90
       50
176
     1
 90
       50
176
     1
290
     0
176
     1
 90
       50
176
     1
 62
   256
176
     0
 40
1.0
176
     0
 90
        2
176
     1
  1
strokes_ogs.tif
176
     1
290
     0
176
     1
 40
1.0
176
     1
 40
1.0
176
     1
  0
VISUALSTYLE
  5
512
102
{ACAD_REACTORS
330
50F
102
}
330
50F
100
AcDbVisualStyle
  2
Gouraud
 70
     2
177
     3
291
     1
 70
    58
 90
        2
176
     1
 90
        2
176
     1
 90
        1
176
     1
 90
        2
176
     1
 40
0.6
176
     1
 40
30.0
176
     1
 62
     7
420
 16777215
176
     1
 90
        0
176
     1
 90
        0
176
     1
 62
     7
176
     1
 62
   257
176
     1
 90
        1
176
     1
 90
        1
176
     1
 40
1.0
176
     1
 90
        0
176
     1
 62
     7
176
     1
 40
1.0
176
     1
 90
        1
176
     1
 90
        6
176
     1
 90
        2
176
     1
 62
     7
176
     1
 90
        5
176
     1
 90
        0
176
     1
 90
        0
176
     1
290
     0
176
     1
 90
       13
176
     1
 40
0.0
176
     1
 90
        0
176
     1
290
     0
176
     1
290
     1
176
     1
290
     1
176
     1
290
     0
176
     1
290
     0
176
     1
290
     0
176
     1
290
     0
176
     1
290
     0
176
     1
290
     0
176
     1
 90
       50
176
     1
 40
0.0
176
     1
 40
1.0
176
     1
 90
        0
176
     1
 62
    18
420
        0
176
     1
 90
       50
176
     1
 90
        3
176
     1
 62
     5
420
      255
176
     1
290
     0
176
     1
 90
       50
176
     1
 90
       50
176
     1
 90
       50
176
     1
290
     0
176
     1
 90
       50
176
     1
 62
   256
176
     0
 40
1.0
176
     0
 90
        2
176
     1
  1
strokes_ogs.tif
176
     1
290
     0
176
     1
 40
1.0
176
     1
 40
1.0
176
     1
  0
VISUALSTYLE
  5
513
102
{ACAD_REACTORS
330
50F
102
}
330
50F
100
AcDbVisualStyle
  2
GouraudWithEdges
 70
     3
177
     3
291
     1
 70
    58
 90
        2
176
     1
 90
        2
176
     1
 90
        1
176
     1
 90
        2
176
     1
 40
0.6
176
     1
 40
30.0
176
     1
 62
     7
420
 16777215
176
     1
 90
        1
176
     1
 90
        0
176
     1
 62
     7
176
     1
 62
   257
176
     1
 90
        1
176
     1
 90
        1
176
     1
 40
1.0
176
     1
 90
        0
176
     1
 62
   257
176
     1
 40
1.0
176
     1
 90
        1
176
     1
 90
        6
176
     1
 90
        2
176
     1
 62
     7
176
     1
 90
        5
176
     1
 90
        0
176
     1
 90
        0
176
     1
290
     0
176
     1
 90
       13
176
     1
 40
0.0
176
     1
 90
        0
176
     1
290
     0
176
     1
290
     1
176
     1
290
     1
176
     1
290
     0
176
     1
290
     0
176
     1
290
     0
176
     1
290
     0
176
     1
290
     0
176
     1
290
     0
176
     1
 90
       50
176
     1
 40
0.0
176
     1
 40
1.0
176
     1
 90
        0
176
     1
 62
    18
420
        0
176
     1
 90
       50
176
     1
 90
        3
176
     1
 62
     5
420
      255
176
     1
290
     0
176
     1
 90
       50
176
     1
 90
       50
176
     1
 90
       50
176
     1
290
     0
176
     1
 90
       50
176
     1
 62
   256
176
     0
 40
1.0
176
     0
 90
        2
176
     1
  1
strokes_ogs.tif
176
     1
290
     0
176
     1
 40
1.0
176
     1
 40
1.0
176
     1
  0
VISUALSTYLE
  5
516
102
{ACAD_REACTORS
330
50F
102
}
330
50F
100
AcDbVisualStyle
  2
Hidden
 70
     6
177
     3
291
     0
 70
    58
 90
        1
176
     1
 90
        2
176
     1
 90
        2
176
     1
 90
        0
176
     1
 40
0.6
176
     1
 40
30.0
176
     1
 62
     7
420
 16777215
176
     1
 90
        2
176
     1
 90
        2
176
     1
 62
     7
176
     1
 62
   257
176
     1
 90
        2
176
     1
 90
        1
176
     1
 40
40.0
176
     1
 90
        0
176
     1
 62
   257
176
     1
 40
1.0
176
     1
 90
        1
176
     1
 90
        6
176
     1
 90
        2
176
     1
 62
     7
176
     1
 90
        3
176
     1
 90
        0
176
     1
 90
        0
176
     1
290
     0
176
     1
 90
        1
176
     1
 40
0.0
176
     1
 90
        0
176
     1
290
     0
176
     1
290
     1
176
     1
290
     1
176
     1
290
     0
176
     1
290
     0
176
     1
290
     0
176
     1
290
     0
176
     1
290
     0
176
     1
290
     0
176
     1
 90
       50
176
     1
 40
0.0
176
     1
 40
1.0
176
     1
 90
        0
176
     1
 62
    18
420
        0
176
     1
 90
       50
176
     1
 90
        3
176
     1
 62
     5
420
      255
176
     1
290
     0
176
     1
 90
       50
176
     1
 90
       50
176
     1
 90
       50
176
     1
290
     0
176
     1
 90
       50
176
     1
 62
   256
176
     0
 40
1.0
176
     0
 90
        2
176
     1
  1
strokes_ogs.tif
176
     1
290
     0
176
     1
 40
1.0
176
     1
 40
1.0
176
     1
  0
VISUALSTYLE
  5
520
102
{ACAD_REACTORS
330
50F
102
}
330
50F
100
AcDbVisualStyle
  2
JitterOff
 70
    20
177
     3
291
     1
 70
    58
 90
        2
176
     0
 90
        2
176
     0
 90
        0
176
     0
 90
        0
176
     0
 40
0.6
176
     0
 40
30.0
176
     0
 62
     7
420
 16777215
176
     0
 90
        1
176
     0
 90
        4
176
     0
 62
     7
176
     0
 62
   257
176
     0
 90
        1
176
     0
 90
        1
176
     0
 40
1.0
176
     0
 90
       10
176
     2
 62
     7
176
     0
 40
1.0
176
     0
 90
        1
176
     0
 90
        6
176
     0
 90
        2
176
     0
 62
     7
176
     0
 90
        5
176
     0
 90
        0
176
     0
 90
        0
176
     0
290
     0
176
     0
 90
        1
176
     0
 40
0.0
176
     0
 90
        0
176
     0
290
     0
176
     0
290
     1
176
     0
290
     1
176
     0
290
     0
176
     0
290
     0
176
     0
290
     0
176
     0
290
     0
176
     0
290
     0
176
     0
290
     0
176
     0
 90
       50
176
     0
 40
0.0
176
     0
 40
1.0
176
     0
 90
        0
176
     0
 62
    18
420
        0
176
     0
 90
       50
176
     0
 90
        3
176
     0
 62
     5
420
      255
176
     0
290
     0
176
     0
 90
       50
176
     0
 90
       50
176
     0
 90
       50
176
     0
290
     0
176
     0
 90
       50
176
     0
 62
   256
176
     0
 40
1.0
176
     0
 90
        2
176
     0
  1
strokes_ogs.tif
176
     0
290
     0
176
     0
 40
1.0
176
     0
 40
1.0
176
     0
  0
VISUALSTYLE
  5
51D
102
{ACAD_REACTORS
330
50F
102
}
330
50F
100
AcDbVisualStyle
  2
Linepattern
 70
    14
177
     3
291
     1
 70
    58
 90
        2
176
     1
 90
        2
176
     1
 90
        0
176
     1
 90
        0
176
     1
 40
0.6
176
     1
 40
30.0
176
     1
 62
     7
420
 16777215
176
     1
 90
        1
176
     1
 90
        4
176
     1
 62
     7
176
     1
 62
   257
176
     1
 90
        7
176
     1
 90
        7
176
     1
 40
1.0
176
     1
 90
        8
176
     1
 62
     7
176
     1
 40
1.0
176
     1
 90
        1
176
     1
 90
        6
176
     1
 90
        2
176
     1
 62
     7
176
     1
 90
        5
176
     1
 90
        0
176
     1
 90
        0
176
     1
290
     0
176
     1
 90
        1
176
     1
 40
0.0
176
     1
 90
        0
176
     1
290
     0
176
     1
290
     1
176
     1
290
     1
176
     1
290
     0
176
     1
290
     0
176
     1
290
     0
176
     1
290
     0
176
     1
290
     0
176
     1
290
     0
176
     1
 90
       50
176
     1
 40
0.0
176
     1
 40
1.0
176
     1
 90
        0
176
     1
 62
    18
420
        0
176
     1
 90
       50
176
     1
 90
        3
176
     1
 62
     5
420
      255
176
     1
290
     0
176
     1
 90
       50
176
     1
 90
       50
176
     1
 90
       50
176
     1
290
     0
176
     1
 90
       50
176
     1
 62
   256
176
     0
 40
1.0
176
     0
 90
        2
176
     1
  1
strokes_ogs.tif
176
     1
290
     0
176
     1
 40
1.0
176
     1
 40
1.0
176
     1
  0
VISUALSTYLE
  5
521
102
{ACAD_REACTORS
330
50F
102
}
330
50F
100
AcDbVisualStyle
  2
OverhangOff
 70
    21
177
     3
291
     1
 70
    58
 90
        2
176
     0
 90
        2
176
     0
 90
        0
176
     0
 90
        0
176
     0
 40
0.6
176
     0
 40
30.0
176
     0
 62
     7
420
 16777215
176
     0
 90
        1
176
     0
 90
        4
176
     0
 62
     7
176
     0
 62
   257
176
     0
 90
        1
176
     0
 90
        1
176
     0
 40
1.0
176
     0
 90
        9
176
     2
 62
     7
176
     0
 40
1.0
176
     0
 90
        1
176
     0
 90
        6
176
     0
 90
        2
176
     0
 62
     7
176
     0
 90
        5
176
     0
 90
        0
176
     0
 90
        0
176
     0
290
     0
176
     0
 90
        1
176
     0
 40
0.0
176
     0
 90
        0
176
     0
290
     0
176
     0
290
     1
176
     0
290
     1
176
     0
290
     0
176
     0
290
     0
176
     0
290
     0
176
     0
290
     0
176
     0
290
     0
176
     0
290
     0
176
     0
 90
       50
176
     0
 40
0.0
176
     0
 40
1.0
176
     0
 90
        0
176
     0
 62
    18
420
        0
176
     0
 90
       50
176
     0
 90
        3
176
     0
 62
     5
420
      255
176
     0
290
     0
176
     0
 90
       50
176
     0
 90
       50
176
     0
 90
       50
176
     0
290
     0
176
     0
 90
       50
176
     0
 62
   256
176
     0
 40
1.0
176
     0
 90
        2
176
     0
  1
strokes_ogs.tif
176
     0
290
     0
176
     0
 40
1.0
176
     0
 40
1.0
176
     0
  0
VISUALSTYLE
  5
518
102
{ACAD_REACTORS
330
50F
102
}
330
50F
100
AcDbVisualStyle
  2
Realistic
 70
     8
177
     3
291
     0
 70
    58
 90
        2
176
     1
 90
        3
176
     1
 90
        0
176
     1
 90
        2
176
     1
 40
0.6
176
     1
 40
30.0
176
     1
 62
     7
420
 16777215
176
     1
 90
        0
176
     1
 90
        0
176
     1
 62
     7
176
     1
 62
   257
176
     1
 90
        1
176
     1
 90
        1
176
     1
 40
1.0
176
     1
 90
        8
176
     1
 62
   257
176
     1
 40
1.0
176
     1
 90
        1
176
     1
 90
        6
176
     1
 90
        2
176
     1
 62
     7
176
     1
 90
        3
176
     1
 90
        0
176
     1
 90
        0
176
     1
290
     0
176
     1
 90
       13
176
     1
 40
0.0
176
     1
 90
        0
176
     1
290
     0
176
     1
290
     1
176
     1
290
     1
176
     1
290
     0
176
     1
290
     0
176
     1
290
     0
176
     1
290
     0
176
     1
290
     0
176
     1
290
     0
176
     1
 90
       50
176
     1
 40
0.0
176
     1
 40
1.0
176
     1
 90
        0
176
     1
 62
    18
420
        0
176
     1
 90
       50
176
     1
 90
        3
176
     1
 62
     5
420
      255
176
     1
290
     0
176
     1
 90
       50
176
     1
 90
       50
176
     1
 90
       50
176
     1
290
     0
176
     1
 90
       50
176
     1
 62
   256
176
     0
 40
1.0
176
     0
 90
        2
176
     1
  1
strokes_ogs.tif
176
     1
290
     0
176
     1
 40
1.0
176
     1
 40
1.0
176
     1
  0
VISUALSTYLE
  5
527
102
{ACAD_REACTORS
330
50F
102
}
330
50F
100
AcDbVisualStyle
  2
Shaded
 70
    27
177
     3
291
     0
 70
    58
 90
        2
176
     1
 90
        2
176
     1
 90
        1
176
     1
 90
        2
176
     1
 40
0.6
176
     1
 40
30.0
176
     1
 62
     7
420
 16777215
176
     1
 90
        0
176
     1
 90
        4
176
     1
 62
     7
176
     1
 62
   257
176
     1
 90
        1
176
     1
 90
        1
176
     1
 40
1.0
176
     1
 90
        8
176
     1
 62
   257
176
     1
 40
1.0
176
     1
 90
        1
176
     1
 90
        6
176
     1
 90
        2
176
     1
 62
     8
420
  7895160
176
     1
 90
        3
176
     1
 90
        0
176
     1
 90
        0
176
     1
290
     0
176
     1
 90
        5
176
     1
 40
0.0
176
     1
 90
        0
176
     1
290
     0
176
     1
290
     1
176
     1
290
     1
176
     1
290
     0
176
     1
290
     0
176
     1
290
     0
176
     1
290
     0
176
     1
290
     0
176
     1
290
     0
176
     1
 90
       50
176
     1
 40
0.0
176
     1
 40
1.0
176
     1
 90
        0
176
     1
 62
    18
420
        0
176
     1
 90
       50
176
     1
 90
        3
176
     1
 62
     5
420
      255
176
     1
290
     0
176
     1
 90
       50
176
     1
 90
       50
176
     1
 90
       50
176
     1
290
     0
176
     1
 90
       50
176
     1
 62
   256
176
     0
 40
1.0
176
     0
 90
        2
176
     1
  1
strokes_ogs.tif
176
     1
290
     0
176
     1
 40
1.0
176
     1
 40
1.0
176
     1
  0
VISUALSTYLE
  5
526
102
{ACAD_REACTORS
330
50F
102
}
330
50F
100
AcDbVisualStyle
  2
Shaded with edges
 70
    26
177
     3
291
     0
 70
    58
 90
        2
176
     1
 90
        2
176
     1
 90
        1
176
     1
 90
        2
176
     1
 40
0.6
176
     1
 40
30.0
176
     1
 62
     7
420
 16777215
176
     1
 90
        1
176
     1
 90
       10
176
     1
 62
     7
176
     1
 62
   257
176
     1
 90
        2
176
     1
 90
        1
176
     1
 40
1.0
176
     1
 90
        8
176
     1
 62
   257
176
     1
 40
1.0
176
     1
 90
        1
176
     1
 90
        6
176
     1
 90
        2
176
     1
 62
     7
176
     1
 90
        3
176
     1
 90
        0
176
     1
 90
        0
176
     1
290
     0
176
     1
 90
        5
176
     1
 40
0.0
176
     1
 90
        0
176
     1
290
     0
176
     1
290
     1
176
     1
290
     1
176
     1
290
     0
176
     1
290
     0
176
     1
290
     0
176
     1
290
     0
176
     1
290
     0
176
     1
290
     0
176
     1
 90
       50
176
     1
 40
0.0
176
     1
 40
1.0
176
     1
 90
        0
176
     1
 62
    18
420
        0
176
     1
 90
       50
176
     1
 90
        3
176
     1
 62
     5
420
      255
176
     1
290
     0
176
     1
 90
       50
176
     1
 90
       50
176
     1
 90
       50
176
     1
290
     0
176
     1
 90
       50
176
     1
 62
   256
176
     0
 40
1.0
176
     0
 90
        2
176
     1
  1
strokes_ogs.tif
176
     1
290
     0
176
     1
 40
1.0
176
     1
 40
1.0
176
     1
  0
VISUALSTYLE
  5
523
102
{ACAD_REACTORS
330
50F
102
}
330
50F
100
AcDbVisualStyle
  2
Shades of Gray
 70
    23
177
     3
291
     0
 70
    58
 90
        2
176
     1
 90
        2
176
     1
 90
        3
176
     1
 90
        0
176
     1
 40
0.6
176
     1
 40
30.0
176
     1
 62
     7
420
 16777215
176
     1
 90
        2
176
     1
 90
        2
176
     1
 62
     7
176
     1
 62
     7
176
     1
 90
        1
176
     1
 90
        1
176
     1
 40
40.0
176
     1
 90
        8
176
     1
 62
     7
176
     1
 40
1.0
176
     1
 90
        1
176
     1
 90
        6
176
     1
 90
        2
176
     1
 62
     7
176
     1
 90
        3
176
     1
 90
        0
176
     1
 90
        0
176
     1
290
     0
176
     1
 90
        1
176
     1
 40
0.0
176
     1
 90
        0
176
     1
290
     0
176
     1
290
     1
176
     1
290
     1
176
     1
290
     0
176
     1
290
     0
176
     1
290
     0
176
     1
290
     0
176
     1
290
     0
176
     1
290
     0
176
     1
 90
       50
176
     1
 40
0.0
176
     1
 40
1.0
176
     1
 90
        0
176
     1
 62
    18
420
        0
176
     1
 90
       50
176
     1
 90
        3
176
     1
 62
     5
420
      255
176
     1
290
     0
176
     1
 90
       50
176
     1
 90
       50
176
     1
 90
       50
176
     1
290
     0
176
     1
 90
       50
176
     1
 62
   256
176
     0
 40
1.0
176
     0
 90
        2
176
     1
  1
strokes_ogs.tif
176
     1
290
     0
176
     1
 40
1.0
176
     1
 40
1.0
176
     1
  0
VISUALSTYLE
  5
524
102
{ACAD_REACTORS
330
50F
102
}
330
50F
100
AcDbVisualStyle
  2
Sketchy
 70
    24
177
     3
291
     0
 70
    58
 90
        1
176
     1
 90
        2
176
     1
 90
        2
176
     1
 90
        0
176
     1
 40
0.6
176
     1
 40
30.0
176
     1
 62
     7
420
 16777215
176
     1
 90
        2
176
     1
 90
        2
176
     1
 62
     7
176
     1
 62
     7
176
     1
 90
        1
176
     1
 90
        1
176
     1
 40
40.0
176
     1
 90
       11
176
     1
 62
     7
176
     1
 40
1.0
176
     1
 90
        1
176
     1
 90
        6
176
     1
 90
        2
176
     1
 62
     7
176
     1
 90
        6
176
     1
 90
        0
176
     1
 90
        0
176
     1
290
     0
176
     1
 90
        1
176
     1
 40
0.0
176
     1
 90
        0
176
     1
290
     0
176
     1
290
     1
176
     1
290
     1
176
     1
290
     0
176
     1
290
     0
176
     1
290
     0
176
     1
290
     0
176
     1
290
     0
176
     1
290
     0
176
     1
 90
       50
176
     1
 40
0.0
176
     1
 40
1.0
176
     1
 90
        0
176
     1
 62
    18
420
        0
176
     1
 90
       50
176
     1
 90
        3
176
     1
 62
     5
420
      255
176
     1
290
     0
176
     1
 90
       50
176
     1
 90
       50
176
     1
 90
       50
176
     1
290
     0
176
     1
 90
       50
176
     1
 62
   256
176
     0
 40
1.0
176
     0
 90
        2
176
     1
  1
strokes_ogs.tif
176
     1
290
     0
176
     1
 40
1.0
176
     1
 40
1.0
176
     1
  0
VISUALSTYLE
  5
51C
102
{ACAD_REACTORS
330
50F
102
}
330
50F
100
AcDbVisualStyle
  2
Thicken
 70
    13
177
     3
291
     1
 70
    58
 90
        2
176
     1
 90
        2
176
     1
 90
        0
176
     1
 90
        0
176
     1
 40
0.6
176
     1
 40
30.0
176
     1
 62
     7
420
 16777215
176
     1
 90
        1
176
     1
 90
        4
176
     1
 62
     7
176
     1
 62
   257
176
     1
 90
        1
176
     1
 90
        1
176
     1
 40
1.0
176
     1
 90
       12
176
     1
 62
     7
176
     1
 40
1.0
176
     1
 90
        1
176
     1
 90
        6
176
     1
 90
        2
176
     1
 62
     7
176
     1
 90
        5
176
     1
 90
        0
176
     1
 90
        0
176
     1
290
     0
176
     1
 90
        1
176
     1
 40
0.0
176
     1
 90
        0
176
     1
290
     0
176
     1
290
     1
176
     1
290
     1
176
     1
290
     0
176
     1
290
     0
176
     1
290
     0
176
     1
290
     0
176
     1
290
     0
176
     1
290
     0
176
     1
 90
       50
176
     1
 40
0.0
176
     1
 40
1.0
176
     1
 90
        0
176
     1
 62
    18
420
        0
176
     1
 90
       50
176
     1
 90
        3
176
     1
 62
     5
420
      255
176
     1
290
     0
176
     1
 90
       50
176
     1
 90
       50
176
     1
 90
       50
176
     1
290
     0
176
     1
 90
       50
176
     1
 62
   256
176
     0
 40
1.0
176
     0
 90
        2
176
     1
  1
strokes_ogs.tif
176
     1
290
     0
176
     1
 40
1.0
176
     1
 40
1.0
176
     1
  0
VISUALSTYLE
  5
515
102
{ACAD_REACTORS
330
50F
102
}
330
50F
100
AcDbVisualStyle
  2
Wireframe
 70
     5
177
     3
291
     0
 70
    58
 90
        0
176
     1
 90
        2
176
     1
 90
        0
176
     1
 90
        0
176
     1
 40
0.6
176
     1
 40
30.0
176
     1
 62
     7
420
 16777215
176
     1
 90
        1
176
     1
 90
        4
176
     1
 62
     7
176
     1
 62
   257
176
     1
 90
        1
176
     1
 90
        1
176
     1
 40
1.0
176
     1
 90
        0
176
     1
 62
   257
176
     1
 40
1.0
176
     1
 90
        1
176
     1
 90
        6
176
     1
 90
        2
176
     1
 62
     7
176
     1
 90
        3
176
     1
 90
        0
176
     1
 90
        0
176
     1
290
     0
176
     1
 90
        1
176
     1
 40
0.0
176
     1
 90
        0
176
     1
290
     0
176
     1
290
     1
176
     1
290
     1
176
     1
290
     0
176
     1
290
     0
176
     1
290
     0
176
     1
290
     0
176
     1
290
     0
176
     1
290
     0
176
     1
 90
       50
176
     1
 40
0.0
176
     1
 40
1.0
176
     1
 90
        0
176
     1
 62
    18
420
        0
176
     1
 90
       50
176
     1
 90
        3
176
     1
 62
     5
420
      255
176
     1
290
     0
176
     1
 90
       50
176
     1
 90
       50
176
     1
 90
       50
176
     1
290
     0
176
     1
 90
       50
176
     1
 62
   256
176
     0
 40
1.0
176
     0
 90
        2
176
     1
  1
strokes_ogs.tif
176
     1
290
     0
176
     1
 40
1.0
176
     1
 40
1.0
176
     1
  0
VISUALSTYLE
  5
525
102
{ACAD_REACTORS
330
50F
102
}
330
50F
100
AcDbVisualStyle
  2
X-Ray
 70
    25
177
     3
291
     0
 70
    58
 90
        2
176
     1
 90
        2
176
     1
 90
        1
176
     1
 90
        1
176
     1
 40
0.5
176
     1
 40
30.0
176
     1
 62
     7
420
 16777215
176
     1
 90
        1
176
     1
 90
        0
176
     1
 62
     7
176
     1
 62
   257
176
     1
 90
        1
176
     1
 90
        1
176
     1
 40
1.0
176
     1
 90
        8
176
     1
 62
     7
176
     1
 40
1.0
176
     1
 90
        1
176
     1
 90
        6
176
     1
 90
        2
176
     1
 62
     7
176
     1
 90
        3
176
     1
 90
        0
176
     1
 90
        0
176
     1
290
     0
176
     1
 90
       13
176
     1
 40
0.0
176
     1
 90
        0
176
     1
290
     0
176
     1
290
     1
176
     1
290
     1
176
     1
290
     0
176
     1
290
     0
176
     1
290
     0
176
     1
290
     0
176
     1
290
     0
176
     1
290
     0
176
     1
 90
       50
176
     1
 40
0.0
176
     1
 40
1.0
176
     1
 90
        0
176
     1
 62
    18
420
        0
176
     1
 90
       50
176
     1
 90
        3
176
     1
 62
     5
420
      255
176
     1
290
     0
176
     1
 90
       50
176
     1
 90
       50
176
     1
 90
       50
176
     1
290
     0
176
     1
 90
       50
176
     1
 62
   256
176
     0
 40
1.0
176
     0
 90
        2
176
     1
  1
strokes_ogs.tif
176
     1
290
     0
176
     1
 40
1.0
176
     1
 40
1.0
176
     1
  0
DICTIONARYVAR
  5
FA2
102
{ACAD_REACTORS
330
FA1
102
}
330
FA1
100
DictionaryVariables
280
     0
  1
1:1
  0
DICTIONARYVAR
  5
FA7
102
{ACAD_REACTORS
330
FA1
102
}
330
FA1
100
DictionaryVariables
280
     0
  1
Standard
  0
DICTIONARYVAR
  5
FA6
102
{ACAD_REACTORS
330
FA1
102
}
330
FA1
100
DictionaryVariables
280
     0
  1
Standard
  0
DICTIONARYVAR
  5
FA8
102
{ACAD_REACTORS
330
FA1
102
}
330
FA1
100
DictionaryVariables
280
     0
  1
0
  0
DICTIONARY
  5
22CB
330
52D
100
AcDbDictionary
280
     1
281
     1
  3
ACAD_ROUNDTRIP_2008_TABLESTYLE_CELLSTYLEMAP
360
22CC
  0
CELLSTYLEMAP
  5
22CC
102
{ACAD_REACTORS
330
22CB
102
}
330
22CB
100
AcDbCellStyleMap
 90
        3
300
CELLSTYLE
  1
TABLEFORMAT_BEGIN
 90
        5
170
     1
 91
        0
 92
    32768
 62
   257
 93
        1
300
CONTENTFORMAT
  1
CONTENTFORMAT_BEGIN
 90
        0
 91
        0
 92
        4
 93
        0
300

 40
0.0
140
1.0
 94
        5
 62
     0
340
17
144
0.25
309
CONTENTFORMAT_END
171
     1
301
MARGIN
  1
CELLMARGIN_BEGIN
 40
0.06
 40
0.06
 40
0.06
 40
0.06
 40
0.06
 40
0.06
309
CELLMARGIN_END
 94
        6
 95
        1
302
GRIDFORMAT
  1
GRIDFORMAT_BEGIN
 90
        0
 91
        1
 62
     0
 92
       -2
340
11
 93
        0
 40
0.045
309
GRIDFORMAT_END
 95
        2
302
GRIDFORMAT
  1
GRIDFORMAT_BEGIN
 90
        0
 91
        1
 62
     0
 92
       -2
340
11
 93
        0
 40
0.045
309
GRIDFORMAT_END
 95
        4
302
GRIDFORMAT
  1
GRIDFORMAT_BEGIN
 90
        0
 91
        1
 62
     0
 92
       -2
340
11
 93
        0
 40
0.045
309
GRIDFORMAT_END
 95
        8
302
GRIDFORMAT
  1
GRIDFORMAT_BEGIN
 90
        0
 91
        1
 62
     0
 92
       -2
340
11
 93
        0
 40
0.045
309
GRIDFORMAT_END
 95
       16
302
GRIDFORMAT
  1
GRIDFORMAT_BEGIN
 90
        0
 91
        1
 62
     0
 92
       -2
340
11
 93
        0
 40
0.045
309
GRIDFORMAT_END
 95
       32
302
GRIDFORMAT
  1
GRIDFORMAT_BEGIN
 90
        0
 91
        1
 62
     0
 92
       -2
340
11
 93
        0
 40
0.045
309
GRIDFORMAT_END
309
TABLEFORMAT_END
  1
CELLSTYLE_BEGIN
 90
        1
 91
        1
300
_TITLE
309
CELLSTYLE_END
300
CELLSTYLE
  1
TABLEFORMAT_BEGIN
 90
        5
170
     1
 91
        0
 92
        0
 62
   257
 93
        1
300
CONTENTFORMAT
  1
CONTENTFORMAT_BEGIN
 90
        0
 91
        0
 92
        4
 93
        0
300

 40
0.0
140
1.0
 94
        5
 62
     0
340
17
144
0.18
309
CONTENTFORMAT_END
171
     1
301
MARGIN
  1
CELLMARGIN_BEGIN
 40
0.06
 40
0.06
 40
0.06
 40
0.06
 40
0.06
 40
0.06
309
CELLMARGIN_END
 94
        6
 95
        1
302
GRIDFORMAT
  1
GRIDFORMAT_BEGIN
 90
        0
 91
        1
 62
     0
 92
       -2
340
11
 93
        0
 40
0.045
309
GRIDFORMAT_END
 95
        2
302
GRIDFORMAT
  1
GRIDFORMAT_BEGIN
 90
        0
 91
        1
 62
     0
 92
       -2
340
11
 93
        0
 40
0.045
309
GRIDFORMAT_END
 95
        4
302
GRIDFORMAT
  1
GRIDFORMAT_BEGIN
 90
        0
 91
        1
 62
     0
 92
       -2
340
11
 93
        0
 40
0.045
309
GRIDFORMAT_END
 95
        8
302
GRIDFORMAT
  1
GRIDFORMAT_BEGIN
 90
        0
 91
        1
 62
     0
 92
       -2
340
11
 93
        0
 40
0.045
309
GRIDFORMAT_END
 95
       16
302
GRIDFORMAT
  1
GRIDFORMAT_BEGIN
 90
        0
 91
        1
 62
     0
 92
       -2
340
11
 93
        0
 40
0.045
309
GRIDFORMAT_END
 95
       32
302
GRIDFORMAT
  1
GRIDFORMAT_BEGIN
 90
        0
 91
        1
 62
     0
 92
       -2
340
11
 93
        0
 40
0.045
309
GRIDFORMAT_END
309
TABLEFORMAT_END
  1
CELLSTYLE_BEGIN
 90
        2
 91
        1
300
_HEADER
309
CELLSTYLE_END
300
CELLSTYLE
  1
TABLEFORMAT_BEGIN
 90
        5
170
     1
 91
        0
 92
        0
 62
   257
 93
        1
300
CONTENTFORMAT
  1
CONTENTFORMAT_BEGIN
 90
        0
 91
        0
 92
        4
 93
        0
300

 40
0.0
140
1.0
 94
        2
 62
     0
340
17
144
0.18
309
CONTENTFORMAT_END
171
     1
301
MARGIN
  1
CELLMARGIN_BEGIN
 40
0.06
 40
0.06
 40
0.06
 40
0.06
 40
0.06
 40
0.06
309
CELLMARGIN_END
 94
        6
 95
        1
302
GRIDFORMAT
  1
GRIDFORMAT_BEGIN
 90
        0
 91
        1
 62
     0
 92
       -2
340
11
 93
        0
 40
0.045
309
GRIDFORMAT_END
 95
        2
302
GRIDFORMAT
  1
GRIDFORMAT_BEGIN
 90
        0
 91
        1
 62
     0
 92
       -2
340
11
 93
        0
 40
0.045
309
GRIDFORMAT_END
 95
        4
302
GRIDFORMAT
  1
GRIDFORMAT_BEGIN
 90
        0
 91
        1
 62
     0
 92
       -2
340
11
 93
        0
 40
0.045
309
GRIDFORMAT_END
 95
        8
302
GRIDFORMAT
  1
GRIDFORMAT_BEGIN
 90
        0
 91
        1
 62
     0
 92
       -2
340
11
 93
        0
 40
0.045
309
GRIDFORMAT_END
 95
       16
302
GRIDFORMAT
  1
GRIDFORMAT_BEGIN
 90
        0
 91
        1
 62
     0
 92
       -2
340
11
 93
        0
 40
0.045
309
GRIDFORMAT_END
 95
       32
302
GRIDFORMAT
  1
GRIDFORMAT_BEGIN
 90
        0
 91
        1
 62
     0
 92
       -2
340
11
 93
        0
 40
0.045
309
GRIDFORMAT_END
309
TABLEFORMAT_END
  1
CELLSTYLE_BEGIN
 90
        3
 91
        2
300
_DATA
309
CELLSTYLE_END
  0
ENDSEC
  0
SECTION
  2
ACDSDATA
 70
     2
 71
     2
  0
ACDSSCHEMA
 90
        0
  1
AcDb_Thumbnail_Schema
  2
AcDbDs::ID
280
    10
 91
        8
  2
Thumbnail_Data
280
    15
 91
        0
101
ACDSRECORD
 95
        0
 90
        2
  2
AcDbDs::TreatedAsObjectData
280
     1
291
     1
101
ACDSRECORD
 95
        0
 90
        3
  2
AcDbDs::Legacy
280
     1
291
     1
101
ACDSRECORD
  1
AcDbDs::ID
 90
        4
  2
AcDs:Indexable
280
     1
291
     1
101
ACDSRECORD
  1
AcDbDs::ID
 90
        5
  2
AcDbDs::HandleAttribute
280
     7
282
     1
  0
ACDSSCHEMA
 90
        1
  1
AcDb3DSolid_ASM_Data
  2
AcDbDs::ID
280
    10
 91
        8
  2
ASM_Data
280
    15
 91
        0
101
ACDSRECORD
 95
        1
 90
        2
  2
AcDbDs::TreatedAsObjectData
280
     1
291
     1
101
ACDSRECORD
 95
        1
 90
        3
  2
AcDbDs::Legacy
280
     1
291
     1
101
ACDSRECORD
  1
AcDbDs::ID
 90
        4
  2
AcDs:Indexable
280
     1
291
     1
101
ACDSRECORD
  1
AcDbDs::ID
 90
        5
  2
AcDbDs::HandleAttribute
280
     7
282
     1
  0
ACDSSCHEMA
 90
        2
  1
AcDbDs::TreatedAsObjectDataSchema
  2
AcDbDs::TreatedAsObjectData
280
     1
 91
        0
  0
ACDSSCHEMA
 90
        3
  1
AcDbDs::LegacySchema
  2
AcDbDs::Legacy
280
     1
 91
        0
  0
ACDSSCHEMA
 90
        4
  1
AcDbDs::IndexedPropertySchema
  2
AcDs:Indexable
280
     1
 91
        0
  0
ACDSSCHEMA
 90
        5
  1
AcDbDs::HandleAttributeSchema
  2
AcDbDs::HandleAttribute
280
     7
 91
        1
284
     1
  0
ACDSRECORD
 90
        0
  2
AcDbDs::ID
280
    10
320
50D
  2
Thumbnail_Data
280
    15
 94
     3831
310
89504E470D0A1A0A0000000D49484452000001000000007D08060000004DB9BDCD000000097048597300000EC400000EC401952B0E1B00000EA949444154789CEDDD6B6C53F7F907F0EFF13D8E73759A92900B89737194E0D80924E1D20DC8A5D0A2D1A815F0A642088D37959046E14D291ADB9056217542DA1B3451B14D9B
310
5AD6AE152D5A8B9200E2124832932C09C281049A3B30C8C57162EC383E7B71FE61F0274CD8B17FE79C9CE723FD4482737ECF730EF89B73EC737C38003C08218AA412BB81FFE5A38F3EC2D1A3475FFA78666626743ADD828F1D3A7408A73E3D0583C110ADF6968C4F3FFD141A8D46EC36880824FDAF5E5C5C0C8BC5820B172E
310
2CF8F8E0E0202A2B2B170C818D1B37E2C71F7F04CFD30E8E4AA582D96C86CD665BF0F12D5BB6E0DAB56B181F1F7FE1B1BEBE3E8C8C8CC0EFF747BB4D22020E123C04C8CDCDC5AA55ABE0F3F9D0DDDD8DBEBEBE90E758B162056C361BA6A7A7313434849E9E9E28742A6D050505C8CCCC443018C4E3C78FD1D9D9B9E0CFD96C
310
36F4F4F4C0E7F3BDF098C562417A7A3A743A1DDC6E37DADADAA2DD366148320110131303BBDD0EA3D188BB77EFE2DEBD7B119B3B232303858585F07ABDE8ECEC84C7E389D8DC52B466CD1A646464E0FAF5EB181C1C8CD8BCF1F1F178F3CD37F1E0C103B4B5B5C1EBF5466C6E221E5EEC111313C3D7D5D5F109090951AF5351
310
51C1C7C5C589BECED1185AAD967FFBEDB779A3D118F53A6BD7AEE5972F5F2EFA3AD358F410BD01BEA6A66649D76335DE78E30D5EAFD7D376A4F1CA43D2EF0290D0E8F5FA058FE3A3C5ED76232E2E8E593D1279927817202F2F8FE9ABF556AB158D8D8DCCEAB162B55A996EC7828202DCB97387593D1279920880DEDE5E3435
310
3531ABC7711CB35A2CB95C2EA6DB71626282592D121D7408408882C93600380EA8A810FE2462E16136B33BE4209127CB00C8C8007EF73BA0A000F8C31F80152BC4EE4899CACA6EE0DC393A0C90335906C0A143C0E020F0DD7740531370F830A092E59AC85B72B2D81D90C592E5D3E6FE7D606C0C989C149EF8BDBD80D12876
310
57CAD4DB2B760764316419002E17F0DA6BC0AE5D407939303C0C2CF1B37B252B2F4FEC0EC862C832004E9F068686843D80EE6EE0CF7F16BB2365723A8D3873462D761B641124711E40383EFF5CEC0EC8F878117EF39BBB005EBC8C98C8832CF7000821914101408882510010A26014008428180500210A4601408882C93600
310
F47AE0E73FA7330077EC104E8622241CB20D80B7DE02F6EF179E004A959808FCEA57C25591848443B601909101CCCE02393980562B7637E2309900BF1F989BA3CBA24978440900954A05D5222FDF7BF81078FF7D606606D8B021327DC9CD7BEF09D7416CDB4657E691F0300F8065CB96E1F8F1E3F8EAABAF909A9A1AF63C6A
310
B5F03AC0D454049B9319AD16989800D2D3814040EC6E881C310F80BCA43C9494A4C1E3E9404E4E4ED8F32C5B06B4B400CB9703E7CF47B04119B97811D8B409686E162E8C222454CC03A0B9A7197FFDEBDF3130308BD6D6D6B0E7F9C73F8471F1A2700C1C8A989818949595855D5B2A6EDF06AE5F07DC6E60FB76038C61BC25
310
F2FAEB1A1C3DBA01767B42143A2452C73C0082C120C6C6BE4020F05BB4B6F2B876ED75242484FE9FAFA202A8AF175E090F95D7EB45F2123868E638E0D7BF06FEF637E0D8B12798999909798E7DFBD6E397BFBC8C9D3B5747A1432275A25C0EACD70BBFB50E1C00802092938321CF71EF1EB075ABF05B305406836149DC3578
310
6242F844A4EA6AE0CE9DF0F6006EDC18C43BEF24636060340A1D1239607E3B22B55A18F3DF877B8BA967E70865D4D5D5F11A8D46F4DB32456A68B58BDB8EB1B11A9EE3B890972B2F2FE7939292445F7F1AE10F51F600423D668FF43CC160108125F4B2F9ECECE2969F9E5E3ADB828446B627021142168F02801005A3002044
310
C128000851300A0042148C02801005A3002044C128000851300A0042148C02801005A3002044C128000851300A0042148C02801005A3002044C128000851300A0042148C02801005133D00E2E2E2603018425E4EAB058A8A8030162511141B2B76076431440F80AAAA2ACC85F8E17EB9B9C0EF7F0F949501274E00C5C5516A
310
4E01AAAAAA505D5D8DBABABA90972D2EEEC477DF4D44A12BC28AE801C0F33C6643FC54CB830781AE2EA0A303B87265FEE3C5493862636371E5CA95B03E263D2D6D162653E8CB11E9103D00060606101F1F1FD232BDBDC0A347C0CD9BC0D89810043131516A7089BB7EFD3A56AF5E8DAEAEAEB096BF7123C20D11A644F958F0
310
67DDBE7D1B595959212D33390994940837C558BD1AE8EB03BCDE2835B8C44D4F4FE3CA952B612FBF6A55049B21CC891E00E1F8D39F801D3B84FB020C0C00274F8ADD91325DBE9C0CA3D103C02F762B244CB20C80D959E02F7F11BB0BE2F3E5E0F8F1BBA000902FD15F03208488870280100593C421405E5E1ED3BBF55AAD56
310
34363632ABC78AD56A65BA1D0B0A0A70F7EE5D66F548E44922007A7B7BD1D4D4C4AC1EC771CC6AB1E472B9986EC7603088C9C94966F548E449E210A0AFAF0F6565654C6A994C264C4D4D31A9C55A7F7F7FC86FA9862B3131116EB71BC16090493D121D1C84FB848BCE62B1202B2B0B1D1D1D181F1F8FF8FC090909B0DBED78
310
F2E4095A5A5A223EBF54E4E7E7233D3D1D77EEDCC1C8C848C4E74F4A4A425151117C3E1F9C4E67C4E7276C4926000040A552A1B4B414EBD7AF87C16080CBE5C2CCCC4CD8F3190C06141616627A7A1AB76EDD42737333028140043B96268D4683FCFC7C545454203B3B1BDDDDDD8BDA55371A8DB05AADF0783C703A9DE8EAEA
310
8297CEBC5A12241500F36A6A6A70E3C60D58AD56C4FCDF39BE5EAF17EDEDED4FBFFEFF0C0603388E83CD6683C9640200F87C3EF4F4F4C06C36636A6A0AC3C3C3EC5642026A6A6A70F5EA559494943C77BA754B4B0B0281009E3C79F2C2323A9D0E6AB51A0E87E3B96DEF72B9909F9F8F9B376FC2E3F1305B07125D92781170
310
21636363686E6E7EFA7D4C4C0C1C0E070020353515369B0D0EC73770B97E0AA7F33E464747C1F33C3A3B3B5FF80F9A9393A3B827FF3CAFD78BB6B6B6E7FEAEB2B2121A8D06696969C8CBCB4375F5195CBA5485A121E105D9B9B939B4B7B7BF10B43A9D0E7E3F9DF4B3D4F0521B3535352F7DCC6432F15BB66CE101F02E17F8
310
BD7BC1D7D6D6F289898961CDB794C7FF5A6FB55ACD6FDCB8915FB952C54F4E827FEF3DF09595957C5C5C1C6D47050D49BC0B108AAAAA2A7CFFFDF70000974BB808A8A1A101ABE8AA9490AC5FBF1E972F5F86CF17C4E8A8B01D5B5A5A50595929766B8421C91E02BC8A77DE11BB03F9D26AB5080402B87D1BB05AC5EE868845
310
767B008490C8A1002044C128000851300A0042144C122F02AE58B1029999994FBF5FB972257C3EDF823FFBB2C7425966747414BDBDBD8BEC5A7A2C160BD2D3D39F7E1FEDEDE8F1789E9E9C45E449126702161616C262B130ABD7DFDF8F9B376F32ABC74A717131B2B3B399D59B9C9CC4D5AB5799D52391278900208488835E
310
032044C128000851300A0042148C02801005A3002044C128000851300A0042148C02801005A3002044C128000851300A0042144CB601909404BCFF3E505C0CE8F5627743883CC936007EF633E05FFF02FEF847E0273F11BB1B42E449B601C0F3C25E404B0B10853B8911A208B20D80A2A26C5CBC68835A9D8B7FFE53EC6E08
310
9127597D1E407272321C0E07B2B2B2B076ED5AA8542AA8542A5CBA7409232323703A9D78F4E891D86D12221BB208009BCD861D3B7660626202EDEDED181818C0C8C8083C1E0F8C4623323232909E9E8EF2F272A4A4A4A0A1A101172E5C00CF4B7ED5081195A403A0B4B414DBB76F477777374E9F3EFDCAF7A2AFADADC5860D
310
1BF0EDB7DF2EE95B8113B258920D804D9B3621353515A74F9F0EEB3739C771D8B66D1B743A1DBEFCF24BDA1B20E42544BF41E1B383E3387EEFDEBD7C6D6D6D44E673381CFC071F7CC0ABD56AD1D78D060DA90DC9BD0BF0EEBBEFC2E974223939F9B97BDA8743A3D1A0B4B414972E5DC2CE9D3B23D421214B87A402A0BCBC1C
310
1CC7C1E9742E787FFA50CDCDCDA1A5A5055D5D5D70BBDD58B76E5D843A2564E9107D37647E7CF2C927519DFFE38F3FE64D2693E8EB498386548664F600B66EDD8AB367CF46B5C6A953A7B07BF7EEA8D620444E2413006BD6AC41737373546B0C0F0FC36C36C3603044B50E2172218900C8CDCD457F7FFF2BBFCFBF18B76EDD
310
42515151D4EB102207920880FAFA7A7CF3CD374C6AFDF0C30FD8BC7933935A84489D2402C06C36333B877F7272120909094C6A112275CC6F0FAED5023131C2D7361B90945482C4C444A667EA198D46D8ED7674747430AB498814310F80CD9B81FA7A60F76E606808F07896E1CC1937D31E666666909292C2B4262152C43C00
310
DADA00AF17F8E20BA0B313B0DBD578EB2D23D31EF47A3D743A1DD39A844811F300B87F5F18F3CE9FBF80EAEA1A701CC7EC30201008A0A9A989492D42A44CF41701FD7E3FBC5E2FB45A2D937A6AB51A7EBF1F3E9F8F493D42A44CF4000080AFBFFE1AF5F5F54C6A959797C3E97432A94588D44922003A3A3AE0703898D4AAAB
310
ABC3B973E798D42244EA24110000F0F0E143A4A6A646B5466C6C2C388EC3F4F47454EB102227A25F910480379BCDFCC18307A35A63DFBE7D7C5A5A9AE8EB4A8386548664F6001E3F7E8CC1C141D8EDF6A8CC9F999989402080D1D1D1A8CC4F885C899E42CF8E7DFBF6F1E9E9E9FCE1C38779B3D9BCA8B9743A1D7FECD8315E
310
AFD7F3478E1C117DDD68D090E010BD81E786C160E00F1C38C0A7A4A444643EBD5ECFEFDFBF9F8F8F8F177DDD68D090E010BD811786C160E03FFCF043DE6AB52E6A9EECEC6CFEC891237C5C5C9CE8EB4483861487643F161C0076EDDA859494147CF6D96798989878E5E5626363B167CF1EF8FD7E9C3871228A1D12F25F763B
310
C071C2D7F9F9C0F9F380DB0D6CDB068C8D097F3FFFA746239C165F5121DCE3F2DFFF06868781070FD8F62CE9000080949414ECD9B3071A8D060D0D0D686D6D7DE9CFDA6C366CDDBA152A950A274F9EC4FD67CF392624CA4A4A84102829011A1B819E1E203E1E58BB16D0E980D75E036666806010F8FC73C06A058C4660CD1A
310
E0E245E1EF1B1BD9F62CF90098673299505B5B8BCACA0AE4E48C03487AE6D129F4F71BD0DE7E0B67CF9EC5D4D494586D1205B35880C444607050F8FEE143E1899F9B2B3CF93D9EFFFE868F8F075C2E60DD3A612FC1EB054646848060493601308FE380D656616303BF007012232353282F07E8F47E424223BB00208444CE7F
310
00C02E20800D208EE80000000049454E44AE426082
  0
ACDSRECORD
 90
        0
  2
AcDbDs::ID
280
    10
320
22C0
  2
Thumbnail_Data
280
    15
 94
     3870
310
89504E470D0A1A0A0000000D49484452000001000000007A080600000050BC8D75000000097048597300000EC400000EC401952B0E1B00000ED049444154789CEDDDEB4F5BF51F07F0F769A12DB640A12DB440B9B7CC0263630C9D669A251AE396394D7CE8036796B8F9C4F857981993253EF31243346A4CB6C418438C666A
310
225B3271DC2F19D7320A14564AE9100AB4F07B4038BFC2B6327A4E7BDA4F3FAF4740CFF77B3EB04F3F3BE7F47B11DADADAB6C118CB482AA503608C29274BE900E4B6BCBC8CCDCD4DA5C3600409820093C9A47418B2225700CC66335E7DF555A5C36004FDF3CF3FF0F97C4A87212B720540AFD7C362B1281D0623283F3F9F5C
310
01E067008C65302E008C65302E008C65302E008C65302E008C65302E008C65302E008C65302E008C6530720381A2F5F5F5617D7D5DFCDEE170C068340200060707B1BABA0A00301A8D70381C00808585054C4D4D896D9A9A9AA0D16800009D9D9DE2CF4B4A4A505A5A0A0070BBDD78F0E00100202B2B0BC78F1F0700ACAEAE
310
627070506C53535383C2C24200C0F0F0305656560000797979A8ABAB0300ACADAD616060406CD3D8D8089D4EF7481BABD50ABBDD0E00585C5CC4C4C4040040AD56A3B9B9596C7FF7EE5D6C6D6D0100AAABABC5A1ACD3D3D3F07ABD0080DCDC5C1C39720400100A85D0DFDF2FB66F6868404E4E0E00E0DEBD7B0806830080E2
310
E2629497970300FC7E3FC6C7C701002A950A274E9C10DB777777231C0E03008A8A8A5051510100F0783C989B9B03B033C4B6A5A50500B0BEBE8EBEBE3EB17D6565A538B06B646404CBCBCB0076067CB95C2E00C0D2D212C6C6C6C4362E970B7ABD1E00D0D3D3230E0DB7582CA8ACAC0400CCCCCC607676566CD3D2D2024110
310
B0B9B9899E9E1EF1E7E17018A74E9D025502B5D98046A311172E5C00B0F3863D79F2A4C211B174169D431D1D1D62A1A3826F0118CB60A40BC0EE252A63F1A29E43A40B407171B1D221B034473D87481700C6586CA40BC0E8E8A8D221B034473D874817804020A074082CCD51CF21D2058031161BE98140525606FAFBEFBFC5
310
01382CBD8542219C3E7D3AAEB6D45797225D0076477DC543A7D3F1202222A247701E96941C4A077C0BC05806235D00A6A7A7950E81A539EA3944FA16C0EBF58A1366E4F4E9A79FA2BEBE1E56AB559CE8B24BA55241A7D3E1B3CF3EC3E79F7F2EFBB9E5E0F57AE1F178B0BDBD8D3B77EEC066B3A1BCBC1CD9D9D9282D2D257F
310
DF7B1889CAA15441BA00C8CDE7F361727212C78E1D437171319E7DF6596465EDFD13462211783C1EBCF1C61BE8ECECDC336B4E49D13316AD562B9A9B9BA152A9909B9B0B83C180B2B2326C6C6C607676166EB71B00505656069BCDA660D42CD1481780DCDC5C59FAD9DEDEC6C0C0000C06C3810F06D56A352A2A2AC469AFF3
310
F3F3B875EB165E78E1050882204B3C87B1B5B5859E9E1ED8EDF6C73ED0DA9D060C001A8D06959595E2711E8F070303036868684852B4A947AE1C4A55A49F014427B714B3B3B330994CA8AAAA3A74DBE2E2623435356178785896580E6B6060002E972BAECBFAB2B232180C062C2C2C2420B2F420570EA52AD2570072F1783C
310
50A95498999989BB0FA5F62B0C06837B16F838ACADAD2D646767A3A8A848C6A858AA205D007C3E1FCC66B3E47E542A95E43101523E8B9642ABD54A8A3D1C0EEF59A127D3C89543A98AF42DC0E4E4A4D221A43DBFDF8FEFBFFF5EE93014433D8748170026DDC4C4046FB74E18E902B0FF233A7678252525E2A2A299887A0E91
310
2E00BBABF3B2F8959494E0E2C58B4A87A118EA3944BA0030C662235D00FEFBEF3FA54360698E7A0E912E004343434A87C0D21CF51C225D0092E58F3FFEC0F5EBD7950E630FBFDF8F8F3FFE58E930588AE3022083919111DCB87123A59E960F0E0EE2ABAFBE7A64B62263D1487FC671ECD83149ED7FFEF967F8FD7ED4D7D7C7
310
3CAEB6B616914804C16050DC7B5069232323B05AAD0885424A8792D6A4E650AA237D05909D9D2DA97D7777F7532D08D1DDDD8DA1A121E4E5E53DF198E88D2893A1BEBE1E8140E0C0AB128FC703BFDF9FA4A8D28FD41C4A75A40B40241291D4FEC5175FC4C8C808BEF8E28B98C7BDF4D24B3877EE1C54AA27FF39A54C248A47
310
616121AE5EBD8A6BD7AEC53CEEA79F7EC2AFBFFE9AA4A8D28FD41C4A75A46F01BABABA244D84696E6E86D3E9C4FCFC7CCCE3EAEAEA0EFC9F36D95B4C399D4E68341A5CBA7429E671ADADADB05AAD498A2AFD48CDA15447BA004855585888C2C2C2030BC0D3DCF72BB12A506565A5B80AD093B4B6B626291A968A48DF0230C6
310
62235D00A8AFE6C2128F7A0E912E00D4D7736389473D87481700C6586CA40B406F6FAFD221B034473D874817808D8D0DA54360698E7A0E912E008CB1D8481780DDCD39188B17F51C225D00782D7B2615F51C225D001863B1912E00F7EEDD93A59FEEEE6E59FA49478140003FFEF8A3D2612846AE1C4A55A40B40301894A51F
310
BD5E2F4B3FE9686C6C0C8B8B8B4A87A118B9722855912E0072713A9D4A87A0989A9A1A68341AA5C3600942BA00247B0A2E45050505074E29A68C7A0E919E0E2CD714DCADAD2DC99B7B2AB5BDD6FAFABAA4D8777707CE544A4CE34E26D205402E6565650080D2D2D2B8DA6F6C6C28B6BC745E5E1E9C4E27743A5D5CEDE7E7E7
310
795D41C248DF02C8F5F0AAA4A404D3D3D3585A5A3A74DB603088DBB76FC3E572C912CB61353636E2EEDDBB78F8F0E1A1DB2E2E2E626A6A8AFC609858A83F00257D053031310193C924B91F4110F0FCF3CF637474147FFDF59778457090B9B939D4D6D6E2E5975F86200892E3888720083875EA147A7B7BE1F57A9F7AAF7B8F
310
C783A3478F66FC8A4172E550AA225D00E4E67038100804F6AC11B7B1B181DF7EFB0D5D5D5DF8E0830FF6BCC1BABABAE0743A157BF3EF52A95470381CD06AB57BAE4416161670E3C60D984C26BCF5D65B8FDCEBD7D4D4243B549664A46F0192B1B5736F6F2FAAAAAAE0F178303939B9E7B548249232DB4B1B0C8647F6B99B9A
310
9A82DBED86DFEFC7DDBB77158A2CB5A5CABF5FA2902E00C9DADAB9BEBEFEC0A5C353D5D5AB5771F9F265DE41E809787B709611B45AADD2213005902E00D4B7766689473D8748DFE00C0D0DC9B2A943381CC6975F7E0900585959C1BFFFFE2BBE16FD7DACD7DE7DF75DE4E4E4488EE5B082C120BEFBEEBB03E37BD26B8220E0
310
F2E5CBC90D3A85C89543A98A7401904B565616AE5CB9A2741871C9CBCB4BDBD859E291BE05608CC546BA0050DFDA99251EF51C225D003279120B9307F51C225D000EDAB197B18350CF21D2058047B731A9A8E710E902C0188B8D0B800C7EF8E1075CBC78112B2B2B4A87C2D8A1902E0075757549398FCFE7C3FAFA3AF98923
310
99285939A414D2199B979797B0BE43A1103A3A3A100804E0F7FBE1743AF1CB2FBF4010049C3D7B5691517F4C7E89CCA15440BA00244A7B7B3BBC5E2F5E7BED35949696E2EDB7DF165F5B5C5CC4AD5BB7B0B2B28237DF7C53C128193B18E95B80BEBE3ED9FB6C6B6B83CBE5C27BEFBDF7D835024D26135E79E515B4B6B6E2EB
310
AFBFE669B6692E1139944A481780F5F57559FB6B6F6F87DD6E7FAA453243A1101C0E07BEF9E61B6C6F6FCB1A074B1EB97328D5F02DC05372BBDD309BCD4FBD465E757535AAABAB91939383CECECE8C5F5B8FA526D2570072AE66DBDEDE1ED7B4D09696160C0F0FCB16074B2EEA2B22932E00726DED1C894490979717F7E29E
310
66B339AE65B999F2787BF00CB7BCBC8CAEAE2E4989D0D0D0803FFFFC53C6A8189307E90230323222A9FDB56BD7F0FEFBEFE3CA952BB0D96C92FAEAEAEA92D49E29436A0EA53AD20F0197979725B5FFE8A38F00EC6C91DDDFDF8FC6C6C6B8FA0987C33871E284A4589832A4E650AA237D052097AAAA2AACADADC5DDBEA7A707
310
67CE9C913122C6E441BA00C8F50047AD56232B2B2BEECFF357565660301864898525173F044C63727E8473E6CC195CBF7EFDD0EDFAFAFAD0D0D0205B1C2CB9A87F0C48FA19809C2C160BF47A3D7EFFFD77D8ED761C397224E6F1131313E8EBEB832008B870E14292A264EC70485F014C4F4FCBDADFD9B367110E879F6AB308
310
AD560B9FCF87F3E7CFCB1A034B2EB97328D590BE02F07ABDB0DBEDB2F6F9FAEBAFE3CE9D3BF8F6DB6FD1D4D484A3478FEE797D787818838383B0D96CB874E992ACE7667BDDBC7913B76FDF46656525B2B3B3E1F178303A3A0A8BC582F3E7CFE3E6CD9B301A8D9236F648440EA512D20520519E7BEE399C3C7912FDFDFDF8F0
310
C30FD1DFDF0FBD5E8FD2D252BCF3CE3B3877EE1CAF0790042E970B55555530180C50A954E2C22C6B6B6B686C6C8446A381CD6623FFBFB814A40B4022177350A954686A6AC2279F7C02AFD70B60E78931BFF19367FFE02CB3D9BCE7FBDD9D7DA514005E10248D25633927AD564BFE497126A3BE2418E987808CB1D8485F013C
310
78F000168B25AEB6A150089D9D9D3247C494F0340BB83C89941C4A07A40B80DBED8EFB1FEFF4E9D33247C3D291941C4A077C0BC05806235D00A86FECC8128F7A0E912E00D4B7766689473D87481700C6586CA40B00EFD5C7A4A29E43A40B00AFC6CBA4A29E43A40B00632C36D2E3000060747454FCDA66B3892BF3DCBF7F5F
310
DCF545AFD7A3A4A404C0CE1A700B0B0B629BDD9966FBFB2A2C2C84C96402002C2C2C886BC7A9D56A54575703D8D955E6FEFDFB8F3DFFF4F4B43840E599679E11B719DBDF26FAFCD16D0A0A0AC4B1EFC16010F3F3F30076E628D4D4D488EDC7C6C6C4958CAC562B72737301EC0C7009040200809C9C1C949595010036363630
310
353525B6AFA8A88046A30100783C1E716934A3D1287E3EFEF0E143713E842008A8ADAD15DB8F8F8F636B6B0B00909F9F2FAEB0E3F3F9B0B4B4241EE7703800009B9B9B70BBDDE2CF8B8A8A909F9F0F00989999C1EAEA2A809D21D8E5E5E500762ED3E7E6E6C43676BB1D3A9D0EC0CEBA0C914804C0CEB8FEE2E262003B7B38
310
FAFD7EB14D6D6D2D044140381CC6E4E4A4F873298388D201E90270FCF8F13DF7705AAD56FCBAA0A0404C8CE88F7A743ADD9E811F6AB55AFC3AFAE7BB0906000683417C9344EF1D909595B5A7CDEE31C0CE1B68F7FCD1DB8AEF6FA352FDFF22ADA0A040DC6B30FA77898E79FFDE05168B452C00D16D0C0683F87B479F5FAD56
310
3FF1F7371A8D62018BEE4BABD53E71B08CD96C16CF1FFDFBEBF5FAC76EA7BEFFFCD17FE7FCFC7CE8F5FA47E2DA7FFEE87ECD66B35880F69F3FBA8F5D2A956A4F5FBB45862AA1ADAD8DD4C67546A39157E06109D1D1D181F1F171A5C390153F03602C837101602C837101602C837101602C837101602C837101602C83710160
310
2C837101602C83911B08143D8C9731396D6E6E8A43B6A920371498FA6EAE8CC9896F0118CB60FF03C877AE6EAF9502C30000000049454E44AE426082
  0
ENDSEC
  0
EOF
