  0
SECTION
  2
HEADER
  9
$ACADVER
  1
AC1027
  9
$ACADMAINTVER
 70
   105
  9
$DWGCODEPAGE
  3
ANSI_932
  9
$REQUIREDVERSIONS
160
                 0
  9
$LASTSAVEDBY
  1
kurimoto
  9
$INSBASE
 10
0.0
 20
0.0
 30
0.0
  9
$EXTMIN
 10
10333.6957391769
 20
-4366.656868680892
 30
0.0
  9
$EXTMAX
 10
17041.52712890613
 20
-116.2827488455869
 30
0.0
  9
$LIMMIN
 10
0.0
 20
0.0
  9
$LIMMAX
 10
0.0
 20
0.0
  9
$ORTHOMODE
 70
     0
  9
$REGENMODE
 70
     1
  9
$FILLMODE
 70
     1
  9
$QTEXTMODE
 70
     0
  9
$MIRRTEXT
 70
     1
  9
$LTSCALE
 40
1.0
  9
$ATTMODE
 70
     1
  9
$TEXTSIZE
 40
0.0
  9
$TRACEWID
 40
0.05
  9
$TEXTSTYLE
  7
STANDARD
  9
$CLAYER
  8
0
  9
$CELTYPE
  6
CONTINUOUS
  9
$CECOLOR
 62
   256
  9
$CELTSCALE
 40
1.0
  9
$DISPSILH
 70
     0
  9
$DIMSCALE
 40
1.0
  9
$DIMASZ
 40
0.18
  9
$DIMEXO
 40
0.0625
  9
$DIMDLI
 40
0.38
  9
$DIMRND
 40
0.0
  9
$DIMDLE
 40
0.0
  9
$DIMEXE
 40
0.18
  9
$DIMTP
 40
0.0
  9
$DIMTM
 40
0.0
  9
$DIMTXT
 40
0.18
  9
$DIMCEN
 40
0.09
  9
$DIMTSZ
 40
0.0
  9
$DIMTOL
 70
     0
  9
$DIMLIM
 70
     0
  9
$DIMTIH
 70
     1
  9
$DIMTOH
 70
     1
  9
$DIMSE1
 70
     0
  9
$DIMSE2
 70
     0
  9
$DIMTAD
 70
     0
  9
$DIMZIN
 70
     0
  9
$DIMBLK
  1

  9
$DIMASO
 70
     1
  9
$DIMSHO
 70
     1
  9
$DIMPOST
  1

  9
$DIMAPOST
  1

  9
$DIMALT
 70
     0
  9
$DIMALTD
 70
     2
  9
$DIMALTF
 40
25.4
  9
$DIMLFAC
 40
1.0
  9
$DIMTOFL
 70
     0
  9
$DIMTVP
 40
0.0
  9
$DIMTIX
 70
     0
  9
$DIMSOXD
 70
     0
  9
$DIMSAH
 70
     0
  9
$DIMBLK1
  1

  9
$DIMBLK2
  1

  9
$DIMSTYLE
  2
STANDARD
  9
$DIMCLRD
 70
     0
  9
$DIMCLRE
 70
     0
  9
$DIMCLRT
 70
     0
  9
$DIMTFAC
 40
1.0
  9
$DIMGAP
 40
0.09
  9
$DIMJUST
 70
     0
  9
$DIMSD1
 70
     0
  9
$DIMSD2
 70
     0
  9
$DIMTOLJ
 70
     1
  9
$DIMTZIN
 70
     0
  9
$DIMALTZ
 70
     0
  9
$DIMALTTZ
 70
     0
  9
$DIMUPT
 70
     0
  9
$DIMDEC
 70
     4
  9
$DIMTDEC
 70
     4
  9
$DIMALTU
 70
     2
  9
$DIMALTTD
 70
     2
  9
$DIMTXSTY
  7
STANDARD
  9
$DIMAUNIT
 70
     0
  9
$DIMADEC
 70
     0
  9
$DIMALTRND
 40
0.0
  9
$DIMAZIN
 70
     0
  9
$DIMDSEP
 70
    46
  9
$DIMATFIT
 70
     3
  9
$DIMFRAC
 70
     0
  9
$DIMLDRBLK
  1

  9
$DIMLUNIT
 70
     2
  9
$DIMLWD
 70
    -2
  9
$DIMLWE
 70
    -2
  9
$DIMTMOVE
 70
     2
  9
$DIMFXL
 40
1.0
  9
$DIMFXLON
 70
     0
  9
$DIMJOGANG
 40
0.7853981633974483
  9
$DIMTFILL
 70
     0
  9
$DIMTFILLCLR
 70
     0
  9
$DIMARCSYM
 70
     0
  9
$DIMLTYPE
  6

  9
$DIMLTEX1
  6

  9
$DIMLTEX2
  6

  9
$DIMTXTDIRECTION
 70
     0
  9
$LUNITS
 70
     2
  9
$LUPREC
 70
     4
  9
$SKETCHINC
 40
0.1
  9
$FILLETRAD
 40
0.0
  9
$AUNITS
 70
     0
  9
$AUPREC
 70
     0
  9
$MENU
  1
acad
  9
$ELEVATION
 40
0.0
  9
$PELEVATION
 40
0.0
  9
$THICKNESS
 40
0.0
  9
$LIMCHECK
 70
     0
  9
$CHAMFERA
 40
0.0
  9
$CHAMFERB
 40
0.0
  9
$CHAMFERC
 40
0.0
  9
$CHAMFERD
 40
0.0
  9
$SKPOLY
 70
     0
  9
$TDCREATE
 40
2447893.0
  9
$TDUCREATE
 40
2447892.625
  9
$TDUPDATE
 40
2458624.382043507
  9
$TDUUPDATE
 40
2458624.007043507
  9
$TDINDWG
 40
0.0167442361
  9
$TDUSRTIMER
 40
0.0000932292
  9
$USRTIMER
 70
     1
  9
$ANGBASE
 50
0.0
  9
$ANGDIR
 70
     0
  9
$PDMODE
 70
     0
  9
$PDSIZE
 40
0.0
  9
$PLINEWID
 40
0.0
  9
$SPLFRAME
 70
     0
  9
$SPLINETYPE
 70
     6
  9
$SPLINESEGS
 70
     8
  9
$HANDSEED
  5
27CB
  9
$SURFTAB1
 70
     6
  9
$SURFTAB2
 70
     6
  9
$SURFTYPE
 70
     6
  9
$SURFU
 70
     6
  9
$SURFV
 70
     6
  9
$UCSBASE
  2

  9
$UCSNAME
  2

  9
$UCSORG
 10
0.0
 20
0.0
 30
0.0
  9
$UCSXDIR
 10
1.0
 20
0.0
 30
0.0
  9
$UCSYDIR
 10
0.0
 20
1.0
 30
0.0
  9
$UCSORTHOREF
  2

  9
$UCSORTHOVIEW
 70
     0
  9
$UCSORGTOP
 10
0.0
 20
0.0
 30
0.0
  9
$UCSORGBOTTOM
 10
0.0
 20
0.0
 30
0.0
  9
$UCSORGLEFT
 10
0.0
 20
0.0
 30
0.0
  9
$UCSORGRIGHT
 10
0.0
 20
0.0
 30
0.0
  9
$UCSORGFRONT
 10
0.0
 20
0.0
 30
0.0
  9
$UCSORGBACK
 10
0.0
 20
0.0
 30
0.0
  9
$PUCSBASE
  2

  9
$PUCSNAME
  2

  9
$PUCSORG
 10
0.0
 20
0.0
 30
0.0
  9
$PUCSXDIR
 10
1.0
 20
0.0
 30
0.0
  9
$PUCSYDIR
 10
0.0
 20
1.0
 30
0.0
  9
$PUCSORTHOREF
  2

  9
$PUCSORTHOVIEW
 70
     0
  9
$PUCSORGTOP
 10
0.0
 20
0.0
 30
0.0
  9
$PUCSORGBOTTOM
 10
0.0
 20
0.0
 30
0.0
  9
$PUCSORGLEFT
 10
0.0
 20
0.0
 30
0.0
  9
$PUCSORGRIGHT
 10
0.0
 20
0.0
 30
0.0
  9
$PUCSORGFRONT
 10
0.0
 20
0.0
 30
0.0
  9
$PUCSORGBACK
 10
0.0
 20
0.0
 30
0.0
  9
$USERI1
 70
     0
  9
$USERI2
 70
     0
  9
$USERI3
 70
     0
  9
$USERI4
 70
     0
  9
$USERI5
 70
     0
  9
$USERR1
 40
0.0
  9
$USERR2
 40
0.0
  9
$USERR3
 40
0.0
  9
$USERR4
 40
0.0
  9
$USERR5
 40
0.0
  9
$WORLDVIEW
 70
     1
  9
$SHADEDGE
 70
     3
  9
$SHADEDIF
 70
    70
  9
$TILEMODE
 70
     1
  9
$MAXACTVP
 70
    16
  9
$PINSBASE
 10
0.0
 20
0.0
 30
0.0
  9
$PLIMCHECK
 70
     0
  9
$PEXTMIN
 10
1.05
 20
0.6999999999999997
 30
0.0
  9
$PEXTMAX
 10
9.45
 20
6.300000000000001
 30
0.0
  9
$PLIMMIN
 10
-0.25
 20
-0.7500000000000001
  9
$PLIMMAX
 10
10.75
 20
7.75
  9
$UNITMODE
 70
     0
  9
$VISRETAIN
 70
     0
  9
$PLINEGEN
 70
     1
  9
$PSLTSCALE
 70
     1
  9
$TREEDEPTH
 70
  3020
  9
$CMLSTYLE
  2
STANDARD
  9
$CMLJUST
 70
     0
  9
$CMLSCALE
 40
1.0
  9
$PROXYGRAPHICS
 70
     0
  9
$MEASUREMENT
 70
     0
  9
$CELWEIGHT
370
    -1
  9
$ENDCAPS
280
     0
  9
$JOINSTYLE
280
     0
  9
$LWDISPLAY
290
     0
  9
$INSUNITS
 70
     0
  9
$HYPERLINKBASE
  1

  9
$STYLESHEET
  1

  9
$XEDIT
290
     1
  9
$CEPSNTYPE
380
     0
  9
$PSTYLEMODE
290
     1
  9
$FINGERPRINTGUID
  2
{92E468B9-D949-4C46-BFBC-667BE1E8A801}
  9
$VERSIONGUID
  2
{FAEB1C32-E019-11D5-929B-00C0DF256EC4}
  9
$EXTNAMES
290
     1
  9
$PSVPSCALE
 40
0.0
  9
$OLESTARTUP
290
     0
  9
$SORTENTS
280
   127
  9
$INDEXCTL
280
     0
  9
$HIDETEXT
280
     1
  9
$XCLIPFRAME
280
     0
  9
$HALOGAP
280
     0
  9
$OBSCOLOR
 70
   257
  9
$OBSLTYPE
280
     0
  9
$INTERSECTIONDISPLAY
280
     0
  9
$INTERSECTIONCOLOR
 70
   257
  9
$DIMASSOC
280
     2
  9
$PROJECTNAME
  1

  9
$CAMERADISPLAY
290
     0
  9
$LENSLENGTH
 40
50.0
  9
$CAMERAHEIGHT
 40
0.0
  9
$STEPSPERSEC
 40
2.0
  9
$STEPSIZE
 40
6.0
  9
$3DDWFPREC
 40
2.0
  9
$PSOLWIDTH
 40
0.25
  9
$PSOLHEIGHT
 40
4.0
  9
$LOFTANG1
 40
1.570796326794897
  9
$LOFTANG2
 40
1.570796326794897
  9
$LOFTMAG1
 40
0.0
  9
$LOFTMAG2
 40
0.0
  9
$LOFTPARAM
 70
     7
  9
$LOFTNORMALS
280
     1
  9
$LATITUDE
 40
37.795
  9
$LONGITUDE
 40
-122.394
  9
$NORTHDIRECTION
 40
0.0
  9
$TIMEZONE
 70
 -8000
  9
$LIGHTGLYPHDISPLAY
280
     1
  9
$TILEMODELIGHTSYNCH
280
     1
  9
$SOLIDHIST
280
     0
  9
$SHOWHIST
280
     1
  9
$DWFFRAME
280
     2
  9
$DGNFRAME
280
     2
  9
$REALWORLDSCALE
290
     1
  9
$INTERFERECOLOR
 62
   256
  9
$CSHADOW
280
     0
  9
$SHADOWPLANELOCATION
 40
0.0
  0
ENDSEC
  0
SECTION
  2
CLASSES
  0
CLASS
  1
LWPOLYLINE
  2
AcDbPolyline
  3
ObjectDBX Classes
 90
        0
 91
        1
280
     0
281
     1
  0
CLASS
  1
IMAGE
  2
AcDbRasterImage
  3
ISM
 90
      127
 91
        5
280
     0
281
     1
  0
CLASS
  1
OLE2FRAME
  2
AcDbOle2Frame
  3
ObjectDBX Classes
 90
        0
 91
        1
280
     0
281
     1
  0
CLASS
  1
HATCH
  2
AcDbHatch
  3
ObjectDBX Classes
 90
        0
 91
        1
280
     0
281
     1
  0
CLASS
  1
DICTIONARYVAR
  2
AcDbDictionaryVar
  3
ObjectDBX Classes
 90
        0
 91
        4
280
     0
281
     0
  0
CLASS
  1
RASTERVARIABLES
  2
AcDbRasterVariables
  3
ISM
 90
        0
 91
        4
280
     0
281
     0
  0
CLASS
  1
IMAGEDEF
  2
AcDbRasterImageDef
  3
ISM
 90
        0
 91
        4
280
     0
281
     0
  0
CLASS
  1
IMAGEDEF_REACTOR
  2
AcDbRasterImageDefReactor
  3
ISM
 90
        1
 91
        4
280
     0
281
     0
  0
CLASS
  1
IDBUFFER
  2
AcDbIdBuffer
  3
ObjectDBX Classes
 90
        0
 91
        4
280
     0
281
     0
  0
CLASS
  1
SPATIAL_FILTER
  2
AcDbSpatialFilter
  3
ObjectDBX Classes
 90
        0
 91
        4
280
     0
281
     0
  0
CLASS
  1
XRECORD
  2
AcDbXrecord
  3
ObjectDBX Classes
 90
        0
 91
        1
280
     0
281
     0
  0
CLASS
  1
SORTENTSTABLE
  2
AcDbSortentsTable
  3
ObjectDBX Classes
 90
        0
 91
        4
280
     0
281
     0
  0
CLASS
  1
LAYER_INDEX
  2
AcDbLayerIndex
  3
ObjectDBX Classes
 90
        0
 91
        4
280
     0
281
     0
  0
CLASS
  1
SPATIAL_INDEX
  2
AcDbSpatialIndex
  3
AutoCAD 2000
 90
        0
 91
        4
280
     0
281
     0
  0
CLASS
  1
OBJECT_PTR
  2
CAseDLPNTableRecord
  3
ASE-LPNTableRecord
 90
        1
 91
        4
280
     0
281
     0
  0
CLASS
  1
LAYOUT
  2
AcDbLayout
  3
ObjectDBX Classes
 90
        0
 91
        1
280
     0
281
     0
  0
CLASS
  1
PLOTSETTINGS
  2
AcDbPlotSettings
  3
ObjectDBX Classes
 90
        0
 91
        4
280
     0
281
     0
  0
CLASS
  1
ACDBDICTIONARYWDFLT
  2
AcDbDictionaryWithDefault
  3
ObjectDBX Classes
 90
        0
 91
        4
280
     0
281
     0
  0
CLASS
  1
ACDBPLACEHOLDER
  2
AcDbPlaceHolder
  3
ObjectDBX Classes
 90
        0
 91
        1
280
     0
281
     0
  0
CLASS
  1
VBA_PROJECT
  2
AcDbVbaProject
  3
ObjectDBX Classes
 90
        0
 91
        1
280
     0
281
     0
  0
CLASS
  1
WIPEOUT
  2
AcDbWipeout
  3
WipeOut|AutoCAD Express Tool|expresstools@autodesk.com
 90
      127
 91
        4
280
     0
281
     1
  0
CLASS
  1
WIPEOUTVARIABLES
  2
AcDbWipeoutVariables
  3
WipeOut|AutoCAD Express Tool|expresstools@autodesk.com
 90
        0
 91
        4
280
     0
281
     0
  0
CLASS
  1
RTEXT
  2
RText
  3
RText|AutoCAD Express Tool|expresstools@autodesk.com
 90
        0
 91
        4
280
     0
281
     1
  0
CLASS
  1
ARCALIGNEDTEXT
  2
AcDbArcAlignedText
  3
ATEXT|AutoCAD Express Tool|expresstools@autodesk.com
 90
        0
 91
        4
280
     0
281
     1
  0
CLASS
  1
SCALE
  2
AcDbScale
  3
ObjectDBX Classes
 90
     1153
 91
        4
280
     0
281
     0
  0
CLASS
  1
VISUALSTYLE
  2
AcDbVisualStyle
  3
ObjectDBX Classes
 90
     4095
 91
        4
280
     0
281
     0
  0
CLASS
  1
MATERIAL
  2
AcDbMaterial
  3
ObjectDBX Classes
 90
     1153
 91
        4
280
     0
281
     0
  0
CLASS
  1
TABLESTYLE
  2
AcDbTableStyle
  3
ObjectDBX Classes
 90
     4095
 91
        4
280
     0
281
     0
  0
CLASS
  1
MLEADERSTYLE
  2
AcDbMLeaderStyle
  3
ACDB_MLEADERSTYLE_CLASS
 90
     4095
 91
        4
280
     0
281
     0
  0
CLASS
  1
DIMASSOC
  2
AcDbDimAssoc
  3
"AcDbDimAssoc|Product Desc:     AcDim ARX App For Dimension|Company:          Autodesk, Inc.|WEB Address:      www.autodesk.com"
 90
        0
 91
        4
280
     0
281
     0
  0
CLASS
  1
SUN
  2
AcDbSun
  3
SCENEOE
 90
     1153
 91
        4
280
     0
281
     0
  0
CLASS
  1
CELLSTYLEMAP
  2
AcDbCellStyleMap
  3
ObjectDBX Classes
 90
     1152
 91
        4
280
     0
281
     0
  0
ENDSEC
  0
SECTION
  2
TABLES
  0
TABLE
  2
VPORT
  5
7
330
0
100
AcDbSymbolTable
 70
     1
  0
VPORT
  5
15
330
7
100
AcDbSymbolTableRecord
100
AcDbViewportTableRecord
  2
*ACTIVE
 70
     0
 10
0.0
 20
0.0
 11
1.0
 21
1.0
 12
13687.61143404152
 22
-2241.55365239885
 13
0.0
 23
0.0
 14
1.0
 24
1.0
 15
0.0
 25
0.0
 16
0.0
 26
0.0
 36
1.0
 17
0.0
 27
0.0
 37
0.0
 40
4335.210561215365
 41
2.085858585858586
 42
50.0
 43
0.0
 44
0.0
 50
0.0
 51
0.0
 71
    16
 72
   100
 73
     1
 74
     1
 75
     0
 76
     0
 77
     0
 78
     0
281
     0
 65
     1
110
0.0
120
0.0
130
0.0
111
1.0
121
0.0
131
0.0
112
0.0
122
1.0
132
0.0
 79
     0
146
0.0
348
51C
 60
     3
 61
     5
292
     1
282
     1
141
0.0
142
0.0
 63
   256
361
1010
  0
ENDTAB
  0
TABLE
  2
LTYPE
  5
4
330
0
100
AcDbSymbolTable
 70
     8
  0
LTYPE
  5
11
330
4
100
AcDbSymbolTableRecord
100
AcDbLinetypeTableRecord
  2
BYBLOCK
 70
     0
  3

 72
    65
 73
     0
 40
0.0
  0
LTYPE
  5
12
330
4
100
AcDbSymbolTableRecord
100
AcDbLinetypeTableRecord
  2
BYLAYER
 70
     0
  3

 72
    65
 73
     0
 40
0.0
  0
LTYPE
  5
13
330
4
100
AcDbSymbolTableRecord
100
AcDbLinetypeTableRecord
  2
CONTINUOUS
 70
     0
  3
Solid line
 72
    65
 73
     0
 40
0.0
  0
LTYPE
  5
1D
330
4
100
AcDbSymbolTableRecord
100
AcDbLinetypeTableRecord
  2
DASHED
 70
     0
  3
Dashed
 72
    65
 73
     2
 40
15.0
 49
12.0
 74
     0
 49
-3.0
 74
     0
  0
LTYPE
  5
1E
330
4
100
AcDbSymbolTableRecord
100
AcDbLinetypeTableRecord
  2
DOTTED
 70
     0
  3
Dotted
 72
    65
 73
     2
 40
3.5
 49
0.5
 74
     0
 49
-3.0
 74
     0
  0
LTYPE
  5
1F
330
4
100
AcDbSymbolTableRecord
100
AcDbLinetypeTableRecord
  2
DOT_CENTER
 70
     0
  3
Dot_Center
 72
    65
 73
     4
 40
2.0
 49
1.25
 74
     0
 49
-0.25
 74
     0
 49
0.25
 74
     0
 49
-0.25
 74
     0
  0
LTYPE
  5
20
330
4
100
AcDbSymbolTableRecord
100
AcDbLinetypeTableRecord
  2
LONG_DASHED
 70
     0
  3
Long_Dashed
 72
    65
 73
     2
 40
2.0
 49
1.5
 74
     0
 49
-0.5
 74
     0
  0
LTYPE
  5
21
330
4
100
AcDbSymbolTableRecord
100
AcDbLinetypeTableRecord
  2
DASH_CENTER
 70
     0
  3
Dash_Center
 72
    65
 73
     4
 40
36.0
 49
24.0
 74
     0
 49
-3.0
 74
     0
 49
6.0
 74
     0
 49
-3.0
 74
     0
  0
LTYPE
  5
22
330
4
100
AcDbSymbolTableRecord
100
AcDbLinetypeTableRecord
  2
PHANTOM
 70
     0
  3
Phantom
 72
    65
 73
     6
 40
2.5
 49
1.25
 74
     0
 49
-0.25
 74
     0
 49
0.25
 74
     0
 49
-0.25
 74
     0
 49
0.25
 74
     0
 49
-0.25
 74
     0
  0
LTYPE
  5
23
330
4
100
AcDbSymbolTableRecord
100
AcDbLinetypeTableRecord
  2
CENTER_DASH_DASH
 70
     0
  3
Center_Dash_Dash
 72
    65
 73
     6
 40
22.0
 49
12.0
 74
     0
 49
-3.0
 74
     0
 49
0.5
 74
     0
 49
-3.0
 74
     0
 49
0.5
 74
     0
 49
-3.0
 74
     0
  0
ENDTAB
  0
TABLE
  2
LAYER
  5
2
330
0
100
AcDbSymbolTable
 70
     3
  0
LAYER
  5
14
330
2
100
AcDbSymbolTableRecord
100
AcDbLayerTableRecord
  2
0
 70
     0
 62
     7
  6
CONTINUOUS
370
    -3
390
4F1
347
533
348
0
  0
LAYER
  5
24
330
2
100
AcDbSymbolTableRecord
100
AcDbLayerTableRecord
  2
1
 70
     0
 62
     7
  6
CONTINUOUS
370
    -3
390
4F1
347
533
348
0
  0
LAYER
  5
540
330
2
100
AcDbSymbolTableRecord
100
AcDbLayerTableRecord
  2
Defpoints
 70
     0
 62
     7
  6
CONTINUOUS
290
     0
370
    -3
390
4F1
347
533
348
0
  0
ENDTAB
  0
TABLE
  2
STYLE
  5
3
330
0
100
AcDbSymbolTable
 70
     2
  0
STYLE
  5
17
330
3
100
AcDbSymbolTableRecord
100
AcDbTextStyleTableRecord
  2
STANDARD
 70
     0
 40
0.0
 41
1.0
 50
0.0
 71
     0
 42
0.0
  3
txt
  4

  0
STYLE
  5
4EC
330
3
100
AcDbSymbolTableRecord
100
AcDbTextStyleTableRecord
  2
CONVERTER_1
 70
     0
 40
0.0
 41
0.9
 50
0.0
 71
     0
 42
0.0
  3
txt.shx
  4

  0
ENDTAB
  0
TABLE
  2
VIEW
  5
5
330
0
100
AcDbSymbolTable
 70
     0
  0
ENDTAB
  0
TABLE
  2
UCS
  5
6
330
0
100
AcDbSymbolTable
 70
     0
  0
ENDTAB
  0
TABLE
  2
APPID
  5
8
330
0
100
AcDbSymbolTable
 70
     2
  0
APPID
  5
16
330
8
100
AcDbSymbolTableRecord
100
AcDbRegAppTableRecord
  2
ACAD
 70
     0
  0
APPID
  5
AF4
330
8
100
AcDbSymbolTableRecord
100
AcDbRegAppTableRecord
  2
ACAD_MLEADERVER
 70
     0
  0
ENDTAB
  0
TABLE
  2
DIMSTYLE
  5
9
330
0
100
AcDbSymbolTable
 70
     1
100
AcDbDimStyleTable
  0
DIMSTYLE
105
18
330
9
100
AcDbSymbolTableRecord
100
AcDbDimStyleTableRecord
  2
STANDARD
 70
     0
178
     0
289
     0
340
17
  0
ENDTAB
  0
TABLE
  2
BLOCK_RECORD
  5
1
330
0
100
AcDbSymbolTable
 70
     1
  0
BLOCK_RECORD
  5
A
330
1
100
AcDbSymbolTableRecord
100
AcDbBlockTableRecord
  2
*MODEL_SPACE
340
515
 70
     0
280
     1
281
     0
  0
BLOCK_RECORD
  5
27BC
330
1
100
AcDbSymbolTableRecord
100
AcDbBlockTableRecord
  2
*Paper_Space
340
27BD
 70
     0
280
     1
281
     0
  0
BLOCK_RECORD
  5
25
330
1
100
AcDbSymbolTableRecord
100
AcDbBlockTableRecord
  2
SAT1500C125__1
340
0
102
{BLKREFS
331
29
102
}
 70
     0
280
     1
281
     0
  0
ENDTAB
  0
ENDSEC
  0
SECTION
  2
BLOCKS
  0
BLOCK
  5
D
330
A
100
AcDbEntity
  8
0
100
AcDbBlockBegin
  2
*MODEL_SPACE
 70
     0
 10
0.0
 20
0.0
 30
0.0
  3
*MODEL_SPACE
  1

  0
ENDBLK
  5
E
330
A
100
AcDbEntity
  8
0
100
AcDbBlockEnd
  0
BLOCK
  5
27BE
330
27BC
100
AcDbEntity
 67
     1
  8
0
100
AcDbBlockBegin
  2
*Paper_Space
 70
     0
 10
0.0
 20
0.0
 30
0.0
  3
*Paper_Space
  1

  0
ENDBLK
  5
27BF
330
27BC
100
AcDbEntity
 67
     1
  8
0
100
AcDbBlockEnd
  0
BLOCK
  5
26
330
25
100
AcDbEntity
  8
0
100
AcDbBlockBegin
  2
SAT1500C125__1
 70
     0
 10
0.0
 20
0.0
 30
0.0
  3
SAT1500C125__1
  1

  0
ARC
  5
4E9
330
25
100
AcDbEntity
  8
1
  6
Continuous
 62
     0
100
AcDbCircle
 10
11202.09329208388
 20
-168.545596976932
 30
0.0
 40
3.000000000003
100
AcDbArc
 50
338.416561971973
 51
42.42556090092739
  0
ARC
  5
4E8
330
25
100
AcDbEntity
  8
1
  6
Continuous
 62
     0
100
AcDbCircle
 10
11236.41656131352
 20
-177.742489248611
 30
0.0
 40
3.000000000001
100
AcDbArc
 50
107.5744390991827
 51
171.5834380280214
  0
ARC
  5
4E7
330
25
100
AcDbEntity
  8
1
  6
Continuous
 62
     0
100
AcDbCircle
 10
11210.18116986292
 20
-164.411425373781
 30
0.0
 40
3.0
100
AcDbArc
 50
81.23461097282734
 51
158.4165619719141
  0
ARC
  5
4E6
330
25
100
AcDbEntity
  8
1
  6
Continuous
 62
     0
100
AcDbCircle
 10
11231.47933949574
 20
-170.118252727156
 30
0.0
 40
3.000000000003
100
AcDbArc
 50
351.5834380280705
 51
68.76538902711273
  0
ARC
  5
4E5
330
25
100
AcDbEntity
  8
1
  6
Continuous
 62
     0
100
AcDbCircle
 10
11019.85429174384
 20
-1118.658621547581
 30
0.0
 40
30.0
100
AcDbArc
 50
180.0
 51
218.4706455406043
  0
ARC
  5
4E4
330
25
100
AcDbEntity
  8
1
  6
Continuous
 62
     0
100
AcDbCircle
 10
10918.85429174384
 20
-1118.658621547582
 30
0.0
 40
30.000000000005
100
AcDbArc
 50
321.5293544594064
 51
0.0
  0
ARC
  5
4E3
330
25
100
AcDbEntity
  8
1
  6
Continuous
 62
     0
100
AcDbCircle
 10
13210.7646406124
 20
-1118.284365075471
 30
0.0
 40
6.0
100
AcDbArc
 50
180.0
 51
270.0
  0
ARC
  5
4E2
330
25
100
AcDbEntity
  8
1
  6
Continuous
 62
     0
100
AcDbCircle
 10
13208.7646406124
 20
-1148.287454140615
 30
0.0
 40
45.0
100
AcDbArc
 50
180.0
 51
270.0
  0
ARC
  5
4E1
330
25
100
AcDbEntity
  8
1
  6
Continuous
 62
     0
100
AcDbCircle
 10
13165.40655504741
 20
-939.065238269458
 30
0.0
 40
1.0
100
AcDbArc
 50
90.0
 51
180.0
  0
ARC
  5
4E0
330
25
100
AcDbEntity
  8
1
  6
Continuous
 62
     0
100
AcDbCircle
 10
13203.40655504741
 20
-939.065238269458
 30
0.0
 40
1.0
100
AcDbArc
 50
0.0
 51
90.0
  0
ARC
  5
4DF
330
25
100
AcDbEntity
  8
1
  6
Continuous
 62
     0
100
AcDbCircle
 10
13207.40655504741
 20
-945.065238269458
 30
0.0
 40
2.0
100
AcDbArc
 50
0.0
 51
90.0
  0
ARC
  5
4DE
330
25
100
AcDbEntity
  8
1
  6
Continuous
 62
     0
100
AcDbCircle
 10
13161.40655504741
 20
-945.065238269458
 30
0.0
 40
2.0
100
AcDbArc
 50
90.0
 51
180.0
  0
ARC
  5
4DD
330
25
100
AcDbEntity
  8
1
  6
Continuous
 62
     0
100
AcDbCircle
 10
13162.40655504741
 20
-941.065238269458
 30
0.0
 40
2.0
100
AcDbArc
 50
270.0
 51
0.0
  0
ARC
  5
4DC
330
25
100
AcDbEntity
  8
1
  6
Continuous
 62
     0
100
AcDbCircle
 10
13206.40655504741
 20
-941.065238269458
 30
0.0
 40
2.0
100
AcDbArc
 50
180.0
 51
270.0
  0
ARC
  5
4DB
330
25
100
AcDbEntity
  8
1
  6
Continuous
 62
     0
100
AcDbCircle
 10
13209.40655504741
 20
-986.488559338854
 30
0.0
 40
2.0
100
AcDbArc
 50
180.0
 51
239.9999999999994
  0
ARC
  5
4DA
330
25
100
AcDbEntity
  8
1
  6
Continuous
 62
     0
100
AcDbCircle
 10
13204.40655504741
 20
-986.065909608044
 30
0.0
 40
1.0
100
AcDbArc
 50
270.0
 51
0.0
  0
ARC
  5
4D9
330
25
100
AcDbEntity
  8
1
  6
Continuous
 62
     0
100
AcDbCircle
 10
13193.73988838075
 20
-986.065909608044
 30
0.0
 40
1.0
100
AcDbArc
 50
180.0
 51
270.0
  0
ARC
  5
4D8
330
25
100
AcDbEntity
  8
1
  6
Continuous
 62
     0
100
AcDbCircle
 10
13189.73988838075
 20
-986.065909608044
 30
0.0
 40
1.0
100
AcDbArc
 50
270.0
 51
0.0
  0
ARC
  5
4D7
330
25
100
AcDbEntity
  8
1
  6
Continuous
 62
     0
100
AcDbCircle
 10
13179.07322171408
 20
-986.065909608044
 30
0.0
 40
1.0
100
AcDbArc
 50
180.0
 51
270.0
  0
ARC
  5
4D6
330
25
100
AcDbEntity
  8
1
  6
Continuous
 62
     0
100
AcDbCircle
 10
13175.07322171408
 20
-986.065909608044
 30
0.0
 40
1.0
100
AcDbArc
 50
270.0
 51
0.0
  0
ARC
  5
4D5
330
25
100
AcDbEntity
  8
1
  6
Continuous
 62
     0
100
AcDbCircle
 10
13159.40655504741
 20
-986.488559338854
 30
0.0
 40
1.999999999999
100
AcDbArc
 50
300.0000000000168
 51
0.0
  0
ARC
  5
4D4
330
25
100
AcDbEntity
  8
1
  6
Continuous
 62
     0
100
AcDbCircle
 10
13164.40655504741
 20
-986.065909608044
 30
0.0
 40
1.0
100
AcDbArc
 50
180.0
 51
270.0
  0
ARC
  5
4D3
330
25
100
AcDbEntity
  8
1
  6
Continuous
 62
     0
100
AcDbCircle
 10
13149.40655504741
 20
-1002.065909608044
 30
0.0
 40
5.0
100
AcDbArc
 50
90.0
 51
180.0
  0
ARC
  5
4D2
330
25
100
AcDbEntity
  8
1
  6
Continuous
 62
     0
100
AcDbCircle
 10
13219.40655504741
 20
-1002.065909608044
 30
0.0
 40
5.0
100
AcDbArc
 50
0.0
 51
90.0
  0
ARC
  5
4D1
330
25
100
AcDbEntity
  8
1
  6
Continuous
 62
     0
100
AcDbCircle
 10
13149.40655504741
 20
-1055.565909608044
 30
0.0
 40
5.0
100
AcDbArc
 50
180.0
 51
270.0
  0
ARC
  5
4D0
330
25
100
AcDbEntity
  8
1
  6
Continuous
 62
     0
100
AcDbCircle
 10
13216.40655504741
 20
-1068.565909608044
 30
0.0
 40
3.0
100
AcDbArc
 50
270.0
 51
0.0
  0
ARC
  5
4CF
330
25
100
AcDbEntity
  8
1
  6
Continuous
 62
     0
100
AcDbCircle
 10
13152.40655504741
 20
-1068.565909608044
 30
0.0
 40
3.0
100
AcDbArc
 50
180.0
 51
270.0
  0
ARC
  5
4CE
330
25
100
AcDbEntity
  8
1
  6
Continuous
 62
     0
100
AcDbCircle
 10
13219.40655504741
 20
-1055.565909608044
 30
0.0
 40
5.0
100
AcDbArc
 50
270.0
 51
0.0
  0
ARC
  5
4CD
330
25
100
AcDbEntity
  8
1
  6
Continuous
 62
     0
100
AcDbCircle
 10
10937.35429174384
 20
-1068.565909608044
 30
0.0
 40
3.0
100
AcDbArc
 50
180.0
 51
270.0
  0
ARC
  5
4CC
330
25
100
AcDbEntity
  8
1
  6
Continuous
 62
     0
100
AcDbCircle
 10
11001.35429174384
 20
-1068.565909608044
 30
0.0
 40
3.0
100
AcDbArc
 50
270.0
 51
0.0
  0
ARC
  5
4CB
330
25
100
AcDbEntity
  8
1
  6
Continuous
 62
     0
100
AcDbCircle
 10
11015.35429174384
 20
-1060.065909608044
 30
0.0
 40
1.0
100
AcDbArc
 50
0.0
 51
90.0
  0
ARC
  5
4CA
330
25
100
AcDbEntity
  8
1
  6
Continuous
 62
     0
100
AcDbCircle
 10
11010.35429174384
 20
-1060.065909608044
 30
0.0
 40
1.0
100
AcDbArc
 50
90.0
 51
180.0
  0
ARC
  5
4C9
330
25
100
AcDbEntity
  8
1
  6
Continuous
 62
     0
100
AcDbCircle
 10
11015.35429174384
 20
-1003.065909608044
 30
0.0
 40
1.0
100
AcDbArc
 50
270.0
 51
0.0
  0
ARC
  5
4C8
330
25
100
AcDbEntity
  8
1
  6
Continuous
 62
     0
100
AcDbCircle
 10
11010.35429174384
 20
-1003.065909608044
 30
0.0
 40
1.0
100
AcDbArc
 50
180.0
 51
270.0
  0
ARC
  5
4C7
330
25
100
AcDbEntity
  8
1
  6
Continuous
 62
     0
100
AcDbCircle
 10
10934.35429174384
 20
-1055.565909608044
 30
0.0
 40
5.0
100
AcDbArc
 50
180.0
 51
270.0
  0
ARC
  5
4C6
330
25
100
AcDbEntity
  8
1
  6
Continuous
 62
     0
100
AcDbCircle
 10
11004.35429174384
 20
-1002.065909608044
 30
0.0
 40
5.0
100
AcDbArc
 50
0.0
 51
90.0
  0
ARC
  5
4C5
330
25
100
AcDbEntity
  8
1
  6
Continuous
 62
     0
100
AcDbCircle
 10
10934.35429174384
 20
-1002.065909608044
 30
0.0
 40
5.0
100
AcDbArc
 50
90.0
 51
180.0
  0
ARC
  5
4C4
330
25
100
AcDbEntity
  8
1
  6
Continuous
 62
     0
100
AcDbCircle
 10
10949.35429174384
 20
-986.065909608044
 30
0.0
 40
1.0
100
AcDbArc
 50
180.0
 51
270.0
  0
ARC
  5
4C3
330
25
100
AcDbEntity
  8
1
  6
Continuous
 62
     0
100
AcDbCircle
 10
10944.35429174384
 20
-986.488559338854
 30
0.0
 40
1.999999999999
100
AcDbArc
 50
300.0000000000168
 51
0.0
  0
ARC
  5
4C2
330
25
100
AcDbEntity
  8
1
  6
Continuous
 62
     0
100
AcDbCircle
 10
10960.02095841051
 20
-986.065909608044
 30
0.0
 40
1.0
100
AcDbArc
 50
270.0
 51
0.0
  0
ARC
  5
4C1
330
25
100
AcDbEntity
  8
1
  6
Continuous
 62
     0
100
AcDbCircle
 10
10964.02095841051
 20
-986.065909608044
 30
0.0
 40
1.0
100
AcDbArc
 50
180.0
 51
270.0
  0
ARC
  5
4C0
330
25
100
AcDbEntity
  8
1
  6
Continuous
 62
     0
100
AcDbCircle
 10
10974.68762507718
 20
-986.065909608044
 30
0.0
 40
1.0
100
AcDbArc
 50
270.0
 51
0.0
  0
ARC
  5
4BF
330
25
100
AcDbEntity
  8
1
  6
Continuous
 62
     0
100
AcDbCircle
 10
10978.68762507718
 20
-986.065909608044
 30
0.0
 40
1.0
100
AcDbArc
 50
180.0
 51
270.0
  0
ARC
  5
4BE
330
25
100
AcDbEntity
  8
1
  6
Continuous
 62
     0
100
AcDbCircle
 10
10989.35429174384
 20
-986.065909608044
 30
0.0
 40
1.0
100
AcDbArc
 50
270.0
 51
0.0
  0
ARC
  5
4BD
330
25
100
AcDbEntity
  8
1
  6
Continuous
 62
     0
100
AcDbCircle
 10
10994.35429174384
 20
-986.488559338854
 30
0.0
 40
2.0
100
AcDbArc
 50
180.0
 51
239.9999999999994
  0
ARC
  5
4BC
330
25
100
AcDbEntity
  8
1
  6
Continuous
 62
     0
100
AcDbCircle
 10
10991.35429174384
 20
-941.065909608044
 30
0.0
 40
2.0
100
AcDbArc
 50
180.0
 51
270.0
  0
ARC
  5
4BB
330
25
100
AcDbEntity
  8
1
  6
Continuous
 62
     0
100
AcDbCircle
 10
10947.35429174384
 20
-941.065909608044
 30
0.0
 40
2.0
100
AcDbArc
 50
270.0
 51
0.0
  0
ARC
  5
4BA
330
25
100
AcDbEntity
  8
1
  6
Continuous
 62
     0
100
AcDbCircle
 10
10946.35429174384
 20
-945.065909608044
 30
0.0
 40
2.0
100
AcDbArc
 50
90.0
 51
180.0
  0
ARC
  5
4B9
330
25
100
AcDbEntity
  8
1
  6
Continuous
 62
     0
100
AcDbCircle
 10
10992.35429174384
 20
-945.065909608044
 30
0.0
 40
2.0
100
AcDbArc
 50
0.0
 51
90.0
  0
ARC
  5
4B8
330
25
100
AcDbEntity
  8
1
  6
Continuous
 62
     0
100
AcDbCircle
 10
10988.35429174384
 20
-939.065909608044
 30
0.0
 40
1.0
100
AcDbArc
 50
0.0
 51
90.0
  0
ARC
  5
4B7
330
25
100
AcDbEntity
  8
1
  6
Continuous
 62
     0
100
AcDbCircle
 10
10950.35429174384
 20
-939.065909608044
 30
0.0
 40
1.0
100
AcDbArc
 50
90.0
 51
180.0
  0
ARC
  5
4B6
330
25
100
AcDbEntity
  8
1
  6
Continuous
 62
     0
100
AcDbCircle
 10
10351.53536363731
 20
-1093.0637238246
 30
0.0
 40
0.144444444444
100
AcDbArc
 50
137.7821654178541
 51
312.2178345827222
  0
ARC
  5
4B5
330
25
100
AcDbEntity
  8
1
  6
Continuous
 62
     0
100
AcDbCircle
 10
13751.74995810761
 20
-2451.965909608042
 30
0.0
 40
2.0
100
AcDbArc
 50
90.0
 51
180.0
  0
ARC
  5
4B4
330
25
100
AcDbEntity
  8
1
  6
Continuous
 62
     0
100
AcDbCircle
 10
13771.34275764665
 20
-2471.715909608043
 30
0.0
 40
2.0
100
AcDbArc
 50
90.0
 51
148.891077489551
  0
ARC
  5
4B3
330
25
100
AcDbEntity
  8
1
  6
Continuous
 62
     0
100
AcDbCircle
 10
13771.34275764665
 20
-2456.215909608043
 30
0.0
 40
2.000000000001
100
AcDbArc
 50
211.1089225107036
 51
270.0
  0
ARC
  5
4B2
330
25
100
AcDbEntity
  8
1
  6
Continuous
 62
     0
100
AcDbCircle
 10
13745.65715856857
 20
-2471.715909608043
 30
0.0
 40
1.999999999996
100
AcDbArc
 50
31.10892251045824
 51
90.0
  0
ARC
  5
4B1
330
25
100
AcDbEntity
  8
1
  6
Continuous
 62
     0
100
AcDbCircle
 10
13745.65715856857
 20
-2456.215909608043
 30
0.0
 40
2.0
100
AcDbArc
 50
270.0
 51
328.8910774892695
  0
ARC
  5
4B0
330
25
100
AcDbEntity
  8
1
  6
Continuous
 62
     0
100
AcDbCircle
 10
10997.35429174384
 20
-2452.379279381786
 30
0.0
 40
3.000000000002
100
AcDbArc
 50
321.9080428947923
 51
0.0
  0
ARC
  5
4AF
330
25
100
AcDbEntity
  8
1
  6
Continuous
 62
     0
100
AcDbCircle
 10
10997.35429174384
 20
-2475.552539834301
 30
0.0
 40
3.0
100
AcDbArc
 50
0.0
 51
38.09195710522228
  0
ARC
  5
4AE
330
25
100
AcDbEntity
  8
1
  6
Continuous
 62
     0
100
AcDbCircle
 10
10707.22924399195
 20
-170.118252727156
 30
0.0
 40
3.0
100
AcDbArc
 50
111.234610972872
 51
188.4165619719381
  0
ARC
  5
4AD
330
25
100
AcDbEntity
  8
1
  6
Continuous
 62
     0
100
AcDbCircle
 10
10728.52741362476
 20
-164.411425373781
 30
0.0
 40
3.000000000003
100
AcDbArc
 50
21.58343802802701
 51
98.76538902698809
  0
ARC
  5
4AC
330
25
100
AcDbEntity
  8
1
  6
Continuous
 62
     0
100
AcDbCircle
 10
10702.29202217416
 20
-177.742489248611
 30
0.0
 40
3.000000000002
100
AcDbArc
 50
8.416561971953938
 51
72.42556090082326
  0
ARC
  5
4AB
330
25
100
AcDbEntity
  8
1
  6
Continuous
 62
     0
100
AcDbCircle
 10
10736.61529140381
 20
-168.545596976932
 30
0.0
 40
2.999999999995
100
AcDbArc
 50
137.5744390990816
 51
201.5834380280251
  0
ARC
  5
4AA
330
25
100
AcDbEntity
  8
1
  6
Continuous
 62
     0
100
AcDbCircle
 10
10422.39200630466
 20
-1166.135909608041
 30
0.0
 40
2.999999999998
100
AcDbArc
 50
34.42900395086972
 51
90.0
  0
ARC
  5
4A9
330
25
100
AcDbEntity
  8
1
  6
Continuous
 62
     0
100
AcDbCircle
 10
10422.39200630466
 20
-1151.435909608041
 30
0.0
 40
3.0
100
AcDbArc
 50
270.0
 51
325.5709960490694
  0
ARC
  5
4A8
330
25
100
AcDbEntity
  8
1
  6
Continuous
 62
     0
100
AcDbCircle
 10
10443.83751865573
 20
-1151.435909608041
 30
0.0
 40
3.000000000001
100
AcDbArc
 50
214.4290039509449
 51
270.0
  0
ARC
  5
4A7
330
25
100
AcDbEntity
  8
1
  6
Continuous
 62
     0
100
AcDbCircle
 10
10443.83751865573
 20
-1166.135909608041
 30
0.0
 40
3.0
100
AcDbArc
 50
90.0
 51
145.5709960491356
  0
ARC
  5
4A6
330
25
100
AcDbEntity
  8
1
  6
Continuous
 62
     0
100
AcDbCircle
 10
10387.31603562178
 20
-1173.285909608043
 30
0.0
 40
3.0
100
AcDbArc
 50
90.0
 51
180.0
  0
ARC
  5
4A5
330
25
100
AcDbEntity
  8
1
  6
Continuous
 62
     0
100
AcDbCircle
 10
10387.31603562178
 20
-1144.285909608043
 30
0.0
 40
3.0
100
AcDbArc
 50
180.0
 51
270.0
  0
ARC
  5
4A4
330
25
100
AcDbEntity
  8
1
  6
Continuous
 62
     0
100
AcDbCircle
 10
11015.35429174384
 20
-3239.547633430057
 30
0.0
 40
1.0
100
AcDbArc
 50
0.0
 51
90.0
  0
ARC
  5
4A3
330
25
100
AcDbEntity
  8
1
  6
Continuous
 62
     0
100
AcDbCircle
 10
11015.35429174384
 20
-3182.547633430057
 30
0.0
 40
1.0
100
AcDbArc
 50
270.0
 51
0.0
  0
ARC
  5
4A2
330
25
100
AcDbEntity
  8
1
  6
Continuous
 62
     0
100
AcDbCircle
 10
10423.61429174384
 20
-3762.282950925258
 30
0.0
 40
3.000000000005
100
AcDbArc
 50
54.9488632525427
 51
90.0
  0
ARC
  5
4A1
330
25
100
AcDbEntity
  8
1
  6
Continuous
 62
     0
100
AcDbCircle
 10
10442.61429174384
 20
-3762.282950925258
 30
0.0
 40
3.0
100
AcDbArc
 50
90.0
 51
125.0511367472717
  0
ARC
  5
4A0
330
25
100
AcDbEntity
  8
1
  6
Continuous
 62
     0
100
AcDbCircle
 10
10336.85556488543
 20
-3766.282950925258
 30
0.0
 40
2.0
100
AcDbArc
 50
90.0
 51
180.0
  0
ARC
  5
49F
330
25
100
AcDbEntity
  8
1
  6
Continuous
 62
     0
100
AcDbCircle
 10
10336.85556488543
 20
-3797.282950925258
 30
0.0
 40
2.0
100
AcDbArc
 50
180.0
 51
270.0
  0
ARC
  5
49E
330
25
100
AcDbEntity
  8
1
  6
Continuous
 62
     0
100
AcDbCircle
 10
10410.85556488543
 20
-3766.282950925258
 30
0.0
 40
2.0
100
AcDbArc
 50
0.0
 51
90.0
  0
ARC
  5
49D
330
25
100
AcDbEntity
  8
1
  6
Continuous
 62
     0
100
AcDbCircle
 10
10410.85556488543
 20
-3797.282950925258
 30
0.0
 40
2.0
100
AcDbArc
 50
270.0
 51
0.0
  0
ARC
  5
494
330
25
100
AcDbEntity
  8
1
  6
Continuous
 62
     0
100
AcDbCircle
 10
10967.35429174384
 20
-4296.282950925257
 30
0.0
 40
2.0
100
AcDbArc
 50
180.0
 51
270.0
  0
ARC
  5
493
330
25
100
AcDbEntity
  8
1
  6
Continuous
 62
     0
100
AcDbCircle
 10
10971.35429174384
 20
-4296.282950925257
 30
0.0
 40
2.0
100
AcDbArc
 50
270.0
 51
0.0
  0
ARC
  5
492
330
25
100
AcDbEntity
  8
1
  6
Continuous
 62
     0
100
AcDbCircle
 10
10967.35429174384
 20
-4296.282950925257
 30
0.0
 40
2.0
100
AcDbArc
 50
180.0
 51
270.0
  0
ARC
  5
491
330
25
100
AcDbEntity
  8
1
  6
Continuous
 62
     0
100
AcDbCircle
 10
10971.35429174384
 20
-4296.282950925257
 30
0.0
 40
2.0
100
AcDbArc
 50
270.0
 51
0.0
  0
ARC
  5
490
330
25
100
AcDbEntity
  8
1
  6
Continuous
 62
     0
100
AcDbCircle
 10
10967.35429174384
 20
-4296.282950925257
 30
0.0
 40
2.0
100
AcDbArc
 50
180.0
 51
270.0
  0
ARC
  5
48F
330
25
100
AcDbEntity
  8
1
  6
Continuous
 62
     0
100
AcDbCircle
 10
10971.35429174384
 20
-4296.282950925257
 30
0.0
 40
2.0
100
AcDbArc
 50
270.0
 51
0.0
  0
ARC
  5
48E
330
25
100
AcDbEntity
  8
1
  6
Continuous
 62
     0
100
AcDbCircle
 10
10967.35429174384
 20
-4296.282950925257
 30
0.0
 40
2.0
100
AcDbArc
 50
180.0
 51
270.0
  0
ARC
  5
48D
330
25
100
AcDbEntity
  8
1
  6
Continuous
 62
     0
100
AcDbCircle
 10
10971.35429174384
 20
-4296.282950925257
 30
0.0
 40
2.0
100
AcDbArc
 50
270.0
 51
0.0
  0
CIRCLE
  5
48B
330
25
100
AcDbEntity
  8
1
  6
Continuous
 62
     0
100
AcDbCircle
 10
10969.35429174384
 20
-3785.282950925259
 30
0.0
 40
475.000000000001
  0
CIRCLE
  5
48A
330
25
100
AcDbEntity
  8
1
  6
Continuous
 62
     0
100
AcDbCircle
 10
10969.35429174384
 20
-3785.282950925259
 30
0.0
 40
484.000000000003
  0
CIRCLE
  5
489
330
25
100
AcDbEntity
  8
1
  6
Continuous
 62
     0
100
AcDbCircle
 10
11226.45238880524
 20
-146.282748845593
 30
0.0
 40
17.500000000001
  0
CIRCLE
  5
488
330
25
100
AcDbEntity
  8
1
  6
Continuous
 62
     0
100
AcDbCircle
 10
13184.2646406124
 20
-1031.565909608044
 30
0.0
 40
29.0
  0
CIRCLE
  5
487
330
25
100
AcDbEntity
  8
1
  6
Continuous
 62
     0
100
AcDbCircle
 10
13184.2646406124
 20
-1031.565909608044
 30
0.0
 40
21.0
  0
CIRCLE
  5
486
330
25
100
AcDbEntity
  8
1
  6
Continuous
 62
     0
100
AcDbCircle
 10
13184.2646406124
 20
-1031.565909608044
 30
0.0
 40
19.5
  0
CIRCLE
  5
485
330
25
100
AcDbEntity
  8
1
  6
Continuous
 62
     0
100
AcDbCircle
 10
10372.81603562178
 20
-1084.774964185031
 30
0.0
 40
2.247127062104
  0
CIRCLE
  5
484
330
25
100
AcDbEntity
  8
1
  6
Continuous
 62
     0
100
AcDbCircle
 10
10356.92639094856
 20
-1089.561770124341
 30
0.0
 40
0.722222222219
  0
CIRCLE
  5
483
330
25
100
AcDbEntity
  8
1
  6
Continuous
 62
     0
100
AcDbCircle
 10
10372.81603562178
 20
-1072.137182749626
 30
0.0
 40
2.888888888891
  0
CIRCLE
  5
482
330
25
100
AcDbEntity
  8
1
  6
Continuous
 62
     0
100
AcDbCircle
 10
10372.81922513766
 20
-1072.141341369557
 30
0.0
 40
36.092093524141
  0
CIRCLE
  5
481
330
25
100
AcDbEntity
  8
1
  6
Continuous
 62
     0
100
AcDbCircle
 10
13758.49995810761
 20
-2463.965909608043
 30
0.0
 40
3.600000000001
  0
CIRCLE
  5
480
330
25
100
AcDbEntity
  8
1
  6
Continuous
 62
     0
100
AcDbCircle
 10
13758.49995810761
 20
-2463.965909608043
 30
0.0
 40
7.5
  0
CIRCLE
  5
47F
330
25
100
AcDbEntity
  8
1
  6
Continuous
 62
     0
100
AcDbCircle
 10
13758.49995810761
 20
-2463.965909608043
 30
0.0
 40
6.0
  0
CIRCLE
  5
47E
330
25
100
AcDbEntity
  8
1
  6
Continuous
 62
     0
100
AcDbCircle
 10
13758.49995810761
 20
-2463.965909608043
 30
0.0
 40
11.100000000001
  0
CIRCLE
  5
47C
330
25
100
AcDbEntity
  8
1
  6
Continuous
 62
     0
100
AcDbCircle
 10
13758.49995810761
 20
-1158.785909608043
 30
0.0
 40
36.112999999999
  0
CIRCLE
  5
47B
330
25
100
AcDbEntity
  8
1
  6
Continuous
 62
     0
100
AcDbCircle
 10
13758.49995810761
 20
-1158.785909608043
 30
0.0
 40
41.0
  0
CIRCLE
  5
47A
330
25
100
AcDbEntity
  8
1
  6
Continuous
 62
     0
100
AcDbCircle
 10
10712.25619468244
 20
-146.282748845593
 30
0.0
 40
17.500000000001
  0
CIRCLE
  5
46C
330
25
100
AcDbEntity
  8
1
  6
Continuous
 62
     0
100
AcDbCircle
 10
10433.11476248019
 20
-1158.785909608043
 30
0.0
 40
6.25
  0
CIRCLE
  5
46B
330
25
100
AcDbEntity
  8
1
  6
Continuous
 62
     0
100
AcDbCircle
 10
10433.11476248019
 20
-1158.785909608043
 30
0.0
 40
3.0
  0
CIRCLE
  5
46A
330
25
100
AcDbEntity
  8
1
  6
Continuous
 62
     0
100
AcDbCircle
 10
10433.11476248019
 20
-1158.785909608043
 30
0.0
 40
5.0
  0
CIRCLE
  5
469
330
25
100
AcDbEntity
  8
1
  6
Continuous
 62
     0
100
AcDbCircle
 10
10433.11476248019
 20
-1158.785909608043
 30
0.0
 40
8.5
  0
CIRCLE
  5
467
330
25
100
AcDbEntity
  8
1
  6
Continuous
 62
     0
100
AcDbCircle
 10
11269.87467374813
 20
-4085.803332929542
 30
0.0
 40
11.5
  0
CIRCLE
  5
466
330
25
100
AcDbEntity
  8
1
  6
Continuous
 62
     0
100
AcDbCircle
 10
10668.83390973956
 20
-4085.803332929542
 30
0.0
 40
11.5
  0
CIRCLE
  5
465
330
25
100
AcDbEntity
  8
1
  6
Continuous
 62
     0
100
AcDbCircle
 10
10668.83390973956
 20
-3484.762568920976
 30
0.0
 40
11.5
  0
CIRCLE
  5
464
330
25
100
AcDbEntity
  8
1
  6
Continuous
 62
     0
100
AcDbCircle
 10
11269.87467374813
 20
-3484.762568920976
 30
0.0
 40
11.5
  0
CIRCLE
  5
463
330
25
100
AcDbEntity
  8
1
  6
Continuous
 62
     0
100
AcDbCircle
 10
10373.85556488543
 20
-3785.282950925259
 30
0.0
 40
7.474999999999
  0
CIRCLE
  5
462
330
25
100
AcDbEntity
  8
1
  6
Continuous
 62
     0
100
AcDbCircle
 10
10373.85556488543
 20
-3785.282950925259
 30
0.0
 40
8.331
  0
ARC
  5
45D
330
25
100
AcDbEntity
  8
1
  6
Continuous
 62
     0
100
AcDbCircle
 10
14244.95446686845
 20
-2476.320671397747
 30
0.0
 40
152.252346488172
100
AcDbArc
 50
153.6680368469681
 51
181.151737825457
  0
ARC
  5
45C
330
25
100
AcDbEntity
  8
1
  6
Continuous
 62
     0
100
AcDbCircle
 10
14244.95446686845
 20
-2476.320671397747
 30
0.0
 40
152.252346488172
100
AcDbArc
 50
153.6680368469681
 51
181.151737825457
  0
ARC
  5
45B
330
25
100
AcDbEntity
  8
1
  6
Continuous
 62
     0
100
AcDbCircle
 10
13272.04544934677
 20
-2476.320671397747
 30
0.0
 40
152.252346488166
100
AcDbArc
 50
358.8482621745441
 51
26.33196315303134
  0
ARC
  5
45A
330
25
100
AcDbEntity
  8
1
  6
Continuous
 62
     0
100
AcDbCircle
 10
13272.04544934677
 20
-2476.320671397747
 30
0.0
 40
152.252346488166
100
AcDbArc
 50
358.8482621745441
 51
26.33196315303134
  0
ARC
  5
459
330
25
100
AcDbEntity
  8
1
  6
Continuous
 62
     0
100
AcDbCircle
 10
14138.49995810761
 20
-2215.700395696405
 30
0.0
 40
104.0
100
AcDbArc
 50
296.3877999612421
 51
0.0
  0
ARC
  5
458
330
25
100
AcDbEntity
  8
1
  6
Continuous
 62
     0
100
AcDbCircle
 10
13758.49995810769
 20
-1449.785909608237
 30
0.0
 40
958.999999999791
100
AcDbArc
 50
291.405336673901
 51
296.387799961244
  0
ARC
  5
457
330
25
100
AcDbEntity
  8
1
  6
Continuous
 62
     0
100
AcDbCircle
 10
14138.49995810761
 20
-2215.700395696405
 30
0.0
 40
104.0
100
AcDbArc
 50
296.3877999612421
 51
0.0
  0
ARC
  5
456
330
25
100
AcDbEntity
  8
1
  6
Continuous
 62
     0
100
AcDbCircle
 10
14244.95446686845
 20
-2476.320671397747
 30
0.0
 40
152.252346488172
100
AcDbArc
 50
153.6680368469681
 51
181.151737825457
  0
ARC
  5
454
330
25
100
AcDbEntity
  8
1
  6
Continuous
 62
     0
100
AcDbCircle
 10
13378.49995810761
 20
-2215.700395696405
 30
0.0
 40
104.0
100
AcDbArc
 50
180.0
 51
243.6122000387544
  0
ARC
  5
453
330
25
100
AcDbEntity
  8
1
  6
Continuous
 62
     0
100
AcDbCircle
 10
13758.49995810752
 20
-1449.785909608237
 30
0.0
 40
958.999999999791
100
AcDbArc
 50
243.612200038756
 51
248.5946633261
  0
ARC
  5
451
330
25
100
AcDbEntity
  8
1
  6
Continuous
 62
     0
100
AcDbCircle
 10
10969.35429174376
 20
-1449.785909608237
 30
0.0
 40
958.999999999791
100
AcDbArc
 50
243.612200038756
 51
248.5946633261
  0
ARC
  5
450
330
25
100
AcDbEntity
  8
1
  6
Continuous
 62
     0
100
AcDbCircle
 10
13758.49995810761
 20
-1105.785909608027
 30
0.0
 40
958.999999999985
100
AcDbArc
 50
70.190453568189
 51
89.626588991675
  0
ARC
  5
44F
330
25
100
AcDbEntity
  8
1
  6
Continuous
 62
     0
100
AcDbCircle
 10
13767.43436659472
 20
-164.050951236348
 30
0.0
 40
4.971771314831
100
AcDbArc
 50
297.7759724770903
 51
320.0846153899122
  0
ARC
  5
44E
330
25
100
AcDbEntity
  8
1
  6
Continuous
 62
     0
100
AcDbCircle
 10
13762.87351868264
 20
-155.038362854405
 30
0.0
 40
15.072223653273
100
AcDbArc
 50
281.6767704617482
 51
297.1499574383744
  0
ARC
  5
44D
330
25
100
AcDbEntity
  8
1
  6
Continuous
 62
     0
100
AcDbCircle
 10
13760.13752652451
 20
-144.225393463421
 30
0.0
 40
26.219752682684
100
AcDbArc
 50
280.1318738582855
 51
282.7496222959857
  0
ARC
  5
44C
330
25
100
AcDbEntity
  8
1
  6
Continuous
 62
     0
100
AcDbCircle
 10
13760.13752652451
 20
-188.204631376915
 30
0.0
 40
26.219752682683
100
AcDbArc
 50
77.2503777040138
 51
79.86812614171406
  0
ARC
  5
44B
330
25
100
AcDbEntity
  8
1
  6
Continuous
 62
     0
100
AcDbCircle
 10
13762.87351868264
 20
-177.391661985932
 30
0.0
 40
15.072223653273
100
AcDbArc
 50
62.85004256162556
 51
78.32322953825178
  0
ARC
  5
44A
330
25
100
AcDbEntity
  8
1
  6
Continuous
 62
     0
100
AcDbCircle
 10
13767.43436659472
 20
-168.379073603988
 30
0.0
 40
4.971771314831
100
AcDbArc
 50
39.91538461008454
 51
62.22402752290935
  0
ARC
  5
449
330
25
100
AcDbEntity
  8
1
  6
Continuous
 62
     0
100
AcDbCircle
 10
13770.00370338682
 20
-166.215367913398
 30
0.0
 40
1.612338933407
100
AcDbArc
 50
320.4919605917808
 51
39.25404369604135
  0
ARC
  5
448
330
25
100
AcDbEntity
  8
1
  6
Continuous
 62
     0
100
AcDbCircle
 10
13756.86238969071
 20
-188.204631376915
 30
0.0
 40
26.219752682684
100
AcDbArc
 50
100.1318738582856
 51
102.7496222960061
  0
ARC
  5
447
330
25
100
AcDbEntity
  8
1
  6
Continuous
 62
     0
100
AcDbCircle
 10
13754.12639753257
 20
-177.391661985932
 30
0.0
 40
15.072223653273
100
AcDbArc
 50
101.6767704617412
 51
117.1499574383744
  0
ARC
  5
446
330
25
100
AcDbEntity
  8
1
  6
Continuous
 62
     0
100
AcDbCircle
 10
13749.5655496205
 20
-168.379073603988
 30
0.0
 40
4.971771314835
100
AcDbArc
 50
117.7759724772082
 51
140.0846153899881
  0
ARC
  5
445
330
25
100
AcDbEntity
  8
1
  6
Continuous
 62
     0
100
AcDbCircle
 10
13756.86238969071
 20
-144.225393463421
 30
0.0
 40
26.219752682686
100
AcDbArc
 50
257.2503777039949
 51
259.8681261417153
  0
ARC
  5
444
330
25
100
AcDbEntity
  8
1
  6
Continuous
 62
     0
100
AcDbCircle
 10
13754.12639753257
 20
-155.038362854405
 30
0.0
 40
15.072223653273
100
AcDbArc
 50
242.8500425616256
 51
258.3232295382588
  0
ARC
  5
443
330
25
100
AcDbEntity
  8
1
  6
Continuous
 62
     0
100
AcDbCircle
 10
13749.5655496205
 20
-164.050951236348
 30
0.0
 40
4.971771314839
100
AcDbArc
 50
219.9153846100298
 51
242.2240275227927
  0
ARC
  5
442
330
25
100
AcDbEntity
  8
1
  6
Continuous
 62
     0
100
AcDbCircle
 10
13746.99621282839
 20
-166.215367913398
 30
0.0
 40
1.612338933402
100
AcDbArc
 50
140.7459563039668
 51
219.5080394082259
  0
ARC
  5
441
330
25
100
AcDbEntity
  8
1
  6
Continuous
 62
     0
100
AcDbCircle
 10
13745.25725296798
 20
-179.883215576891
 30
0.0
 40
1.769429344085
100
AcDbArc
 50
186.7139820485792
 51
244.4967018385773
  0
ARC
  5
440
330
25
100
AcDbEntity
  8
1
  6
Continuous
 62
     0
100
AcDbCircle
 10
13749.75752555893
 20
-173.132763222481
 30
0.0
 40
9.867633396015
100
AcDbArc
 50
237.7732640697577
 51
257.8727354330297
  0
ARC
  5
43F
330
25
100
AcDbEntity
  8
1
  6
Continuous
 62
     0
100
AcDbCircle
 10
13771.74266324724
 20
-179.883215576891
 30
0.0
 40
1.769429344084
100
AcDbArc
 50
295.5032981614378
 51
353.286017951429
  0
ARC
  5
43E
330
25
100
AcDbEntity
  8
1
  6
Continuous
 62
     0
100
AcDbCircle
 10
13767.24239065628
 20
-173.132763222481
 30
0.0
 40
9.867633396018
100
AcDbArc
 50
282.1272645669558
 51
302.2267359302932
  0
ARC
  5
43D
330
25
100
AcDbEntity
  8
1
  6
Continuous
 62
     0
100
AcDbCircle
 10
13758.49550385932
 20
-134.286393098035
 30
0.0
 40
49.686199239439
100
AcDbArc
 50
257.4837911585823
 51
282.5777966181305
  0
ARC
  5
43C
330
25
100
AcDbEntity
  8
1
  6
Continuous
 62
     0
100
AcDbCircle
 10
13758.49995810761
 20
-122.70990381051
 30
0.0
 40
6.25
100
AcDbArc
 50
0.0
 51
180.0
  0
ARC
  5
43B
330
25
100
AcDbEntity
  8
1
  6
Continuous
 62
     0
100
AcDbCircle
 10
11226.45238880524
 20
-146.282748845593
 30
0.0
 40
30.0
100
AcDbArc
 50
287.5744390991669
 51
222.4255609008347
  0
ARC
  5
43A
330
25
100
AcDbEntity
  8
1
  6
Continuous
 62
     0
100
AcDbCircle
 10
10589.35429174384
 20
-339.871423519681
 30
0.0
 40
104.0
100
AcDbArc
 50
116.3877999612421
 51
180.0
  0
ARC
  5
439
330
25
100
AcDbEntity
  8
1
  6
Continuous
 62
     0
100
AcDbCircle
 10
11349.35429174384
 20
-339.871423519681
 30
0.0
 40
104.0
100
AcDbArc
 50
0.0
 51
63.6122000387534
  0
ARC
  5
438
330
25
100
AcDbEntity
  8
1
  6
Continuous
 62
     0
100
AcDbCircle
 10
11349.35429174384
 20
-339.871423519681
 30
0.0
 40
104.0
100
AcDbArc
 50
0.0
 51
63.6122000387534
  0
ARC
  5
437
330
25
100
AcDbEntity
  8
1
  6
Continuous
 62
     0
100
AcDbCircle
 10
11349.35429174384
 20
-339.871423519681
 30
0.0
 40
104.0
100
AcDbArc
 50
0.0
 51
63.6122000387534
  0
ARC
  5
436
330
25
100
AcDbEntity
  8
1
  6
Continuous
 62
     0
100
AcDbCircle
 10
10969.35429174393
 20
-1105.78590960785
 30
0.0
 40
958.999999999791
100
AcDbArc
 50
63.612200038756
 51
70.19045356819096
  0
ARC
  5
435
330
25
100
AcDbEntity
  8
1
  6
Continuous
 62
     0
100
AcDbCircle
 10
10969.35429174385
 20
-1105.785909608027
 30
0.0
 40
958.999999999982
100
AcDbArc
 50
70.19045356818998
 51
90.0
  0
ARC
  5
434
330
25
100
AcDbEntity
  8
1
  6
Continuous
 62
     0
100
AcDbCircle
 10
10969.35429174384
 20
-1105.785909608027
 30
0.0
 40
958.999999999984
100
AcDbArc
 50
90.0
 51
109.80954643181
  0
ARC
  5
433
330
25
100
AcDbEntity
  8
1
  6
Continuous
 62
     0
100
AcDbCircle
 10
10969.35429174376
 20
-1105.78590960785
 30
0.0
 40
958.999999999791
100
AcDbArc
 50
109.8095464318091
 51
116.387799961244
  0
ARC
  5
432
330
25
100
AcDbEntity
  8
1
  6
Continuous
 62
     0
100
AcDbCircle
 10
10589.35429174384
 20
-339.871423519681
 30
0.0
 40
104.0
100
AcDbArc
 50
116.3877999612421
 51
180.0
  0
ARC
  5
430
330
25
100
AcDbEntity
  8
1
  6
Continuous
 62
     0
100
AcDbCircle
 10
11349.35429174384
 20
-2215.700395696405
 30
0.0
 40
104.000000000004
100
AcDbArc
 50
296.3877999612467
 51
0.0
  0
ARC
  5
42F
330
25
100
AcDbEntity
  8
1
  6
Continuous
 62
     0
100
AcDbCircle
 10
10969.35429174393
 20
-1449.785909608237
 30
0.0
 40
958.999999999787
100
AcDbArc
 50
291.4053366739
 51
296.387799961244
  0
ARC
  5
42E
330
25
100
AcDbEntity
  8
1
  6
Continuous
 62
     0
100
AcDbCircle
 10
11349.35429174384
 20
-2215.700395696405
 30
0.0
 40
104.000000000004
100
AcDbArc
 50
296.3877999612467
 51
0.0
  0
ARC
  5
42B
330
25
100
AcDbEntity
  8
1
  6
Continuous
 62
     0
100
AcDbCircle
 10
10589.35429174384
 20
-2215.700395696405
 30
0.0
 40
104.0
100
AcDbArc
 50
180.0
 51
243.6122000387578
  0
ARC
  5
42A
330
25
100
AcDbEntity
  8
1
  6
Continuous
 62
     0
100
AcDbCircle
 10
10969.35429174384
 20
-1158.785909608043
 30
0.0
 40
36.001544532572
100
AcDbArc
 50
270.0
 51
49.62608675774435
  0
ARC
  5
429
330
25
100
AcDbEntity
  8
1
  6
Continuous
 62
     0
100
AcDbCircle
 10
10969.35429174384
 20
-1158.785909608043
 30
0.0
 40
34.501544532572
100
AcDbArc
 50
270.0
 51
38.4706455406014
  0
ARC
  5
428
330
25
100
AcDbEntity
  8
1
  6
Continuous
 62
     0
100
AcDbCircle
 10
10969.35429174384
 20
-1158.785909608043
 30
0.0
 40
34.501544532566
100
AcDbArc
 50
141.5293544593911
 51
270.0
  0
ARC
  5
427
330
25
100
AcDbEntity
  8
1
  6
Continuous
 62
     0
100
AcDbCircle
 10
10969.35429174384
 20
-1158.785909608043
 30
0.0
 40
36.001544532569
100
AcDbArc
 50
130.3739132422445
 51
270.0
  0
ARC
  5
426
330
25
100
AcDbEntity
  8
1
  6
Continuous
 62
     0
100
AcDbCircle
 10
10996.34401058383
 20
-1116.950990790307
 30
0.0
 40
6.489718839988
100
AcDbArc
 50
140.0740622145716
 51
180.0
  0
ARC
  5
425
330
25
100
AcDbEntity
  8
1
  6
Continuous
 62
     0
100
AcDbCircle
 10
10942.36457290386
 20
-1116.950990790307
 30
0.0
 40
6.489718839981
100
AcDbArc
 50
0.0
 51
39.92593778543315
  0
ARC
  5
424
330
25
100
AcDbEntity
  8
1
  6
Continuous
 62
     0
100
AcDbCircle
 10
10995.99620617885
 20
-1058.009624028045
 30
0.0
 40
28.556285579997
100
AcDbArc
 50
246.7989471040667
 51
270.0
  0
ARC
  5
423
330
25
100
AcDbEntity
  8
1
  6
Continuous
 62
     0
100
AcDbCircle
 10
10942.99620617885
 20
-1058.009624028045
 30
0.0
 40
28.556285579999
100
AcDbArc
 50
270.0
 51
293.2010528959318
  0
ARC
  5
422
330
25
100
AcDbEntity
  8
1
  6
Continuous
 62
     0
100
AcDbCircle
 10
10969.49620617885
 20
-1035.059950827759
 30
0.0
 40
51.505958780284
100
AcDbArc
 50
252.7775550278672
 51
287.2224449721328
  0
ARC
  5
421
330
25
100
AcDbEntity
  8
1
  6
Continuous
 62
     0
100
AcDbCircle
 10
13217.87513457287
 20
-1113.868923575373
 30
0.0
 40
10.415441500098
100
AcDbArc
 50
270.0
 51
301.131490566085
  0
ARC
  5
420
330
25
100
AcDbEntity
  8
1
  6
Continuous
 62
     0
100
AcDbCircle
 10
13217.87513457287
 20
-1203.702895640714
 30
0.0
 40
10.415441500098
100
AcDbArc
 50
58.86850943391497
 51
90.0
  0
ARC
  5
41F
330
25
100
AcDbEntity
  8
1
  6
Continuous
 62
     0
100
AcDbCircle
 10
13211.25435945239
 20
-1116.950990790307
 30
0.0
 40
6.489718839988
100
AcDbArc
 50
140.0740622145716
 51
180.0
  0
ARC
  5
41E
330
25
100
AcDbEntity
  8
1
  6
Continuous
 62
     0
100
AcDbCircle
 10
13157.27492177242
 20
-1116.950990790307
 30
0.0
 40
6.489718839981
100
AcDbArc
 50
0.0
 51
39.92593778543007
  0
ARC
  5
41D
330
25
100
AcDbEntity
  8
1
  6
Continuous
 62
     0
100
AcDbCircle
 10
13184.40655504741
 20
-955.63102987701
 30
0.0
 40
25.565791607552
100
AcDbArc
 50
68.78850558533622
 51
111.2114944146638
  0
ARC
  5
41C
330
25
100
AcDbEntity
  8
1
  6
Continuous
 62
     0
100
AcDbCircle
 10
13199.90655504741
 20
-942.207636118352
 30
0.0
 40
12.142397848894
100
AcDbArc
 50
90.0
 51
120.979098861628
  0
ARC
  5
41B
330
25
100
AcDbEntity
  8
1
  6
Continuous
 62
     0
100
AcDbCircle
 10
13168.90655504741
 20
-942.207636118352
 30
0.0
 40
12.142397848894
100
AcDbArc
 50
59.02090113837195
 51
90.0
  0
ARC
  5
41A
330
25
100
AcDbEntity
  8
1
  6
Continuous
 62
     0
100
AcDbCircle
 10
13184.40655504741
 20
-921.565238269458
 30
0.0
 40
15.0
100
AcDbArc
 50
0.0
 51
180.0
  0
ARC
  5
419
330
25
100
AcDbEntity
  8
1
  6
Continuous
 62
     0
100
AcDbCircle
 10
13184.40655504741
 20
-1022.15196659192
 30
0.0
 40
35.086056983878
100
AcDbArc
 50
67.81224586875943
 51
112.1877541312406
  0
ARC
  5
418
330
25
100
AcDbEntity
  8
1
  6
Continuous
 62
     0
100
AcDbCircle
 10
13162.40655504741
 20
-1003.099407708662
 30
0.0
 40
16.03349810062
100
AcDbArc
 50
56.92526993279543
 51
90.0
  0
ARC
  5
417
330
25
100
AcDbEntity
  8
1
  6
Continuous
 62
     0
100
AcDbCircle
 10
13206.40655504741
 20
-944.065238269458
 30
0.0
 40
1.0
100
AcDbArc
 50
0.0
 51
180.0
  0
ARC
  5
416
330
25
100
AcDbEntity
  8
1
  6
Continuous
 62
     0
100
AcDbCircle
 10
13191.73988838075
 20
-944.065238269458
 30
0.0
 40
1.0
100
AcDbArc
 50
0.0
 51
180.0
  0
ARC
  5
415
330
25
100
AcDbEntity
  8
1
  6
Continuous
 62
     0
100
AcDbCircle
 10
13177.07322171408
 20
-944.065238269458
 30
0.0
 40
1.0
100
AcDbArc
 50
0.0
 51
180.0
  0
ARC
  5
414
330
25
100
AcDbEntity
  8
1
  6
Continuous
 62
     0
100
AcDbCircle
 10
13162.40655504741
 20
-944.065238269458
 30
0.0
 40
1.0
100
AcDbArc
 50
0.0
 51
180.0
  0
ARC
  5
413
330
25
100
AcDbEntity
  8
1
  6
Continuous
 62
     0
100
AcDbCircle
 10
13206.40655504741
 20
-1003.099407708662
 30
0.0
 40
16.033498100619
100
AcDbArc
 50
90.0
 51
123.0747300672068
  0
ARC
  5
412
330
25
100
AcDbEntity
  8
1
  6
Continuous
 62
     0
100
AcDbCircle
 10
13184.40655504741
 20
-1035.059950827759
 30
0.0
 40
51.505958780284
100
AcDbArc
 50
252.7775550278672
 51
287.2224449721328
  0
ARC
  5
411
330
25
100
AcDbEntity
  8
1
  6
Continuous
 62
     0
100
AcDbCircle
 10
13157.90655504741
 20
-1058.009624028045
 30
0.0
 40
28.556285579999
100
AcDbArc
 50
270.0
 51
293.2010528959318
  0
ARC
  5
410
330
25
100
AcDbEntity
  8
1
  6
Continuous
 62
     0
100
AcDbCircle
 10
13210.90655504741
 20
-1058.009624028045
 30
0.0
 40
28.556285579997
100
AcDbArc
 50
246.7989471040667
 51
270.0
  0
ARC
  5
40F
330
25
100
AcDbEntity
  8
1
  6
Continuous
 62
     0
100
AcDbCircle
 10
10995.85429174384
 20
-1058.009624028045
 30
0.0
 40
28.556285579997
100
AcDbArc
 50
246.7989471040667
 51
270.0
  0
ARC
  5
40E
330
25
100
AcDbEntity
  8
1
  6
Continuous
 62
     0
100
AcDbCircle
 10
10942.85429174384
 20
-1058.009624028045
 30
0.0
 40
28.556285579999
100
AcDbArc
 50
270.0
 51
293.2010528959318
  0
ARC
  5
40D
330
25
100
AcDbEntity
  8
1
  6
Continuous
 62
     0
100
AcDbCircle
 10
10969.35429174384
 20
-1035.059950827759
 30
0.0
 40
51.505958780284
100
AcDbArc
 50
252.7775550278672
 51
287.2224449721328
  0
ARC
  5
40C
330
25
100
AcDbEntity
  8
1
  6
Continuous
 62
     0
100
AcDbCircle
 10
10991.35429174384
 20
-1003.099407708662
 30
0.0
 40
16.033498100619
100
AcDbArc
 50
90.0
 51
123.0747300672068
  0
ARC
  5
40B
330
25
100
AcDbEntity
  8
1
  6
Continuous
 62
     0
100
AcDbCircle
 10
10947.35429174384
 20
-944.065909608044
 30
0.0
 40
1.0
100
AcDbArc
 50
0.0
 51
180.0
  0
ARC
  5
40A
330
25
100
AcDbEntity
  8
1
  6
Continuous
 62
     0
100
AcDbCircle
 10
10962.02095841051
 20
-944.065909608044
 30
0.0
 40
1.0
100
AcDbArc
 50
0.0
 51
180.0
  0
ARC
  5
409
330
25
100
AcDbEntity
  8
1
  6
Continuous
 62
     0
100
AcDbCircle
 10
10976.68762507718
 20
-944.065909608044
 30
0.0
 40
1.0
100
AcDbArc
 50
0.0
 51
180.0
  0
ARC
  5
408
330
25
100
AcDbEntity
  8
1
  6
Continuous
 62
     0
100
AcDbCircle
 10
10991.35429174384
 20
-944.065909608044
 30
0.0
 40
1.0
100
AcDbArc
 50
0.0
 51
180.0
  0
ARC
  5
407
330
25
100
AcDbEntity
  8
1
  6
Continuous
 62
     0
100
AcDbCircle
 10
10947.35429174384
 20
-1003.099407708662
 30
0.0
 40
16.03349810062
100
AcDbArc
 50
56.92526993279543
 51
90.0
  0
ARC
  5
406
330
25
100
AcDbEntity
  8
1
  6
Continuous
 62
     0
100
AcDbCircle
 10
10969.35429174384
 20
-1022.15196659192
 30
0.0
 40
35.086056983878
100
AcDbArc
 50
67.81224586875943
 51
112.1877541312406
  0
ARC
  5
405
330
25
100
AcDbEntity
  8
1
  6
Continuous
 62
     0
100
AcDbCircle
 10
10969.35429174384
 20
-921.565909608044
 30
0.0
 40
15.0
100
AcDbArc
 50
0.0
 51
180.0
  0
ARC
  5
404
330
25
100
AcDbEntity
  8
1
  6
Continuous
 62
     0
100
AcDbCircle
 10
10953.85429174384
 20
-942.208307456936
 30
0.0
 40
12.142397848894
100
AcDbArc
 50
59.02090113837195
 51
90.0
  0
ARC
  5
403
330
25
100
AcDbEntity
  8
1
  6
Continuous
 62
     0
100
AcDbCircle
 10
10984.85429174384
 20
-942.208307456936
 30
0.0
 40
12.142397848893
100
AcDbArc
 50
90.0
 51
120.9790988616308
  0
ARC
  5
402
330
25
100
AcDbEntity
  8
1
  6
Continuous
 62
     0
100
AcDbCircle
 10
10969.35429174384
 20
-955.631701215596
 30
0.0
 40
25.565791607553
100
AcDbArc
 50
68.78850558533703
 51
111.211494414663
  0
ARC
  5
401
330
25
100
AcDbEntity
  8
1
  6
Continuous
 62
     0
100
AcDbCircle
 10
10374.91883875486
 20
-1070.03437961654
 30
0.0
 40
13.711205269322
100
AcDbArc
 50
30.13902348557433
 51
59.86097651441459
  0
ARC
  5
400
330
25
100
AcDbEntity
  8
1
  6
Continuous
 62
     0
100
AcDbCircle
 10
10381.47677813981
 20
-1058.739078352263
 30
0.0
 40
0.65017929019
100
AcDbArc
 50
59.86097651457227
 51
153.4176955807713
  0
ARC
  5
3FF
330
25
100
AcDbEntity
  8
1
  6
Continuous
 62
     0
100
AcDbCircle
 10
10342.53242368511
 20
-1039.25223997572
 30
0.0
 40
42.897491299709
100
AcDbArc
 50
316.733088377298
 51
333.4176955808185
  0
ARC
  5
3FE
330
25
100
AcDbEntity
  8
1
  6
Continuous
 62
     0
100
AcDbCircle
 10
10386.21414001914
 20
-1063.476440231594
 30
0.0
 40
0.650179290189
100
AcDbArc
 50
296.5823044189151
 51
30.13902348547525
  0
ARC
  5
3FD
330
25
100
AcDbEntity
  8
1
  6
Continuous
 62
     0
100
AcDbCircle
 10
10405.70097839568
 20
-1102.420794686292
 30
0.0
 40
42.897491299712
100
AcDbArc
 50
116.5823044191848
 51
133.266911622695
  0
ARC
  5
3FC
330
25
100
AcDbEntity
  8
1
  6
Continuous
 62
     0
100
AcDbCircle
 10
10372.81490698913
 20
-1072.136198969613
 30
0.0
 40
32.087775151113
100
AcDbArc
 50
179.9269078913232
 51
224.5555346918007
  0
ARC
  5
3FB
330
25
100
AcDbEntity
  8
1
  6
Continuous
 62
     0
100
AcDbCircle
 10
10372.81603562178
 20
-1071.806048659204
 30
0.0
 40
39.342857142856
100
AcDbArc
 50
254.9738862408818
 51
285.026113759121
  0
ARC
  5
3FA
330
25
100
AcDbEntity
  8
1
  6
Continuous
 62
     0
100
AcDbCircle
 10
10372.77159117733
 20
-1072.103095416788
 30
0.0
 40
39.044459324232
100
AcDbArc
 50
214.0413943255924
 51
254.9238647887205
  0
ARC
  5
3F9
330
25
100
AcDbEntity
  8
1
  6
Continuous
 62
     0
100
AcDbCircle
 10
10372.86048006622
 20
-1072.19513121545
 30
0.0
 40
38.955598656251
100
AcDbArc
 50
334.0155658970755
 51
0.0852304639130497
  0
ARC
  5
3F8
330
25
100
AcDbEntity
  8
1
  6
Continuous
 62
     0
100
AcDbCircle
 10
10372.81603562178
 20
-1072.137182749626
 30
0.0
 40
3.611111111111
100
AcDbArc
 50
0.0
 51
15.30203171437776
  0
ARC
  5
3F7
330
25
100
AcDbEntity
  8
1
  6
Continuous
 62
     0
100
AcDbCircle
 10
10372.81603562178
 20
-1072.137182749626
 30
0.0
 40
3.611111111114
100
AcDbArc
 50
248.5781784780835
 51
0.0
  0
ARC
  5
3F6
330
25
100
AcDbEntity
  8
1
  6
Continuous
 62
     0
100
AcDbCircle
 10
10372.81603562178
 20
-1072.137182749626
 30
0.0
 40
3.611111111109
100
AcDbArc
 50
74.69796828574593
 51
201.4218215217867
  0
ARC
  5
3F5
330
25
100
AcDbEntity
  8
1
  6
Continuous
 62
     0
100
AcDbCircle
 10
10372.81490698913
 20
-1072.136198969613
 30
0.0
 40
32.087775151116
100
AcDbArc
 50
314.9991688162374
 51
179.9269078913232
  0
ARC
  5
3F4
330
25
100
AcDbEntity
  8
1
  6
Continuous
 62
     0
100
AcDbCircle
 10
10372.8187259103
 20
-1072.140690456712
 30
0.0
 40
28.591593842013
100
AcDbArc
 50
315.0000000000045
 51
180.0
  0
ARC
  5
3F3
330
25
100
AcDbEntity
  8
1
  6
Continuous
 62
     0
100
AcDbCircle
 10
10372.8187259103
 20
-1072.140690456712
 30
0.0
 40
28.591593842009
100
AcDbArc
 50
180.0
 51
224.4894078670362
  0
ARC
  5
3F2
330
25
100
AcDbEntity
  8
1
  6
Continuous
 62
     0
100
AcDbCircle
 10
10372.77159117733
 20
-1072.103095416788
 30
0.0
 40
39.044459324236
100
AcDbArc
 50
359.9499785478301
 51
85.9693421507977
  0
ARC
  5
3F1
330
25
100
AcDbEntity
  8
1
  6
Continuous
 62
     0
100
AcDbCircle
 10
10372.77159117733
 20
-1072.103095416788
 30
0.0
 40
39.044459324229
100
AcDbArc
 50
85.96934215079965
 51
93.89990484408638
  0
ARC
  5
3F0
330
25
100
AcDbEntity
  8
1
  6
Continuous
 62
     0
100
AcDbCircle
 10
10372.81603562178
 20
-1034.296136092557
 30
0.0
 40
3.637499999992
100
AcDbArc
 50
42.07502205094583
 51
137.9249779491431
  0
ARC
  5
3EF
330
25
100
AcDbEntity
  8
1
  6
Continuous
 62
     0
100
AcDbCircle
 10
10340.04472791096
 20
-1091.05770607816
 30
0.0
 40
3.637499999995
100
AcDbArc
 50
162.0750220508478
 51
257.9249779492604
  0
ARC
  5
3EE
330
25
100
AcDbEntity
  8
1
  6
Continuous
 62
     0
100
AcDbCircle
 10
10405.54347174146
 20
-1091.03237680321
 30
0.0
 40
3.637499999999
100
AcDbArc
 50
282.0750220507852
 51
17.924977949172
  0
ARC
  5
3ED
330
25
100
AcDbEntity
  8
1
  6
Continuous
 62
     0
100
AcDbCircle
 10
10372.86048006622
 20
-1072.19513121545
 30
0.0
 40
38.955598656249
100
AcDbArc
 50
285.1113442230395
 51
326.0668870753447
  0
ARC
  5
3EC
330
25
100
AcDbEntity
  8
1
  6
Continuous
 62
     0
100
AcDbCircle
 10
10372.86048006622
 20
-1072.19513121545
 30
0.0
 40
38.955598656249
100
AcDbArc
 50
326.0668870753447
 51
334.0155658970755
  0
ARC
  5
3EB
330
25
100
AcDbEntity
  8
1
  6
Continuous
 62
     0
100
AcDbCircle
 10
10372.77159117733
 20
-1072.103095416788
 30
0.0
 40
39.044459324229
100
AcDbArc
 50
206.1108297946179
 51
214.041394325594
  0
ARC
  5
3EA
330
25
100
AcDbEntity
  8
1
  6
Continuous
 62
     0
100
AcDbCircle
 10
10372.77159117733
 20
-1072.103095416788
 30
0.0
 40
39.04445932423
100
AcDbArc
 50
93.89990484408628
 51
206.1108297946188
  0
ARC
  5
3E9
330
25
100
AcDbEntity
  8
1
  6
Continuous
 62
     0
100
AcDbCircle
 10
13758.49995810761
 20
-2463.965909608043
 30
0.0
 40
13.000000000002
100
AcDbArc
 50
211.1089225105438
 51
328.8910774894561
  0
ARC
  5
3E8
330
25
100
AcDbEntity
  8
1
  6
Continuous
 62
     0
100
AcDbCircle
 10
13758.49995810761
 20
-2463.965909608043
 30
0.0
 40
12.999999999997
100
AcDbArc
 50
31.1089225105044
 51
148.8910774894956
  0
ARC
  5
3E7
330
25
100
AcDbEntity
  8
1
  6
Continuous
 62
     0
100
AcDbCircle
 10
13758.49995810761
 20
-2469.082364576503
 30
0.0
 40
23.883545031539
100
AcDbArc
 50
252.4120462260076
 51
256.0690995158483
  0
ARC
  5
3E6
330
25
100
AcDbEntity
  8
1
  6
Continuous
 62
     0
100
AcDbCircle
 10
13758.49995810761
 20
-2460.349454639582
 30
0.0
 40
23.883545031543
100
AcDbArc
 50
72.41204622598782
 51
76.0690995158507
  0
ARC
  5
3E5
330
25
100
AcDbEntity
  8
1
  6
Continuous
 62
     0
100
AcDbCircle
 10
13758.49995810761
 20
-2506.849454639583
 30
0.0
 40
23.883545031541
100
AcDbArc
 50
72.41204622598617
 51
76.06909951584966
  0
ARC
  5
3E4
330
25
100
AcDbEntity
  8
1
  6
Continuous
 62
     0
100
AcDbCircle
 10
13758.49995810761
 20
-2422.582364576505
 30
0.0
 40
23.88354503154
100
AcDbArc
 50
252.4120462260083
 51
256.0690995158491
  0
ARC
  5
3E3
330
25
100
AcDbEntity
  8
1
  6
Continuous
 62
     0
100
AcDbCircle
 10
13769.34279889581
 20
-2489.412102483965
 30
0.0
 40
6.446216693343
100
AcDbArc
 50
97.51291575573262
 51
124.2284958030434
  0
ARC
  5
3E2
330
25
100
AcDbEntity
  8
1
  6
Continuous
 62
     0
100
AcDbCircle
 10
13747.65711731942
 20
-2489.412102483966
 30
0.0
 40
6.446216693347
100
AcDbArc
 50
100.3412096385368
 51
114.0206770810564
  0
ARC
  5
3E1
330
25
100
AcDbEntity
  8
1
  6
Continuous
 62
     0
100
AcDbCircle
 10
13758.49995810761
 20
-2506.849454639583
 30
0.0
 40
23.88354503154
100
AcDbArc
 50
103.9309004841509
 51
107.5879537739917
  0
ARC
  5
3E0
330
25
100
AcDbEntity
  8
1
  6
Continuous
 62
     0
100
AcDbCircle
 10
13769.34279889581
 20
-2440.019716732124
 30
0.0
 40
6.446216693345
100
AcDbArc
 50
280.3412096384413
 51
294.0206770810466
  0
ARC
  5
3DF
330
25
100
AcDbEntity
  8
1
  6
Continuous
 62
     0
100
AcDbCircle
 10
13747.65711731942
 20
-2440.019716732122
 30
0.0
 40
6.446216693346
100
AcDbArc
 50
277.5129157556311
 51
304.2284958030252
  0
ARC
  5
3DE
330
25
100
AcDbEntity
  8
1
  6
Continuous
 62
     0
100
AcDbCircle
 10
13758.49995810761
 20
-2422.582364576505
 30
0.0
 40
23.883545031541
100
AcDbArc
 50
283.9309004841505
 51
287.5879537740138
  0
ARC
  5
3DD
330
25
100
AcDbEntity
  8
1
  6
Continuous
 62
     0
100
AcDbCircle
 10
13747.65711731942
 20
-2442.912102483964
 30
0.0
 40
6.446216693343
100
AcDbArc
 50
55.77150419697678
 51
114.0206770810548
  0
ARC
  5
3DC
330
25
100
AcDbEntity
  8
1
  6
Continuous
 62
     0
100
AcDbCircle
 10
13758.49995810761
 20
-2460.349454639582
 30
0.0
 40
23.88354503154
100
AcDbArc
 50
103.9309004841509
 51
107.5879537739917
  0
ARC
  5
3DB
330
25
100
AcDbEntity
  8
1
  6
Continuous
 62
     0
100
AcDbCircle
 10
13769.34279889581
 20
-2442.912102483963
 30
0.0
 40
6.446216693344
100
AcDbArc
 50
65.97932291895013
 51
124.2284958030366
  0
ARC
  5
3DA
330
25
100
AcDbEntity
  8
1
  6
Continuous
 62
     0
100
AcDbCircle
 10
13747.65711731942
 20
-2486.51971673212
 30
0.0
 40
6.446216693346
100
AcDbArc
 50
245.9793229189403
 51
304.2284958030252
  0
ARC
  5
3D9
330
25
100
AcDbEntity
  8
1
  6
Continuous
 62
     0
100
AcDbCircle
 10
13758.49995810761
 20
-2469.082364576503
 30
0.0
 40
23.88354503154
100
AcDbArc
 50
283.9309004841509
 51
287.5879537740146
  0
ARC
  5
3D8
330
25
100
AcDbEntity
  8
1
  6
Continuous
 62
     0
100
AcDbCircle
 10
13769.34279889581
 20
-2486.519716732121
 30
0.0
 40
6.446216693343
100
AcDbArc
 50
235.7715041969566
 51
294.0206770810548
  0
ARC
  5
3D7
330
25
100
AcDbEntity
  8
1
  6
Continuous
 62
     0
100
AcDbCircle
 10
13747.65711731942
 20
-2440.019716732122
 30
0.0
 40
6.446216693347
100
AcDbArc
 50
245.9793229189436
 51
259.6587903614633
  0
ARC
  5
3D6
330
25
100
AcDbEntity
  8
1
  6
Continuous
 62
     0
100
AcDbCircle
 10
13769.34279889581
 20
-2440.019716732124
 30
0.0
 40
6.446216693343
100
AcDbArc
 50
235.7715041969566
 51
262.4870842442675
  0
ARC
  5
3D5
330
25
100
AcDbEntity
  8
1
  6
Continuous
 62
     0
100
AcDbCircle
 10
13747.65711731942
 20
-2489.412102483966
 30
0.0
 40
6.446216693342
100
AcDbArc
 50
55.77150419696996
 51
82.4870842443641
  0
ARC
  5
3D4
330
25
100
AcDbEntity
  8
1
  6
Continuous
 62
     0
100
AcDbCircle
 10
13769.34279889581
 20
-2489.412102483965
 30
0.0
 40
6.446216693345
100
AcDbArc
 50
65.97932291895343
 51
79.65879036155869
  0
ARC
  5
3D3
330
25
100
AcDbEntity
  8
1
  6
Continuous
 62
     0
100
AcDbCircle
 10
13758.49995810761
 20
-2460.349454639621
 30
0.0
 40
23.88354503158
100
AcDbArc
 50
72.41204622601585
 51
107.5879537739611
  0
ARC
  5
3D2
330
25
100
AcDbEntity
  8
1
  6
Continuous
 62
     0
100
AcDbCircle
 10
13758.49995810761
 20
-2424.973975148255
 30
0.0
 40
21.615815918786
100
AcDbArc
 50
250.4961455205435
 51
289.503854479482
  0
ARC
  5
3D1
330
25
100
AcDbEntity
  8
1
  6
Continuous
 62
     0
100
AcDbCircle
 10
13758.49995810761
 20
-2469.082364576487
 30
0.0
 40
23.883545031554
100
AcDbArc
 50
252.4120462260191
 51
287.5879537740039
  0
ARC
  5
3D0
330
25
100
AcDbEntity
  8
1
  6
Continuous
 62
     0
100
AcDbCircle
 10
13758.49995810761
 20
-2508.811016322328
 30
0.0
 40
25.760231957409
100
AcDbArc
 50
73.7304965073435
 51
106.2695034926354
  0
ARC
  5
3CF
330
25
100
AcDbEntity
  8
1
  6
Continuous
 62
     0
100
AcDbCircle
 10
10963.10429174384
 20
-2500.60145858608
 30
0.0
 40
18.052215644708
100
AcDbArc
 50
98.76231806800313
 51
110.2561580004196
  0
ARC
  5
3CE
330
25
100
AcDbEntity
  8
1
  6
Continuous
 62
     0
100
AcDbCircle
 10
10975.60429174384
 20
-2428.830360630007
 30
0.0
 40
18.052215644708
100
AcDbArc
 50
278.7623180680031
 51
290.2561580004195
  0
ARC
  5
3CD
330
25
100
AcDbEntity
  8
1
  6
Continuous
 62
     0
100
AcDbCircle
 10
10975.60429174384
 20
-2500.60145858608
 30
0.0
 40
18.052215644708
100
AcDbArc
 50
98.76231806800313
 51
110.2561580004196
  0
ARC
  5
3CC
330
25
100
AcDbEntity
  8
1
  6
Continuous
 62
     0
100
AcDbCircle
 10
10963.10429174384
 20
-2428.830360630007
 30
0.0
 40
18.052215644708
100
AcDbArc
 50
278.7623180680031
 51
290.2561580004195
  0
ARC
  5
3CB
330
25
100
AcDbEntity
  8
1
  6
Continuous
 62
     0
100
AcDbCircle
 10
10963.10429174384
 20
-2500.60145858608
 30
0.0
 40
18.052215644708
100
AcDbArc
 50
69.74384199958037
 51
81.23768193199686
  0
ARC
  5
3CA
330
25
100
AcDbEntity
  8
1
  6
Continuous
 62
     0
100
AcDbCircle
 10
10975.60429174384
 20
-2500.60145858608
 30
0.0
 40
18.052215644708
100
AcDbArc
 50
69.74384199958037
 51
81.23768193199686
  0
ARC
  5
3C9
330
25
100
AcDbEntity
  8
1
  6
Continuous
 62
     0
100
AcDbCircle
 10
10963.10429174384
 20
-2428.830360630007
 30
0.0
 40
18.052215644707
100
AcDbArc
 50
249.7438419995794
 51
261.2376819319964
  0
ARC
  5
3C8
330
25
100
AcDbEntity
  8
1
  6
Continuous
 62
     0
100
AcDbCircle
 10
10975.60429174384
 20
-2428.830360630007
 30
0.0
 40
18.052215644708
100
AcDbArc
 50
249.7438419995804
 51
261.2376819319969
  0
ARC
  5
3C7
330
25
100
AcDbEntity
  8
1
  6
Continuous
 62
     0
100
AcDbCircle
 10
10975.60429174384
 20
-2454.518125252749
 30
0.0
 40
18.052215644707
100
AcDbArc
 50
69.74384199957936
 51
110.2561580004206
  0
ARC
  5
3C6
330
25
100
AcDbEntity
  8
1
  6
Continuous
 62
     0
100
AcDbCircle
 10
10963.10429174384
 20
-2454.518125252749
 30
0.0
 40
18.052215644707
100
AcDbArc
 50
69.74384199957936
 51
110.2561580004206
  0
ARC
  5
3C5
330
25
100
AcDbEntity
  8
1
  6
Continuous
 62
     0
100
AcDbCircle
 10
10975.60429174384
 20
-2474.913693963336
 30
0.0
 40
18.052215644708
100
AcDbArc
 50
249.7438419995804
 51
290.2561580004195
  0
ARC
  5
3C4
330
25
100
AcDbEntity
  8
1
  6
Continuous
 62
     0
100
AcDbCircle
 10
10963.10429174384
 20
-2474.913693963336
 30
0.0
 40
18.052215644707
100
AcDbArc
 50
249.7438419995794
 51
290.2561580004206
  0
ARC
  5
3C3
330
25
100
AcDbEntity
  8
1
  6
Continuous
 62
     0
100
AcDbCircle
 10
11012.13554174384
 20
-2463.965909608043
 30
0.0
 40
15.781249999998
100
AcDbArc
 50
141.9080428947602
 51
218.0919571052385
  0
ARC
  5
3C2
330
25
100
AcDbEntity
  8
1
  6
Continuous
 62
     0
100
AcDbCircle
 10
10993.50429174384
 20
-2463.715909608042
 30
0.0
 40
14.252192813739
100
AcDbArc
 50
158.3852210572138
 51
201.6147789427863
  0
ARC
  5
3C1
330
25
100
AcDbEntity
  8
1
  6
Continuous
 62
     0
100
AcDbCircle
 10
14268.31161294672
 20
-2043.119253233333
 30
0.0
 40
6.188368025611
100
AcDbArc
 50
325.7715041969452
 51
24.02067708103218
  0
ARC
  5
3C0
330
25
100
AcDbEntity
  8
1
  6
Continuous
 62
     0
100
AcDbCircle
 10
14268.31161294672
 20
-2063.937507546664
 30
0.0
 40
6.188368025609
100
AcDbArc
 50
335.9793229189668
 51
34.2284958030539
  0
ARC
  5
3BF
330
25
100
AcDbEntity
  8
1
  6
Continuous
 62
     0
100
AcDbCircle
 10
14251.57175487733
 20
-2053.528380389998
 30
0.0
 40
22.928203230275
100
AcDbArc
 50
342.4120462260042
 51
17.5879537739931
  0
ARC
  5
3BE
330
25
100
AcDbEntity
  8
1
  6
Continuous
 62
     0
100
AcDbCircle
 10
14251.57175487733
 20
-2019.703624130862
 30
0.0
 40
22.928203230275
100
AcDbArc
 50
342.412046226007
 51
17.58795377399472
  0
ARC
  5
3BD
330
25
100
AcDbEntity
  8
1
  6
Continuous
 62
     0
100
AcDbCircle
 10
14268.31161294672
 20
-2030.112751287527
 30
0.0
 40
6.188368025609
100
AcDbArc
 50
335.9793229189686
 51
34.22849580305566
  0
ARC
  5
3BC
330
25
100
AcDbEntity
  8
1
  6
Continuous
 62
     0
100
AcDbCircle
 10
14268.31161294672
 20
-2009.294496974196
 30
0.0
 40
6.188368025611
100
AcDbArc
 50
325.7715041969452
 51
24.02067708103218
  0
ARC
  5
3BB
330
25
100
AcDbEntity
  8
1
  6
Continuous
 62
     0
100
AcDbCircle
 10
14268.31161294672
 20
-1982.277322241891
 30
0.0
 40
6.188368025609
100
AcDbArc
 50
335.9793229189686
 51
34.22849580305566
  0
ARC
  5
3BA
330
25
100
AcDbEntity
  8
1
  6
Continuous
 62
     0
100
AcDbCircle
 10
14268.31161294672
 20
-1961.459067928559
 30
0.0
 40
6.188368025612
100
AcDbArc
 50
325.7715041969347
 51
24.02067708101955
  0
ARC
  5
3B9
330
25
100
AcDbEntity
  8
1
  6
Continuous
 62
     0
100
AcDbCircle
 10
14251.57175487733
 20
-1971.868195085225
 30
0.0
 40
22.928203230275
100
AcDbArc
 50
342.4120462260054
 51
17.5879537739931
  0
ARC
  5
3B8
330
25
100
AcDbEntity
  8
1
  6
Continuous
 62
     0
100
AcDbCircle
 10
14251.57175487733
 20
-1938.043438826087
 30
0.0
 40
22.928203230276
100
AcDbArc
 50
342.412046226002
 51
17.58795377399418
  0
ARC
  5
3B7
330
25
100
AcDbEntity
  8
1
  6
Continuous
 62
     0
100
AcDbCircle
 10
14268.31161294672
 20
-1927.634311669422
 30
0.0
 40
6.188368025611
100
AcDbArc
 50
325.7715041969452
 51
24.02067708103218
  0
ARC
  5
3B6
330
25
100
AcDbEntity
  8
1
  6
Continuous
 62
     0
100
AcDbCircle
 10
14268.31161294672
 20
-1948.452565982753
 30
0.0
 40
6.18836802561
100
AcDbArc
 50
335.9793229189571
 51
34.2284958030427
  0
ARC
  5
3B5
330
25
100
AcDbEntity
  8
1
  6
Continuous
 62
     0
100
AcDbCircle
 10
10969.35429174384
 20
-2508.785909608043
 30
0.0
 40
100.0
100
AcDbArc
 50
0.0
 51
180.0
  0
ARC
  5
3B4
330
25
100
AcDbEntity
  8
1
  6
Continuous
 62
     0
100
AcDbCircle
 10
10028.18911371731
 20
-1958.785909608043
 30
0.0
 40
459.000000000033
100
AcDbArc
 50
354.8752458970268
 51
5.12475410297301
  0
ARC
  5
3B3
330
25
100
AcDbEntity
  8
1
  6
Continuous
 62
     0
100
AcDbCircle
 10
10482.899782983
 20
-2476.320671397747
 30
0.0
 40
152.252346488176
100
AcDbArc
 50
358.8482621745439
 51
26.3319631530312
  0
ARC
  5
3B2
330
25
100
AcDbEntity
  8
1
  6
Continuous
 62
     0
100
AcDbCircle
 10
11455.80880050468
 20
-2476.320671397747
 30
0.0
 40
152.25234648817
100
AcDbArc
 50
153.6680368469681
 51
181.151737825457
  0
ARC
  5
3B1
330
25
100
AcDbEntity
  8
1
  6
Continuous
 62
     0
100
AcDbCircle
 10
11910.51946977037
 20
-1158.785909608043
 30
0.0
 40
459.000000000031
100
AcDbArc
 50
174.875245897026
 51
185.124754102974
  0
ARC
  5
3B0
330
25
100
AcDbEntity
  8
1
  6
Continuous
 62
     0
100
AcDbCircle
 10
10712.25619468244
 20
-146.282748845593
 30
0.0
 40
30.000000000006
100
AcDbArc
 50
317.5744390991784
 51
252.4255609008294
  0
ARC
  5
3AF
330
25
100
AcDbEntity
  8
1
  6
Continuous
 62
     0
100
AcDbCircle
 10
13758.49995810761
 20
-2508.785909608043
 30
0.0
 40
100.0
100
AcDbArc
 50
0.0
 51
180.0
  0
ARC
  5
3AE
330
25
100
AcDbEntity
  8
1
  6
Continuous
 62
     0
100
AcDbCircle
 10
14694.62240336309
 20
-1995.785909608043
 30
0.0
 40
458.97244525548
100
AcDbArc
 50
170.088686020986
 51
189.9113139790139
  0
ARC
  5
3AD
330
25
100
AcDbEntity
  8
1
  6
Continuous
 62
     0
100
AcDbCircle
 10
10466.87694030667
 20
-1158.785909608043
 30
0.0
 40
20.062177826481
100
AcDbArc
 50
162.4120462259991
 51
163.9040367899441
  0
ARC
  5
3AC
330
25
100
AcDbEntity
  8
1
  6
Continuous
 62
     0
100
AcDbCircle
 10
10399.09040682723
 20
-1158.785909608043
 30
0.0
 40
20.062177826479
100
AcDbArc
 50
342.4120462259988
 51
343.9040367899383
  0
ARC
  5
3AB
330
25
100
AcDbEntity
  8
1
  6
Continuous
 62
     0
100
AcDbCircle
 10
10439.01764054064
 20
-1154.797080041113
 30
0.0
 40
6.806710713908
100
AcDbArc
 50
3.041596008613296
 51
41.5101996879439
  0
ARC
  5
3AA
330
25
100
AcDbEntity
  8
1
  6
Continuous
 62
     0
100
AcDbCircle
 10
10413.73778263793
 20
-1167.893895870122
 30
0.0
 40
5.41482202241
100
AcDbArc
 50
335.9793229189418
 51
34.22849580301969
  0
ARC
  5
3A9
330
25
100
AcDbEntity
  8
1
  6
Continuous
 62
     0
100
AcDbCircle
 10
10413.73778263793
 20
-1149.677923345964
 30
0.0
 40
5.414822022411
100
AcDbArc
 50
325.771504196991
 51
24.02067708105039
  0
ARC
  5
3A8
330
25
100
AcDbEntity
  8
1
  6
Continuous
 62
     0
100
AcDbCircle
 10
10399.09040682723
 20
-1158.785909608043
 30
0.0
 40
20.062177826472
100
AcDbArc
 50
16.09596321006308
 51
17.5879537740032
  0
ARC
  5
3A7
330
25
100
AcDbEntity
  8
1
  6
Continuous
 62
     0
100
AcDbCircle
 10
10452.22956449597
 20
-1149.677923345964
 30
0.0
 40
5.414822022411
100
AcDbArc
 50
155.979322918954
 51
214.2284958030049
  0
ARC
  5
3A6
330
25
100
AcDbEntity
  8
1
  6
Continuous
 62
     0
100
AcDbCircle
 10
10452.22956449597
 20
-1167.893895870122
 30
0.0
 40
5.414822022413
100
AcDbArc
 50
145.771504196998
 51
204.0206770810448
  0
ARC
  5
3A5
330
25
100
AcDbEntity
  8
1
  6
Continuous
 62
     0
100
AcDbCircle
 10
10466.87694030667
 20
-1158.785909608043
 30
0.0
 40
20.062177826482
100
AcDbArc
 50
196.0959632100538
 51
197.5879537739987
  0
ARC
  5
3A4
330
25
100
AcDbEntity
  8
1
  6
Continuous
 62
     0
100
AcDbCircle
 10
10433.11476248019
 20
-1158.785909608043
 30
0.0
 40
10.000000000003
100
AcDbArc
 50
34.42900395069982
 51
145.5709960492659
  0
ARC
  5
3A3
330
25
100
AcDbEntity
  8
1
  6
Continuous
 62
     0
100
AcDbCircle
 10
10433.11476248019
 20
-1158.785909608043
 30
0.0
 40
9.999999999995
100
AcDbArc
 50
214.4290039507271
 51
325.570996049296
  0
ARC
  5
3A2
330
25
100
AcDbEntity
  8
1
  6
Continuous
 62
     0
100
AcDbCircle
 10
10449.69996046442
 20
-1149.677923345964
 30
0.0
 40
5.414822022411
100
AcDbArc
 50
325.771504196991
 51
24.02067708105039
  0
ARC
  5
3A1
330
25
100
AcDbEntity
  8
1
  6
Continuous
 62
     0
100
AcDbCircle
 10
10435.05258465372
 20
-1158.785909608043
 30
0.0
 40
20.062177826479
100
AcDbArc
 50
342.4120462259988
 51
17.58795377400187
  0
ARC
  5
3A0
330
25
100
AcDbEntity
  8
1
  6
Continuous
 62
     0
100
AcDbCircle
 10
10449.69996046442
 20
-1167.893895870122
 30
0.0
 40
5.41482202241
100
AcDbArc
 50
335.9793229189418
 51
34.22849580301969
  0
ARC
  5
39F
330
25
100
AcDbEntity
  8
1
  6
Continuous
 62
     0
100
AcDbCircle
 10
10416.52956449597
 20
-1149.677923345964
 30
0.0
 40
5.41482202241
100
AcDbArc
 50
155.9793229189418
 51
214.2284958030197
  0
ARC
  5
39E
330
25
100
AcDbEntity
  8
1
  6
Continuous
 62
     0
100
AcDbCircle
 10
10431.17694030667
 20
-1158.785909608043
 30
0.0
 40
20.062177826479
100
AcDbArc
 50
162.4120462259981
 51
197.5879537740019
  0
ARC
  5
39D
330
25
100
AcDbEntity
  8
1
  6
Continuous
 62
     0
100
AcDbCircle
 10
10416.52956449597
 20
-1167.893895870122
 30
0.0
 40
5.414822022411
100
AcDbArc
 50
145.7715041969911
 51
204.0206770810504
  0
ARC
  5
39C
330
25
100
AcDbEntity
  8
1
  6
Continuous
 62
     0
100
AcDbCircle
 10
10922.02094811855
 20
-4295.094605764374
 30
0.0
 40
6.18836802561
100
AcDbArc
 50
235.7715041969322
 51
294.020677081026
  0
ARC
  5
39B
330
25
100
AcDbEntity
  8
1
  6
Continuous
 62
     0
100
AcDbCircle
 10
10901.20269380522
 20
-4295.094605764374
 30
0.0
 40
6.188368025611
100
AcDbArc
 50
245.9793229189774
 51
304.2284958030631
  0
ARC
  5
39A
330
25
100
AcDbEntity
  8
1
  6
Continuous
 62
     0
100
AcDbCircle
 10
10911.61182096189
 20
-4278.354747694983
 30
0.0
 40
22.928203230276
100
AcDbArc
 50
252.4120462259947
 51
287.5879537739808
  0
ARC
  5
399
330
25
100
AcDbEntity
  8
1
  6
Continuous
 62
     0
100
AcDbCircle
 10
10945.43657722103
 20
-4278.354747694983
 30
0.0
 40
22.928203230276
100
AcDbArc
 50
252.4120462259947
 51
287.5879537739859
  0
ARC
  5
398
330
25
100
AcDbEntity
  8
1
  6
Continuous
 62
     0
100
AcDbCircle
 10
10935.02745006436
 20
-4295.094605764374
 30
0.0
 40
6.188368025612
100
AcDbArc
 50
245.9793229189621
 51
304.2284958030535
  0
ARC
  5
397
330
25
100
AcDbEntity
  8
1
  6
Continuous
 62
     0
100
AcDbCircle
 10
10955.84570437769
 20
-4295.094605764374
 30
0.0
 40
6.18836802561
100
AcDbArc
 50
235.7715041969322
 51
294.020677081026
  0
ARC
  5
396
330
25
100
AcDbEntity
  8
1
  6
Continuous
 62
     0
100
AcDbCircle
 10
10982.86287911
 20
-4295.094605764374
 30
0.0
 40
6.188368025611
100
AcDbArc
 50
245.9793229189774
 51
304.2284958030631
  0
ARC
  5
395
330
25
100
AcDbEntity
  8
1
  6
Continuous
 62
     0
100
AcDbCircle
 10
11003.68113342333
 20
-4295.094605764374
 30
0.0
 40
6.18836802561
100
AcDbArc
 50
235.7715041969322
 51
294.020677081026
  0
ARC
  5
394
330
25
100
AcDbEntity
  8
1
  6
Continuous
 62
     0
100
AcDbCircle
 10
10993.27200626666
 20
-4278.354747694983
 30
0.0
 40
22.928203230272
100
AcDbArc
 50
252.4120462260208
 51
287.5879537740036
  0
ARC
  5
393
330
25
100
AcDbEntity
  8
1
  6
Continuous
 62
     0
100
AcDbCircle
 10
11027.0967625258
 20
-4278.354747694983
 30
0.0
 40
22.928203230276
100
AcDbArc
 50
252.4120462259947
 51
287.5879537739859
  0
ARC
  5
392
330
25
100
AcDbEntity
  8
1
  6
Continuous
 62
     0
100
AcDbCircle
 10
11037.50588968247
 20
-4295.094605764374
 30
0.0
 40
6.188368025615
100
AcDbArc
 50
235.7715041968625
 51
294.0206770809489
  0
ARC
  5
391
330
25
100
AcDbEntity
  8
1
  6
Continuous
 62
     0
100
AcDbCircle
 10
11016.68763536913
 20
-4295.094605764374
 30
0.0
 40
6.188368025611
100
AcDbArc
 50
245.9793229189774
 51
304.2284958030631
  0
ARC
  5
390
330
25
100
AcDbEntity
  8
1
  6
Continuous
 62
     0
100
AcDbCircle
 10
11014.27127777652
 20
-3244.658127390519
 30
0.0
 40
10.415441500099
100
AcDbArc
 50
180.0
 51
211.1314905660846
  0
ARC
  5
38F
330
25
100
AcDbEntity
  8
1
  6
Continuous
 62
     0
100
AcDbCircle
 10
10924.43730571117
 20
-3244.658127390519
 30
0.0
 40
10.415441500099
100
AcDbArc
 50
328.8685094339154
 51
0.0
  0
ARC
  5
38E
330
25
100
AcDbEntity
  8
1
  6
Continuous
 62
     0
100
AcDbCircle
 10
10969.3829606477
 20
-3218.655388947406
 30
0.0
 40
34.787361012422
100
AcDbArc
 50
7.710008218939735
 51
173.0291458909451
  0
ARC
  5
38D
330
25
100
AcDbEntity
  8
1
  6
Continuous
 62
     0
100
AcDbCircle
 10
10969.35429174384
 20
-3211.047633430057
 30
0.0
 40
40.141914435016
100
AcDbArc
 50
329.2592858702408
 51
210.740714129765
  0
ARC
  5
38C
330
25
100
AcDbEntity
  8
1
  6
Continuous
 62
     0
100
AcDbCircle
 10
10433.11429174384
 20
-3748.741284258586
 30
0.0
 40
13.541666666666
100
AcDbArc
 50
234.9488632525697
 51
305.0511367474676
  0
ARC
  5
38B
330
25
100
AcDbEntity
  8
1
  6
Continuous
 62
     0
100
AcDbCircle
 10
10427.2781528854
 20
-3790.532950925259
 30
0.0
 40
15.163861141558
100
AcDbArc
 50
159.7438419995829
 51
200.2561580004138
  0
ARC
  5
38A
330
25
100
AcDbEntity
  8
1
  6
Continuous
 62
     0
100
AcDbCircle
 10
10427.2781528854
 20
-3780.032950925259
 30
0.0
 40
15.163861141558
100
AcDbArc
 50
159.7438419995829
 51
200.2561580004171
  0
ARC
  5
389
330
25
100
AcDbEntity
  8
1
  6
Continuous
 62
     0
100
AcDbCircle
 10
10405.92607494931
 20
-3790.532950925259
 30
0.0
 40
15.163861141549
100
AcDbArc
 50
339.7438419995759
 51
351.466995559556
  0
ARC
  5
388
330
25
100
AcDbEntity
  8
1
  6
Continuous
 62
     0
100
AcDbCircle
 10
10405.92607494931
 20
-3780.032950925259
 30
0.0
 40
15.163861141549
100
AcDbArc
 50
339.7438419995726
 51
353.3729590728182
  0
ARC
  5
387
330
25
100
AcDbEntity
  8
1
  6
Continuous
 62
     0
100
AcDbCircle
 10
10462.30250853838
 20
-3780.032950925259
 30
0.0
 40
15.163861141549
100
AcDbArc
 50
159.7438419995727
 51
171.4669955595526
  0
ARC
  5
386
330
25
100
AcDbEntity
  8
1
  6
Continuous
 62
     0
100
AcDbCircle
 10
10462.30250853838
 20
-3790.532950925259
 30
0.0
 40
15.163861141549
100
AcDbArc
 50
159.7438419995727
 51
173.3729590728131
  0
ARC
  5
385
330
25
100
AcDbEntity
  8
1
  6
Continuous
 62
     0
100
AcDbCircle
 10
10440.95043060229
 20
-3790.532950925259
 30
0.0
 40
15.163861141559
100
AcDbArc
 50
339.7438419995901
 51
20.25615800041309
  0
ARC
  5
384
330
25
100
AcDbEntity
  8
1
  6
Continuous
 62
     0
100
AcDbCircle
 10
10440.95043060229
 20
-3780.032950925259
 30
0.0
 40
15.163861141559
100
AcDbArc
 50
339.7438419995869
 51
20.25615800041309
  0
ARC
  5
383
330
25
100
AcDbEntity
  8
1
  6
Continuous
 62
     0
100
AcDbCircle
 10
10433.11429174384
 20
-3767.97170092526
 30
0.0
 40
9.111249999992
100
AcDbArc
 50
242.9041220240528
 51
297.0958779760111
  0
ARC
  5
382
330
25
100
AcDbEntity
  8
1
  6
Continuous
 62
     0
100
AcDbCircle
 10
10405.92607494931
 20
-3790.532950925259
 30
0.0
 40
15.163861141555
100
AcDbArc
 50
6.627040927182041
 51
20.25615800042667
  0
ARC
  5
381
330
25
100
AcDbEntity
  8
1
  6
Continuous
 62
     0
100
AcDbCircle
 10
10462.30250853838
 20
-3780.032950925259
 30
0.0
 40
15.163861141554
100
AcDbArc
 50
186.6270409271828
 51
200.2561580004251
  0
ARC
  5
380
330
25
100
AcDbEntity
  8
1
  6
Continuous
 62
     0
100
AcDbCircle
 10
10405.92607494931
 20
-3780.032950925259
 30
0.0
 40
15.163861141553
100
AcDbArc
 50
8.533004440443651
 51
20.25615800042744
  0
ARC
  5
37F
330
25
100
AcDbEntity
  8
1
  6
Continuous
 62
     0
100
AcDbCircle
 10
10462.30250853838
 20
-3790.532950925259
 30
0.0
 40
15.163861141553
100
AcDbArc
 50
188.5330044404436
 51
200.2561580004274
  0
ARC
  5
37E
330
25
100
AcDbEntity
  8
1
  6
Continuous
 62
     0
100
AcDbCircle
 10
10373.85556488543
 20
-3785.282950925259
 30
0.0
 40
11.5
100
AcDbArc
 50
90.0
 51
270.0
  0
ARC
  5
37D
330
25
100
AcDbEntity
  8
1
  6
Continuous
 62
     0
100
AcDbCircle
 10
13378.49995810761
 20
-2215.700395696405
 30
0.0
 40
104.0
100
AcDbArc
 50
180.0
 51
243.6122000387544
  0
ARC
  5
37C
330
25
100
AcDbEntity
  8
1
  6
Continuous
 62
     0
100
AcDbCircle
 10
13378.49995810761
 20
-2215.700395696405
 30
0.0
 40
104.0
100
AcDbArc
 50
180.0
 51
243.6122000387544
  0
ARC
  5
37B
330
25
100
AcDbEntity
  8
1
  6
Continuous
 62
     0
100
AcDbCircle
 10
13758.49995810769
 20
-1449.785909608237
 30
0.0
 40
958.999999999791
100
AcDbArc
 50
291.405336673901
 51
296.387799961244
  0
ARC
  5
37A
330
25
100
AcDbEntity
  8
1
  6
Continuous
 62
     0
100
AcDbCircle
 10
14138.49995810761
 20
-2215.700395696405
 30
0.0
 40
104.0
100
AcDbArc
 50
296.3877999612421
 51
0.0
  0
ARC
  5
379
330
25
100
AcDbEntity
  8
1
  6
Continuous
 62
     0
100
AcDbCircle
 10
14138.49995810761
 20
-2215.700395696405
 30
0.0
 40
104.0
100
AcDbArc
 50
296.3877999612421
 51
0.0
  0
ARC
  5
378
330
25
100
AcDbEntity
  8
1
  6
Continuous
 62
     0
100
AcDbCircle
 10
14138.49995810761
 20
-2215.700395696405
 30
0.0
 40
104.0
100
AcDbArc
 50
296.3877999612421
 51
0.0
  0
ARC
  5
377
330
25
100
AcDbEntity
  8
1
  6
Continuous
 62
     0
100
AcDbCircle
 10
14138.49995810761
 20
-2215.700395696405
 30
0.0
 40
104.0
100
AcDbArc
 50
296.3877999612421
 51
0.0
  0
ARC
  5
376
330
25
100
AcDbEntity
  8
1
  6
Continuous
 62
     0
100
AcDbCircle
 10
13378.49995810761
 20
-339.871423519681
 30
0.0
 40
104.000000000004
100
AcDbArc
 50
116.3877999612455
 51
180.0
  0
ARC
  5
375
330
25
100
AcDbEntity
  8
1
  6
Continuous
 62
     0
100
AcDbCircle
 10
13758.49995810752
 20
-1105.78590960785
 30
0.0
 40
958.999999999788
100
AcDbArc
 50
109.809546431809
 51
116.387799961244
  0
ARC
  5
374
330
25
100
AcDbEntity
  8
1
  6
Continuous
 62
     0
100
AcDbCircle
 10
13758.4999581076
 20
-1105.785909608027
 30
0.0
 40
958.999999999984
100
AcDbArc
 50
90.37341100832404
 51
109.80954643181
  0
ARC
  5
373
330
25
100
AcDbEntity
  8
1
  6
Continuous
 62
     0
100
AcDbCircle
 10
13758.49995810769
 20
-1105.78590960785
 30
0.0
 40
958.999999999791
100
AcDbArc
 50
63.612200038756
 51
70.19045356819004
  0
ARC
  5
372
330
25
100
AcDbEntity
  8
1
  6
Continuous
 62
     0
100
AcDbCircle
 10
14138.49995810761
 20
-339.871423519681
 30
0.0
 40
104.0
100
AcDbArc
 50
0.0
 51
63.61220003875788
  0
ARC
  5
371
330
25
100
AcDbEntity
  8
1
  6
Continuous
 62
     0
100
AcDbCircle
 10
14138.49995810761
 20
-339.871423519681
 30
0.0
 40
104.0
100
AcDbArc
 50
0.0
 51
63.61220003875788
  0
ARC
  5
370
330
25
100
AcDbEntity
  8
1
  6
Continuous
 62
     0
100
AcDbCircle
 10
14138.49995810761
 20
-339.871423519681
 30
0.0
 40
104.0
100
AcDbArc
 50
0.0
 51
63.61220003875788
  0
ARC
  5
36F
330
25
100
AcDbEntity
  8
1
  6
Continuous
 62
     0
100
AcDbCircle
 10
13378.49995810761
 20
-339.871423519681
 30
0.0
 40
104.000000000004
100
AcDbArc
 50
116.3877999612455
 51
180.0
  0
LINE
  5
36C
330
25
100
AcDbEntity
  8
1
  6
Continuous
 62
     0
100
AcDbLine
 10
14092.73288002893
 20
-2699.785909608043
 30
0.0
 11
14092.73288002893
 21
-2479.380983671688
 31
0.0
  0
LINE
  5
36B
330
25
100
AcDbEntity
  8
1
  6
Continuous
 62
     0
100
AcDbLine
 10
14108.49995810761
 20
-2408.785909608043
 30
0.0
 11
14108.49995810761
 21
-2342.635841007492
 31
0.0
  0
LINE
  5
36A
330
25
100
AcDbEntity
  8
1
  6
Continuous
 62
     0
100
AcDbLine
 10
13408.49995810761
 20
-2342.635841007492
 30
0.0
 11
13408.49995810761
 21
-2408.785909608043
 31
0.0
  0
LINE
  5
369
330
25
100
AcDbEntity
  8
1
  6
Continuous
 62
     0
100
AcDbLine
 10
13424.26703618628
 20
-2479.380983671688
 30
0.0
 11
13424.26703618628
 21
-2699.785909608043
 31
0.0
  0
LINE
  5
368
330
25
100
AcDbEntity
  8
1
  6
Continuous
 62
     0
100
AcDbLine
 10
13424.26703618628
 20
-2479.380983671688
 30
0.0
 11
13424.26703618628
 21
-2699.785909608043
 31
0.0
  0
LINE
  5
367
330
25
100
AcDbEntity
  8
1
  6
Continuous
 62
     0
100
AcDbLine
 10
14108.49995810761
 20
-2408.785909608043
 30
0.0
 11
14108.49995810761
 21
-2342.635841007492
 31
0.0
  0
LINE
  5
366
330
25
100
AcDbEntity
  8
1
  6
Continuous
 62
     0
100
AcDbLine
 10
13408.49995810761
 20
-2342.635841007492
 30
0.0
 11
14108.49995810761
 21
-2342.635841007492
 31
0.0
  0
LINE
  5
365
330
25
100
AcDbEntity
  8
1
  6
Continuous
 62
     0
100
AcDbLine
 10
10619.35429174384
 20
-2342.635841007492
 30
0.0
 11
11319.35429174384
 21
-2342.635841007492
 31
0.0
  0
LINE
  5
362
330
25
100
AcDbEntity
  8
1
  6
Continuous
 62
     0
100
AcDbLine
 10
13771.54070678276
 20
-166.214850115253
 30
0.0
 11
13773.49995810761
 21
-180.090085046423
 31
0.0
  0
LINE
  5
361
330
25
100
AcDbEntity
  8
1
  6
Continuous
 62
     0
100
AcDbLine
 10
13745.3835911254
 20
-166.215174724917
 30
0.0
 11
13743.49995810761
 21
-180.090085046464
 31
0.0
  0
LINE
  5
360
330
25
100
AcDbEntity
  8
1
  6
Continuous
 62
     0
100
AcDbLine
 10
13752.24995810761
 20
-122.70990381051
 30
0.0
 11
13752.24995810761
 21
-174.056795590674
 31
0.0
  0
LINE
  5
35F
330
25
100
AcDbEntity
  8
1
  6
Continuous
 62
     0
100
AcDbLine
 10
13764.74995810761
 20
-122.70990381051
 30
0.0
 11
13764.74995810761
 21
-174.056795590674
 31
0.0
  0
LINE
  5
35E
330
25
100
AcDbEntity
  8
1
  6
Continuous
 62
     0
100
AcDbLine
 10
10485.35429174384
 20
-2195.785909608043
 30
0.0
 11
10485.35429174384
 21
-1995.785909608043
 31
0.0
  0
LINE
  5
35D
330
25
100
AcDbEntity
  8
1
  6
Continuous
 62
     0
100
AcDbLine
 10
11204.19893005783
 20
-171.378237957728
 30
0.0
 11
11233.1767048465
 21
-179.142809310803
 31
0.0
  0
LINE
  5
35C
330
25
100
AcDbEntity
  8
1
  6
Continuous
 62
     0
100
AcDbLine
 10
11204.8829406563
 20
-169.64916430266
 30
0.0
 11
11207.39152129051
 21
-163.307858048052
 31
0.0
  0
LINE
  5
35B
330
25
100
AcDbEntity
  8
1
  6
Continuous
 62
     0
100
AcDbLine
 10
11234.44702968995
 20
-170.557359674496
 30
0.0
 11
11233.36672010047
 21
-177.858597322498
 31
0.0
  0
LINE
  5
35A
330
25
100
AcDbEntity
  8
1
  6
Continuous
 62
     0
100
AcDbLine
 10
11216.4815150605
 20
-163.281308705647
 30
0.0
 11
11229.25447034316
 21
-166.703811758595
 31
0.0
  0
LINE
  5
359
330
25
100
AcDbEntity
  8
1
  6
Continuous
 62
     0
100
AcDbLine
 10
11202.90483483232
 20
-176.207867089173
 30
0.0
 11
11204.19893005783
 21
-171.378237957728
 31
0.0
  0
LINE
  5
358
330
25
100
AcDbEntity
  8
1
  6
Continuous
 62
     0
100
AcDbLine
 10
11231.88260962099
 20
-183.972438442248
 30
0.0
 11
11233.1767048465
 21
-179.142809310803
 31
0.0
  0
LINE
  5
357
330
25
100
AcDbEntity
  8
1
  6
Continuous
 62
     0
100
AcDbLine
 10
11204.19893005783
 20
-171.378237957728
 30
0.0
 11
11204.8829406563
 21
-169.64916430266
 31
0.0
  0
LINE
  5
356
330
25
100
AcDbEntity
  8
1
  6
Continuous
 62
     0
100
AcDbLine
 10
11221.92305551595
 20
-163.186450805652
 30
0.0
 11
11210.63833639468
 21
-161.446463525419
 31
0.0
  0
LINE
  5
355
330
25
100
AcDbEntity
  8
1
  6
Continuous
 62
     0
100
AcDbLine
 10
11232.56590258966
 20
-167.321937179344
 30
0.0
 11
11221.92305551595
 21
-163.186450805652
 31
0.0
  0
LINE
  5
354
330
25
100
AcDbEntity
  8
1
  6
Continuous
 62
     0
100
AcDbLine
 10
11233.44887111932
 20
-177.30338230127
 30
0.0
 11
11233.1767048465
 21
-179.142809310803
 31
0.0
  0
LINE
  5
353
330
25
100
AcDbEntity
  8
1
  6
Continuous
 62
     0
100
AcDbLine
 10
10485.35429174384
 20
-339.871423519681
 30
0.0
 11
10485.35429174384
 21
-359.785909608043
 31
0.0
  0
LINE
  5
352
330
25
100
AcDbEntity
  8
1
  6
Continuous
 62
     0
100
AcDbLine
 10
11453.35429174384
 20
-359.785909608043
 30
0.0
 11
11453.35429174384
 21
-339.871423519681
 31
0.0
  0
LINE
  5
351
330
25
100
AcDbEntity
  8
1
  6
Continuous
 62
     0
100
AcDbLine
 10
10485.35429174384
 20
-339.871423519681
 30
0.0
 11
10485.35429174384
 21
-359.785909608043
 31
0.0
  0
LINE
  5
350
330
25
100
AcDbEntity
  8
1
  6
Continuous
 62
     0
100
AcDbLine
 10
10969.35429174384
 20
-359.785909608043
 30
0.0
 11
10485.35429174384
 21
-359.785909608043
 31
0.0
  0
LINE
  5
34F
330
25
100
AcDbEntity
  8
1
  6
Continuous
 62
     0
100
AcDbLine
 10
11453.35429174384
 20
-359.785909608043
 30
0.0
 11
10969.35429174384
 21
-359.785909608043
 31
0.0
  0
LINE
  5
34E
330
25
100
AcDbEntity
  8
1
  6
Continuous
 62
     0
100
AcDbLine
 10
11453.35429174384
 20
-2215.700395696405
 30
0.0
 11
11453.35429174384
 21
-2195.785909608043
 31
0.0
  0
LINE
  5
34D
330
25
100
AcDbEntity
  8
1
  6
Continuous
 62
     0
100
AcDbLine
 10
10969.35429174384
 20
-2195.785909608043
 30
0.0
 11
11453.35429174384
 21
-2195.785909608043
 31
0.0
  0
LINE
  5
34C
330
25
100
AcDbEntity
  8
1
  6
Continuous
 62
     0
100
AcDbLine
 10
10619.35429174384
 20
-2342.635841007492
 30
0.0
 11
10619.35429174384
 21
-2408.785909608043
 31
0.0
  0
LINE
  5
34B
330
25
100
AcDbEntity
  8
1
  6
Continuous
 62
     0
100
AcDbLine
 10
10485.35429174384
 20
-2195.785909608043
 30
0.0
 11
10969.35429174384
 21
-2195.785909608043
 31
0.0
  0
LINE
  5
34A
330
25
100
AcDbEntity
  8
1
  6
Continuous
 62
     0
100
AcDbLine
 10
10485.35429174384
 20
-2195.785909608043
 30
0.0
 11
10485.35429174384
 21
-2215.700395696405
 31
0.0
  0
LINE
  5
349
330
25
100
AcDbEntity
  8
1
  6
Continuous
 62
     0
100
AcDbLine
 10
10946.35429174384
 20
-944.065909608044
 30
0.0
 11
10946.35429174384
 21
-986.488559338854
 31
0.0
  0
LINE
  5
348
330
25
100
AcDbEntity
  8
1
  6
Continuous
 62
     0
100
AcDbLine
 10
10948.35429174384
 20
-944.065909608044
 30
0.0
 11
10948.35429174384
 21
-986.065909608044
 31
0.0
  0
LINE
  5
347
330
25
100
AcDbEntity
  8
1
  6
Continuous
 62
     0
100
AcDbLine
 10
10961.02095841051
 20
-944.065909608044
 30
0.0
 11
10961.02095841051
 21
-986.065909608044
 31
0.0
  0
LINE
  5
346
330
25
100
AcDbEntity
  8
1
  6
Continuous
 62
     0
100
AcDbLine
 10
10963.02095841051
 20
-944.065909608044
 30
0.0
 11
10963.02095841051
 21
-986.065909608044
 31
0.0
  0
LINE
  5
345
330
25
100
AcDbEntity
  8
1
  6
Continuous
 62
     0
100
AcDbLine
 10
10975.68762507718
 20
-944.065909608044
 30
0.0
 11
10975.68762507718
 21
-986.065909608044
 31
0.0
  0
LINE
  5
344
330
25
100
AcDbEntity
  8
1
  6
Continuous
 62
     0
100
AcDbLine
 10
10977.68762507718
 20
-944.065909608044
 30
0.0
 11
10977.68762507718
 21
-986.065909608044
 31
0.0
  0
LINE
  5
343
330
25
100
AcDbEntity
  8
1
  6
Continuous
 62
     0
100
AcDbLine
 10
10990.35429174384
 20
-944.065909608044
 30
0.0
 11
10990.35429174384
 21
-986.065909608044
 31
0.0
  0
LINE
  5
342
330
25
100
AcDbEntity
  8
1
  6
Continuous
 62
     0
100
AcDbLine
 10
10992.35429174384
 20
-944.065909608044
 30
0.0
 11
10992.35429174384
 21
-986.488559338854
 31
0.0
  0
LINE
  5
341
330
25
100
AcDbEntity
  8
1
  6
Continuous
 62
     0
100
AcDbLine
 10
10934.35429174384
 20
-1060.565909608044
 30
0.0
 11
10934.35429174384
 21
-1068.565909608044
 31
0.0
  0
LINE
  5
340
330
25
100
AcDbEntity
  8
1
  6
Continuous
 62
     0
100
AcDbLine
 10
11004.35429174384
 20
-1060.565909608044
 30
0.0
 11
11004.35429174384
 21
-1068.565909608044
 31
0.0
  0
LINE
  5
33F
330
25
100
AcDbEntity
  8
1
  6
Continuous
 62
     0
100
AcDbLine
 10
10989.85429174384
 20
-1118.658621547581
 30
0.0
 11
10989.85429174384
 21
-1116.950990790307
 31
0.0
  0
LINE
  5
33E
330
25
100
AcDbEntity
  8
1
  6
Continuous
 62
     0
100
AcDbLine
 10
10989.85429174384
 20
-1116.950990790307
 30
0.0
 11
10989.85429174384
 21
-1118.284365075471
 31
0.0
  0
LINE
  5
33D
330
25
100
AcDbEntity
  8
1
  6
Continuous
 62
     0
100
AcDbLine
 10
10948.85429174384
 20
-1116.950990790307
 30
0.0
 11
10948.85429174384
 21
-1118.658621547582
 31
0.0
  0
LINE
  5
33C
330
25
100
AcDbEntity
  8
1
  6
Continuous
 62
     0
100
AcDbLine
 10
10938.99620617885
 20
-1084.256508531284
 30
0.0
 11
10942.99620617885
 21
-1086.565909608044
 31
0.0
  0
LINE
  5
33B
330
25
100
AcDbEntity
  8
1
  6
Continuous
 62
     0
100
AcDbLine
 10
10999.99620617885
 20
-1084.256508531284
 30
0.0
 11
10995.99620617885
 21
-1086.565909608044
 31
0.0
  0
LINE
  5
33A
330
25
100
AcDbEntity
  8
1
  6
Continuous
 62
     0
100
AcDbLine
 10
10942.99620617885
 20
-1086.565909608044
 30
0.0
 11
10995.99620617885
 21
-1086.565909608044
 31
0.0
  0
LINE
  5
339
330
25
100
AcDbEntity
  8
1
  6
Continuous
 62
     0
100
AcDbLine
 10
10990.49620617885
 20
-1086.565909608044
 30
0.0
 11
10948.49620617885
 21
-1086.565909608044
 31
0.0
  0
LINE
  5
338
330
25
100
AcDbEntity
  8
1
  6
Continuous
 62
     0
100
AcDbLine
 10
10969.35429174384
 20
-1107.785909608043
 30
0.0
 11
10991.36720946592
 21
-1107.785909608043
 31
0.0
  0
LINE
  5
337
330
25
100
AcDbEntity
  8
1
  6
Continuous
 62
     0
100
AcDbLine
 10
10947.34137402177
 20
-1107.785909608043
 30
0.0
 11
10969.35429174384
 21
-1107.785909608043
 31
0.0
  0
LINE
  5
336
330
25
100
AcDbEntity
  8
1
  6
Continuous
 62
     0
100
AcDbLine
 10
10947.34137402177
 20
-1107.785909608043
 30
0.0
 11
10947.34137402177
 21
-1112.785909608043
 31
0.0
  0
LINE
  5
335
330
25
100
AcDbEntity
  8
1
  6
Continuous
 62
     0
100
AcDbLine
 10
10991.36720946592
 20
-1107.785909608043
 30
0.0
 11
10991.36720946592
 21
-1112.785909608043
 31
0.0
  0
LINE
  5
334
330
25
100
AcDbEntity
  8
1
  6
Continuous
 62
     0
100
AcDbLine
 10
10947.34137402177
 20
-1112.785909608043
 30
0.0
 11
10991.36720946592
 21
-1112.785909608043
 31
0.0
  0
LINE
  5
333
330
25
100
AcDbEntity
  8
1
  6
Continuous
 62
     0
100
AcDbLine
 10
10952.35429174384
 20
-1095.325909608043
 30
0.0
 11
10986.35429174384
 21
-1095.325909608043
 31
0.0
  0
LINE
  5
332
330
25
100
AcDbEntity
  8
1
  6
Continuous
 62
     0
100
AcDbLine
 10
10986.35429174384
 20
-1099.025909608043
 30
0.0
 11
10952.35429174384
 21
-1099.025909608043
 31
0.0
  0
LINE
  5
331
330
25
100
AcDbEntity
  8
1
  6
Continuous
 62
     0
100
AcDbLine
 10
10952.35429174384
 20
-1095.325909608043
 30
0.0
 11
10952.35429174384
 21
-1099.025909608043
 31
0.0
  0
LINE
  5
330
330
25
100
AcDbEntity
  8
1
  6
Continuous
 62
     0
100
AcDbLine
 10
10986.35429174384
 20
-1099.025909608043
 30
0.0
 11
10986.35429174384
 21
-1095.325909608043
 31
0.0
  0
LINE
  5
32F
330
25
100
AcDbEntity
  8
1
  6
Continuous
 62
     0
100
AcDbLine
 10
10952.35429174384
 20
-1095.325909608043
 30
0.0
 11
10952.72979174384
 21
-1086.565909608044
 31
0.0
  0
LINE
  5
32E
330
25
100
AcDbEntity
  8
1
  6
Continuous
 62
     0
100
AcDbLine
 10
10952.35429174384
 20
-1099.025909608043
 30
0.0
 11
10952.72979174384
 21
-1107.785909608043
 31
0.0
  0
LINE
  5
32D
330
25
100
AcDbEntity
  8
1
  6
Continuous
 62
     0
100
AcDbLine
 10
10985.97879174384
 20
-1107.785909608043
 30
0.0
 11
10986.35429174384
 21
-1099.025909608043
 31
0.0
  0
LINE
  5
32C
330
25
100
AcDbEntity
  8
1
  6
Continuous
 62
     0
100
AcDbLine
 10
10985.97879174384
 20
-1086.565909608044
 30
0.0
 11
10986.35429174384
 21
-1095.325909608043
 31
0.0
  0
LINE
  5
32B
330
25
100
AcDbEntity
  8
1
  6
Continuous
 62
     0
100
AcDbLine
 10
13161.40655504741
 20
-944.065238269458
 30
0.0
 11
13161.40655504741
 21
-986.488559338854
 31
0.0
  0
LINE
  5
32A
330
25
100
AcDbEntity
  8
1
  6
Continuous
 62
     0
100
AcDbLine
 10
13163.40655504741
 20
-944.065238269458
 30
0.0
 11
13163.40655504741
 21
-986.065909608044
 31
0.0
  0
LINE
  5
329
330
25
100
AcDbEntity
  8
1
  6
Continuous
 62
     0
100
AcDbLine
 10
13176.07322171408
 20
-944.065238269458
 30
0.0
 11
13176.07322171408
 21
-986.065909608044
 31
0.0
  0
LINE
  5
328
330
25
100
AcDbEntity
  8
1
  6
Continuous
 62
     0
100
AcDbLine
 10
13178.07322171408
 20
-944.065238269458
 30
0.0
 11
13178.07322171408
 21
-986.065909608044
 31
0.0
  0
LINE
  5
327
330
25
100
AcDbEntity
  8
1
  6
Continuous
 62
     0
100
AcDbLine
 10
13190.73988838075
 20
-944.065238269458
 30
0.0
 11
13190.73988838075
 21
-986.065909608044
 31
0.0
  0
LINE
  5
326
330
25
100
AcDbEntity
  8
1
  6
Continuous
 62
     0
100
AcDbLine
 10
13192.73988838075
 20
-944.065238269458
 30
0.0
 11
13192.73988838075
 21
-986.065909608044
 31
0.0
  0
LINE
  5
325
330
25
100
AcDbEntity
  8
1
  6
Continuous
 62
     0
100
AcDbLine
 10
13205.40655504741
 20
-944.065238269458
 30
0.0
 11
13205.40655504741
 21
-986.065909608044
 31
0.0
  0
LINE
  5
324
330
25
100
AcDbEntity
  8
1
  6
Continuous
 62
     0
100
AcDbLine
 10
13207.40655504741
 20
-944.065238269458
 30
0.0
 11
13207.40655504741
 21
-986.488559338854
 31
0.0
  0
LINE
  5
323
330
25
100
AcDbEntity
  8
1
  6
Continuous
 62
     0
100
AcDbLine
 10
13149.40655504741
 20
-1060.565909608044
 30
0.0
 11
13149.40655504741
 21
-1068.565909608044
 31
0.0
  0
LINE
  5
322
330
25
100
AcDbEntity
  8
1
  6
Continuous
 62
     0
100
AcDbLine
 10
13219.40655504741
 20
-1060.565909608044
 30
0.0
 11
13219.40655504741
 21
-1068.565909608044
 31
0.0
  0
LINE
  5
320
330
25
100
AcDbEntity
  8
1
  6
Continuous
 62
     0
100
AcDbLine
 10
13200.8891406124
 20
-1086.565909608044
 30
0.0
 11
13201.2646406124
 21
-1095.325909608043
 31
0.0
  0
LINE
  5
31F
330
25
100
AcDbEntity
  8
1
  6
Continuous
 62
     0
100
AcDbLine
 10
13200.8891406124
 20
-1107.785909608043
 30
0.0
 11
13201.2646406124
 21
-1099.025909608043
 31
0.0
  0
LINE
  5
31E
330
25
100
AcDbEntity
  8
1
  6
Continuous
 62
     0
100
AcDbLine
 10
13167.2646406124
 20
-1099.025909608043
 30
0.0
 11
13167.6401406124
 21
-1107.785909608043
 31
0.0
  0
LINE
  5
31D
330
25
100
AcDbEntity
  8
1
  6
Continuous
 62
     0
100
AcDbLine
 10
13167.2646406124
 20
-1095.325909608043
 30
0.0
 11
13167.6401406124
 21
-1086.565909608044
 31
0.0
  0
LINE
  5
31C
330
25
100
AcDbEntity
  8
1
  6
Continuous
 62
     0
100
AcDbLine
 10
13201.2646406124
 20
-1099.025909608043
 30
0.0
 11
13201.2646406124
 21
-1095.325909608043
 31
0.0
  0
LINE
  5
31B
330
25
100
AcDbEntity
  8
1
  6
Continuous
 62
     0
100
AcDbLine
 10
13167.2646406124
 20
-1095.325909608043
 30
0.0
 11
13167.2646406124
 21
-1099.025909608043
 31
0.0
  0
LINE
  5
31A
330
25
100
AcDbEntity
  8
1
  6
Continuous
 62
     0
100
AcDbLine
 10
13201.2646406124
 20
-1099.025909608043
 30
0.0
 11
13167.2646406124
 21
-1099.025909608043
 31
0.0
  0
LINE
  5
319
330
25
100
AcDbEntity
  8
1
  6
Continuous
 62
     0
100
AcDbLine
 10
13167.2646406124
 20
-1095.325909608043
 30
0.0
 11
13201.2646406124
 21
-1095.325909608043
 31
0.0
  0
LINE
  5
318
330
25
100
AcDbEntity
  8
1
  6
Continuous
 62
     0
100
AcDbLine
 10
13217.87513457287
 20
-1124.284365075471
 30
0.0
 11
13210.7646406124
 21
-1124.284365075471
 31
0.0
  0
LINE
  5
317
330
25
100
AcDbEntity
  8
1
  6
Continuous
 62
     0
100
AcDbLine
 10
13228.25995810761
 20
-1158.785909608043
 30
0.0
 11
13228.25995810761
 21
-1122.784365075471
 31
0.0
  0
LINE
  5
316
330
25
100
AcDbEntity
  8
1
  6
Continuous
 62
     0
100
AcDbLine
 10
13223.25995810761
 20
-1193.287454140615
 30
0.0
 11
13223.25995810761
 21
-1194.787454140615
 31
0.0
  0
LINE
  5
315
330
25
100
AcDbEntity
  8
1
  6
Continuous
 62
     0
100
AcDbLine
 10
13223.25995810761
 20
-1124.284365075471
 30
0.0
 11
13223.25995810761
 21
-1122.784365075471
 31
0.0
  0
LINE
  5
314
330
25
100
AcDbEntity
  8
1
  6
Continuous
 62
     0
100
AcDbLine
 10
13223.25995810761
 20
-1193.287454140615
 30
0.0
 11
13223.25995810761
 21
-1124.284365075471
 31
0.0
  0
LINE
  5
313
330
25
100
AcDbEntity
  8
1
  6
Continuous
 62
     0
100
AcDbLine
 10
13223.25995810761
 20
-1122.784365075471
 30
0.0
 11
13228.25995810761
 21
-1122.784365075471
 31
0.0
  0
LINE
  5
312
330
25
100
AcDbEntity
  8
1
  6
Continuous
 62
     0
100
AcDbLine
 10
13223.25995810761
 20
-1194.787454140615
 30
0.0
 11
13228.25995810761
 21
-1194.787454140615
 31
0.0
  0
LINE
  5
311
330
25
100
AcDbEntity
  8
1
  6
Continuous
 62
     0
100
AcDbLine
 10
13228.25995810761
 20
-1194.787454140615
 30
0.0
 11
13228.25995810761
 21
-1158.785909608043
 31
0.0
  0
LINE
  5
310
330
25
100
AcDbEntity
  8
1
  6
Continuous
 62
     0
100
AcDbLine
 10
13217.87513457287
 20
-1193.287454140615
 30
0.0
 11
13208.7646406124
 21
-1193.287454140615
 31
0.0
  0
LINE
  5
30E
330
25
100
AcDbEntity
  8
1
  6
Continuous
 62
     0
100
AcDbLine
 10
13162.25172289033
 20
-1112.785909608043
 30
0.0
 11
13206.27755833448
 21
-1112.785909608043
 31
0.0
  0
LINE
  5
30D
330
25
100
AcDbEntity
  8
1
  6
Continuous
 62
     0
100
AcDbLine
 10
13206.27755833448
 20
-1107.785909608043
 30
0.0
 11
13206.27755833448
 21
-1112.785909608043
 31
0.0
  0
LINE
  5
30C
330
25
100
AcDbEntity
  8
1
  6
Continuous
 62
     0
100
AcDbLine
 10
13162.25172289033
 20
-1107.785909608043
 30
0.0
 11
13162.25172289033
 21
-1112.785909608043
 31
0.0
  0
LINE
  5
30B
330
25
100
AcDbEntity
  8
1
  6
Continuous
 62
     0
100
AcDbLine
 10
13162.25172289033
 20
-1107.785909608043
 30
0.0
 11
13184.2646406124
 21
-1107.785909608043
 31
0.0
  0
LINE
  5
30A
330
25
100
AcDbEntity
  8
1
  6
Continuous
 62
     0
100
AcDbLine
 10
13204.7646406124
 20
-1116.950990790307
 30
0.0
 11
13204.7646406124
 21
-1118.284365075471
 31
0.0
  0
LINE
  5
309
330
25
100
AcDbEntity
  8
1
  6
Continuous
 62
     0
100
AcDbLine
 10
13163.7646406124
 20
-1116.950990790307
 30
0.0
 11
13163.7646406124
 21
-1148.287454140615
 31
0.0
  0
LINE
  5
308
330
25
100
AcDbEntity
  8
1
  6
Continuous
 62
     0
100
AcDbLine
 10
13184.2646406124
 20
-1107.785909608043
 30
0.0
 11
13206.27755833448
 21
-1107.785909608043
 31
0.0
  0
LINE
  5
307
330
25
100
AcDbEntity
  8
1
  6
Continuous
 62
     0
100
AcDbLine
 10
13228.25995810761
 20
-1128.978909608043
 30
0.0
 11
13239.37995810761
 21
-1128.535909608043
 31
0.0
  0
LINE
  5
306
330
25
100
AcDbEntity
  8
1
  6
Continuous
 62
     0
100
AcDbLine
 10
13239.37995810761
 20
-1189.035909608043
 30
0.0
 11
13228.25995810761
 21
-1188.592909608044
 31
0.0
  0
LINE
  5
305
330
25
100
AcDbEntity
  8
1
  6
Continuous
 62
     0
100
AcDbLine
 10
13243.37995810761
 20
-1128.535909608043
 30
0.0
 11
13254.49995810761
 21
-1128.978909608043
 31
0.0
  0
LINE
  5
304
330
25
100
AcDbEntity
  8
1
  6
Continuous
 62
     0
100
AcDbLine
 10
13243.37995810761
 20
-1189.035909608043
 30
0.0
 11
13254.49995810761
 21
-1188.592909608044
 31
0.0
  0
LINE
  5
303
330
25
100
AcDbEntity
  8
1
  6
Continuous
 62
     0
100
AcDbLine
 10
13243.37995810761
 20
-1128.535909608043
 30
0.0
 11
13239.37995810761
 21
-1128.535909608043
 31
0.0
  0
LINE
  5
302
330
25
100
AcDbEntity
  8
1
  6
Continuous
 62
     0
100
AcDbLine
 10
13239.37995810761
 20
-1189.035909608043
 30
0.0
 11
13243.37995810761
 21
-1189.035909608043
 31
0.0
  0
LINE
  5
301
330
25
100
AcDbEntity
  8
1
  6
Continuous
 62
     0
100
AcDbLine
 10
13239.37995810761
 20
-1189.035909608043
 30
0.0
 11
13239.37995810761
 21
-1128.535909608043
 31
0.0
  0
LINE
  5
300
330
25
100
AcDbEntity
  8
1
  6
Continuous
 62
     0
100
AcDbLine
 10
13243.37995810761
 20
-1128.535909608043
 30
0.0
 11
13243.37995810761
 21
-1189.035909608043
 31
0.0
  0
LINE
  5
2FE
330
25
100
AcDbEntity
  8
1
  6
Continuous
 62
     0
100
AcDbLine
 10
13199.90655504741
 20
-930.065238269458
 30
0.0
 11
13202.90655504741
 21
-931.797289077027
 31
0.0
  0
LINE
  5
2FD
330
25
100
AcDbEntity
  8
1
  6
Continuous
 62
     0
100
AcDbLine
 10
13202.90655504741
 20
-931.797289077027
 30
0.0
 11
13202.90655504741
 21
-938.065238269458
 31
0.0
  0
LINE
  5
2FC
330
25
100
AcDbEntity
  8
1
  6
Continuous
 62
     0
100
AcDbLine
 10
13202.90655504741
 20
-938.065238269458
 30
0.0
 11
13165.90655504741
 21
-938.065238269458
 31
0.0
  0
LINE
  5
2FB
330
25
100
AcDbEntity
  8
1
  6
Continuous
 62
     0
100
AcDbLine
 10
13165.90655504741
 20
-938.065238269458
 30
0.0
 11
13165.90655504741
 21
-931.797289077027
 31
0.0
  0
LINE
  5
2FA
330
25
100
AcDbEntity
  8
1
  6
Continuous
 62
     0
100
AcDbLine
 10
13165.90655504741
 20
-931.797289077027
 30
0.0
 11
13168.90655504741
 21
-930.065238269458
 31
0.0
  0
LINE
  5
2F9
330
25
100
AcDbEntity
  8
1
  6
Continuous
 62
     0
100
AcDbLine
 10
13168.90655504741
 20
-930.065238269458
 30
0.0
 11
13199.90655504741
 21
-930.065238269458
 31
0.0
  0
LINE
  5
2F8
330
25
100
AcDbEntity
  8
1
  6
Continuous
 62
     0
100
AcDbLine
 10
13199.40655504741
 20
-921.565238269458
 30
0.0
 11
13199.40655504741
 21
-930.075537144109
 31
0.0
  0
LINE
  5
2F7
330
25
100
AcDbEntity
  8
1
  6
Continuous
 62
     0
100
AcDbLine
 10
13169.40655504741
 20
-921.565238269458
 30
0.0
 11
13169.40655504741
 21
-930.065238269458
 31
0.0
  0
LINE
  5
2F6
330
25
100
AcDbEntity
  8
1
  6
Continuous
 62
     0
100
AcDbLine
 10
13193.65655504741
 20
-931.797289077027
 30
0.0
 11
13193.65655504741
 21
-938.065238269458
 31
0.0
  0
LINE
  5
2F5
330
25
100
AcDbEntity
  8
1
  6
Continuous
 62
     0
100
AcDbLine
 10
13175.15655504741
 20
-931.797289077027
 30
0.0
 11
13175.15655504741
 21
-938.065238269458
 31
0.0
  0
LINE
  5
2F4
330
25
100
AcDbEntity
  8
1
  6
Continuous
 62
     0
100
AcDbLine
 10
13204.40655504741
 20
-939.065238269458
 30
0.0
 11
13204.40655504741
 21
-941.065238269458
 31
0.0
  0
LINE
  5
2F3
330
25
100
AcDbEntity
  8
1
  6
Continuous
 62
     0
100
AcDbLine
 10
13165.40655504741
 20
-938.065238269458
 30
0.0
 11
13203.40655504741
 21
-938.065238269458
 31
0.0
  0
LINE
  5
2F2
330
25
100
AcDbEntity
  8
1
  6
Continuous
 62
     0
100
AcDbLine
 10
13164.40655504741
 20
-939.065238269458
 30
0.0
 11
13164.40655504741
 21
-941.065238269458
 31
0.0
  0
LINE
  5
2F1
330
25
100
AcDbEntity
  8
1
  6
Continuous
 62
     0
100
AcDbLine
 10
13210.90655504741
 20
-989.663985819396
 30
0.0
 11
13210.90655504741
 21
-997.065909608044
 31
0.0
  0
LINE
  5
2F0
330
25
100
AcDbEntity
  8
1
  6
Continuous
 62
     0
100
AcDbLine
 10
13210.90655504741
 20
-997.065909608044
 30
0.0
 11
13157.90655504741
 21
-997.065909608044
 31
0.0
  0
LINE
  5
2EF
330
25
100
AcDbEntity
  8
1
  6
Continuous
 62
     0
100
AcDbLine
 10
13157.90655504741
 20
-997.065909608044
 30
0.0
 11
13157.90655504741
 21
-989.663985819396
 31
0.0
  0
LINE
  5
2EE
330
25
100
AcDbEntity
  8
1
  6
Continuous
 62
     0
100
AcDbLine
 10
13197.65655504741
 20
-989.663985819396
 30
0.0
 11
13197.65655504741
 21
-997.065909608044
 31
0.0
  0
LINE
  5
2ED
330
25
100
AcDbEntity
  8
1
  6
Continuous
 62
     0
100
AcDbLine
 10
13171.15655504741
 20
-989.663985819396
 30
0.0
 11
13171.15655504741
 21
-997.065909608044
 31
0.0
  0
LINE
  5
2EC
330
25
100
AcDbEntity
  8
1
  6
Continuous
 62
     0
100
AcDbLine
 10
13159.40655504741
 20
-988.797960415612
 30
0.0
 11
13159.40655504741
 21
-945.065238269458
 31
0.0
  0
LINE
  5
2EB
330
25
100
AcDbEntity
  8
1
  6
Continuous
 62
     0
100
AcDbLine
 10
13209.40655504741
 20
-988.797960415612
 30
0.0
 11
13209.40655504741
 21
-945.065238269458
 31
0.0
  0
LINE
  5
2EA
330
25
100
AcDbEntity
  8
1
  6
Continuous
 62
     0
100
AcDbLine
 10
13161.40655504741
 20
-943.065238269458
 30
0.0
 11
13162.40655504741
 21
-943.065238269458
 31
0.0
  0
LINE
  5
2E9
330
25
100
AcDbEntity
  8
1
  6
Continuous
 62
     0
100
AcDbLine
 10
13207.40655504741
 20
-943.065238269458
 30
0.0
 11
13206.40655504741
 21
-943.065238269458
 31
0.0
  0
LINE
  5
2E8
330
25
100
AcDbEntity
  8
1
  6
Continuous
 62
     0
100
AcDbLine
 10
13162.40655504741
 20
-943.065238269458
 30
0.0
 11
13164.40655504741
 21
-943.065238269458
 31
0.0
  0
LINE
  5
2E7
330
25
100
AcDbEntity
  8
1
  6
Continuous
 62
     0
100
AcDbLine
 10
13204.40655504741
 20
-943.065238269458
 30
0.0
 11
13164.40655504741
 21
-943.065238269458
 31
0.0
  0
LINE
  5
2E6
330
25
100
AcDbEntity
  8
1
  6
Continuous
 62
     0
100
AcDbLine
 10
13206.40655504741
 20
-943.065238269458
 30
0.0
 11
13204.40655504741
 21
-943.065238269458
 31
0.0
  0
LINE
  5
2E5
330
25
100
AcDbEntity
  8
1
  6
Continuous
 62
     0
100
AcDbLine
 10
13206.40655504741
 20
-987.065909608044
 30
0.0
 11
13210.90655504741
 21
-989.663985819396
 31
0.0
  0
LINE
  5
2E4
330
25
100
AcDbEntity
  8
1
  6
Continuous
 62
     0
100
AcDbLine
 10
13206.40655504741
 20
-987.065909608044
 30
0.0
 11
13162.40655504741
 21
-987.065909608044
 31
0.0
  0
LINE
  5
2E3
330
25
100
AcDbEntity
  8
1
  6
Continuous
 62
     0
100
AcDbLine
 10
13162.40655504741
 20
-987.065909608044
 30
0.0
 11
13157.90655504741
 21
-989.663985819396
 31
0.0
  0
LINE
  5
2E2
330
25
100
AcDbEntity
  8
1
  6
Continuous
 62
     0
100
AcDbLine
 10
13157.90655504741
 20
-997.065909608044
 30
0.0
 11
13149.40655504741
 21
-997.065909608044
 31
0.0
  0
LINE
  5
2E1
330
25
100
AcDbEntity
  8
1
  6
Continuous
 62
     0
100
AcDbLine
 10
13144.40655504741
 20
-1002.065909608044
 30
0.0
 11
13144.40655504741
 21
-1055.565909608044
 31
0.0
  0
LINE
  5
2E0
330
25
100
AcDbEntity
  8
1
  6
Continuous
 62
     0
100
AcDbLine
 10
13149.40655504741
 20
-1060.565909608044
 30
0.0
 11
13219.40655504741
 21
-1060.565909608044
 31
0.0
  0
LINE
  5
2DF
330
25
100
AcDbEntity
  8
1
  6
Continuous
 62
     0
100
AcDbLine
 10
13224.40655504741
 20
-1002.065909608044
 30
0.0
 11
13224.40655504741
 21
-1055.565909608044
 31
0.0
  0
LINE
  5
2DE
330
25
100
AcDbEntity
  8
1
  6
Continuous
 62
     0
100
AcDbLine
 10
13210.90655504741
 20
-997.065909608044
 30
0.0
 11
13219.40655504741
 21
-997.065909608044
 31
0.0
  0
LINE
  5
2DD
330
25
100
AcDbEntity
  8
1
  6
Continuous
 62
     0
100
AcDbLine
 10
13205.40655504741
 20
-1086.565909608044
 30
0.0
 11
13163.40655504741
 21
-1086.565909608044
 31
0.0
  0
LINE
  5
2DC
330
25
100
AcDbEntity
  8
1
  6
Continuous
 62
     0
100
AcDbLine
 10
13219.40655504741
 20
-1060.565909608044
 30
0.0
 11
13149.40655504741
 21
-1060.565909608044
 31
0.0
  0
LINE
  5
2DB
330
25
100
AcDbEntity
  8
1
  6
Continuous
 62
     0
100
AcDbLine
 10
13214.90655504741
 20
-1071.565909608044
 30
0.0
 11
13153.90655504741
 21
-1071.565909608044
 31
0.0
  0
LINE
  5
2DA
330
25
100
AcDbEntity
  8
1
  6
Continuous
 62
     0
100
AcDbLine
 10
13153.90655504741
 20
-1071.565909608044
 30
0.0
 11
13153.90655504741
 21
-1084.256508531284
 31
0.0
  0
LINE
  5
2D9
330
25
100
AcDbEntity
  8
1
  6
Continuous
 62
     0
100
AcDbLine
 10
13216.40655504741
 20
-1071.565909608044
 30
0.0
 11
13152.40655504741
 21
-1071.565909608044
 31
0.0
  0
LINE
  5
2D8
330
25
100
AcDbEntity
  8
1
  6
Continuous
 62
     0
100
AcDbLine
 10
13219.40655504741
 20
-1060.565909608044
 30
0.0
 11
13149.40655504741
 21
-1060.565909608044
 31
0.0
  0
LINE
  5
2D7
330
25
100
AcDbEntity
  8
1
  6
Continuous
 62
     0
100
AcDbLine
 10
13157.90655504741
 20
-1086.565909608044
 30
0.0
 11
13210.90655504741
 21
-1086.565909608044
 31
0.0
  0
LINE
  5
2D6
330
25
100
AcDbEntity
  8
1
  6
Continuous
 62
     0
100
AcDbLine
 10
13214.90655504741
 20
-1084.256508531284
 30
0.0
 11
13214.90655504741
 21
-1071.565909608044
 31
0.0
  0
LINE
  5
2D5
330
25
100
AcDbEntity
  8
1
  6
Continuous
 62
     0
100
AcDbLine
 10
13214.90655504741
 20
-1084.256508531284
 30
0.0
 11
13210.90655504741
 21
-1086.565909608044
 31
0.0
  0
LINE
  5
2D4
330
25
100
AcDbEntity
  8
1
  6
Continuous
 62
     0
100
AcDbLine
 10
13153.90655504741
 20
-1084.256508531284
 30
0.0
 11
13157.90655504741
 21
-1086.565909608044
 31
0.0
  0
LINE
  5
2D3
330
25
100
AcDbEntity
  8
1
  6
Continuous
 62
     0
100
AcDbLine
 10
13199.65655504741
 20
-1084.256508531284
 30
0.0
 11
13199.65655504741
 21
-1071.565909608044
 31
0.0
  0
LINE
  5
2D2
330
25
100
AcDbEntity
  8
1
  6
Continuous
 62
     0
100
AcDbLine
 10
13169.15655504741
 20
-1084.256508531284
 30
0.0
 11
13169.15655504741
 21
-1071.565909608044
 31
0.0
  0
LINE
  5
2D1
330
25
100
AcDbEntity
  8
1
  6
Continuous
 62
     0
100
AcDbLine
 10
11016.35429174384
 20
-1003.207154616015
 30
0.0
 11
11016.35429174384
 21
-1060.565909608044
 31
0.0
  0
LINE
  5
2D0
330
25
100
AcDbEntity
  8
1
  6
Continuous
 62
     0
100
AcDbLine
 10
10954.10429174384
 20
-1084.256508531284
 30
0.0
 11
10954.10429174384
 21
-1071.565909608044
 31
0.0
  0
LINE
  5
2CF
330
25
100
AcDbEntity
  8
1
  6
Continuous
 62
     0
100
AcDbLine
 10
10984.60429174384
 20
-1084.256508531284
 30
0.0
 11
10984.60429174384
 21
-1071.565909608044
 31
0.0
  0
LINE
  5
2CE
330
25
100
AcDbEntity
  8
1
  6
Continuous
 62
     0
100
AcDbLine
 10
10938.85429174384
 20
-1084.256508531284
 30
0.0
 11
10942.85429174384
 21
-1086.565909608044
 31
0.0
  0
LINE
  5
2CD
330
25
100
AcDbEntity
  8
1
  6
Continuous
 62
     0
100
AcDbLine
 10
10999.85429174384
 20
-1084.256508531284
 30
0.0
 11
10995.85429174384
 21
-1086.565909608044
 31
0.0
  0
LINE
  5
2CC
330
25
100
AcDbEntity
  8
1
  6
Continuous
 62
     0
100
AcDbLine
 10
10999.85429174384
 20
-1084.256508531284
 30
0.0
 11
10999.85429174384
 21
-1071.565909608044
 31
0.0
  0
LINE
  5
2CB
330
25
100
AcDbEntity
  8
1
  6
Continuous
 62
     0
100
AcDbLine
 10
10942.85429174384
 20
-1086.565909608044
 30
0.0
 11
10995.85429174384
 21
-1086.565909608044
 31
0.0
  0
LINE
  5
2CA
330
25
100
AcDbEntity
  8
1
  6
Continuous
 62
     0
100
AcDbLine
 10
11004.35429174384
 20
-1060.565909608044
 30
0.0
 11
10934.35429174384
 21
-1060.565909608044
 31
0.0
  0
LINE
  5
2C9
330
25
100
AcDbEntity
  8
1
  6
Continuous
 62
     0
100
AcDbLine
 10
11001.35429174384
 20
-1071.565909608044
 30
0.0
 11
10937.35429174384
 21
-1071.565909608044
 31
0.0
  0
LINE
  5
2C8
330
25
100
AcDbEntity
  8
1
  6
Continuous
 62
     0
100
AcDbLine
 10
10938.85429174384
 20
-1071.565909608044
 30
0.0
 11
10938.85429174384
 21
-1084.256508531284
 31
0.0
  0
LINE
  5
2C7
330
25
100
AcDbEntity
  8
1
  6
Continuous
 62
     0
100
AcDbLine
 10
10999.85429174384
 20
-1071.565909608044
 30
0.0
 11
10938.85429174384
 21
-1071.565909608044
 31
0.0
  0
LINE
  5
2C6
330
25
100
AcDbEntity
  8
1
  6
Continuous
 62
     0
100
AcDbLine
 10
11004.35429174384
 20
-1060.565909608044
 30
0.0
 11
10934.35429174384
 21
-1060.565909608044
 31
0.0
  0
LINE
  5
2C5
330
25
100
AcDbEntity
  8
1
  6
Continuous
 62
     0
100
AcDbLine
 10
10990.35429174384
 20
-1086.565909608044
 30
0.0
 11
10948.35429174384
 21
-1086.565909608044
 31
0.0
  0
LINE
  5
2C4
330
25
100
AcDbEntity
  8
1
  6
Continuous
 62
     0
100
AcDbLine
 10
10995.85429174384
 20
-997.065909608044
 30
0.0
 11
11004.35429174384
 21
-997.065909608044
 31
0.0
  0
LINE
  5
2C3
330
25
100
AcDbEntity
  8
1
  6
Continuous
 62
     0
100
AcDbLine
 10
11009.35429174384
 20
-1002.065909608044
 30
0.0
 11
11009.35429174384
 21
-1003.065909608044
 31
0.0
  0
LINE
  5
2C2
330
25
100
AcDbEntity
  8
1
  6
Continuous
 62
     0
100
AcDbLine
 10
11010.35429174384
 20
-1004.065909608044
 30
0.0
 11
11015.35429174384
 21
-1004.065909608044
 31
0.0
  0
LINE
  5
2C1
330
25
100
AcDbEntity
  8
1
  6
Continuous
 62
     0
100
AcDbLine
 10
11016.35429174384
 20
-1002.565909608044
 30
0.0
 11
11016.35429174384
 21
-1003.065909608044
 31
0.0
  0
LINE
  5
2C0
330
25
100
AcDbEntity
  8
1
  6
Continuous
 62
     0
100
AcDbLine
 10
11021.35429174384
 20
-1002.565909608044
 30
0.0
 11
11016.35429174384
 21
-1002.565909608044
 31
0.0
  0
LINE
  5
2BF
330
25
100
AcDbEntity
  8
1
  6
Continuous
 62
     0
100
AcDbLine
 10
11021.35429174384
 20
-1060.565909608044
 30
0.0
 11
11021.35429174384
 21
-1002.565909608044
 31
0.0
  0
LINE
  5
2BE
330
25
100
AcDbEntity
  8
1
  6
Continuous
 62
     0
100
AcDbLine
 10
11016.35429174384
 20
-1060.565909608044
 30
0.0
 11
11021.35429174384
 21
-1060.565909608044
 31
0.0
  0
LINE
  5
2BD
330
25
100
AcDbEntity
  8
1
  6
Continuous
 62
     0
100
AcDbLine
 10
11016.35429174384
 20
-1060.565909608044
 30
0.0
 11
11016.35429174384
 21
-1060.065909608044
 31
0.0
  0
LINE
  5
2BC
330
25
100
AcDbEntity
  8
1
  6
Continuous
 62
     0
100
AcDbLine
 10
11010.35429174384
 20
-1059.065909608044
 30
0.0
 11
11015.35429174384
 21
-1059.065909608044
 31
0.0
  0
LINE
  5
2BB
330
25
100
AcDbEntity
  8
1
  6
Continuous
 62
     0
100
AcDbLine
 10
11009.35429174384
 20
-1060.565909608044
 30
0.0
 11
11009.35429174384
 21
-1060.065909608044
 31
0.0
  0
LINE
  5
2BA
330
25
100
AcDbEntity
  8
1
  6
Continuous
 62
     0
100
AcDbLine
 10
11009.35429174384
 20
-1060.565909608044
 30
0.0
 11
10934.35429174384
 21
-1060.565909608044
 31
0.0
  0
LINE
  5
2B9
330
25
100
AcDbEntity
  8
1
  6
Continuous
 62
     0
100
AcDbLine
 10
10929.35429174384
 20
-1002.065909608044
 30
0.0
 11
10929.35429174384
 21
-1055.565909608044
 31
0.0
  0
LINE
  5
2B8
330
25
100
AcDbEntity
  8
1
  6
Continuous
 62
     0
100
AcDbLine
 10
10942.85429174384
 20
-997.065909608044
 30
0.0
 11
10934.35429174384
 21
-997.065909608044
 31
0.0
  0
LINE
  5
2B7
330
25
100
AcDbEntity
  8
1
  6
Continuous
 62
     0
100
AcDbLine
 10
10947.35429174384
 20
-987.065909608044
 30
0.0
 11
10942.85429174384
 21
-989.663985819396
 31
0.0
  0
LINE
  5
2B6
330
25
100
AcDbEntity
  8
1
  6
Continuous
 62
     0
100
AcDbLine
 10
10991.35429174384
 20
-987.065909608044
 30
0.0
 11
10947.35429174384
 21
-987.065909608044
 31
0.0
  0
LINE
  5
2B5
330
25
100
AcDbEntity
  8
1
  6
Continuous
 62
     0
100
AcDbLine
 10
10991.35429174384
 20
-987.065909608044
 30
0.0
 11
10995.85429174384
 21
-989.663985819396
 31
0.0
  0
LINE
  5
2B4
330
25
100
AcDbEntity
  8
1
  6
Continuous
 62
     0
100
AcDbLine
 10
10991.35429174384
 20
-943.065909608044
 30
0.0
 11
10989.35429174384
 21
-943.065909608044
 31
0.0
  0
LINE
  5
2B3
330
25
100
AcDbEntity
  8
1
  6
Continuous
 62
     0
100
AcDbLine
 10
10989.35429174384
 20
-943.065909608044
 30
0.0
 11
10949.35429174384
 21
-943.065909608044
 31
0.0
  0
LINE
  5
2B2
330
25
100
AcDbEntity
  8
1
  6
Continuous
 62
     0
100
AcDbLine
 10
10947.35429174384
 20
-943.065909608044
 30
0.0
 11
10949.35429174384
 21
-943.065909608044
 31
0.0
  0
LINE
  5
2B1
330
25
100
AcDbEntity
  8
1
  6
Continuous
 62
     0
100
AcDbLine
 10
10992.35429174384
 20
-943.065909608044
 30
0.0
 11
10991.35429174384
 21
-943.065909608044
 31
0.0
  0
LINE
  5
2B0
330
25
100
AcDbEntity
  8
1
  6
Continuous
 62
     0
100
AcDbLine
 10
10946.35429174384
 20
-943.065909608044
 30
0.0
 11
10947.35429174384
 21
-943.065909608044
 31
0.0
  0
LINE
  5
2AF
330
25
100
AcDbEntity
  8
1
  6
Continuous
 62
     0
100
AcDbLine
 10
10994.35429174384
 20
-988.797960415612
 30
0.0
 11
10994.35429174384
 21
-945.065909608044
 31
0.0
  0
LINE
  5
2AE
330
25
100
AcDbEntity
  8
1
  6
Continuous
 62
     0
100
AcDbLine
 10
10944.35429174384
 20
-988.797960415612
 30
0.0
 11
10944.35429174384
 21
-945.065909608044
 31
0.0
  0
LINE
  5
2AD
330
25
100
AcDbEntity
  8
1
  6
Continuous
 62
     0
100
AcDbLine
 10
10956.10429174384
 20
-989.663985819396
 30
0.0
 11
10956.10429174384
 21
-997.065909608044
 31
0.0
  0
LINE
  5
2AC
330
25
100
AcDbEntity
  8
1
  6
Continuous
 62
     0
100
AcDbLine
 10
10982.60429174384
 20
-989.663985819396
 30
0.0
 11
10982.60429174384
 21
-997.065909608044
 31
0.0
  0
LINE
  5
2AB
330
25
100
AcDbEntity
  8
1
  6
Continuous
 62
     0
100
AcDbLine
 10
10942.85429174384
 20
-997.065909608044
 30
0.0
 11
10942.85429174384
 21
-989.663985819396
 31
0.0
  0
LINE
  5
2AA
330
25
100
AcDbEntity
  8
1
  6
Continuous
 62
     0
100
AcDbLine
 10
10995.85429174384
 20
-997.065909608044
 30
0.0
 11
10942.85429174384
 21
-997.065909608044
 31
0.0
  0
LINE
  5
2A9
330
25
100
AcDbEntity
  8
1
  6
Continuous
 62
     0
100
AcDbLine
 10
10995.85429174384
 20
-989.663985819396
 30
0.0
 11
10995.85429174384
 21
-997.065909608044
 31
0.0
  0
LINE
  5
2A8
330
25
100
AcDbEntity
  8
1
  6
Continuous
 62
     0
100
AcDbLine
 10
10949.35429174384
 20
-939.065909608044
 30
0.0
 11
10949.35429174384
 21
-941.065909608044
 31
0.0
  0
LINE
  5
2A7
330
25
100
AcDbEntity
  8
1
  6
Continuous
 62
     0
100
AcDbLine
 10
10950.35429174384
 20
-938.065909608044
 30
0.0
 11
10988.35429174384
 21
-938.065909608044
 31
0.0
  0
LINE
  5
2A6
330
25
100
AcDbEntity
  8
1
  6
Continuous
 62
     0
100
AcDbLine
 10
10989.35429174384
 20
-939.065909608044
 30
0.0
 11
10989.35429174384
 21
-941.065909608044
 31
0.0
  0
LINE
  5
2A5
330
25
100
AcDbEntity
  8
1
  6
Continuous
 62
     0
100
AcDbLine
 10
10960.10429174384
 20
-931.797960415612
 30
0.0
 11
10960.10429174384
 21
-938.065909608044
 31
0.0
  0
LINE
  5
2A4
330
25
100
AcDbEntity
  8
1
  6
Continuous
 62
     0
100
AcDbLine
 10
10978.60429174384
 20
-931.797960415612
 30
0.0
 11
10978.60429174384
 21
-938.065909608044
 31
0.0
  0
LINE
  5
2A3
330
25
100
AcDbEntity
  8
1
  6
Continuous
 62
     0
100
AcDbLine
 10
10954.35429174384
 20
-921.565909608044
 30
0.0
 11
10954.35429174384
 21
-930.065909608044
 31
0.0
  0
LINE
  5
2A2
330
25
100
AcDbEntity
  8
1
  6
Continuous
 62
     0
100
AcDbLine
 10
10984.35429174384
 20
-921.565909608044
 30
0.0
 11
10984.35429174384
 21
-930.076208482695
 31
0.0
  0
LINE
  5
2A1
330
25
100
AcDbEntity
  8
1
  6
Continuous
 62
     0
100
AcDbLine
 10
10953.85429174384
 20
-930.065909608044
 30
0.0
 11
10984.85429174384
 21
-930.065909608044
 31
0.0
  0
LINE
  5
2A0
330
25
100
AcDbEntity
  8
1
  6
Continuous
 62
     0
100
AcDbLine
 10
10950.85429174384
 20
-931.797960415612
 30
0.0
 11
10953.85429174384
 21
-930.065909608044
 31
0.0
  0
LINE
  5
29F
330
25
100
AcDbEntity
  8
1
  6
Continuous
 62
     0
100
AcDbLine
 10
10950.85429174384
 20
-938.065909608044
 30
0.0
 11
10950.85429174384
 21
-931.797960415612
 31
0.0
  0
LINE
  5
29E
330
25
100
AcDbEntity
  8
1
  6
Continuous
 62
     0
100
AcDbLine
 10
10987.85429174384
 20
-938.065909608044
 30
0.0
 11
10950.85429174384
 21
-938.065909608044
 31
0.0
  0
LINE
  5
29D
330
25
100
AcDbEntity
  8
1
  6
Continuous
 62
     0
100
AcDbLine
 10
10987.85429174384
 20
-931.797960415612
 30
0.0
 11
10987.85429174384
 21
-938.065909608044
 31
0.0
  0
LINE
  5
29C
330
25
100
AcDbEntity
  8
1
  6
Continuous
 62
     0
100
AcDbLine
 10
10984.85429174384
 20
-930.065909608044
 30
0.0
 11
10987.85429174384
 21
-931.797960415612
 31
0.0
  0
LINE
  5
299
330
25
100
AcDbEntity
  8
1
  6
Continuous
 62
     0
100
AcDbLine
 10
10381.35484812178
 20
-1188.434636466461
 30
0.0
 11
10364.27722312178
 21
-1188.434636466461
 31
0.0
  0
LINE
  5
297
330
25
100
AcDbEntity
  8
1
  6
Continuous
 62
     0
100
AcDbLine
 10
10366.81603562178
 20
-1197.434636466461
 30
0.0
 11
10366.81603562178
 21
-1188.434636466461
 31
0.0
  0
LINE
  5
296
330
25
100
AcDbEntity
  8
1
  6
Continuous
 62
     0
100
AcDbLine
 10
10378.81603562178
 20
-1197.434636466461
 30
0.0
 11
10366.81603562178
 21
-1197.434636466461
 31
0.0
  0
LINE
  5
295
330
25
100
AcDbEntity
  8
1
  6
Continuous
 62
     0
100
AcDbLine
 10
10378.81603562178
 20
-1188.434636466461
 30
0.0
 11
10378.81603562178
 21
-1197.434636466461
 31
0.0
  0
LINE
  5
294
330
25
100
AcDbEntity
  8
1
  6
Continuous
 62
     0
100
AcDbLine
 10
10381.14703562178
 20
-1181.78463646646
 30
0.0
 11
10381.35484812178
 21
-1188.434636466461
 31
0.0
  0
LINE
  5
293
330
25
100
AcDbEntity
  8
1
  6
Continuous
 62
     0
100
AcDbLine
 10
10364.48503562178
 20
-1181.78463646646
 30
0.0
 11
10364.27722312178
 21
-1188.434636466461
 31
0.0
  0
LINE
  5
292
330
25
100
AcDbEntity
  8
1
  6
Continuous
 62
     0
100
AcDbLine
 10
10374.74219945993
 20
-1085.932320181178
 30
0.0
 11
10372.81603562178
 21
-1084.774964185031
 31
0.0
  0
LINE
  5
291
330
25
100
AcDbEntity
  8
1
  6
Continuous
 62
     0
100
AcDbLine
 10
10372.81603562178
 20
-1084.774964185031
 30
0.0
 11
10374.78141723474
 21
-1085.864393002657
 31
0.0
  0
LINE
  5
290
330
25
100
AcDbEntity
  8
1
  6
Continuous
 62
     0
100
AcDbLine
 10
10370.85065400881
 20
-1085.864393002657
 30
0.0
 11
10372.81603562178
 21
-1084.774964185031
 31
0.0
  0
LINE
  5
28F
330
25
100
AcDbEntity
  8
1
  6
Continuous
 62
     0
100
AcDbLine
 10
10372.81603562178
 20
-1084.774964185031
 30
0.0
 11
10370.88987178362
 21
-1085.932320181178
 31
0.0
  0
LINE
  5
28D
330
25
100
AcDbEntity
  8
1
  6
Continuous
 62
     0
100
AcDbLine
 10
10372.81603562178
 20
-1084.774964185031
 30
0.0
 11
10372.77681784697
 21
-1082.528179371263
 31
0.0
  0
LINE
  5
28C
330
25
100
AcDbEntity
  8
1
  6
Continuous
 62
     0
100
AcDbLine
 10
10372.85525339658
 20
-1082.528179371263
 30
0.0
 11
10372.81603562178
 21
-1084.774964185031
 31
0.0
  0
LINE
  5
289
330
25
100
AcDbEntity
  8
1
  6
Continuous
 62
     0
100
AcDbLine
 10
10371.49714460906
 20
-1075.498826685765
 30
0.0
 11
10351.63242324767
 21
-1093.17069872618
 31
0.0
  0
LINE
  5
288
330
25
100
AcDbEntity
  8
1
  6
Continuous
 62
     0
100
AcDbLine
 10
10369.45439168564
 20
-1073.456073762337
 30
0.0
 11
10351.42838873573
 21
-1092.966664214241
 31
0.0
  0
LINE
  5
287
330
25
100
AcDbEntity
  8
1
  6
Continuous
 62
     0
100
AcDbLine
 10
10393.03603580092
 20
-1092.35800034733
 30
0.0
 11
10397.17744651795
 21
-1096.499411064362
 31
0.0
  0
LINE
  5
286
330
25
100
AcDbEntity
  8
1
  6
Continuous
 62
     0
100
AcDbLine
 10
10352.42205434145
 20
-1092.177033120461
 30
0.0
 11
10348.28143382388
 21
-1096.317653638038
 31
0.0
  0
LINE
  5
285
330
25
100
AcDbEntity
  8
1
  6
Continuous
 62
     0
100
AcDbLine
 10
10370.11603562178
 20
-1033.14904776301
 30
0.0
 11
10370.11603562178
 21
-1031.858636092557
 31
0.0
  0
LINE
  5
284
330
25
100
AcDbEntity
  8
1
  6
Continuous
 62
     0
100
AcDbLine
 10
10370.11603562178
 20
-1031.858636092557
 30
0.0
 11
10375.51603562177
 21
-1031.858636092557
 31
0.0
  0
LINE
  5
283
330
25
100
AcDbEntity
  8
1
  6
Continuous
 62
     0
100
AcDbLine
 10
10375.51603562177
 20
-1031.858636092557
 30
0.0
 11
10375.51603562177
 21
-1033.155209355889
 31
0.0
  0
LINE
  5
282
330
25
100
AcDbEntity
  8
1
  6
Continuous
 62
     0
100
AcDbLine
 10
10339.28379098924
 20
-1094.614724668379
 30
0.0
 11
10336.58379098924
 21
-1089.938187487944
 31
0.0
  0
LINE
  5
281
330
25
100
AcDbEntity
  8
1
  6
Continuous
 62
     0
100
AcDbLine
 10
10409.00440866318
 20
-1089.912858212992
 30
0.0
 11
10406.30440866318
 21
-1094.589395393428
 31
0.0
  0
LINE
  5
280
330
25
100
AcDbEntity
  8
1
  6
Continuous
 62
     0
100
AcDbLine
 10
10339.28379098924
 20
-1094.614724668379
 30
0.0
 11
10340.41804974962
 21
-1093.959860067739
 31
0.0
  0
LINE
  5
27F
330
25
100
AcDbEntity
  8
1
  6
Continuous
 62
     0
100
AcDbLine
 10
10409.00440866318
 20
-1089.912858212992
 30
0.0
 11
10407.87817833284
 21
-1089.262628828599
 31
0.0
  0
LINE
  5
27E
330
25
100
AcDbEntity
  8
1
  6
Continuous
 62
     0
100
AcDbLine
 10
10336.58379098924
 20
-1089.938187487944
 30
0.0
 11
10337.71183740569
 21
-1089.286909585747
 31
0.0
  0
LINE
  5
27D
330
25
100
AcDbEntity
  8
1
  6
Continuous
 62
     0
100
AcDbLine
 10
10406.30440866318
 20
-1094.589395393428
 30
0.0
 11
10405.18154327927
 21
-1093.941108761763
 31
0.0
  0
LINE
  5
27A
330
25
100
AcDbEntity
  8
1
  6
Continuous
 62
     0
100
AcDbLine
 10
10363.80816429442
 20
-1112.137182749626
 30
0.0
 11
10365.81603562178
 21
-1112.137182749626
 31
0.0
  0
LINE
  5
279
330
25
100
AcDbEntity
  8
1
  6
Continuous
 62
     0
100
AcDbLine
 10
10363.81603562178
 20
-1110.105662340848
 30
0.0
 11
10363.81603562178
 21
-1112.137182749626
 31
0.0
  0
LINE
  5
278
330
25
100
AcDbEntity
  8
1
  6
Continuous
 62
     0
100
AcDbLine
 10
10381.81603562178
 20
-1110.105662340848
 30
0.0
 11
10381.81603562178
 21
-1112.137182749626
 31
0.0
  0
LINE
  5
277
330
25
100
AcDbEntity
  8
1
  6
Continuous
 62
     0
100
AcDbLine
 10
10379.81603562178
 20
-1112.137182749626
 30
0.0
 11
10381.81603562178
 21
-1112.137182749626
 31
0.0
  0
LINE
  5
276
330
25
100
AcDbEntity
  8
1
  6
Continuous
 62
     0
100
AcDbLine
 10
10365.81603562178
 20
-1112.137182749626
 30
0.0
 11
10365.81603562178
 21
-1124.137182749626
 31
0.0
  0
LINE
  5
275
330
25
100
AcDbEntity
  8
1
  6
Continuous
 62
     0
100
AcDbLine
 10
10379.81603562178
 20
-1112.137182749626
 30
0.0
 11
10379.81603562178
 21
-1124.137182749626
 31
0.0
  0
LINE
  5
274
330
25
100
AcDbEntity
  8
1
  6
Continuous
 62
     0
100
AcDbLine
 10
10381.51109812178
 20
-1124.137182749626
 30
0.0
 11
10381.46603562178
 21
-1125.579182749625
 31
0.0
  0
LINE
  5
273
330
25
100
AcDbEntity
  8
1
  6
Continuous
 62
     0
100
AcDbLine
 10
10364.12097312178
 20
-1124.137182749626
 30
0.0
 11
10381.51109812178
 21
-1124.137182749626
 31
0.0
  0
LINE
  5
272
330
25
100
AcDbEntity
  8
1
  6
Continuous
 62
     0
100
AcDbLine
 10
10364.12097312178
 20
-1124.137182749626
 30
0.0
 11
10364.16603562178
 21
-1125.579182749626
 31
0.0
  0
LINE
  5
271
330
25
100
AcDbEntity
  8
1
  6
Continuous
 62
     0
100
AcDbLine
 10
10364.28586062178
 20
-1129.413582749626
 30
0.0
 11
10372.81603562178
 21
-1129.413582749626
 31
0.0
  0
LINE
  5
270
330
25
100
AcDbEntity
  8
1
  6
Continuous
 62
     0
100
AcDbLine
 10
10365.22541062178
 20
-1132.087182749626
 30
0.0
 11
10372.81603562178
 21
-1132.087182749626
 31
0.0
  0
LINE
  5
26F
330
25
100
AcDbEntity
  8
1
  6
Continuous
 62
     0
100
AcDbLine
 10
10381.14703562178
 20
-1135.787182749626
 30
0.0
 11
10381.34621062178
 21
-1129.413582749626
 31
0.0
  0
LINE
  5
26E
330
25
100
AcDbEntity
  8
1
  6
Continuous
 62
     0
100
AcDbLine
 10
10380.29103562178
 20
-1135.787182749626
 30
0.0
 11
10380.40666062178
 21
-1132.087182749626
 31
0.0
  0
LINE
  5
26D
330
25
100
AcDbEntity
  8
1
  6
Continuous
 62
     0
100
AcDbLine
 10
10365.34103562178
 20
-1135.787182749626
 30
0.0
 11
10365.22541062178
 21
-1132.087182749626
 31
0.0
  0
LINE
  5
26C
330
25
100
AcDbEntity
  8
1
  6
Continuous
 62
     0
100
AcDbLine
 10
10364.48503562178
 20
-1135.787182749626
 30
0.0
 11
10364.28586062178
 21
-1129.413582749626
 31
0.0
  0
LINE
  5
26B
330
25
100
AcDbEntity
  8
1
  6
Continuous
 62
     0
100
AcDbLine
 10
10365.22541062178
 20
-1132.087182749626
 30
0.0
 11
10364.28586062178
 21
-1129.413582749626
 31
0.0
  0
LINE
  5
26A
330
25
100
AcDbEntity
  8
1
  6
Continuous
 62
     0
100
AcDbLine
 10
10364.28586062178
 20
-1129.413582749626
 30
0.0
 11
10364.16603562178
 21
-1125.579182749626
 31
0.0
  0
LINE
  5
269
330
25
100
AcDbEntity
  8
1
  6
Continuous
 62
     0
100
AcDbLine
 10
10381.34621062178
 20
-1129.413582749626
 30
0.0
 11
10381.46603562178
 21
-1125.579182749625
 31
0.0
  0
LINE
  5
268
330
25
100
AcDbEntity
  8
1
  6
Continuous
 62
     0
100
AcDbLine
 10
10381.34621062178
 20
-1129.413582749626
 30
0.0
 11
10380.40666062178
 21
-1132.087182749626
 31
0.0
  0
LINE
  5
267
330
25
100
AcDbEntity
  8
1
  6
Continuous
 62
     0
100
AcDbLine
 10
10372.81603562178
 20
-1132.087182749626
 30
0.0
 11
10380.40666062178
 21
-1132.087182749626
 31
0.0
  0
LINE
  5
266
330
25
100
AcDbEntity
  8
1
  6
Continuous
 62
     0
100
AcDbLine
 10
10372.81603562178
 20
-1129.413582749626
 30
0.0
 11
10381.34621062178
 21
-1129.413582749626
 31
0.0
  0
LINE
  5
265
330
25
100
AcDbEntity
  8
1
  6
Continuous
 62
     0
100
AcDbLine
 10
13760.99995810761
 20
-2466.556276377442
 30
0.0
 11
13760.99995810761
 21
-2461.375542838647
 31
0.0
  0
LINE
  5
264
330
25
100
AcDbEntity
  8
1
  6
Continuous
 62
     0
100
AcDbLine
 10
13755.99995810761
 20
-2466.556276377442
 30
0.0
 11
13755.99995810761
 21
-2461.375542838647
 31
0.0
  0
LINE
  5
263
330
25
100
AcDbEntity
  8
1
  6
Continuous
 62
     0
100
AcDbLine
 10
13765.99995810761
 20
-2463.965909608043
 30
0.0
 11
13769.59995810761
 21
-2463.965909608043
 31
0.0
  0
LINE
  5
262
330
25
100
AcDbEntity
  8
1
  6
Continuous
 62
     0
100
AcDbLine
 10
13758.49995810761
 20
-2456.465909608043
 30
0.0
 11
13750.27819824391
 21
-2456.465909608043
 31
0.0
  0
LINE
  5
261
330
25
100
AcDbEntity
  8
1
  6
Continuous
 62
     0
100
AcDbLine
 10
13749.74995810761
 20
-2451.965909608042
 30
0.0
 11
13749.74995810761
 21
-2454.351467346528
 31
0.0
  0
LINE
  5
260
330
25
100
AcDbEntity
  8
1
  6
Continuous
 62
     0
100
AcDbLine
 10
13751.74995810761
 20
-2449.965909608042
 30
0.0
 11
13752.74995810761
 21
-2449.965909608042
 31
0.0
  0
LINE
  5
25D
330
25
100
AcDbEntity
  8
1
  6
Continuous
 62
     0
100
AcDbLine
 10
13751.57175487734
 20
-2463.965909608043
 30
0.0
 11
13755.03585649248
 21
-2469.965909608043
 31
0.0
  0
LINE
  5
25C
330
25
100
AcDbEntity
  8
1
  6
Continuous
 62
     0
100
AcDbLine
 10
13755.03585649248
 20
-2457.965909608043
 30
0.0
 11
13751.57175487734
 21
-2463.965909608043
 31
0.0
  0
LINE
  5
25B
330
25
100
AcDbEntity
  8
1
  6
Continuous
 62
     0
100
AcDbLine
 10
13761.96405972275
 20
-2457.965909608043
 30
0.0
 11
13755.03585649248
 21
-2457.965909608043
 31
0.0
  0
LINE
  5
25A
330
25
100
AcDbEntity
  8
1
  6
Continuous
 62
     0
100
AcDbLine
 10
13765.42816133789
 20
-2463.965909608043
 30
0.0
 11
13761.96405972275
 21
-2457.965909608043
 31
0.0
  0
LINE
  5
259
330
25
100
AcDbEntity
  8
1
  6
Continuous
 62
     0
100
AcDbLine
 10
13761.96405972275
 20
-2469.965909608043
 30
0.0
 11
13765.42816133789
 21
-2463.965909608043
 31
0.0
  0
LINE
  5
258
330
25
100
AcDbEntity
  8
1
  6
Continuous
 62
     0
100
AcDbLine
 10
13755.03585649248
 20
-2469.965909608043
 30
0.0
 11
13761.96405972275
 21
-2469.965909608043
 31
0.0
  0
LINE
  5
257
330
25
100
AcDbEntity
  8
1
  6
Continuous
 62
     0
100
AcDbLine
 10
13765.25890242822
 20
-2492.965909608043
 30
0.0
 11
13745.99995810761
 21
-2492.965909608042
 31
0.0
  0
LINE
  5
256
330
25
100
AcDbEntity
  8
1
  6
Continuous
 62
     0
100
AcDbLine
 10
13764.24995810761
 20
-2436.465909608042
 30
0.0
 11
13770.99995810761
 21
-2436.465909608043
 31
0.0
  0
LINE
  5
255
330
25
100
AcDbEntity
  8
1
  6
Continuous
 62
     0
100
AcDbLine
 10
13746.99995810761
 20
-2457.015909608044
 30
0.0
 11
13747.51442071893
 21
-2457.015909608044
 31
0.0
  0
LINE
  5
254
330
25
100
AcDbEntity
  8
1
  6
Continuous
 62
     0
100
AcDbLine
 10
13728.49995810761
 20
-2458.215909608043
 30
0.0
 11
13745.65715856857
 21
-2458.215909608043
 31
0.0
  0
LINE
  5
253
330
25
100
AcDbEntity
  8
1
  6
Continuous
 62
     0
100
AcDbLine
 10
13745.65715856857
 20
-2469.715909608043
 30
0.0
 11
13728.49995810761
 21
-2469.715909608043
 31
0.0
  0
LINE
  5
252
330
25
100
AcDbEntity
  8
1
  6
Continuous
 62
     0
100
AcDbLine
 10
13788.49995810761
 20
-2469.715909608043
 30
0.0
 11
13771.34275764665
 21
-2469.715909608043
 31
0.0
  0
LINE
  5
251
330
25
100
AcDbEntity
  8
1
  6
Continuous
 62
     0
100
AcDbLine
 10
13788.49995810761
 20
-2458.215909608043
 30
0.0
 11
13771.34275764665
 21
-2458.215909608043
 31
0.0
  0
LINE
  5
250
330
25
100
AcDbEntity
  8
1
  6
Continuous
 62
     0
100
AcDbLine
 10
13746.99995810761
 20
-2457.903731781552
 30
0.0
 11
13746.99995810761
 21
-2457.015909608044
 31
0.0
  0
LINE
  5
24F
330
25
100
AcDbEntity
  8
1
  6
Continuous
 62
     0
100
AcDbLine
 10
13769.48619950311
 20
-2457.015909608044
 30
0.0
 11
13769.99995810761
 21
-2457.015909608044
 31
0.0
  0
LINE
  5
24E
330
25
100
AcDbEntity
  8
1
  6
Continuous
 62
     0
100
AcDbLine
 10
13769.99995810761
 20
-2457.903731781552
 30
0.0
 11
13769.99995810761
 21
-2457.015909608044
 31
0.0
  0
LINE
  5
24D
330
25
100
AcDbEntity
  8
1
  6
Continuous
 62
     0
100
AcDbLine
 10
13770.58988437368
 20
-2468.744369912473
 30
0.0
 11
13771.13371483736
 21
-2469.415909608042
 31
0.0
  0
LINE
  5
24C
330
25
100
AcDbEntity
  8
1
  6
Continuous
 62
     0
100
AcDbLine
 10
13728.49995810761
 20
-2458.215909608043
 30
0.0
 11
13728.49995810761
 21
-2469.715909608043
 31
0.0
  0
LINE
  5
24B
330
25
100
AcDbEntity
  8
1
  6
Continuous
 62
     0
100
AcDbLine
 10
13788.49995810761
 20
-2458.215909608043
 30
0.0
 11
13788.49995810761
 21
-2469.715909608043
 31
0.0
  0
LINE
  5
24A
330
25
100
AcDbEntity
  8
1
  6
Continuous
 62
     0
100
AcDbLine
 10
13745.86620137787
 20
-2469.415909608042
 30
0.0
 11
13745.86620137787
 21
-2483.043134091968
 31
0.0
  0
LINE
  5
249
330
25
100
AcDbEntity
  8
1
  6
Continuous
 62
     0
100
AcDbLine
 10
13771.13371483736
 20
-2455.615909608042
 30
0.0
 11
13771.13371483736
 21
-2446.388685124122
 31
0.0
  0
LINE
  5
248
330
25
100
AcDbEntity
  8
1
  6
Continuous
 62
     0
100
AcDbLine
 10
13769.99995810761
 20
-2457.015909608044
 30
0.0
 11
13771.13371483736
 21
-2455.615909608042
 31
0.0
  0
LINE
  5
247
330
25
100
AcDbEntity
  8
1
  6
Continuous
 62
     0
100
AcDbLine
 10
13745.86620137787
 20
-2469.415909608042
 30
0.0
 11
13746.41003184154
 21
-2468.74436991247
 31
0.0
  0
LINE
  5
246
330
25
100
AcDbEntity
  8
1
  6
Continuous
 62
     0
100
AcDbLine
 10
13745.86620137787
 20
-2455.615909608042
 30
0.0
 11
13746.99995810761
 21
-2457.015909608044
 31
0.0
  0
LINE
  5
245
330
25
100
AcDbEntity
  8
1
  6
Continuous
 62
     0
100
AcDbLine
 10
13771.13371483736
 20
-2483.043134091968
 30
0.0
 11
13771.13371483736
 21
-2469.415909608042
 31
0.0
  0
LINE
  5
244
330
25
100
AcDbEntity
  8
1
  6
Continuous
 62
     0
100
AcDbLine
 10
13745.86620137787
 20
-2446.388685124119
 30
0.0
 11
13745.86620137787
 21
-2455.615909608042
 31
0.0
  0
LINE
  5
243
330
25
100
AcDbEntity
  8
1
  6
Continuous
 62
     0
100
AcDbLine
 10
13771.13371483736
 20
-2483.043134091968
 30
0.0
 11
13772.93371483736
 21
-2484.082364576508
 31
0.0
  0
LINE
  5
242
330
25
100
AcDbEntity
  8
1
  6
Continuous
 62
     0
100
AcDbLine
 10
13744.06620137787
 20
-2484.082364576508
 30
0.0
 11
13745.86620137787
 21
-2483.043134091968
 31
0.0
  0
LINE
  5
241
330
25
100
AcDbEntity
  8
1
  6
Continuous
 62
     0
100
AcDbLine
 10
13745.86620137787
 20
-2446.388685124119
 30
0.0
 11
13744.06620137787
 21
-2445.349454639582
 31
0.0
  0
LINE
  5
240
330
25
100
AcDbEntity
  8
1
  6
Continuous
 62
     0
100
AcDbLine
 10
13772.93371483736
 20
-2445.349454639582
 30
0.0
 11
13771.13371483736
 21
-2446.388685124122
 31
0.0
  0
LINE
  5
23F
330
25
100
AcDbEntity
  8
1
  6
Continuous
 62
     0
100
AcDbLine
 10
13751.28307974274
 20
-2437.582364576505
 30
0.0
 11
13751.28307974274
 21
-2450.021166799232
 31
0.0
  0
LINE
  5
23E
330
25
100
AcDbEntity
  8
1
  6
Continuous
 62
     0
100
AcDbLine
 10
13765.71683647249
 20
-2437.582364576505
 30
0.0
 11
13765.71683647249
 21
-2453.153108552504
 31
0.0
  0
LINE
  5
23D
330
25
100
AcDbEntity
  8
1
  6
Continuous
 62
     0
100
AcDbLine
 10
13744.06620137787
 20
-2437.582364576505
 30
0.0
 11
13744.06620137787
 21
-2445.349454639582
 31
0.0
  0
LINE
  5
23C
330
25
100
AcDbEntity
  8
1
  6
Continuous
 62
     0
100
AcDbLine
 10
13745.99995810761
 20
-2436.465909608042
 30
0.0
 11
13764.8461234302
 21
-2436.465909608042
 31
0.0
  0
LINE
  5
23B
330
25
100
AcDbEntity
  8
1
  6
Continuous
 62
     0
100
AcDbLine
 10
13772.93371483736
 20
-2437.582364576505
 30
0.0
 11
13772.93371483736
 21
-2445.349454639582
 31
0.0
  0
LINE
  5
23A
330
25
100
AcDbEntity
  8
1
  6
Continuous
 62
     0
100
AcDbLine
 10
13744.06620137787
 20
-2437.582364576505
 30
0.0
 11
13745.99995810761
 21
-2436.465909608042
 31
0.0
  0
LINE
  5
239
330
25
100
AcDbEntity
  8
1
  6
Continuous
 62
     0
100
AcDbLine
 10
13770.99995810761
 20
-2436.465909608043
 30
0.0
 11
13772.93371483736
 21
-2437.582364576505
 31
0.0
  0
LINE
  5
238
330
25
100
AcDbEntity
  8
1
  6
Continuous
 62
     0
100
AcDbLine
 10
13751.28307974274
 20
-2491.849454639579
 30
0.0
 11
13751.28307974274
 21
-2474.778710663583
 31
0.0
  0
LINE
  5
237
330
25
100
AcDbEntity
  8
1
  6
Continuous
 62
     0
100
AcDbLine
 10
13765.71683647249
 20
-2491.849454639579
 30
0.0
 11
13765.71683647249
 21
-2474.778710663583
 31
0.0
  0
LINE
  5
236
330
25
100
AcDbEntity
  8
1
  6
Continuous
 62
     0
100
AcDbLine
 10
13744.06620137787
 20
-2491.849454639579
 30
0.0
 11
13744.06620137787
 21
-2484.082364576508
 31
0.0
  0
LINE
  5
235
330
25
100
AcDbEntity
  8
1
  6
Continuous
 62
     0
100
AcDbLine
 10
13770.99995810761
 20
-2492.965909608042
 30
0.0
 11
13764.24995810761
 21
-2492.965909608042
 31
0.0
  0
LINE
  5
234
330
25
100
AcDbEntity
  8
1
  6
Continuous
 62
     0
100
AcDbLine
 10
13772.93371483736
 20
-2491.849454639579
 30
0.0
 11
13772.93371483736
 21
-2484.082364576508
 31
0.0
  0
LINE
  5
233
330
25
100
AcDbEntity
  8
1
  6
Continuous
 62
     0
100
AcDbLine
 10
13745.99995810761
 20
-2492.965909608042
 30
0.0
 11
13744.06620137787
 21
-2491.849454639579
 31
0.0
  0
LINE
  5
232
330
25
100
AcDbEntity
  8
1
  6
Continuous
 62
     0
100
AcDbLine
 10
13772.93371483736
 20
-2491.849454639579
 30
0.0
 11
13770.99995810761
 21
-2492.965909608042
 31
0.0
  0
LINE
  5
231
330
25
100
AcDbEntity
  8
1
  6
Continuous
 62
     0
100
AcDbLine
 10
13745.29995810761
 20
-2418.785909608043
 30
0.0
 11
13771.69995810761
 21
-2418.785909608043
 31
0.0
  0
LINE
  5
230
330
25
100
AcDbEntity
  8
1
  6
Continuous
 62
     0
100
AcDbLine
 10
13748.02245810761
 20
-2436.465909608043
 30
0.0
 11
13747.64995810761
 21
-2429.125909608043
 31
0.0
  0
LINE
  5
22F
330
25
100
AcDbEntity
  8
1
  6
Continuous
 62
     0
100
AcDbLine
 10
13768.97745810761
 20
-2436.465909608043
 30
0.0
 11
13769.34995810761
 21
-2429.125909608043
 31
0.0
  0
LINE
  5
22E
330
25
100
AcDbEntity
  8
1
  6
Continuous
 62
     0
100
AcDbLine
 10
13769.34995810761
 20
-2426.125909608043
 30
0.0
 11
13768.97745810761
 21
-2418.785909608043
 31
0.0
  0
LINE
  5
22D
330
25
100
AcDbEntity
  8
1
  6
Continuous
 62
     0
100
AcDbLine
 10
13747.64995810761
 20
-2426.125909608043
 30
0.0
 11
13748.02245810761
 21
-2418.785909608043
 31
0.0
  0
LINE
  5
22C
330
25
100
AcDbEntity
  8
1
  6
Continuous
 62
     0
100
AcDbLine
 10
13747.64995810761
 20
-2426.125909608043
 30
0.0
 11
13747.64995810761
 21
-2429.125909608043
 31
0.0
  0
LINE
  5
22B
330
25
100
AcDbEntity
  8
1
  6
Continuous
 62
     0
100
AcDbLine
 10
13769.34995810761
 20
-2429.125909608043
 30
0.0
 11
13747.64995810761
 21
-2429.125909608043
 31
0.0
  0
LINE
  5
22A
330
25
100
AcDbEntity
  8
1
  6
Continuous
 62
     0
100
AcDbLine
 10
13747.64995810761
 20
-2426.125909608043
 30
0.0
 11
13769.34995810761
 21
-2426.125909608043
 31
0.0
  0
LINE
  5
229
330
25
100
AcDbEntity
  8
1
  6
Continuous
 62
     0
100
AcDbLine
 10
13769.34995810761
 20
-2426.125909608043
 30
0.0
 11
13769.34995810761
 21
-2429.125909608043
 31
0.0
  0
LINE
  5
228
330
25
100
AcDbEntity
  8
1
  6
Continuous
 62
     0
100
AcDbLine
 10
13745.99995810761
 20
-2436.465909608042
 30
0.0
 11
13770.99995810761
 21
-2436.465909608043
 31
0.0
  0
LINE
  5
225
330
25
100
AcDbEntity
  8
1
  6
Continuous
 62
     0
100
AcDbLine
 10
10981.85429174384
 20
-2454.965909608042
 30
0.0
 11
10983.45429174384
 21
-2454.965909608042
 31
0.0
  0
LINE
  5
224
330
25
100
AcDbEntity
  8
1
  6
Continuous
 62
     0
100
AcDbLine
 10
10981.85429174384
 20
-2449.965909608042
 30
0.0
 11
10986.95429174384
 21
-2449.965909608042
 31
0.0
  0
LINE
  5
223
330
25
100
AcDbEntity
  8
1
  6
Continuous
 62
     0
100
AcDbLine
 10
10986.95429174384
 20
-2449.965909608042
 30
0.0
 11
10986.95429174384
 21
-2451.065909608044
 31
0.0
  0
LINE
  5
221
330
25
100
AcDbEntity
  8
1
  6
Continuous
 62
     0
100
AcDbLine
 10
10969.35429174384
 20
-2483.665697909835
 30
0.0
 11
10969.35429174384
 21
-2491.849454639581
 31
0.0
  0
LINE
  5
220
330
25
100
AcDbEntity
  8
1
  6
Continuous
 62
     0
100
AcDbLine
 10
10969.35429174384
 20
-2437.582364576505
 30
0.0
 11
10969.35429174384
 21
-2445.766121306252
 31
0.0
  0
LINE
  5
21E
330
25
100
AcDbEntity
  8
1
  6
Continuous
 62
     0
100
AcDbLine
 10
10983.45429174384
 20
-2451.065909608044
 30
0.0
 11
10983.45429174384
 21
-2453.965909608043
 31
0.0
  0
LINE
  5
21D
330
25
100
AcDbEntity
  8
1
  6
Continuous
 62
     0
100
AcDbLine
 10
10983.45429174384
 20
-2476.365909608042
 30
0.0
 11
10983.45429174384
 21
-2453.965909608043
 31
0.0
  0
LINE
  5
21C
330
25
100
AcDbEntity
  8
1
  6
Continuous
 62
     0
100
AcDbLine
 10
10987.65429174384
 20
-2475.465909608043
 30
0.0
 11
10987.65429174384
 21
-2452.465909608043
 31
0.0
  0
LINE
  5
21B
330
25
100
AcDbEntity
  8
1
  6
Continuous
 62
     0
100
AcDbLine
 10
11000.35429174384
 20
-2433.965909608043
 30
0.0
 11
11000.35429174384
 21
-2452.379279381786
 31
0.0
  0
LINE
  5
21A
330
25
100
AcDbEntity
  8
1
  6
Continuous
 62
     0
100
AcDbLine
 10
10981.85429174384
 20
-2492.965909608041
 30
0.0
 11
10981.85429174384
 21
-2436.465909608043
 31
0.0
  0
LINE
  5
219
330
25
100
AcDbEntity
  8
1
  6
Continuous
 62
     0
100
AcDbLine
 10
10956.85429174384
 20
-2436.465909608042
 30
0.0
 11
10981.85429174384
 21
-2436.465909608043
 31
0.0
  0
LINE
  5
218
330
25
100
AcDbEntity
  8
1
  6
Continuous
 62
     0
100
AcDbLine
 10
10956.85429174384
 20
-2492.965909608042
 30
0.0
 11
10956.85429174384
 21
-2436.465909608042
 31
0.0
  0
LINE
  5
217
330
25
100
AcDbEntity
  8
1
  6
Continuous
 62
     0
100
AcDbLine
 10
10981.85429174384
 20
-2492.965909608041
 30
0.0
 11
10956.85429174384
 21
-2492.965909608042
 31
0.0
  0
LINE
  5
216
330
25
100
AcDbEntity
  8
1
  6
Continuous
 62
     0
100
AcDbLine
 10
10992.35429174384
 20
-2433.965909608043
 30
0.0
 11
11000.35429174384
 21
-2433.965909608043
 31
0.0
  0
LINE
  5
215
330
25
100
AcDbEntity
  8
1
  6
Continuous
 62
     0
100
AcDbLine
 10
10987.65429174384
 20
-2452.465909608043
 30
0.0
 11
10992.35429174384
 21
-2433.965909608043
 31
0.0
  0
LINE
  5
214
330
25
100
AcDbEntity
  8
1
  6
Continuous
 62
     0
100
AcDbLine
 10
10983.45429174384
 20
-2451.065909608044
 30
0.0
 11
10988.00996741952
 21
-2451.065909608044
 31
0.0
  0
LINE
  5
213
330
25
100
AcDbEntity
  8
1
  6
Continuous
 62
     0
100
AcDbLine
 10
10983.45429174384
 20
-2451.565909608044
 30
0.0
 11
10987.88294039249
 21
-2451.565909608044
 31
0.0
  0
LINE
  5
212
330
25
100
AcDbEntity
  8
1
  6
Continuous
 62
     0
100
AcDbLine
 10
11000.35429174384
 20
-2475.552539834301
 30
0.0
 11
11000.35429174384
 21
-2493.965909608043
 31
0.0
  0
LINE
  5
211
330
25
100
AcDbEntity
  8
1
  6
Continuous
 62
     0
100
AcDbLine
 10
10992.35429174384
 20
-2493.965909608043
 30
0.0
 11
11000.35429174384
 21
-2493.965909608043
 31
0.0
  0
LINE
  5
210
330
25
100
AcDbEntity
  8
1
  6
Continuous
 62
     0
100
AcDbLine
 10
10992.35429174384
 20
-2493.965909608043
 30
0.0
 11
10987.65429174384
 21
-2475.465909608043
 31
0.0
  0
LINE
  5
20F
330
25
100
AcDbEntity
  8
1
  6
Continuous
 62
     0
100
AcDbLine
 10
10987.88294039249
 20
-2476.365909608042
 30
0.0
 11
10983.45429174384
 21
-2476.365909608042
 31
0.0
  0
LINE
  5
20E
330
25
100
AcDbEntity
  8
1
  6
Continuous
 62
     0
100
AcDbLine
 10
10981.85429174384
 20
-2457.465909608043
 30
0.0
 11
10983.45429174384
 21
-2457.465909608043
 31
0.0
  0
LINE
  5
20D
330
25
100
AcDbEntity
  8
1
  6
Continuous
 62
     0
100
AcDbLine
 10
10981.85429174384
 20
-2470.465909608043
 30
0.0
 11
10983.45429174384
 21
-2470.465909608043
 31
0.0
  0
LINE
  5
20C
330
25
100
AcDbEntity
  8
1
  6
Continuous
 62
     0
100
AcDbLine
 10
10980.25429174384
 20
-2446.273410526256
 30
0.0
 11
10980.25429174384
 21
-2458.465909608042
 31
0.0
  0
LINE
  5
20B
330
25
100
AcDbEntity
  8
1
  6
Continuous
 62
     0
100
AcDbLine
 10
10980.25429174384
 20
-2483.158408689831
 30
0.0
 11
10980.25429174384
 21
-2468.965909608042
 31
0.0
  0
LINE
  5
20A
330
25
100
AcDbEntity
  8
1
  6
Continuous
 62
     0
100
AcDbLine
 10
10956.85429174384
 20
-2455.615909608042
 30
0.0
 11
10957.98804847358
 21
-2457.015909608044
 31
0.0
  0
LINE
  5
209
330
25
100
AcDbEntity
  8
1
  6
Continuous
 62
     0
100
AcDbLine
 10
10956.85429174384
 20
-2469.415909608042
 30
0.0
 11
10957.98804847358
 21
-2468.015909608044
 31
0.0
  0
LINE
  5
208
330
25
100
AcDbEntity
  8
1
  6
Continuous
 62
     0
100
AcDbLine
 10
10957.98804847358
 20
-2457.015909608044
 30
0.0
 11
10957.98804847358
 21
-2468.015909608044
 31
0.0
  0
LINE
  5
207
330
25
100
AcDbEntity
  8
1
  6
Continuous
 62
     0
100
AcDbLine
 10
10980.25429174384
 20
-2455.615909608042
 30
0.0
 11
10979.25429174384
 21
-2457.015909608044
 31
0.0
  0
LINE
  5
206
330
25
100
AcDbEntity
  8
1
  6
Continuous
 62
     0
100
AcDbLine
 10
10980.25429174384
 20
-2469.415909608042
 30
0.0
 11
10979.25429174384
 21
-2468.015909608044
 31
0.0
  0
LINE
  5
205
330
25
100
AcDbEntity
  8
1
  6
Continuous
 62
     0
100
AcDbLine
 10
10957.98804847358
 20
-2457.015909608044
 30
0.0
 11
10979.25429174384
 21
-2457.015909608044
 31
0.0
  0
LINE
  5
204
330
25
100
AcDbEntity
  8
1
  6
Continuous
 62
     0
100
AcDbLine
 10
10957.98804847358
 20
-2468.015909608044
 30
0.0
 11
10979.25429174384
 21
-2468.015909608044
 31
0.0
  0
LINE
  5
203
330
25
100
AcDbEntity
  8
1
  6
Continuous
 62
     0
100
AcDbLine
 10
10980.20429174384
 20
-2426.125909608043
 30
0.0
 11
10980.20429174384
 21
-2429.125909608043
 31
0.0
  0
LINE
  5
202
330
25
100
AcDbEntity
  8
1
  6
Continuous
 62
     0
100
AcDbLine
 10
10958.50429174384
 20
-2426.125909608043
 30
0.0
 11
10980.20429174384
 21
-2426.125909608043
 31
0.0
  0
LINE
  5
201
330
25
100
AcDbEntity
  8
1
  6
Continuous
 62
     0
100
AcDbLine
 10
10980.20429174384
 20
-2429.125909608043
 30
0.0
 11
10958.50429174384
 21
-2429.125909608043
 31
0.0
  0
LINE
  5
200
330
25
100
AcDbEntity
  8
1
  6
Continuous
 62
     0
100
AcDbLine
 10
10958.50429174384
 20
-2426.125909608043
 30
0.0
 11
10958.50429174384
 21
-2429.125909608043
 31
0.0
  0
LINE
  5
1FF
330
25
100
AcDbEntity
  8
1
  6
Continuous
 62
     0
100
AcDbLine
 10
10958.50429174384
 20
-2426.125909608043
 30
0.0
 11
10958.87679174384
 21
-2418.785909608043
 31
0.0
  0
LINE
  5
1FE
330
25
100
AcDbEntity
  8
1
  6
Continuous
 62
     0
100
AcDbLine
 10
10980.20429174384
 20
-2426.125909608043
 30
0.0
 11
10979.83179174384
 21
-2418.785909608043
 31
0.0
  0
LINE
  5
1FD
330
25
100
AcDbEntity
  8
1
  6
Continuous
 62
     0
100
AcDbLine
 10
10979.83179174384
 20
-2436.465909608043
 30
0.0
 11
10980.20429174384
 21
-2429.125909608043
 31
0.0
  0
LINE
  5
1FC
330
25
100
AcDbEntity
  8
1
  6
Continuous
 62
     0
100
AcDbLine
 10
10958.87679174384
 20
-2436.465909608043
 30
0.0
 11
10958.50429174384
 21
-2429.125909608043
 31
0.0
  0
LINE
  5
1FB
330
25
100
AcDbEntity
  8
1
  6
Continuous
 62
     0
100
AcDbLine
 10
14273.42816133788
 20
-2067.38478685055
 30
0.0
 11
14274.49995810761
 21
-2065.528380389998
 31
0.0
  0
LINE
  5
1FA
330
25
100
AcDbEntity
  8
1
  6
Continuous
 62
     0
100
AcDbLine
 10
14274.49995810761
 20
-2041.528380389998
 30
0.0
 11
14273.42816133788
 21
-2039.671973929448
 31
0.0
  0
LINE
  5
1F9
330
25
100
AcDbEntity
  8
1
  6
Continuous
 62
     0
100
AcDbLine
 10
14273.42816133788
 20
-2039.671973929448
 30
0.0
 11
14264.49995810761
 21
-2039.671973929448
 31
0.0
  0
LINE
  5
1F8
330
25
100
AcDbEntity
  8
1
  6
Continuous
 62
     0
100
AcDbLine
 10
14274.49995810761
 20
-2065.528380389998
 30
0.0
 11
14274.49995810761
 21
-2041.528380389998
 31
0.0
  0
LINE
  5
1F7
330
25
100
AcDbEntity
  8
1
  6
Continuous
 62
     0
100
AcDbLine
 10
14264.49995810761
 20
-2067.38478685055
 30
0.0
 11
14273.42816133788
 21
-2067.38478685055
 31
0.0
  0
LINE
  5
1F6
330
25
100
AcDbEntity
  8
1
  6
Continuous
 62
     0
100
AcDbLine
 10
14273.42816133788
 20
-2046.600177159723
 30
0.0
 11
14264.49995810761
 21
-2046.600177159723
 31
0.0
  0
LINE
  5
1F5
330
25
100
AcDbEntity
  8
1
  6
Continuous
 62
     0
100
AcDbLine
 10
14273.42816133788
 20
-2060.456583620274
 30
0.0
 11
14264.49995810761
 21
-2060.456583620274
 31
0.0
  0
LINE
  5
1F4
330
25
100
AcDbEntity
  8
1
  6
Continuous
 62
     0
100
AcDbLine
 10
14264.49995810761
 20
-2039.528380389998
 30
0.0
 11
14260.49995810761
 21
-2039.528380389998
 31
0.0
  0
LINE
  5
1F3
330
25
100
AcDbEntity
  8
1
  6
Continuous
 62
     0
100
AcDbLine
 10
14264.49995810761
 20
-2067.528380389998
 30
0.0
 11
14264.49995810761
 21
-2039.528380389998
 31
0.0
  0
LINE
  5
1F2
330
25
100
AcDbEntity
  8
1
  6
Continuous
 62
     0
100
AcDbLine
 10
14260.49995810761
 20
-2067.528380389998
 30
0.0
 11
14264.49995810761
 21
-2067.528380389998
 31
0.0
  0
LINE
  5
1F1
330
25
100
AcDbEntity
  8
1
  6
Continuous
 62
     0
100
AcDbLine
 10
14260.49995810761
 20
-2051.452189913808
 30
0.0
 11
14264.49995810761
 21
-2052.595047056665
 31
0.0
  0
LINE
  5
1F0
330
25
100
AcDbEntity
  8
1
  6
Continuous
 62
     0
100
AcDbLine
 10
14260.49995810761
 20
-2054.461713723332
 30
0.0
 11
14264.49995810761
 21
-2055.60457086619
 31
0.0
  0
LINE
  5
1EF
330
25
100
AcDbEntity
  8
1
  6
Continuous
 62
     0
100
AcDbLine
 10
14260.49995810761
 20
-2038.528380389998
 30
0.0
 11
14257.49995810761
 21
-2038.528380389998
 31
0.0
  0
LINE
  5
1EE
330
25
100
AcDbEntity
  8
1
  6
Continuous
 62
     0
100
AcDbLine
 10
14260.49995810761
 20
-2068.528380389998
 30
0.0
 11
14260.49995810761
 21
-2038.528380389998
 31
0.0
  0
LINE
  5
1ED
330
25
100
AcDbEntity
  8
1
  6
Continuous
 62
     0
100
AcDbLine
 10
14257.49995810761
 20
-2068.528380389998
 30
0.0
 11
14260.49995810761
 21
-2068.528380389998
 31
0.0
  0
LINE
  5
1EC
330
25
100
AcDbEntity
  8
1
  6
Continuous
 62
     0
100
AcDbLine
 10
14257.49995810761
 20
-2038.528380389998
 30
0.0
 11
14257.49995810761
 21
-2068.528380389998
 31
0.0
  0
LINE
  5
1E9
330
25
100
AcDbEntity
  8
1
  6
Continuous
 62
     0
100
AcDbLine
 10
14257.49995810761
 20
-2004.703624130862
 30
0.0
 11
14257.49995810761
 21
-2034.703624130862
 31
0.0
  0
LINE
  5
1E8
330
25
100
AcDbEntity
  8
1
  6
Continuous
 62
     0
100
AcDbLine
 10
14257.49995810761
 20
-2034.703624130862
 30
0.0
 11
14260.49995810761
 21
-2034.703624130862
 31
0.0
  0
LINE
  5
1E7
330
25
100
AcDbEntity
  8
1
  6
Continuous
 62
     0
100
AcDbLine
 10
14260.49995810761
 20
-2034.703624130862
 30
0.0
 11
14260.49995810761
 21
-2004.703624130862
 31
0.0
  0
LINE
  5
1E6
330
25
100
AcDbEntity
  8
1
  6
Continuous
 62
     0
100
AcDbLine
 10
14260.49995810761
 20
-2004.703624130862
 30
0.0
 11
14257.49995810761
 21
-2004.703624130862
 31
0.0
  0
LINE
  5
1E5
330
25
100
AcDbEntity
  8
1
  6
Continuous
 62
     0
100
AcDbLine
 10
14260.49995810761
 20
-2020.636957464195
 30
0.0
 11
14264.49995810761
 21
-2021.779814607052
 31
0.0
  0
LINE
  5
1E4
330
25
100
AcDbEntity
  8
1
  6
Continuous
 62
     0
100
AcDbLine
 10
14260.49995810761
 20
-2017.62743365467
 30
0.0
 11
14264.49995810761
 21
-2018.770290797528
 31
0.0
  0
LINE
  5
1E3
330
25
100
AcDbEntity
  8
1
  6
Continuous
 62
     0
100
AcDbLine
 10
14260.49995810761
 20
-2033.703624130862
 30
0.0
 11
14264.49995810761
 21
-2033.703624130862
 31
0.0
  0
LINE
  5
1E2
330
25
100
AcDbEntity
  8
1
  6
Continuous
 62
     0
100
AcDbLine
 10
14264.49995810761
 20
-2033.703624130862
 30
0.0
 11
14264.49995810761
 21
-2005.703624130862
 31
0.0
  0
LINE
  5
1E1
330
25
100
AcDbEntity
  8
1
  6
Continuous
 62
     0
100
AcDbLine
 10
14264.49995810761
 20
-2005.703624130862
 30
0.0
 11
14260.49995810761
 21
-2005.703624130862
 31
0.0
  0
LINE
  5
1E0
330
25
100
AcDbEntity
  8
1
  6
Continuous
 62
     0
100
AcDbLine
 10
14273.42816133788
 20
-2026.631827361137
 30
0.0
 11
14264.49995810761
 21
-2026.631827361137
 31
0.0
  0
LINE
  5
1DF
330
25
100
AcDbEntity
  8
1
  6
Continuous
 62
     0
100
AcDbLine
 10
14273.42816133788
 20
-2012.775420900586
 30
0.0
 11
14264.49995810761
 21
-2012.775420900586
 31
0.0
  0
LINE
  5
1DE
330
25
100
AcDbEntity
  8
1
  6
Continuous
 62
     0
100
AcDbLine
 10
14264.49995810761
 20
-2033.560030591412
 30
0.0
 11
14273.42816133788
 21
-2033.560030591412
 31
0.0
  0
LINE
  5
1DD
330
25
100
AcDbEntity
  8
1
  6
Continuous
 62
     0
100
AcDbLine
 10
14274.49995810761
 20
-2031.703624130862
 30
0.0
 11
14274.49995810761
 21
-2007.703624130862
 31
0.0
  0
LINE
  5
1DC
330
25
100
AcDbEntity
  8
1
  6
Continuous
 62
     0
100
AcDbLine
 10
14273.42816133788
 20
-2005.84721767031
 30
0.0
 11
14264.49995810761
 21
-2005.84721767031
 31
0.0
  0
LINE
  5
1DB
330
25
100
AcDbEntity
  8
1
  6
Continuous
 62
     0
100
AcDbLine
 10
14274.49995810761
 20
-2007.703624130862
 30
0.0
 11
14273.42816133788
 21
-2005.84721767031
 31
0.0
  0
LINE
  5
1DA
330
25
100
AcDbEntity
  8
1
  6
Continuous
 62
     0
100
AcDbLine
 10
14273.42816133788
 20
-2033.560030591412
 30
0.0
 11
14274.49995810761
 21
-2031.703624130862
 31
0.0
  0
LINE
  5
1D9
330
25
100
AcDbEntity
  8
1
  6
Continuous
 62
     0
100
AcDbLine
 10
14274.49995810761
 20
-1959.868195085225
 30
0.0
 11
14273.42816133788
 21
-1958.011788624674
 31
0.0
  0
LINE
  5
1D8
330
25
100
AcDbEntity
  8
1
  6
Continuous
 62
     0
100
AcDbLine
 10
14273.42816133788
 20
-1985.724601545776
 30
0.0
 11
14274.49995810761
 21
-1983.868195085225
 31
0.0
  0
LINE
  5
1D7
330
25
100
AcDbEntity
  8
1
  6
Continuous
 62
     0
100
AcDbLine
 10
14264.49995810761
 20
-1985.724601545776
 30
0.0
 11
14273.42816133788
 21
-1985.724601545776
 31
0.0
  0
LINE
  5
1D6
330
25
100
AcDbEntity
  8
1
  6
Continuous
 62
     0
100
AcDbLine
 10
14274.49995810761
 20
-1983.868195085225
 30
0.0
 11
14274.49995810761
 21
-1959.868195085225
 31
0.0
  0
LINE
  5
1D5
330
25
100
AcDbEntity
  8
1
  6
Continuous
 62
     0
100
AcDbLine
 10
14273.42816133788
 20
-1958.011788624674
 30
0.0
 11
14264.49995810761
 21
-1958.011788624674
 31
0.0
  0
LINE
  5
1D4
330
25
100
AcDbEntity
  8
1
  6
Continuous
 62
     0
100
AcDbLine
 10
14264.49995810761
 20
-1978.796398315501
 30
0.0
 11
14273.42816133788
 21
-1978.796398315501
 31
0.0
  0
LINE
  5
1D3
330
25
100
AcDbEntity
  8
1
  6
Continuous
 62
     0
100
AcDbLine
 10
14264.49995810761
 20
-1964.93999185495
 30
0.0
 11
14273.42816133788
 21
-1964.93999185495
 31
0.0
  0
LINE
  5
1D2
330
25
100
AcDbEntity
  8
1
  6
Continuous
 62
     0
100
AcDbLine
 10
14260.49995810761
 20
-1985.868195085225
 30
0.0
 11
14264.49995810761
 21
-1985.868195085225
 31
0.0
  0
LINE
  5
1D1
330
25
100
AcDbEntity
  8
1
  6
Continuous
 62
     0
100
AcDbLine
 10
14264.49995810761
 20
-1985.868195085225
 30
0.0
 11
14264.49995810761
 21
-1957.868195085225
 31
0.0
  0
LINE
  5
1D0
330
25
100
AcDbEntity
  8
1
  6
Continuous
 62
     0
100
AcDbLine
 10
14264.49995810761
 20
-1957.868195085225
 30
0.0
 11
14260.49995810761
 21
-1957.868195085225
 31
0.0
  0
LINE
  5
1CF
330
25
100
AcDbEntity
  8
1
  6
Continuous
 62
     0
100
AcDbLine
 10
14264.49995810761
 20
-1972.801528418559
 30
0.0
 11
14260.49995810761
 21
-1973.944385561415
 31
0.0
  0
LINE
  5
1CE
330
25
100
AcDbEntity
  8
1
  6
Continuous
 62
     0
100
AcDbLine
 10
14264.49995810761
 20
-1969.792004609035
 30
0.0
 11
14260.49995810761
 21
-1970.934861751892
 31
0.0
  0
LINE
  5
1CD
330
25
100
AcDbEntity
  8
1
  6
Continuous
 62
     0
100
AcDbLine
 10
14257.49995810761
 20
-1986.868195085225
 30
0.0
 11
14260.49995810761
 21
-1986.868195085225
 31
0.0
  0
LINE
  5
1CC
330
25
100
AcDbEntity
  8
1
  6
Continuous
 62
     0
100
AcDbLine
 10
14260.49995810761
 20
-1986.868195085225
 30
0.0
 11
14260.49995810761
 21
-1956.868195085225
 31
0.0
  0
LINE
  5
1CB
330
25
100
AcDbEntity
  8
1
  6
Continuous
 62
     0
100
AcDbLine
 10
14260.49995810761
 20
-1956.868195085225
 30
0.0
 11
14257.49995810761
 21
-1956.868195085225
 31
0.0
  0
LINE
  5
1CA
330
25
100
AcDbEntity
  8
1
  6
Continuous
 62
     0
100
AcDbLine
 10
14257.49995810761
 20
-1956.868195085225
 30
0.0
 11
14257.49995810761
 21
-1986.868195085225
 31
0.0
  0
LINE
  5
1C7
330
25
100
AcDbEntity
  8
1
  6
Continuous
 62
     0
100
AcDbLine
 10
14257.49995810761
 20
-1923.043438826087
 30
0.0
 11
14257.49995810761
 21
-1953.043438826087
 31
0.0
  0
LINE
  5
1C6
330
25
100
AcDbEntity
  8
1
  6
Continuous
 62
     0
100
AcDbLine
 10
14260.49995810761
 20
-1923.043438826087
 30
0.0
 11
14257.49995810761
 21
-1923.043438826087
 31
0.0
  0
LINE
  5
1C5
330
25
100
AcDbEntity
  8
1
  6
Continuous
 62
     0
100
AcDbLine
 10
14260.49995810761
 20
-1953.043438826087
 30
0.0
 11
14260.49995810761
 21
-1923.043438826087
 31
0.0
  0
LINE
  5
1C4
330
25
100
AcDbEntity
  8
1
  6
Continuous
 62
     0
100
AcDbLine
 10
14257.49995810761
 20
-1953.043438826087
 30
0.0
 11
14260.49995810761
 21
-1953.043438826087
 31
0.0
  0
LINE
  5
1C3
330
25
100
AcDbEntity
  8
1
  6
Continuous
 62
     0
100
AcDbLine
 10
14264.49995810761
 20
-1935.967248349897
 30
0.0
 11
14260.49995810761
 21
-1937.110105492754
 31
0.0
  0
LINE
  5
1C2
330
25
100
AcDbEntity
  8
1
  6
Continuous
 62
     0
100
AcDbLine
 10
14264.49995810761
 20
-1938.976772159421
 30
0.0
 11
14260.49995810761
 21
-1940.119629302279
 31
0.0
  0
LINE
  5
1C1
330
25
100
AcDbEntity
  8
1
  6
Continuous
 62
     0
100
AcDbLine
 10
14264.49995810761
 20
-1924.043438826087
 30
0.0
 11
14260.49995810761
 21
-1924.043438826087
 31
0.0
  0
LINE
  5
1C0
330
25
100
AcDbEntity
  8
1
  6
Continuous
 62
     0
100
AcDbLine
 10
14264.49995810761
 20
-1952.043438826087
 30
0.0
 11
14264.49995810761
 21
-1924.043438826087
 31
0.0
  0
LINE
  5
1BF
330
25
100
AcDbEntity
  8
1
  6
Continuous
 62
     0
100
AcDbLine
 10
14260.49995810761
 20
-1952.043438826087
 30
0.0
 11
14264.49995810761
 21
-1952.043438826087
 31
0.0
  0
LINE
  5
1BE
330
25
100
AcDbEntity
  8
1
  6
Continuous
 62
     0
100
AcDbLine
 10
14264.49995810761
 20
-1931.115235595812
 30
0.0
 11
14273.42816133788
 21
-1931.115235595812
 31
0.0
  0
LINE
  5
1BD
330
25
100
AcDbEntity
  8
1
  6
Continuous
 62
     0
100
AcDbLine
 10
14264.49995810761
 20
-1944.971642056364
 30
0.0
 11
14273.42816133788
 21
-1944.971642056364
 31
0.0
  0
LINE
  5
1BC
330
25
100
AcDbEntity
  8
1
  6
Continuous
 62
     0
100
AcDbLine
 10
14273.42816133788
 20
-1924.187032365537
 30
0.0
 11
14264.49995810761
 21
-1924.187032365537
 31
0.0
  0
LINE
  5
1BB
330
25
100
AcDbEntity
  8
1
  6
Continuous
 62
     0
100
AcDbLine
 10
14274.49995810761
 20
-1950.043438826087
 30
0.0
 11
14274.49995810761
 21
-1926.043438826087
 31
0.0
  0
LINE
  5
1BA
330
25
100
AcDbEntity
  8
1
  6
Continuous
 62
     0
100
AcDbLine
 10
14264.49995810761
 20
-1951.899845286639
 30
0.0
 11
14273.42816133788
 21
-1951.899845286639
 31
0.0
  0
LINE
  5
1B9
330
25
100
AcDbEntity
  8
1
  6
Continuous
 62
     0
100
AcDbLine
 10
14273.42816133788
 20
-1951.899845286639
 30
0.0
 11
14274.49995810761
 21
-1950.043438826087
 31
0.0
  0
LINE
  5
1B8
330
25
100
AcDbEntity
  8
1
  6
Continuous
 62
     0
100
AcDbLine
 10
14274.49995810761
 20
-1926.043438826087
 30
0.0
 11
14273.42816133788
 21
-1924.187032365537
 31
0.0
  0
LINE
  5
1B5
330
25
100
AcDbEntity
  8
1
  6
Continuous
 62
     0
100
AcDbLine
 10
13274.49995810761
 20
-1125.635909608043
 30
0.0
 11
13254.49995810761
 21
-1125.635909608043
 31
0.0
  0
LINE
  5
1B4
330
25
100
AcDbEntity
  8
1
  6
Continuous
 62
     0
100
AcDbLine
 10
13274.49995810761
 20
-1191.935909608043
 30
0.0
 11
13254.49995810761
 21
-1191.935909608043
 31
0.0
  0
LINE
  5
1B3
330
25
100
AcDbEntity
  8
1
  6
Continuous
 62
     0
100
AcDbLine
 10
13254.49995810761
 20
-1191.935909608043
 30
0.0
 11
13254.49995810761
 21
-1125.635909608043
 31
0.0
  0
LINE
  5
1B2
330
25
100
AcDbEntity
  8
1
  6
Continuous
 62
     0
100
AcDbLine
 10
11453.35429174384
 20
-359.785909608043
 30
0.0
 11
11453.35429174384
 21
-1117.785909608043
 31
0.0
  0
LINE
  5
1B1
330
25
100
AcDbEntity
  8
1
  6
Continuous
 62
     0
100
AcDbLine
 10
10485.35429174384
 20
-359.785909608043
 30
0.0
 11
10485.35429174384
 21
-1917.785909608043
 31
0.0
  0
LINE
  5
1B0
330
25
100
AcDbEntity
  8
1
  6
Continuous
 62
     0
100
AcDbLine
 10
11069.35429174384
 20
-2508.785909608043
 30
0.0
 11
11069.35429174384
 21
-2699.785909608043
 31
0.0
  0
LINE
  5
1AF
330
25
100
AcDbEntity
  8
1
  6
Continuous
 62
     0
100
AcDbLine
 10
10869.35429174384
 20
-2508.785909608043
 30
0.0
 11
10869.35429174384
 21
-2699.785909608043
 31
0.0
  0
LINE
  5
1AE
330
25
100
AcDbEntity
  8
1
  6
Continuous
 62
     0
100
AcDbLine
 10
10956.15429174384
 20
-2418.785909608043
 30
0.0
 11
10982.55429174384
 21
-2418.785909608043
 31
0.0
  0
LINE
  5
1AD
330
25
100
AcDbEntity
  8
1
  6
Continuous
 62
     0
100
AcDbLine
 10
10982.55429174384
 20
-2418.785909608043
 30
0.0
 11
10982.55429174384
 21
-2409.660937981313
 31
0.0
  0
LINE
  5
1AC
330
25
100
AcDbEntity
  8
1
  6
Continuous
 62
     0
100
AcDbLine
 10
10956.15429174384
 20
-2418.785909608043
 30
0.0
 11
10956.15429174384
 21
-2409.660937981313
 31
0.0
  0
LINE
  5
1AB
330
25
100
AcDbEntity
  8
1
  6
DOTTED
 62
     0
100
AcDbLine
 10
10982.55429174384
 20
-2409.660937981313
 30
0.0
 11
10982.55429174384
 21
-2408.690062970762
 31
0.0
  0
LINE
  5
1AA
330
25
100
AcDbEntity
  8
1
  6
DOTTED
 62
     0
100
AcDbLine
 10
10956.15429174384
 20
-2409.660937981313
 30
0.0
 11
10956.15429174384
 21
-2408.690062970762
 31
0.0
  0
LINE
  5
1A8
330
25
100
AcDbEntity
  8
1
  6
Continuous
 62
     0
100
AcDbLine
 10
10465.35429174384
 20
-1917.785909608043
 30
0.0
 11
10485.35429174384
 21
-1917.785909608043
 31
0.0
  0
LINE
  5
1A7
330
25
100
AcDbEntity
  8
1
  6
Continuous
 62
     0
100
AcDbLine
 10
10465.35429174384
 20
-1999.785909608043
 30
0.0
 11
10485.35429174384
 21
-1999.785909608043
 31
0.0
  0
LINE
  5
1A6
330
25
100
AcDbEntity
  8
1
  6
Continuous
 62
     0
100
AcDbLine
 10
10465.35429174384
 20
-1917.785909608043
 30
0.0
 11
10465.35429174384
 21
-1999.785909608043
 31
0.0
  0
LINE
  5
1A3
330
25
100
AcDbEntity
  8
1
  6
Continuous
 62
     0
100
AcDbLine
 10
10635.12136982252
 20
-2479.380983671688
 30
0.0
 11
10635.12136982252
 21
-2699.785909608043
 31
0.0
  0
LINE
  5
1A2
330
25
100
AcDbEntity
  8
1
  6
Continuous
 62
     0
100
AcDbLine
 10
11319.35429174384
 20
-2408.785909608043
 30
0.0
 11
11319.35429174384
 21
-2342.635841007492
 31
0.0
  0
LINE
  5
1A1
330
25
100
AcDbEntity
  8
1
  6
Continuous
 62
     0
100
AcDbLine
 10
11473.35429174384
 20
-1199.785909608043
 30
0.0
 11
11473.35429174384
 21
-1117.785909608043
 31
0.0
  0
LINE
  5
1A0
330
25
100
AcDbEntity
  8
1
  6
Continuous
 62
     0
100
AcDbLine
 10
11453.35429174384
 20
-1199.785909608043
 30
0.0
 11
11473.35429174384
 21
-1199.785909608043
 31
0.0
  0
LINE
  5
19F
330
25
100
AcDbEntity
  8
1
  6
Continuous
 62
     0
100
AcDbLine
 10
11453.35429174384
 20
-1117.785909608043
 30
0.0
 11
11473.35429174384
 21
-1117.785909608043
 31
0.0
  0
LINE
  5
19E
330
25
100
AcDbEntity
  8
1
  6
Continuous
 62
     0
100
AcDbLine
 10
11453.35429174384
 20
-1199.785909608043
 30
0.0
 11
11453.35429174384
 21
-2195.785909608043
 31
0.0
  0
LINE
  5
19D
330
25
100
AcDbEntity
  8
1
  6
Continuous
 62
     0
100
AcDbLine
 10
10705.53187864118
 20
-179.142809310803
 30
0.0
 11
10705.25971236837
 21
-177.30338230127
 31
0.0
  0
LINE
  5
19C
330
25
100
AcDbEntity
  8
1
  6
Continuous
 62
     0
100
AcDbLine
 10
10716.78552797174
 20
-163.186450805652
 30
0.0
 11
10706.14268089803
 21
-167.321937179344
 31
0.0
  0
LINE
  5
19B
330
25
100
AcDbEntity
  8
1
  6
Continuous
 62
     0
100
AcDbLine
 10
10728.07024709301
 20
-161.446463525419
 30
0.0
 11
10716.78552797174
 21
-163.186450805652
 31
0.0
  0
LINE
  5
19A
330
25
100
AcDbEntity
  8
1
  6
Continuous
 62
     0
100
AcDbLine
 10
10733.82564283139
 20
-169.64916430266
 30
0.0
 11
10734.50965342985
 21
-171.378237957728
 31
0.0
  0
LINE
  5
199
330
25
100
AcDbEntity
  8
1
  6
Continuous
 62
     0
100
AcDbLine
 10
10705.53187864118
 20
-179.142809310803
 30
0.0
 11
10706.8259738667
 21
-183.972438442248
 31
0.0
  0
LINE
  5
198
330
25
100
AcDbEntity
  8
1
  6
Continuous
 62
     0
100
AcDbLine
 10
10734.50965342985
 20
-171.378237957728
 30
0.0
 11
10735.80374865537
 21
-176.207867089173
 31
0.0
  0
LINE
  5
197
330
25
100
AcDbEntity
  8
1
  6
Continuous
 62
     0
100
AcDbLine
 10
10709.45411314453
 20
-166.703811758595
 30
0.0
 11
10722.22706842719
 21
-163.281308705647
 31
0.0
  0
LINE
  5
196
330
25
100
AcDbEntity
  8
1
  6
Continuous
 62
     0
100
AcDbLine
 10
10705.34186338722
 20
-177.858597322498
 30
0.0
 11
10704.26155379774
 21
-170.557359674496
 31
0.0
  0
LINE
  5
195
330
25
100
AcDbEntity
  8
1
  6
Continuous
 62
     0
100
AcDbLine
 10
10731.31706219718
 20
-163.307858048052
 30
0.0
 11
10733.82564283139
 21
-169.64916430266
 31
0.0
  0
LINE
  5
194
330
25
100
AcDbEntity
  8
1
  6
Continuous
 62
     0
100
AcDbLine
 10
10705.53187864118
 20
-179.142809310803
 30
0.0
 11
10734.50965342985
 21
-171.378237957728
 31
0.0
  0
LINE
  5
18E
330
25
100
AcDbEntity
  8
1
  6
Continuous
 62
     0
100
AcDbLine
 10
14242.49995810761
 20
-929.416345285902
 30
0.0
 11
14242.49995810761
 21
-1916.785909608043
 31
0.0
  0
LINE
  5
18D
330
25
100
AcDbEntity
  8
1
  6
DOTTED
 62
     0
100
AcDbLine
 10
13745.29995810761
 20
-2409.660937981313
 30
0.0
 11
13745.29995810761
 21
-2408.690062970762
 31
0.0
  0
LINE
  5
18C
330
25
100
AcDbEntity
  8
1
  6
DOTTED
 62
     0
100
AcDbLine
 10
13771.69995810761
 20
-2409.660937981313
 30
0.0
 11
13771.69995810761
 21
-2408.690062970762
 31
0.0
  0
LINE
  5
18B
330
25
100
AcDbEntity
  8
1
  6
Continuous
 62
     0
100
AcDbLine
 10
13745.29995810761
 20
-2418.785909608043
 30
0.0
 11
13745.29995810761
 21
-2409.660937981313
 31
0.0
  0
LINE
  5
18A
330
25
100
AcDbEntity
  8
1
  6
Continuous
 62
     0
100
AcDbLine
 10
13771.69995810761
 20
-2418.785909608043
 30
0.0
 11
13771.69995810761
 21
-2409.660937981313
 31
0.0
  0
LINE
  5
189
330
25
100
AcDbEntity
  8
1
  6
Continuous
 62
     0
100
AcDbLine
 10
13745.29995810761
 20
-2418.785909608043
 30
0.0
 11
13771.69995810761
 21
-2418.785909608043
 31
0.0
  0
LINE
  5
188
330
25
100
AcDbEntity
  8
1
  6
Continuous
 62
     0
100
AcDbLine
 10
13274.49995810761
 20
-894.785909608043
 30
0.0
 11
13274.49995810761
 21
-2195.785909608043
 31
0.0
  0
LINE
  5
186
330
25
100
AcDbEntity
  8
1
  6
Continuous
 62
     0
100
AcDbLine
 10
14242.49995810761
 20
-338.714240710884
 30
0.0
 11
14242.49995810761
 21
-359.785909608043
 31
0.0
  0
LINE
  5
185
330
25
100
AcDbEntity
  8
1
  6
Continuous
 62
     0
100
AcDbLine
 10
14257.49995810761
 20
-1916.785909608043
 30
0.0
 11
14242.49995810761
 21
-1916.785909608043
 31
0.0
  0
LINE
  5
184
330
25
100
AcDbEntity
  8
1
  6
Continuous
 62
     0
100
AcDbLine
 10
14257.49995810761
 20
-2074.785909608043
 30
0.0
 11
14242.49995810761
 21
-2074.785909608043
 31
0.0
  0
LINE
  5
182
330
25
100
AcDbEntity
  8
1
  6
Continuous
 62
     0
100
AcDbLine
 10
14257.49995810761
 20
-1916.785909608043
 30
0.0
 11
14257.49995810761
 21
-2074.785909608043
 31
0.0
  0
LINE
  5
181
330
25
100
AcDbEntity
  8
1
  6
Continuous
 62
     0
100
AcDbLine
 10
14247.49995810761
 20
-1916.785909608043
 30
0.0
 11
14247.49995810761
 21
-2074.785909608043
 31
0.0
  0
LINE
  5
180
330
25
100
AcDbEntity
  8
1
  6
Continuous
 62
     0
100
AcDbLine
 10
14242.49995810761
 20
-2074.785909608043
 30
0.0
 11
14242.4999581076
 21
-2195.785909608043
 31
0.0
  0
LINE
  5
17F
330
25
100
AcDbEntity
  8
1
  6
Continuous
 62
     0
100
AcDbLine
 10
10485.35429174384
 20
-1148.135909608043
 30
0.0
 11
10470.35429174384
 21
-1148.135909608043
 31
0.0
  0
LINE
  5
17E
330
25
100
AcDbEntity
  8
1
  6
Continuous
 62
     0
100
AcDbLine
 10
10485.35429174384
 20
-1169.435909608043
 30
0.0
 11
10470.35429174384
 21
-1169.435909608043
 31
0.0
  0
LINE
  5
17D
330
25
100
AcDbEntity
  8
1
  6
Continuous
 62
     0
100
AcDbLine
 10
10470.35429174384
 20
-1148.135909608043
 30
0.0
 11
10470.35429174384
 21
-1169.435909608043
 31
0.0
  0
LINE
  5
17C
330
25
100
AcDbEntity
  8
1
  6
Continuous
 62
     0
100
AcDbLine
 10
10411.11476248019
 20
-1167.116909608043
 30
0.0
 11
10404.7147624802
 21
-1167.435909608043
 31
0.0
  0
LINE
  5
17B
330
25
100
AcDbEntity
  8
1
  6
Continuous
 62
     0
100
AcDbLine
 10
10395.81476248019
 20
-1150.454909608043
 30
0.0
 11
10402.2147624802
 21
-1150.135909608043
 31
0.0
  0
LINE
  5
17A
330
25
100
AcDbEntity
  8
1
  6
Continuous
 62
     0
100
AcDbLine
 10
10402.2147624802
 20
-1167.435909608043
 30
0.0
 11
10395.81476248019
 21
-1167.116909608043
 31
0.0
  0
LINE
  5
179
330
25
100
AcDbEntity
  8
1
  6
Continuous
 62
     0
100
AcDbLine
 10
10404.7147624802
 20
-1150.135909608043
 30
0.0
 11
10411.11476248019
 21
-1150.454909608043
 31
0.0
  0
LINE
  5
178
330
25
100
AcDbEntity
  8
1
  6
Continuous
 62
     0
100
AcDbLine
 10
10404.7147624802
 20
-1150.135909608043
 30
0.0
 11
10402.2147624802
 21
-1150.135909608043
 31
0.0
  0
LINE
  5
177
330
25
100
AcDbEntity
  8
1
  6
Continuous
 62
     0
100
AcDbLine
 10
10402.2147624802
 20
-1167.435909608043
 30
0.0
 11
10404.7147624802
 21
-1167.435909608043
 31
0.0
  0
LINE
  5
176
330
25
100
AcDbEntity
  8
1
  6
Continuous
 62
     0
100
AcDbLine
 10
10404.7147624802
 20
-1167.435909608043
 30
0.0
 11
10404.7147624802
 21
-1150.135909608043
 31
0.0
  0
LINE
  5
175
330
25
100
AcDbEntity
  8
1
  6
Continuous
 62
     0
100
AcDbLine
 10
10402.2147624802
 20
-1150.135909608043
 30
0.0
 11
10402.2147624802
 21
-1167.435909608043
 31
0.0
  0
LINE
  5
174
330
25
100
AcDbEntity
  8
1
  6
Continuous
 62
     0
100
AcDbLine
 10
10461.45429174384
 20
-1150.135909608043
 30
0.0
 11
10461.45429174384
 21
-1167.435909608043
 31
0.0
  0
LINE
  5
173
330
25
100
AcDbEntity
  8
1
  6
Continuous
 62
     0
100
AcDbLine
 10
10463.95429174384
 20
-1167.435909608043
 30
0.0
 11
10463.95429174384
 21
-1150.135909608043
 31
0.0
  0
LINE
  5
172
330
25
100
AcDbEntity
  8
1
  6
Continuous
 62
     0
100
AcDbLine
 10
10461.45429174384
 20
-1167.435909608043
 30
0.0
 11
10463.95429174384
 21
-1167.435909608043
 31
0.0
  0
LINE
  5
171
330
25
100
AcDbEntity
  8
1
  6
Continuous
 62
     0
100
AcDbLine
 10
10463.95429174384
 20
-1150.135909608043
 30
0.0
 11
10461.45429174384
 21
-1150.135909608043
 31
0.0
  0
LINE
  5
170
330
25
100
AcDbEntity
  8
1
  6
Continuous
 62
     0
100
AcDbLine
 10
10463.95429174384
 20
-1150.135909608043
 30
0.0
 11
10470.35429174384
 21
-1150.454909608043
 31
0.0
  0
LINE
  5
16F
330
25
100
AcDbEntity
  8
1
  6
Continuous
 62
     0
100
AcDbLine
 10
10461.45429174384
 20
-1167.435909608043
 30
0.0
 11
10455.05429174384
 21
-1167.116909608043
 31
0.0
  0
LINE
  5
16E
330
25
100
AcDbEntity
  8
1
  6
Continuous
 62
     0
100
AcDbLine
 10
10455.05429174384
 20
-1150.454909608043
 30
0.0
 11
10461.45429174384
 21
-1150.135909608043
 31
0.0
  0
LINE
  5
16D
330
25
100
AcDbEntity
  8
1
  6
Continuous
 62
     0
100
AcDbLine
 10
10470.35429174384
 20
-1167.116909608043
 30
0.0
 11
10463.95429174384
 21
-1167.435909608043
 31
0.0
  0
LINE
  5
16C
330
25
100
AcDbEntity
  8
1
  6
Continuous
 62
     0
100
AcDbLine
 10
10447.60122613137
 20
-1153.223731781553
 30
0.0
 11
10445.66025507587
 21
-1153.223731781553
 31
0.0
  0
LINE
  5
16B
330
25
100
AcDbEntity
  8
1
  6
Continuous
 62
     0
100
AcDbLine
 10
10447.60122613137
 20
-1164.348087434533
 30
0.0
 11
10441.36303646138
 21
-1164.348087434533
 31
0.0
  0
LINE
  5
16A
330
25
100
AcDbEntity
  8
1
  6
Continuous
 62
     0
100
AcDbLine
 10
10418.36612100252
 20
-1153.223731781553
 30
0.0
 11
10424.8010915825
 21
-1153.223731781553
 31
0.0
  0
LINE
  5
169
330
25
100
AcDbEntity
  8
1
  6
Continuous
 62
     0
100
AcDbLine
 10
10418.36612100252
 20
-1164.348087434533
 30
0.0
 11
10424.8010915825
 21
-1164.348087434533
 31
0.0
  0
LINE
  5
168
330
25
100
AcDbEntity
  8
1
  6
Continuous
 62
     0
100
AcDbLine
 10
10441.61476248019
 20
-1150.285909608043
 30
0.0
 11
10444.11476248019
 21
-1150.285909608043
 31
0.0
  0
LINE
  5
167
330
25
100
AcDbEntity
  8
1
  6
Continuous
 62
     0
100
AcDbLine
 10
10441.61476248019
 20
-1153.450693711642
 30
0.0
 11
10441.61476248019
 21
-1150.285909608043
 31
0.0
  0
LINE
  5
166
330
25
100
AcDbEntity
  8
1
  6
Continuous
 62
     0
100
AcDbLine
 10
10447.7525846537
 20
-1152.723731781553
 30
0.0
 11
10454.17694030669
 21
-1152.723731781553
 31
0.0
  0
LINE
  5
165
330
25
100
AcDbEntity
  8
1
  6
Continuous
 62
     0
100
AcDbLine
 10
10447.7525846537
 20
-1164.848087434533
 30
0.0
 11
10454.17694030669
 21
-1164.848087434533
 31
0.0
  0
LINE
  5
164
330
25
100
AcDbEntity
  8
1
  6
Continuous
 62
     0
100
AcDbLine
 10
10418.2147624802
 20
-1170.910265261024
 30
0.0
 11
10412.0525846537
 21
-1170.910265261024
 31
0.0
  0
LINE
  5
163
330
25
100
AcDbEntity
  8
1
  6
Continuous
 62
     0
100
AcDbLine
 10
10446.81476248019
 20
-1169.285909608043
 30
0.0
 11
10419.1525846537
 21
-1169.285909608043
 31
0.0
  0
LINE
  5
162
330
25
100
AcDbEntity
  8
1
  6
Continuous
 62
     0
100
AcDbLine
 10
10418.2147624802
 20
-1146.661553955062
 30
0.0
 11
10412.0525846537
 21
-1146.661553955062
 31
0.0
  0
LINE
  5
161
330
25
100
AcDbEntity
  8
1
  6
Continuous
 62
     0
100
AcDbLine
 10
10446.81476248019
 20
-1148.285909608043
 30
0.0
 11
10419.1525846537
 21
-1148.285909608043
 31
0.0
  0
LINE
  5
160
330
25
100
AcDbEntity
  8
1
  6
Continuous
 62
     0
100
AcDbLine
 10
10418.2147624802
 20
-1146.661553955062
 30
0.0
 11
10419.1525846537
 21
-1148.285909608043
 31
0.0
  0
LINE
  5
15F
330
25
100
AcDbEntity
  8
1
  6
Continuous
 62
     0
100
AcDbLine
 10
10419.1525846537
 20
-1169.285909608043
 30
0.0
 11
10418.2147624802
 21
-1170.910265261024
 31
0.0
  0
LINE
  5
15E
330
25
100
AcDbEntity
  8
1
  6
Continuous
 62
     0
100
AcDbLine
 10
10447.7525846537
 20
-1170.910265261024
 30
0.0
 11
10446.81476248019
 21
-1169.285909608043
 31
0.0
  0
LINE
  5
15D
330
25
100
AcDbEntity
  8
1
  6
Continuous
 62
     0
100
AcDbLine
 10
10446.81476248019
 20
-1148.285909608043
 30
0.0
 11
10447.7525846537
 21
-1146.661553955062
 31
0.0
  0
LINE
  5
15C
330
25
100
AcDbEntity
  8
1
  6
Continuous
 62
     0
100
AcDbLine
 10
10430.87869450269
 20
-1160.785909608043
 30
0.0
 11
10435.35083045769
 21
-1160.785909608043
 31
0.0
  0
LINE
  5
15B
330
25
100
AcDbEntity
  8
1
  6
Continuous
 62
     0
100
AcDbLine
 10
10430.87869450269
 20
-1156.785909608043
 30
0.0
 11
10435.35083045769
 21
-1156.785909608043
 31
0.0
  0
LINE
  5
15A
330
25
100
AcDbEntity
  8
1
  6
Continuous
 62
     0
100
AcDbLine
 10
10439.36476248019
 20
-1158.785909608043
 30
0.0
 11
10441.61476248019
 21
-1158.785909608043
 31
0.0
  0
LINE
  5
159
330
25
100
AcDbEntity
  8
1
  6
Continuous
 62
     0
100
AcDbLine
 10
10433.11476248019
 20
-1152.535909608043
 30
0.0
 11
10427.39861900336
 21
-1152.535909608043
 31
0.0
  0
LINE
  5
158
330
25
100
AcDbEntity
  8
1
  6
Continuous
 62
     0
100
AcDbLine
 10
10433.11476248019
 20
-1153.012406916143
 30
0.0
 11
10428.11476248019
 21
-1155.899158262091
 31
0.0
  0
LINE
  5
157
330
25
100
AcDbEntity
  8
1
  6
Continuous
 62
     0
100
AcDbLine
 10
10438.11476248019
 20
-1155.899158262091
 30
0.0
 11
10433.11476248019
 21
-1153.012406916143
 31
0.0
  0
LINE
  5
156
330
25
100
AcDbEntity
  8
1
  6
Continuous
 62
     0
100
AcDbLine
 10
10438.11476248019
 20
-1161.672660953991
 30
0.0
 11
10438.11476248019
 21
-1155.899158262091
 31
0.0
  0
LINE
  5
155
330
25
100
AcDbEntity
  8
1
  6
Continuous
 62
     0
100
AcDbLine
 10
10433.11476248019
 20
-1164.559412299943
 30
0.0
 11
10438.11476248019
 21
-1161.672660953991
 31
0.0
  0
LINE
  5
154
330
25
100
AcDbEntity
  8
1
  6
Continuous
 62
     0
100
AcDbLine
 10
10428.11476248019
 20
-1161.672660953991
 30
0.0
 11
10433.11476248019
 21
-1164.559412299943
 31
0.0
  0
LINE
  5
153
330
25
100
AcDbEntity
  8
1
  6
Continuous
 62
     0
100
AcDbLine
 10
10428.11476248019
 20
-1155.899158262091
 30
0.0
 11
10428.11476248019
 21
-1161.672660953991
 31
0.0
  0
LINE
  5
150
330
25
100
AcDbEntity
  8
1
  6
Continuous
 62
     0
100
AcDbLine
 10
10413.11476248019
 20
-1163.135909608041
 30
0.0
 11
10422.39200630466
 21
-1163.135909608041
 31
0.0
  0
LINE
  5
14F
330
25
100
AcDbEntity
  8
1
  6
Continuous
 62
     0
100
AcDbLine
 10
10413.11476248019
 20
-1154.435909608041
 30
0.0
 11
10413.11476248019
 21
-1163.135909608041
 31
0.0
  0
LINE
  5
14E
330
25
100
AcDbEntity
  8
1
  6
Continuous
 62
     0
100
AcDbLine
 10
10413.11476248019
 20
-1154.435909608041
 30
0.0
 11
10422.39200630466
 21
-1154.435909608041
 31
0.0
  0
LINE
  5
14D
330
25
100
AcDbEntity
  8
1
  6
Continuous
 62
     0
100
AcDbLine
 10
10453.11476248019
 20
-1163.135909608041
 30
0.0
 11
10443.83751865573
 21
-1163.135909608041
 31
0.0
  0
LINE
  5
14C
330
25
100
AcDbEntity
  8
1
  6
Continuous
 62
     0
100
AcDbLine
 10
10453.11476248019
 20
-1154.435909608041
 30
0.0
 11
10453.11476248019
 21
-1163.135909608041
 31
0.0
  0
LINE
  5
14B
330
25
100
AcDbEntity
  8
1
  6
Continuous
 62
     0
100
AcDbLine
 10
10453.11476248019
 20
-1154.435909608041
 30
0.0
 11
10443.83751865573
 21
-1154.435909608041
 31
0.0
  0
LINE
  5
14A
330
25
100
AcDbEntity
  8
1
  6
Continuous
 62
     0
100
AcDbLine
 10
10454.17694030669
 20
-1146.661553955062
 30
0.0
 11
10447.7525846537
 21
-1146.661553955062
 31
0.0
  0
LINE
  5
149
330
25
100
AcDbEntity
  8
1
  6
Continuous
 62
     0
100
AcDbLine
 10
10455.11476248019
 20
-1148.285909608043
 30
0.0
 11
10455.11476248019
 21
-1169.285909608043
 31
0.0
  0
LINE
  5
148
330
25
100
AcDbEntity
  8
1
  6
Continuous
 62
     0
100
AcDbLine
 10
10454.17694030669
 20
-1170.910265261024
 30
0.0
 11
10447.7525846537
 21
-1170.910265261024
 31
0.0
  0
LINE
  5
147
330
25
100
AcDbEntity
  8
1
  6
Continuous
 62
     0
100
AcDbLine
 10
10454.17694030669
 20
-1146.661553955062
 30
0.0
 11
10455.11476248019
 21
-1148.285909608043
 31
0.0
  0
LINE
  5
146
330
25
100
AcDbEntity
  8
1
  6
Continuous
 62
     0
100
AcDbLine
 10
10455.11476248019
 20
-1169.285909608043
 30
0.0
 11
10454.17694030669
 21
-1170.910265261024
 31
0.0
  0
LINE
  5
145
330
25
100
AcDbEntity
  8
1
  6
Continuous
 62
     0
100
AcDbLine
 10
10412.0525846537
 20
-1152.723731781553
 30
0.0
 11
10418.2147624802
 21
-1152.723731781553
 31
0.0
  0
LINE
  5
144
330
25
100
AcDbEntity
  8
1
  6
Continuous
 62
     0
100
AcDbLine
 10
10412.0525846537
 20
-1164.848087434533
 30
0.0
 11
10418.2147624802
 21
-1164.848087434533
 31
0.0
  0
LINE
  5
143
330
25
100
AcDbEntity
  8
1
  6
Continuous
 62
     0
100
AcDbLine
 10
10411.11476248019
 20
-1169.285909608043
 30
0.0
 11
10411.11476248019
 21
-1148.285909608043
 31
0.0
  0
LINE
  5
142
330
25
100
AcDbEntity
  8
1
  6
Continuous
 62
     0
100
AcDbLine
 10
10411.11476248019
 20
-1148.285909608043
 30
0.0
 11
10412.0525846537
 21
-1146.661553955062
 31
0.0
  0
LINE
  5
141
330
25
100
AcDbEntity
  8
1
  6
Continuous
 62
     0
100
AcDbLine
 10
10412.0525846537
 20
-1170.910265261024
 30
0.0
 11
10411.11476248019
 21
-1169.285909608043
 31
0.0
  0
LINE
  5
140
330
25
100
AcDbEntity
  8
1
  6
Continuous
 62
     0
100
AcDbLine
 10
10384.31603562178
 20
-1181.78463646646
 30
0.0
 11
10372.81603562178
 21
-1181.78463646646
 31
0.0
  0
LINE
  5
13F
330
25
100
AcDbEntity
  8
1
  6
Continuous
 62
     0
100
AcDbLine
 10
10384.31603562178
 20
-1173.285909608043
 30
0.0
 11
10384.31603562178
 21
-1181.78463646646
 31
0.0
  0
LINE
  5
13E
330
25
100
AcDbEntity
  8
1
  6
Continuous
 62
     0
100
AcDbLine
 10
10387.31603562178
 20
-1170.285909608043
 30
0.0
 11
10395.81476248019
 21
-1170.285909608043
 31
0.0
  0
LINE
  5
13D
330
25
100
AcDbEntity
  8
1
  6
Continuous
 62
     0
100
AcDbLine
 10
10372.81603562178
 20
-1181.78463646646
 30
0.0
 11
10361.31603562178
 21
-1181.78463646646
 31
0.0
  0
LINE
  5
13C
330
25
100
AcDbEntity
  8
1
  6
Continuous
 62
     0
100
AcDbLine
 10
10395.81476248019
 20
-1158.785909608043
 30
0.0
 11
10395.81476248019
 21
-1170.285909608043
 31
0.0
  0
LINE
  5
13B
330
25
100
AcDbEntity
  8
1
  6
Continuous
 62
     0
100
AcDbLine
 10
10361.31603562178
 20
-1158.785909608043
 30
0.0
 11
10361.31603562178
 21
-1181.78463646646
 31
0.0
  0
LINE
  5
13A
330
25
100
AcDbEntity
  8
1
  6
Continuous
 62
     0
100
AcDbLine
 10
10361.31603562178
 20
-1135.787182749626
 30
0.0
 11
10361.31603562178
 21
-1158.785909608043
 31
0.0
  0
LINE
  5
139
330
25
100
AcDbEntity
  8
1
  6
Continuous
 62
     0
100
AcDbLine
 10
10395.81476248019
 20
-1147.285909608043
 30
0.0
 11
10395.81476248019
 21
-1158.785909608043
 31
0.0
  0
LINE
  5
138
330
25
100
AcDbEntity
  8
1
  6
Continuous
 62
     0
100
AcDbLine
 10
10361.31603562178
 20
-1135.787182749626
 30
0.0
 11
10372.81603562178
 21
-1135.787182749626
 31
0.0
  0
LINE
  5
137
330
25
100
AcDbEntity
  8
1
  6
Continuous
 62
     0
100
AcDbLine
 10
10395.81476248019
 20
-1147.285909608043
 30
0.0
 11
10387.31603562178
 21
-1147.285909608043
 31
0.0
  0
LINE
  5
136
330
25
100
AcDbEntity
  8
1
  6
Continuous
 62
     0
100
AcDbLine
 10
10384.31603562178
 20
-1135.787182749626
 30
0.0
 11
10384.31603562178
 21
-1144.285909608043
 31
0.0
  0
LINE
  5
135
330
25
100
AcDbEntity
  8
1
  6
Continuous
 62
     0
100
AcDbLine
 10
10372.81603562178
 20
-1135.787182749626
 30
0.0
 11
10384.31603562178
 21
-1135.787182749626
 31
0.0
  0
LINE
  5
130
330
25
100
AcDbEntity
  8
1
  6
Continuous
 62
     0
100
AcDbLine
 10
11048.35429174384
 20
-4274.282950925259
 30
0.0
 11
10890.35429174384
 21
-4274.282950925259
 31
0.0
  0
LINE
  5
12F
330
25
100
AcDbEntity
  8
1
  6
Continuous
 62
     0
100
AcDbLine
 10
11048.35429174384
 20
-4284.282950925259
 30
0.0
 11
10890.35429174384
 21
-4284.282950925259
 31
0.0
  0
LINE
  5
12D
330
25
100
AcDbEntity
  8
1
  6
Continuous
 62
     0
100
AcDbLine
 10
11048.35429174384
 20
-4262.41257128317
 30
0.0
 11
11048.35429174384
 21
-4284.282950925259
 31
0.0
  0
LINE
  5
12C
330
25
100
AcDbEntity
  8
1
  6
Continuous
 62
     0
100
AcDbLine
 10
10890.35429174384
 20
-4262.419387827784
 30
0.0
 11
10890.35429174384
 21
-4284.282950925259
 31
0.0
  0
LINE
  5
12B
330
25
100
AcDbEntity
  8
1
  6
Continuous
 62
     0
100
AcDbLine
 10
10897.75541450134
 20
-4300.211154155533
 30
0.0
 11
10899.61182096189
 21
-4301.282950925259
 31
0.0
  0
LINE
  5
12A
330
25
100
AcDbEntity
  8
1
  6
Continuous
 62
     0
100
AcDbLine
 10
10923.61182096189
 20
-4301.282950925259
 30
0.0
 11
10925.46822742244
 21
-4300.211154155533
 31
0.0
  0
LINE
  5
129
330
25
100
AcDbEntity
  8
1
  6
Continuous
 62
     0
100
AcDbLine
 10
10925.46822742244
 20
-4300.211154155533
 30
0.0
 11
10925.46822742244
 21
-4291.282950925259
 31
0.0
  0
LINE
  5
128
330
25
100
AcDbEntity
  8
1
  6
Continuous
 62
     0
100
AcDbLine
 10
10899.61182096189
 20
-4301.282950925259
 30
0.0
 11
10923.61182096189
 21
-4301.282950925259
 31
0.0
  0
LINE
  5
127
330
25
100
AcDbEntity
  8
1
  6
Continuous
 62
     0
100
AcDbLine
 10
10897.75541450134
 20
-4291.282950925259
 30
0.0
 11
10897.75541450134
 21
-4300.211154155533
 31
0.0
  0
LINE
  5
126
330
25
100
AcDbEntity
  8
1
  6
Continuous
 62
     0
100
AcDbLine
 10
10918.54002419216
 20
-4300.211154155533
 30
0.0
 11
10918.54002419216
 21
-4291.282950925259
 31
0.0
  0
LINE
  5
125
330
25
100
AcDbEntity
  8
1
  6
Continuous
 62
     0
100
AcDbLine
 10
10904.68361773161
 20
-4300.211154155533
 30
0.0
 11
10904.68361773161
 21
-4291.282950925259
 31
0.0
  0
LINE
  5
124
330
25
100
AcDbEntity
  8
1
  6
Continuous
 62
     0
100
AcDbLine
 10
10925.61182096189
 20
-4291.282950925259
 30
0.0
 11
10925.61182096189
 21
-4287.282950925259
 31
0.0
  0
LINE
  5
123
330
25
100
AcDbEntity
  8
1
  6
Continuous
 62
     0
100
AcDbLine
 10
10897.61182096189
 20
-4291.282950925259
 30
0.0
 11
10925.61182096189
 21
-4291.282950925259
 31
0.0
  0
LINE
  5
122
330
25
100
AcDbEntity
  8
1
  6
Continuous
 62
     0
100
AcDbLine
 10
10897.61182096189
 20
-4287.282950925259
 30
0.0
 11
10897.61182096189
 21
-4291.282950925259
 31
0.0
  0
LINE
  5
121
330
25
100
AcDbEntity
  8
1
  6
Continuous
 62
     0
100
AcDbLine
 10
10913.68801143808
 20
-4287.282950925259
 30
0.0
 11
10912.54515429522
 21
-4291.282950925259
 31
0.0
  0
LINE
  5
120
330
25
100
AcDbEntity
  8
1
  6
Continuous
 62
     0
100
AcDbLine
 10
10910.67848762856
 20
-4287.282950925259
 30
0.0
 11
10909.5356304857
 21
-4291.282950925259
 31
0.0
  0
LINE
  5
11F
330
25
100
AcDbEntity
  8
1
  6
Continuous
 62
     0
100
AcDbLine
 10
10926.61182096189
 20
-4287.282950925259
 30
0.0
 11
10926.61182096189
 21
-4284.282950925259
 31
0.0
  0
LINE
  5
11E
330
25
100
AcDbEntity
  8
1
  6
Continuous
 62
     0
100
AcDbLine
 10
10896.61182096189
 20
-4287.282950925259
 30
0.0
 11
10926.61182096189
 21
-4287.282950925259
 31
0.0
  0
LINE
  5
11D
330
25
100
AcDbEntity
  8
1
  6
Continuous
 62
     0
100
AcDbLine
 10
10896.61182096189
 20
-4284.282950925259
 30
0.0
 11
10896.61182096189
 21
-4287.282950925259
 31
0.0
  0
LINE
  5
11C
330
25
100
AcDbEntity
  8
1
  6
Continuous
 62
     0
100
AcDbLine
 10
10926.61182096189
 20
-4284.282950925259
 30
0.0
 11
10896.61182096189
 21
-4284.282950925259
 31
0.0
  0
LINE
  5
119
330
25
100
AcDbEntity
  8
1
  6
Continuous
 62
     0
100
AcDbLine
 10
10960.43657722103
 20
-4284.282950925259
 30
0.0
 11
10930.43657722103
 21
-4284.282950925259
 31
0.0
  0
LINE
  5
118
330
25
100
AcDbEntity
  8
1
  6
Continuous
 62
     0
100
AcDbLine
 10
10930.43657722103
 20
-4284.282950925259
 30
0.0
 11
10930.43657722103
 21
-4287.282950925259
 31
0.0
  0
LINE
  5
117
330
25
100
AcDbEntity
  8
1
  6
Continuous
 62
     0
100
AcDbLine
 10
10930.43657722103
 20
-4287.282950925259
 30
0.0
 11
10960.43657722103
 21
-4287.282950925259
 31
0.0
  0
LINE
  5
116
330
25
100
AcDbEntity
  8
1
  6
Continuous
 62
     0
100
AcDbLine
 10
10960.43657722103
 20
-4287.282950925259
 30
0.0
 11
10960.43657722103
 21
-4284.282950925259
 31
0.0
  0
LINE
  5
115
330
25
100
AcDbEntity
  8
1
  6
Continuous
 62
     0
100
AcDbLine
 10
10944.50324388769
 20
-4287.282950925259
 30
0.0
 11
10943.36038674484
 21
-4291.282950925259
 31
0.0
  0
LINE
  5
114
330
25
100
AcDbEntity
  8
1
  6
Continuous
 62
     0
100
AcDbLine
 10
10947.51276769722
 20
-4287.282950925259
 30
0.0
 11
10946.36991055436
 21
-4291.282950925259
 31
0.0
  0
LINE
  5
113
330
25
100
AcDbEntity
  8
1
  6
Continuous
 62
     0
100
AcDbLine
 10
10931.43657722103
 20
-4287.282950925259
 30
0.0
 11
10931.43657722103
 21
-4291.282950925259
 31
0.0
  0
LINE
  5
112
330
25
100
AcDbEntity
  8
1
  6
Continuous
 62
     0
100
AcDbLine
 10
10931.43657722103
 20
-4291.282950925259
 30
0.0
 11
10959.43657722103
 21
-4291.282950925259
 31
0.0
  0
LINE
  5
111
330
25
100
AcDbEntity
  8
1
  6
Continuous
 62
     0
100
AcDbLine
 10
10959.43657722103
 20
-4291.282950925259
 30
0.0
 11
10959.43657722103
 21
-4287.282950925259
 31
0.0
  0
LINE
  5
110
330
25
100
AcDbEntity
  8
1
  6
Continuous
 62
     0
100
AcDbLine
 10
10938.50837399075
 20
-4300.211154155533
 30
0.0
 11
10938.50837399075
 21
-4291.282950925259
 31
0.0
  0
LINE
  5
10F
330
25
100
AcDbEntity
  8
1
  6
Continuous
 62
     0
100
AcDbLine
 10
10952.3647804513
 20
-4300.211154155533
 30
0.0
 11
10952.3647804513
 21
-4291.282950925259
 31
0.0
  0
LINE
  5
10E
330
25
100
AcDbEntity
  8
1
  6
Continuous
 62
     0
100
AcDbLine
 10
10931.58017076048
 20
-4291.282950925259
 30
0.0
 11
10931.58017076048
 21
-4300.211154155533
 31
0.0
  0
LINE
  5
10D
330
25
100
AcDbEntity
  8
1
  6
Continuous
 62
     0
100
AcDbLine
 10
10933.43657722103
 20
-4301.282950925259
 30
0.0
 11
10957.43657722103
 21
-4301.282950925259
 31
0.0
  0
LINE
  5
10C
330
25
100
AcDbEntity
  8
1
  6
Continuous
 62
     0
100
AcDbLine
 10
10959.29298368158
 20
-4300.211154155533
 30
0.0
 11
10959.29298368158
 21
-4291.282950925259
 31
0.0
  0
LINE
  5
10B
330
25
100
AcDbEntity
  8
1
  6
Continuous
 62
     0
100
AcDbLine
 10
10957.43657722103
 20
-4301.282950925259
 30
0.0
 11
10959.29298368158
 21
-4300.211154155533
 31
0.0
  0
LINE
  5
10A
330
25
100
AcDbEntity
  8
1
  6
Continuous
 62
     0
100
AcDbLine
 10
10931.58017076048
 20
-4300.211154155533
 30
0.0
 11
10933.43657722103
 21
-4301.282950925259
 31
0.0
  0
LINE
  5
109
330
25
100
AcDbEntity
  8
1
  6
Continuous
 62
     0
100
AcDbLine
 10
11005.27200626666
 20
-4301.282950925259
 30
0.0
 11
11007.12841272721
 21
-4300.211154155533
 31
0.0
  0
LINE
  5
108
330
25
100
AcDbEntity
  8
1
  6
Continuous
 62
     0
100
AcDbLine
 10
10979.41559980611
 20
-4300.211154155533
 30
0.0
 11
10981.27200626666
 21
-4301.282950925259
 31
0.0
  0
LINE
  5
107
330
25
100
AcDbEntity
  8
1
  6
Continuous
 62
     0
100
AcDbLine
 10
10979.41559980611
 20
-4291.282950925259
 30
0.0
 11
10979.41559980611
 21
-4300.211154155533
 31
0.0
  0
LINE
  5
106
330
25
100
AcDbEntity
  8
1
  6
Continuous
 62
     0
100
AcDbLine
 10
10981.27200626666
 20
-4301.282950925259
 30
0.0
 11
11005.27200626666
 21
-4301.282950925259
 31
0.0
  0
LINE
  5
105
330
25
100
AcDbEntity
  8
1
  6
Continuous
 62
     0
100
AcDbLine
 10
11007.12841272721
 20
-4300.211154155533
 30
0.0
 11
11007.12841272721
 21
-4291.282950925259
 31
0.0
  0
LINE
  5
104
330
25
100
AcDbEntity
  8
1
  6
Continuous
 62
     0
100
AcDbLine
 10
10986.34380303639
 20
-4291.282950925259
 30
0.0
 11
10986.34380303639
 21
-4300.211154155533
 31
0.0
  0
LINE
  5
103
330
25
100
AcDbEntity
  8
1
  6
Continuous
 62
     0
100
AcDbLine
 10
11000.20020949694
 20
-4291.282950925259
 30
0.0
 11
11000.20020949694
 21
-4300.211154155533
 31
0.0
  0
LINE
  5
102
330
25
100
AcDbEntity
  8
1
  6
Continuous
 62
     0
100
AcDbLine
 10
10979.27200626666
 20
-4287.282950925259
 30
0.0
 11
10979.27200626666
 21
-4291.282950925259
 31
0.0
  0
LINE
  5
101
330
25
100
AcDbEntity
  8
1
  6
Continuous
 62
     0
100
AcDbLine
 10
10979.27200626666
 20
-4291.282950925259
 30
0.0
 11
11007.27200626666
 21
-4291.282950925259
 31
0.0
  0
LINE
  5
100
330
25
100
AcDbEntity
  8
1
  6
Continuous
 62
     0
100
AcDbLine
 10
11007.27200626666
 20
-4291.282950925259
 30
0.0
 11
11007.27200626666
 21
-4287.282950925259
 31
0.0
  0
LINE
  5
FF
330
25
100
AcDbEntity
  8
1
  6
Continuous
 62
     0
100
AcDbLine
 10
10992.33867293333
 20
-4291.282950925259
 30
0.0
 11
10991.19581579047
 21
-4287.282950925259
 31
0.0
  0
LINE
  5
FE
330
25
100
AcDbEntity
  8
1
  6
Continuous
 62
     0
100
AcDbLine
 10
10995.34819674285
 20
-4291.282950925259
 30
0.0
 11
10994.2053396
 21
-4287.282950925259
 31
0.0
  0
LINE
  5
FD
330
25
100
AcDbEntity
  8
1
  6
Continuous
 62
     0
100
AcDbLine
 10
10978.27200626666
 20
-4284.282950925259
 30
0.0
 11
10978.27200626666
 21
-4287.282950925259
 31
0.0
  0
LINE
  5
FC
330
25
100
AcDbEntity
  8
1
  6
Continuous
 62
     0
100
AcDbLine
 10
10978.27200626666
 20
-4287.282950925259
 30
0.0
 11
11008.27200626666
 21
-4287.282950925259
 31
0.0
  0
LINE
  5
FB
330
25
100
AcDbEntity
  8
1
  6
Continuous
 62
     0
100
AcDbLine
 10
11008.27200626666
 20
-4287.282950925259
 30
0.0
 11
11008.27200626666
 21
-4284.282950925259
 31
0.0
  0
LINE
  5
FA
330
25
100
AcDbEntity
  8
1
  6
Continuous
 62
     0
100
AcDbLine
 10
11008.27200626666
 20
-4284.282950925259
 30
0.0
 11
10978.27200626666
 21
-4284.282950925259
 31
0.0
  0
LINE
  5
F7
330
25
100
AcDbEntity
  8
1
  6
Continuous
 62
     0
100
AcDbLine
 10
11042.0967625258
 20
-4284.282950925259
 30
0.0
 11
11012.0967625258
 21
-4284.282950925259
 31
0.0
  0
LINE
  5
F6
330
25
100
AcDbEntity
  8
1
  6
Continuous
 62
     0
100
AcDbLine
 10
11042.0967625258
 20
-4287.282950925259
 30
0.0
 11
11042.0967625258
 21
-4284.282950925259
 31
0.0
  0
LINE
  5
F5
330
25
100
AcDbEntity
  8
1
  6
Continuous
 62
     0
100
AcDbLine
 10
11012.0967625258
 20
-4287.282950925259
 30
0.0
 11
11042.0967625258
 21
-4287.282950925259
 31
0.0
  0
LINE
  5
F4
330
25
100
AcDbEntity
  8
1
  6
Continuous
 62
     0
100
AcDbLine
 10
11012.0967625258
 20
-4284.282950925259
 30
0.0
 11
11012.0967625258
 21
-4287.282950925259
 31
0.0
  0
LINE
  5
F3
330
25
100
AcDbEntity
  8
1
  6
Continuous
 62
     0
100
AcDbLine
 10
11029.17295300199
 20
-4291.282950925259
 30
0.0
 11
11028.03009585913
 21
-4287.282950925259
 31
0.0
  0
LINE
  5
F2
330
25
100
AcDbEntity
  8
1
  6
Continuous
 62
     0
100
AcDbLine
 10
11026.16342919247
 20
-4291.282950925259
 30
0.0
 11
11025.02057204961
 21
-4287.282950925259
 31
0.0
  0
LINE
  5
F1
330
25
100
AcDbEntity
  8
1
  6
Continuous
 62
     0
100
AcDbLine
 10
11041.0967625258
 20
-4291.282950925259
 30
0.0
 11
11041.0967625258
 21
-4287.282950925259
 31
0.0
  0
LINE
  5
F0
330
25
100
AcDbEntity
  8
1
  6
Continuous
 62
     0
100
AcDbLine
 10
11013.0967625258
 20
-4291.282950925259
 30
0.0
 11
11041.0967625258
 21
-4291.282950925259
 31
0.0
  0
LINE
  5
EF
330
25
100
AcDbEntity
  8
1
  6
Continuous
 62
     0
100
AcDbLine
 10
11013.0967625258
 20
-4287.282950925259
 30
0.0
 11
11013.0967625258
 21
-4291.282950925259
 31
0.0
  0
LINE
  5
EE
330
25
100
AcDbEntity
  8
1
  6
Continuous
 62
     0
100
AcDbLine
 10
11034.02496575607
 20
-4291.282950925259
 30
0.0
 11
11034.02496575607
 21
-4300.211154155533
 31
0.0
  0
LINE
  5
ED
330
25
100
AcDbEntity
  8
1
  6
Continuous
 62
     0
100
AcDbLine
 10
11020.16855929552
 20
-4291.282950925259
 30
0.0
 11
11020.16855929552
 21
-4300.211154155533
 31
0.0
  0
LINE
  5
EC
330
25
100
AcDbEntity
  8
1
  6
Continuous
 62
     0
100
AcDbLine
 10
11040.95316898635
 20
-4300.211154155533
 30
0.0
 11
11040.95316898635
 21
-4291.282950925259
 31
0.0
  0
LINE
  5
EB
330
25
100
AcDbEntity
  8
1
  6
Continuous
 62
     0
100
AcDbLine
 10
11015.0967625258
 20
-4301.282950925259
 30
0.0
 11
11039.0967625258
 21
-4301.282950925259
 31
0.0
  0
LINE
  5
EA
330
25
100
AcDbEntity
  8
1
  6
Continuous
 62
     0
100
AcDbLine
 10
11013.24035606525
 20
-4291.282950925259
 30
0.0
 11
11013.24035606525
 21
-4300.211154155533
 31
0.0
  0
LINE
  5
E9
330
25
100
AcDbEntity
  8
1
  6
Continuous
 62
     0
100
AcDbLine
 10
11013.24035606525
 20
-4300.211154155533
 30
0.0
 11
11015.0967625258
 21
-4301.282950925259
 31
0.0
  0
LINE
  5
E8
330
25
100
AcDbEntity
  8
1
  6
Continuous
 62
     0
100
AcDbLine
 10
11039.0967625258
 20
-4301.282950925259
 30
0.0
 11
11040.95316898635
 21
-4300.211154155533
 31
0.0
  0
LINE
  5
E7
330
25
100
AcDbEntity
  8
1
  6
Continuous
 62
     0
100
AcDbLine
 10
11473.35429174384
 20
-3826.282950925259
 30
0.0
 11
11473.35429174384
 21
-3744.282950925259
 31
0.0
  0
LINE
  5
E6
330
25
100
AcDbEntity
  8
1
  6
Continuous
 62
     0
100
AcDbLine
 10
11473.35429174384
 20
-3744.282950925259
 30
0.0
 11
11451.51946977034
 21
-3744.282950925259
 31
0.0
  0
LINE
  5
E5
330
25
100
AcDbEntity
  8
1
  6
Continuous
 62
     0
100
AcDbLine
 10
11473.35429174384
 20
-3826.282950925259
 30
0.0
 11
11451.51946977034
 21
-3826.282950925259
 31
0.0
  0
LINE
  5
E4
330
25
100
AcDbEntity
  8
1
  6
Continuous
 62
     0
100
AcDbLine
 10
10487.18911371735
 20
-3826.282950925259
 30
0.0
 11
10465.35429174384
 21
-3826.282950925259
 31
0.0
  0
LINE
  5
E3
330
25
100
AcDbEntity
  8
1
  6
Continuous
 62
     0
100
AcDbLine
 10
10487.18911371735
 20
-3744.282950925259
 30
0.0
 11
10465.35429174384
 21
-3744.282950925259
 31
0.0
  0
LINE
  5
E2
330
25
100
AcDbEntity
  8
1
  6
Continuous
 62
     0
100
AcDbLine
 10
10465.35429174384
 20
-3744.282950925259
 30
0.0
 11
10465.35429174384
 21
-3826.282950925259
 31
0.0
  0
LINE
  5
E1
330
25
100
AcDbEntity
  8
1
  6
Continuous
 62
     0
100
AcDbLine
 10
10936.20429174384
 20
-3281.282950925259
 30
0.0
 11
11002.50429174384
 21
-3281.282950925259
 31
0.0
  0
LINE
  5
E0
330
25
100
AcDbEntity
  8
1
  6
Continuous
 62
     0
100
AcDbLine
 10
11002.50429174384
 20
-3281.282950925259
 30
0.0
 11
11002.50429174384
 21
-3301.282950925259
 31
0.0
  0
LINE
  5
DF
330
25
100
AcDbEntity
  8
1
  6
Continuous
 62
     0
100
AcDbLine
 10
10936.20429174384
 20
-3281.282950925259
 30
0.0
 11
10936.20429174384
 21
-3301.282950925259
 31
0.0
  0
LINE
  5
DE
330
25
100
AcDbEntity
  8
1
  6
Continuous
 62
     0
100
AcDbLine
 10
10936.20429174384
 20
-3281.282950925259
 30
0.0
 11
11002.50429174384
 21
-3281.282950925259
 31
0.0
  0
LINE
  5
DD
330
25
100
AcDbEntity
  8
1
  6
Continuous
 62
     0
100
AcDbLine
 10
10999.60429174384
 20
-3270.162950925259
 30
0.0
 11
10939.10429174384
 21
-3270.162950925259
 31
0.0
  0
LINE
  5
DC
330
25
100
AcDbEntity
  8
1
  6
Continuous
 62
     0
100
AcDbLine
 10
10939.10429174384
 20
-3266.162950925259
 30
0.0
 11
10999.60429174384
 21
-3266.162950925259
 31
0.0
  0
LINE
  5
DB
330
25
100
AcDbEntity
  8
1
  6
Continuous
 62
     0
100
AcDbLine
 10
10999.60429174384
 20
-3270.162950925259
 30
0.0
 11
10999.60429174384
 21
-3266.162950925259
 31
0.0
  0
LINE
  5
DA
330
25
100
AcDbEntity
  8
1
  6
Continuous
 62
     0
100
AcDbLine
 10
10939.10429174384
 20
-3266.162950925259
 30
0.0
 11
10939.10429174384
 21
-3270.162950925259
 31
0.0
  0
LINE
  5
D9
330
25
100
AcDbEntity
  8
1
  6
Continuous
 62
     0
100
AcDbLine
 10
10999.16129174384
 20
-3281.282950925259
 30
0.0
 11
10999.60429174384
 21
-3270.162950925259
 31
0.0
  0
LINE
  5
D8
330
25
100
AcDbEntity
  8
1
  6
Continuous
 62
     0
100
AcDbLine
 10
10939.54729174384
 20
-3281.282950925259
 30
0.0
 11
10939.10429174384
 21
-3270.162950925259
 31
0.0
  0
LINE
  5
D7
330
25
100
AcDbEntity
  8
1
  6
Continuous
 62
     0
100
AcDbLine
 10
10999.16129174384
 20
-3255.042950925259
 30
0.0
 11
10999.60429174384
 21
-3266.162950925259
 31
0.0
  0
LINE
  5
D6
330
25
100
AcDbEntity
  8
1
  6
Continuous
 62
     0
100
AcDbLine
 10
10939.10429174384
 20
-3266.162950925259
 30
0.0
 11
10939.54729174384
 21
-3255.042950925259
 31
0.0
  0
LINE
  5
D5
330
25
100
AcDbEntity
  8
1
  6
Continuous
 62
     0
100
AcDbLine
 10
10934.85274721127
 20
-3244.658127390519
 30
0.0
 11
10934.85274721127
 21
-3235.547633430057
 31
0.0
  0
LINE
  5
D4
330
25
100
AcDbEntity
  8
1
  6
Continuous
 62
     0
100
AcDbLine
 10
10969.35429174384
 20
-3255.042950925259
 30
0.0
 11
11005.35583627642
 21
-3255.042950925259
 31
0.0
  0
LINE
  5
D3
330
25
100
AcDbEntity
  8
1
  6
Continuous
 62
     0
100
AcDbLine
 10
11005.35583627642
 20
-3255.042950925259
 30
0.0
 11
11005.35583627642
 21
-3250.042950925259
 31
0.0
  0
LINE
  5
D2
330
25
100
AcDbEntity
  8
1
  6
Continuous
 62
     0
100
AcDbLine
 10
10933.35274721127
 20
-3255.042950925259
 30
0.0
 11
10933.35274721127
 21
-3250.042950925259
 31
0.0
  0
LINE
  5
D1
330
25
100
AcDbEntity
  8
1
  6
Continuous
 62
     0
100
AcDbLine
 10
10934.85274721127
 20
-3250.042950925259
 30
0.0
 11
11003.85583627642
 21
-3250.042950925259
 31
0.0
  0
LINE
  5
D0
330
25
100
AcDbEntity
  8
1
  6
Continuous
 62
     0
100
AcDbLine
 10
10933.35274721127
 20
-3250.042950925259
 30
0.0
 11
10934.85274721127
 21
-3250.042950925259
 31
0.0
  0
LINE
  5
CF
330
25
100
AcDbEntity
  8
1
  6
Continuous
 62
     0
100
AcDbLine
 10
11005.35583627642
 20
-3250.042950925259
 30
0.0
 11
11003.85583627642
 21
-3250.042950925259
 31
0.0
  0
LINE
  5
CE
330
25
100
AcDbEntity
  8
1
  6
Continuous
 62
     0
100
AcDbLine
 10
10933.35274721127
 20
-3255.042950925259
 30
0.0
 11
10969.35429174384
 21
-3255.042950925259
 31
0.0
  0
LINE
  5
CD
330
25
100
AcDbEntity
  8
1
  6
Continuous
 62
     0
100
AcDbLine
 10
11003.85583627642
 20
-3244.658127390519
 30
0.0
 11
11003.85583627642
 21
-3237.547633430057
 31
0.0
  0
LINE
  5
CC
330
25
100
AcDbEntity
  8
1
  6
Continuous
 62
     0
100
AcDbLine
 10
11003.85583627642
 20
-3213.98834147654
 30
0.0
 11
11003.85583627642
 21
-3238.905144460866
 31
0.0
  0
LINE
  5
CB
330
25
100
AcDbEntity
  8
1
  6
Continuous
 62
     0
100
AcDbLine
 10
10934.85274721127
 20
-3239.059761452023
 30
0.0
 11
10934.85274721127
 21
-3214.433440790077
 31
0.0
  0
LINE
  5
CA
330
25
100
AcDbEntity
  8
1
  6
Continuous
 62
     0
100
AcDbLine
 10
11016.35429174384
 20
-3182.688878438029
 30
0.0
 11
11016.35429174384
 21
-3240.047633430057
 31
0.0
  0
LINE
  5
C9
330
25
100
AcDbEntity
  8
1
  6
Continuous
 62
     0
100
AcDbLine
 10
11016.35429174384
 20
-3182.047633430057
 30
0.0
 11
11016.35429174384
 21
-3182.547633430057
 31
0.0
  0
LINE
  5
C8
330
25
100
AcDbEntity
  8
1
  6
Continuous
 62
     0
100
AcDbLine
 10
11021.35429174384
 20
-3182.047633430057
 30
0.0
 11
11016.35429174384
 21
-3182.047633430057
 31
0.0
  0
LINE
  5
C7
330
25
100
AcDbEntity
  8
1
  6
Continuous
 62
     0
100
AcDbLine
 10
11021.35429174384
 20
-3240.047633430057
 30
0.0
 11
11021.35429174384
 21
-3182.047633430057
 31
0.0
  0
LINE
  5
C6
330
25
100
AcDbEntity
  8
1
  6
Continuous
 62
     0
100
AcDbLine
 10
11016.35429174384
 20
-3240.047633430057
 30
0.0
 11
11021.35429174384
 21
-3240.047633430057
 31
0.0
  0
LINE
  5
C5
330
25
100
AcDbEntity
  8
1
  6
Continuous
 62
     0
100
AcDbLine
 10
11016.35429174384
 20
-3240.047633430057
 30
0.0
 11
11016.35429174384
 21
-3239.547633430057
 31
0.0
  0
LINE
  5
C3
330
25
100
AcDbEntity
  8
1
  6
Continuous
 62
     0
100
AcDbLine
 10
10998.64537551546
 20
-3183.547633430057
 30
0.0
 11
11015.35429174384
 21
-3183.547633430057
 31
0.0
  0
LINE
  5
C2
330
25
100
AcDbEntity
  8
1
  6
Continuous
 62
     0
100
AcDbLine
 10
11003.85583627642
 20
-3238.547633430057
 30
0.0
 11
11015.35429174384
 21
-3238.547633430057
 31
0.0
  0
LINE
  5
C1
330
25
100
AcDbEntity
  8
1
  6
Continuous
 62
     0
100
AcDbLine
 10
10969.35429174384
 20
-3178.905718995047
 30
0.0
 11
10982.16184710081
 21
-3186.30016452805
 31
0.0
  0
LINE
  5
C0
330
25
100
AcDbEntity
  8
1
  6
Continuous
 62
     0
100
AcDbLine
 10
10956.54673638688
 20
-3186.30016452805
 30
0.0
 11
10969.35429174384
 21
-3178.905718995047
 31
0.0
  0
LINE
  5
BF
330
25
100
AcDbEntity
  8
1
  6
Continuous
 62
     0
100
AcDbLine
 10
10438.11429174384
 20
-3772.782950925258
 30
0.0
 11
10438.11429174384
 21
-3774.782950925258
 31
0.0
  0
LINE
  5
BE
330
25
100
AcDbEntity
  8
1
  6
Continuous
 62
     0
100
AcDbLine
 10
10428.11429174384
 20
-3772.782950925258
 30
0.0
 11
10428.11429174384
 21
-3774.782950925258
 31
0.0
  0
LINE
  5
BD
330
25
100
AcDbEntity
  8
1
  6
Continuous
 62
     0
100
AcDbLine
 10
10413.11429174384
 20
-3759.282950925258
 30
0.0
 11
10423.61429174384
 21
-3759.282950925258
 31
0.0
  0
LINE
  5
BC
330
25
100
AcDbEntity
  8
1
  6
Continuous
 62
     0
100
AcDbLine
 10
10423.11429174384
 20
-3769.282950925258
 30
0.0
 11
10413.11429174384
 21
-3766.282950925258
 31
0.0
  0
LINE
  5
BB
330
25
100
AcDbEntity
  8
1
  6
Continuous
 62
     0
100
AcDbLine
 10
10413.11429174384
 20
-3766.282950925258
 30
0.0
 11
10413.11429174384
 21
-3759.282950925258
 31
0.0
  0
LINE
  5
BA
330
25
100
AcDbEntity
  8
1
  6
Continuous
 62
     0
100
AcDbLine
 10
10442.61429174384
 20
-3759.282950925258
 30
0.0
 11
10453.11429174384
 21
-3759.282950925258
 31
0.0
  0
LINE
  5
B9
330
25
100
AcDbEntity
  8
1
  6
Continuous
 62
     0
100
AcDbLine
 10
10453.11429174384
 20
-3759.282950925258
 30
0.0
 11
10453.11429174384
 21
-3766.282950925258
 31
0.0
  0
LINE
  5
B8
330
25
100
AcDbEntity
  8
1
  6
Continuous
 62
     0
100
AcDbLine
 10
10453.11429174384
 20
-3766.282950925258
 30
0.0
 11
10443.11429174384
 21
-3769.282950925258
 31
0.0
  0
LINE
  5
B7
330
25
100
AcDbEntity
  8
1
  6
Continuous
 62
     0
100
AcDbLine
 10
10443.11429174384
 20
-3769.282950925258
 30
0.0
 11
10423.11429174384
 21
-3769.282950925258
 31
0.0
  0
LINE
  5
B6
330
25
100
AcDbEntity
  8
1
  6
Continuous
 62
     0
100
AcDbLine
 10
10423.11429174384
 20
-3769.282950925258
 30
0.0
 11
10423.11429174384
 21
-3772.782950925258
 31
0.0
  0
LINE
  5
B5
330
25
100
AcDbEntity
  8
1
  6
Continuous
 62
     0
100
AcDbLine
 10
10423.11429174384
 20
-3772.782950925258
 30
0.0
 11
10443.11429174384
 21
-3772.782950925258
 31
0.0
  0
LINE
  5
B4
330
25
100
AcDbEntity
  8
1
  6
Continuous
 62
     0
100
AcDbLine
 10
10443.11429174384
 20
-3772.782950925258
 30
0.0
 11
10443.11429174384
 21
-3769.282950925258
 31
0.0
  0
LINE
  5
B1
330
25
100
AcDbEntity
  8
1
  6
Continuous
 62
     0
100
AcDbLine
 10
10456.11429174384
 20
-3774.782950925259
 30
0.0
 11
10412.11429174384
 21
-3774.782950925259
 31
0.0
  0
LINE
  5
B0
330
25
100
AcDbEntity
  8
1
  6
Continuous
 62
     0
100
AcDbLine
 10
10412.11429174384
 20
-3795.782950925259
 30
0.0
 11
10412.11429174384
 21
-3774.782950925259
 31
0.0
  0
LINE
  5
AF
330
25
100
AcDbEntity
  8
1
  6
Continuous
 62
     0
100
AcDbLine
 10
10456.11429174384
 20
-3795.782950925259
 30
0.0
 11
10412.11429174384
 21
-3795.782950925259
 31
0.0
  0
LINE
  5
AE
330
25
100
AcDbEntity
  8
1
  6
Continuous
 62
     0
100
AcDbLine
 10
10456.11429174384
 20
-3774.782950925259
 30
0.0
 11
10456.11429174384
 21
-3795.782950925259
 31
0.0
  0
LINE
  5
AD
330
25
100
AcDbEntity
  8
1
  6
Continuous
 62
     0
100
AcDbLine
 10
10421.11429174384
 20
-3772.782950925258
 30
0.0
 11
10421.11429174384
 21
-3768.682950925259
 31
0.0
  0
LINE
  5
AC
330
25
100
AcDbEntity
  8
1
  6
Continuous
 62
     0
100
AcDbLine
 10
10421.11429174384
 20
-3772.782950925258
 30
0.0
 11
10423.11429174384
 21
-3772.782950925258
 31
0.0
  0
LINE
  5
AB
330
25
100
AcDbEntity
  8
1
  6
Continuous
 62
     0
100
AcDbLine
 10
10424.61429174384
 20
-3774.782950925258
 30
0.0
 11
10424.61429174384
 21
-3772.782950925258
 31
0.0
  0
LINE
  5
AA
330
25
100
AcDbEntity
  8
1
  6
Continuous
 62
     0
100
AcDbLine
 10
10420.41429174384
 20
-3769.882950925256
 30
0.0
 11
10421.11429174384
 21
-3769.882950925256
 31
0.0
  0
LINE
  5
A9
330
25
100
AcDbEntity
  8
1
  6
Continuous
 62
     0
100
AcDbLine
 10
10420.41429174384
 20
-3774.782950925258
 30
0.0
 11
10420.41429174384
 21
-3769.882950925256
 31
0.0
  0
LINE
  5
A8
330
25
100
AcDbEntity
  8
1
  6
Continuous
 62
     0
100
AcDbLine
 10
10413.05211391735
 20
-3785.282950925259
 30
0.0
 11
10420.15211391735
 21
-3785.282950925259
 31
0.0
  0
LINE
  5
A7
330
25
100
AcDbEntity
  8
1
  6
Continuous
 62
     0
100
AcDbLine
 10
10448.07646957034
 20
-3785.282950925259
 30
0.0
 11
10455.17646957034
 21
-3785.282950925259
 31
0.0
  0
LINE
  5
A6
330
25
100
AcDbEntity
  8
1
  6
Continuous
 62
     0
100
AcDbLine
 10
10420.56643644485
 20
-3776.082950925257
 30
0.0
 11
10428.96429174385
 21
-3776.082950925257
 31
0.0
  0
LINE
  5
A5
330
25
100
AcDbEntity
  8
1
  6
Continuous
 62
     0
100
AcDbLine
 10
10447.66214704283
 20
-3776.082950925257
 30
0.0
 11
10437.26429174384
 21
-3776.082950925257
 31
0.0
  0
LINE
  5
A4
330
25
100
AcDbEntity
  8
1
  6
Continuous
 62
     0
100
AcDbLine
 10
10462.51429174384
 20
-3776.632950925258
 30
0.0
 11
10462.51429174384
 21
-3793.932950925259
 31
0.0
  0
LINE
  5
A3
330
25
100
AcDbEntity
  8
1
  6
Continuous
 62
     0
100
AcDbLine
 10
10465.35429174384
 20
-3776.632950925258
 30
0.0
 11
10462.51429174384
 21
-3776.632950925258
 31
0.0
  0
LINE
  5
A2
330
25
100
AcDbEntity
  8
1
  6
Continuous
 62
     0
100
AcDbLine
 10
10456.11429174384
 20
-3776.951950925258
 30
0.0
 11
10462.51429174384
 21
-3776.632950925258
 31
0.0
  0
LINE
  5
A1
330
25
100
AcDbEntity
  8
1
  6
Continuous
 62
     0
100
AcDbLine
 10
10462.51429174384
 20
-3793.932950925259
 30
0.0
 11
10456.11429174384
 21
-3793.613950925259
 31
0.0
  0
LINE
  5
A0
330
25
100
AcDbEntity
  8
1
  6
Continuous
 62
     0
100
AcDbLine
 10
10462.51429174384
 20
-3793.932950925259
 30
0.0
 11
10465.35429174384
 21
-3793.932950925259
 31
0.0
  0
LINE
  5
9F
330
25
100
AcDbEntity
  8
1
  6
Continuous
 62
     0
100
AcDbLine
 10
10405.75429174384
 20
-3776.632950925258
 30
0.0
 11
10412.15429174384
 21
-3776.951950925258
 31
0.0
  0
LINE
  5
9E
330
25
100
AcDbEntity
  8
1
  6
Continuous
 62
     0
100
AcDbLine
 10
10403.25429174384
 20
-3793.932950925259
 30
0.0
 11
10396.85429174384
 21
-3793.613950925259
 31
0.0
  0
LINE
  5
9D
330
25
100
AcDbEntity
  8
1
  6
Continuous
 62
     0
100
AcDbLine
 10
10396.85429174384
 20
-3776.951950925258
 30
0.0
 11
10403.25429174384
 21
-3776.632950925258
 31
0.0
  0
LINE
  5
9C
330
25
100
AcDbEntity
  8
1
  6
Continuous
 62
     0
100
AcDbLine
 10
10412.15429174384
 20
-3793.613950925259
 30
0.0
 11
10405.75429174384
 21
-3793.932950925259
 31
0.0
  0
LINE
  5
9B
330
25
100
AcDbEntity
  8
1
  6
Continuous
 62
     0
100
AcDbLine
 10
10403.25429174384
 20
-3793.932950925259
 30
0.0
 11
10405.75429174384
 21
-3793.932950925259
 31
0.0
  0
LINE
  5
9A
330
25
100
AcDbEntity
  8
1
  6
Continuous
 62
     0
100
AcDbLine
 10
10405.75429174384
 20
-3776.632950925258
 30
0.0
 11
10403.25429174384
 21
-3776.632950925258
 31
0.0
  0
LINE
  5
99
330
25
100
AcDbEntity
  8
1
  6
Continuous
 62
     0
100
AcDbLine
 10
10405.75429174384
 20
-3793.932950925259
 30
0.0
 11
10405.75429174384
 21
-3776.632950925258
 31
0.0
  0
LINE
  5
98
330
25
100
AcDbEntity
  8
1
  6
Continuous
 62
     0
100
AcDbLine
 10
10403.25429174384
 20
-3776.632950925258
 30
0.0
 11
10403.25429174384
 21
-3793.932950925259
 31
0.0
  0
LINE
  5
97
330
25
100
AcDbEntity
  8
1
  6
Continuous
 62
     0
100
AcDbLine
 10
10412.15429174384
 20
-3795.782950925259
 30
0.0
 11
10412.15429174384
 21
-3774.782950925259
 31
0.0
  0
LINE
  5
96
330
25
100
AcDbEntity
  8
1
  6
Continuous
 62
     0
100
AcDbLine
 10
10396.85429174384
 20
-3773.782950925259
 30
0.0
 11
10396.85429174384
 21
-3785.282950925259
 31
0.0
  0
LINE
  5
95
330
25
100
AcDbEntity
  8
1
  6
Continuous
 62
     0
100
AcDbLine
 10
10396.85429174384
 20
-3785.282950925259
 30
0.0
 11
10396.85429174384
 21
-3796.782950925259
 31
0.0
  0
LINE
  5
94
330
25
100
AcDbEntity
  8
1
  6
Continuous
 62
     0
100
AcDbLine
 10
10396.85429174384
 20
-3785.282950925259
 30
0.0
 11
10396.85429174384
 21
-3796.782950925259
 31
0.0
  0
LINE
  5
93
330
25
100
AcDbEntity
  8
1
  6
Continuous
 62
     0
100
AcDbLine
 10
10373.85556488543
 20
-3796.782950925259
 30
0.0
 11
10396.85429174384
 21
-3796.782950925259
 31
0.0
  0
LINE
  5
92
330
25
100
AcDbEntity
  8
1
  6
Continuous
 62
     0
100
AcDbLine
 10
10396.85429174384
 20
-3773.782950925259
 30
0.0
 11
10396.85429174384
 21
-3785.282950925259
 31
0.0
  0
LINE
  5
91
330
25
100
AcDbEntity
  8
1
  6
Continuous
 62
     0
100
AcDbLine
 10
10396.85429174384
 20
-3773.782950925259
 30
0.0
 11
10373.85556488543
 21
-3773.782950925259
 31
0.0
  0
LINE
  5
8F
330
25
100
AcDbEntity
  8
1
  6
Continuous
 62
     0
100
AcDbLine
 10
10367.85556488543
 20
-3791.282950925259
 30
0.0
 11
10367.85556488543
 21
-3779.282950925259
 31
0.0
  0
LINE
  5
8E
330
25
100
AcDbEntity
  8
1
  6
Continuous
 62
     0
100
AcDbLine
 10
10379.85556488543
 20
-3791.282950925259
 30
0.0
 11
10367.85556488543
 21
-3791.282950925259
 31
0.0
  0
LINE
  5
8D
330
25
100
AcDbEntity
  8
1
  6
Continuous
 62
     0
100
AcDbLine
 10
10379.85556488543
 20
-3779.282950925259
 30
0.0
 11
10379.85556488543
 21
-3791.282950925259
 31
0.0
  0
LINE
  5
8C
330
25
100
AcDbEntity
  8
1
  6
Continuous
 62
     0
100
AcDbLine
 10
10367.85556488543
 20
-3779.282950925259
 30
0.0
 11
10379.85556488543
 21
-3779.282950925259
 31
0.0
  0
LINE
  5
8B
330
25
100
AcDbEntity
  8
1
  6
Continuous
 62
     0
100
AcDbLine
 10
10379.85556488543
 20
-3779.282950925259
 30
0.0
 11
10367.85556488543
 21
-3791.282950925259
 31
0.0
  0
LINE
  5
8A
330
25
100
AcDbEntity
  8
1
  6
Continuous
 62
     0
100
AcDbLine
 10
10367.85556488543
 20
-3779.282950925259
 30
0.0
 11
10379.85556488543
 21
-3791.282950925259
 31
0.0
  0
LINE
  5
87
330
25
100
AcDbEntity
  8
1
  6
Continuous
 62
     0
100
AcDbLine
 10
10334.85556488543
 20
-3797.282950925258
 30
0.0
 11
10334.85556488543
 21
-3766.282950925258
 31
0.0
  0
LINE
  5
86
330
25
100
AcDbEntity
  8
1
  6
Continuous
 62
     0
100
AcDbLine
 10
10412.85556488543
 20
-3795.782950925259
 30
0.0
 11
10412.85556488543
 21
-3797.282950925258
 31
0.0
  0
LINE
  5
85
330
25
100
AcDbEntity
  8
1
  6
Continuous
 62
     0
100
AcDbLine
 10
10412.85556488543
 20
-3774.782950925259
 30
0.0
 11
10412.85556488543
 21
-3766.282950925258
 31
0.0
  0
LINE
  5
84
330
25
100
AcDbEntity
  8
1
  6
Continuous
 62
     0
100
AcDbLine
 10
10336.85556488543
 20
-3764.282950925258
 30
0.0
 11
10410.85556488543
 21
-3764.282950925258
 31
0.0
  0
LINE
  5
83
330
25
100
AcDbEntity
  8
1
  6
Continuous
 62
     0
100
AcDbLine
 10
10410.85556488543
 20
-3799.282950925258
 30
0.0
 11
10336.85556488543
 21
-3799.282950925258
 31
0.0
  0
LINE
  5
82
330
25
100
AcDbEntity
  8
1
  6
Continuous
 62
     0
100
AcDbLine
 10
10362.54386722234
 20
-3785.282950925259
 30
0.0
 11
10334.85556488543
 21
-3785.282950925259
 31
0.0
  0
LINE
  5
81
330
25
100
AcDbEntity
  8
1
  6
Continuous
 62
     0
100
AcDbLine
 10
13274.49995810761
 20
-2195.785909608043
 30
0.0
 11
13274.49995810761
 21
-2215.700395696405
 31
0.0
  0
LINE
  5
80
330
25
100
AcDbEntity
  8
1
  6
Continuous
 62
     0
100
AcDbLine
 10
14242.49995810761
 20
-2215.700395696405
 30
0.0
 11
14242.4999581076
 21
-2195.785909608043
 31
0.0
  0
LINE
  5
7F
330
25
100
AcDbEntity
  8
1
  6
Continuous
 62
     0
100
AcDbLine
 10
13274.49995810761
 20
-2195.785909608043
 30
0.0
 11
13758.49995810761
 21
-2195.785909608043
 31
0.0
  0
LINE
  5
7E
330
25
100
AcDbEntity
  8
1
  6
Continuous
 62
     0
100
AcDbLine
 10
13758.49995810761
 20
-2195.785909608043
 30
0.0
 11
14242.4999581076
 21
-2195.785909608043
 31
0.0
  0
LINE
  5
7D
330
25
100
AcDbEntity
  8
1
  6
Continuous
 62
     0
100
AcDbLine
 10
14242.49995810761
 20
-359.785909608043
 30
0.0
 11
13758.49995810761
 21
-359.785909608043
 31
0.0
  0
LINE
  5
7C
330
25
100
AcDbEntity
  8
1
  6
Continuous
 62
     0
100
AcDbLine
 10
13758.49995810761
 20
-359.785909608043
 30
0.0
 11
13274.49995810761
 21
-359.785909608043
 31
0.0
  0
LINE
  5
7B
330
25
100
AcDbEntity
  8
1
  6
Continuous
 62
     0
100
AcDbLine
 10
13274.49995810761
 20
-339.871423519681
 30
0.0
 11
13274.49995810761
 21
-359.785909608043
 31
0.0
  0
LINE
  5
7A
330
25
100
AcDbEntity
  8
1
  6
Continuous
 62
     0
100
AcDbLine
 10
14242.49995810761
 20
-359.785909608043
 30
0.0
 11
14242.49995810761
 21
-339.871423519681
 31
0.0
  0
LINE
  5
79
330
25
100
AcDbEntity
  8
1
  6
Continuous
 62
     0
100
AcDbLine
 10
13274.49995810761
 20
-339.871423519681
 30
0.0
 11
13274.49995810761
 21
-359.785909608043
 31
0.0
  0
LINE
  5
78
330
25
100
AcDbEntity
  8
1
  6
Continuous
 62
     0
100
AcDbLine
 10
13274.49995810761
 20
-359.785909608043
 30
0.0
 11
13274.49995810761
 21
-1917.785909608043
 31
0.0
  0
LINE
  5
77
330
25
100
AcDbEntity
  8
1
  6
Continuous
 62
     0
100
AcDbLine
 10
10494.35429174384
 20
-2699.785909608043
 30
0.0
 11
11444.35429174384
 21
-2699.785909608043
 31
0.0
  0
LINE
  5
76
330
25
100
AcDbEntity
  8
1
  6
Continuous
 62
     0
100
AcDbLine
 10
11444.35429174384
 20
-2699.785909608043
 30
0.0
 11
11444.35429174384
 21
-2708.785909608043
 31
0.0
  0
LINE
  5
75
330
25
100
AcDbEntity
  8
1
  6
Continuous
 62
     0
100
AcDbLine
 10
11444.35429174384
 20
-2708.785909608043
 30
0.0
 11
10494.35429174384
 21
-2708.785909608043
 31
0.0
  0
LINE
  5
74
330
25
100
AcDbEntity
  8
1
  6
Continuous
 62
     0
100
AcDbLine
 10
10494.35429174384
 20
-2708.785909608043
 30
0.0
 11
10494.35429174384
 21
-2699.785909608043
 31
0.0
  0
LINE
  5
73
330
25
100
AcDbEntity
  8
1
  6
Continuous
 62
     0
100
AcDbLine
 10
11303.58721366517
 20
-2699.785909608043
 30
0.0
 11
11303.58721366517
 21
-2479.380983671688
 31
0.0
  0
LINE
  5
72
330
25
100
AcDbEntity
  8
1
  6
Continuous
 62
     0
100
AcDbLine
 10
13283.49995810761
 20
-2708.785909608043
 30
0.0
 11
13283.49995810761
 21
-2699.785909608043
 31
0.0
  0
LINE
  5
71
330
25
100
AcDbEntity
  8
1
  6
Continuous
 62
     0
100
AcDbLine
 10
14233.49995810761
 20
-2708.785909608043
 30
0.0
 11
13283.49995810761
 21
-2708.785909608043
 31
0.0
  0
LINE
  5
70
330
25
100
AcDbEntity
  8
1
  6
Continuous
 62
     0
100
AcDbLine
 10
14233.49995810761
 20
-2699.785909608043
 30
0.0
 11
14233.49995810761
 21
-2708.785909608043
 31
0.0
  0
LINE
  5
6F
330
25
100
AcDbEntity
  8
1
  6
Continuous
 62
     0
100
AcDbLine
 10
13283.49995810761
 20
-2699.785909608043
 30
0.0
 11
14233.49995810761
 21
-2699.785909608043
 31
0.0
  0
LINE
  5
6E
330
25
100
AcDbEntity
  8
1
  6
Continuous
 62
     0
100
AcDbLine
 10
13658.49995810761
 20
-2508.785909608043
 30
0.0
 11
13658.49995810761
 21
-2699.785909608043
 31
0.0
  0
LINE
  5
6D
330
25
100
AcDbEntity
  8
1
  6
Continuous
 62
     0
100
AcDbLine
 10
13858.49995810761
 20
-2508.785909608043
 30
0.0
 11
13858.49995810761
 21
-2699.785909608043
 31
0.0
  0
LINE
  5
57
330
25
100
AcDbEntity
  8
1
  6
Continuous
 62
     0
100
AcDbLine
 10
10978.27200626666
 20
-4284.282950925259
 30
0.0
 11
10978.27200626666
 21
-4287.282950925259
 31
0.0
  0
LINE
  5
56
330
25
100
AcDbEntity
  8
1
  6
Continuous
 62
     0
100
AcDbLine
 10
10979.27200626666
 20
-4287.282950925259
 30
0.0
 11
10979.27200626666
 21
-4291.282950925259
 31
0.0
  0
LINE
  5
55
330
25
100
AcDbEntity
  8
1
  6
Continuous
 62
     0
100
AcDbLine
 10
10979.41559980611
 20
-4291.282950925259
 30
0.0
 11
10979.41559980611
 21
-4300.211154155533
 31
0.0
  0
LINE
  5
54
330
25
100
AcDbEntity
  8
1
  6
Continuous
 62
     0
100
AcDbLine
 10
10979.41559980611
 20
-4300.211154155533
 30
0.0
 11
10981.27200626666
 21
-4301.282950925259
 31
0.0
  0
LINE
  5
53
330
25
100
AcDbEntity
  8
1
  6
Continuous
 62
     0
100
AcDbLine
 10
10957.43657722103
 20
-4301.282950925259
 30
0.0
 11
10959.29298368158
 21
-4300.211154155533
 31
0.0
  0
LINE
  5
52
330
25
100
AcDbEntity
  8
1
  6
Continuous
 62
     0
100
AcDbLine
 10
10959.29298368158
 20
-4300.211154155533
 30
0.0
 11
10959.29298368158
 21
-4291.282950925259
 31
0.0
  0
LINE
  5
51
330
25
100
AcDbEntity
  8
1
  6
Continuous
 62
     0
100
AcDbLine
 10
10959.43657722103
 20
-4291.282950925259
 30
0.0
 11
10959.43657722103
 21
-4287.282950925259
 31
0.0
  0
LINE
  5
50
330
25
100
AcDbEntity
  8
1
  6
Continuous
 62
     0
100
AcDbLine
 10
10960.43657722103
 20
-4287.282950925259
 30
0.0
 11
10960.43657722103
 21
-4284.282950925259
 31
0.0
  0
LINE
  5
4F
330
25
100
AcDbEntity
  8
1
  6
Continuous
 62
     0
100
AcDbLine
 10
10978.27200626666
 20
-4284.282950925259
 30
0.0
 11
10978.27200626666
 21
-4287.282950925259
 31
0.0
  0
LINE
  5
4E
330
25
100
AcDbEntity
  8
1
  6
Continuous
 62
     0
100
AcDbLine
 10
10979.27200626666
 20
-4287.282950925259
 30
0.0
 11
10979.27200626666
 21
-4291.282950925259
 31
0.0
  0
LINE
  5
4D
330
25
100
AcDbEntity
  8
1
  6
Continuous
 62
     0
100
AcDbLine
 10
10979.41559980611
 20
-4291.282950925259
 30
0.0
 11
10979.41559980611
 21
-4300.211154155533
 31
0.0
  0
LINE
  5
4C
330
25
100
AcDbEntity
  8
1
  6
Continuous
 62
     0
100
AcDbLine
 10
10979.41559980611
 20
-4300.211154155533
 30
0.0
 11
10981.27200626666
 21
-4301.282950925259
 31
0.0
  0
LINE
  5
4B
330
25
100
AcDbEntity
  8
1
  6
Continuous
 62
     0
100
AcDbLine
 10
10957.43657722103
 20
-4301.282950925259
 30
0.0
 11
10959.29298368158
 21
-4300.211154155533
 31
0.0
  0
LINE
  5
4A
330
25
100
AcDbEntity
  8
1
  6
Continuous
 62
     0
100
AcDbLine
 10
10959.29298368158
 20
-4300.211154155533
 30
0.0
 11
10959.29298368158
 21
-4291.282950925259
 31
0.0
  0
LINE
  5
49
330
25
100
AcDbEntity
  8
1
  6
Continuous
 62
     0
100
AcDbLine
 10
10959.43657722103
 20
-4291.282950925259
 30
0.0
 11
10959.43657722103
 21
-4287.282950925259
 31
0.0
  0
LINE
  5
48
330
25
100
AcDbEntity
  8
1
  6
Continuous
 62
     0
100
AcDbLine
 10
10960.43657722103
 20
-4287.282950925259
 30
0.0
 11
10960.43657722103
 21
-4284.282950925259
 31
0.0
  0
LINE
  5
47
330
25
100
AcDbEntity
  8
1
  6
Continuous
 62
     0
100
AcDbLine
 10
10969.35429174384
 20
-4301.282950925257
 30
0.0
 11
10982.85429174384
 21
-4301.282950925257
 31
0.0
  0
LINE
  5
46
330
25
100
AcDbEntity
  8
1
  6
Continuous
 62
     0
100
AcDbLine
 10
10978.27200626666
 20
-4284.282950925259
 30
0.0
 11
10978.27200626666
 21
-4287.282950925259
 31
0.0
  0
LINE
  5
45
330
25
100
AcDbEntity
  8
1
  6
Continuous
 62
     0
100
AcDbLine
 10
10979.27200626666
 20
-4287.282950925259
 30
0.0
 11
10979.27200626666
 21
-4291.282950925259
 31
0.0
  0
LINE
  5
44
330
25
100
AcDbEntity
  8
1
  6
Continuous
 62
     0
100
AcDbLine
 10
10979.41559980611
 20
-4291.282950925259
 30
0.0
 11
10979.41559980611
 21
-4300.211154155533
 31
0.0
  0
LINE
  5
43
330
25
100
AcDbEntity
  8
1
  6
Continuous
 62
     0
100
AcDbLine
 10
10979.41559980611
 20
-4300.211154155533
 30
0.0
 11
10981.27200626666
 21
-4301.282950925259
 31
0.0
  0
LINE
  5
42
330
25
100
AcDbEntity
  8
1
  6
Continuous
 62
     0
100
AcDbLine
 10
10957.43657722103
 20
-4301.282950925259
 30
0.0
 11
10959.29298368158
 21
-4300.211154155533
 31
0.0
  0
LINE
  5
41
330
25
100
AcDbEntity
  8
1
  6
Continuous
 62
     0
100
AcDbLine
 10
10959.29298368158
 20
-4300.211154155533
 30
0.0
 11
10959.29298368158
 21
-4291.282950925259
 31
0.0
  0
LINE
  5
40
330
25
100
AcDbEntity
  8
1
  6
Continuous
 62
     0
100
AcDbLine
 10
10959.43657722103
 20
-4291.282950925259
 30
0.0
 11
10959.43657722103
 21
-4287.282950925259
 31
0.0
  0
LINE
  5
3F
330
25
100
AcDbEntity
  8
1
  6
Continuous
 62
     0
100
AcDbLine
 10
10960.43657722103
 20
-4287.282950925259
 30
0.0
 11
10960.43657722103
 21
-4284.282950925259
 31
0.0
  0
LINE
  5
3E
330
25
100
AcDbEntity
  8
1
  6
Continuous
 62
     0
100
AcDbLine
 10
10965.35429174384
 20
-4289.282950925257
 30
0.0
 11
10965.35429174384
 21
-4296.282950925257
 31
0.0
  0
LINE
  5
3D
330
25
100
AcDbEntity
  8
1
  6
Continuous
 62
     0
100
AcDbLine
 10
10973.35429174384
 20
-4296.282950925257
 30
0.0
 11
10973.35429174384
 21
-4289.282950925257
 31
0.0
  0
LINE
  5
3C
330
25
100
AcDbEntity
  8
1
  6
Continuous
 62
     0
100
AcDbLine
 10
10969.35429174384
 20
-4301.282950925257
 30
0.0
 11
10982.85429174384
 21
-4301.282950925257
 31
0.0
  0
LINE
  5
3B
330
25
100
AcDbEntity
  8
1
  6
Continuous
 62
     0
100
AcDbLine
 10
10964.78630065807
 20
-4298.282950925257
 30
0.0
 11
10959.29298368158
 21
-4298.282950925257
 31
0.0
  0
LINE
  5
3A
330
25
100
AcDbEntity
  8
1
  6
Continuous
 62
     0
100
AcDbLine
 10
10955.85429174384
 20
-4301.282950925257
 30
0.0
 11
10969.35429174384
 21
-4301.282950925257
 31
0.0
  0
LINE
  5
39
330
25
100
AcDbEntity
  8
1
  6
Continuous
 62
     0
100
AcDbLine
 10
10971.35429174384
 20
-4298.282950925257
 30
0.0
 11
10967.35429174384
 21
-4298.282950925257
 31
0.0
  0
LINE
  5
38
330
25
100
AcDbEntity
  8
1
  6
Continuous
 62
     0
100
AcDbLine
 10
10965.35429174384
 20
-4289.282950925257
 30
0.0
 11
10965.35429174384
 21
-4296.282950925257
 31
0.0
  0
LINE
  5
37
330
25
100
AcDbEntity
  8
1
  6
Continuous
 62
     0
100
AcDbLine
 10
10973.35429174384
 20
-4296.282950925257
 30
0.0
 11
10973.35429174384
 21
-4289.282950925257
 31
0.0
  0
LINE
  5
36
330
25
100
AcDbEntity
  8
1
  6
Continuous
 62
     0
100
AcDbLine
 10
10979.27200626666
 20
-4289.282950925257
 30
0.0
 11
10959.43657722103
 21
-4289.282950925257
 31
0.0
  0
LINE
  5
35
330
25
100
AcDbEntity
  8
1
  6
Continuous
 62
     0
100
AcDbLine
 10
10979.41559980611
 20
-4298.282950925257
 30
0.0
 11
10973.92228282962
 21
-4298.282950925257
 31
0.0
  0
LINE
  5
34
330
25
100
AcDbEntity
  8
1
  6
Continuous
 62
     0
100
AcDbLine
 10
10955.85429174384
 20
-4301.282950925257
 30
0.0
 11
10969.35429174384
 21
-4301.282950925257
 31
0.0
  0
LINE
  5
33
330
25
100
AcDbEntity
  8
1
  6
Continuous
 62
     0
100
AcDbLine
 10
10964.78630065807
 20
-4298.282950925257
 30
0.0
 11
10959.29298368158
 21
-4298.282950925257
 31
0.0
  0
LINE
  5
32
330
25
100
AcDbEntity
  8
1
  6
Continuous
 62
     0
100
AcDbLine
 10
10979.41559980611
 20
-4298.282950925257
 30
0.0
 11
10973.92228282962
 21
-4298.282950925257
 31
0.0
  0
LINE
  5
31
330
25
100
AcDbEntity
  8
1
  6
Continuous
 62
     0
100
AcDbLine
 10
10965.35429174384
 20
-4289.282950925257
 30
0.0
 11
10965.35429174384
 21
-4296.282950925257
 31
0.0
  0
LINE
  5
30
330
25
100
AcDbEntity
  8
1
  6
Continuous
 62
     0
100
AcDbLine
 10
10973.35429174384
 20
-4296.282950925257
 30
0.0
 11
10973.35429174384
 21
-4289.282950925257
 31
0.0
  0
LINE
  5
2F
330
25
100
AcDbEntity
  8
1
  6
Continuous
 62
     0
100
AcDbLine
 10
10971.35429174384
 20
-4298.282950925257
 30
0.0
 11
10967.35429174384
 21
-4298.282950925257
 31
0.0
  0
LINE
  5
2E
330
25
100
AcDbEntity
  8
1
  6
Continuous
 62
     0
100
AcDbLine
 10
10965.35429174384
 20
-4289.282950925257
 30
0.0
 11
10965.35429174384
 21
-4296.282950925257
 31
0.0
  0
LINE
  5
2D
330
25
100
AcDbEntity
  8
1
  6
Continuous
 62
     0
100
AcDbLine
 10
10973.35429174384
 20
-4296.282950925257
 30
0.0
 11
10973.35429174384
 21
-4289.282950925257
 31
0.0
  0
LINE
  5
2C
330
25
100
AcDbEntity
  8
1
  6
Continuous
 62
     0
100
AcDbLine
 10
10979.27200626666
 20
-4289.282950925257
 30
0.0
 11
10959.43657722103
 21
-4289.282950925257
 31
0.0
  0
POINT
  5
2A
330
25
100
AcDbEntity
  8
1
 62
     0
100
AcDbPoint
 10
10333.6957391769
 20
-1072.127079389929
 30
0.0
  0
LINE
  5
A7C
330
25
100
AcDbEntity
  8
1
  6
Continuous
 62
     0
100
AcDbLine
 10
14273.42816133788
 20
-603.6719739294481
 30
0.0
 11
14264.49995810761
 21
-603.6719739294481
 31
0.0
  0
LINE
  5
A7D
330
25
100
AcDbEntity
  8
1
  6
Continuous
 62
     0
100
AcDbLine
 10
14264.49995810761
 20
-631.5283803899979
 30
0.0
 11
14264.49995810761
 21
-603.5283803899979
 31
0.0
  0
LINE
  5
A7E
330
25
100
AcDbEntity
  8
1
  6
Continuous
 62
     0
100
AcDbLine
 10
14260.49995810761
 20
-631.5283803899979
 30
0.0
 11
14264.49995810761
 21
-631.5283803899979
 31
0.0
  0
LINE
  5
A7F
330
25
100
AcDbEntity
  8
1
  6
Continuous
 62
     0
100
AcDbLine
 10
14260.49995810761
 20
-615.4521899138081
 30
0.0
 11
14264.49995810761
 21
-616.595047056665
 31
0.0
  0
ARC
  5
A80
330
25
100
AcDbEntity
  8
1
  6
Continuous
 62
     0
100
AcDbCircle
 10
14268.31161294672
 20
-546.2773222418909
 30
0.0
 40
6.188368025609
100
AcDbArc
 50
335.9793229189715
 51
34.22849580305566
  0
ARC
  5
A81
330
25
100
AcDbEntity
  8
1
  6
Continuous
 62
     0
100
AcDbCircle
 10
14251.57175487733
 20
-535.8681950852249
 30
0.0
 40
22.928203230275
100
AcDbArc
 50
342.4120462260065
 51
17.5879537739931
  0
LINE
  5
A82
330
25
100
AcDbEntity
  8
1
  6
Continuous
 62
     0
100
AcDbLine
 10
14260.49995810761
 20
-618.4617137233322
 30
0.0
 11
14264.49995810761
 21
-619.60457086619
 31
0.0
  0
LINE
  5
A83
330
25
100
AcDbEntity
  8
1
  6
Continuous
 62
     0
100
AcDbLine
 10
14260.49995810761
 20
-602.5283803899979
 30
0.0
 11
14257.49995810761
 21
-602.5283803899979
 31
0.0
  0
LINE
  5
A85
330
25
100
AcDbEntity
  8
1
  6
Continuous
 62
     0
100
AcDbLine
 10
14257.49995810761
 20
-598.703624130862
 30
0.0
 11
14260.49995810761
 21
-598.703624130862
 31
0.0
  0
LINE
  5
A86
330
25
100
AcDbEntity
  8
1
  6
Continuous
 62
     0
100
AcDbLine
 10
14260.49995810761
 20
-568.703624130862
 30
0.0
 11
14257.49995810761
 21
-568.703624130862
 31
0.0
  0
LINE
  5
A87
330
25
100
AcDbEntity
  8
1
  6
Continuous
 62
     0
100
AcDbLine
 10
14260.49995810761
 20
-597.703624130862
 30
0.0
 11
14264.49995810761
 21
-597.703624130862
 31
0.0
  0
LINE
  5
A88
330
25
100
AcDbEntity
  8
1
  6
Continuous
 62
     0
100
AcDbLine
 10
14264.49995810761
 20
-597.703624130862
 30
0.0
 11
14264.49995810761
 21
-569.703624130862
 31
0.0
  0
ARC
  5
A89
330
25
100
AcDbEntity
  8
1
  6
Continuous
 62
     0
100
AcDbCircle
 10
14251.57175487733
 20
-617.5283803899979
 30
0.0
 40
22.928203230275
100
AcDbArc
 50
342.4120462260055
 51
17.5879537739931
  0
ARC
  5
A8A
330
25
100
AcDbEntity
  8
1
  6
Continuous
 62
     0
100
AcDbCircle
 10
14268.31161294672
 20
-573.2944969741959
 30
0.0
 40
6.188368025611
100
AcDbArc
 50
325.7715041969452
 51
24.02067708102929
  0
LINE
  5
A8B
330
25
100
AcDbEntity
  8
1
  6
Continuous
 62
     0
100
AcDbLine
 10
14260.49995810761
 20
-598.703624130862
 30
0.0
 11
14260.49995810761
 21
-568.703624130862
 31
0.0
  0
LINE
  5
A8C
330
25
100
AcDbEntity
  8
1
  6
Continuous
 62
     0
100
AcDbLine
 10
14273.42816133788
 20
-624.4565836202742
 30
0.0
 11
14264.49995810761
 21
-624.4565836202742
 31
0.0
  0
LINE
  5
A8D
330
25
100
AcDbEntity
  8
1
  6
Continuous
 62
     0
100
AcDbLine
 10
14264.49995810761
 20
-569.703624130862
 30
0.0
 11
14260.49995810761
 21
-569.703624130862
 31
0.0
  0
LINE
  5
A8E
330
25
100
AcDbEntity
  8
1
  6
Continuous
 62
     0
100
AcDbLine
 10
14257.49995810761
 20
-568.703624130862
 30
0.0
 11
14257.49995810761
 21
-598.703624130862
 31
0.0
  0
ARC
  5
A8F
330
25
100
AcDbEntity
  8
1
  6
Continuous
 62
     0
100
AcDbCircle
 10
14268.31161294672
 20
-627.9375075466642
 30
0.0
 40
6.188368025609
100
AcDbArc
 50
335.9793229189715
 51
34.22849580305566
  0
ARC
  5
A90
330
25
100
AcDbEntity
  8
1
  6
Continuous
 62
     0
100
AcDbCircle
 10
14268.31161294672
 20
-594.1127512875271
 30
0.0
 40
6.188368025609
100
AcDbArc
 50
335.9793229189715
 51
34.22849580305566
  0
LINE
  5
A91
330
25
100
AcDbEntity
  8
1
  6
Continuous
 62
     0
100
AcDbLine
 10
14273.42816133788
 20
-610.600177159723
 30
0.0
 11
14264.49995810761
 21
-610.600177159723
 31
0.0
  0
LINE
  5
A92
330
25
100
AcDbEntity
  8
1
  6
Continuous
 62
     0
100
AcDbLine
 10
14257.49995810761
 20
-602.5283803899979
 30
0.0
 11
14257.49995810761
 21
-632.5283803899979
 31
0.0
  0
LINE
  5
A93
330
25
100
AcDbEntity
  8
1
  6
Continuous
 62
     0
100
AcDbLine
 10
14257.49995810761
 20
-632.5283803899979
 30
0.0
 11
14260.49995810761
 21
-632.5283803899979
 31
0.0
  0
LINE
  5
A95
330
25
100
AcDbEntity
  8
1
  6
Continuous
 62
     0
100
AcDbLine
 10
14260.49995810761
 20
-581.6274336546701
 30
0.0
 11
14264.49995810761
 21
-582.7702907975281
 31
0.0
  0
ARC
  5
A96
330
25
100
AcDbEntity
  8
1
  6
Continuous
 62
     0
100
AcDbCircle
 10
14268.31161294672
 20
-607.119253233333
 30
0.0
 40
6.188368025611
100
AcDbArc
 50
325.7715041969452
 51
24.02067708102929
  0
LINE
  5
A97
330
25
100
AcDbEntity
  8
1
  6
Continuous
 62
     0
100
AcDbLine
 10
14273.42816133788
 20
-631.38478685055
 30
0.0
 11
14274.49995810761
 21
-629.5283803899979
 31
0.0
  0
LINE
  5
A98
330
25
100
AcDbEntity
  8
1
  6
Continuous
 62
     0
100
AcDbLine
 10
14274.49995810761
 20
-629.5283803899979
 30
0.0
 11
14274.49995810761
 21
-605.5283803899979
 31
0.0
  0
LINE
  5
A99
330
25
100
AcDbEntity
  8
1
  6
Continuous
 62
     0
100
AcDbLine
 10
14273.42816133788
 20
-590.6318273611371
 30
0.0
 11
14264.49995810761
 21
-590.6318273611371
 31
0.0
  0
LINE
  5
A9A
330
25
100
AcDbEntity
  8
1
  6
Continuous
 62
     0
100
AcDbLine
 10
14273.42816133788
 20
-576.7754209005859
 30
0.0
 11
14264.49995810761
 21
-576.7754209005859
 31
0.0
  0
LINE
  5
A9B
330
25
100
AcDbEntity
  8
1
  6
Continuous
 62
     0
100
AcDbLine
 10
14264.49995810761
 20
-597.560030591412
 30
0.0
 11
14273.42816133788
 21
-597.560030591412
 31
0.0
  0
ARC
  5
A9C
330
25
100
AcDbEntity
  8
1
  6
Continuous
 62
     0
100
AcDbCircle
 10
14251.57175487733
 20
-583.703624130862
 30
0.0
 40
22.928203230275
100
AcDbArc
 50
342.4120462260072
 51
17.58795377399364
  0
ARC
  5
A9D
330
25
100
AcDbEntity
  8
1
  6
Continuous
 62
     0
100
AcDbCircle
 10
14268.31161294672
 20
-512.452565982753
 30
0.0
 40
6.18836802561
100
AcDbArc
 50
335.9793229189552
 51
34.22849580304052
  0
LINE
  5
A9E
330
25
100
AcDbEntity
  8
1
  6
Continuous
 62
     0
100
AcDbLine
 10
14274.49995810761
 20
-595.703624130862
 30
0.0
 11
14274.49995810761
 21
-571.703624130862
 31
0.0
  0
LINE
  5
A9F
330
25
100
AcDbEntity
  8
1
  6
Continuous
 62
     0
100
AcDbLine
 10
14274.49995810761
 20
-571.703624130862
 30
0.0
 11
14273.42816133788
 21
-569.8472176703101
 31
0.0
  0
LINE
  5
AA0
330
25
100
AcDbEntity
  8
1
  6
Continuous
 62
     0
100
AcDbLine
 10
14274.49995810761
 20
-605.5283803899979
 30
0.0
 11
14273.42816133788
 21
-603.6719739294481
 31
0.0
  0
ARC
  5
AA1
330
25
100
AcDbEntity
  8
1
  6
Continuous
 62
     0
100
AcDbCircle
 10
14694.62240336309
 20
-559.7859096080431
 30
0.0
 40
458.97244525548
100
AcDbArc
 50
170.088686020986
 51
189.9113139790138
  0
ARC
  5
AA2
330
25
100
AcDbEntity
  8
1
  6
Continuous
 62
     0
100
AcDbCircle
 10
14268.31161294672
 20
-491.634311669422
 30
0.0
 40
6.188368025611
100
AcDbArc
 50
325.7715041969461
 51
24.02067708102881
  0
LINE
  5
AA3
330
25
100
AcDbEntity
  8
1
  6
Continuous
 62
     0
100
AcDbLine
 10
14273.42816133788
 20
-569.8472176703101
 30
0.0
 11
14264.49995810761
 21
-569.8472176703101
 31
0.0
  0
LINE
  5
AA4
330
25
100
AcDbEntity
  8
1
  6
Continuous
 62
     0
100
AcDbLine
 10
14273.42816133788
 20
-549.7246015457761
 30
0.0
 11
14274.49995810761
 21
-547.8681950852249
 31
0.0
  0
ARC
  5
AA5
330
25
100
AcDbEntity
  8
1
  6
Continuous
 62
     0
100
AcDbCircle
 10
14251.57175487733
 20
-502.0434388260869
 30
0.0
 40
22.928203230276
100
AcDbArc
 50
342.4120462260013
 51
17.58795377399649
  0
LINE
  5
AA6
330
25
100
AcDbEntity
  8
1
  6
Continuous
 62
     0
100
AcDbLine
 10
14273.42816133788
 20
-597.560030591412
 30
0.0
 11
14274.49995810761
 21
-595.703624130862
 31
0.0
  0
LINE
  5
AA7
330
25
100
AcDbEntity
  8
1
  6
Continuous
 62
     0
100
AcDbLine
 10
14264.49995810761
 20
-549.7246015457761
 30
0.0
 11
14273.42816133788
 21
-549.7246015457761
 31
0.0
  0
LINE
  5
AA8
330
25
100
AcDbEntity
  8
1
  6
Continuous
 62
     0
100
AcDbLine
 10
14274.49995810761
 20
-523.8681950852249
 30
0.0
 11
14273.42816133788
 21
-522.011788624674
 31
0.0
  0
LINE
  5
AA9
330
25
100
AcDbEntity
  8
1
  6
Continuous
 62
     0
100
AcDbLine
 10
14260.49995810761
 20
-584.6369574641949
 30
0.0
 11
14264.49995810761
 21
-585.779814607052
 31
0.0
  0
LINE
  5
AAA
330
25
100
AcDbEntity
  8
1
  6
Continuous
 62
     0
100
AcDbLine
 10
14264.49995810761
 20
-603.5283803899979
 30
0.0
 11
14260.49995810761
 21
-603.5283803899979
 31
0.0
  0
LINE
  5
AAB
330
25
100
AcDbEntity
  8
1
  6
Continuous
 62
     0
100
AcDbLine
 10
14274.49995810761
 20
-547.8681950852249
 30
0.0
 11
14274.49995810761
 21
-523.8681950852249
 31
0.0
  0
LINE
  5
AAC
330
25
100
AcDbEntity
  8
1
  6
Continuous
 62
     0
100
AcDbLine
 10
14260.49995810761
 20
-632.5283803899979
 30
0.0
 11
14260.49995810761
 21
-602.5283803899979
 31
0.0
  0
ARC
  5
AAD
330
25
100
AcDbEntity
  8
1
  6
Continuous
 62
     0
100
AcDbCircle
 10
14268.31161294672
 20
-525.4590679285591
 30
0.0
 40
6.188368025612
100
AcDbArc
 50
325.7715041969338
 51
24.02067708101186
  0
LINE
  5
AAE
330
25
100
AcDbEntity
  8
1
  6
Continuous
 62
     0
100
AcDbLine
 10
14264.49995810761
 20
-631.38478685055
 30
0.0
 11
14273.42816133788
 21
-631.38478685055
 31
0.0
  0
LINE
  5
AAF
330
25
100
AcDbEntity
  8
1
  6
Continuous
 62
     0
100
AcDbLine
 10
14257.49995810761
 20
-480.7859096080431
 30
0.0
 11
14242.49995810761
 21
-480.7859096080431
 31
0.0
  0
LINE
  5
AB0
330
25
100
AcDbEntity
  8
1
  6
Continuous
 62
     0
100
AcDbLine
 10
14260.49995810761
 20
-517.0434388260869
 30
0.0
 11
14260.49995810761
 21
-487.0434388260869
 31
0.0
  0
LINE
  5
AB1
330
25
100
AcDbEntity
  8
1
  6
Continuous
 62
     0
100
AcDbLine
 10
14264.49995810761
 20
-528.93999185495
 30
0.0
 11
14273.42816133788
 21
-528.93999185495
 31
0.0
  0
LINE
  5
AB3
330
25
100
AcDbEntity
  8
1
  6
Continuous
 62
     0
100
AcDbLine
 10
14273.42816133788
 20
-515.899845286639
 30
0.0
 11
14274.49995810761
 21
-514.0434388260869
 31
0.0
  0
LINE
  5
AB4
330
25
100
AcDbEntity
  8
1
  6
Continuous
 62
     0
100
AcDbLine
 10
14264.49995810761
 20
-495.115235595812
 30
0.0
 11
14273.42816133788
 21
-495.115235595812
 31
0.0
  0
LINE
  5
AB5
330
25
100
AcDbEntity
  8
1
  6
Continuous
 62
     0
100
AcDbLine
 10
14264.49995810761
 20
-488.0434388260869
 30
0.0
 11
14260.49995810761
 21
-488.0434388260869
 31
0.0
  0
LINE
  5
AB6
330
25
100
AcDbEntity
  8
1
  6
Continuous
 62
     0
100
AcDbLine
 10
14273.42816133788
 20
-488.1870323655371
 30
0.0
 11
14264.49995810761
 21
-488.1870323655371
 31
0.0
  0
LINE
  5
AB7
330
25
100
AcDbEntity
  8
1
  6
Continuous
 62
     0
100
AcDbLine
 10
14264.49995810761
 20
-508.9716420563641
 30
0.0
 11
14273.42816133788
 21
-508.9716420563641
 31
0.0
  0
LINE
  5
AB8
330
25
100
AcDbEntity
  8
1
  6
Continuous
 62
     0
100
AcDbLine
 10
14257.49995810761
 20
-520.8681950852249
 30
0.0
 11
14257.49995810761
 21
-550.8681950852249
 31
0.0
  0
LINE
  5
AB9
330
25
100
AcDbEntity
  8
1
  6
Continuous
 62
     0
100
AcDbLine
 10
14247.49995810761
 20
-480.7859096080431
 30
0.0
 11
14247.49995810761
 21
-638.7859096080429
 31
0.0
  0
LINE
  5
ABA
330
25
100
AcDbEntity
  8
1
  6
Continuous
 62
     0
100
AcDbLine
 10
14260.49995810761
 20
-520.8681950852249
 30
0.0
 11
14257.49995810761
 21
-520.8681950852249
 31
0.0
  0
LINE
  5
ABB
330
25
100
AcDbEntity
  8
1
  6
Continuous
 62
     0
100
AcDbLine
 10
14274.49995810761
 20
-490.0434388260869
 30
0.0
 11
14273.42816133788
 21
-488.1870323655371
 31
0.0
  0
LINE
  5
ABC
330
25
100
AcDbEntity
  8
1
  6
Continuous
 62
     0
100
AcDbLine
 10
14264.49995810761
 20
-533.7920046090351
 30
0.0
 11
14260.49995810761
 21
-534.934861751892
 31
0.0
  0
LINE
  5
ABD
330
25
100
AcDbEntity
  8
1
  6
Continuous
 62
     0
100
AcDbLine
 10
14273.42816133788
 20
-522.011788624674
 30
0.0
 11
14264.49995810761
 21
-522.011788624674
 31
0.0
  0
LINE
  5
ABE
330
25
100
AcDbEntity
  8
1
  6
Continuous
 62
     0
100
AcDbLine
 10
14257.49995810761
 20
-550.8681950852249
 30
0.0
 11
14260.49995810761
 21
-550.8681950852249
 31
0.0
  0
LINE
  5
ABF
330
25
100
AcDbEntity
  8
1
  6
Continuous
 62
     0
100
AcDbLine
 10
14264.49995810761
 20
-502.976772159421
 30
0.0
 11
14260.49995810761
 21
-504.119629302279
 31
0.0
  0
LINE
  5
AC0
330
25
100
AcDbEntity
  8
1
  6
Continuous
 62
     0
100
AcDbLine
 10
14264.49995810761
 20
-515.899845286639
 30
0.0
 11
14273.42816133788
 21
-515.899845286639
 31
0.0
  0
LINE
  5
AC1
330
25
100
AcDbEntity
  8
1
  6
Continuous
 62
     0
100
AcDbLine
 10
14257.49995810761
 20
-480.7859096080431
 30
0.0
 11
14257.49995810761
 21
-638.7859096080429
 31
0.0
  0
LINE
  5
AC2
330
25
100
AcDbEntity
  8
1
  6
Continuous
 62
     0
100
AcDbLine
 10
14264.49995810761
 20
-542.7963983155009
 30
0.0
 11
14273.42816133788
 21
-542.7963983155009
 31
0.0
  0
LINE
  5
AC3
330
25
100
AcDbEntity
  8
1
  6
Continuous
 62
     0
100
AcDbLine
 10
14257.49995810761
 20
-517.0434388260869
 30
0.0
 11
14260.49995810761
 21
-517.0434388260869
 31
0.0
  0
LINE
  5
AC4
330
25
100
AcDbEntity
  8
1
  6
Continuous
 62
     0
100
AcDbLine
 10
14264.49995810761
 20
-536.801528418559
 30
0.0
 11
14260.49995810761
 21
-537.944385561415
 31
0.0
  0
LINE
  5
AC5
330
25
100
AcDbEntity
  8
1
  6
Continuous
 62
     0
100
AcDbLine
 10
14264.49995810761
 20
-499.9672483498971
 30
0.0
 11
14260.49995810761
 21
-501.110105492754
 31
0.0
  0
LINE
  5
AC6
330
25
100
AcDbEntity
  8
1
  6
Continuous
 62
     0
100
AcDbLine
 10
14260.49995810761
 20
-487.0434388260869
 30
0.0
 11
14257.49995810761
 21
-487.0434388260869
 31
0.0
  0
LINE
  5
AC7
330
25
100
AcDbEntity
  8
1
  6
Continuous
 62
     0
100
AcDbLine
 10
14264.49995810761
 20
-521.8681950852249
 30
0.0
 11
14260.49995810761
 21
-521.8681950852249
 31
0.0
  0
LINE
  5
AC8
330
25
100
AcDbEntity
  8
1
  6
Continuous
 62
     0
100
AcDbLine
 10
14274.49995810761
 20
-514.0434388260869
 30
0.0
 11
14274.49995810761
 21
-490.0434388260869
 31
0.0
  0
LINE
  5
AC9
330
25
100
AcDbEntity
  8
1
  6
Continuous
 62
     0
100
AcDbLine
 10
14264.49995810761
 20
-516.0434388260869
 30
0.0
 11
14264.49995810761
 21
-488.0434388260869
 31
0.0
  0
LINE
  5
ACA
330
25
100
AcDbEntity
  8
1
  6
Continuous
 62
     0
100
AcDbLine
 10
14264.49995810761
 20
-549.8681950852249
 30
0.0
 11
14264.49995810761
 21
-521.8681950852249
 31
0.0
  0
LINE
  5
ACB
330
25
100
AcDbEntity
  8
1
  6
Continuous
 62
     0
100
AcDbLine
 10
14260.49995810761
 20
-550.8681950852249
 30
0.0
 11
14260.49995810761
 21
-520.8681950852249
 31
0.0
  0
LINE
  5
ACD
330
25
100
AcDbEntity
  8
1
  6
Continuous
 62
     0
100
AcDbLine
 10
14257.49995810761
 20
-487.0434388260869
 30
0.0
 11
14257.49995810761
 21
-517.0434388260869
 31
0.0
  0
LINE
  5
ACE
330
25
100
AcDbEntity
  8
1
  6
Continuous
 62
     0
100
AcDbLine
 10
14257.49995810761
 20
-638.7859096080429
 30
0.0
 11
14242.49995810761
 21
-638.7859096080429
 31
0.0
  0
LINE
  5
AD0
330
25
100
AcDbEntity
  8
1
  6
Continuous
 62
     0
100
AcDbLine
 10
14260.49995810761
 20
-549.8681950852249
 30
0.0
 11
14264.49995810761
 21
-549.8681950852249
 31
0.0
  0
LINE
  5
AD1
330
25
100
AcDbEntity
  8
1
  6
Continuous
 62
     0
100
AcDbLine
 10
14260.49995810761
 20
-516.0434388260869
 30
0.0
 11
14264.49995810761
 21
-516.0434388260869
 31
0.0
  0
LINE
  5
AD2
330
25
100
AcDbEntity
  8
0
  6
Continuous
 62
     0
100
AcDbLine
 10
14242.49995810761
 20
-929.416345285902
 30
0.0
 11
14242.49995810761
 21
-638.7859096080476
 31
0.0
  0
LINE
  5
AD3
330
25
100
AcDbEntity
  8
0
  6
Continuous
 62
     0
100
AcDbLine
 10
14242.74447980818
 20
-480.7050366727367
 30
0.0
 11
14242.49995810761
 21
-359.785909608043
 31
0.0
  0
ENDBLK
  5
4EA
330
25
100
AcDbEntity
  8
0
100
AcDbBlockEnd
  0
ENDSEC
  0
SECTION
  2
ENTITIES
  0
TEXT
  5
4ED
330
A
100
AcDbEntity
  8
1
 62
     0
100
AcDbText
 10
16490.27712890613
 20
-4366.656868680892
 30
0.0
 40
52.5
  1
SAT-1500C-125
 41
0.9
  7
CONVERTER_1
100
AcDbText
  0
INSERT
  5
29
330
A
100
AcDbEntity
  8
0
100
AcDbBlockReference
  2
SAT1500C125__1
 10
0.0
 20
0.0
 30
0.0
  0
VIEWPORT
  5
27C0
330
27BC
100
AcDbEntity
 67
     1
  8
0
100
AcDbViewport
 10
5.25
 20
3.5
 30
0.0
 40
11.55
 41
8.925
 68
     1
 69
     1
 12
5.25
 22
3.5
 13
0.0
 23
0.0
 14
0.5
 24
0.5
 15
0.0
 25
0.0
 16
0.0
 26
0.0
 36
1.0
 17
0.0
 27
0.0
 37
0.0
 42
50.0
 43
0.0
 44
0.0
 45
8.925
 50
0.0
 51
0.0
 72
   100
 90
   557152
  1

281
     0
 71
     1
 74
     0
110
0.0
120
0.0
130
0.0
111
1.0
121
0.0
131
0.0
112
0.0
122
1.0
132
0.0
 79
     0
146
0.0
170
     0
 61
     5
348
51C
292
     1
282
     1
141
0.0
142
0.0
 63
   256
361
27C4
  0
VIEWPORT
  5
27C1
102
{ACAD_XDICTIONARY
360
27C2
102
}
330
27BC
100
AcDbEntity
 67
     1
  8
0
100
AcDbViewport
 10
5.25
 20
3.5
 30
0.0
 40
8.4
 41
5.600000000000001
 68
     2
 69
     2
 12
13687.61143404152
 22
-2241.55365239885
 13
0.0
 23
0.0
 14
0.5
 24
0.5
 15
0.0
 25
0.0
 16
0.0
 26
0.0
 36
1.0
 17
0.0
 27
0.0
 37
0.0
 42
50.0
 43
0.0
 44
0.0
 45
4561.325345015877
 50
0.0
 51
0.0
 72
   100
 90
   557152
  1

281
     0
 71
     1
 74
     0
110
0.0
120
0.0
130
0.0
111
1.0
121
0.0
131
0.0
112
0.0
122
1.0
132
0.0
 79
     0
146
0.0
170
     0
 61
     5
348
51C
292
     1
282
     1
141
0.0
142
0.0
 63
   256
  0
ENDSEC
  0
SECTION
  2
OBJECTS
  0
DICTIONARY
  5
19
330
0
100
AcDbDictionary
281
     1
  3
ACAD_DETAILVIEWSTYLE
350
556
  3
ACAD_GROUP
350
1A
  3
ACAD_LAYOUT
350
514
  3
ACAD_MATERIAL
350
530
  3
ACAD_MLEADERSTYLE
350
536
  3
ACAD_MLINESTYLE
350
1B
  3
ACAD_PLOTSETTINGS
350
4EF
  3
ACAD_PLOTSTYLENAME
350
4F0
  3
ACAD_SCALELIST
350
4F2
  3
ACAD_SECTIONVIEWSTYLE
350
557
  3
ACAD_TABLESTYLE
350
534
  3
ACAD_VISUALSTYLE
350
517
  3
ACDB_RECOMPOSE_DATA
350
27CA
  3
AcDbVariableDictionary
350
551
  3
APPDATA
350
538
  0
SUN
  5
1010
330
15
100
AcDbSun
 90
        1
290
     0
 63
     7
421
 16777215
 40
1.0
291
     1
 91
  2455826
 92
 54000000
292
     0
 70
     2
 71
   256
280
     1
  0
SUN
  5
27C4
330
27C0
100
AcDbSun
 90
        1
290
     0
 63
     7
421
 16777215
 40
1.0
291
     1
 91
  2455826
 92
 54000000
292
     0
 70
     2
 71
   256
280
     1
  0
DICTIONARY
  5
27C2
330
27C1
100
AcDbDictionary
280
     1
281
     1
  3
ASDK_XREC_ANNOTATION_SCALE_INFO
360
27C3
  0
DICTIONARY
  5
556
102
{ACAD_REACTORS
330
19
102
}
330
19
100
AcDbDictionary
281
     1
  0
DICTIONARY
  5
1A
102
{ACAD_REACTORS
330
19
102
}
330
19
100
AcDbDictionary
281
     1
  0
DICTIONARY
  5
514
102
{ACAD_REACTORS
330
19
102
}
330
19
100
AcDbDictionary
281
     1
  3
Model
350
515
  3
シート1
350
27BD
  0
DICTIONARY
  5
530
102
{ACAD_REACTORS
330
19
102
}
330
19
100
AcDbDictionary
281
     1
  3
ByBlock
350
532
  3
ByLayer
350
531
  3
Global
350
533
  0
DICTIONARY
  5
536
102
{ACAD_REACTORS
330
19
102
}
330
19
100
AcDbDictionary
281
     1
  3
Standard
350
537
  0
DICTIONARY
  5
1B
102
{ACAD_REACTORS
330
19
102
}
330
19
100
AcDbDictionary
281
     1
  3
STANDARD
350
1C
  0
DICTIONARY
  5
4EF
102
{ACAD_REACTORS
330
19
102
}
330
19
100
AcDbDictionary
281
     1
  0
ACDBDICTIONARYWDFLT
  5
4F0
102
{ACAD_REACTORS
330
19
102
}
330
19
100
AcDbDictionary
281
     1
  3
Normal
350
4F1
100
AcDbDictionaryWithDefault
340
4F1
  0
DICTIONARY
  5
4F2
102
{ACAD_REACTORS
330
19
102
}
330
19
100
AcDbDictionary
281
     1
  3
A0
350
4F3
  3
A1
350
4F4
  3
A2
350
4F5
  3
A3
350
4F6
  3
A4
350
4F7
  3
A5
350
4F8
  3
A6
350
4F9
  3
A7
350
4FA
  3
A8
350
4FB
  3
A9
350
4FC
  3
B0
350
4FD
  3
B1
350
4FE
  3
B2
350
4FF
  3
B3
350
500
  3
B4
350
501
  3
B5
350
502
  3
B6
350
503
  3
B7
350
504
  3
B8
350
505
  3
B9
350
506
  3
C0
350
507
  3
C1
350
508
  3
C2
350
509
  3
C3
350
50A
  3
C4
350
50B
  3
C5
350
50C
  3
C6
350
50D
  3
C7
350
50E
  3
C8
350
50F
  3
C9
350
510
  3
D0
350
511
  3
D1
350
512
  3
D2
350
513
  0
DICTIONARY
  5
557
102
{ACAD_REACTORS
330
19
102
}
330
19
100
AcDbDictionary
281
     1
  0
DICTIONARY
  5
534
102
{ACAD_REACTORS
330
19
102
}
330
19
100
AcDbDictionary
281
     1
  3
Standard
350
535
  0
DICTIONARY
  5
517
102
{ACAD_REACTORS
330
19
102
}
330
19
100
AcDbDictionary
281
     1
  3
2dWireframe
350
51C
  3
Basic
350
51F
  3
Brighten
350
523
  3
ColorChange
350
527
  3
Conceptual
350
521
  3
Dim
350
522
  3
EdgeColorOff
350
52A
  3
Facepattern
350
526
  3
Flat
350
518
  3
FlatWithEdges
350
519
  3
Gouraud
350
51A
  3
GouraudWithEdges
350
51B
  3
Hidden
350
51E
  3
JitterOff
350
528
  3
Linepattern
350
525
  3
OverhangOff
350
529
  3
Realistic
350
520
  3
Shaded
350
52F
  3
Shaded with edges
350
52E
  3
Shades of Gray
350
52B
  3
Sketchy
350
52C
  3
Thicken
350
524
  3
Wireframe
350
51D
  3
X-Ray
350
52D
  0
XRECORD
  5
27CA
102
{ACAD_REACTORS
330
19
102
}
330
19
100
AcDbXrecord
280
     1
 90
        1
330
535
  0
DICTIONARY
  5
551
102
{ACAD_REACTORS
330
19
102
}
330
19
100
AcDbDictionary
281
     1
  3
CANNOSCALE
350
552
  3
CMLEADERSTYLE
350
554
  3
CTABLESTYLE
350
553
  3
MSLTSCALE
350
555
  3
XCLIPFRAME
350
B02
  0
DICTIONARY
  5
538
102
{ACAD_REACTORS
330
19
102
}
330
19
100
AcDbDictionary
281
     1
  0
XRECORD
  5
27C3
102
{ACAD_REACTORS
330
27C2
102
}
330
27C2
100
AcDbXrecord
280
     1
 90
        1
340
4F3
  0
LAYOUT
  5
515
102
{ACAD_REACTORS
330
514
102
}
330
514
100
AcDbPlotSettings
  1

  2
none_device
  4
Letter_(8.50_x_11.00_Inches)
  6

 40
6.35
 41
6.35
 42
6.35
 43
6.35
 44
215.9
 45
279.4
 46
0.0
 47
0.0
 48
0.0
 49
0.0
140
0.0
141
0.0
142
1.0
143
0.8722256190476192
 70
  1712
 72
     0
 73
     0
 74
     0
  7

 75
     0
 76
     0
 77
     2
 78
   300
147
1.146492350330064
148
-87.33095066012679
149
0.0000127000000131
100
AcDbLayout
  1
Model
 70
     1
 71
     0
 10
0.0
 20
0.0
 11
0.0
 21
0.0
 12
0.0
 22
0.0
 32
0.0
 14
10333.6957391769
 24
-4366.656868680892
 34
0.0
 15
17041.52712890613
 25
-116.2827488455869
 35
0.0
146
0.0
 13
0.0
 23
0.0
 33
0.0
 16
1.0
 26
0.0
 36
0.0
 17
0.0
 27
1.0
 37
0.0
 76
     0
330
A
331
15
  0
LAYOUT
  5
27BD
102
{ACAD_REACTORS
330
514
102
}
330
514
100
AcDbPlotSettings
  1

  2
none_device
  4
ANSI_A_(11.00_x_8.50_Inches)
  6

 40
6.35
 41
19.05
 42
6.35
 43
19.05
 44
279.4
 45
215.9
 46
0.0
 47
0.0
 48
0.0
 49
0.0
140
0.0
141
0.0
142
1.0
143
1.0
 70
   688
 72
     0
 73
     0
 74
     5
  7

 75
    16
 76
     0
 77
     2
 78
   300
147
1.0
148
0.0
149
0.0
100
AcDbLayout
  1
シート1
 70
     1
 71
     1
 10
-0.25
 20
-0.7499999999999999
 11
10.75
 21
7.75
 12
0.0
 22
0.0
 32
0.0
 14
1.05
 24
0.6999999999999997
 34
0.0
 15
9.45
 25
6.300000000000001
 35
0.0
146
0.0
 13
0.0
 23
0.0
 33
0.0
 16
1.0
 26
0.0
 36
0.0
 17
0.0
 27
1.0
 37
0.0
 76
     0
330
27BC
331
27C0
  0
MATERIAL
  5
532
102
{ACAD_REACTORS
330
530
102
}
330
530
100
AcDbMaterial
  1
ByBlock
 72
     1
 94
      127
  0
MATERIAL
  5
531
102
{ACAD_REACTORS
330
530
102
}
330
530
100
AcDbMaterial
  1
ByLayer
 72
     1
 94
      127
  0
MATERIAL
  5
533
102
{ACAD_REACTORS
330
530
102
}
330
530
100
AcDbMaterial
  1
Global
 72
     1
 94
      127
  0
MLEADERSTYLE
  5
537
102
{ACAD_REACTORS
330
536
102
}
330
536
100
AcDbMLeaderStyle
179
     2
170
     2
171
     1
172
     0
 90
        2
 40
0.0
 41
0.0
173
     1
 91
-1056964608
340
11
 92
       -2
290
     1
 42
0.09
291
     1
 43
0.36
  3
Standard
341
0
 44
0.18
300

342
17
174
     1
178
     1
175
     1
176
     0
 93
-1056964608
 45
0.18
292
     0
297
     0
 46
0.18
343
0
 94
-1056964608
 47
1.0
 49
1.0
140
1.0
293
     1
141
0.0
294
     1
177
     0
142
1.0
295
     0
296
     0
143
0.125
271
     0
272
     9
273
     9
298
     0
  0
MLINESTYLE
  5
1C
102
{ACAD_REACTORS
330
1B
102
}
330
1B
100
AcDbMlineStyle
  2
STANDARD
 70
     0
  3

 62
     0
 51
90.0
 52
90.0
 71
     2
 49
0.5
 62
   256
  6
BYLAYER
 49
-0.5
 62
   256
  6
BYLAYER
  0
ACDBPLACEHOLDER
  5
4F1
102
{ACAD_REACTORS
330
4F0
102
}
330
4F0
  0
SCALE
  5
4F3
102
{ACAD_REACTORS
330
4F2
102
}
330
4F2
100
AcDbScale
 70
     0
300
1:1
140
1.0
141
1.0
290
     1
  0
SCALE
  5
4F4
102
{ACAD_REACTORS
330
4F2
102
}
330
4F2
100
AcDbScale
 70
     0
300
1:2
140
1.0
141
2.0
290
     0
  0
SCALE
  5
4F5
102
{ACAD_REACTORS
330
4F2
102
}
330
4F2
100
AcDbScale
 70
     0
300
1:4
140
1.0
141
4.0
290
     0
  0
SCALE
  5
4F6
102
{ACAD_REACTORS
330
4F2
102
}
330
4F2
100
AcDbScale
 70
     0
300
1:5
140
1.0
141
5.0
290
     0
  0
SCALE
  5
4F7
102
{ACAD_REACTORS
330
4F2
102
}
330
4F2
100
AcDbScale
 70
     0
300
1:8
140
1.0
141
8.0
290
     0
  0
SCALE
  5
4F8
102
{ACAD_REACTORS
330
4F2
102
}
330
4F2
100
AcDbScale
 70
     0
300
1:10
140
1.0
141
10.0
290
     0
  0
SCALE
  5
4F9
102
{ACAD_REACTORS
330
4F2
102
}
330
4F2
100
AcDbScale
 70
     0
300
1:16
140
1.0
141
16.0
290
     0
  0
SCALE
  5
4FA
102
{ACAD_REACTORS
330
4F2
102
}
330
4F2
100
AcDbScale
 70
     0
300
1:20
140
1.0
141
20.0
290
     0
  0
SCALE
  5
4FB
102
{ACAD_REACTORS
330
4F2
102
}
330
4F2
100
AcDbScale
 70
     0
300
1:30
140
1.0
141
30.0
290
     0
  0
SCALE
  5
4FC
102
{ACAD_REACTORS
330
4F2
102
}
330
4F2
100
AcDbScale
 70
     0
300
1:40
140
1.0
141
40.0
290
     0
  0
SCALE
  5
4FD
102
{ACAD_REACTORS
330
4F2
102
}
330
4F2
100
AcDbScale
 70
     0
300
1:50
140
1.0
141
50.0
290
     0
  0
SCALE
  5
4FE
102
{ACAD_REACTORS
330
4F2
102
}
330
4F2
100
AcDbScale
 70
     0
300
1:100
140
1.0
141
100.0
290
     0
  0
SCALE
  5
4FF
102
{ACAD_REACTORS
330
4F2
102
}
330
4F2
100
AcDbScale
 70
     0
300
2:1
140
2.0
141
1.0
290
     0
  0
SCALE
  5
500
102
{ACAD_REACTORS
330
4F2
102
}
330
4F2
100
AcDbScale
 70
     0
300
4:1
140
4.0
141
1.0
290
     0
  0
SCALE
  5
501
102
{ACAD_REACTORS
330
4F2
102
}
330
4F2
100
AcDbScale
 70
     0
300
8:1
140
8.0
141
1.0
290
     0
  0
SCALE
  5
502
102
{ACAD_REACTORS
330
4F2
102
}
330
4F2
100
AcDbScale
 70
     0
300
10:1
140
10.0
141
1.0
290
     0
  0
SCALE
  5
503
102
{ACAD_REACTORS
330
4F2
102
}
330
4F2
100
AcDbScale
 70
     0
300
100:1
140
100.0
141
1.0
290
     0
  0
SCALE
  5
504
102
{ACAD_REACTORS
330
4F2
102
}
330
4F2
100
AcDbScale
 70
     0
300
1/128" = 1'-0"
140
0.0078125
141
12.0
290
     0
  0
SCALE
  5
505
102
{ACAD_REACTORS
330
4F2
102
}
330
4F2
100
AcDbScale
 70
     0
300
1/64" = 1'-0"
140
0.015625
141
12.0
290
     0
  0
SCALE
  5
506
102
{ACAD_REACTORS
330
4F2
102
}
330
4F2
100
AcDbScale
 70
     0
300
1/32" = 1'-0"
140
0.03125
141
12.0
290
     0
  0
SCALE
  5
507
102
{ACAD_REACTORS
330
4F2
102
}
330
4F2
100
AcDbScale
 70
     0
300
1/16" = 1'-0"
140
0.0625
141
12.0
290
     0
  0
SCALE
  5
508
102
{ACAD_REACTORS
330
4F2
102
}
330
4F2
100
AcDbScale
 70
     0
300
3/32" = 1'-0"
140
0.09375
141
12.0
290
     0
  0
SCALE
  5
509
102
{ACAD_REACTORS
330
4F2
102
}
330
4F2
100
AcDbScale
 70
     0
300
1/8" = 1'-0"
140
0.125
141
12.0
290
     0
  0
SCALE
  5
50A
102
{ACAD_REACTORS
330
4F2
102
}
330
4F2
100
AcDbScale
 70
     0
300
3/16" = 1'-0"
140
0.1875
141
12.0
290
     0
  0
SCALE
  5
50B
102
{ACAD_REACTORS
330
4F2
102
}
330
4F2
100
AcDbScale
 70
     0
300
1/4" = 1'-0"
140
0.25
141
12.0
290
     0
  0
SCALE
  5
50C
102
{ACAD_REACTORS
330
4F2
102
}
330
4F2
100
AcDbScale
 70
     0
300
3/8" = 1'-0"
140
0.375
141
12.0
290
     0
  0
SCALE
  5
50D
102
{ACAD_REACTORS
330
4F2
102
}
330
4F2
100
AcDbScale
 70
     0
300
1/2" = 1'-0"
140
0.5
141
12.0
290
     0
  0
SCALE
  5
50E
102
{ACAD_REACTORS
330
4F2
102
}
330
4F2
100
AcDbScale
 70
     0
300
3/4" = 1'-0"
140
0.75
141
12.0
290
     0
  0
SCALE
  5
50F
102
{ACAD_REACTORS
330
4F2
102
}
330
4F2
100
AcDbScale
 70
     0
300
1" = 1'-0"
140
1.0
141
12.0
290
     0
  0
SCALE
  5
510
102
{ACAD_REACTORS
330
4F2
102
}
330
4F2
100
AcDbScale
 70
     0
300
1-1/2" = 1'-0"
140
1.5
141
12.0
290
     0
  0
SCALE
  5
511
102
{ACAD_REACTORS
330
4F2
102
}
330
4F2
100
AcDbScale
 70
     0
300
3" = 1'-0"
140
3.0
141
12.0
290
     0
  0
SCALE
  5
512
102
{ACAD_REACTORS
330
4F2
102
}
330
4F2
100
AcDbScale
 70
     0
300
6" = 1'-0"
140
6.0
141
12.0
290
     0
  0
SCALE
  5
513
102
{ACAD_REACTORS
330
4F2
102
}
330
4F2
100
AcDbScale
 70
     0
300
1'-0" = 1'-0"
140
12.0
141
12.0
290
     0
  0
TABLESTYLE
  5
535
102
{ACAD_REACTORS
330
534
102
}
102
{ACAD_XDICTIONARY
360
27C8
102
}
330
534
100
AcDbTableStyle
  3
Standard
 70
     0
 71
     0
 40
0.06
 41
0.06
280
     0
281
     0
  7
STANDARD
140
0.18
170
     2
 62
     0
 63
   257
283
     0
 90
        4
 91
        0
  1

274
    -2
284
     1
 64
     0
275
    -2
285
     1
 65
     0
276
    -2
286
     1
 66
     0
277
    -2
287
     1
 67
     0
278
    -2
288
     1
 68
     0
279
    -2
289
     1
 69
     0
  7
STANDARD
140
0.25
170
     5
 62
     0
 63
   257
283
     0
 90
        4
 91
        0
  1

274
    -2
284
     1
 64
     0
275
    -2
285
     1
 65
     0
276
    -2
286
     1
 66
     0
277
    -2
287
     1
 67
     0
278
    -2
288
     1
 68
     0
279
    -2
289
     1
 69
     0
  7
STANDARD
140
0.18
170
     5
 62
     0
 63
   257
283
     0
 90
        4
 91
        0
  1

274
    -2
284
     1
 64
     0
275
    -2
285
     1
 65
     0
276
    -2
286
     1
 66
     0
277
    -2
287
     1
 67
     0
278
    -2
288
     1
 68
     0
279
    -2
289
     1
 69
     0
  0
VISUALSTYLE
  5
51C
102
{ACAD_REACTORS
330
517
102
}
330
517
100
AcDbVisualStyle
  2
2dWireframe
 70
     4
177
     3
291
     0
 70
    58
 90
        0
176
     1
 90
        2
176
     1
 90
        0
176
     1
 90
        0
176
     1
 40
0.6
176
     1
 40
30.0
176
     1
 62
     7
420
 16777215
176
     1
 90
        1
176
     1
 90
        4
176
     1
 62
     7
176
     1
 62
   257
176
     1
 90
        1
176
     1
 90
        1
176
     1
 40
1.0
176
     1
 90
        0
176
     1
 62
   257
176
     1
 40
1.0
176
     1
 90
        1
176
     1
 90
        6
176
     1
 90
        2
176
     1
 62
     7
176
     1
 90
        5
176
     1
 90
        0
176
     1
 90
        0
176
     1
290
     0
176
     1
 90
        1
176
     1
 40
0.0
176
     1
 90
        0
176
     1
290
     1
176
     1
290
     1
176
     1
290
     0
176
     1
290
     0
176
     1
290
     0
176
     1
290
     0
176
     1
290
     0
176
     1
290
     0
176
     1
290
     0
176
     1
 90
       50
176
     1
 40
0.0
176
     1
 40
1.0
176
     1
 90
        0
176
     1
 62
    18
420
        0
176
     1
 90
       50
176
     1
 90
        3
176
     1
 62
     5
420
      255
176
     1
290
     0
176
     1
 90
       50
176
     1
 90
       50
176
     1
 90
       50
176
     1
290
     0
176
     1
 90
       50
176
     1
 62
   256
176
     0
 40
1.0
176
     0
 90
        2
176
     1
  1
strokes_ogs.tif
176
     1
290
     0
176
     1
 40
1.0
176
     1
 40
1.0
176
     1
  0
VISUALSTYLE
  5
51F
102
{ACAD_REACTORS
330
517
102
}
330
517
100
AcDbVisualStyle
  2
Basic
 70
     7
177
     3
291
     1
 70
    58
 90
        1
176
     1
 90
        0
176
     1
 90
        1
176
     1
 90
        0
176
     1
 40
0.6
176
     1
 40
30.0
176
     1
 62
     7
420
 16777215
176
     1
 90
        0
176
     1
 90
        4
176
     1
 62
     7
176
     1
 62
   257
176
     1
 90
        1
176
     1
 90
        1
176
     1
 40
1.0
176
     1
 90
        8
176
     1
 62
     7
176
     1
 40
1.0
176
     1
 90
        1
176
     1
 90
        6
176
     1
 90
        2
176
     1
 62
     7
176
     1
 90
        5
176
     1
 90
        0
176
     1
 90
        0
176
     1
290
     0
176
     1
 90
        1
176
     1
 40
0.0
176
     1
 90
        0
176
     1
290
     0
176
     1
290
     1
176
     1
290
     1
176
     1
290
     0
176
     1
290
     0
176
     1
290
     0
176
     1
290
     0
176
     1
290
     0
176
     1
290
     0
176
     1
 90
       50
176
     1
 40
0.0
176
     1
 40
1.0
176
     1
 90
        0
176
     1
 62
    18
420
        0
176
     1
 90
       50
176
     1
 90
        3
176
     1
 62
     5
420
      255
176
     1
290
     0
176
     1
 90
       50
176
     1
 90
       50
176
     1
 90
       50
176
     1
290
     0
176
     1
 90
       50
176
     1
 62
   256
176
     0
 40
1.0
176
     0
 90
        2
176
     1
  1
strokes_ogs.tif
176
     1
290
     0
176
     1
 40
1.0
176
     1
 40
1.0
176
     1
  0
VISUALSTYLE
  5
523
102
{ACAD_REACTORS
330
517
102
}
330
517
100
AcDbVisualStyle
  2
Brighten
 70
    12
177
     3
291
     1
 70
    58
 90
        2
176
     1
 90
        2
176
     1
 90
        0
176
     1
 90
        0
176
     1
 40
0.6
176
     1
 40
30.0
176
     1
 62
     7
420
 16777215
176
     1
 90
        1
176
     1
 90
        4
176
     1
 62
     7
176
     1
 62
   257
176
     1
 90
        1
176
     1
 90
        1
176
     1
 40
1.0
176
     1
 90
        8
176
     1
 62
     7
176
     1
 40
1.0
176
     1
 90
        1
176
     1
 90
        6
176
     1
 90
        2
176
     1
 62
     7
176
     1
 90
        5
176
     1
 90
        0
176
     1
 90
        0
176
     1
290
     0
176
     1
 90
        1
176
     1
 40
50.0
176
     1
 90
        0
176
     1
290
     0
176
     1
290
     1
176
     1
290
     1
176
     1
290
     0
176
     1
290
     0
176
     1
290
     0
176
     1
290
     0
176
     1
290
     0
176
     1
290
     0
176
     1
 90
       50
176
     1
 40
0.0
176
     1
 40
1.0
176
     1
 90
        0
176
     1
 62
    18
420
        0
176
     1
 90
       50
176
     1
 90
        3
176
     1
 62
     5
420
      255
176
     1
290
     0
176
     1
 90
       50
176
     1
 90
       50
176
     1
 90
       50
176
     1
290
     0
176
     1
 90
       50
176
     1
 62
   256
176
     0
 40
1.0
176
     0
 90
        2
176
     1
  1
strokes_ogs.tif
176
     1
290
     0
176
     1
 40
1.0
176
     1
 40
1.0
176
     1
  0
VISUALSTYLE
  5
527
102
{ACAD_REACTORS
330
517
102
}
330
517
100
AcDbVisualStyle
  2
ColorChange
 70
    16
177
     3
291
     1
 70
    58
 90
        2
176
     1
 90
        2
176
     1
 90
        3
176
     1
 90
        0
176
     1
 40
0.6
176
     1
 40
30.0
176
     1
 62
     8
420
  8421504
176
     1
 90
        1
176
     1
 90
        4
176
     1
 62
     7
176
     1
 62
   257
176
     1
 90
        1
176
     1
 90
        1
176
     1
 40
1.0
176
     1
 90
        8
176
     1
 62
     8
420
  8421504
176
     1
 40
1.0
176
     1
 90
        1
176
     1
 90
        6
176
     1
 90
        2
176
     1
 62
     7
176
     1
 90
        5
176
     1
 90
        0
176
     1
 90
        0
176
     1
290
     0
176
     1
 90
        1
176
     1
 40
0.0
176
     1
 90
        0
176
     1
290
     0
176
     1
290
     1
176
     1
290
     1
176
     1
290
     0
176
     1
290
     0
176
     1
290
     0
176
     1
290
     0
176
     1
290
     0
176
     1
290
     0
176
     1
 90
       50
176
     1
 40
0.0
176
     1
 40
1.0
176
     1
 90
        0
176
     1
 62
    18
420
        0
176
     1
 90
       50
176
     1
 90
        3
176
     1
 62
     5
420
      255
176
     1
290
     0
176
     1
 90
       50
176
     1
 90
       50
176
     1
 90
       50
176
     1
290
     0
176
     1
 90
       50
176
     1
 62
   256
176
     0
 40
1.0
176
     0
 90
        2
176
     1
  1
strokes_ogs.tif
176
     1
290
     0
176
     1
 40
1.0
176
     1
 40
1.0
176
     1
  0
VISUALSTYLE
  5
521
102
{ACAD_REACTORS
330
517
102
}
330
517
100
AcDbVisualStyle
  2
Conceptual
 70
     9
177
     3
291
     0
 70
    58
 90
        3
176
     1
 90
        2
176
     1
 90
        0
176
     1
 90
        0
176
     1
 40
0.6
176
     1
 40
30.0
176
     1
 62
     7
420
 16777215
176
     1
 90
        2
176
     1
 90
        2
176
     1
 62
     7
176
     1
 62
   257
176
     1
 90
        1
176
     1
 90
        1
176
     1
 40
179.0
176
     1
 90
        8
176
     1
 62
     7
176
     1
 40
1.0
176
     1
 90
        1
176
     1
 90
        6
176
     1
 90
        2
176
     1
 62
     7
176
     1
 90
        3
176
     1
 90
        0
176
     1
 90
        0
176
     1
290
     0
176
     1
 90
        1
176
     1
 40
0.0
176
     1
 90
        0
176
     1
290
     0
176
     1
290
     1
176
     1
290
     1
176
     1
290
     0
176
     1
290
     0
176
     1
290
     0
176
     1
290
     0
176
     1
290
     0
176
     1
290
     0
176
     1
 90
       50
176
     1
 40
0.0
176
     1
 40
1.0
176
     1
 90
        0
176
     1
 62
    18
420
        0
176
     1
 90
       50
176
     1
 90
        3
176
     1
 62
     5
420
      255
176
     1
290
     0
176
     1
 90
       50
176
     1
 90
       50
176
     1
 90
       50
176
     1
290
     0
176
     1
 90
       50
176
     1
 62
   256
176
     0
 40
1.0
176
     0
 90
        2
176
     1
  1
strokes_ogs.tif
176
     1
290
     0
176
     1
 40
1.0
176
     1
 40
1.0
176
     1
  0
VISUALSTYLE
  5
522
102
{ACAD_REACTORS
330
517
102
}
330
517
100
AcDbVisualStyle
  2
Dim
 70
    11
177
     3
291
     1
 70
    58
 90
        2
176
     1
 90
        2
176
     1
 90
        0
176
     1
 90
        0
176
     1
 40
0.6
176
     1
 40
30.0
176
     1
 62
     7
420
 16777215
176
     1
 90
        1
176
     1
 90
        4
176
     1
 62
     7
176
     1
 62
   257
176
     1
 90
        1
176
     1
 90
        1
176
     1
 40
1.0
176
     1
 90
        8
176
     1
 62
     7
176
     1
 40
1.0
176
     1
 90
        1
176
     1
 90
        6
176
     1
 90
        2
176
     1
 62
     7
176
     1
 90
        5
176
     1
 90
        0
176
     1
 90
        0
176
     1
290
     0
176
     1
 90
        1
176
     1
 40
-50.0
176
     1
 90
        0
176
     1
290
     0
176
     1
290
     1
176
     1
290
     1
176
     1
290
     0
176
     1
290
     0
176
     1
290
     0
176
     1
290
     0
176
     1
290
     0
176
     1
290
     0
176
     1
 90
       50
176
     1
 40
0.0
176
     1
 40
1.0
176
     1
 90
        0
176
     1
 62
    18
420
        0
176
     1
 90
       50
176
     1
 90
        3
176
     1
 62
     5
420
      255
176
     1
290
     0
176
     1
 90
       50
176
     1
 90
       50
176
     1
 90
       50
176
     1
290
     0
176
     1
 90
       50
176
     1
 62
   256
176
     0
 40
1.0
176
     0
 90
        2
176
     1
  1
strokes_ogs.tif
176
     1
290
     0
176
     1
 40
1.0
176
     1
 40
1.0
176
     1
  0
VISUALSTYLE
  5
52A
102
{ACAD_REACTORS
330
517
102
}
330
517
100
AcDbVisualStyle
  2
EdgeColorOff
 70
    22
177
     3
291
     1
 70
    58
 90
        2
176
     1
 90
        2
176
     1
 90
        0
176
     1
 90
        0
176
     1
 40
0.6
176
     1
 40
30.0
176
     1
 62
     7
420
 16777215
176
     1
 90
        1
176
     1
 90
        4
176
     1
 62
     7
176
     1
 62
   257
176
     1
 90
        1
176
     1
 90
        1
176
     1
 40
1.0
176
     1
 90
        8
176
     1
 62
     7
176
     1
 40
1.0
176
     1
 90
        1
176
     1
 90
        6
176
     1
 90
        2
176
     1
 62
     7
176
     1
 90
        5
176
     1
 90
        0
176
     1
 90
        0
176
     1
290
     0
176
     1
 90
        1
176
     1
 40
0.0
176
     1
 90
        0
176
     1
290
     0
176
     1
290
     1
176
     1
290
     1
176
     1
290
     0
176
     1
290
     0
176
     1
290
     0
176
     1
290
     0
176
     1
290
     0
176
     1
290
     0
176
     1
 90
       50
176
     1
 40
0.0
176
     1
 40
1.0
176
     1
 90
        0
176
     1
 62
    18
420
        0
176
     1
 90
       50
176
     1
 90
        3
176
     1
 62
     5
420
      255
176
     1
290
     0
176
     1
 90
       50
176
     1
 90
       50
176
     1
 90
       50
176
     1
290
     0
176
     1
 90
       50
176
     1
 62
   256
176
     0
 40
1.0
176
     0
 90
        2
176
     1
  1
strokes_ogs.tif
176
     1
290
     0
176
     1
 40
1.0
176
     1
 40
1.0
176
     1
  0
VISUALSTYLE
  5
526
102
{ACAD_REACTORS
330
517
102
}
330
517
100
AcDbVisualStyle
  2
Facepattern
 70
    15
177
     3
291
     1
 70
    58
 90
        2
176
     1
 90
        2
176
     1
 90
        0
176
     1
 90
        0
176
     1
 40
0.6
176
     1
 40
30.0
176
     1
 62
     7
420
 16777215
176
     1
 90
        1
176
     1
 90
        4
176
     1
 62
     7
176
     1
 62
   257
176
     1
 90
        1
176
     1
 90
        1
176
     1
 40
1.0
176
     1
 90
        8
176
     1
 62
     7
176
     1
 40
1.0
176
     1
 90
        1
176
     1
 90
        6
176
     1
 90
        2
176
     1
 62
     7
176
     1
 90
        5
176
     1
 90
        0
176
     1
 90
        0
176
     1
290
     0
176
     1
 90
        1
176
     1
 40
0.0
176
     1
 90
        0
176
     1
290
     0
176
     1
290
     1
176
     1
290
     1
176
     1
290
     0
176
     1
290
     0
176
     1
290
     0
176
     1
290
     0
176
     1
290
     0
176
     1
290
     0
176
     1
 90
       50
176
     1
 40
0.0
176
     1
 40
1.0
176
     1
 90
        0
176
     1
 62
    18
420
        0
176
     1
 90
       50
176
     1
 90
        3
176
     1
 62
     5
420
      255
176
     1
290
     0
176
     1
 90
       50
176
     1
 90
       50
176
     1
 90
       50
176
     1
290
     0
176
     1
 90
       50
176
     1
 62
   256
176
     0
 40
1.0
176
     0
 90
        2
176
     1
  1
strokes_ogs.tif
176
     1
290
     0
176
     1
 40
1.0
176
     1
 40
1.0
176
     1
  0
VISUALSTYLE
  5
518
102
{ACAD_REACTORS
330
517
102
}
330
517
100
AcDbVisualStyle
  2
Flat
 70
     0
177
     3
291
     1
 70
    58
 90
        2
176
     1
 90
        1
176
     1
 90
        1
176
     1
 90
        2
176
     1
 40
0.6
176
     1
 40
30.0
176
     1
 62
     7
420
 16777215
176
     1
 90
        0
176
     1
 90
        0
176
     1
 62
     7
176
     1
 62
   257
176
     1
 90
        1
176
     1
 90
        1
176
     1
 40
1.0
176
     1
 90
        8
176
     1
 62
     7
176
     1
 40
1.0
176
     1
 90
        1
176
     1
 90
        6
176
     1
 90
        2
176
     1
 62
     7
176
     1
 90
        5
176
     1
 90
        0
176
     1
 90
        0
176
     1
290
     0
176
     1
 90
       13
176
     1
 40
0.0
176
     1
 90
        0
176
     1
290
     0
176
     1
290
     1
176
     1
290
     1
176
     1
290
     0
176
     1
290
     0
176
     1
290
     0
176
     1
290
     0
176
     1
290
     0
176
     1
290
     0
176
     1
 90
       50
176
     1
 40
0.0
176
     1
 40
1.0
176
     1
 90
        0
176
     1
 62
    18
420
        0
176
     1
 90
       50
176
     1
 90
        3
176
     1
 62
     5
420
      255
176
     1
290
     0
176
     1
 90
       50
176
     1
 90
       50
176
     1
 90
       50
176
     1
290
     0
176
     1
 90
       50
176
     1
 62
   256
176
     0
 40
1.0
176
     0
 90
        2
176
     1
  1
strokes_ogs.tif
176
     1
290
     0
176
     1
 40
1.0
176
     1
 40
1.0
176
     1
  0
VISUALSTYLE
  5
519
102
{ACAD_REACTORS
330
517
102
}
330
517
100
AcDbVisualStyle
  2
FlatWithEdges
 70
     1
177
     3
291
     1
 70
    58
 90
        2
176
     1
 90
        1
176
     1
 90
        1
176
     1
 90
        2
176
     1
 40
0.6
176
     1
 40
30.0
176
     1
 62
     7
420
 16777215
176
     1
 90
        1
176
     1
 90
        0
176
     1
 62
     7
176
     1
 62
   257
176
     1
 90
        1
176
     1
 90
        1
176
     1
 40
1.0
176
     1
 90
        0
176
     1
 62
   257
176
     1
 40
1.0
176
     1
 90
        1
176
     1
 90
        6
176
     1
 90
        2
176
     1
 62
     7
176
     1
 90
        5
176
     1
 90
        0
176
     1
 90
        0
176
     1
290
     0
176
     1
 90
       13
176
     1
 40
0.0
176
     1
 90
        0
176
     1
290
     0
176
     1
290
     1
176
     1
290
     1
176
     1
290
     0
176
     1
290
     0
176
     1
290
     0
176
     1
290
     0
176
     1
290
     0
176
     1
290
     0
176
     1
 90
       50
176
     1
 40
0.0
176
     1
 40
1.0
176
     1
 90
        0
176
     1
 62
    18
420
        0
176
     1
 90
       50
176
     1
 90
        3
176
     1
 62
     5
420
      255
176
     1
290
     0
176
     1
 90
       50
176
     1
 90
       50
176
     1
 90
       50
176
     1
290
     0
176
     1
 90
       50
176
     1
 62
   256
176
     0
 40
1.0
176
     0
 90
        2
176
     1
  1
strokes_ogs.tif
176
     1
290
     0
176
     1
 40
1.0
176
     1
 40
1.0
176
     1
  0
VISUALSTYLE
  5
51A
102
{ACAD_REACTORS
330
517
102
}
330
517
100
AcDbVisualStyle
  2
Gouraud
 70
     2
177
     3
291
     1
 70
    58
 90
        2
176
     1
 90
        2
176
     1
 90
        1
176
     1
 90
        2
176
     1
 40
0.6
176
     1
 40
30.0
176
     1
 62
     7
420
 16777215
176
     1
 90
        0
176
     1
 90
        0
176
     1
 62
     7
176
     1
 62
   257
176
     1
 90
        1
176
     1
 90
        1
176
     1
 40
1.0
176
     1
 90
        0
176
     1
 62
     7
176
     1
 40
1.0
176
     1
 90
        1
176
     1
 90
        6
176
     1
 90
        2
176
     1
 62
     7
176
     1
 90
        5
176
     1
 90
        0
176
     1
 90
        0
176
     1
290
     0
176
     1
 90
       13
176
     1
 40
0.0
176
     1
 90
        0
176
     1
290
     0
176
     1
290
     1
176
     1
290
     1
176
     1
290
     0
176
     1
290
     0
176
     1
290
     0
176
     1
290
     0
176
     1
290
     0
176
     1
290
     0
176
     1
 90
       50
176
     1
 40
0.0
176
     1
 40
1.0
176
     1
 90
        0
176
     1
 62
    18
420
        0
176
     1
 90
       50
176
     1
 90
        3
176
     1
 62
     5
420
      255
176
     1
290
     0
176
     1
 90
       50
176
     1
 90
       50
176
     1
 90
       50
176
     1
290
     0
176
     1
 90
       50
176
     1
 62
   256
176
     0
 40
1.0
176
     0
 90
        2
176
     1
  1
strokes_ogs.tif
176
     1
290
     0
176
     1
 40
1.0
176
     1
 40
1.0
176
     1
  0
VISUALSTYLE
  5
51B
102
{ACAD_REACTORS
330
517
102
}
330
517
100
AcDbVisualStyle
  2
GouraudWithEdges
 70
     3
177
     3
291
     1
 70
    58
 90
        2
176
     1
 90
        2
176
     1
 90
        1
176
     1
 90
        2
176
     1
 40
0.6
176
     1
 40
30.0
176
     1
 62
     7
420
 16777215
176
     1
 90
        1
176
     1
 90
        0
176
     1
 62
     7
176
     1
 62
   257
176
     1
 90
        1
176
     1
 90
        1
176
     1
 40
1.0
176
     1
 90
        0
176
     1
 62
   257
176
     1
 40
1.0
176
     1
 90
        1
176
     1
 90
        6
176
     1
 90
        2
176
     1
 62
     7
176
     1
 90
        5
176
     1
 90
        0
176
     1
 90
        0
176
     1
290
     0
176
     1
 90
       13
176
     1
 40
0.0
176
     1
 90
        0
176
     1
290
     0
176
     1
290
     1
176
     1
290
     1
176
     1
290
     0
176
     1
290
     0
176
     1
290
     0
176
     1
290
     0
176
     1
290
     0
176
     1
290
     0
176
     1
 90
       50
176
     1
 40
0.0
176
     1
 40
1.0
176
     1
 90
        0
176
     1
 62
    18
420
        0
176
     1
 90
       50
176
     1
 90
        3
176
     1
 62
     5
420
      255
176
     1
290
     0
176
     1
 90
       50
176
     1
 90
       50
176
     1
 90
       50
176
     1
290
     0
176
     1
 90
       50
176
     1
 62
   256
176
     0
 40
1.0
176
     0
 90
        2
176
     1
  1
strokes_ogs.tif
176
     1
290
     0
176
     1
 40
1.0
176
     1
 40
1.0
176
     1
  0
VISUALSTYLE
  5
51E
102
{ACAD_REACTORS
330
517
102
}
330
517
100
AcDbVisualStyle
  2
Hidden
 70
     6
177
     3
291
     0
 70
    58
 90
        1
176
     1
 90
        2
176
     1
 90
        2
176
     1
 90
        0
176
     1
 40
0.6
176
     1
 40
30.0
176
     1
 62
     7
420
 16777215
176
     1
 90
        2
176
     1
 90
        2
176
     1
 62
     7
176
     1
 62
   257
176
     1
 90
        2
176
     1
 90
        1
176
     1
 40
40.0
176
     1
 90
        0
176
     1
 62
   257
176
     1
 40
1.0
176
     1
 90
        1
176
     1
 90
        6
176
     1
 90
        2
176
     1
 62
     7
176
     1
 90
        3
176
     1
 90
        0
176
     1
 90
        0
176
     1
290
     0
176
     1
 90
        1
176
     1
 40
0.0
176
     1
 90
        0
176
     1
290
     0
176
     1
290
     1
176
     1
290
     1
176
     1
290
     0
176
     1
290
     0
176
     1
290
     0
176
     1
290
     0
176
     1
290
     0
176
     1
290
     0
176
     1
 90
       50
176
     1
 40
0.0
176
     1
 40
1.0
176
     1
 90
        0
176
     1
 62
    18
420
        0
176
     1
 90
       50
176
     1
 90
        3
176
     1
 62
     5
420
      255
176
     1
290
     0
176
     1
 90
       50
176
     1
 90
       50
176
     1
 90
       50
176
     1
290
     0
176
     1
 90
       50
176
     1
 62
   256
176
     0
 40
1.0
176
     0
 90
        2
176
     1
  1
strokes_ogs.tif
176
     1
290
     0
176
     1
 40
1.0
176
     1
 40
1.0
176
     1
  0
VISUALSTYLE
  5
528
102
{ACAD_REACTORS
330
517
102
}
330
517
100
AcDbVisualStyle
  2
JitterOff
 70
    20
177
     3
291
     1
 70
    58
 90
        2
176
     1
 90
        2
176
     1
 90
        0
176
     1
 90
        0
176
     1
 40
0.6
176
     1
 40
30.0
176
     1
 62
     7
420
 16777215
176
     1
 90
        1
176
     1
 90
        4
176
     1
 62
     7
176
     1
 62
   257
176
     1
 90
        1
176
     1
 90
        1
176
     1
 40
1.0
176
     1
 90
       10
176
     1
 62
     7
176
     1
 40
1.0
176
     1
 90
        1
176
     1
 90
        6
176
     1
 90
        2
176
     1
 62
     7
176
     1
 90
        5
176
     1
 90
        0
176
     1
 90
        0
176
     1
290
     0
176
     1
 90
        1
176
     1
 40
0.0
176
     1
 90
        0
176
     1
290
     0
176
     1
290
     1
176
     1
290
     1
176
     1
290
     0
176
     1
290
     0
176
     1
290
     0
176
     1
290
     0
176
     1
290
     0
176
     1
290
     0
176
     1
 90
       50
176
     1
 40
0.0
176
     1
 40
1.0
176
     1
 90
        0
176
     1
 62
    18
420
        0
176
     1
 90
       50
176
     1
 90
        3
176
     1
 62
     5
420
      255
176
     1
290
     0
176
     1
 90
       50
176
     1
 90
       50
176
     1
 90
       50
176
     1
290
     0
176
     1
 90
       50
176
     1
 62
   256
176
     0
 40
1.0
176
     0
 90
        2
176
     1
  1
strokes_ogs.tif
176
     1
290
     0
176
     1
 40
1.0
176
     1
 40
1.0
176
     1
  0
VISUALSTYLE
  5
525
102
{ACAD_REACTORS
330
517
102
}
330
517
100
AcDbVisualStyle
  2
Linepattern
 70
    14
177
     3
291
     1
 70
    58
 90
        2
176
     1
 90
        2
176
     1
 90
        0
176
     1
 90
        0
176
     1
 40
0.6
176
     1
 40
30.0
176
     1
 62
     7
420
 16777215
176
     1
 90
        1
176
     1
 90
        4
176
     1
 62
     7
176
     1
 62
   257
176
     1
 90
        7
176
     1
 90
        7
176
     1
 40
1.0
176
     1
 90
        8
176
     1
 62
     7
176
     1
 40
1.0
176
     1
 90
        1
176
     1
 90
        6
176
     1
 90
        2
176
     1
 62
     7
176
     1
 90
        5
176
     1
 90
        0
176
     1
 90
        0
176
     1
290
     0
176
     1
 90
        1
176
     1
 40
0.0
176
     1
 90
        0
176
     1
290
     0
176
     1
290
     1
176
     1
290
     1
176
     1
290
     0
176
     1
290
     0
176
     1
290
     0
176
     1
290
     0
176
     1
290
     0
176
     1
290
     0
176
     1
 90
       50
176
     1
 40
0.0
176
     1
 40
1.0
176
     1
 90
        0
176
     1
 62
    18
420
        0
176
     1
 90
       50
176
     1
 90
        3
176
     1
 62
     5
420
      255
176
     1
290
     0
176
     1
 90
       50
176
     1
 90
       50
176
     1
 90
       50
176
     1
290
     0
176
     1
 90
       50
176
     1
 62
   256
176
     0
 40
1.0
176
     0
 90
        2
176
     1
  1
strokes_ogs.tif
176
     1
290
     0
176
     1
 40
1.0
176
     1
 40
1.0
176
     1
  0
VISUALSTYLE
  5
529
102
{ACAD_REACTORS
330
517
102
}
330
517
100
AcDbVisualStyle
  2
OverhangOff
 70
    21
177
     3
291
     1
 70
    58
 90
        2
176
     1
 90
        2
176
     1
 90
        0
176
     1
 90
        0
176
     1
 40
0.6
176
     1
 40
30.0
176
     1
 62
     7
420
 16777215
176
     1
 90
        1
176
     1
 90
        4
176
     1
 62
     7
176
     1
 62
   257
176
     1
 90
        1
176
     1
 90
        1
176
     1
 40
1.0
176
     1
 90
        9
176
     1
 62
     7
176
     1
 40
1.0
176
     1
 90
        1
176
     1
 90
        6
176
     1
 90
        2
176
     1
 62
     7
176
     1
 90
        5
176
     1
 90
        0
176
     1
 90
        0
176
     1
290
     0
176
     1
 90
        1
176
     1
 40
0.0
176
     1
 90
        0
176
     1
290
     0
176
     1
290
     1
176
     1
290
     1
176
     1
290
     0
176
     1
290
     0
176
     1
290
     0
176
     1
290
     0
176
     1
290
     0
176
     1
290
     0
176
     1
 90
       50
176
     1
 40
0.0
176
     1
 40
1.0
176
     1
 90
        0
176
     1
 62
    18
420
        0
176
     1
 90
       50
176
     1
 90
        3
176
     1
 62
     5
420
      255
176
     1
290
     0
176
     1
 90
       50
176
     1
 90
       50
176
     1
 90
       50
176
     1
290
     0
176
     1
 90
       50
176
     1
 62
   256
176
     0
 40
1.0
176
     0
 90
        2
176
     1
  1
strokes_ogs.tif
176
     1
290
     0
176
     1
 40
1.0
176
     1
 40
1.0
176
     1
  0
VISUALSTYLE
  5
520
102
{ACAD_REACTORS
330
517
102
}
330
517
100
AcDbVisualStyle
  2
Realistic
 70
     8
177
     3
291
     0
 70
    58
 90
        2
176
     1
 90
        3
176
     1
 90
        0
176
     1
 90
        2
176
     1
 40
0.6
176
     1
 40
30.0
176
     1
 62
     7
420
 16777215
176
     1
 90
        0
176
     1
 90
        0
176
     1
 62
     7
176
     1
 62
   257
176
     1
 90
        1
176
     1
 90
        1
176
     1
 40
1.0
176
     1
 90
        8
176
     1
 62
   257
176
     1
 40
1.0
176
     1
 90
        1
176
     1
 90
        6
176
     1
 90
        2
176
     1
 62
     7
176
     1
 90
        3
176
     1
 90
        0
176
     1
 90
        0
176
     1
290
     0
176
     1
 90
       13
176
     1
 40
0.0
176
     1
 90
        0
176
     1
290
     0
176
     1
290
     1
176
     1
290
     1
176
     1
290
     0
176
     1
290
     0
176
     1
290
     0
176
     1
290
     0
176
     1
290
     0
176
     1
290
     0
176
     1
 90
       50
176
     1
 40
0.0
176
     1
 40
1.0
176
     1
 90
        0
176
     1
 62
    18
420
        0
176
     1
 90
       50
176
     1
 90
        3
176
     1
 62
     5
420
      255
176
     1
290
     0
176
     1
 90
       50
176
     1
 90
       50
176
     1
 90
       50
176
     1
290
     0
176
     1
 90
       50
176
     1
 62
   256
176
     0
 40
1.0
176
     0
 90
        2
176
     1
  1
strokes_ogs.tif
176
     1
290
     0
176
     1
 40
1.0
176
     1
 40
1.0
176
     1
  0
VISUALSTYLE
  5
52F
102
{ACAD_REACTORS
330
517
102
}
330
517
100
AcDbVisualStyle
  2
Shaded
 70
    27
177
     3
291
     0
 70
    58
 90
        2
176
     1
 90
        2
176
     1
 90
        1
176
     1
 90
        2
176
     1
 40
0.6
176
     1
 40
30.0
176
     1
 62
     7
420
 16777215
176
     1
 90
        0
176
     1
 90
        4
176
     1
 62
     7
176
     1
 62
   257
176
     1
 90
        1
176
     1
 90
        1
176
     1
 40
1.0
176
     1
 90
        8
176
     1
 62
   257
176
     1
 40
1.0
176
     1
 90
        1
176
     1
 90
        6
176
     1
 90
        2
176
     1
 62
     8
420
  7895160
176
     1
 90
        3
176
     1
 90
        0
176
     1
 90
        0
176
     1
290
     0
176
     1
 90
        5
176
     1
 40
0.0
176
     1
 90
        0
176
     1
290
     0
176
     1
290
     1
176
     1
290
     1
176
     1
290
     0
176
     1
290
     0
176
     1
290
     0
176
     1
290
     0
176
     1
290
     0
176
     1
290
     0
176
     1
 90
       50
176
     1
 40
0.0
176
     1
 40
1.0
176
     1
 90
        0
176
     1
 62
    18
420
        0
176
     1
 90
       50
176
     1
 90
        3
176
     1
 62
     5
420
      255
176
     1
290
     0
176
     1
 90
       50
176
     1
 90
       50
176
     1
 90
       50
176
     1
290
     0
176
     1
 90
       50
176
     1
 62
   256
176
     0
 40
1.0
176
     0
 90
        2
176
     1
  1
strokes_ogs.tif
176
     1
290
     0
176
     1
 40
1.0
176
     1
 40
1.0
176
     1
  0
VISUALSTYLE
  5
52E
102
{ACAD_REACTORS
330
517
102
}
330
517
100
AcDbVisualStyle
  2
Shaded with edges
 70
    26
177
     3
291
     0
 70
    58
 90
        2
176
     1
 90
        2
176
     1
 90
        1
176
     1
 90
        2
176
     1
 40
0.6
176
     1
 40
30.0
176
     1
 62
     7
420
 16777215
176
     1
 90
        1
176
     1
 90
       10
176
     1
 62
     7
176
     1
 62
   257
176
     1
 90
        2
176
     1
 90
        1
176
     1
 40
1.0
176
     1
 90
        8
176
     1
 62
   257
176
     1
 40
1.0
176
     1
 90
        1
176
     1
 90
        6
176
     1
 90
        2
176
     1
 62
     7
176
     1
 90
        3
176
     1
 90
        0
176
     1
 90
        0
176
     1
290
     0
176
     1
 90
        5
176
     1
 40
0.0
176
     1
 90
        0
176
     1
290
     0
176
     1
290
     1
176
     1
290
     1
176
     1
290
     0
176
     1
290
     0
176
     1
290
     0
176
     1
290
     0
176
     1
290
     0
176
     1
290
     0
176
     1
 90
       50
176
     1
 40
0.0
176
     1
 40
1.0
176
     1
 90
        0
176
     1
 62
    18
420
        0
176
     1
 90
       50
176
     1
 90
        3
176
     1
 62
     5
420
      255
176
     1
290
     0
176
     1
 90
       50
176
     1
 90
       50
176
     1
 90
       50
176
     1
290
     0
176
     1
 90
       50
176
     1
 62
   256
176
     0
 40
1.0
176
     0
 90
        2
176
     1
  1
strokes_ogs.tif
176
     1
290
     0
176
     1
 40
1.0
176
     1
 40
1.0
176
     1
  0
VISUALSTYLE
  5
52B
102
{ACAD_REACTORS
330
517
102
}
330
517
100
AcDbVisualStyle
  2
Shades of Gray
 70
    23
177
     3
291
     0
 70
    58
 90
        2
176
     1
 90
        2
176
     1
 90
        3
176
     1
 90
        0
176
     1
 40
0.6
176
     1
 40
30.0
176
     1
 62
     7
420
 16777215
176
     1
 90
        2
176
     1
 90
        2
176
     1
 62
     7
176
     1
 62
     7
176
     1
 90
        1
176
     1
 90
        1
176
     1
 40
40.0
176
     1
 90
        8
176
     1
 62
     7
176
     1
 40
1.0
176
     1
 90
        1
176
     1
 90
        6
176
     1
 90
        2
176
     1
 62
     7
176
     1
 90
        3
176
     1
 90
        0
176
     1
 90
        0
176
     1
290
     0
176
     1
 90
        1
176
     1
 40
0.0
176
     1
 90
        0
176
     1
290
     0
176
     1
290
     1
176
     1
290
     1
176
     1
290
     0
176
     1
290
     0
176
     1
290
     0
176
     1
290
     0
176
     1
290
     0
176
     1
290
     0
176
     1
 90
       50
176
     1
 40
0.0
176
     1
 40
1.0
176
     1
 90
        0
176
     1
 62
    18
420
        0
176
     1
 90
       50
176
     1
 90
        3
176
     1
 62
     5
420
      255
176
     1
290
     0
176
     1
 90
       50
176
     1
 90
       50
176
     1
 90
       50
176
     1
290
     0
176
     1
 90
       50
176
     1
 62
   256
176
     0
 40
1.0
176
     0
 90
        2
176
     1
  1
strokes_ogs.tif
176
     1
290
     0
176
     1
 40
1.0
176
     1
 40
1.0
176
     1
  0
VISUALSTYLE
  5
52C
102
{ACAD_REACTORS
330
517
102
}
330
517
100
AcDbVisualStyle
  2
Sketchy
 70
    24
177
     3
291
     0
 70
    58
 90
        1
176
     1
 90
        2
176
     1
 90
        2
176
     1
 90
        0
176
     1
 40
0.6
176
     1
 40
30.0
176
     1
 62
     7
420
 16777215
176
     1
 90
        2
176
     1
 90
        2
176
     1
 62
     7
176
     1
 62
     7
176
     1
 90
        1
176
     1
 90
        1
176
     1
 40
40.0
176
     1
 90
       11
176
     1
 62
     7
176
     1
 40
1.0
176
     1
 90
        1
176
     1
 90
        6
176
     1
 90
        2
176
     1
 62
     7
176
     1
 90
        6
176
     1
 90
        0
176
     1
 90
        0
176
     1
290
     0
176
     1
 90
        1
176
     1
 40
0.0
176
     1
 90
        0
176
     1
290
     0
176
     1
290
     1
176
     1
290
     1
176
     1
290
     0
176
     1
290
     0
176
     1
290
     0
176
     1
290
     0
176
     1
290
     0
176
     1
290
     0
176
     1
 90
       50
176
     1
 40
0.0
176
     1
 40
1.0
176
     1
 90
        0
176
     1
 62
    18
420
        0
176
     1
 90
       50
176
     1
 90
        3
176
     1
 62
     5
420
      255
176
     1
290
     0
176
     1
 90
       50
176
     1
 90
       50
176
     1
 90
       50
176
     1
290
     0
176
     1
 90
       50
176
     1
 62
   256
176
     0
 40
1.0
176
     0
 90
        2
176
     1
  1
strokes_ogs.tif
176
     1
290
     0
176
     1
 40
1.0
176
     1
 40
1.0
176
     1
  0
VISUALSTYLE
  5
524
102
{ACAD_REACTORS
330
517
102
}
330
517
100
AcDbVisualStyle
  2
Thicken
 70
    13
177
     3
291
     1
 70
    58
 90
        2
176
     1
 90
        2
176
     1
 90
        0
176
     1
 90
        0
176
     1
 40
0.6
176
     1
 40
30.0
176
     1
 62
     7
420
 16777215
176
     1
 90
        1
176
     1
 90
        4
176
     1
 62
     7
176
     1
 62
   257
176
     1
 90
        1
176
     1
 90
        1
176
     1
 40
1.0
176
     1
 90
       12
176
     1
 62
     7
176
     1
 40
1.0
176
     1
 90
        1
176
     1
 90
        6
176
     1
 90
        2
176
     1
 62
     7
176
     1
 90
        5
176
     1
 90
        0
176
     1
 90
        0
176
     1
290
     0
176
     1
 90
        1
176
     1
 40
0.0
176
     1
 90
        0
176
     1
290
     0
176
     1
290
     1
176
     1
290
     1
176
     1
290
     0
176
     1
290
     0
176
     1
290
     0
176
     1
290
     0
176
     1
290
     0
176
     1
290
     0
176
     1
 90
       50
176
     1
 40
0.0
176
     1
 40
1.0
176
     1
 90
        0
176
     1
 62
    18
420
        0
176
     1
 90
       50
176
     1
 90
        3
176
     1
 62
     5
420
      255
176
     1
290
     0
176
     1
 90
       50
176
     1
 90
       50
176
     1
 90
       50
176
     1
290
     0
176
     1
 90
       50
176
     1
 62
   256
176
     0
 40
1.0
176
     0
 90
        2
176
     1
  1
strokes_ogs.tif
176
     1
290
     0
176
     1
 40
1.0
176
     1
 40
1.0
176
     1
  0
VISUALSTYLE
  5
51D
102
{ACAD_REACTORS
330
517
102
}
330
517
100
AcDbVisualStyle
  2
Wireframe
 70
     5
177
     3
291
     0
 70
    58
 90
        0
176
     1
 90
        2
176
     1
 90
        0
176
     1
 90
        0
176
     1
 40
0.6
176
     1
 40
30.0
176
     1
 62
     7
420
 16777215
176
     1
 90
        1
176
     1
 90
        4
176
     1
 62
     7
176
     1
 62
   257
176
     1
 90
        1
176
     1
 90
        1
176
     1
 40
1.0
176
     1
 90
        0
176
     1
 62
   257
176
     1
 40
1.0
176
     1
 90
        1
176
     1
 90
        6
176
     1
 90
        2
176
     1
 62
     7
176
     1
 90
        3
176
     1
 90
        0
176
     1
 90
        0
176
     1
290
     0
176
     1
 90
        1
176
     1
 40
0.0
176
     1
 90
        0
176
     1
290
     0
176
     1
290
     1
176
     1
290
     1
176
     1
290
     0
176
     1
290
     0
176
     1
290
     0
176
     1
290
     0
176
     1
290
     0
176
     1
290
     0
176
     1
 90
       50
176
     1
 40
0.0
176
     1
 40
1.0
176
     1
 90
        0
176
     1
 62
    18
420
        0
176
     1
 90
       50
176
     1
 90
        3
176
     1
 62
     5
420
      255
176
     1
290
     0
176
     1
 90
       50
176
     1
 90
       50
176
     1
 90
       50
176
     1
290
     0
176
     1
 90
       50
176
     1
 62
   256
176
     0
 40
1.0
176
     0
 90
        2
176
     1
  1
strokes_ogs.tif
176
     1
290
     0
176
     1
 40
1.0
176
     1
 40
1.0
176
     1
  0
VISUALSTYLE
  5
52D
102
{ACAD_REACTORS
330
517
102
}
330
517
100
AcDbVisualStyle
  2
X-Ray
 70
    25
177
     3
291
     0
 70
    58
 90
        2
176
     1
 90
        2
176
     1
 90
        1
176
     1
 90
        1
176
     1
 40
0.5
176
     1
 40
30.0
176
     1
 62
     7
420
 16777215
176
     1
 90
        1
176
     1
 90
        0
176
     1
 62
     7
176
     1
 62
   257
176
     1
 90
        1
176
     1
 90
        1
176
     1
 40
1.0
176
     1
 90
        8
176
     1
 62
     7
176
     1
 40
1.0
176
     1
 90
        1
176
     1
 90
        6
176
     1
 90
        2
176
     1
 62
     7
176
     1
 90
        3
176
     1
 90
        0
176
     1
 90
        0
176
     1
290
     0
176
     1
 90
       13
176
     1
 40
0.0
176
     1
 90
        0
176
     1
290
     0
176
     1
290
     1
176
     1
290
     1
176
     1
290
     0
176
     1
290
     0
176
     1
290
     0
176
     1
290
     0
176
     1
290
     0
176
     1
290
     0
176
     1
 90
       50
176
     1
 40
0.0
176
     1
 40
1.0
176
     1
 90
        0
176
     1
 62
    18
420
        0
176
     1
 90
       50
176
     1
 90
        3
176
     1
 62
     5
420
      255
176
     1
290
     0
176
     1
 90
       50
176
     1
 90
       50
176
     1
 90
       50
176
     1
290
     0
176
     1
 90
       50
176
     1
 62
   256
176
     0
 40
1.0
176
     0
 90
        2
176
     1
  1
strokes_ogs.tif
176
     1
290
     0
176
     1
 40
1.0
176
     1
 40
1.0
176
     1
  0
DICTIONARYVAR
  5
552
102
{ACAD_REACTORS
330
551
102
}
330
551
100
DictionaryVariables
280
     0
  1
1:1
  0
DICTIONARYVAR
  5
554
102
{ACAD_REACTORS
330
551
102
}
330
551
100
DictionaryVariables
280
     0
  1
Standard
  0
DICTIONARYVAR
  5
553
102
{ACAD_REACTORS
330
551
102
}
330
551
100
DictionaryVariables
280
     0
  1
Standard
  0
DICTIONARYVAR
  5
555
102
{ACAD_REACTORS
330
551
102
}
330
551
100
DictionaryVariables
280
     0
  1
0
  0
DICTIONARYVAR
  5
B02
102
{ACAD_REACTORS
330
551
102
}
330
551
100
DictionaryVariables
280
     0
  1
0
  0
DICTIONARY
  5
27C8
330
535
100
AcDbDictionary
280
     1
281
     1
  3
ACAD_ROUNDTRIP_2008_TABLESTYLE_CELLSTYLEMAP
360
27C9
  0
CELLSTYLEMAP
  5
27C9
102
{ACAD_REACTORS
330
27C8
102
}
330
27C8
100
AcDbCellStyleMap
 90
        3
300
CELLSTYLE
  1
TABLEFORMAT_BEGIN
 90
        5
170
     1
 91
        0
 92
    32768
 62
   257
 93
        1
300
CONTENTFORMAT
  1
CONTENTFORMAT_BEGIN
 90
        0
 91
        0
 92
        4
 93
        0
300

 40
0.0
140
1.0
 94
        5
 62
     0
340
17
144
0.25
309
CONTENTFORMAT_END
171
     1
301
MARGIN
  1
CELLMARGIN_BEGIN
 40
0.06
 40
0.06
 40
0.06
 40
0.06
 40
0.06
 40
0.06
309
CELLMARGIN_END
 94
        6
 95
        1
302
GRIDFORMAT
  1
GRIDFORMAT_BEGIN
 90
        0
 91
        1
 62
     0
 92
       -2
340
11
 93
        0
 40
0.045
309
GRIDFORMAT_END
 95
        2
302
GRIDFORMAT
  1
GRIDFORMAT_BEGIN
 90
        0
 91
        1
 62
     0
 92
       -2
340
11
 93
        0
 40
0.045
309
GRIDFORMAT_END
 95
        4
302
GRIDFORMAT
  1
GRIDFORMAT_BEGIN
 90
        0
 91
        1
 62
     0
 92
       -2
340
11
 93
        0
 40
0.045
309
GRIDFORMAT_END
 95
        8
302
GRIDFORMAT
  1
GRIDFORMAT_BEGIN
 90
        0
 91
        1
 62
     0
 92
       -2
340
11
 93
        0
 40
0.045
309
GRIDFORMAT_END
 95
       16
302
GRIDFORMAT
  1
GRIDFORMAT_BEGIN
 90
        0
 91
        1
 62
     0
 92
       -2
340
11
 93
        0
 40
0.045
309
GRIDFORMAT_END
 95
       32
302
GRIDFORMAT
  1
GRIDFORMAT_BEGIN
 90
        0
 91
        1
 62
     0
 92
       -2
340
11
 93
        0
 40
0.045
309
GRIDFORMAT_END
309
TABLEFORMAT_END
  1
CELLSTYLE_BEGIN
 90
        1
 91
        1
300
_TITLE
309
CELLSTYLE_END
300
CELLSTYLE
  1
TABLEFORMAT_BEGIN
 90
        5
170
     1
 91
        0
 92
        0
 62
   257
 93
        1
300
CONTENTFORMAT
  1
CONTENTFORMAT_BEGIN
 90
        0
 91
        0
 92
        4
 93
        0
300

 40
0.0
140
1.0
 94
        5
 62
     0
340
17
144
0.18
309
CONTENTFORMAT_END
171
     1
301
MARGIN
  1
CELLMARGIN_BEGIN
 40
0.06
 40
0.06
 40
0.06
 40
0.06
 40
0.06
 40
0.06
309
CELLMARGIN_END
 94
        6
 95
        1
302
GRIDFORMAT
  1
GRIDFORMAT_BEGIN
 90
        0
 91
        1
 62
     0
 92
       -2
340
11
 93
        0
 40
0.045
309
GRIDFORMAT_END
 95
        2
302
GRIDFORMAT
  1
GRIDFORMAT_BEGIN
 90
        0
 91
        1
 62
     0
 92
       -2
340
11
 93
        0
 40
0.045
309
GRIDFORMAT_END
 95
        4
302
GRIDFORMAT
  1
GRIDFORMAT_BEGIN
 90
        0
 91
        1
 62
     0
 92
       -2
340
11
 93
        0
 40
0.045
309
GRIDFORMAT_END
 95
        8
302
GRIDFORMAT
  1
GRIDFORMAT_BEGIN
 90
        0
 91
        1
 62
     0
 92
       -2
340
11
 93
        0
 40
0.045
309
GRIDFORMAT_END
 95
       16
302
GRIDFORMAT
  1
GRIDFORMAT_BEGIN
 90
        0
 91
        1
 62
     0
 92
       -2
340
11
 93
        0
 40
0.045
309
GRIDFORMAT_END
 95
       32
302
GRIDFORMAT
  1
GRIDFORMAT_BEGIN
 90
        0
 91
        1
 62
     0
 92
       -2
340
11
 93
        0
 40
0.045
309
GRIDFORMAT_END
309
TABLEFORMAT_END
  1
CELLSTYLE_BEGIN
 90
        2
 91
        1
300
_HEADER
309
CELLSTYLE_END
300
CELLSTYLE
  1
TABLEFORMAT_BEGIN
 90
        5
170
     1
 91
        0
 92
        0
 62
   257
 93
        1
300
CONTENTFORMAT
  1
CONTENTFORMAT_BEGIN
 90
        0
 91
        0
 92
        4
 93
        0
300

 40
0.0
140
1.0
 94
        2
 62
     0
340
17
144
0.18
309
CONTENTFORMAT_END
171
     1
301
MARGIN
  1
CELLMARGIN_BEGIN
 40
0.06
 40
0.06
 40
0.06
 40
0.06
 40
0.06
 40
0.06
309
CELLMARGIN_END
 94
        6
 95
        1
302
GRIDFORMAT
  1
GRIDFORMAT_BEGIN
 90
        0
 91
        1
 62
     0
 92
       -2
340
11
 93
        0
 40
0.045
309
GRIDFORMAT_END
 95
        2
302
GRIDFORMAT
  1
GRIDFORMAT_BEGIN
 90
        0
 91
        1
 62
     0
 92
       -2
340
11
 93
        0
 40
0.045
309
GRIDFORMAT_END
 95
        4
302
GRIDFORMAT
  1
GRIDFORMAT_BEGIN
 90
        0
 91
        1
 62
     0
 92
       -2
340
11
 93
        0
 40
0.045
309
GRIDFORMAT_END
 95
        8
302
GRIDFORMAT
  1
GRIDFORMAT_BEGIN
 90
        0
 91
        1
 62
     0
 92
       -2
340
11
 93
        0
 40
0.045
309
GRIDFORMAT_END
 95
       16
302
GRIDFORMAT
  1
GRIDFORMAT_BEGIN
 90
        0
 91
        1
 62
     0
 92
       -2
340
11
 93
        0
 40
0.045
309
GRIDFORMAT_END
 95
       32
302
GRIDFORMAT
  1
GRIDFORMAT_BEGIN
 90
        0
 91
        1
 62
     0
 92
       -2
340
11
 93
        0
 40
0.045
309
GRIDFORMAT_END
309
TABLEFORMAT_END
  1
CELLSTYLE_BEGIN
 90
        3
 91
        2
300
_DATA
309
CELLSTYLE_END
  0
ENDSEC
  0
SECTION
  2
ACDSDATA
 70
     2
 71
     2
  0
ACDSSCHEMA
 90
        0
  1
AcDb_Thumbnail_Schema
  2
AcDbDs::ID
280
    10
 91
        8
  2
Thumbnail_Data
280
    15
 91
        0
101
ACDSRECORD
 95
        0
 90
        2
  2
AcDbDs::TreatedAsObjectData
280
     1
291
     1
101
ACDSRECORD
 95
        0
 90
        3
  2
AcDbDs::Legacy
280
     1
291
     1
101
ACDSRECORD
  1
AcDbDs::ID
 90
        4
  2
AcDs:Indexable
280
     1
291
     1
101
ACDSRECORD
  1
AcDbDs::ID
 90
        5
  2
AcDbDs::HandleAttribute
280
     7
282
     1
  0
ACDSSCHEMA
 90
        1
  1
AcDb3DSolid_ASM_Data
  2
AcDbDs::ID
280
    10
 91
        8
  2
ASM_Data
280
    15
 91
        0
101
ACDSRECORD
 95
        1
 90
        2
  2
AcDbDs::TreatedAsObjectData
280
     1
291
     1
101
ACDSRECORD
 95
        1
 90
        3
  2
AcDbDs::Legacy
280
     1
291
     1
101
ACDSRECORD
  1
AcDbDs::ID
 90
        4
  2
AcDs:Indexable
280
     1
291
     1
101
ACDSRECORD
  1
AcDbDs::ID
 90
        5
  2
AcDbDs::HandleAttribute
280
     7
282
     1
  0
ACDSSCHEMA
 90
        2
  1
AcDbDs::TreatedAsObjectDataSchema
  2
AcDbDs::TreatedAsObjectData
280
     1
 91
        0
  0
ACDSSCHEMA
 90
        3
  1
AcDbDs::LegacySchema
  2
AcDbDs::Legacy
280
     1
 91
        0
  0
ACDSSCHEMA
 90
        4
  1
AcDbDs::IndexedPropertySchema
  2
AcDs:Indexable
280
     1
 91
        0
  0
ACDSSCHEMA
 90
        5
  1
AcDbDs::HandleAttributeSchema
  2
AcDbDs::HandleAttribute
280
     7
 91
        1
284
     1
  0
ACDSRECORD
 90
        0
  2
AcDbDs::ID
280
    10
320
515
  2
Thumbnail_Data
280
    15
 94
     3915
310
89504E470D0A1A0A0000000D49484452000001000000007D08060000004DB9BDCD000000097048597300000EC400000EC401952B0E1B00000EFD49444154789CEDDD4D4C1B67FE07F0EFCCF87DF00B606C0C18F31E916042D4462869D58AA44AB4D2AA52D4AAA7B687DDBDEEA5DA95766FFFEB5E57EA9E770F3DEC6AD568D5
310
3D245B25B9A40A4D9A8686041220F89560B0CD8B6DB0C7E3973DE41F3694A48DB13DF30CF3FB4808617BE6F91998AF9F7966E6190E401584105D1200FC9FDA45FC148BC5824F3EF9047EBF1F0B0B0B079E6F6B6B83C3E140A95442B95CDEF79CC7E3C1471F7D04BFDB8F85E583CB12C060306062620223232358595941A552
310
51BB24A22083DA05BC0E8BC58253A74E211C0E1F786E636303B22CA3B7B717168B65DF73838383B0D96C8055A1421966369BD1D7D70793C9B4EFF152A9045114E1F3F930343404A3D1B8EF795996110A8520499292E5128570607817E0F4E9D328140A906519C96412E974BAA6E5398E437F7F3F44510400ACAEAE22954A35
310
A35426711C873367CE209BCD42922484C361148BC503AFB3DBEDB0D96C585B5B3BF09CD168447F7F3FCC6633EC763BA6A7A7A9977084301700369B0DFDFDFDE0791EF3F3F328954A0D5BB7CFE783DBED462E974328146AD87A59E3743AE1F7FBD1D2D282E9E9E986AEFBC48913301A8D4824124824120D5D37511E5301208A
310
22BC5E2FC2E170533F655A5A5AD0D9D989A5A5A5A6B5A1969E9E1E08828068348A6AB5797F5ABFDF0F8EE3108D469BD606693E5EED025E34383888E5E5E5A6773173B91C72B91C3A3A3A9ADA8ED2789E87D3E944241269EAC60F00B1580C56ABF5C09802D116A60240498944023E9F4FED321ACA6432BD741FBF5932990CBA
310
BBBB156B8F341E534701FC7E7FD33FB95EF4E3A30647C1E0E0A0A2EFCB6060EA5F88D488A9BF5E2C16C3ECECAC62ED8D8F8F2BD696529E3C7982C5C545C5DA3B8ABF433DD1ED2E0021E40804C0F0B015E3E32D70B998EACCE882D5CA6360C002938953BB1472489A0E80F7DE6BC5FBEF77E0D4A916FCE217EDE8E830FEFC42
310
A4617C3E333EFE388FD656FABD6B956603C0E9346068C886AFBE4AE18B2FD6C0714030D8A27659BAB3BB5B46B9CCCCA924A4469A0D009389832C57210840A552452E57FEF98548C371D4FBD734CDEE3827933242A13C3EFCD083C78F7761B5F2B87B37AB7659BA63B50A10044A01ADD26C0000C0F5EB9B88440AB0D97844A3
310
056C6F532F40494F9F4AF8F24B03363765B54B2187A4E9000080274FF26A97A05B8542050F1E94512CD218805669760C8010523F0A0042748C0280101DA3002044C7280008D1B12311007A3F1945EFEF9F1C9EE603E0FCF956FCE10F01F09A7F2787D3DF6FC19FFE3404AB55A7BF005217CDFFD7485205EDED46D86C82DAA5
310
A86272D2099E074E9EA4EB2048ED341D0082C0A1ADCD88E5E53C4E9DB2AB5D8E2A0401686D354214F51980A43EAA06C0BBEFBE8B37DE78E3D0CB5B2C3C1E3CD8C15FFEB282EDEDC64D1FAE25C3C336FCF5AFABE8E9397AD39B91E653ED54E0AEF62E0CF60FC2E172607575154F9F3EAD791DC56205BFFCA51BF97C19894411
310
F7EFE79A5029DBB2D9322E5DEAC037DF6CA95D0AD120D57A0045AE8881A15EA4D36B879EC95696AB48A78B989C74E2F6ED4CCDCBDBEDDADF6D989EDE86C763C2F474EDEFFF3941102008B40BA147AA05402A95C2D5AB9F2391B8816271130E8711DC218E67C5E312FEFCE7180C86DA971D1919A97919D6643225FCF18F4BF8
310
F0430F2E5DEAAD7979511471E1C2058C8F8FA3A5850612F546D531807CBE8060D088DFFED68FDFFC66F0C08D295FC7E666094B4BBB879A0E4C96B57F196B365BC6F676093C0F140ABB352FEFF17830333383A74F9F626868A809151296A97A39F0E66609FFFA576AEF92DEC34C319D484808065BF0DD77B5778177776BDF60
310
58130E17100858303B9B433A6DAB79F9502884D3A74F83E338DCBE7DBB09151296A91A008DB8967F7D5DC6FAFAE13EC98FCABD012391022291022C963CFCFEDA43E0CE9D3B4DA88A6881A6CF032084D4870280101DA3002044C7280008D1310A0042748C0280101DA3002044C7280008D1310A0042748C0280101DA3002044
310
C7280008D1310A0042748C0280101DA3002044C7280008D1310A0042748C0280101DA3002044C798098037DF7CB3E6B9E93D1E237EF7BB5E7CFC7127DE7BAFED505383EB9DD168C4D8D818C6C6C66A9E95D9EB35E1D7BF96E072A93AB524A9033301502C16512E975FFBF5160B8F4B973CB873278385855D58AD3CA6A65A9B
310
58E1D1E472B9904AA5100E87D1D3D353D3B2A228A0BBDB04B399997F23522366FE72B22CD7D403703A0D90A40A623109B76F6750AD3E0B05529B64320987C381AEAE2E8442A19A975F5D9590CBE9F3BE8C4701337DB7F9F9F99AEE0BB0B12143922A387E5C446FAF1982002C2ED63FCDB81E2D2C2C1C7A599FCF8C96160376
310
760E777B37A22ECD7E64CA721557AEA4218A3CAC560189441173733B6A97A52BDBDB25CCCD09D8DD7DFD5D37C216667A0087B1B959C2DFFFBEAE7619BA954ECBF8E73F2BC8662900B44AB33D004248FD280008D131A67601FC7E3FAAD5AA62ED59AD56C5DA52CAD0D0102C168B226D994C26140A0545DA22CDC15400C46231
310
CCCECE2AD296D96C46201050A42DA594CB658442213C7AF44891F6060707B1BABAAA485BA43998DA05C8E7F3B0D96ABFBBED610C0C0C1CEAB837CB9E9F4BC1F3CDFFB3721C07ABD57A246EB1AE671C00E5FADCAF61626202B22C231C0E6367A7F187F5028100DC6E37A2D12892C964C3D7CF8213274E4096E5BA8EEFFF94E1
310
E161B4B7B7637A7ABA29EB27CA612E000080E779F4F5F561626202C562119148A4AEF5B9DD6EB8DD6EA45229DCBD7B17994CA64195B2CB6C36E3ECD9B3703A9DD8DDDDADBBABEEF3F9208A22B6B6B670EBD62DDAF73F22981A0378AE52A9607979192D2D2D0887C3FBF6D5B7B7B791CD6691CBE520CBF28165ED763B0C0603
310
BABABAF6BAC28F1E3D422291403018D4C5C60F009224219D4EE3C68D1B70BBDDF0F97C7BCFA5D369E4F379643299975E7FE172B9C0F33CBABBBBF71EBB77EF1E92C924C6C7C769E33F42980C80176532997D03834EA71376BB1D5EAF17838383E8EDE5E1F7EF6076B603F3F38FB1B5B58552A984F9F979542A957DEB52F208
310
030BD6D6D6E0F178B0BEBE8E542AB5F7787B7B3B445184CFE7C3B163C7100848E0F93C422117969797B1B1B1814AA5726040561445E47239A5DF066922A606015FC7F6F636E2F13836373771E7CE1DDCBC791D2ED70A1617FF034110100E87118FC70F6CFC4EA713DBDBDB2A55AD8EF5F575783C9E038FA7D369C4E3714892
310
84AB57AF229F9F81C311C6952B5750AD56118BC5B0B2B27260B99E9E1EC4E371254A270AD15C003CE7F57AB1BEBE8E42A1829D9DF2DEC061575797DAA531A35AADFEE411015114B1BBBB8B6452462A25239FCF439224984CA697BEDE6C36A358A48B7E8E12E677017ECEE2621EBFFFFD1200C06229A1ADAD4DE58AB4E1C5EE
310
FC975FFEEF68483E9F87D56AA50D5D2734DB0320F5E1384E776322E4200A0042748C0280101DA3002044C7981A041C1818D83788D7D7D7F7CA11E9973D673299E076BBE1743A0FBC5E144588A2B8EFB0D8DCDCDC913B977D747414A228EEFDFCAADFA1D56A85D3E9447B7BFBBEC73D1E0F7676765E7A1AF6CBD675EFDEBD9A
310
2673256C61EA54609FCF07BBDDAE587B914804922429D69E127A7B7B15BB1C18009696960E9C7341B483A9002084288BC60008D1310A0042748C0280101DA3002044C7280008D1310A0042748C0280101DA3002044C7280008D1310A0042748C0280101D63EA6AC0C3989A6A85D76B422C56C037DFE86BD24F42EAA5E91E80
310
CDC6C3E532E01FFF58C3C58BED3FBF0021641F4D07403E5F81D76BC2AF7ED585D9599AAF9E905A697A17A05A05329951485216914816C0BADA2511A2299A9A0F80E779F4F6F6626262626FD69BE7B3DB3EFF5E2E97118944B0B0B080743AAD72C584B04D330130323282898909ACACAC606666E695770E160401814000C3C3
310
C330180CB871E3C6919BF68B9046613E005C2E17CE9D3B8768348AEFBFFFBEA6E9A75C2E17A6A6A6F0E4C913DCBF7FBF895512A24D4C0780DBEDC6E4E424AE5DBB56D71D6983C1203A3B3BF1F5D75F37B03A42B48FD9A3001D1D1D78E79D7770EFDEBDBA6F471D0E87B1B4B4840B172E34A83A428E062603C0E572E1F4E9D3
310
B87CF9322E5EBC58F7FA868787E17038B0B8B888B367CF36A042428E8E2A6B5F1F7CF041D562B13465DD67CE9CA90E0C0CA8FE1EE98BBE58F862AE07100804B0B6B65677B7FF556EDDBA45BD0042FE1F7301F0F6DB6FE3E6CD9B4D6DE3E1C387387EFC7853DB20440B980A80B6B6366C6C6C34BD9DF9F9798C8E8E36BD1D42
310
58C754001C3F7E1C7373734D6FA75028C06C3683E3B8A6B74508CB980A80BEBE3E44221145DA0A87C3E8EBEB53A42D4258C54C00381C0EF0BCB2E57477772BDA1E21AC51ED6A40AFD784A9A956783C460C0FDB90CDB6637EBEAA58FB0F1F3EC4679F7DD6F401474258A6EAE5C0820054ABC0E5CB49B8DD4E984CCA0540B55A
310
45B5AA5C7B84B048B500585B2BE28B2FD6F67E76B916F1FEFBCA8DCC8F8D8DE1FAF5EB8AB547088B981903D8DADAAAE94ABF4688C5628AB647086B980900008846A3F0FBFD8AB4150804143BE24008AB980A80070F1E606C6CACE9ED98CD66C8B2AC788F8310D63015001B1B1B686F6FFEECBEA3A3A3989F9F6F7A3B84B08E
310
A90000809B376FE2ADB7DE6A6A1B274E9CC0C3870F9BDA06215AC05C0084C361747676C26C363765FD939393F8F6DB6F9BB26E42B486B90000806BD7AEE1FCF9F3E0380E9F7EFA69DDEB9B989840301844201080D168C4D2D25203AA2444FB989D13D0EBF522180CE2D1A34788C7E375ADCBE974A2ADAD0DC78E1DC3952B57
310
1A542121DAC7EC8D41D6D6D6208A22C6C7C7914AA5EA9A20A4ADAD0DC3C3C3B4F113F223CCF6009E6B6D6DC5B973E7B0BCBC8C1F7EF8A1A643770E8703535353585F5FC7F4F4349DFA4BC88F301F00CF8D8E8E22180C221A8D626666E6953D029EE7E1F7FB313232028BC582EBD7AFBFF2262284E89D66020078B671F7F7F7
310
E3E4C993B05A8D7856BAF18557E4512E9B108FC7F1F8F163249349952A25441B3415002F6A6911F0F9E7C7208A6D00FA00FC80AFBE4AE16F7F5B55B93242B443B3010000361B0F8E13F0AC172041922A289534FB7688469D39E3C4C6860CBB5D407BBB11DF7D97C5D090151C0798CD3C789E436BAB01D96C19A1501EC56205
310
6EB7090E8780AE2E33FEFDEF143299B22AB533791EC0EBDADDAD606747C6CECE2E7676CAB4F113D5F87C26080287785CDA7B4C922A90E567FF931CB7FFE7BE3E0B24A98AFBF773B05A05556A0634DE032084D4E7BFA553CFF3EF9909600000000049454E44AE426082
  0
ACDSRECORD
 90
        0
  2
AcDbDs::ID
280
    10
320
27BD
  2
Thumbnail_Data
280
    15
 94
     3824
310
89504E470D0A1A0A0000000D49484452000001000000007A080600000050BC8D75000000097048597300000EC400000EC401952B0E1B00000EA249444154789CEDDD5F4C53F7FB07F0775BA4C55238FC47FE43DBE018041166D88C269A28598861D1C4AB657F1293DD2C597641B28B25BBD8ED76B58BDD6C8BCBB29B996C0B
310
51379725261BD14544FB4504410A544081B6F40FFF0AA5EDEF82707E05B40AE7B4E7F439CF2B59A26D3FE73CCC87A7ED399FCFE7D15DBE7C3906C69826E9950E8031A69C0CA503905B201040381C563A0C46904EA743414181D261C88A5C01282C2CC4993367940E831174E7CE1D783C1EA5C39015B90260369B515454A474
310
188CA0DCDC5C720580AF0130A6615C0018D3302E008C69181700C6348C0B00631AC60580310DE302C098867101604CC3C84D048A37303080B5B535F1EF76BB1D822000001E3E7C8895951500802008B0DBED0080F9F979B85C2E714C73733332333301007D7D7DE2E3656565282F2F07004C4E4EC2ED760300323232D0D2D2
310
0200585959C1C3870FC53156AB15F9F9F90080E1E1612C2D2D0100727272505F5F0F00585D5DC5E0E0A038A6A9A909269369D798D2D2525456560200BC5E2FC6C7C70100068301478F1E15C7F7F7F7231A8D0200EAEAEAC4A9AC535353989D9D0500582C161C3E7C1800100A85F0E0C103717C636323B2B2B2000023232308
310
068300809292125455550100161616E0743A01007ABD1EADADADE2F8FBF7EF6363630300505C5C8CEAEA6A00C0F4F4349E3D7B0660738A6D5B5B1B00606D6D0D030303E2F89A9A1A7162D7E8E82802810080CD095F0D0D0D00009FCF87B1B131714C434303CC663300C0E1708853C38B8A8A5053530300989999C1D3A74FC5
310
316D6D6DD0E9740887C370381CE2E31B1B1B78F3CD3741958EDA6A404110D0D5D50560F317F68D37DE50382296CEE273A8B7B7572C7454F05700C6348C7401D8FA88CAD87E51CF21D205A0A4A444E910589AA39E43A40B00632C31D205E0F1E3C74A87C0D21CF51C225D00FC7EBFD221B034473D87481700C65862A4270249
310
D919E8DF7FFF1527E0B0F4160A8570E2C4897D8DA5BEBB14E902B035EB6B3F4C26134F2222227E06E75E49C9A174C05F0118D330D205606A6A2A29C7BD71E306868686100A85E072B9B6FDE7F7FBB1B6B686EFBEFB2E29E7964B381C86CBE5C2D0D010AE5CB90297CB85C5C545A5C3529D64E5905A90FE0A303B3B2B2E9891
310
CBC8C808FAFAFA100E87118944764D1471BBDDF07ABD989E9EC6D0D0106C369BB8984869E3E3E3F07ABD0036172D959797231A8D626E6E0E595959989999118B80C96482CD6613170269553272484D481700398D8D8DC1E7F3A1BEBE1E9F7FFEF90B5F575C5C0CBBDD8EF6F6762C2D2D61787818914864DB0ABD5473B95C98
310
9F9F476D6D2DEAEAEA763DFFF1C71F03D88C7DCBEAEA2AC6C6C6B0BCBC8CF6F6F694C5CA528B7401B0582CB21C676D6D0D2B2B2B7BBE28989D9D8DE6E6660483413C7AF4485C729B4AD168146EB77BCFB1676565A1A9A9495C1EDCD4D494A408D54DAE1C522BD20540AE5F3887C301BD5E2FE96AB252EDCA5C2E177C3E9FA4
310
D8B7F64DD022258A762A912E0072D1EBF5926F094AF90594AAA5A505858585FB1EAF64EC2CB948DF05A0D6C649293D3D3DE2AE425A433D87481780898909A54320E1DAB56BE2B65E5A433D87481700C65862A40B4046065FE290437777370E1C38A074188AA09E43A40BC0D6EEBC4C1A9BCD069D4EA774188AA09E43A40B00
310
632C31D20560797959E910589AA39E43A40BC0D0D0504ACEB3B0B02036E65093BB77EF2A1D42DA4B550E298574014895DF7FFF1D5F7CF185D261EC72FCF871F2EF604C1A2E00094C4C4CBCD23B7B7171313A3A3AC4B65D6AE0703870FCF8F16D6DAE18DB8974013872E488A4F15F7EF925BEFAEAAB97BE6E7878183FFDF413
310
8C46A3A4F3C9C962B160606060DB0A3FB677527348ED481700A9F7AECF9F3F0F9D4E87AB57AF267C5D7D7D3D2E5EBC98F07CB76EDD9214CB5E59AD567CFAE9A7F8FAEBAF13BE6E707010DF7EFB6D8AA24A3FD4E73F909EE5108944603018F63DBEA6A60667CE9C79E93DF0CACA4A949595257C8D121B8C76767662666626E1
310
6B4C2693AA3EB9A88DD41C523BD205E0DEBD7B9256F1353636A2B1B1F1A5ABE15E65B288121B821C397204DDDDDD095F63B3D960B3D9521451FA919A436A47FA2B00632C312E008C6918E902407D3717967CD473887401A0BE9F1B4B3EEA3944BA0030C612235D00FEF7BFFF291D024B73D473887401585F5F573A0496E6A8
310
E710E902C0184B8C7401A8AEAE563A0496E6A8E710E902C00B619854D47388740190CBC2C282D22128EAFAF5EB9AED0B401DE90230323222CB719C4EA72CC74957D7AF5F472412513A0C45C895436A45BA00048341598E437D4D387B31B97248AD481700B9505F13FE321F7EF821E925B15A46BA00949494281D0209ADADAD
310
D0EB49A7CA0B51CF21D2FB01545555C9721CA3D1887FFEF907595959FB3E8652EDC101E0FEFDFB100461DFE3B5DC1E5CAE1C522BD205402E0D0D0D181818D8F7A61E7373730885423247F56A6A6B6BE1F178F6BDA985DBEDE69D8509235D00BC5E2F0A0A0A241F272323038220A0AFAF0FA150684FDB7B854221582C16452F
310
245AADD63DC71E8944108D469191918163C78E253942F5922B87D48A7401181F1F97ED1FAFAEAE0E757575E8EDEDDDF56EEAF57AB1BABA8A8A8A8A6D8FAFAFAFC3E170287E17213F3F1FF9F9F9CF8DDDEFF7231008EC9AF1E6F178B0B8B888DADADA5486AA3A72E6901A69F3CA8E043BAF868F8E8EE2F6EDDBE8EEEEDED589
310
E7C18307686E6E4E657809ED8C7D6262027FFDF5173EFBECB35DBB16FB7C3E49D70D587A20FD092019AD9D771E331008A0ADAD0D2B2B2B88C562DB9E8B46A3AADA717767EC1E8F07A74E9D82D168DC75ABD3EFF7C36EB7A7323C55E2F6E0692C55AD9D4B4B4B71F1E2C5949C4B6E454545E8EAEA523A0CD5E2F6E08C31B248
310
7FBE595E5E86D96C967C9C8D8D0D7CFFFDF7000097CB857BF7EE89CFC5FF3DD1736FBFFDB662F7947FFCF1478442A17DC77EF2E449BCF6DA6BA90D5A25E4CA21B5225D008686866469EA60301870E9D22549C7507226DDBBEFBE2B69FCCB3A235126570EA915E90220179D4E97D673E1D33976965C7C0D80310D235D00949E
310
80C3D21FF51C225D00B4BE8C9749473D87481700DEC68A49453D87481780FEFE7EA54360698E7A0E912E00A9323D3D8D1B376E6876DF3C96BEB800C8E0EEDDBBE8EDEDC5E2E2A2D2A130B627A4E701D4D7D727FD1C6EB71B376FDE84D3E9546CD30F963CA9C82125912E0039393949396E2412C1AD5BB7F0F4E953180C065C
310
B870017ABD1E0E87031313133874E810CE9E3D8B83070F26E5FC2C759295436A41BA002483D7EBC56FBFFD86B367CFE2C48913CF7D4D2010C02FBFFC82F6F6761C3E7C38C51132F6EA485F0318181890F578C160103FFCF003DE79E79D840B7B727373F1FEFBEFA3BFBF1FC3C3C3B2C6C0524BEE1C521BD205606D6D4DD6E3
310
F5F4F4E0D2A54BAF74B53F168BE1D8B163181C1C84DBED96350E963A72E790DA902E0072BA76ED1A3A3A3A909797F74A7BC5EBF57AD8ED769C3B770EFFFDF75F0A22646CEF481700395B3B7B3C1E141515ED799CC964C2CACA0A565757658B85A50EB7074F6372B5765E5F5F476666E6BEC7BFFEFAEBB873E78E2CB1B0D4E2
310
F6E01AD6DBDB8B6FBEF9069F7CF289A4DD7C2A2B2BB7EDB6C3985A902E00A3A3A392C61B8D4658AD56545454486A0B168BC534DD5E2B9D49CD21B5233D0F201008481ABFB515D4E9D3A7F1F3CF3FEFBB3598D7EBC5C9932725C5C294213587D48EF42700B9984C2649FBC3F7F5F591DE578EA52FD20540CE0B38168B05B3B3
310
B37B1E178BC5E0F3F9F6D44F90A9075F044C6372DEC2397FFE3C7EFDF557F87C3E0483C197BE3E168BC1E3F1E0EAD5AB69DB3484F16D4016A7B3B3133D3D3DAFB4EC37168BE1CF3FFF44414101E9E6922CBD912E00535353B21EAFBABA1AA74E9DC21F7FFC91F0EBC0EAEA2AAE5CB902ABD58AB7DE7A4BD618586AC99D436A
310
43FA2EC0ECEC2C2A2B2B653D66555515DE7BEF3DDCBC79137FFFFD370441103B008F8E8E22180C221008E0DCB973FCCE4F403272484D48178064C9CCCC4447470780CD35021F7DF41100E0C2850BF8E0830FB811478A389D4E98CD66ACAFAFE3C08103989D9D456E6E2E0C06030441C0A3478F909B9BAB7498AA46BA00A462
310
3387CECE4E74767626FD3C6CB7DBB76FC3EFF7A3A1A101A3A3A370BBDD585A5AC2D1A347A1D3E930383888D6D656949595EDFB1CBC21481AA3BE9D93D6C5F73C3C7DFAF4AEE7B7EEBEF4F5F5EDFB1CD47388F44540C65862A43F01B8DDEE7D2DE10580502824E99D83A98794CD5AA5E4503A205D00262727F7FD8FF7A2FDFE
310
98B648C9A174C05F0118D330D205807A6347967CD473887401A0DEDA99251FF51C225D00186389912E004B4B4B4A87C0D21CF51C225D00B82907938A7A0E912E008CB1C448CF030080C78F1F8B7F3E74E810B2B3B301004F9E3C11BBBE98CD6671BE782010C0FCFCBC38A6A6A646BC121C7FACFCFC7C71B5DFFCFCBCB8779C
310
C160405D5D1D80CDAE324F9E3C79EEF9A7A6A6C4092A070F1E447979F973C7C49F3F7E4C5E5E1E0A0B0B016CB62C9B9B9B03B0D990C46AB58AE3C7C6C6108BC50000A5A5A5B0582C003627B8F8FD7E00405656162A2A2A006C6E81EE72B9C4F1D5D5D5E296E8D3D3D3627F034110C4FBE38B8B8BE2F2689D4E079BCD268E77
310
3A9D8846A300365BA66DEDB0E3F178E0F3F9C4D7D9ED760040381CC6E4E4A4F8787171B1B8A067666646DC5CD568348A3B352F2D2DE1D9B367E298CACA4A7107A6F1F171B193534E4E8ED8D4C5EBF5626161411C63B3D9A0D3E9B0B1B181898909F171EA1D9F4917809696966DDFE18C46A3F8E7BCBC3C3131E26FF5984CA6
310
6D133FE257F6C53F1EBFC5577676B6F84BA2D3E9C4C7333232B68D89EF2D20088278FEF8FD06778ED1EBFFFF435A5E5E1E36363676FD2CF131C79F7F2BE6AD02103F263B3B5BFCB9E3CF6F30185EF8F30B822016B0F863198DC6174E96292C2C14CF1FFFF39BCDE6E7EEB3B8F3FCF1FF9F73737361369B77C5B5F3FCF1C72D
310
2C2C140BD0CEF33F6FD5A65EAFDF762C29DBC1A703DDE5CB97634A0721274110D0D5D5A574188CA0DEDE5E389D4EA5C390155F03604CC3B80030A6615C0018D3302E008C69181700C6348C0B00631AC60580310DE302C09886919B08143F8D97313985C36171CA3615E4A60253EFE6CA989CF82B00631AF67F786AD80B8627
310
84EB0000000049454E44AE426082
  0
ENDSEC
  0
EOF
