  0
SECTION
  2
HEADER
  9
$ACADVER
  1
AC1027
  9
$ACADMAINTVER
 70
   105
  9
$DWGCODEPAGE
  3
ANSI_932
  9
$REQUIREDVERSIONS
160
                 0
  9
$LASTSAVEDBY
  1
kurimoto
  9
$INSBASE
 10
0.0
 20
0.0
 30
0.0
  9
$EXTMIN
 10
10330.5084114318
 20
-4366.656868680892
 30
0.0
  9
$EXTMAX
 10
17010.02712890613
 20
-220.3134454400247
 30
0.0
  9
$LIMMIN
 10
0.0
 20
0.0
  9
$LIMMAX
 10
0.0
 20
0.0
  9
$ORTHOMODE
 70
     0
  9
$REGENMODE
 70
     1
  9
$FILLMODE
 70
     1
  9
$QTEXTMODE
 70
     0
  9
$MIRRTEXT
 70
     1
  9
$LTSCALE
 40
1.0
  9
$ATTMODE
 70
     1
  9
$TEXTSIZE
 40
0.0
  9
$TRACEWID
 40
0.05
  9
$TEXTSTYLE
  7
STANDARD
  9
$CLAYER
  8
0
  9
$CELTYPE
  6
CONTINUOUS
  9
$CECOLOR
 62
   256
  9
$CELTSCALE
 40
1.0
  9
$DISPSILH
 70
     0
  9
$DIMSCALE
 40
1.0
  9
$DIMASZ
 40
0.18
  9
$DIMEXO
 40
0.0625
  9
$DIMDLI
 40
0.38
  9
$DIMRND
 40
0.0
  9
$DIMDLE
 40
0.0
  9
$DIMEXE
 40
0.18
  9
$DIMTP
 40
0.0
  9
$DIMTM
 40
0.0
  9
$DIMTXT
 40
0.18
  9
$DIMCEN
 40
0.09
  9
$DIMTSZ
 40
0.0
  9
$DIMTOL
 70
     0
  9
$DIMLIM
 70
     0
  9
$DIMTIH
 70
     1
  9
$DIMTOH
 70
     1
  9
$DIMSE1
 70
     0
  9
$DIMSE2
 70
     0
  9
$DIMTAD
 70
     0
  9
$DIMZIN
 70
     0
  9
$DIMBLK
  1

  9
$DIMASO
 70
     1
  9
$DIMSHO
 70
     1
  9
$DIMPOST
  1

  9
$DIMAPOST
  1

  9
$DIMALT
 70
     0
  9
$DIMALTD
 70
     2
  9
$DIMALTF
 40
25.4
  9
$DIMLFAC
 40
1.0
  9
$DIMTOFL
 70
     0
  9
$DIMTVP
 40
0.0
  9
$DIMTIX
 70
     0
  9
$DIMSOXD
 70
     0
  9
$DIMSAH
 70
     0
  9
$DIMBLK1
  1

  9
$DIMBLK2
  1

  9
$DIMSTYLE
  2
STANDARD
  9
$DIMCLRD
 70
     0
  9
$DIMCLRE
 70
     0
  9
$DIMCLRT
 70
     0
  9
$DIMTFAC
 40
1.0
  9
$DIMGAP
 40
0.09
  9
$DIMJUST
 70
     0
  9
$DIMSD1
 70
     0
  9
$DIMSD2
 70
     0
  9
$DIMTOLJ
 70
     1
  9
$DIMTZIN
 70
     0
  9
$DIMALTZ
 70
     0
  9
$DIMALTTZ
 70
     0
  9
$DIMUPT
 70
     0
  9
$DIMDEC
 70
     4
  9
$DIMTDEC
 70
     4
  9
$DIMALTU
 70
     2
  9
$DIMALTTD
 70
     2
  9
$DIMTXSTY
  7
STANDARD
  9
$DIMAUNIT
 70
     0
  9
$DIMADEC
 70
     0
  9
$DIMALTRND
 40
0.0
  9
$DIMAZIN
 70
     0
  9
$DIMDSEP
 70
    46
  9
$DIMATFIT
 70
     3
  9
$DIMFRAC
 70
     0
  9
$DIMLDRBLK
  1

  9
$DIMLUNIT
 70
     2
  9
$DIMLWD
 70
    -2
  9
$DIMLWE
 70
    -2
  9
$DIMTMOVE
 70
     2
  9
$DIMFXL
 40
1.0
  9
$DIMFXLON
 70
     0
  9
$DIMJOGANG
 40
0.7853981633974483
  9
$DIMTFILL
 70
     0
  9
$DIMTFILLCLR
 70
     0
  9
$DIMARCSYM
 70
     0
  9
$DIMLTYPE
  6

  9
$DIMLTEX1
  6

  9
$DIMLTEX2
  6

  9
$DIMTXTDIRECTION
 70
     0
  9
$LUNITS
 70
     2
  9
$LUPREC
 70
     4
  9
$SKETCHINC
 40
0.1
  9
$FILLETRAD
 40
0.0
  9
$AUNITS
 70
     0
  9
$AUPREC
 70
     0
  9
$MENU
  1
acad
  9
$ELEVATION
 40
0.0
  9
$PELEVATION
 40
0.0
  9
$THICKNESS
 40
0.0
  9
$LIMCHECK
 70
     0
  9
$CHAMFERA
 40
0.0
  9
$CHAMFERB
 40
0.0
  9
$CHAMFERC
 40
0.0
  9
$CHAMFERD
 40
0.0
  9
$SKPOLY
 70
     0
  9
$TDCREATE
 40
2447893.0
  9
$TDUCREATE
 40
2447892.625
  9
$TDUPDATE
 40
2458624.381471655
  9
$TDUUPDATE
 40
2458624.006471655
  9
$TDINDWG
 40
0.0198443403
  9
$TDUSRTIMER
 40
0.0000790162
  9
$USRTIMER
 70
     1
  9
$ANGBASE
 50
0.0
  9
$ANGDIR
 70
     0
  9
$PDMODE
 70
     0
  9
$PDSIZE
 40
0.0
  9
$PLINEWID
 40
0.0
  9
$SPLFRAME
 70
     0
  9
$SPLINETYPE
 70
     6
  9
$SPLINESEGS
 70
     8
  9
$HANDSEED
  5
2832
  9
$SURFTAB1
 70
     6
  9
$SURFTAB2
 70
     6
  9
$SURFTYPE
 70
     6
  9
$SURFU
 70
     6
  9
$SURFV
 70
     6
  9
$UCSBASE
  2

  9
$UCSNAME
  2

  9
$UCSORG
 10
0.0
 20
0.0
 30
0.0
  9
$UCSXDIR
 10
1.0
 20
0.0
 30
0.0
  9
$UCSYDIR
 10
0.0
 20
1.0
 30
0.0
  9
$UCSORTHOREF
  2

  9
$UCSORTHOVIEW
 70
     0
  9
$UCSORGTOP
 10
0.0
 20
0.0
 30
0.0
  9
$UCSORGBOTTOM
 10
0.0
 20
0.0
 30
0.0
  9
$UCSORGLEFT
 10
0.0
 20
0.0
 30
0.0
  9
$UCSORGRIGHT
 10
0.0
 20
0.0
 30
0.0
  9
$UCSORGFRONT
 10
0.0
 20
0.0
 30
0.0
  9
$UCSORGBACK
 10
0.0
 20
0.0
 30
0.0
  9
$PUCSBASE
  2

  9
$PUCSNAME
  2

  9
$PUCSORG
 10
0.0
 20
0.0
 30
0.0
  9
$PUCSXDIR
 10
1.0
 20
0.0
 30
0.0
  9
$PUCSYDIR
 10
0.0
 20
1.0
 30
0.0
  9
$PUCSORTHOREF
  2

  9
$PUCSORTHOVIEW
 70
     0
  9
$PUCSORGTOP
 10
0.0
 20
0.0
 30
0.0
  9
$PUCSORGBOTTOM
 10
0.0
 20
0.0
 30
0.0
  9
$PUCSORGLEFT
 10
0.0
 20
0.0
 30
0.0
  9
$PUCSORGRIGHT
 10
0.0
 20
0.0
 30
0.0
  9
$PUCSORGFRONT
 10
0.0
 20
0.0
 30
0.0
  9
$PUCSORGBACK
 10
0.0
 20
0.0
 30
0.0
  9
$USERI1
 70
     0
  9
$USERI2
 70
     0
  9
$USERI3
 70
     0
  9
$USERI4
 70
     0
  9
$USERI5
 70
     0
  9
$USERR1
 40
0.0
  9
$USERR2
 40
0.0
  9
$USERR3
 40
0.0
  9
$USERR4
 40
0.0
  9
$USERR5
 40
0.0
  9
$WORLDVIEW
 70
     1
  9
$SHADEDGE
 70
     3
  9
$SHADEDIF
 70
    70
  9
$TILEMODE
 70
     1
  9
$MAXACTVP
 70
    16
  9
$PINSBASE
 10
0.0
 20
0.0
 30
0.0
  9
$PLIMCHECK
 70
     0
  9
$PEXTMIN
 10
1.05
 20
0.6999999999999997
 30
0.0
  9
$PEXTMAX
 10
9.45
 20
6.300000000000001
 30
0.0
  9
$PLIMMIN
 10
-0.25
 20
-0.7500000000000001
  9
$PLIMMAX
 10
10.75
 20
7.75
  9
$UNITMODE
 70
     0
  9
$VISRETAIN
 70
     0
  9
$PLINEGEN
 70
     1
  9
$PSLTSCALE
 70
     1
  9
$TREEDEPTH
 70
  3020
  9
$CMLSTYLE
  2
STANDARD
  9
$CMLJUST
 70
     0
  9
$CMLSCALE
 40
1.0
  9
$PROXYGRAPHICS
 70
     0
  9
$MEASUREMENT
 70
     0
  9
$CELWEIGHT
370
    -1
  9
$ENDCAPS
280
     0
  9
$JOINSTYLE
280
     0
  9
$LWDISPLAY
290
     0
  9
$INSUNITS
 70
     0
  9
$HYPERLINKBASE
  1

  9
$STYLESHEET
  1

  9
$XEDIT
290
     1
  9
$CEPSNTYPE
380
     0
  9
$PSTYLEMODE
290
     1
  9
$FINGERPRINTGUID
  2
{DBF68772-20C5-4302-892C-8F1BC8CC68E0}
  9
$VERSIONGUID
  2
{FAEB1C32-E019-11D5-929B-00C0DF256EC4}
  9
$EXTNAMES
290
     1
  9
$PSVPSCALE
 40
0.0
  9
$OLESTARTUP
290
     0
  9
$SORTENTS
280
   127
  9
$INDEXCTL
280
     0
  9
$HIDETEXT
280
     1
  9
$XCLIPFRAME
280
     2
  9
$HALOGAP
280
     0
  9
$OBSCOLOR
 70
   257
  9
$OBSLTYPE
280
     0
  9
$INTERSECTIONDISPLAY
280
     0
  9
$INTERSECTIONCOLOR
 70
   257
  9
$DIMASSOC
280
     2
  9
$PROJECTNAME
  1

  9
$CAMERADISPLAY
290
     0
  9
$LENSLENGTH
 40
50.0
  9
$CAMERAHEIGHT
 40
0.0
  9
$STEPSPERSEC
 40
2.0
  9
$STEPSIZE
 40
6.0
  9
$3DDWFPREC
 40
2.0
  9
$PSOLWIDTH
 40
0.25
  9
$PSOLHEIGHT
 40
4.0
  9
$LOFTANG1
 40
1.570796326794897
  9
$LOFTANG2
 40
1.570796326794897
  9
$LOFTMAG1
 40
0.0
  9
$LOFTMAG2
 40
0.0
  9
$LOFTPARAM
 70
     7
  9
$LOFTNORMALS
280
     1
  9
$LATITUDE
 40
37.795
  9
$LONGITUDE
 40
-122.394
  9
$NORTHDIRECTION
 40
0.0
  9
$TIMEZONE
 70
 -8000
  9
$LIGHTGLYPHDISPLAY
280
     1
  9
$TILEMODELIGHTSYNCH
280
     1
  9
$SOLIDHIST
280
     0
  9
$SHOWHIST
280
     1
  9
$DWFFRAME
280
     2
  9
$DGNFRAME
280
     2
  9
$REALWORLDSCALE
290
     1
  9
$INTERFERECOLOR
 62
   256
  9
$CSHADOW
280
     0
  9
$SHADOWPLANELOCATION
 40
0.0
  0
ENDSEC
  0
SECTION
  2
CLASSES
  0
CLASS
  1
LWPOLYLINE
  2
AcDbPolyline
  3
ObjectDBX Classes
 90
        0
 91
        1
280
     0
281
     1
  0
CLASS
  1
IMAGE
  2
AcDbRasterImage
  3
ISM
 90
      127
 91
        5
280
     0
281
     1
  0
CLASS
  1
OLE2FRAME
  2
AcDbOle2Frame
  3
ObjectDBX Classes
 90
        0
 91
        1
280
     0
281
     1
  0
CLASS
  1
HATCH
  2
AcDbHatch
  3
ObjectDBX Classes
 90
        0
 91
        1
280
     0
281
     1
  0
CLASS
  1
DICTIONARYVAR
  2
AcDbDictionaryVar
  3
ObjectDBX Classes
 90
        0
 91
        4
280
     0
281
     0
  0
CLASS
  1
RASTERVARIABLES
  2
AcDbRasterVariables
  3
ISM
 90
        0
 91
        4
280
     0
281
     0
  0
CLASS
  1
IMAGEDEF
  2
AcDbRasterImageDef
  3
ISM
 90
        0
 91
        4
280
     0
281
     0
  0
CLASS
  1
IMAGEDEF_REACTOR
  2
AcDbRasterImageDefReactor
  3
ISM
 90
        1
 91
        4
280
     0
281
     0
  0
CLASS
  1
IDBUFFER
  2
AcDbIdBuffer
  3
ObjectDBX Classes
 90
        0
 91
        4
280
     0
281
     0
  0
CLASS
  1
SPATIAL_FILTER
  2
AcDbSpatialFilter
  3
ObjectDBX Classes
 90
        0
 91
        4
280
     0
281
     0
  0
CLASS
  1
XRECORD
  2
AcDbXrecord
  3
ObjectDBX Classes
 90
        0
 91
        1
280
     0
281
     0
  0
CLASS
  1
SORTENTSTABLE
  2
AcDbSortentsTable
  3
ObjectDBX Classes
 90
        0
 91
        4
280
     0
281
     0
  0
CLASS
  1
LAYER_INDEX
  2
AcDbLayerIndex
  3
ObjectDBX Classes
 90
        0
 91
        4
280
     0
281
     0
  0
CLASS
  1
SPATIAL_INDEX
  2
AcDbSpatialIndex
  3
AutoCAD 2000
 90
        0
 91
        4
280
     0
281
     0
  0
CLASS
  1
OBJECT_PTR
  2
CAseDLPNTableRecord
  3
ASE-LPNTableRecord
 90
        1
 91
        4
280
     0
281
     0
  0
CLASS
  1
LAYOUT
  2
AcDbLayout
  3
ObjectDBX Classes
 90
        0
 91
        1
280
     0
281
     0
  0
CLASS
  1
PLOTSETTINGS
  2
AcDbPlotSettings
  3
ObjectDBX Classes
 90
        0
 91
        4
280
     0
281
     0
  0
CLASS
  1
ACDBDICTIONARYWDFLT
  2
AcDbDictionaryWithDefault
  3
ObjectDBX Classes
 90
        0
 91
        4
280
     0
281
     0
  0
CLASS
  1
ACDBPLACEHOLDER
  2
AcDbPlaceHolder
  3
ObjectDBX Classes
 90
        0
 91
        1
280
     0
281
     0
  0
CLASS
  1
VBA_PROJECT
  2
AcDbVbaProject
  3
ObjectDBX Classes
 90
        0
 91
        1
280
     0
281
     0
  0
CLASS
  1
WIPEOUT
  2
AcDbWipeout
  3
WipeOut|AutoCAD Express Tool|expresstools@autodesk.com
 90
      127
 91
        4
280
     0
281
     1
  0
CLASS
  1
WIPEOUTVARIABLES
  2
AcDbWipeoutVariables
  3
WipeOut|AutoCAD Express Tool|expresstools@autodesk.com
 90
        0
 91
        4
280
     0
281
     0
  0
CLASS
  1
RTEXT
  2
RText
  3
RText|AutoCAD Express Tool|expresstools@autodesk.com
 90
        0
 91
        4
280
     0
281
     1
  0
CLASS
  1
ARCALIGNEDTEXT
  2
AcDbArcAlignedText
  3
ATEXT|AutoCAD Express Tool|expresstools@autodesk.com
 90
        0
 91
        4
280
     0
281
     1
  0
CLASS
  1
SCALE
  2
AcDbScale
  3
ObjectDBX Classes
 90
     1153
 91
        4
280
     0
281
     0
  0
CLASS
  1
VISUALSTYLE
  2
AcDbVisualStyle
  3
ObjectDBX Classes
 90
     4095
 91
        4
280
     0
281
     0
  0
CLASS
  1
MATERIAL
  2
AcDbMaterial
  3
ObjectDBX Classes
 90
     1153
 91
        4
280
     0
281
     0
  0
CLASS
  1
TABLESTYLE
  2
AcDbTableStyle
  3
ObjectDBX Classes
 90
     4095
 91
        4
280
     0
281
     0
  0
CLASS
  1
MLEADERSTYLE
  2
AcDbMLeaderStyle
  3
ACDB_MLEADERSTYLE_CLASS
 90
     4095
 91
        4
280
     0
281
     0
  0
CLASS
  1
DIMASSOC
  2
AcDbDimAssoc
  3
"AcDbDimAssoc|Product Desc:     AcDim ARX App For Dimension|Company:          Autodesk, Inc.|WEB Address:      www.autodesk.com"
 90
        0
 91
        4
280
     0
281
     0
  0
CLASS
  1
CELLSTYLEMAP
  2
AcDbCellStyleMap
  3
ObjectDBX Classes
 90
     1152
 91
        4
280
     0
281
     0
  0
CLASS
  1
SUN
  2
AcDbSun
  3
SCENEOE
 90
     1153
 91
        4
280
     0
281
     0
  0
ENDSEC
  0
SECTION
  2
TABLES
  0
TABLE
  2
VPORT
  5
7
330
0
100
AcDbSymbolTable
 70
     1
  0
VPORT
  5
15
330
7
100
AcDbSymbolTableRecord
100
AcDbViewportTableRecord
  2
*ACTIVE
 70
     0
 10
0.0
 20
0.0
 11
1.0
 21
1.0
 12
13670.26777016896
 22
-2293.485199204764
 13
0.0
 23
0.0
 14
1.0
 24
1.0
 15
0.0
 25
0.0
 16
0.0
 26
0.0
 36
1.0
 17
0.0
 27
0.0
 37
0.0
 40
4229.270205731301
 41
2.085858585858586
 42
50.0
 43
0.0
 44
0.0
 50
0.0
 51
0.0
 71
    16
 72
   100
 73
     1
 74
     1
 75
     0
 76
     0
 77
     0
 78
     0
281
     0
 65
     1
110
0.0
120
0.0
130
0.0
111
1.0
121
0.0
131
0.0
112
0.0
122
1.0
132
0.0
 79
     0
146
0.0
348
525
 60
     3
 61
     5
292
     1
282
     1
141
0.0
142
0.0
 63
   256
361
151A
  0
ENDTAB
  0
TABLE
  2
LTYPE
  5
4
330
0
100
AcDbSymbolTable
 70
     8
  0
LTYPE
  5
11
330
4
100
AcDbSymbolTableRecord
100
AcDbLinetypeTableRecord
  2
BYBLOCK
 70
     0
  3

 72
    65
 73
     0
 40
0.0
  0
LTYPE
  5
12
330
4
100
AcDbSymbolTableRecord
100
AcDbLinetypeTableRecord
  2
BYLAYER
 70
     0
  3

 72
    65
 73
     0
 40
0.0
  0
LTYPE
  5
13
330
4
100
AcDbSymbolTableRecord
100
AcDbLinetypeTableRecord
  2
CONTINUOUS
 70
     0
  3
Solid line
 72
    65
 73
     0
 40
0.0
  0
LTYPE
  5
1D
330
4
100
AcDbSymbolTableRecord
100
AcDbLinetypeTableRecord
  2
DASHED
 70
     0
  3
Dashed
 72
    65
 73
     2
 40
15.0
 49
12.0
 74
     0
 49
-3.0
 74
     0
  0
LTYPE
  5
1E
330
4
100
AcDbSymbolTableRecord
100
AcDbLinetypeTableRecord
  2
DOTTED
 70
     0
  3
Dotted
 72
    65
 73
     2
 40
3.5
 49
0.5
 74
     0
 49
-3.0
 74
     0
  0
LTYPE
  5
1F
330
4
100
AcDbSymbolTableRecord
100
AcDbLinetypeTableRecord
  2
DOT_CENTER
 70
     0
  3
Dot_Center
 72
    65
 73
     4
 40
2.0
 49
1.25
 74
     0
 49
-0.25
 74
     0
 49
0.25
 74
     0
 49
-0.25
 74
     0
  0
LTYPE
  5
20
330
4
100
AcDbSymbolTableRecord
100
AcDbLinetypeTableRecord
  2
LONG_DASHED
 70
     0
  3
Long_Dashed
 72
    65
 73
     2
 40
2.0
 49
1.5
 74
     0
 49
-0.5
 74
     0
  0
LTYPE
  5
21
330
4
100
AcDbSymbolTableRecord
100
AcDbLinetypeTableRecord
  2
DASH_CENTER
 70
     0
  3
Dash_Center
 72
    65
 73
     4
 40
36.0
 49
24.0
 74
     0
 49
-3.0
 74
     0
 49
6.0
 74
     0
 49
-3.0
 74
     0
  0
LTYPE
  5
22
330
4
100
AcDbSymbolTableRecord
100
AcDbLinetypeTableRecord
  2
PHANTOM
 70
     0
  3
Phantom
 72
    65
 73
     6
 40
2.5
 49
1.25
 74
     0
 49
-0.25
 74
     0
 49
0.25
 74
     0
 49
-0.25
 74
     0
 49
0.25
 74
     0
 49
-0.25
 74
     0
  0
LTYPE
  5
23
330
4
100
AcDbSymbolTableRecord
100
AcDbLinetypeTableRecord
  2
CENTER_DASH_DASH
 70
     0
  3
Center_Dash_Dash
 72
    65
 73
     6
 40
22.0
 49
12.0
 74
     0
 49
-3.0
 74
     0
 49
0.5
 74
     0
 49
-3.0
 74
     0
 49
0.5
 74
     0
 49
-3.0
 74
     0
  0
ENDTAB
  0
TABLE
  2
LAYER
  5
2
330
0
100
AcDbSymbolTable
 70
     3
  0
LAYER
  5
14
330
2
100
AcDbSymbolTableRecord
100
AcDbLayerTableRecord
  2
0
 70
     0
 62
     7
  6
CONTINUOUS
370
    -3
390
4FA
347
53C
348
0
  0
LAYER
  5
24
330
2
100
AcDbSymbolTableRecord
100
AcDbLayerTableRecord
  2
1
 70
     0
 62
     7
  6
CONTINUOUS
370
    -3
390
4FA
347
53C
348
0
  0
LAYER
  5
A0F
330
2
100
AcDbSymbolTableRecord
100
AcDbLayerTableRecord
  2
Defpoints
 70
     0
 62
     7
  6
CONTINUOUS
290
     0
370
    -3
390
4FA
347
53C
348
0
  0
ENDTAB
  0
TABLE
  2
STYLE
  5
3
330
0
100
AcDbSymbolTable
 70
     2
  0
STYLE
  5
17
330
3
100
AcDbSymbolTableRecord
100
AcDbTextStyleTableRecord
  2
STANDARD
 70
     0
 40
0.0
 41
1.0
 50
0.0
 71
     0
 42
0.0
  3
txt
  4

  0
STYLE
  5
4F5
330
3
100
AcDbSymbolTableRecord
100
AcDbTextStyleTableRecord
  2
CONVERTER_1
 70
     0
 40
0.0
 41
0.9
 50
0.0
 71
     0
 42
0.0
  3
txt.shx
  4

  0
ENDTAB
  0
TABLE
  2
VIEW
  5
5
330
0
100
AcDbSymbolTable
 70
     0
  0
ENDTAB
  0
TABLE
  2
UCS
  5
6
330
0
100
AcDbSymbolTable
 70
     0
  0
ENDTAB
  0
TABLE
  2
APPID
  5
8
330
0
100
AcDbSymbolTable
 70
     1
  0
APPID
  5
16
330
8
100
AcDbSymbolTableRecord
100
AcDbRegAppTableRecord
  2
ACAD
 70
     0
  0
ENDTAB
  0
TABLE
  2
DIMSTYLE
  5
9
330
0
100
AcDbSymbolTable
 70
     1
100
AcDbDimStyleTable
  0
DIMSTYLE
105
18
330
9
100
AcDbSymbolTableRecord
100
AcDbDimStyleTableRecord
  2
STANDARD
 70
     0
178
     0
289
     0
340
17
  0
ENDTAB
  0
TABLE
  2
BLOCK_RECORD
  5
1
330
0
100
AcDbSymbolTable
 70
     2
  0
BLOCK_RECORD
  5
A
330
1
100
AcDbSymbolTableRecord
100
AcDbBlockTableRecord
  2
*MODEL_SPACE
340
51E
 70
     0
280
     1
281
     0
  0
BLOCK_RECORD
  5
2823
330
1
100
AcDbSymbolTableRecord
100
AcDbBlockTableRecord
  2
*Paper_Space
340
2824
 70
     0
280
     1
281
     0
  0
BLOCK_RECORD
  5
25
330
1
100
AcDbSymbolTableRecord
100
AcDbBlockTableRecord
  2
SAT1500C85__1
340
0
102
{BLKREFS
331
29
102
}
 70
     0
280
     1
281
     0
  0
BLOCK_RECORD
  5
A13
330
1
100
AcDbSymbolTableRecord
100
AcDbBlockTableRecord
  2
*D1
340
0
 70
     0
280
     1
281
     0
  0
ENDTAB
  0
ENDSEC
  0
SECTION
  2
BLOCKS
  0
BLOCK
  5
D
330
A
100
AcDbEntity
  8
0
100
AcDbBlockBegin
  2
*MODEL_SPACE
 70
     0
 10
0.0
 20
0.0
 30
0.0
  3
*MODEL_SPACE
  1

  0
ENDBLK
  5
E
330
A
100
AcDbEntity
  8
0
100
AcDbBlockEnd
  0
BLOCK
  5
2825
330
2823
100
AcDbEntity
 67
     1
  8
0
100
AcDbBlockBegin
  2
*Paper_Space
 70
     0
 10
0.0
 20
0.0
 30
0.0
  3
*Paper_Space
  1

  0
ENDBLK
  5
2826
330
2823
100
AcDbEntity
 67
     1
  8
0
100
AcDbBlockEnd
  0
BLOCK
  5
26
330
25
100
AcDbEntity
  8
0
100
AcDbBlockBegin
  2
SAT1500C85__1
 70
     0
 10
0.0
 20
0.0
 30
0.0
  3
SAT1500C85__1
  1

  0
ARC
  5
4EA
330
25
100
AcDbEntity
  8
1
  6
Continuous
 62
     0
100
AcDbCircle
 10
10407.66823714032
 20
-3594.011451575379
 30
0.0
 40
2.0
100
AcDbArc
 50
270.0
 51
0.0
  0
ARC
  5
4E9
330
25
100
AcDbEntity
  8
1
  6
Continuous
 62
     0
100
AcDbCircle
 10
10407.66823714032
 20
-3563.011451575379
 30
0.0
 40
2.0
100
AcDbArc
 50
0.0
 51
90.0
  0
ARC
  5
4E8
330
25
100
AcDbEntity
  8
1
  6
Continuous
 62
     0
100
AcDbCircle
 10
10333.66823714032
 20
-3594.011451575379
 30
0.0
 40
2.0
100
AcDbArc
 50
180.0
 51
270.0
  0
ARC
  5
4E7
330
25
100
AcDbEntity
  8
1
  6
Continuous
 62
     0
100
AcDbCircle
 10
10333.66823714032
 20
-3563.011451575379
 30
0.0
 40
2.0
100
AcDbArc
 50
90.0
 51
180.0
  0
ARC
  5
4E6
330
25
100
AcDbEntity
  8
1
  6
Continuous
 62
     0
100
AcDbCircle
 10
10439.42696399874
 20
-3559.011451575379
 30
0.0
 40
3.0
100
AcDbArc
 50
90.0
 51
125.0511367472717
  0
ARC
  5
4E5
330
25
100
AcDbEntity
  8
1
  6
Continuous
 62
     0
100
AcDbCircle
 10
10420.42696399874
 20
-3559.011451575379
 30
0.0
 40
3.000000000005
100
AcDbArc
 50
54.9488632525427
 51
90.0
  0
ARC
  5
4E4
330
25
100
AcDbEntity
  8
1
  6
Continuous
 62
     0
100
AcDbCircle
 10
11012.16696399874
 20
-2979.276134080178
 30
0.0
 40
1.0
100
AcDbArc
 50
270.0
 51
0.0
  0
ARC
  5
4E3
330
25
100
AcDbEntity
  8
1
  6
Continuous
 62
     0
100
AcDbCircle
 10
11012.16696399874
 20
-3036.276134080178
 30
0.0
 40
1.0
100
AcDbArc
 50
0.0
 51
90.0
  0
ARC
  5
4E2
330
25
100
AcDbEntity
  8
1
  6
Continuous
 62
     0
100
AcDbCircle
 10
10384.12870787668
 20
-1248.316606202475
 30
0.0
 40
3.0
100
AcDbArc
 50
180.0
 51
270.0
  0
ARC
  5
4E1
330
25
100
AcDbEntity
  8
1
  6
Continuous
 62
     0
100
AcDbCircle
 10
10384.12870787668
 20
-1277.316606202475
 30
0.0
 40
3.0
100
AcDbArc
 50
90.0
 51
180.0
  0
ARC
  5
4E0
330
25
100
AcDbEntity
  8
1
  6
Continuous
 62
     0
100
AcDbCircle
 10
10440.65019091063
 20
-1270.166606202474
 30
0.0
 40
3.0
100
AcDbArc
 50
90.0
 51
145.5709960492125
  0
ARC
  5
4DF
330
25
100
AcDbEntity
  8
1
  6
Continuous
 62
     0
100
AcDbCircle
 10
10440.65019091063
 20
-1255.466606202473
 30
0.0
 40
3.000000000009
100
AcDbArc
 50
214.4290039508092
 51
270.0
  0
ARC
  5
4DE
330
25
100
AcDbEntity
  8
1
  6
Continuous
 62
     0
100
AcDbCircle
 10
10419.20467855955
 20
-1255.466606202473
 30
0.0
 40
3.0
100
AcDbArc
 50
270.0
 51
325.5709960491947
  0
ARC
  5
4DD
330
25
100
AcDbEntity
  8
1
  6
Continuous
 62
     0
100
AcDbCircle
 10
10419.20467855955
 20
-1270.166606202474
 30
0.0
 40
3.000000000008
100
AcDbArc
 50
34.42900395077336
 51
90.0
  0
ARC
  5
4DC
330
25
100
AcDbEntity
  8
1
  6
Continuous
 62
     0
100
AcDbCircle
 10
10733.42796365871
 20
-272.576293571364
 30
0.0
 40
3.000000000003
100
AcDbArc
 50
137.574439099223
 51
201.5834380280179
  0
ARC
  5
4DB
330
25
100
AcDbEntity
  8
1
  6
Continuous
 62
     0
100
AcDbCircle
 10
10699.10469442906
 20
-281.773185843044
 30
0.0
 40
3.000000000003
100
AcDbArc
 50
8.41656197194563
 51
72.4255609008293
  0
ARC
  5
4DA
330
25
100
AcDbEntity
  8
1
  6
Continuous
 62
     0
100
AcDbCircle
 10
10725.34008587966
 20
-268.442121968213
 30
0.0
 40
3.000000000005
100
AcDbArc
 50
21.58343802801928
 51
98.76538902698222
  0
ARC
  5
4D9
330
25
100
AcDbEntity
  8
1
  6
Continuous
 62
     0
100
AcDbCircle
 10
10704.04191624684
 20
-274.148949321588
 30
0.0
 40
2.999999999998
100
AcDbArc
 50
111.2346109727377
 51
188.4165619719609
  0
ARC
  5
4D8
330
25
100
AcDbEntity
  8
1
  6
Continuous
 62
     0
100
AcDbCircle
 10
10994.16696399874
 20
-2579.583236428733
 30
0.0
 40
3.0
100
AcDbArc
 50
0.0
 51
38.09195710520862
  0
ARC
  5
4D7
330
25
100
AcDbEntity
  8
1
  6
Continuous
 62
     0
100
AcDbCircle
 10
10994.16696399874
 20
-2556.409975976218
 30
0.0
 40
3.000000000003
100
AcDbArc
 50
321.9080428948274
 51
0.0
  0
ARC
  5
4D6
330
25
100
AcDbEntity
  8
1
  6
Continuous
 62
     0
100
AcDbCircle
 10
13742.46983082346
 20
-2560.246606202475
 30
0.0
 40
2.0
100
AcDbArc
 50
270.0
 51
328.8910774892695
  0
ARC
  5
4D5
330
25
100
AcDbEntity
  8
1
  6
Continuous
 62
     0
100
AcDbCircle
 10
13742.46983082346
 20
-2575.746606202475
 30
0.0
 40
1.999999999996
100
AcDbArc
 50
31.10892251045824
 51
90.0
  0
ARC
  5
4D4
330
25
100
AcDbEntity
  8
1
  6
Continuous
 62
     0
100
AcDbCircle
 10
13768.15542990155
 20
-2560.246606202475
 30
0.0
 40
2.00000000001
100
AcDbArc
 50
211.1089225106025
 51
270.0
  0
ARC
  5
4D3
330
25
100
AcDbEntity
  8
1
  6
Continuous
 62
     0
100
AcDbCircle
 10
13768.15542990155
 20
-2575.746606202475
 30
0.0
 40
2.0
100
AcDbArc
 50
90.0
 51
148.8910774896672
  0
ARC
  5
4D2
330
25
100
AcDbEntity
  8
1
  6
Continuous
 62
     0
100
AcDbCircle
 10
13748.56263036251
 20
-2555.996606202474
 30
0.0
 40
2.0
100
AcDbArc
 50
90.0
 51
180.0
  0
ARC
  5
4D1
330
25
100
AcDbEntity
  8
1
  6
Continuous
 62
     0
100
AcDbCircle
 10
10348.34803589221
 20
-1197.094420419032
 30
0.0
 40
0.144444444446
100
AcDbArc
 50
137.7821654181386
 51
312.2178345820557
  0
ARC
  5
4D0
330
25
100
AcDbEntity
  8
1
  6
Continuous
 62
     0
100
AcDbCircle
 10
10947.16696399874
 20
-1043.096606202476
 30
0.0
 40
1.0
100
AcDbArc
 50
90.0
 51
180.0
  0
ARC
  5
4CF
330
25
100
AcDbEntity
  8
1
  6
Continuous
 62
     0
100
AcDbCircle
 10
10985.16696399874
 20
-1043.096606202476
 30
0.0
 40
1.0
100
AcDbArc
 50
0.0
 51
90.0
  0
ARC
  5
4CE
330
25
100
AcDbEntity
  8
1
  6
Continuous
 62
     0
100
AcDbCircle
 10
10989.16696399874
 20
-1049.096606202476
 30
0.0
 40
2.0
100
AcDbArc
 50
0.0
 51
90.0
  0
ARC
  5
4CD
330
25
100
AcDbEntity
  8
1
  6
Continuous
 62
     0
100
AcDbCircle
 10
10943.16696399874
 20
-1049.096606202476
 30
0.0
 40
2.0
100
AcDbArc
 50
90.0
 51
180.0
  0
ARC
  5
4CC
330
25
100
AcDbEntity
  8
1
  6
Continuous
 62
     0
100
AcDbCircle
 10
10944.16696399874
 20
-1045.096606202476
 30
0.0
 40
2.0
100
AcDbArc
 50
270.0
 51
0.0
  0
ARC
  5
4CB
330
25
100
AcDbEntity
  8
1
  6
Continuous
 62
     0
100
AcDbCircle
 10
10988.16696399874
 20
-1045.096606202476
 30
0.0
 40
2.0
100
AcDbArc
 50
180.0
 51
270.0
  0
ARC
  5
4CA
330
25
100
AcDbEntity
  8
1
  6
Continuous
 62
     0
100
AcDbCircle
 10
10991.16696399874
 20
-1090.519255933286
 30
0.0
 40
2.0
100
AcDbArc
 50
180.0
 51
239.9999999999994
  0
ARC
  5
4C9
330
25
100
AcDbEntity
  8
1
  6
Continuous
 62
     0
100
AcDbCircle
 10
10986.16696399874
 20
-1090.096606202476
 30
0.0
 40
1.0
100
AcDbArc
 50
270.0
 51
0.0
  0
ARC
  5
4C8
330
25
100
AcDbEntity
  8
1
  6
Continuous
 62
     0
100
AcDbCircle
 10
10975.50029733208
 20
-1090.096606202476
 30
0.0
 40
1.0
100
AcDbArc
 50
180.0
 51
270.0
  0
ARC
  5
4C7
330
25
100
AcDbEntity
  8
1
  6
Continuous
 62
     0
100
AcDbCircle
 10
10971.50029733208
 20
-1090.096606202476
 30
0.0
 40
1.0
100
AcDbArc
 50
270.0
 51
0.0
  0
ARC
  5
4C6
330
25
100
AcDbEntity
  8
1
  6
Continuous
 62
     0
100
AcDbCircle
 10
10960.83363066541
 20
-1090.096606202476
 30
0.0
 40
1.0
100
AcDbArc
 50
180.0
 51
270.0
  0
ARC
  5
4C5
330
25
100
AcDbEntity
  8
1
  6
Continuous
 62
     0
100
AcDbCircle
 10
10956.83363066541
 20
-1090.096606202476
 30
0.0
 40
1.0
100
AcDbArc
 50
270.0
 51
0.0
  0
ARC
  5
4C4
330
25
100
AcDbEntity
  8
1
  6
Continuous
 62
     0
100
AcDbCircle
 10
10941.16696399874
 20
-1090.519255933286
 30
0.0
 40
1.999999999999
100
AcDbArc
 50
300.0000000000168
 51
0.0
  0
ARC
  5
4C3
330
25
100
AcDbEntity
  8
1
  6
Continuous
 62
     0
100
AcDbCircle
 10
10946.16696399874
 20
-1090.096606202476
 30
0.0
 40
1.0
100
AcDbArc
 50
180.0
 51
270.0
  0
ARC
  5
4C2
330
25
100
AcDbEntity
  8
1
  6
Continuous
 62
     0
100
AcDbCircle
 10
10931.16696399874
 20
-1106.096606202476
 30
0.0
 40
5.0
100
AcDbArc
 50
90.0
 51
180.0
  0
ARC
  5
4C1
330
25
100
AcDbEntity
  8
1
  6
Continuous
 62
     0
100
AcDbCircle
 10
11001.16696399874
 20
-1106.096606202476
 30
0.0
 40
5.0
100
AcDbArc
 50
0.0
 51
90.0
  0
ARC
  5
4C0
330
25
100
AcDbEntity
  8
1
  6
Continuous
 62
     0
100
AcDbCircle
 10
10931.16696399874
 20
-1159.596606202475
 30
0.0
 40
5.0
100
AcDbArc
 50
180.0
 51
270.0
  0
ARC
  5
4BF
330
25
100
AcDbEntity
  8
1
  6
Continuous
 62
     0
100
AcDbCircle
 10
11007.16696399874
 20
-1107.096606202476
 30
0.0
 40
1.0
100
AcDbArc
 50
180.0
 51
270.0
  0
ARC
  5
4BE
330
25
100
AcDbEntity
  8
1
  6
Continuous
 62
     0
100
AcDbCircle
 10
11012.16696399874
 20
-1107.096606202476
 30
0.0
 40
1.0
100
AcDbArc
 50
270.0
 51
0.0
  0
ARC
  5
4BD
330
25
100
AcDbEntity
  8
1
  6
Continuous
 62
     0
100
AcDbCircle
 10
11007.16696399874
 20
-1164.096606202475
 30
0.0
 40
1.0
100
AcDbArc
 50
90.0
 51
180.0
  0
ARC
  5
4BC
330
25
100
AcDbEntity
  8
1
  6
Continuous
 62
     0
100
AcDbCircle
 10
11012.16696399874
 20
-1164.096606202475
 30
0.0
 40
1.0
100
AcDbArc
 50
0.0
 51
90.0
  0
ARC
  5
4BB
330
25
100
AcDbEntity
  8
1
  6
Continuous
 62
     0
100
AcDbCircle
 10
10998.16696399874
 20
-1172.596606202475
 30
0.0
 40
3.0
100
AcDbArc
 50
270.0
 51
0.0
  0
ARC
  5
4BA
330
25
100
AcDbEntity
  8
1
  6
Continuous
 62
     0
100
AcDbCircle
 10
10934.16696399874
 20
-1172.596606202475
 30
0.0
 40
3.0
100
AcDbArc
 50
180.0
 51
270.0
  0
ARC
  5
4B9
330
25
100
AcDbEntity
  8
1
  6
Continuous
 62
     0
100
AcDbCircle
 10
13216.21922730231
 20
-1159.596606202475
 30
0.0
 40
5.0
100
AcDbArc
 50
270.0
 51
0.0
  0
ARC
  5
4B8
330
25
100
AcDbEntity
  8
1
  6
Continuous
 62
     0
100
AcDbCircle
 10
13149.21922730231
 20
-1172.596606202475
 30
0.0
 40
3.0
100
AcDbArc
 50
180.0
 51
270.0
  0
ARC
  5
4B7
330
25
100
AcDbEntity
  8
1
  6
Continuous
 62
     0
100
AcDbCircle
 10
13213.21922730231
 20
-1172.596606202475
 30
0.0
 40
3.0
100
AcDbArc
 50
270.0
 51
0.0
  0
ARC
  5
4B6
330
25
100
AcDbEntity
  8
1
  6
Continuous
 62
     0
100
AcDbCircle
 10
13146.21922730231
 20
-1159.596606202475
 30
0.0
 40
5.0
100
AcDbArc
 50
180.0
 51
270.0
  0
ARC
  5
4B5
330
25
100
AcDbEntity
  8
1
  6
Continuous
 62
     0
100
AcDbCircle
 10
13216.21922730231
 20
-1106.096606202476
 30
0.0
 40
5.0
100
AcDbArc
 50
0.0
 51
90.0
  0
ARC
  5
4B4
330
25
100
AcDbEntity
  8
1
  6
Continuous
 62
     0
100
AcDbCircle
 10
13146.21922730231
 20
-1106.096606202476
 30
0.0
 40
5.0
100
AcDbArc
 50
90.0
 51
180.0
  0
ARC
  5
4B3
330
25
100
AcDbEntity
  8
1
  6
Continuous
 62
     0
100
AcDbCircle
 10
13161.21922730231
 20
-1090.096606202476
 30
0.0
 40
1.0
100
AcDbArc
 50
180.0
 51
270.0
  0
ARC
  5
4B2
330
25
100
AcDbEntity
  8
1
  6
Continuous
 62
     0
100
AcDbCircle
 10
13156.21922730231
 20
-1090.519255933286
 30
0.0
 40
1.999999999999
100
AcDbArc
 50
300.0000000000168
 51
0.0
  0
ARC
  5
4B1
330
25
100
AcDbEntity
  8
1
  6
Continuous
 62
     0
100
AcDbCircle
 10
13171.88589396898
 20
-1090.096606202476
 30
0.0
 40
1.0
100
AcDbArc
 50
270.0
 51
0.0
  0
ARC
  5
4B0
330
25
100
AcDbEntity
  8
1
  6
Continuous
 62
     0
100
AcDbCircle
 10
13175.88589396898
 20
-1090.096606202476
 30
0.0
 40
1.0
100
AcDbArc
 50
180.0
 51
270.0
  0
ARC
  5
4AF
330
25
100
AcDbEntity
  8
1
  6
Continuous
 62
     0
100
AcDbCircle
 10
13186.55256063564
 20
-1090.096606202476
 30
0.0
 40
1.0
100
AcDbArc
 50
270.0
 51
0.0
  0
ARC
  5
4AE
330
25
100
AcDbEntity
  8
1
  6
Continuous
 62
     0
100
AcDbCircle
 10
13190.55256063564
 20
-1090.096606202476
 30
0.0
 40
1.0
100
AcDbArc
 50
180.0
 51
270.0
  0
ARC
  5
4AD
330
25
100
AcDbEntity
  8
1
  6
Continuous
 62
     0
100
AcDbCircle
 10
13201.21922730231
 20
-1090.096606202476
 30
0.0
 40
1.0
100
AcDbArc
 50
270.0
 51
0.0
  0
ARC
  5
4AC
330
25
100
AcDbEntity
  8
1
  6
Continuous
 62
     0
100
AcDbCircle
 10
13206.21922730231
 20
-1090.519255933286
 30
0.0
 40
2.0
100
AcDbArc
 50
180.0
 51
239.9999999999994
  0
ARC
  5
4AB
330
25
100
AcDbEntity
  8
1
  6
Continuous
 62
     0
100
AcDbCircle
 10
13203.21922730231
 20
-1045.09593486389
 30
0.0
 40
2.0
100
AcDbArc
 50
180.0
 51
270.0
  0
ARC
  5
4AA
330
25
100
AcDbEntity
  8
1
  6
Continuous
 62
     0
100
AcDbCircle
 10
13159.21922730231
 20
-1045.09593486389
 30
0.0
 40
2.0
100
AcDbArc
 50
270.0
 51
0.0
  0
ARC
  5
4A9
330
25
100
AcDbEntity
  8
1
  6
Continuous
 62
     0
100
AcDbCircle
 10
13158.21922730231
 20
-1049.09593486389
 30
0.0
 40
2.0
100
AcDbArc
 50
90.0
 51
180.0
  0
ARC
  5
4A8
330
25
100
AcDbEntity
  8
1
  6
Continuous
 62
     0
100
AcDbCircle
 10
13204.21922730231
 20
-1049.09593486389
 30
0.0
 40
2.0
100
AcDbArc
 50
0.0
 51
90.0
  0
ARC
  5
4A7
330
25
100
AcDbEntity
  8
1
  6
Continuous
 62
     0
100
AcDbCircle
 10
13200.21922730231
 20
-1043.09593486389
 30
0.0
 40
1.0
100
AcDbArc
 50
0.0
 51
90.0
  0
ARC
  5
4A6
330
25
100
AcDbEntity
  8
1
  6
Continuous
 62
     0
100
AcDbCircle
 10
13162.21922730231
 20
-1043.09593486389
 30
0.0
 40
1.0
100
AcDbArc
 50
90.0
 51
180.0
  0
ARC
  5
4A5
330
25
100
AcDbEntity
  8
1
  6
Continuous
 62
     0
100
AcDbCircle
 10
13205.5773128673
 20
-1252.318150735047
 30
0.0
 40
45.0
100
AcDbArc
 50
180.0
 51
270.0
  0
ARC
  5
4A4
330
25
100
AcDbEntity
  8
1
  6
Continuous
 62
     0
100
AcDbCircle
 10
13207.5773128673
 20
-1222.315061669903
 30
0.0
 40
6.0
100
AcDbArc
 50
180.0
 51
270.0
  0
ARC
  5
4A3
330
25
100
AcDbEntity
  8
1
  6
Continuous
 62
     0
100
AcDbCircle
 10
10915.66696399874
 20
-1222.689318142014
 30
0.0
 40
29.999999999998
100
AcDbArc
 50
321.529354459396
 51
0.0
  0
ARC
  5
4A2
330
25
100
AcDbEntity
  8
1
  6
Continuous
 62
     0
100
AcDbCircle
 10
11016.66696399874
 20
-1222.689318142013
 30
0.0
 40
30.0
100
AcDbArc
 50
180.0
 51
218.4706455406088
  0
ARC
  5
4A1
330
25
100
AcDbEntity
  8
1
  6
Continuous
 62
     0
100
AcDbCircle
 10
11228.29201175064
 20
-274.148949321588
 30
0.0
 40
3.000000000001
100
AcDbArc
 50
351.5834380280665
 51
68.765389027098
  0
ARC
  5
4A0
330
25
100
AcDbEntity
  8
1
  6
Continuous
 62
     0
100
AcDbCircle
 10
11206.99384211782
 20
-268.442121968213
 30
0.0
 40
3.0
100
AcDbArc
 50
81.23461097282726
 51
158.4165619719606
  0
ARC
  5
49F
330
25
100
AcDbEntity
  8
1
  6
Continuous
 62
     0
100
AcDbCircle
 10
11233.22923356842
 20
-281.773185843044
 30
0.0
 40
3.000000000001
100
AcDbArc
 50
107.5744390991828
 51
171.5834380280504
  0
ARC
  5
49E
330
25
100
AcDbEntity
  8
1
  6
Continuous
 62
     0
100
AcDbCircle
 10
11198.90596433878
 20
-272.576293571364
 30
0.0
 40
2.999999999993
100
AcDbArc
 50
338.4165619718942
 51
42.42556090092499
  0
ARC
  5
49D
330
25
100
AcDbEntity
  8
1
  6
Continuous
 62
     0
100
AcDbCircle
 10
10964.16696399874
 20
-4093.011451575379
 30
0.0
 40
2.0
100
AcDbArc
 50
180.0
 51
270.0
  0
ARC
  5
49C
330
25
100
AcDbEntity
  8
1
  6
Continuous
 62
     0
100
AcDbCircle
 10
10968.16696399874
 20
-4093.011451575379
 30
0.0
 40
2.0
100
AcDbArc
 50
270.0
 51
0.0
  0
ARC
  5
49B
330
25
100
AcDbEntity
  8
1
  6
Continuous
 62
     0
100
AcDbCircle
 10
10964.16696399874
 20
-4093.011451575379
 30
0.0
 40
2.0
100
AcDbArc
 50
180.0
 51
270.0
  0
ARC
  5
49A
330
25
100
AcDbEntity
  8
1
  6
Continuous
 62
     0
100
AcDbCircle
 10
10968.16696399874
 20
-4093.011451575379
 30
0.0
 40
2.0
100
AcDbArc
 50
270.0
 51
0.0
  0
ARC
  5
499
330
25
100
AcDbEntity
  8
1
  6
Continuous
 62
     0
100
AcDbCircle
 10
10964.16696399874
 20
-4093.011451575379
 30
0.0
 40
2.0
100
AcDbArc
 50
180.0
 51
270.0
  0
ARC
  5
498
330
25
100
AcDbEntity
  8
1
  6
Continuous
 62
     0
100
AcDbCircle
 10
10968.16696399874
 20
-4093.011451575379
 30
0.0
 40
2.0
100
AcDbArc
 50
270.0
 51
0.0
  0
ARC
  5
497
330
25
100
AcDbEntity
  8
1
  6
Continuous
 62
     0
100
AcDbCircle
 10
10964.16696399874
 20
-4093.011451575379
 30
0.0
 40
2.0
100
AcDbArc
 50
180.0
 51
270.0
  0
ARC
  5
496
330
25
100
AcDbEntity
  8
1
  6
Continuous
 62
     0
100
AcDbCircle
 10
10968.16696399874
 20
-4093.011451575379
 30
0.0
 40
2.0
100
AcDbArc
 50
270.0
 51
0.0
  0
CIRCLE
  5
495
330
25
100
AcDbEntity
  8
1
  6
Continuous
 62
     0
100
AcDbCircle
 10
10370.66823714032
 20
-3582.01145157538
 30
0.0
 40
8.331
  0
CIRCLE
  5
494
330
25
100
AcDbEntity
  8
1
  6
Continuous
 62
     0
100
AcDbCircle
 10
10370.66823714032
 20
-3582.01145157538
 30
0.0
 40
7.474999999999
  0
CIRCLE
  5
493
330
25
100
AcDbEntity
  8
1
  6
Continuous
 62
     0
100
AcDbCircle
 10
11266.68734600302
 20
-3281.491069571097
 30
0.0
 40
11.5
  0
CIRCLE
  5
492
330
25
100
AcDbEntity
  8
1
  6
Continuous
 62
     0
100
AcDbCircle
 10
10665.64658199446
 20
-3281.491069571097
 30
0.0
 40
11.5
  0
CIRCLE
  5
491
330
25
100
AcDbEntity
  8
1
  6
Continuous
 62
     0
100
AcDbCircle
 10
10665.64658199446
 20
-3882.531833579663
 30
0.0
 40
11.5
  0
CIRCLE
  5
490
330
25
100
AcDbEntity
  8
1
  6
Continuous
 62
     0
100
AcDbCircle
 10
11266.68734600302
 20
-3882.531833579663
 30
0.0
 40
11.5
  0
CIRCLE
  5
48E
330
25
100
AcDbEntity
  8
1
  6
Continuous
 62
     0
100
AcDbCircle
 10
10429.92743473509
 20
-1262.816606202475
 30
0.0
 40
8.5
  0
CIRCLE
  5
48D
330
25
100
AcDbEntity
  8
1
  6
Continuous
 62
     0
100
AcDbCircle
 10
10429.92743473509
 20
-1262.816606202475
 30
0.0
 40
5.0
  0
CIRCLE
  5
48C
330
25
100
AcDbEntity
  8
1
  6
Continuous
 62
     0
100
AcDbCircle
 10
10429.92743473509
 20
-1262.816606202475
 30
0.0
 40
3.0
  0
CIRCLE
  5
48B
330
25
100
AcDbEntity
  8
1
  6
Continuous
 62
     0
100
AcDbCircle
 10
10429.92743473509
 20
-1262.816606202475
 30
0.0
 40
6.25
  0
CIRCLE
  5
47D
330
25
100
AcDbEntity
  8
1
  6
Continuous
 62
     0
100
AcDbCircle
 10
10709.06886693734
 20
-250.313445440025
 30
0.0
 40
17.500000000001
  0
CIRCLE
  5
47C
330
25
100
AcDbEntity
  8
1
  6
Continuous
 62
     0
100
AcDbCircle
 10
13755.31263036251
 20
-1262.816606202475
 30
0.0
 40
41.0
  0
CIRCLE
  5
47B
330
25
100
AcDbEntity
  8
1
  6
Continuous
 62
     0
100
AcDbCircle
 10
13755.31263036251
 20
-1262.816606202475
 30
0.0
 40
36.11299999999
  0
CIRCLE
  5
479
330
25
100
AcDbEntity
  8
1
  6
Continuous
 62
     0
100
AcDbCircle
 10
13755.31263036251
 20
-2567.996606202475
 30
0.0
 40
11.100000000001
  0
CIRCLE
  5
478
330
25
100
AcDbEntity
  8
1
  6
Continuous
 62
     0
100
AcDbCircle
 10
13755.31263036251
 20
-2567.996606202475
 30
0.0
 40
6.0
  0
CIRCLE
  5
477
330
25
100
AcDbEntity
  8
1
  6
Continuous
 62
     0
100
AcDbCircle
 10
13755.31263036251
 20
-2567.996606202475
 30
0.0
 40
7.5
  0
CIRCLE
  5
476
330
25
100
AcDbEntity
  8
1
  6
Continuous
 62
     0
100
AcDbCircle
 10
13755.31263036251
 20
-2567.996606202475
 30
0.0
 40
3.600000000001
  0
CIRCLE
  5
475
330
25
100
AcDbEntity
  8
1
  6
Continuous
 62
     0
100
AcDbCircle
 10
10369.63189739256
 20
-1176.172037963989
 30
0.0
 40
36.09209352415
  0
CIRCLE
  5
474
330
25
100
AcDbEntity
  8
1
  6
Continuous
 62
     0
100
AcDbCircle
 10
10369.62870787668
 20
-1176.167879344058
 30
0.0
 40
2.88888888888
  0
CIRCLE
  5
473
330
25
100
AcDbEntity
  8
1
  6
Continuous
 62
     0
100
AcDbCircle
 10
10353.73906320346
 20
-1193.592466718773
 30
0.0
 40
0.72222222223
  0
CIRCLE
  5
472
330
25
100
AcDbEntity
  8
1
  6
Continuous
 62
     0
100
AcDbCircle
 10
10369.62870787668
 20
-1188.805660779464
 30
0.0
 40
2.247127062104
  0
CIRCLE
  5
471
330
25
100
AcDbEntity
  8
1
  6
Continuous
 62
     0
100
AcDbCircle
 10
13181.0773128673
 20
-1135.596606202476
 30
0.0
 40
19.5
  0
CIRCLE
  5
470
330
25
100
AcDbEntity
  8
1
  6
Continuous
 62
     0
100
AcDbCircle
 10
13181.0773128673
 20
-1135.596606202476
 30
0.0
 40
21.0
  0
CIRCLE
  5
46F
330
25
100
AcDbEntity
  8
1
  6
Continuous
 62
     0
100
AcDbCircle
 10
13181.0773128673
 20
-1135.596606202476
 30
0.0
 40
28.999999999999
  0
CIRCLE
  5
46E
330
25
100
AcDbEntity
  8
1
  6
Continuous
 62
     0
100
AcDbCircle
 10
11223.26506106014
 20
-250.313445440025
 30
0.0
 40
17.500000000001
  0
CIRCLE
  5
46D
330
25
100
AcDbEntity
  8
1
  6
Continuous
 62
     0
100
AcDbCircle
 10
10966.16696399874
 20
-3582.01145157538
 30
0.0
 40
484.000000000003
  0
CIRCLE
  5
46C
330
25
100
AcDbEntity
  8
1
  6
Continuous
 62
     0
100
AcDbCircle
 10
10966.16696399874
 20
-3582.01145157538
 30
0.0
 40
475.000000000002
  0
ARC
  5
468
330
25
100
AcDbEntity
  8
1
  6
Continuous
 62
     0
100
AcDbCircle
 10
13375.31263036251
 20
-443.902120114113
 30
0.0
 40
104.000000000004
100
AcDbArc
 50
116.3877999612455
 51
180.0
  0
ARC
  5
467
330
25
100
AcDbEntity
  8
1
  6
Continuous
 62
     0
100
AcDbCircle
 10
14135.31263036251
 20
-443.902120114113
 30
0.0
 40
104.0
100
AcDbArc
 50
0.0
 51
63.612200038759
  0
ARC
  5
466
330
25
100
AcDbEntity
  8
1
  6
Continuous
 62
     0
100
AcDbCircle
 10
14135.31263036251
 20
-443.902120114113
 30
0.0
 40
104.0
100
AcDbArc
 50
0.0
 51
63.612200038759
  0
ARC
  5
465
330
25
100
AcDbEntity
  8
1
  6
Continuous
 62
     0
100
AcDbCircle
 10
14135.31263036251
 20
-443.902120114113
 30
0.0
 40
104.0
100
AcDbArc
 50
0.0
 51
63.612200038759
  0
ARC
  5
464
330
25
100
AcDbEntity
  8
1
  6
Continuous
 62
     0
100
AcDbCircle
 10
13755.31263036259
 20
-1209.816606202282
 30
0.0
 40
958.99999999979
100
AcDbArc
 50
63.61220003875597
 51
70.19045356819001
  0
ARC
  5
463
330
25
100
AcDbEntity
  8
1
  6
Continuous
 62
     0
100
AcDbCircle
 10
13755.3126303625
 20
-1209.816606202459
 30
0.0
 40
958.999999999984
100
AcDbArc
 50
90.37341100832404
 51
109.80954643181
  0
ARC
  5
462
330
25
100
AcDbEntity
  8
1
  6
Continuous
 62
     0
100
AcDbCircle
 10
13755.31263036242
 20
-1209.816606202282
 30
0.0
 40
958.999999999787
100
AcDbArc
 50
109.809546431809
 51
116.387799961243
  0
ARC
  5
461
330
25
100
AcDbEntity
  8
1
  6
Continuous
 62
     0
100
AcDbCircle
 10
13375.31263036251
 20
-443.902120114113
 30
0.0
 40
104.000000000004
100
AcDbArc
 50
116.3877999612455
 51
180.0
  0
ARC
  5
460
330
25
100
AcDbEntity
  8
1
  6
Continuous
 62
     0
100
AcDbCircle
 10
14135.31263036251
 20
-2319.731092290837
 30
0.0
 40
103.999999999999
100
AcDbArc
 50
296.3877999612413
 51
0.0
  0
ARC
  5
45F
330
25
100
AcDbEntity
  8
1
  6
Continuous
 62
     0
100
AcDbCircle
 10
14135.31263036251
 20
-2319.731092290837
 30
0.0
 40
103.999999999999
100
AcDbArc
 50
296.3877999612413
 51
0.0
  0
ARC
  5
45E
330
25
100
AcDbEntity
  8
1
  6
Continuous
 62
     0
100
AcDbCircle
 10
14135.31263036251
 20
-2319.731092290837
 30
0.0
 40
103.999999999999
100
AcDbArc
 50
296.3877999612413
 51
0.0
  0
ARC
  5
45D
330
25
100
AcDbEntity
  8
1
  6
Continuous
 62
     0
100
AcDbCircle
 10
14135.31263036251
 20
-2319.731092290837
 30
0.0
 40
103.999999999999
100
AcDbArc
 50
296.3877999612413
 51
0.0
  0
ARC
  5
45C
330
25
100
AcDbEntity
  8
1
  6
Continuous
 62
     0
100
AcDbCircle
 10
13755.31263036259
 20
-1553.816606202669
 30
0.0
 40
958.999999999791
100
AcDbArc
 50
291.405336673901
 51
296.387799961244
  0
ARC
  5
45B
330
25
100
AcDbEntity
  8
1
  6
Continuous
 62
     0
100
AcDbCircle
 10
13375.31263036251
 20
-2319.731092290837
 30
0.0
 40
104.0
100
AcDbArc
 50
180.0
 51
243.6122000387544
  0
ARC
  5
45A
330
25
100
AcDbEntity
  8
1
  6
Continuous
 62
     0
100
AcDbCircle
 10
13375.31263036251
 20
-2319.731092290837
 30
0.0
 40
104.0
100
AcDbArc
 50
180.0
 51
243.6122000387544
  0
ARC
  5
459
330
25
100
AcDbEntity
  8
1
  6
Continuous
 62
     0
100
AcDbCircle
 10
10370.66823714032
 20
-3582.01145157538
 30
0.0
 40
11.5
100
AcDbArc
 50
90.0
 51
270.0
  0
ARC
  5
458
330
25
100
AcDbEntity
  8
1
  6
Continuous
 62
     0
100
AcDbCircle
 10
10459.11518079328
 20
-3587.26145157538
 30
0.0
 40
15.163861141553
100
AcDbArc
 50
188.5330044404436
 51
200.2561580004122
  0
ARC
  5
457
330
25
100
AcDbEntity
  8
1
  6
Continuous
 62
     0
100
AcDbCircle
 10
10402.73874720421
 20
-3576.76145157538
 30
0.0
 40
15.163861141544
100
AcDbArc
 50
8.533004440448753
 51
20.25615800042967
  0
ARC
  5
456
330
25
100
AcDbEntity
  8
1
  6
Continuous
 62
     0
100
AcDbCircle
 10
10459.11518079328
 20
-3576.76145157538
 30
0.0
 40
15.163861141555
100
AcDbArc
 50
186.6270409271821
 51
200.256158000413
  0
ARC
  5
455
330
25
100
AcDbEntity
  8
1
  6
Continuous
 62
     0
100
AcDbCircle
 10
10402.73874720421
 20
-3587.26145157538
 30
0.0
 40
15.163861141545
100
AcDbArc
 50
6.627040927186803
 51
20.25615800042729
  0
ARC
  5
454
330
25
100
AcDbEntity
  8
1
  6
Continuous
 62
     0
100
AcDbCircle
 10
10429.92696399874
 20
-3564.700201575381
 30
0.0
 40
9.111249999997
100
AcDbArc
 50
242.9041220239917
 51
297.0958779760082
  0
ARC
  5
453
330
25
100
AcDbEntity
  8
1
  6
Continuous
 62
     0
100
AcDbCircle
 10
10437.76310285719
 20
-3576.76145157538
 30
0.0
 40
15.163861141558
100
AcDbArc
 50
339.7438419995846
 51
20.25615800041547
  0
ARC
  5
452
330
25
100
AcDbEntity
  8
1
  6
Continuous
 62
     0
100
AcDbCircle
 10
10437.76310285719
 20
-3587.26145157538
 30
0.0
 40
15.163861141557
100
AcDbArc
 50
339.7438419995877
 51
20.25615800041385
  0
ARC
  5
451
330
25
100
AcDbEntity
  8
1
  6
Continuous
 62
     0
100
AcDbCircle
 10
10459.11518079328
 20
-3587.26145157538
 30
0.0
 40
15.163861141559
100
AcDbArc
 50
159.7438419995869
 51
173.3729590728144
  0
ARC
  5
450
330
25
100
AcDbEntity
  8
1
  6
Continuous
 62
     0
100
AcDbCircle
 10
10459.11518079328
 20
-3576.76145157538
 30
0.0
 40
15.163861141559
100
AcDbArc
 50
159.7438419995869
 51
171.4669955595526
  0
ARC
  5
44F
330
25
100
AcDbEntity
  8
1
  6
Continuous
 62
     0
100
AcDbCircle
 10
10402.73874720421
 20
-3576.76145157538
 30
0.0
 40
15.163861141549
100
AcDbArc
 50
339.7438419995726
 51
353.3729590728131
  0
ARC
  5
44E
330
25
100
AcDbEntity
  8
1
  6
Continuous
 62
     0
100
AcDbCircle
 10
10402.73874720421
 20
-3587.26145157538
 30
0.0
 40
15.163861141549
100
AcDbArc
 50
339.7438419995759
 51
351.4669955595509
  0
ARC
  5
44D
330
25
100
AcDbEntity
  8
1
  6
Continuous
 62
     0
100
AcDbCircle
 10
10424.0908251403
 20
-3576.76145157538
 30
0.0
 40
15.163861141559
100
AcDbArc
 50
159.7438419995869
 51
200.2561580004131
  0
ARC
  5
44C
330
25
100
AcDbEntity
  8
1
  6
Continuous
 62
     0
100
AcDbCircle
 10
10424.0908251403
 20
-3587.26145157538
 30
0.0
 40
15.163861141559
100
AcDbArc
 50
159.7438419995869
 51
200.2561580004098
  0
ARC
  5
44B
330
25
100
AcDbEntity
  8
1
  6
Continuous
 62
     0
100
AcDbCircle
 10
10429.92696399874
 20
-3545.469784908707
 30
0.0
 40
13.541666666666
100
AcDbArc
 50
234.9488632525697
 51
305.0511367474688
  0
ARC
  5
44A
330
25
100
AcDbEntity
  8
1
  6
Continuous
 62
     0
100
AcDbCircle
 10
10966.16696399874
 20
-3007.776134080178
 30
0.0
 40
40.141914435008
100
AcDbArc
 50
329.2592858702342
 51
210.7407141297658
  0
ARC
  5
449
330
25
100
AcDbEntity
  8
1
  6
Continuous
 62
     0
100
AcDbCircle
 10
10966.19563290259
 20
-3015.383889597527
 30
0.0
 40
34.78736101242
100
AcDbArc
 50
7.710008218937909
 51
173.0291458909462
  0
ARC
  5
448
330
25
100
AcDbEntity
  8
1
  6
Continuous
 62
     0
100
AcDbCircle
 10
10921.24997796607
 20
-3041.386628040639
 30
0.0
 40
10.4154415001
100
AcDbArc
 50
328.8685094339068
 51
0.0
  0
ARC
  5
447
330
25
100
AcDbEntity
  8
1
  6
Continuous
 62
     0
100
AcDbCircle
 10
11011.08395003141
 20
-3041.386628040639
 30
0.0
 40
10.415441500101
100
AcDbArc
 50
180.0
 51
211.1314905660859
  0
ARC
  5
446
330
25
100
AcDbEntity
  8
1
  6
Continuous
 62
     0
100
AcDbCircle
 10
11013.50030762403
 20
-4091.823106414495
 30
0.0
 40
6.188368025611
100
AcDbArc
 50
245.9793229189792
 51
304.2284958030608
  0
ARC
  5
445
330
25
100
AcDbEntity
  8
1
  6
Continuous
 62
     0
100
AcDbCircle
 10
11034.31856193736
 20
-4091.823106414495
 30
0.0
 40
6.188368025609
100
AcDbArc
 50
235.7715041969298
 51
294.0206770810311
  0
ARC
  5
444
330
25
100
AcDbEntity
  8
1
  6
Continuous
 62
     0
100
AcDbCircle
 10
11023.9094347807
 20
-4075.083248345104
 30
0.0
 40
22.928203230276
100
AcDbArc
 50
252.4120462259947
 51
287.5879537739808
  0
ARC
  5
443
330
25
100
AcDbEntity
  8
1
  6
Continuous
 62
     0
100
AcDbCircle
 10
10990.08467852156
 20
-4075.083248345104
 30
0.0
 40
22.928203230276
100
AcDbArc
 50
252.4120462259947
 51
287.5879537740051
  0
ARC
  5
442
330
25
100
AcDbEntity
  8
1
  6
Continuous
 62
     0
100
AcDbCircle
 10
11000.49380567823
 20
-4091.823106414495
 30
0.0
 40
6.188368025609
100
AcDbArc
 50
235.7715041969298
 51
294.0206770810311
  0
ARC
  5
441
330
25
100
AcDbEntity
  8
1
  6
Continuous
 62
     0
100
AcDbCircle
 10
10979.6755513649
 20
-4091.823106414495
 30
0.0
 40
6.188368025616
100
AcDbArc
 50
245.9793229188869
 51
304.2284958029855
  0
ARC
  5
440
330
25
100
AcDbEntity
  8
1
  6
Continuous
 62
     0
100
AcDbCircle
 10
10952.65837663259
 20
-4091.823106414495
 30
0.0
 40
6.188368025608
100
AcDbArc
 50
235.7715041969437
 51
294.0206770810346
  0
ARC
  5
43F
330
25
100
AcDbEntity
  8
1
  6
Continuous
 62
     0
100
AcDbCircle
 10
10931.84012231926
 20
-4091.823106414495
 30
0.0
 40
6.188368025611
100
AcDbArc
 50
245.9793229189792
 51
304.2284958030608
  0
ARC
  5
43E
330
25
100
AcDbEntity
  8
1
  6
Continuous
 62
     0
100
AcDbCircle
 10
10942.24924947592
 20
-4075.083248345104
 30
0.0
 40
22.928203230273
100
AcDbArc
 50
252.4120462260165
 51
287.5879537740071
  0
ARC
  5
43D
330
25
100
AcDbEntity
  8
1
  6
Continuous
 62
     0
100
AcDbCircle
 10
10908.42449321679
 20
-4075.083248345104
 30
0.0
 40
22.928203230276
100
AcDbArc
 50
252.4120462259947
 51
287.5879537739859
  0
ARC
  5
43C
330
25
100
AcDbEntity
  8
1
  6
Continuous
 62
     0
100
AcDbCircle
 10
10898.01536606012
 20
-4091.823106414495
 30
0.0
 40
6.188368025612
100
AcDbArc
 50
245.9793229189638
 51
304.2284958030559
  0
ARC
  5
43B
330
25
100
AcDbEntity
  8
1
  6
Continuous
 62
     0
100
AcDbCircle
 10
10918.83362037345
 20
-4091.823106414495
 30
0.0
 40
6.188368025609
100
AcDbArc
 50
235.7715041969298
 51
294.0206770810311
  0
ARC
  5
43A
330
25
100
AcDbEntity
  8
1
  6
Continuous
 62
     0
100
AcDbCircle
 10
10413.34223675086
 20
-1271.924592464555
 30
0.0
 40
5.414822022402
100
AcDbArc
 50
145.7715041969262
 51
204.0206770810588
  0
ARC
  5
439
330
25
100
AcDbEntity
  8
1
  6
Continuous
 62
     0
100
AcDbCircle
 10
10427.98961256157
 20
-1262.816606202475
 30
0.0
 40
20.062177826479
100
AcDbArc
 50
162.4120462259981
 51
197.5879537740043
  0
ARC
  5
438
330
25
100
AcDbEntity
  8
1
  6
Continuous
 62
     0
100
AcDbCircle
 10
10413.34223675086
 20
-1253.708619940396
 30
0.0
 40
5.414822022409
100
AcDbArc
 50
155.9793229189528
 51
214.2284958030791
  0
ARC
  5
437
330
25
100
AcDbEntity
  8
1
  6
Continuous
 62
     0
100
AcDbCircle
 10
10446.51263271932
 20
-1271.924592464555
 30
0.0
 40
5.414822022411
100
AcDbArc
 50
335.979322918954
 51
34.22849580307228
  0
ARC
  5
436
330
25
100
AcDbEntity
  8
1
  6
Continuous
 62
     0
100
AcDbCircle
 10
10431.86525690861
 20
-1262.816606202475
 30
0.0
 40
20.062177826479
100
AcDbArc
 50
342.4120462259963
 51
17.58795377400126
  0
ARC
  5
435
330
25
100
AcDbEntity
  8
1
  6
Continuous
 62
     0
100
AcDbCircle
 10
10446.51263271932
 20
-1253.708619940396
 30
0.0
 40
5.414822022404
100
AcDbArc
 50
325.771504196931
 51
24.02067708104876
  0
ARC
  5
434
330
25
100
AcDbEntity
  8
1
  6
Continuous
 62
     0
100
AcDbCircle
 10
10429.92743473509
 20
-1262.816606202475
 30
0.0
 40
9.999999999994
100
AcDbArc
 50
214.4290039507362
 51
325.570996049267
  0
ARC
  5
433
330
25
100
AcDbEntity
  8
1
  6
Continuous
 62
     0
100
AcDbCircle
 10
10429.92743473509
 20
-1262.816606202475
 30
0.0
 40
9.999999999995
100
AcDbArc
 50
34.42900395072713
 51
145.5709960492595
  0
ARC
  5
432
330
25
100
AcDbEntity
  8
1
  6
Continuous
 62
     0
100
AcDbCircle
 10
10463.68961256157
 20
-1262.816606202475
 30
0.0
 40
20.062177826481
100
AcDbArc
 50
196.095963210059
 51
197.5879537740046
  0
ARC
  5
431
330
25
100
AcDbEntity
  8
1
  6
Continuous
 62
     0
100
AcDbCircle
 10
10449.04223675086
 20
-1271.924592464555
 30
0.0
 40
5.414822022404
100
AcDbArc
 50
145.7715041969331
 51
204.0206770810983
  0
ARC
  5
430
330
25
100
AcDbEntity
  8
1
  6
Continuous
 62
     0
100
AcDbCircle
 10
10449.04223675086
 20
-1253.708619940396
 30
0.0
 40
5.414822022401
100
AcDbArc
 50
155.9793229189092
 51
214.2284958030619
  0
ARC
  5
42F
330
25
100
AcDbEntity
  8
1
  6
Continuous
 62
     0
100
AcDbCircle
 10
10395.90307908212
 20
-1262.816606202475
 30
0.0
 40
20.062177826482
100
AcDbArc
 50
16.09596321005381
 51
17.58795377399997
  0
ARC
  5
42E
330
25
100
AcDbEntity
  8
1
  6
Continuous
 62
     0
100
AcDbCircle
 10
10410.55045489283
 20
-1253.708619940396
 30
0.0
 40
5.414822022404
100
AcDbArc
 50
325.771504196931
 51
24.02067708104876
  0
ARC
  5
42D
330
25
100
AcDbEntity
  8
1
  6
Continuous
 62
     0
100
AcDbCircle
 10
10410.55045489283
 20
-1271.924592464555
 30
0.0
 40
5.414822022411
100
AcDbArc
 50
335.979322918954
 51
34.22849580307228
  0
ARC
  5
42C
330
25
100
AcDbEntity
  8
1
  6
Continuous
 62
     0
100
AcDbCircle
 10
10435.83031279554
 20
-1258.827776635545
 30
0.0
 40
6.806710713908
100
AcDbArc
 50
3.041596008611384
 51
41.51019968794819
  0
ARC
  5
42B
330
25
100
AcDbEntity
  8
1
  6
Continuous
 62
     0
100
AcDbCircle
 10
10395.90307908212
 20
-1262.816606202475
 30
0.0
 40
20.062177826479
100
AcDbArc
 50
342.4120462259963
 51
343.9040367899427
  0
ARC
  5
42A
330
25
100
AcDbEntity
  8
1
  6
Continuous
 62
     0
100
AcDbCircle
 10
10463.68961256157
 20
-1262.816606202475
 30
0.0
 40
20.062177826479
100
AcDbArc
 50
162.4120462259981
 51
163.9040367899439
  0
ARC
  5
429
330
25
100
AcDbEntity
  8
1
  6
Continuous
 62
     0
100
AcDbCircle
 10
14691.43507561799
 20
-2099.816606202475
 30
0.0
 40
458.97244525548
100
AcDbArc
 50
170.088686020986
 51
189.911313979014
  0
ARC
  5
428
330
25
100
AcDbEntity
  8
1
  6
Continuous
 62
     0
100
AcDbCircle
 10
13755.31263036251
 20
-2612.816606202475
 30
0.0
 40
100.0
100
AcDbArc
 50
0.0
 51
180.0
  0
ARC
  5
427
330
25
100
AcDbEntity
  8
1
  6
Continuous
 62
     0
100
AcDbCircle
 10
10709.06886693734
 20
-250.313445440025
 30
0.0
 40
29.999999999999
100
AcDbArc
 50
317.574439099167
 51
252.4255609008289
  0
ARC
  5
426
330
25
100
AcDbEntity
  8
1
  6
Continuous
 62
     0
100
AcDbCircle
 10
11907.33214202527
 20
-1262.816606202475
 30
0.0
 40
459.000000000033
100
AcDbArc
 50
174.875245897026
 51
185.124754102974
  0
ARC
  5
425
330
25
100
AcDbEntity
  8
1
  6
Continuous
 62
     0
100
AcDbCircle
 10
11452.62147275958
 20
-2580.35136799218
 30
0.0
 40
152.252346488172
100
AcDbArc
 50
153.6680368469681
 51
181.151737825457
  0
ARC
  5
424
330
25
100
AcDbEntity
  8
1
  6
Continuous
 62
     0
100
AcDbCircle
 10
10479.7124552379
 20
-2580.35136799218
 30
0.0
 40
152.252346488177
100
AcDbArc
 50
358.8482621745439
 51
26.3319631530309
  0
ARC
  5
423
330
25
100
AcDbEntity
  8
1
  6
Continuous
 62
     0
100
AcDbCircle
 10
10025.00178597221
 20
-2062.816606202475
 30
0.0
 40
459.000000000031
100
AcDbArc
 50
354.875245897027
 51
5.124754102973002
  0
ARC
  5
422
330
25
100
AcDbEntity
  8
1
  6
Continuous
 62
     0
100
AcDbCircle
 10
10966.16696399874
 20
-2612.816606202475
 30
0.0
 40
100.0
100
AcDbArc
 50
0.0
 51
180.0
  0
ARC
  5
421
330
25
100
AcDbEntity
  8
1
  6
Continuous
 62
     0
100
AcDbCircle
 10
14265.12428520162
 20
-2052.483262577185
 30
0.0
 40
6.188368025608
100
AcDbArc
 50
335.9793229189522
 51
34.22849580305044
  0
ARC
  5
420
330
25
100
AcDbEntity
  8
1
  6
Continuous
 62
     0
100
AcDbCircle
 10
14265.12428520162
 20
-2031.665008263854
 30
0.0
 40
6.18836802561
100
AcDbArc
 50
325.7715041969321
 51
24.02067708104288
  0
ARC
  5
41F
330
25
100
AcDbEntity
  8
1
  6
Continuous
 62
     0
100
AcDbCircle
 10
14248.38442713223
 20
-2042.07413542052
 30
0.0
 40
22.928203230274
100
AcDbArc
 50
342.4120462260023
 51
17.58795377399718
  0
ARC
  5
41E
330
25
100
AcDbEntity
  8
1
  6
Continuous
 62
     0
100
AcDbCircle
 10
14248.38442713223
 20
-2075.898891679657
 30
0.0
 40
22.928203230273
100
AcDbArc
 50
342.4120462260061
 51
17.58795377399393
  0
ARC
  5
41D
330
25
100
AcDbEntity
  8
1
  6
Continuous
 62
     0
100
AcDbCircle
 10
14265.12428520162
 20
-2065.489764522991
 30
0.0
 40
6.18836802561
100
AcDbArc
 50
325.7715041969287
 51
24.02067708103711
  0
ARC
  5
41C
330
25
100
AcDbEntity
  8
1
  6
Continuous
 62
     0
100
AcDbCircle
 10
14265.12428520162
 20
-2086.308018836323
 30
0.0
 40
6.188368025607
100
AcDbArc
 50
335.9793229189676
 51
34.22849580306339
  0
ARC
  5
41B
330
25
100
AcDbEntity
  8
1
  6
Continuous
 62
     0
100
AcDbCircle
 10
14265.12428520162
 20
-2113.325193568628
 30
0.0
 40
6.18836802561
100
AcDbArc
 50
325.7715041969321
 51
24.02067708104095
  0
ARC
  5
41A
330
25
100
AcDbEntity
  8
1
  6
Continuous
 62
     0
100
AcDbCircle
 10
14265.12428520162
 20
-2134.143447881959
 30
0.0
 40
6.188368025608
100
AcDbArc
 50
335.9793229189599
 51
34.22849580307035
  0
ARC
  5
419
330
25
100
AcDbEntity
  8
1
  6
Continuous
 62
     0
100
AcDbCircle
 10
14248.38442713223
 20
-2123.734320725293
 30
0.0
 40
22.928203230274
100
AcDbArc
 50
342.4120462260028
 51
17.58795377399501
  0
ARC
  5
418
330
25
100
AcDbEntity
  8
1
  6
Continuous
 62
     0
100
AcDbCircle
 10
14248.38442713223
 20
-2157.55907698443
 30
0.0
 40
22.928203230274
100
AcDbArc
 50
342.4120462260007
 51
17.58795377399501
  0
ARC
  5
417
330
25
100
AcDbEntity
  8
1
  6
Continuous
 62
     0
100
AcDbCircle
 10
14265.12428520162
 20
-2167.968204141096
 30
0.0
 40
6.188368025608
100
AcDbArc
 50
335.9793229189522
 51
34.22849580305044
  0
ARC
  5
416
330
25
100
AcDbEntity
  8
1
  6
Continuous
 62
     0
100
AcDbCircle
 10
14265.12428520162
 20
-2147.149949827765
 30
0.0
 40
6.18836802561
100
AcDbArc
 50
325.7715041969321
 51
24.02067708104095
  0
ARC
  5
415
330
25
100
AcDbEntity
  8
1
  6
Continuous
 62
     0
100
AcDbCircle
 10
10990.31696399874
 20
-2567.746606202474
 30
0.0
 40
14.252192813739
100
AcDbArc
 50
158.3852210572138
 51
201.6147789427863
  0
ARC
  5
414
330
25
100
AcDbEntity
  8
1
  6
Continuous
 62
     0
100
AcDbCircle
 10
11008.94821399874
 20
-2567.996606202475
 30
0.0
 40
15.781249999998
100
AcDbArc
 50
141.9080428947509
 51
218.0919571052411
  0
ARC
  5
413
330
25
100
AcDbEntity
  8
1
  6
Continuous
 62
     0
100
AcDbCircle
 10
10959.91696399874
 20
-2578.944390557768
 30
0.0
 40
18.052215644706
100
AcDbArc
 50
249.7438419995784
 51
290.2561580004216
  0
ARC
  5
412
330
25
100
AcDbEntity
  8
1
  6
Continuous
 62
     0
100
AcDbCircle
 10
10972.41696399874
 20
-2578.944390557768
 30
0.0
 40
18.052215644707
100
AcDbArc
 50
249.7438419995794
 51
290.2561580004206
  0
ARC
  5
411
330
25
100
AcDbEntity
  8
1
  6
Continuous
 62
     0
100
AcDbCircle
 10
10959.91696399874
 20
-2558.548821847181
 30
0.0
 40
18.052215644707
100
AcDbArc
 50
69.74384199957936
 51
110.2561580004206
  0
ARC
  5
410
330
25
100
AcDbEntity
  8
1
  6
Continuous
 62
     0
100
AcDbCircle
 10
10972.41696399874
 20
-2558.548821847181
 30
0.0
 40
18.052215644706
100
AcDbArc
 50
69.74384199957838
 51
110.2561580004216
  0
ARC
  5
40F
330
25
100
AcDbEntity
  8
1
  6
Continuous
 62
     0
100
AcDbCircle
 10
10972.41696399874
 20
-2532.86105722444
 30
0.0
 40
18.052215644707
100
AcDbArc
 50
249.7438419995794
 51
261.2376819319964
  0
ARC
  5
40E
330
25
100
AcDbEntity
  8
1
  6
Continuous
 62
     0
100
AcDbCircle
 10
10959.91696399874
 20
-2532.86105722444
 30
0.0
 40
18.052215644706
100
AcDbArc
 50
249.7438419995784
 51
261.2376819319957
  0
ARC
  5
40D
330
25
100
AcDbEntity
  8
1
  6
Continuous
 62
     0
100
AcDbCircle
 10
10972.41696399874
 20
-2604.632155180512
 30
0.0
 40
18.052215644707
100
AcDbArc
 50
69.74384199957936
 51
81.23768193199643
  0
ARC
  5
40C
330
25
100
AcDbEntity
  8
1
  6
Continuous
 62
     0
100
AcDbCircle
 10
10959.91696399874
 20
-2604.632155180512
 30
0.0
 40
18.052215644708
100
AcDbArc
 50
69.74384199958037
 51
81.23768193199686
  0
ARC
  5
40B
330
25
100
AcDbEntity
  8
1
  6
Continuous
 62
     0
100
AcDbCircle
 10
10959.91696399874
 20
-2532.86105722444
 30
0.0
 40
18.052215644708
100
AcDbArc
 50
278.7623180680031
 51
290.2561580004195
  0
ARC
  5
40A
330
25
100
AcDbEntity
  8
1
  6
Continuous
 62
     0
100
AcDbCircle
 10
10972.41696399874
 20
-2604.632155180512
 30
0.0
 40
18.052215644708
100
AcDbArc
 50
98.76231806800313
 51
110.2561580004196
  0
ARC
  5
409
330
25
100
AcDbEntity
  8
1
  6
Continuous
 62
     0
100
AcDbCircle
 10
10972.41696399874
 20
-2532.86105722444
 30
0.0
 40
18.052215644707
100
AcDbArc
 50
278.7623180680036
 51
290.2561580004206
  0
ARC
  5
408
330
25
100
AcDbEntity
  8
1
  6
Continuous
 62
     0
100
AcDbCircle
 10
10959.91696399874
 20
-2604.632155180512
 30
0.0
 40
18.052215644708
100
AcDbArc
 50
98.76231806800313
 51
110.2561580004196
  0
ARC
  5
407
330
25
100
AcDbEntity
  8
1
  6
Continuous
 62
     0
100
AcDbCircle
 10
13755.31263036251
 20
-2612.84171291676
 30
0.0
 40
25.760231957409
100
AcDbArc
 50
73.7304965073435
 51
106.2695034926354
  0
ARC
  5
406
330
25
100
AcDbEntity
  8
1
  6
Continuous
 62
     0
100
AcDbCircle
 10
13755.31263036251
 20
-2573.113061170919
 30
0.0
 40
23.883545031554
100
AcDbArc
 50
252.4120462260191
 51
287.5879537740039
  0
ARC
  5
405
330
25
100
AcDbEntity
  8
1
  6
Continuous
 62
     0
100
AcDbCircle
 10
13755.31263036251
 20
-2529.004671742687
 30
0.0
 40
21.615815918786
100
AcDbArc
 50
250.4961455205435
 51
289.503854479482
  0
ARC
  5
404
330
25
100
AcDbEntity
  8
1
  6
Continuous
 62
     0
100
AcDbCircle
 10
13755.31263036251
 20
-2564.380151234053
 30
0.0
 40
23.883545031579
100
AcDbArc
 50
72.4120462260152
 51
107.5879537739621
  0
ARC
  5
403
330
25
100
AcDbEntity
  8
1
  6
Continuous
 62
     0
100
AcDbCircle
 10
13766.15547115071
 20
-2593.442799078397
 30
0.0
 40
6.446216693345
100
AcDbArc
 50
65.97932291895343
 51
79.65879036155869
  0
ARC
  5
402
330
25
100
AcDbEntity
  8
1
  6
Continuous
 62
     0
100
AcDbCircle
 10
13744.46978957432
 20
-2593.442799078399
 30
0.0
 40
6.446216693343
100
AcDbArc
 50
55.77150419695658
 51
82.48708424434913
  0
ARC
  5
401
330
25
100
AcDbEntity
  8
1
  6
Continuous
 62
     0
100
AcDbCircle
 10
13766.15547115071
 20
-2544.050413326556
 30
0.0
 40
6.446216693343
100
AcDbArc
 50
235.7715041969566
 51
262.4870842442675
  0
ARC
  5
400
330
25
100
AcDbEntity
  8
1
  6
Continuous
 62
     0
100
AcDbCircle
 10
13744.46978957432
 20
-2544.050413326555
 30
0.0
 40
6.446216693345
100
AcDbArc
 50
245.9793229189534
 51
259.6587903614763
  0
ARC
  5
3FF
330
25
100
AcDbEntity
  8
1
  6
Continuous
 62
     0
100
AcDbCircle
 10
13766.15547115071
 20
-2590.550413326553
 30
0.0
 40
6.446216693343
100
AcDbArc
 50
235.7715041969566
 51
294.0206770810548
  0
ARC
  5
3FE
330
25
100
AcDbEntity
  8
1
  6
Continuous
 62
     0
100
AcDbCircle
 10
13755.31263036251
 20
-2573.113061170935
 30
0.0
 40
23.883545031542
100
AcDbArc
 50
283.9309004841498
 51
287.5879537740129
  0
ARC
  5
3FD
330
25
100
AcDbEntity
  8
1
  6
Continuous
 62
     0
100
AcDbCircle
 10
13744.46978957432
 20
-2590.550413326552
 30
0.0
 40
6.446216693345
100
AcDbArc
 50
245.9793229189534
 51
304.22849580305
  0
ARC
  5
3FC
330
25
100
AcDbEntity
  8
1
  6
Continuous
 62
     0
100
AcDbCircle
 10
13766.15547115071
 20
-2546.942799078395
 30
0.0
 40
6.446216693345
100
AcDbArc
 50
65.97932291895343
 51
124.22849580305
  0
ARC
  5
3FB
330
25
100
AcDbEntity
  8
1
  6
Continuous
 62
     0
100
AcDbCircle
 10
13755.31263036251
 20
-2564.380151234014
 30
0.0
 40
23.883545031541
100
AcDbArc
 50
103.9309004841504
 51
107.5879537739907
  0
ARC
  5
3FA
330
25
100
AcDbEntity
  8
1
  6
Continuous
 62
     0
100
AcDbCircle
 10
13744.46978957432
 20
-2546.942799078396
 30
0.0
 40
6.446216693343
100
AcDbArc
 50
55.77150419695658
 51
114.0206770810367
  0
ARC
  5
3F9
330
25
100
AcDbEntity
  8
1
  6
Continuous
 62
     0
100
AcDbCircle
 10
13755.31263036251
 20
-2526.613061170938
 30
0.0
 40
23.883545031539
100
AcDbArc
 50
283.9309004841517
 51
287.5879537740151
  0
ARC
  5
3F8
330
25
100
AcDbEntity
  8
1
  6
Continuous
 62
     0
100
AcDbCircle
 10
13744.46978957432
 20
-2544.050413326555
 30
0.0
 40
6.446216693345
100
AcDbArc
 50
277.5129157556487
 51
304.228495803032
  0
ARC
  5
3F7
330
25
100
AcDbEntity
  8
1
  6
Continuous
 62
     0
100
AcDbCircle
 10
13766.15547115071
 20
-2544.050413326556
 30
0.0
 40
6.446216693345
100
AcDbArc
 50
280.3412096384413
 51
294.0206770810466
  0
ARC
  5
3F6
330
25
100
AcDbEntity
  8
1
  6
Continuous
 62
     0
100
AcDbCircle
 10
13755.31263036251
 20
-2610.880151234015
 30
0.0
 40
23.88354503154
100
AcDbArc
 50
103.9309004841509
 51
107.5879537739917
  0
ARC
  5
3F5
330
25
100
AcDbEntity
  8
1
  6
Continuous
 62
     0
100
AcDbCircle
 10
13744.46978957432
 20
-2593.442799078399
 30
0.0
 40
6.446216693347
100
AcDbArc
 50
100.3412096385201
 51
114.0206770810383
  0
ARC
  5
3F4
330
25
100
AcDbEntity
  8
1
  6
Continuous
 62
     0
100
AcDbCircle
 10
13766.15547115071
 20
-2593.442799078397
 30
0.0
 40
6.446216693343
100
AcDbArc
 50
97.51291575573262
 51
124.2284958030434
  0
ARC
  5
3F3
330
25
100
AcDbEntity
  8
1
  6
Continuous
 62
     0
100
AcDbCircle
 10
13755.31263036251
 20
-2526.613061170938
 30
0.0
 40
23.883545031539
100
AcDbArc
 50
252.4120462260076
 51
256.0690995158483
  0
ARC
  5
3F2
330
25
100
AcDbEntity
  8
1
  6
Continuous
 62
     0
100
AcDbCircle
 10
13755.31263036251
 20
-2610.880151234015
 30
0.0
 40
23.883545031541
100
AcDbArc
 50
72.41204622598617
 51
76.06909951584966
  0
ARC
  5
3F1
330
25
100
AcDbEntity
  8
1
  6
Continuous
 62
     0
100
AcDbCircle
 10
13755.31263036251
 20
-2564.380151234014
 30
0.0
 40
23.883545031542
100
AcDbArc
 50
72.41204622598717
 51
76.06909951585018
  0
ARC
  5
3F0
330
25
100
AcDbEntity
  8
1
  6
Continuous
 62
     0
100
AcDbCircle
 10
13755.31263036251
 20
-2573.113061170935
 30
0.0
 40
23.883545031539
100
AcDbArc
 50
252.4120462260076
 51
256.0690995158483
  0
ARC
  5
3EF
330
25
100
AcDbEntity
  8
1
  6
Continuous
 62
     0
100
AcDbCircle
 10
13755.31263036251
 20
-2567.996606202475
 30
0.0
 40
12.999999999989
100
AcDbArc
 50
31.10892251052339
 51
148.8910774895216
  0
ARC
  5
3EE
330
25
100
AcDbEntity
  8
1
  6
Continuous
 62
     0
100
AcDbCircle
 10
13755.31263036251
 20
-2567.996606202475
 30
0.0
 40
13.000000000012
100
AcDbArc
 50
211.1089225105207
 51
328.8910774894343
  0
ARC
  5
3ED
330
25
100
AcDbEntity
  8
1
  6
Continuous
 62
     0
100
AcDbCircle
 10
10369.58426343223
 20
-1176.13379201122
 30
0.0
 40
39.04445932423
100
AcDbArc
 50
93.89990484410232
 51
206.1108297946188
  0
ARC
  5
3EC
330
25
100
AcDbEntity
  8
1
  6
Continuous
 62
     0
100
AcDbCircle
 10
10369.58426343223
 20
-1176.13379201122
 30
0.0
 40
39.044459324229
100
AcDbArc
 50
206.1108297946179
 51
214.041394325594
  0
ARC
  5
3EB
330
25
100
AcDbEntity
  8
1
  6
Continuous
 62
     0
100
AcDbCircle
 10
10369.67315232112
 20
-1176.225827809882
 30
0.0
 40
38.955598656249
100
AcDbArc
 50
326.0668870753447
 51
334.0155658970755
  0
ARC
  5
3EA
330
25
100
AcDbEntity
  8
1
  6
Continuous
 62
     0
100
AcDbCircle
 10
10369.67315232112
 20
-1176.225827809882
 30
0.0
 40
38.955598656246
100
AcDbArc
 50
285.111344223024
 51
326.0668870753458
  0
ARC
  5
3E9
330
25
100
AcDbEntity
  8
1
  6
Continuous
 62
     0
100
AcDbCircle
 10
10402.35614399635
 20
-1195.063073397643
 30
0.0
 40
3.637500000001
100
AcDbArc
 50
282.0750220509245
 51
17.92497794914274
  0
ARC
  5
3E8
330
25
100
AcDbEntity
  8
1
  6
Continuous
 62
     0
100
AcDbCircle
 10
10336.85740016586
 20
-1195.088402672592
 30
0.0
 40
3.637500000005
100
AcDbArc
 50
162.0750220508905
 51
257.924977949089
  0
ARC
  5
3E7
330
25
100
AcDbEntity
  8
1
  6
Continuous
 62
     0
100
AcDbCircle
 10
10369.62870787668
 20
-1138.32683268699
 30
0.0
 40
3.637499999992
100
AcDbArc
 50
42.07502205094583
 51
137.9249779492671
  0
ARC
  5
3E6
330
25
100
AcDbEntity
  8
1
  6
Continuous
 62
     0
100
AcDbCircle
 10
10369.58426343223
 20
-1176.13379201122
 30
0.0
 40
39.044459324229
100
AcDbArc
 50
85.96934215079965
 51
93.89990484410242
  0
ARC
  5
3E5
330
25
100
AcDbEntity
  8
1
  6
Continuous
 62
     0
100
AcDbCircle
 10
10369.58426343223
 20
-1176.13379201122
 30
0.0
 40
39.044459324236
100
AcDbArc
 50
359.9499785478301
 51
85.9693421507977
  0
ARC
  5
3E4
330
25
100
AcDbEntity
  8
1
  6
Continuous
 62
     0
100
AcDbCircle
 10
10369.6313981652
 20
-1176.171387051144
 30
0.0
 40
28.591593842009
100
AcDbArc
 50
180.0
 51
224.4894078670362
  0
ARC
  5
3E3
330
25
100
AcDbEntity
  8
1
  6
Continuous
 62
     0
100
AcDbCircle
 10
10369.6313981652
 20
-1176.171387051144
 30
0.0
 40
28.591593842006
100
AcDbArc
 50
314.9999999999877
 51
180.0
  0
ARC
  5
3E2
330
25
100
AcDbEntity
  8
1
  6
Continuous
 62
     0
100
AcDbCircle
 10
10369.62757924403
 20
-1176.166895564046
 30
0.0
 40
32.087775151115
100
AcDbArc
 50
314.9991688162391
 51
179.9269078913219
  0
ARC
  5
3E1
330
25
100
AcDbEntity
  8
1
  6
Continuous
 62
     0
100
AcDbCircle
 10
10369.62870787668
 20
-1176.167879344058
 30
0.0
 40
3.611111111109
100
AcDbArc
 50
74.69796828574593
 51
201.4218215217867
  0
ARC
  5
3E0
330
25
100
AcDbEntity
  8
1
  6
Continuous
 62
     0
100
AcDbCircle
 10
10369.62870787668
 20
-1176.167879344058
 30
0.0
 40
3.611111111114
100
AcDbArc
 50
248.5781784780835
 51
0.0
  0
ARC
  5
3DF
330
25
100
AcDbEntity
  8
1
  6
Continuous
 62
     0
100
AcDbCircle
 10
10369.62870787668
 20
-1176.167879344058
 30
0.0
 40
3.6111111111
100
AcDbArc
 50
0.0
 51
15.30203171439911
  0
ARC
  5
3DE
330
25
100
AcDbEntity
  8
1
  6
Continuous
 62
     0
100
AcDbCircle
 10
10369.67315232112
 20
-1176.225827809882
 30
0.0
 40
38.955598656251
100
AcDbArc
 50
334.0155658970755
 51
0.0852304639130497
  0
ARC
  5
3DD
330
25
100
AcDbEntity
  8
1
  6
Continuous
 62
     0
100
AcDbCircle
 10
10369.58426343223
 20
-1176.13379201122
 30
0.0
 40
39.044459324232
100
AcDbArc
 50
214.0413943255924
 51
254.9238647887039
  0
ARC
  5
3DC
330
25
100
AcDbEntity
  8
1
  6
Continuous
 62
     0
100
AcDbCircle
 10
10369.62870787668
 20
-1175.836745253636
 30
0.0
 40
39.342857142858
100
AcDbArc
 50
254.973886240866
 51
285.0261137591065
  0
ARC
  5
3DB
330
25
100
AcDbEntity
  8
1
  6
Continuous
 62
     0
100
AcDbCircle
 10
10369.62757924403
 20
-1176.166895564046
 30
0.0
 40
32.087775151113
100
AcDbArc
 50
179.9269078913219
 51
224.555534691787
  0
ARC
  5
3DA
330
25
100
AcDbEntity
  8
1
  6
Continuous
 62
     0
100
AcDbCircle
 10
10402.51365065058
 20
-1206.451491280724
 30
0.0
 40
42.897491299712
100
AcDbArc
 50
116.5823044191849
 51
133.2669116226952
  0
ARC
  5
3D9
330
25
100
AcDbEntity
  8
1
  6
Continuous
 62
     0
100
AcDbCircle
 10
10383.02681227404
 20
-1167.507136826026
 30
0.0
 40
0.65017929019
100
AcDbArc
 50
296.5823044188792
 51
30.13902348593695
  0
ARC
  5
3D8
330
25
100
AcDbEntity
  8
1
  6
Continuous
 62
     0
100
AcDbCircle
 10
10339.34509594001
 20
-1143.282936570152
 30
0.0
 40
42.897491299709
100
AcDbArc
 50
316.733088377298
 51
333.4176955808185
  0
ARC
  5
3D7
330
25
100
AcDbEntity
  8
1
  6
Continuous
 62
     0
100
AcDbCircle
 10
10378.28945039471
 20
-1162.769774946695
 30
0.0
 40
0.650179290188
100
AcDbArc
 50
59.86097651466059
 51
153.4176955807713
  0
ARC
  5
3D6
330
25
100
AcDbEntity
  8
1
  6
Continuous
 62
     0
100
AcDbCircle
 10
10371.73151100976
 20
-1174.065076210972
 30
0.0
 40
13.711205269313
100
AcDbArc
 50
30.13902348559888
 51
59.86097651441904
  0
ARC
  5
3D5
330
25
100
AcDbEntity
  8
1
  6
Continuous
 62
     0
100
AcDbCircle
 10
10966.16696399874
 20
-1059.662397810028
 30
0.0
 40
25.565791607553
100
AcDbArc
 50
68.78850558533703
 51
111.211494414663
  0
ARC
  5
3D4
330
25
100
AcDbEntity
  8
1
  6
Continuous
 62
     0
100
AcDbCircle
 10
10981.66696399874
 20
-1046.239004051369
 30
0.0
 40
12.142397848893
100
AcDbArc
 50
90.0
 51
120.9790988616305
  0
ARC
  5
3D3
330
25
100
AcDbEntity
  8
1
  6
Continuous
 62
     0
100
AcDbCircle
 10
10950.66696399874
 20
-1046.239004051369
 30
0.0
 40
12.142397848894
100
AcDbArc
 50
59.02090113837222
 51
90.0
  0
ARC
  5
3D2
330
25
100
AcDbEntity
  8
1
  6
Continuous
 62
     0
100
AcDbCircle
 10
10966.16696399874
 20
-1025.596606202476
 30
0.0
 40
15.0
100
AcDbArc
 50
0.0
 51
180.0
  0
ARC
  5
3D1
330
25
100
AcDbEntity
  8
1
  6
Continuous
 62
     0
100
AcDbCircle
 10
10966.16696399874
 20
-1126.182663186353
 30
0.0
 40
35.086056983878
100
AcDbArc
 50
67.81224586875943
 51
112.1877541312406
  0
ARC
  5
3D0
330
25
100
AcDbEntity
  8
1
  6
Continuous
 62
     0
100
AcDbCircle
 10
10944.16696399874
 20
-1107.130104303094
 30
0.0
 40
16.033498100619
100
AcDbArc
 50
56.92526993279299
 51
90.0
  0
ARC
  5
3CF
330
25
100
AcDbEntity
  8
1
  6
Continuous
 62
     0
100
AcDbCircle
 10
10988.16696399874
 20
-1048.096606202476
 30
0.0
 40
1.0
100
AcDbArc
 50
0.0
 51
180.0
  0
ARC
  5
3CE
330
25
100
AcDbEntity
  8
1
  6
Continuous
 62
     0
100
AcDbCircle
 10
10973.50029733208
 20
-1048.096606202476
 30
0.0
 40
1.0
100
AcDbArc
 50
0.0
 51
180.0
  0
ARC
  5
3CD
330
25
100
AcDbEntity
  8
1
  6
Continuous
 62
     0
100
AcDbCircle
 10
10958.83363066541
 20
-1048.096606202476
 30
0.0
 40
1.0
100
AcDbArc
 50
0.0
 51
180.0
  0
ARC
  5
3CC
330
25
100
AcDbEntity
  8
1
  6
Continuous
 62
     0
100
AcDbCircle
 10
10944.16696399874
 20
-1048.096606202476
 30
0.0
 40
1.0
100
AcDbArc
 50
0.0
 51
180.0
  0
ARC
  5
3CB
330
25
100
AcDbEntity
  8
1
  6
Continuous
 62
     0
100
AcDbCircle
 10
10988.16696399874
 20
-1107.130104303094
 30
0.0
 40
16.033498100618
100
AcDbArc
 50
90.0
 51
123.0747300672088
  0
ARC
  5
3CA
330
25
100
AcDbEntity
  8
1
  6
Continuous
 62
     0
100
AcDbCircle
 10
10966.16696399874
 20
-1139.090647422191
 30
0.0
 40
51.505958780283
100
AcDbArc
 50
252.7775550278668
 51
287.2224449721332
  0
ARC
  5
3C9
330
25
100
AcDbEntity
  8
1
  6
Continuous
 62
     0
100
AcDbCircle
 10
10939.66696399874
 20
-1162.040320622478
 30
0.0
 40
28.556285579997
100
AcDbArc
 50
270.0
 51
293.2010528959333
  0
ARC
  5
3C8
330
25
100
AcDbEntity
  8
1
  6
Continuous
 62
     0
100
AcDbCircle
 10
10992.66696399874
 20
-1162.040320622478
 30
0.0
 40
28.556285579996
100
AcDbArc
 50
246.7989471040657
 51
270.0
  0
ARC
  5
3C7
330
25
100
AcDbEntity
  8
1
  6
Continuous
 62
     0
100
AcDbCircle
 10
13207.71922730231
 20
-1162.040320622478
 30
0.0
 40
28.556285579996
100
AcDbArc
 50
246.7989471040657
 51
270.0
  0
ARC
  5
3C6
330
25
100
AcDbEntity
  8
1
  6
Continuous
 62
     0
100
AcDbCircle
 10
13154.71922730231
 20
-1162.040320622478
 30
0.0
 40
28.556285579997
100
AcDbArc
 50
270.0
 51
293.2010528959333
  0
ARC
  5
3C5
330
25
100
AcDbEntity
  8
1
  6
Continuous
 62
     0
100
AcDbCircle
 10
13181.21922730231
 20
-1139.090647422191
 30
0.0
 40
51.505958780283
100
AcDbArc
 50
252.7775550278668
 51
287.2224449721332
  0
ARC
  5
3C4
330
25
100
AcDbEntity
  8
1
  6
Continuous
 62
     0
100
AcDbCircle
 10
13203.21922730231
 20
-1107.130104303094
 30
0.0
 40
16.033498100618
100
AcDbArc
 50
90.0
 51
123.0747300672088
  0
ARC
  5
3C3
330
25
100
AcDbEntity
  8
1
  6
Continuous
 62
     0
100
AcDbCircle
 10
13159.21922730231
 20
-1048.09593486389
 30
0.0
 40
1.0
100
AcDbArc
 50
0.0
 51
180.0
  0
ARC
  5
3C2
330
25
100
AcDbEntity
  8
1
  6
Continuous
 62
     0
100
AcDbCircle
 10
13173.88589396898
 20
-1048.09593486389
 30
0.0
 40
1.0
100
AcDbArc
 50
0.0
 51
180.0
  0
ARC
  5
3C1
330
25
100
AcDbEntity
  8
1
  6
Continuous
 62
     0
100
AcDbCircle
 10
13188.55256063564
 20
-1048.09593486389
 30
0.0
 40
1.0
100
AcDbArc
 50
0.0
 51
180.0
  0
ARC
  5
3C0
330
25
100
AcDbEntity
  8
1
  6
Continuous
 62
     0
100
AcDbCircle
 10
13203.21922730231
 20
-1048.09593486389
 30
0.0
 40
1.0
100
AcDbArc
 50
0.0
 51
180.0
  0
ARC
  5
3BF
330
25
100
AcDbEntity
  8
1
  6
Continuous
 62
     0
100
AcDbCircle
 10
13159.21922730231
 20
-1107.130104303094
 30
0.0
 40
16.033498100619
100
AcDbArc
 50
56.92526993279299
 51
90.0
  0
ARC
  5
3BE
330
25
100
AcDbEntity
  8
1
  6
Continuous
 62
     0
100
AcDbCircle
 10
13181.21922730231
 20
-1126.182663186353
 30
0.0
 40
35.086056983878
100
AcDbArc
 50
67.81224586875943
 51
112.1877541312406
  0
ARC
  5
3BD
330
25
100
AcDbEntity
  8
1
  6
Continuous
 62
     0
100
AcDbCircle
 10
13181.21922730231
 20
-1025.59593486389
 30
0.0
 40
15.0
100
AcDbArc
 50
0.0
 51
180.0
  0
ARC
  5
3BC
330
25
100
AcDbEntity
  8
1
  6
Continuous
 62
     0
100
AcDbCircle
 10
13165.71922730231
 20
-1046.238332712784
 30
0.0
 40
12.142397848894
100
AcDbArc
 50
59.02090113837222
 51
90.0
  0
ARC
  5
3BB
330
25
100
AcDbEntity
  8
1
  6
Continuous
 62
     0
100
AcDbCircle
 10
13196.71922730231
 20
-1046.238332712784
 30
0.0
 40
12.142397848894
100
AcDbArc
 50
90.0
 51
120.9790988616278
  0
ARC
  5
3BA
330
25
100
AcDbEntity
  8
1
  6
Continuous
 62
     0
100
AcDbCircle
 10
13181.21922730231
 20
-1059.661726471443
 30
0.0
 40
25.565791607553
100
AcDbArc
 50
68.78850558533703
 51
111.211494414663
  0
ARC
  5
3B9
330
25
100
AcDbEntity
  8
1
  6
Continuous
 62
     0
100
AcDbCircle
 10
13154.08759402731
 20
-1220.981687384739
 30
0.0
 40
6.48971883999
100
AcDbArc
 50
0.0
 51
39.92593778537901
  0
ARC
  5
3B8
330
25
100
AcDbEntity
  8
1
  6
Continuous
 62
     0
100
AcDbCircle
 10
13208.06703170729
 20
-1220.981687384739
 30
0.0
 40
6.489718839988
100
AcDbArc
 50
140.0740622145716
 51
180.0
  0
ARC
  5
3B7
330
25
100
AcDbEntity
  8
1
  6
Continuous
 62
     0
100
AcDbCircle
 10
13214.68780682776
 20
-1307.733592235146
 30
0.0
 40
10.415441500098
100
AcDbArc
 50
58.86850943391497
 51
90.0
  0
ARC
  5
3B6
330
25
100
AcDbEntity
  8
1
  6
Continuous
 62
     0
100
AcDbCircle
 10
13214.68780682776
 20
-1217.899620169805
 30
0.0
 40
10.415441500098
100
AcDbArc
 50
270.0
 51
301.131490566085
  0
ARC
  5
3B5
330
25
100
AcDbEntity
  8
1
  6
Continuous
 62
     0
100
AcDbCircle
 10
10966.30887843375
 20
-1139.090647422191
 30
0.0
 40
51.505958780283
100
AcDbArc
 50
252.7775550278668
 51
287.2224449721332
  0
ARC
  5
3B4
330
25
100
AcDbEntity
  8
1
  6
Continuous
 62
     0
100
AcDbCircle
 10
10939.80887843375
 20
-1162.040320622478
 30
0.0
 40
28.556285579997
100
AcDbArc
 50
270.0
 51
293.2010528959333
  0
ARC
  5
3B3
330
25
100
AcDbEntity
  8
1
  6
Continuous
 62
     0
100
AcDbCircle
 10
10992.80887843375
 20
-1162.040320622478
 30
0.0
 40
28.556285579996
100
AcDbArc
 50
246.7989471040657
 51
270.0
  0
ARC
  5
3B2
330
25
100
AcDbEntity
  8
1
  6
Continuous
 62
     0
100
AcDbCircle
 10
10939.17724515876
 20
-1220.981687384739
 30
0.0
 40
6.489718839979
100
AcDbArc
 50
0.0
 51
39.92593778543575
  0
ARC
  5
3B1
330
25
100
AcDbEntity
  8
1
  6
Continuous
 62
     0
100
AcDbCircle
 10
10993.15668283873
 20
-1220.981687384739
 30
0.0
 40
6.489718839986
100
AcDbArc
 50
140.0740622145659
 51
180.0
  0
ARC
  5
3B0
330
25
100
AcDbEntity
  8
1
  6
Continuous
 62
     0
100
AcDbCircle
 10
10966.16696399874
 20
-1262.816606202475
 30
0.0
 40
36.001544532568
100
AcDbArc
 50
130.3739132422421
 51
270.0
  0
ARC
  5
3AF
330
25
100
AcDbEntity
  8
1
  6
Continuous
 62
     0
100
AcDbCircle
 10
10966.16696399874
 20
-1262.816606202475
 30
0.0
 40
34.501544532573
100
AcDbArc
 50
141.5293544594008
 51
270.0
  0
ARC
  5
3AE
330
25
100
AcDbEntity
  8
1
  6
Continuous
 62
     0
100
AcDbCircle
 10
10966.16696399874
 20
-1262.816606202475
 30
0.0
 40
34.501544532572
100
AcDbArc
 50
270.0
 51
38.47064554059716
  0
ARC
  5
3AD
330
25
100
AcDbEntity
  8
1
  6
Continuous
 62
     0
100
AcDbCircle
 10
10966.16696399874
 20
-1262.816606202475
 30
0.0
 40
36.001544532572
100
AcDbArc
 50
270.0
 51
49.62608675775566
  0
ARC
  5
3AC
330
25
100
AcDbEntity
  8
1
  6
Continuous
 62
     0
100
AcDbCircle
 10
10586.16696399874
 20
-2319.731092290837
 30
0.0
 40
104.0
100
AcDbArc
 50
180.0
 51
243.6122000387589
  0
ARC
  5
3A9
330
25
100
AcDbEntity
  8
1
  6
Continuous
 62
     0
100
AcDbCircle
 10
11346.16696399874
 20
-2319.731092290837
 30
0.0
 40
104.0
100
AcDbArc
 50
296.3877999612421
 51
0.0
  0
ARC
  5
3A8
330
25
100
AcDbEntity
  8
1
  6
Continuous
 62
     0
100
AcDbCircle
 10
10966.16696399882
 20
-1553.816606202669
 30
0.0
 40
958.999999999791
100
AcDbArc
 50
291.405336673901
 51
296.387799961244
  0
ARC
  5
3A7
330
25
100
AcDbEntity
  8
1
  6
Continuous
 62
     0
100
AcDbCircle
 10
11346.16696399874
 20
-2319.731092290837
 30
0.0
 40
104.0
100
AcDbArc
 50
296.3877999612421
 51
0.0
  0
ARC
  5
3A5
330
25
100
AcDbEntity
  8
1
  6
Continuous
 62
     0
100
AcDbCircle
 10
10586.16696399874
 20
-443.902120114113
 30
0.0
 40
103.999999999999
100
AcDbArc
 50
116.3877999612413
 51
180.0
  0
ARC
  5
3A4
330
25
100
AcDbEntity
  8
1
  6
Continuous
 62
     0
100
AcDbCircle
 10
10966.16696399866
 20
-1209.816606202282
 30
0.0
 40
958.999999999791
100
AcDbArc
 50
109.8095464318091
 51
116.387799961243
  0
ARC
  5
3A3
330
25
100
AcDbEntity
  8
1
  6
Continuous
 62
     0
100
AcDbCircle
 10
10966.16696399874
 20
-1209.816606202459
 30
0.0
 40
958.999999999984
100
AcDbArc
 50
90.0
 51
109.80954643181
  0
ARC
  5
3A2
330
25
100
AcDbEntity
  8
1
  6
Continuous
 62
     0
100
AcDbCircle
 10
10966.16696399874
 20
-1209.816606202459
 30
0.0
 40
958.999999999985
100
AcDbArc
 50
70.190453568189
 51
90.0
  0
ARC
  5
3A1
330
25
100
AcDbEntity
  8
1
  6
Continuous
 62
     0
100
AcDbCircle
 10
10966.16696399882
 20
-1209.816606202282
 30
0.0
 40
958.999999999791
100
AcDbArc
 50
63.612200038756
 51
70.19045356819004
  0
ARC
  5
3A0
330
25
100
AcDbEntity
  8
1
  6
Continuous
 62
     0
100
AcDbCircle
 10
11346.16696399874
 20
-443.902120114113
 30
0.0
 40
104.0
100
AcDbArc
 50
0.0
 51
63.6122000387579
  0
ARC
  5
39F
330
25
100
AcDbEntity
  8
1
  6
Continuous
 62
     0
100
AcDbCircle
 10
11346.16696399874
 20
-443.902120114113
 30
0.0
 40
104.0
100
AcDbArc
 50
0.0
 51
63.6122000387579
  0
ARC
  5
39E
330
25
100
AcDbEntity
  8
1
  6
Continuous
 62
     0
100
AcDbCircle
 10
11346.16696399874
 20
-443.902120114113
 30
0.0
 40
104.0
100
AcDbArc
 50
0.0
 51
63.6122000387579
  0
ARC
  5
39D
330
25
100
AcDbEntity
  8
1
  6
Continuous
 62
     0
100
AcDbCircle
 10
10586.16696399874
 20
-443.902120114113
 30
0.0
 40
103.999999999999
100
AcDbArc
 50
116.3877999612413
 51
180.0
  0
ARC
  5
39C
330
25
100
AcDbEntity
  8
1
  6
Continuous
 62
     0
100
AcDbCircle
 10
11223.26506106014
 20
-250.313445440025
 30
0.0
 40
30.0
100
AcDbArc
 50
287.5744390991705
 51
222.4255609008353
  0
ARC
  5
39B
330
25
100
AcDbEntity
  8
1
  6
Continuous
 62
     0
100
AcDbCircle
 10
13755.31263036251
 20
-226.740600404942
 30
0.0
 40
6.25
100
AcDbArc
 50
0.0
 51
180.0
  0
ARC
  5
39A
330
25
100
AcDbEntity
  8
1
  6
Continuous
 62
     0
100
AcDbCircle
 10
13755.30817611422
 20
-238.317089692467
 30
0.0
 40
49.686199239439
100
AcDbArc
 50
257.4837911585823
 51
282.5777966181305
  0
ARC
  5
399
330
25
100
AcDbEntity
  8
1
  6
Continuous
 62
     0
100
AcDbCircle
 10
13764.05506291118
 20
-277.163459816913
 30
0.0
 40
9.867633396017
100
AcDbArc
 50
282.127264566957
 51
302.226735930235
  0
ARC
  5
398
330
25
100
AcDbEntity
  8
1
  6
Continuous
 62
     0
100
AcDbCircle
 10
13768.55533550214
 20
-283.913912171324
 30
0.0
 40
1.769429344079
100
AcDbArc
 50
295.5032981611236
 51
353.2860179514275
  0
ARC
  5
397
330
25
100
AcDbEntity
  8
1
  6
Continuous
 62
     0
100
AcDbCircle
 10
13746.57019781383
 20
-277.163459816913
 30
0.0
 40
9.867633396019
100
AcDbArc
 50
237.7732640697101
 51
257.8727354330454
  0
ARC
  5
396
330
25
100
AcDbEntity
  8
1
  6
Continuous
 62
     0
100
AcDbCircle
 10
13742.06992522288
 20
-283.913912171324
 30
0.0
 40
1.769429344085
100
AcDbArc
 50
186.7139820485755
 51
244.4967018382512
  0
ARC
  5
395
330
25
100
AcDbEntity
  8
1
  6
Continuous
 62
     0
100
AcDbCircle
 10
13743.80888508329
 20
-270.24606450783
 30
0.0
 40
1.612338933402
100
AcDbArc
 50
140.7459563039652
 51
219.5080394082095
  0
ARC
  5
394
330
25
100
AcDbEntity
  8
1
  6
Continuous
 62
     0
100
AcDbCircle
 10
13746.37822187539
 20
-268.08164783078
 30
0.0
 40
4.971771314832
100
AcDbArc
 50
219.9153846100963
 51
242.2240275229153
  0
ARC
  5
393
330
25
100
AcDbEntity
  8
1
  6
Continuous
 62
     0
100
AcDbCircle
 10
13750.93906978747
 20
-259.069059448837
 30
0.0
 40
15.072223653273
100
AcDbArc
 50
242.8500425616256
 51
258.3232295382588
  0
ARC
  5
392
330
25
100
AcDbEntity
  8
1
  6
Continuous
 62
     0
100
AcDbCircle
 10
13753.6750619456
 20
-248.256090057853
 30
0.0
 40
26.219752682684
100
AcDbArc
 50
257.2503777040183
 51
259.8681261417387
  0
ARC
  5
391
330
25
100
AcDbEntity
  8
1
  6
Continuous
 62
     0
100
AcDbCircle
 10
13746.37822187539
 20
-272.40977019842
 30
0.0
 40
4.97177131483
100
AcDbArc
 50
117.7759724770963
 51
140.0846153899243
  0
ARC
  5
390
330
25
100
AcDbEntity
  8
1
  6
Continuous
 62
     0
100
AcDbCircle
 10
13750.93906978747
 20
-281.422358580364
 30
0.0
 40
15.072223653273
100
AcDbArc
 50
101.6767704617412
 51
117.1499574383744
  0
ARC
  5
38F
330
25
100
AcDbEntity
  8
1
  6
Continuous
 62
     0
100
AcDbCircle
 10
13753.6750619456
 20
-292.235327971347
 30
0.0
 40
26.219752682682
100
AcDbArc
 50
100.1318738582621
 51
102.7496222959826
  0
ARC
  5
38E
330
25
100
AcDbEntity
  8
1
  6
Continuous
 62
     0
100
AcDbCircle
 10
13766.81637564172
 20
-270.24606450783
 30
0.0
 40
1.612338933407
100
AcDbArc
 50
320.4919605917823
 51
39.25404369604369
  0
ARC
  5
38D
330
25
100
AcDbEntity
  8
1
  6
Continuous
 62
     0
100
AcDbCircle
 10
13764.24703884961
 20
-272.40977019842
 30
0.0
 40
4.971771314839
100
AcDbArc
 50
39.91538461000107
 51
62.2240275227925
  0
ARC
  5
38C
330
25
100
AcDbEntity
  8
1
  6
Continuous
 62
     0
100
AcDbCircle
 10
13759.68619093754
 20
-281.422358580364
 30
0.0
 40
15.072223653273
100
AcDbArc
 50
62.8500425616255
 51
78.32322953825886
  0
ARC
  5
38B
330
25
100
AcDbEntity
  8
1
  6
Continuous
 62
     0
100
AcDbCircle
 10
13756.95019877941
 20
-292.235327971347
 30
0.0
 40
26.219752682683
100
AcDbArc
 50
77.2503777040179
 51
79.86812614171409
  0
ARC
  5
38A
330
25
100
AcDbEntity
  8
1
  6
Continuous
 62
     0
100
AcDbCircle
 10
13756.95019877941
 20
-248.256090057853
 30
0.0
 40
26.219752682684
100
AcDbArc
 50
280.1318738582855
 51
282.7496222959816
  0
ARC
  5
389
330
25
100
AcDbEntity
  8
1
  6
Continuous
 62
     0
100
AcDbCircle
 10
13759.68619093754
 20
-259.069059448837
 30
0.0
 40
15.072223653273
100
AcDbArc
 50
281.6767704617413
 51
297.1499574383745
  0
ARC
  5
388
330
25
100
AcDbEntity
  8
1
  6
Continuous
 62
     0
100
AcDbCircle
 10
13764.24703884961
 20
-268.08164783078
 30
0.0
 40
4.971771314836
100
AcDbArc
 50
297.7759724772026
 51
320.0846153899811
  0
ARC
  5
387
330
25
100
AcDbEntity
  8
1
  6
Continuous
 62
     0
100
AcDbCircle
 10
13755.31263036251
 20
-1209.816606202459
 30
0.0
 40
958.999999999985
100
AcDbArc
 50
70.190453568189
 51
89.626588991675
  0
ARC
  5
386
330
25
100
AcDbEntity
  8
1
  6
Continuous
 62
     0
100
AcDbCircle
 10
10966.16696399866
 20
-1553.816606202669
 30
0.0
 40
958.99999999979
100
AcDbArc
 50
243.6122000387571
 51
248.5946633261
  0
ARC
  5
384
330
25
100
AcDbEntity
  8
1
  6
Continuous
 62
     0
100
AcDbCircle
 10
13755.31263036242
 20
-1553.816606202669
 30
0.0
 40
958.99999999979
100
AcDbArc
 50
243.6122000387571
 51
248.5946633261
  0
ARC
  5
383
330
25
100
AcDbEntity
  8
1
  6
Continuous
 62
     0
100
AcDbCircle
 10
13375.31263036251
 20
-2319.731092290837
 30
0.0
 40
104.0
100
AcDbArc
 50
180.0
 51
243.6122000387544
  0
ARC
  5
381
330
25
100
AcDbEntity
  8
1
  6
Continuous
 62
     0
100
AcDbCircle
 10
14241.76713912334
 20
-2580.35136799218
 30
0.0
 40
152.252346488162
100
AcDbArc
 50
153.6680368469664
 51
181.151737825457
  0
ARC
  5
380
330
25
100
AcDbEntity
  8
1
  6
Continuous
 62
     0
100
AcDbCircle
 10
14135.31263036251
 20
-2319.731092290837
 30
0.0
 40
103.999999999999
100
AcDbArc
 50
296.3877999612413
 51
0.0
  0
ARC
  5
37F
330
25
100
AcDbEntity
  8
1
  6
Continuous
 62
     0
100
AcDbCircle
 10
13755.31263036259
 20
-1553.816606202669
 30
0.0
 40
958.999999999791
100
AcDbArc
 50
291.405336673901
 51
296.387799961244
  0
ARC
  5
37E
330
25
100
AcDbEntity
  8
1
  6
Continuous
 62
     0
100
AcDbCircle
 10
14135.31263036251
 20
-2319.731092290837
 30
0.0
 40
103.999999999999
100
AcDbArc
 50
296.3877999612413
 51
0.0
  0
ARC
  5
37D
330
25
100
AcDbEntity
  8
1
  6
Continuous
 62
     0
100
AcDbCircle
 10
13268.85812160167
 20
-2580.35136799218
 30
0.0
 40
152.252346488166
100
AcDbArc
 50
358.8482621745441
 51
26.33196315303134
  0
ARC
  5
37C
330
25
100
AcDbEntity
  8
1
  6
Continuous
 62
     0
100
AcDbCircle
 10
13268.85812160167
 20
-2580.35136799218
 30
0.0
 40
152.252346488166
100
AcDbArc
 50
358.8482621745441
 51
26.33196315303134
  0
ARC
  5
37B
330
25
100
AcDbEntity
  8
1
  6
Continuous
 62
     0
100
AcDbCircle
 10
14241.76713912334
 20
-2580.35136799218
 30
0.0
 40
152.252346488162
100
AcDbArc
 50
153.6680368469664
 51
181.151737825457
  0
ARC
  5
37A
330
25
100
AcDbEntity
  8
1
  6
Continuous
 62
     0
100
AcDbCircle
 10
14241.76713912334
 20
-2580.35136799218
 30
0.0
 40
152.252346488162
100
AcDbArc
 50
153.6680368469664
 51
181.151737825457
  0
ARC
  5
375
330
25
100
AcDbEntity
  8
1
  6
Continuous
 62
     0
100
AcDbCircle
 10
10990.08467852156
 20
-4075.083248345104
 30
0.0
 40
22.928203230274
100
AcDbArc
 50
252.4120462259934
 51
287.5879537740066
  0
ARC
  5
374
330
25
100
AcDbEntity
  8
1
  6
Continuous
 62
     0
100
AcDbCircle
 10
10979.6755513649
 20
-4091.823106414495
 30
0.0
 40
6.188368025616
100
AcDbArc
 50
245.9793229188869
 51
304.2284958029902
  0
ARC
  5
373
330
25
100
AcDbEntity
  8
1
  6
Continuous
 62
     0
100
AcDbCircle
 10
10952.65837663259
 20
-4091.823106414495
 30
0.0
 40
6.188368025607
100
AcDbArc
 50
235.7715041969342
 51
294.0206770810379
  0
ARC
  5
372
330
25
100
AcDbEntity
  8
1
  6
Continuous
 62
     0
100
AcDbCircle
 10
10931.84012231926
 20
-4091.823106414495
 30
0.0
 40
6.188368025611
100
AcDbArc
 50
245.9793229189792
 51
304.2284958030794
  0
ARC
  5
371
330
25
100
AcDbEntity
  8
1
  6
Continuous
 62
     0
100
AcDbCircle
 10
10942.24924947592
 20
-4075.083248345104
 30
0.0
 40
22.928203230271
100
AcDbArc
 50
252.4120462260151
 51
287.5879537740088
  0
LINE
  5
35B
330
25
100
AcDbEntity
  8
1
  6
Continuous
 62
     0
100
AcDbLine
 10
13855.31263036251
 20
-2612.816606202475
 30
0.0
 11
13855.31263036251
 21
-2803.816606202476
 31
0.0
  0
LINE
  5
35A
330
25
100
AcDbEntity
  8
1
  6
Continuous
 62
     0
100
AcDbLine
 10
13655.31263036251
 20
-2612.816606202475
 30
0.0
 11
13655.31263036251
 21
-2803.816606202476
 31
0.0
  0
LINE
  5
359
330
25
100
AcDbEntity
  8
1
  6
Continuous
 62
     0
100
AcDbLine
 10
13280.31263036251
 20
-2803.816606202476
 30
0.0
 11
14230.31263036251
 21
-2803.816606202476
 31
0.0
  0
LINE
  5
358
330
25
100
AcDbEntity
  8
1
  6
Continuous
 62
     0
100
AcDbLine
 10
14230.31263036251
 20
-2803.816606202476
 30
0.0
 11
14230.31263036251
 21
-2812.816606202475
 31
0.0
  0
LINE
  5
357
330
25
100
AcDbEntity
  8
1
  6
Continuous
 62
     0
100
AcDbLine
 10
14230.31263036251
 20
-2812.816606202475
 30
0.0
 11
13280.31263036251
 21
-2812.816606202475
 31
0.0
  0
LINE
  5
356
330
25
100
AcDbEntity
  8
1
  6
Continuous
 62
     0
100
AcDbLine
 10
13280.31263036251
 20
-2812.816606202475
 30
0.0
 11
13280.31263036251
 21
-2803.816606202476
 31
0.0
  0
LINE
  5
355
330
25
100
AcDbEntity
  8
1
  6
Continuous
 62
     0
100
AcDbLine
 10
11300.39988592006
 20
-2803.816606202476
 30
0.0
 11
11300.39988592006
 21
-2583.411680266121
 31
0.0
  0
LINE
  5
354
330
25
100
AcDbEntity
  8
1
  6
Continuous
 62
     0
100
AcDbLine
 10
10491.16696399874
 20
-2812.816606202475
 30
0.0
 11
10491.16696399874
 21
-2803.816606202476
 31
0.0
  0
LINE
  5
353
330
25
100
AcDbEntity
  8
1
  6
Continuous
 62
     0
100
AcDbLine
 10
11441.16696399874
 20
-2812.816606202475
 30
0.0
 11
10491.16696399874
 21
-2812.816606202475
 31
0.0
  0
LINE
  5
352
330
25
100
AcDbEntity
  8
1
  6
Continuous
 62
     0
100
AcDbLine
 10
11441.16696399874
 20
-2803.816606202476
 30
0.0
 11
11441.16696399874
 21
-2812.816606202475
 31
0.0
  0
LINE
  5
351
330
25
100
AcDbEntity
  8
1
  6
Continuous
 62
     0
100
AcDbLine
 10
10491.16696399874
 20
-2803.816606202476
 30
0.0
 11
11441.16696399874
 21
-2803.816606202476
 31
0.0
  0
LINE
  5
350
330
25
100
AcDbEntity
  8
1
  6
Continuous
 62
     0
100
AcDbLine
 10
13271.31263036251
 20
-463.816606202475
 30
0.0
 11
13271.31263036251
 21
-2021.816606202475
 31
0.0
  0
LINE
  5
34F
330
25
100
AcDbEntity
  8
1
  6
Continuous
 62
     0
100
AcDbLine
 10
13271.31263036251
 20
-443.902120114113
 30
0.0
 11
13271.31263036251
 21
-463.816606202475
 31
0.0
  0
LINE
  5
34E
330
25
100
AcDbEntity
  8
1
  6
Continuous
 62
     0
100
AcDbLine
 10
14239.31263036251
 20
-463.816606202475
 30
0.0
 11
14239.31263036251
 21
-443.902120114113
 31
0.0
  0
LINE
  5
34D
330
25
100
AcDbEntity
  8
1
  6
Continuous
 62
     0
100
AcDbLine
 10
13271.31263036251
 20
-443.902120114113
 30
0.0
 11
13271.31263036251
 21
-463.816606202475
 31
0.0
  0
LINE
  5
34C
330
25
100
AcDbEntity
  8
1
  6
Continuous
 62
     0
100
AcDbLine
 10
13755.31263036251
 20
-463.816606202475
 30
0.0
 11
13271.31263036251
 21
-463.816606202475
 31
0.0
  0
LINE
  5
34B
330
25
100
AcDbEntity
  8
1
  6
Continuous
 62
     0
100
AcDbLine
 10
14239.31263036251
 20
-463.816606202475
 30
0.0
 11
13755.31263036251
 21
-463.816606202475
 31
0.0
  0
LINE
  5
34A
330
25
100
AcDbEntity
  8
1
  6
Continuous
 62
     0
100
AcDbLine
 10
13755.31263036251
 20
-2299.816606202475
 30
0.0
 11
14239.3126303625
 21
-2299.816606202475
 31
0.0
  0
LINE
  5
349
330
25
100
AcDbEntity
  8
1
  6
Continuous
 62
     0
100
AcDbLine
 10
13271.31263036251
 20
-2299.816606202475
 30
0.0
 11
13755.31263036251
 21
-2299.816606202475
 31
0.0
  0
LINE
  5
348
330
25
100
AcDbEntity
  8
1
  6
Continuous
 62
     0
100
AcDbLine
 10
14239.31263036251
 20
-2319.731092290837
 30
0.0
 11
14239.3126303625
 21
-2299.816606202475
 31
0.0
  0
LINE
  5
347
330
25
100
AcDbEntity
  8
1
  6
Continuous
 62
     0
100
AcDbLine
 10
13271.31263036251
 20
-2299.816606202475
 30
0.0
 11
13271.31263036251
 21
-2319.731092290837
 31
0.0
  0
LINE
  5
346
330
25
100
AcDbEntity
  8
1
  6
Continuous
 62
     0
100
AcDbLine
 10
10359.35653947724
 20
-3582.01145157538
 30
0.0
 11
10331.66823714032
 21
-3582.01145157538
 31
0.0
  0
LINE
  5
345
330
25
100
AcDbEntity
  8
1
  6
Continuous
 62
     0
100
AcDbLine
 10
10407.66823714032
 20
-3596.011451575379
 30
0.0
 11
10333.66823714032
 21
-3596.011451575379
 31
0.0
  0
LINE
  5
344
330
25
100
AcDbEntity
  8
1
  6
Continuous
 62
     0
100
AcDbLine
 10
10333.66823714032
 20
-3561.011451575379
 30
0.0
 11
10407.66823714032
 21
-3561.011451575379
 31
0.0
  0
LINE
  5
343
330
25
100
AcDbEntity
  8
1
  6
Continuous
 62
     0
100
AcDbLine
 10
10409.66823714032
 20
-3571.51145157538
 30
0.0
 11
10409.66823714032
 21
-3563.011451575379
 31
0.0
  0
LINE
  5
342
330
25
100
AcDbEntity
  8
1
  6
Continuous
 62
     0
100
AcDbLine
 10
10409.66823714032
 20
-3592.51145157538
 30
0.0
 11
10409.66823714032
 21
-3594.011451575379
 31
0.0
  0
LINE
  5
341
330
25
100
AcDbEntity
  8
1
  6
Continuous
 62
     0
100
AcDbLine
 10
10331.66823714032
 20
-3594.011451575379
 30
0.0
 11
10331.66823714032
 21
-3563.011451575379
 31
0.0
  0
LINE
  5
33E
330
25
100
AcDbEntity
  8
1
  6
Continuous
 62
     0
100
AcDbLine
 10
10364.66823714032
 20
-3576.01145157538
 30
0.0
 11
10376.66823714032
 21
-3588.01145157538
 31
0.0
  0
LINE
  5
33D
330
25
100
AcDbEntity
  8
1
  6
Continuous
 62
     0
100
AcDbLine
 10
10376.66823714032
 20
-3576.01145157538
 30
0.0
 11
10364.66823714032
 21
-3588.01145157538
 31
0.0
  0
LINE
  5
33C
330
25
100
AcDbEntity
  8
1
  6
Continuous
 62
     0
100
AcDbLine
 10
10364.66823714032
 20
-3576.01145157538
 30
0.0
 11
10376.66823714032
 21
-3576.01145157538
 31
0.0
  0
LINE
  5
33B
330
25
100
AcDbEntity
  8
1
  6
Continuous
 62
     0
100
AcDbLine
 10
10376.66823714032
 20
-3576.01145157538
 30
0.0
 11
10376.66823714032
 21
-3588.01145157538
 31
0.0
  0
LINE
  5
33A
330
25
100
AcDbEntity
  8
1
  6
Continuous
 62
     0
100
AcDbLine
 10
10376.66823714032
 20
-3588.01145157538
 30
0.0
 11
10364.66823714032
 21
-3588.01145157538
 31
0.0
  0
LINE
  5
339
330
25
100
AcDbEntity
  8
1
  6
Continuous
 62
     0
100
AcDbLine
 10
10364.66823714032
 20
-3588.01145157538
 30
0.0
 11
10364.66823714032
 21
-3576.01145157538
 31
0.0
  0
LINE
  5
337
330
25
100
AcDbEntity
  8
1
  6
Continuous
 62
     0
100
AcDbLine
 10
10393.66696399874
 20
-3570.51145157538
 30
0.0
 11
10370.66823714032
 21
-3570.51145157538
 31
0.0
  0
LINE
  5
336
330
25
100
AcDbEntity
  8
1
  6
Continuous
 62
     0
100
AcDbLine
 10
10393.66696399874
 20
-3570.51145157538
 30
0.0
 11
10393.66696399874
 21
-3582.01145157538
 31
0.0
  0
LINE
  5
335
330
25
100
AcDbEntity
  8
1
  6
Continuous
 62
     0
100
AcDbLine
 10
10370.66823714032
 20
-3593.51145157538
 30
0.0
 11
10393.66696399874
 21
-3593.51145157538
 31
0.0
  0
LINE
  5
334
330
25
100
AcDbEntity
  8
1
  6
Continuous
 62
     0
100
AcDbLine
 10
10393.66696399874
 20
-3582.01145157538
 30
0.0
 11
10393.66696399874
 21
-3593.51145157538
 31
0.0
  0
LINE
  5
333
330
25
100
AcDbEntity
  8
1
  6
Continuous
 62
     0
100
AcDbLine
 10
10393.66696399874
 20
-3582.01145157538
 30
0.0
 11
10393.66696399874
 21
-3593.51145157538
 31
0.0
  0
LINE
  5
332
330
25
100
AcDbEntity
  8
1
  6
Continuous
 62
     0
100
AcDbLine
 10
10393.66696399874
 20
-3570.51145157538
 30
0.0
 11
10393.66696399874
 21
-3582.01145157538
 31
0.0
  0
LINE
  5
331
330
25
100
AcDbEntity
  8
1
  6
Continuous
 62
     0
100
AcDbLine
 10
10408.96696399874
 20
-3592.51145157538
 30
0.0
 11
10408.96696399874
 21
-3571.51145157538
 31
0.0
  0
LINE
  5
330
330
25
100
AcDbEntity
  8
1
  6
Continuous
 62
     0
100
AcDbLine
 10
10400.06696399874
 20
-3573.361451575379
 30
0.0
 11
10400.06696399874
 21
-3590.66145157538
 31
0.0
  0
LINE
  5
32F
330
25
100
AcDbEntity
  8
1
  6
Continuous
 62
     0
100
AcDbLine
 10
10402.56696399874
 20
-3590.66145157538
 30
0.0
 11
10402.56696399874
 21
-3573.361451575379
 31
0.0
  0
LINE
  5
32E
330
25
100
AcDbEntity
  8
1
  6
Continuous
 62
     0
100
AcDbLine
 10
10402.56696399874
 20
-3573.361451575379
 30
0.0
 11
10400.06696399874
 21
-3573.361451575379
 31
0.0
  0
LINE
  5
32D
330
25
100
AcDbEntity
  8
1
  6
Continuous
 62
     0
100
AcDbLine
 10
10400.06696399874
 20
-3590.66145157538
 30
0.0
 11
10402.56696399874
 21
-3590.66145157538
 31
0.0
  0
LINE
  5
32C
330
25
100
AcDbEntity
  8
1
  6
Continuous
 62
     0
100
AcDbLine
 10
10408.96696399874
 20
-3590.34245157538
 30
0.0
 11
10402.56696399874
 21
-3590.66145157538
 31
0.0
  0
LINE
  5
32B
330
25
100
AcDbEntity
  8
1
  6
Continuous
 62
     0
100
AcDbLine
 10
10393.66696399874
 20
-3573.680451575379
 30
0.0
 11
10400.06696399874
 21
-3573.361451575379
 31
0.0
  0
LINE
  5
32A
330
25
100
AcDbEntity
  8
1
  6
Continuous
 62
     0
100
AcDbLine
 10
10400.06696399874
 20
-3590.66145157538
 30
0.0
 11
10393.66696399874
 21
-3590.34245157538
 31
0.0
  0
LINE
  5
329
330
25
100
AcDbEntity
  8
1
  6
Continuous
 62
     0
100
AcDbLine
 10
10402.56696399874
 20
-3573.361451575379
 30
0.0
 11
10408.96696399874
 21
-3573.680451575379
 31
0.0
  0
LINE
  5
328
330
25
100
AcDbEntity
  8
1
  6
Continuous
 62
     0
100
AcDbLine
 10
10459.32696399874
 20
-3590.66145157538
 30
0.0
 11
10462.16696399874
 21
-3590.66145157538
 31
0.0
  0
LINE
  5
327
330
25
100
AcDbEntity
  8
1
  6
Continuous
 62
     0
100
AcDbLine
 10
10459.32696399874
 20
-3590.66145157538
 30
0.0
 11
10452.92696399874
 21
-3590.34245157538
 31
0.0
  0
LINE
  5
326
330
25
100
AcDbEntity
  8
1
  6
Continuous
 62
     0
100
AcDbLine
 10
10452.92696399874
 20
-3573.680451575379
 30
0.0
 11
10459.32696399874
 21
-3573.361451575379
 31
0.0
  0
LINE
  5
325
330
25
100
AcDbEntity
  8
1
  6
Continuous
 62
     0
100
AcDbLine
 10
10462.16696399874
 20
-3573.361451575379
 30
0.0
 11
10459.32696399874
 21
-3573.361451575379
 31
0.0
  0
LINE
  5
324
330
25
100
AcDbEntity
  8
1
  6
Continuous
 62
     0
100
AcDbLine
 10
10459.32696399874
 20
-3573.361451575379
 30
0.0
 11
10459.32696399874
 21
-3590.66145157538
 31
0.0
  0
LINE
  5
323
330
25
100
AcDbEntity
  8
1
  6
Continuous
 62
     0
100
AcDbLine
 10
10444.47481929773
 20
-3572.811451575378
 30
0.0
 11
10434.07696399874
 21
-3572.811451575378
 31
0.0
  0
LINE
  5
322
330
25
100
AcDbEntity
  8
1
  6
Continuous
 62
     0
100
AcDbLine
 10
10417.37910869975
 20
-3572.811451575378
 30
0.0
 11
10425.77696399874
 21
-3572.811451575378
 31
0.0
  0
LINE
  5
321
330
25
100
AcDbEntity
  8
1
  6
Continuous
 62
     0
100
AcDbLine
 10
10444.88914182523
 20
-3582.01145157538
 30
0.0
 11
10451.98914182524
 21
-3582.01145157538
 31
0.0
  0
LINE
  5
320
330
25
100
AcDbEntity
  8
1
  6
Continuous
 62
     0
100
AcDbLine
 10
10409.86478617225
 20
-3582.01145157538
 30
0.0
 11
10416.96478617225
 21
-3582.01145157538
 31
0.0
  0
LINE
  5
31F
330
25
100
AcDbEntity
  8
1
  6
Continuous
 62
     0
100
AcDbLine
 10
10417.22696399874
 20
-3571.511451575379
 30
0.0
 11
10417.22696399874
 21
-3566.611451575377
 31
0.0
  0
LINE
  5
31E
330
25
100
AcDbEntity
  8
1
  6
Continuous
 62
     0
100
AcDbLine
 10
10417.22696399874
 20
-3566.611451575377
 30
0.0
 11
10417.92696399874
 21
-3566.611451575377
 31
0.0
  0
LINE
  5
31D
330
25
100
AcDbEntity
  8
1
  6
Continuous
 62
     0
100
AcDbLine
 10
10421.42696399874
 20
-3571.511451575379
 30
0.0
 11
10421.42696399874
 21
-3569.511451575379
 31
0.0
  0
LINE
  5
31C
330
25
100
AcDbEntity
  8
1
  6
Continuous
 62
     0
100
AcDbLine
 10
10417.92696399874
 20
-3569.511451575379
 30
0.0
 11
10419.92696399874
 21
-3569.511451575379
 31
0.0
  0
LINE
  5
31B
330
25
100
AcDbEntity
  8
1
  6
Continuous
 62
     0
100
AcDbLine
 10
10417.92696399874
 20
-3569.511451575379
 30
0.0
 11
10417.92696399874
 21
-3565.41145157538
 31
0.0
  0
LINE
  5
31A
330
25
100
AcDbEntity
  8
1
  6
Continuous
 62
     0
100
AcDbLine
 10
10452.92696399874
 20
-3571.51145157538
 30
0.0
 11
10452.92696399874
 21
-3592.51145157538
 31
0.0
  0
LINE
  5
319
330
25
100
AcDbEntity
  8
1
  6
Continuous
 62
     0
100
AcDbLine
 10
10452.92696399874
 20
-3592.51145157538
 30
0.0
 11
10408.92696399874
 21
-3592.51145157538
 31
0.0
  0
LINE
  5
318
330
25
100
AcDbEntity
  8
1
  6
Continuous
 62
     0
100
AcDbLine
 10
10408.92696399874
 20
-3592.51145157538
 30
0.0
 11
10408.92696399874
 21
-3571.51145157538
 31
0.0
  0
LINE
  5
317
330
25
100
AcDbEntity
  8
1
  6
Continuous
 62
     0
100
AcDbLine
 10
10452.92696399874
 20
-3571.51145157538
 30
0.0
 11
10408.92696399874
 21
-3571.51145157538
 31
0.0
  0
LINE
  5
314
330
25
100
AcDbEntity
  8
1
  6
Continuous
 62
     0
100
AcDbLine
 10
10439.92696399874
 20
-3569.511451575379
 30
0.0
 11
10439.92696399874
 21
-3566.011451575379
 31
0.0
  0
LINE
  5
313
330
25
100
AcDbEntity
  8
1
  6
Continuous
 62
     0
100
AcDbLine
 10
10419.92696399874
 20
-3569.511451575379
 30
0.0
 11
10439.92696399874
 21
-3569.511451575379
 31
0.0
  0
LINE
  5
312
330
25
100
AcDbEntity
  8
1
  6
Continuous
 62
     0
100
AcDbLine
 10
10419.92696399874
 20
-3566.011451575379
 30
0.0
 11
10419.92696399874
 21
-3569.511451575379
 31
0.0
  0
LINE
  5
311
330
25
100
AcDbEntity
  8
1
  6
Continuous
 62
     0
100
AcDbLine
 10
10439.92696399874
 20
-3566.011451575379
 30
0.0
 11
10419.92696399874
 21
-3566.011451575379
 31
0.0
  0
LINE
  5
310
330
25
100
AcDbEntity
  8
1
  6
Continuous
 62
     0
100
AcDbLine
 10
10449.92696399874
 20
-3563.011451575379
 30
0.0
 11
10439.92696399874
 21
-3566.011451575379
 31
0.0
  0
LINE
  5
30F
330
25
100
AcDbEntity
  8
1
  6
Continuous
 62
     0
100
AcDbLine
 10
10449.92696399874
 20
-3556.011451575379
 30
0.0
 11
10449.92696399874
 21
-3563.011451575379
 31
0.0
  0
LINE
  5
30E
330
25
100
AcDbEntity
  8
1
  6
Continuous
 62
     0
100
AcDbLine
 10
10439.42696399874
 20
-3556.011451575379
 30
0.0
 11
10449.92696399874
 21
-3556.011451575379
 31
0.0
  0
LINE
  5
30D
330
25
100
AcDbEntity
  8
1
  6
Continuous
 62
     0
100
AcDbLine
 10
10409.92696399874
 20
-3563.011451575379
 30
0.0
 11
10409.92696399874
 21
-3556.011451575379
 31
0.0
  0
LINE
  5
30C
330
25
100
AcDbEntity
  8
1
  6
Continuous
 62
     0
100
AcDbLine
 10
10419.92696399874
 20
-3566.011451575379
 30
0.0
 11
10409.92696399874
 21
-3563.011451575379
 31
0.0
  0
LINE
  5
30B
330
25
100
AcDbEntity
  8
1
  6
Continuous
 62
     0
100
AcDbLine
 10
10409.92696399874
 20
-3556.011451575379
 30
0.0
 11
10420.42696399874
 21
-3556.011451575379
 31
0.0
  0
LINE
  5
30A
330
25
100
AcDbEntity
  8
1
  6
Continuous
 62
     0
100
AcDbLine
 10
10424.92696399874
 20
-3569.511451575379
 30
0.0
 11
10424.92696399874
 21
-3571.511451575379
 31
0.0
  0
LINE
  5
309
330
25
100
AcDbEntity
  8
1
  6
Continuous
 62
     0
100
AcDbLine
 10
10434.92696399874
 20
-3569.511451575379
 30
0.0
 11
10434.92696399874
 21
-3571.511451575379
 31
0.0
  0
LINE
  5
308
330
25
100
AcDbEntity
  8
1
  6
Continuous
 62
     0
100
AcDbLine
 10
10953.35940864178
 20
-2983.028665178172
 30
0.0
 11
10966.16696399874
 21
-2975.634219645168
 31
0.0
  0
LINE
  5
307
330
25
100
AcDbEntity
  8
1
  6
Continuous
 62
     0
100
AcDbLine
 10
10966.16696399874
 20
-2975.634219645168
 30
0.0
 11
10978.97451935571
 21
-2983.028665178172
 31
0.0
  0
LINE
  5
306
330
25
100
AcDbEntity
  8
1
  6
Continuous
 62
     0
100
AcDbLine
 10
11000.66850853131
 20
-3035.276134080178
 30
0.0
 11
11012.16696399874
 21
-3035.276134080178
 31
0.0
  0
LINE
  5
305
330
25
100
AcDbEntity
  8
1
  6
Continuous
 62
     0
100
AcDbLine
 10
10995.45804777036
 20
-2980.276134080178
 30
0.0
 11
11012.16696399874
 21
-2980.276134080178
 31
0.0
  0
LINE
  5
303
330
25
100
AcDbEntity
  8
1
  6
Continuous
 62
     0
100
AcDbLine
 10
11013.16696399874
 20
-3036.776134080178
 30
0.0
 11
11013.16696399874
 21
-3036.276134080178
 31
0.0
  0
LINE
  5
302
330
25
100
AcDbEntity
  8
1
  6
Continuous
 62
     0
100
AcDbLine
 10
11013.16696399874
 20
-3036.776134080178
 30
0.0
 11
11018.16696399874
 21
-3036.776134080178
 31
0.0
  0
LINE
  5
301
330
25
100
AcDbEntity
  8
1
  6
Continuous
 62
     0
100
AcDbLine
 10
11018.16696399874
 20
-3036.776134080178
 30
0.0
 11
11018.16696399874
 21
-2978.776134080178
 31
0.0
  0
LINE
  5
300
330
25
100
AcDbEntity
  8
1
  6
Continuous
 62
     0
100
AcDbLine
 10
11018.16696399874
 20
-2978.776134080178
 30
0.0
 11
11013.16696399874
 21
-2978.776134080178
 31
0.0
  0
LINE
  5
2FF
330
25
100
AcDbEntity
  8
1
  6
Continuous
 62
     0
100
AcDbLine
 10
11013.16696399874
 20
-2978.776134080178
 30
0.0
 11
11013.16696399874
 21
-2979.276134080178
 31
0.0
  0
LINE
  5
2FE
330
25
100
AcDbEntity
  8
1
  6
Continuous
 62
     0
100
AcDbLine
 10
11013.16696399874
 20
-2979.417379088151
 30
0.0
 11
11013.16696399874
 21
-3036.776134080178
 31
0.0
  0
LINE
  5
2FD
330
25
100
AcDbEntity
  8
1
  6
Continuous
 62
     0
100
AcDbLine
 10
10931.66541946617
 20
-3035.788262102145
 30
0.0
 11
10931.66541946617
 21
-3011.161941440199
 31
0.0
  0
LINE
  5
2FC
330
25
100
AcDbEntity
  8
1
  6
Continuous
 62
     0
100
AcDbLine
 10
11000.66850853131
 20
-3010.716842126662
 30
0.0
 11
11000.66850853131
 21
-3035.633645110987
 31
0.0
  0
LINE
  5
2FB
330
25
100
AcDbEntity
  8
1
  6
Continuous
 62
     0
100
AcDbLine
 10
11000.66850853131
 20
-3041.386628040639
 30
0.0
 11
11000.66850853131
 21
-3034.276134080177
 31
0.0
  0
LINE
  5
2FA
330
25
100
AcDbEntity
  8
1
  6
Continuous
 62
     0
100
AcDbLine
 10
10930.16541946617
 20
-3051.771451575381
 30
0.0
 11
10966.16696399874
 21
-3051.771451575381
 31
0.0
  0
LINE
  5
2F9
330
25
100
AcDbEntity
  8
1
  6
Continuous
 62
     0
100
AcDbLine
 10
11002.16850853131
 20
-3046.771451575381
 30
0.0
 11
11000.66850853131
 21
-3046.771451575381
 31
0.0
  0
LINE
  5
2F8
330
25
100
AcDbEntity
  8
1
  6
Continuous
 62
     0
100
AcDbLine
 10
10930.16541946617
 20
-3046.771451575381
 30
0.0
 11
10931.66541946617
 21
-3046.771451575381
 31
0.0
  0
LINE
  5
2F7
330
25
100
AcDbEntity
  8
1
  6
Continuous
 62
     0
100
AcDbLine
 10
10931.66541946617
 20
-3046.771451575381
 30
0.0
 11
11000.66850853131
 21
-3046.771451575381
 31
0.0
  0
LINE
  5
2F6
330
25
100
AcDbEntity
  8
1
  6
Continuous
 62
     0
100
AcDbLine
 10
10930.16541946617
 20
-3051.771451575381
 30
0.0
 11
10930.16541946617
 21
-3046.771451575381
 31
0.0
  0
LINE
  5
2F5
330
25
100
AcDbEntity
  8
1
  6
Continuous
 62
     0
100
AcDbLine
 10
11002.16850853131
 20
-3051.771451575381
 30
0.0
 11
11002.16850853131
 21
-3046.771451575381
 31
0.0
  0
LINE
  5
2F4
330
25
100
AcDbEntity
  8
1
  6
Continuous
 62
     0
100
AcDbLine
 10
10966.16696399874
 20
-3051.771451575381
 30
0.0
 11
11002.16850853131
 21
-3051.771451575381
 31
0.0
  0
LINE
  5
2F3
330
25
100
AcDbEntity
  8
1
  6
Continuous
 62
     0
100
AcDbLine
 10
10931.66541946617
 20
-3041.386628040639
 30
0.0
 11
10931.66541946617
 21
-3032.276134080177
 31
0.0
  0
LINE
  5
2F2
330
25
100
AcDbEntity
  8
1
  6
Continuous
 62
     0
100
AcDbLine
 10
10935.91696399874
 20
-3062.89145157538
 30
0.0
 11
10936.35996399874
 21
-3051.771451575381
 31
0.0
  0
LINE
  5
2F1
330
25
100
AcDbEntity
  8
1
  6
Continuous
 62
     0
100
AcDbLine
 10
10995.97396399874
 20
-3051.771451575381
 30
0.0
 11
10996.41696399874
 21
-3062.89145157538
 31
0.0
  0
LINE
  5
2F0
330
25
100
AcDbEntity
  8
1
  6
Continuous
 62
     0
100
AcDbLine
 10
10936.35996399874
 20
-3078.01145157538
 30
0.0
 11
10935.91696399874
 21
-3066.89145157538
 31
0.0
  0
LINE
  5
2EF
330
25
100
AcDbEntity
  8
1
  6
Continuous
 62
     0
100
AcDbLine
 10
10995.97396399874
 20
-3078.01145157538
 30
0.0
 11
10996.41696399874
 21
-3066.89145157538
 31
0.0
  0
LINE
  5
2EE
330
25
100
AcDbEntity
  8
1
  6
Continuous
 62
     0
100
AcDbLine
 10
10935.91696399874
 20
-3062.89145157538
 30
0.0
 11
10935.91696399874
 21
-3066.89145157538
 31
0.0
  0
LINE
  5
2ED
330
25
100
AcDbEntity
  8
1
  6
Continuous
 62
     0
100
AcDbLine
 10
10996.41696399874
 20
-3066.89145157538
 30
0.0
 11
10996.41696399874
 21
-3062.89145157538
 31
0.0
  0
LINE
  5
2EC
330
25
100
AcDbEntity
  8
1
  6
Continuous
 62
     0
100
AcDbLine
 10
10935.91696399874
 20
-3062.89145157538
 30
0.0
 11
10996.41696399874
 21
-3062.89145157538
 31
0.0
  0
LINE
  5
2EB
330
25
100
AcDbEntity
  8
1
  6
Continuous
 62
     0
100
AcDbLine
 10
10996.41696399874
 20
-3066.89145157538
 30
0.0
 11
10935.91696399874
 21
-3066.89145157538
 31
0.0
  0
LINE
  5
2EA
330
25
100
AcDbEntity
  8
1
  6
Continuous
 62
     0
100
AcDbLine
 10
10933.01696399874
 20
-3078.01145157538
 30
0.0
 11
10999.31696399874
 21
-3078.01145157538
 31
0.0
  0
LINE
  5
2E9
330
25
100
AcDbEntity
  8
1
  6
Continuous
 62
     0
100
AcDbLine
 10
10933.01696399874
 20
-3078.01145157538
 30
0.0
 11
10933.01696399874
 21
-3098.01145157538
 31
0.0
  0
LINE
  5
2E8
330
25
100
AcDbEntity
  8
1
  6
Continuous
 62
     0
100
AcDbLine
 10
10999.31696399874
 20
-3078.01145157538
 30
0.0
 11
10999.31696399874
 21
-3098.01145157538
 31
0.0
  0
LINE
  5
2E7
330
25
100
AcDbEntity
  8
1
  6
Continuous
 62
     0
100
AcDbLine
 10
10933.01696399874
 20
-3078.01145157538
 30
0.0
 11
10999.31696399874
 21
-3078.01145157538
 31
0.0
  0
LINE
  5
2E6
330
25
100
AcDbEntity
  8
1
  6
Continuous
 62
     0
100
AcDbLine
 10
10462.16696399874
 20
-3541.01145157538
 30
0.0
 11
10462.16696399874
 21
-3623.01145157538
 31
0.0
  0
LINE
  5
2E5
330
25
100
AcDbEntity
  8
1
  6
Continuous
 62
     0
100
AcDbLine
 10
10484.00178597225
 20
-3541.01145157538
 30
0.0
 11
10462.16696399874
 21
-3541.01145157538
 31
0.0
  0
LINE
  5
2E4
330
25
100
AcDbEntity
  8
1
  6
Continuous
 62
     0
100
AcDbLine
 10
10484.00178597225
 20
-3623.01145157538
 30
0.0
 11
10462.16696399874
 21
-3623.01145157538
 31
0.0
  0
LINE
  5
2E3
330
25
100
AcDbEntity
  8
1
  6
Continuous
 62
     0
100
AcDbLine
 10
11470.16696399874
 20
-3623.01145157538
 30
0.0
 11
11448.33214202524
 21
-3623.01145157538
 31
0.0
  0
LINE
  5
2E2
330
25
100
AcDbEntity
  8
1
  6
Continuous
 62
     0
100
AcDbLine
 10
11470.16696399874
 20
-3541.01145157538
 30
0.0
 11
11448.33214202524
 21
-3541.01145157538
 31
0.0
  0
LINE
  5
2E1
330
25
100
AcDbEntity
  8
1
  6
Continuous
 62
     0
100
AcDbLine
 10
11470.16696399874
 20
-3623.01145157538
 30
0.0
 11
11470.16696399874
 21
-3541.01145157538
 31
0.0
  0
LINE
  5
2E0
330
25
100
AcDbEntity
  8
1
  6
Continuous
 62
     0
100
AcDbLine
 10
11035.9094347807
 20
-4098.01145157538
 30
0.0
 11
11037.76584124125
 21
-4096.939654805654
 31
0.0
  0
LINE
  5
2DF
330
25
100
AcDbEntity
  8
1
  6
Continuous
 62
     0
100
AcDbLine
 10
11010.05302832015
 20
-4096.939654805654
 30
0.0
 11
11011.9094347807
 21
-4098.01145157538
 31
0.0
  0
LINE
  5
2DE
330
25
100
AcDbEntity
  8
1
  6
Continuous
 62
     0
100
AcDbLine
 10
11010.05302832015
 20
-4088.01145157538
 30
0.0
 11
11010.05302832015
 21
-4096.939654805654
 31
0.0
  0
LINE
  5
2DD
330
25
100
AcDbEntity
  8
1
  6
Continuous
 62
     0
100
AcDbLine
 10
11011.9094347807
 20
-4098.01145157538
 30
0.0
 11
11035.9094347807
 21
-4098.01145157538
 31
0.0
  0
LINE
  5
2DC
330
25
100
AcDbEntity
  8
1
  6
Continuous
 62
     0
100
AcDbLine
 10
11037.76584124125
 20
-4096.939654805654
 30
0.0
 11
11037.76584124125
 21
-4088.01145157538
 31
0.0
  0
LINE
  5
2DB
330
25
100
AcDbEntity
  8
1
  6
Continuous
 62
     0
100
AcDbLine
 10
11016.98123155042
 20
-4088.01145157538
 30
0.0
 11
11016.98123155042
 21
-4096.939654805654
 31
0.0
  0
LINE
  5
2DA
330
25
100
AcDbEntity
  8
1
  6
Continuous
 62
     0
100
AcDbLine
 10
11030.83763801097
 20
-4088.01145157538
 30
0.0
 11
11030.83763801097
 21
-4096.939654805654
 31
0.0
  0
LINE
  5
2D9
330
25
100
AcDbEntity
  8
1
  6
Continuous
 62
     0
100
AcDbLine
 10
11009.9094347807
 20
-4084.01145157538
 30
0.0
 11
11009.9094347807
 21
-4088.01145157538
 31
0.0
  0
LINE
  5
2D8
330
25
100
AcDbEntity
  8
1
  6
Continuous
 62
     0
100
AcDbLine
 10
11009.9094347807
 20
-4088.01145157538
 30
0.0
 11
11037.9094347807
 21
-4088.01145157538
 31
0.0
  0
LINE
  5
2D7
330
25
100
AcDbEntity
  8
1
  6
Continuous
 62
     0
100
AcDbLine
 10
11037.9094347807
 20
-4088.01145157538
 30
0.0
 11
11037.9094347807
 21
-4084.01145157538
 31
0.0
  0
LINE
  5
2D6
330
25
100
AcDbEntity
  8
1
  6
Continuous
 62
     0
100
AcDbLine
 10
11022.97610144736
 20
-4088.01145157538
 30
0.0
 11
11021.83324430451
 21
-4084.01145157538
 31
0.0
  0
LINE
  5
2D5
330
25
100
AcDbEntity
  8
1
  6
Continuous
 62
     0
100
AcDbLine
 10
11025.98562525689
 20
-4088.01145157538
 30
0.0
 11
11024.84276811403
 21
-4084.01145157538
 31
0.0
  0
LINE
  5
2D4
330
25
100
AcDbEntity
  8
1
  6
Continuous
 62
     0
100
AcDbLine
 10
11008.9094347807
 20
-4081.01145157538
 30
0.0
 11
11008.9094347807
 21
-4084.01145157538
 31
0.0
  0
LINE
  5
2D3
330
25
100
AcDbEntity
  8
1
  6
Continuous
 62
     0
100
AcDbLine
 10
11008.9094347807
 20
-4084.01145157538
 30
0.0
 11
11038.9094347807
 21
-4084.01145157538
 31
0.0
  0
LINE
  5
2D2
330
25
100
AcDbEntity
  8
1
  6
Continuous
 62
     0
100
AcDbLine
 10
11038.9094347807
 20
-4084.01145157538
 30
0.0
 11
11038.9094347807
 21
-4081.01145157538
 31
0.0
  0
LINE
  5
2D1
330
25
100
AcDbEntity
  8
1
  6
Continuous
 62
     0
100
AcDbLine
 10
11038.9094347807
 20
-4081.01145157538
 30
0.0
 11
11008.9094347807
 21
-4081.01145157538
 31
0.0
  0
LINE
  5
2CE
330
25
100
AcDbEntity
  8
1
  6
Continuous
 62
     0
100
AcDbLine
 10
11005.08467852156
 20
-4081.01145157538
 30
0.0
 11
10975.08467852156
 21
-4081.01145157538
 31
0.0
  0
LINE
  5
2CD
330
25
100
AcDbEntity
  8
1
  6
Continuous
 62
     0
100
AcDbLine
 10
11005.08467852156
 20
-4084.01145157538
 30
0.0
 11
11005.08467852156
 21
-4081.01145157538
 31
0.0
  0
LINE
  5
2CC
330
25
100
AcDbEntity
  8
1
  6
Continuous
 62
     0
100
AcDbLine
 10
10975.08467852156
 20
-4084.01145157538
 30
0.0
 11
11005.08467852156
 21
-4084.01145157538
 31
0.0
  0
LINE
  5
2CB
330
25
100
AcDbEntity
  8
1
  6
Continuous
 62
     0
100
AcDbLine
 10
10975.08467852156
 20
-4081.01145157538
 30
0.0
 11
10975.08467852156
 21
-4084.01145157538
 31
0.0
  0
LINE
  5
2CA
330
25
100
AcDbEntity
  8
1
  6
Continuous
 62
     0
100
AcDbLine
 10
10992.16086899775
 20
-4088.01145157538
 30
0.0
 11
10991.01801185489
 21
-4084.01145157538
 31
0.0
  0
LINE
  5
2C9
330
25
100
AcDbEntity
  8
1
  6
Continuous
 62
     0
100
AcDbLine
 10
10989.15134518823
 20
-4088.01145157538
 30
0.0
 11
10988.00848804537
 21
-4084.01145157538
 31
0.0
  0
LINE
  5
2C8
330
25
100
AcDbEntity
  8
1
  6
Continuous
 62
     0
100
AcDbLine
 10
11004.08467852156
 20
-4088.01145157538
 30
0.0
 11
11004.08467852156
 21
-4084.01145157538
 31
0.0
  0
LINE
  5
2C7
330
25
100
AcDbEntity
  8
1
  6
Continuous
 62
     0
100
AcDbLine
 10
10976.08467852156
 20
-4088.01145157538
 30
0.0
 11
11004.08467852156
 21
-4088.01145157538
 31
0.0
  0
LINE
  5
2C6
330
25
100
AcDbEntity
  8
1
  6
Continuous
 62
     0
100
AcDbLine
 10
10976.08467852156
 20
-4084.01145157538
 30
0.0
 11
10976.08467852156
 21
-4088.01145157538
 31
0.0
  0
LINE
  5
2C5
330
25
100
AcDbEntity
  8
1
  6
Continuous
 62
     0
100
AcDbLine
 10
10997.01288175184
 20
-4088.01145157538
 30
0.0
 11
10997.01288175184
 21
-4096.939654805654
 31
0.0
  0
LINE
  5
2C4
330
25
100
AcDbEntity
  8
1
  6
Continuous
 62
     0
100
AcDbLine
 10
10983.15647529128
 20
-4088.01145157538
 30
0.0
 11
10983.15647529128
 21
-4096.939654805654
 31
0.0
  0
LINE
  5
2C3
330
25
100
AcDbEntity
  8
1
  6
Continuous
 62
     0
100
AcDbLine
 10
11003.94108498211
 20
-4096.939654805654
 30
0.0
 11
11003.94108498211
 21
-4088.01145157538
 31
0.0
  0
LINE
  5
2C2
330
25
100
AcDbEntity
  8
1
  6
Continuous
 62
     0
100
AcDbLine
 10
10978.08467852156
 20
-4098.01145157538
 30
0.0
 11
11002.08467852156
 21
-4098.01145157538
 31
0.0
  0
LINE
  5
2C1
330
25
100
AcDbEntity
  8
1
  6
Continuous
 62
     0
100
AcDbLine
 10
10976.22827206101
 20
-4088.01145157538
 30
0.0
 11
10976.22827206101
 21
-4096.939654805654
 31
0.0
  0
LINE
  5
2C0
330
25
100
AcDbEntity
  8
1
  6
Continuous
 62
     0
100
AcDbLine
 10
10976.22827206101
 20
-4096.939654805654
 30
0.0
 11
10978.08467852156
 21
-4098.01145157538
 31
0.0
  0
LINE
  5
2BF
330
25
100
AcDbEntity
  8
1
  6
Continuous
 62
     0
100
AcDbLine
 10
11002.08467852156
 20
-4098.01145157538
 30
0.0
 11
11003.94108498211
 21
-4096.939654805654
 31
0.0
  0
LINE
  5
2BE
330
25
100
AcDbEntity
  8
1
  6
Continuous
 62
     0
100
AcDbLine
 10
10928.39284301537
 20
-4096.939654805654
 30
0.0
 11
10930.24924947592
 21
-4098.01145157538
 31
0.0
  0
LINE
  5
2BD
330
25
100
AcDbEntity
  8
1
  6
Continuous
 62
     0
100
AcDbLine
 10
10954.24924947592
 20
-4098.01145157538
 30
0.0
 11
10956.10565593648
 21
-4096.939654805654
 31
0.0
  0
LINE
  5
2BC
330
25
100
AcDbEntity
  8
1
  6
Continuous
 62
     0
100
AcDbLine
 10
10956.10565593648
 20
-4096.939654805654
 30
0.0
 11
10956.10565593648
 21
-4088.01145157538
 31
0.0
  0
LINE
  5
2BB
330
25
100
AcDbEntity
  8
1
  6
Continuous
 62
     0
100
AcDbLine
 10
10930.24924947592
 20
-4098.01145157538
 30
0.0
 11
10954.24924947592
 21
-4098.01145157538
 31
0.0
  0
LINE
  5
2BA
330
25
100
AcDbEntity
  8
1
  6
Continuous
 62
     0
100
AcDbLine
 10
10928.39284301537
 20
-4088.01145157538
 30
0.0
 11
10928.39284301537
 21
-4096.939654805654
 31
0.0
  0
LINE
  5
2B9
330
25
100
AcDbEntity
  8
1
  6
Continuous
 62
     0
100
AcDbLine
 10
10949.1774527062
 20
-4096.939654805654
 30
0.0
 11
10949.1774527062
 21
-4088.01145157538
 31
0.0
  0
LINE
  5
2B8
330
25
100
AcDbEntity
  8
1
  6
Continuous
 62
     0
100
AcDbLine
 10
10935.32104624565
 20
-4096.939654805654
 30
0.0
 11
10935.32104624565
 21
-4088.01145157538
 31
0.0
  0
LINE
  5
2B7
330
25
100
AcDbEntity
  8
1
  6
Continuous
 62
     0
100
AcDbLine
 10
10956.24924947592
 20
-4088.01145157538
 30
0.0
 11
10956.24924947592
 21
-4084.01145157538
 31
0.0
  0
LINE
  5
2B6
330
25
100
AcDbEntity
  8
1
  6
Continuous
 62
     0
100
AcDbLine
 10
10928.24924947592
 20
-4088.01145157538
 30
0.0
 11
10956.24924947592
 21
-4088.01145157538
 31
0.0
  0
LINE
  5
2B5
330
25
100
AcDbEntity
  8
1
  6
Continuous
 62
     0
100
AcDbLine
 10
10928.24924947592
 20
-4084.01145157538
 30
0.0
 11
10928.24924947592
 21
-4088.01145157538
 31
0.0
  0
LINE
  5
2B4
330
25
100
AcDbEntity
  8
1
  6
Continuous
 62
     0
100
AcDbLine
 10
10944.32543995211
 20
-4084.01145157538
 30
0.0
 11
10943.18258280926
 21
-4088.01145157538
 31
0.0
  0
LINE
  5
2B3
330
25
100
AcDbEntity
  8
1
  6
Continuous
 62
     0
100
AcDbLine
 10
10941.31591614259
 20
-4084.01145157538
 30
0.0
 11
10940.17305899973
 21
-4088.01145157538
 31
0.0
  0
LINE
  5
2B2
330
25
100
AcDbEntity
  8
1
  6
Continuous
 62
     0
100
AcDbLine
 10
10957.24924947592
 20
-4084.01145157538
 30
0.0
 11
10957.24924947592
 21
-4081.01145157538
 31
0.0
  0
LINE
  5
2B1
330
25
100
AcDbEntity
  8
1
  6
Continuous
 62
     0
100
AcDbLine
 10
10927.24924947592
 20
-4084.01145157538
 30
0.0
 11
10957.24924947592
 21
-4084.01145157538
 31
0.0
  0
LINE
  5
2B0
330
25
100
AcDbEntity
  8
1
  6
Continuous
 62
     0
100
AcDbLine
 10
10927.24924947592
 20
-4081.01145157538
 30
0.0
 11
10927.24924947592
 21
-4084.01145157538
 31
0.0
  0
LINE
  5
2AF
330
25
100
AcDbEntity
  8
1
  6
Continuous
 62
     0
100
AcDbLine
 10
10957.24924947592
 20
-4081.01145157538
 30
0.0
 11
10927.24924947592
 21
-4081.01145157538
 31
0.0
  0
LINE
  5
2AC
330
25
100
AcDbEntity
  8
1
  6
Continuous
 62
     0
100
AcDbLine
 10
10923.42449321679
 20
-4081.01145157538
 30
0.0
 11
10893.42449321679
 21
-4081.01145157538
 31
0.0
  0
LINE
  5
2AB
330
25
100
AcDbEntity
  8
1
  6
Continuous
 62
     0
100
AcDbLine
 10
10893.42449321679
 20
-4081.01145157538
 30
0.0
 11
10893.42449321679
 21
-4084.01145157538
 31
0.0
  0
LINE
  5
2AA
330
25
100
AcDbEntity
  8
1
  6
Continuous
 62
     0
100
AcDbLine
 10
10893.42449321679
 20
-4084.01145157538
 30
0.0
 11
10923.42449321679
 21
-4084.01145157538
 31
0.0
  0
LINE
  5
2A9
330
25
100
AcDbEntity
  8
1
  6
Continuous
 62
     0
100
AcDbLine
 10
10923.42449321679
 20
-4084.01145157538
 30
0.0
 11
10923.42449321679
 21
-4081.01145157538
 31
0.0
  0
LINE
  5
2A8
330
25
100
AcDbEntity
  8
1
  6
Continuous
 62
     0
100
AcDbLine
 10
10907.49115988345
 20
-4084.01145157538
 30
0.0
 11
10906.3483027406
 21
-4088.01145157538
 31
0.0
  0
LINE
  5
2A7
330
25
100
AcDbEntity
  8
1
  6
Continuous
 62
     0
100
AcDbLine
 10
10910.50068369298
 20
-4084.01145157538
 30
0.0
 11
10909.35782655012
 21
-4088.01145157538
 31
0.0
  0
LINE
  5
2A6
330
25
100
AcDbEntity
  8
1
  6
Continuous
 62
     0
100
AcDbLine
 10
10894.42449321679
 20
-4084.01145157538
 30
0.0
 11
10894.42449321679
 21
-4088.01145157538
 31
0.0
  0
LINE
  5
2A5
330
25
100
AcDbEntity
  8
1
  6
Continuous
 62
     0
100
AcDbLine
 10
10894.42449321679
 20
-4088.01145157538
 30
0.0
 11
10922.42449321679
 21
-4088.01145157538
 31
0.0
  0
LINE
  5
2A4
330
25
100
AcDbEntity
  8
1
  6
Continuous
 62
     0
100
AcDbLine
 10
10922.42449321679
 20
-4088.01145157538
 30
0.0
 11
10922.42449321679
 21
-4084.01145157538
 31
0.0
  0
LINE
  5
2A3
330
25
100
AcDbEntity
  8
1
  6
Continuous
 62
     0
100
AcDbLine
 10
10901.49628998651
 20
-4096.939654805654
 30
0.0
 11
10901.49628998651
 21
-4088.01145157538
 31
0.0
  0
LINE
  5
2A2
330
25
100
AcDbEntity
  8
1
  6
Continuous
 62
     0
100
AcDbLine
 10
10915.35269644706
 20
-4096.939654805654
 30
0.0
 11
10915.35269644706
 21
-4088.01145157538
 31
0.0
  0
LINE
  5
2A1
330
25
100
AcDbEntity
  8
1
  6
Continuous
 62
     0
100
AcDbLine
 10
10894.56808675624
 20
-4088.01145157538
 30
0.0
 11
10894.56808675624
 21
-4096.939654805654
 31
0.0
  0
LINE
  5
2A0
330
25
100
AcDbEntity
  8
1
  6
Continuous
 62
     0
100
AcDbLine
 10
10896.42449321679
 20
-4098.01145157538
 30
0.0
 11
10920.42449321679
 21
-4098.01145157538
 31
0.0
  0
LINE
  5
29F
330
25
100
AcDbEntity
  8
1
  6
Continuous
 62
     0
100
AcDbLine
 10
10922.28089967734
 20
-4096.939654805654
 30
0.0
 11
10922.28089967734
 21
-4088.01145157538
 31
0.0
  0
LINE
  5
29E
330
25
100
AcDbEntity
  8
1
  6
Continuous
 62
     0
100
AcDbLine
 10
10920.42449321679
 20
-4098.01145157538
 30
0.0
 11
10922.28089967734
 21
-4096.939654805654
 31
0.0
  0
LINE
  5
29D
330
25
100
AcDbEntity
  8
1
  6
Continuous
 62
     0
100
AcDbLine
 10
10894.56808675624
 20
-4096.939654805654
 30
0.0
 11
10896.42449321679
 21
-4098.01145157538
 31
0.0
  0
LINE
  5
29C
330
25
100
AcDbEntity
  8
1
  6
Continuous
 62
     0
100
AcDbLine
 10
10887.16696399874
 20
-4059.147888477905
 30
0.0
 11
10887.16696399874
 21
-4081.01145157538
 31
0.0
  0
LINE
  5
29B
330
25
100
AcDbEntity
  8
1
  6
Continuous
 62
     0
100
AcDbLine
 10
11045.16696399874
 20
-4059.141071933291
 30
0.0
 11
11045.16696399874
 21
-4081.01145157538
 31
0.0
  0
LINE
  5
299
330
25
100
AcDbEntity
  8
1
  6
Continuous
 62
     0
100
AcDbLine
 10
11045.16696399874
 20
-4081.01145157538
 30
0.0
 11
10887.16696399874
 21
-4081.01145157538
 31
0.0
  0
LINE
  5
298
330
25
100
AcDbEntity
  8
1
  6
Continuous
 62
     0
100
AcDbLine
 10
11045.16696399874
 20
-4071.01145157538
 30
0.0
 11
10887.16696399874
 21
-4071.01145157538
 31
0.0
  0
LINE
  5
293
330
25
100
AcDbEntity
  8
1
  6
Continuous
 62
     0
100
AcDbLine
 10
10369.62870787668
 20
-1239.817879344058
 30
0.0
 11
10381.12870787668
 21
-1239.817879344058
 31
0.0
  0
LINE
  5
292
330
25
100
AcDbEntity
  8
1
  6
Continuous
 62
     0
100
AcDbLine
 10
10381.12870787668
 20
-1239.817879344058
 30
0.0
 11
10381.12870787668
 21
-1248.316606202475
 31
0.0
  0
LINE
  5
291
330
25
100
AcDbEntity
  8
1
  6
Continuous
 62
     0
100
AcDbLine
 10
10392.62743473509
 20
-1251.316606202475
 30
0.0
 11
10384.12870787668
 21
-1251.316606202475
 31
0.0
  0
LINE
  5
290
330
25
100
AcDbEntity
  8
1
  6
Continuous
 62
     0
100
AcDbLine
 10
10358.12870787668
 20
-1239.817879344058
 30
0.0
 11
10369.62870787668
 21
-1239.817879344058
 31
0.0
  0
LINE
  5
28F
330
25
100
AcDbEntity
  8
1
  6
Continuous
 62
     0
100
AcDbLine
 10
10392.62743473509
 20
-1251.316606202475
 30
0.0
 11
10392.62743473509
 21
-1262.816606202475
 31
0.0
  0
LINE
  5
28E
330
25
100
AcDbEntity
  8
1
  6
Continuous
 62
     0
100
AcDbLine
 10
10358.12870787668
 20
-1239.817879344058
 30
0.0
 11
10358.12870787668
 21
-1262.816606202475
 31
0.0
  0
LINE
  5
28D
330
25
100
AcDbEntity
  8
1
  6
Continuous
 62
     0
100
AcDbLine
 10
10358.12870787668
 20
-1262.816606202475
 30
0.0
 11
10358.12870787668
 21
-1285.815333060892
 31
0.0
  0
LINE
  5
28C
330
25
100
AcDbEntity
  8
1
  6
Continuous
 62
     0
100
AcDbLine
 10
10392.62743473509
 20
-1262.816606202475
 30
0.0
 11
10392.62743473509
 21
-1274.316606202475
 31
0.0
  0
LINE
  5
28B
330
25
100
AcDbEntity
  8
1
  6
Continuous
 62
     0
100
AcDbLine
 10
10369.62870787668
 20
-1285.815333060892
 30
0.0
 11
10358.12870787668
 21
-1285.815333060892
 31
0.0
  0
LINE
  5
28A
330
25
100
AcDbEntity
  8
1
  6
Continuous
 62
     0
100
AcDbLine
 10
10384.12870787668
 20
-1274.316606202475
 30
0.0
 11
10392.62743473509
 21
-1274.316606202475
 31
0.0
  0
LINE
  5
289
330
25
100
AcDbEntity
  8
1
  6
Continuous
 62
     0
100
AcDbLine
 10
10381.12870787668
 20
-1277.316606202475
 30
0.0
 11
10381.12870787668
 21
-1285.815333060893
 31
0.0
  0
LINE
  5
288
330
25
100
AcDbEntity
  8
1
  6
Continuous
 62
     0
100
AcDbLine
 10
10381.12870787668
 20
-1285.815333060893
 30
0.0
 11
10369.62870787668
 21
-1285.815333060892
 31
0.0
  0
LINE
  5
287
330
25
100
AcDbEntity
  8
1
  6
Continuous
 62
     0
100
AcDbLine
 10
10408.8652569086
 20
-1274.940961855456
 30
0.0
 11
10407.92743473509
 21
-1273.316606202475
 31
0.0
  0
LINE
  5
286
330
25
100
AcDbEntity
  8
1
  6
Continuous
 62
     0
100
AcDbLine
 10
10407.92743473509
 20
-1252.316606202475
 30
0.0
 11
10408.8652569086
 21
-1250.692250549495
 31
0.0
  0
LINE
  5
285
330
25
100
AcDbEntity
  8
1
  6
Continuous
 62
     0
100
AcDbLine
 10
10407.92743473509
 20
-1273.316606202475
 30
0.0
 11
10407.92743473509
 21
-1252.316606202475
 31
0.0
  0
LINE
  5
284
330
25
100
AcDbEntity
  8
1
  6
Continuous
 62
     0
100
AcDbLine
 10
10408.8652569086
 20
-1268.878784028966
 30
0.0
 11
10415.02743473509
 21
-1268.878784028966
 31
0.0
  0
LINE
  5
283
330
25
100
AcDbEntity
  8
1
  6
Continuous
 62
     0
100
AcDbLine
 10
10408.8652569086
 20
-1256.754428375985
 30
0.0
 11
10415.02743473509
 21
-1256.754428375985
 31
0.0
  0
LINE
  5
282
330
25
100
AcDbEntity
  8
1
  6
Continuous
 62
     0
100
AcDbLine
 10
10451.92743473509
 20
-1273.316606202475
 30
0.0
 11
10450.98961256158
 21
-1274.940961855456
 31
0.0
  0
LINE
  5
281
330
25
100
AcDbEntity
  8
1
  6
Continuous
 62
     0
100
AcDbLine
 10
10450.98961256158
 20
-1250.692250549495
 30
0.0
 11
10451.92743473509
 21
-1252.316606202475
 31
0.0
  0
LINE
  5
280
330
25
100
AcDbEntity
  8
1
  6
Continuous
 62
     0
100
AcDbLine
 10
10450.98961256158
 20
-1274.940961855456
 30
0.0
 11
10444.5652569086
 21
-1274.940961855456
 31
0.0
  0
LINE
  5
27F
330
25
100
AcDbEntity
  8
1
  6
Continuous
 62
     0
100
AcDbLine
 10
10451.92743473509
 20
-1252.316606202475
 30
0.0
 11
10451.92743473509
 21
-1273.316606202475
 31
0.0
  0
LINE
  5
27E
330
25
100
AcDbEntity
  8
1
  6
Continuous
 62
     0
100
AcDbLine
 10
10450.98961256158
 20
-1250.692250549495
 30
0.0
 11
10444.5652569086
 21
-1250.692250549495
 31
0.0
  0
LINE
  5
27D
330
25
100
AcDbEntity
  8
1
  6
Continuous
 62
     0
100
AcDbLine
 10
10449.92743473509
 20
-1258.466606202473
 30
0.0
 11
10440.65019091063
 21
-1258.466606202473
 31
0.0
  0
LINE
  5
27C
330
25
100
AcDbEntity
  8
1
  6
Continuous
 62
     0
100
AcDbLine
 10
10449.92743473509
 20
-1258.466606202473
 30
0.0
 11
10449.92743473509
 21
-1267.166606202474
 31
0.0
  0
LINE
  5
27B
330
25
100
AcDbEntity
  8
1
  6
Continuous
 62
     0
100
AcDbLine
 10
10449.92743473509
 20
-1267.166606202474
 30
0.0
 11
10440.65019091063
 21
-1267.166606202474
 31
0.0
  0
LINE
  5
27A
330
25
100
AcDbEntity
  8
1
  6
Continuous
 62
     0
100
AcDbLine
 10
10409.92743473509
 20
-1258.466606202473
 30
0.0
 11
10419.20467855955
 21
-1258.466606202473
 31
0.0
  0
LINE
  5
279
330
25
100
AcDbEntity
  8
1
  6
Continuous
 62
     0
100
AcDbLine
 10
10409.92743473509
 20
-1258.466606202473
 30
0.0
 11
10409.92743473509
 21
-1267.166606202474
 31
0.0
  0
LINE
  5
278
330
25
100
AcDbEntity
  8
1
  6
Continuous
 62
     0
100
AcDbLine
 10
10409.92743473509
 20
-1267.166606202474
 30
0.0
 11
10419.20467855955
 21
-1267.166606202474
 31
0.0
  0
LINE
  5
275
330
25
100
AcDbEntity
  8
1
  6
Continuous
 62
     0
100
AcDbLine
 10
10424.92743473509
 20
-1259.929854856523
 30
0.0
 11
10424.92743473509
 21
-1265.703357548424
 31
0.0
  0
LINE
  5
274
330
25
100
AcDbEntity
  8
1
  6
Continuous
 62
     0
100
AcDbLine
 10
10424.92743473509
 20
-1265.703357548424
 30
0.0
 11
10429.92743473509
 21
-1268.590108894375
 31
0.0
  0
LINE
  5
273
330
25
100
AcDbEntity
  8
1
  6
Continuous
 62
     0
100
AcDbLine
 10
10429.92743473509
 20
-1268.590108894375
 30
0.0
 11
10434.92743473509
 21
-1265.703357548424
 31
0.0
  0
LINE
  5
272
330
25
100
AcDbEntity
  8
1
  6
Continuous
 62
     0
100
AcDbLine
 10
10434.92743473509
 20
-1265.703357548424
 30
0.0
 11
10434.92743473509
 21
-1259.929854856523
 31
0.0
  0
LINE
  5
271
330
25
100
AcDbEntity
  8
1
  6
Continuous
 62
     0
100
AcDbLine
 10
10434.92743473509
 20
-1259.929854856523
 30
0.0
 11
10429.92743473509
 21
-1257.043103510575
 31
0.0
  0
LINE
  5
270
330
25
100
AcDbEntity
  8
1
  6
Continuous
 62
     0
100
AcDbLine
 10
10429.92743473509
 20
-1257.043103510575
 30
0.0
 11
10424.92743473509
 21
-1259.929854856523
 31
0.0
  0
LINE
  5
26F
330
25
100
AcDbEntity
  8
1
  6
Continuous
 62
     0
100
AcDbLine
 10
10429.92743473509
 20
-1256.566606202475
 30
0.0
 11
10424.21129125826
 21
-1256.566606202475
 31
0.0
  0
LINE
  5
26E
330
25
100
AcDbEntity
  8
1
  6
Continuous
 62
     0
100
AcDbLine
 10
10436.17743473509
 20
-1262.816606202475
 30
0.0
 11
10438.42743473509
 21
-1262.816606202475
 31
0.0
  0
LINE
  5
26D
330
25
100
AcDbEntity
  8
1
  6
Continuous
 62
     0
100
AcDbLine
 10
10427.69136675759
 20
-1260.816606202475
 30
0.0
 11
10432.16350271259
 21
-1260.816606202475
 31
0.0
  0
LINE
  5
26C
330
25
100
AcDbEntity
  8
1
  6
Continuous
 62
     0
100
AcDbLine
 10
10427.69136675759
 20
-1264.816606202475
 30
0.0
 11
10432.16350271259
 21
-1264.816606202475
 31
0.0
  0
LINE
  5
26B
330
25
100
AcDbEntity
  8
1
  6
Continuous
 62
     0
100
AcDbLine
 10
10443.62743473509
 20
-1252.316606202475
 30
0.0
 11
10444.5652569086
 21
-1250.692250549495
 31
0.0
  0
LINE
  5
26A
330
25
100
AcDbEntity
  8
1
  6
Continuous
 62
     0
100
AcDbLine
 10
10444.5652569086
 20
-1274.940961855456
 30
0.0
 11
10443.62743473509
 21
-1273.316606202475
 31
0.0
  0
LINE
  5
269
330
25
100
AcDbEntity
  8
1
  6
Continuous
 62
     0
100
AcDbLine
 10
10415.9652569086
 20
-1273.316606202475
 30
0.0
 11
10415.02743473509
 21
-1274.940961855456
 31
0.0
  0
LINE
  5
268
330
25
100
AcDbEntity
  8
1
  6
Continuous
 62
     0
100
AcDbLine
 10
10415.02743473509
 20
-1250.692250549495
 30
0.0
 11
10415.9652569086
 21
-1252.316606202475
 31
0.0
  0
LINE
  5
267
330
25
100
AcDbEntity
  8
1
  6
Continuous
 62
     0
100
AcDbLine
 10
10443.62743473509
 20
-1252.316606202475
 30
0.0
 11
10415.9652569086
 21
-1252.316606202475
 31
0.0
  0
LINE
  5
266
330
25
100
AcDbEntity
  8
1
  6
Continuous
 62
     0
100
AcDbLine
 10
10415.02743473509
 20
-1250.692250549495
 30
0.0
 11
10408.8652569086
 21
-1250.692250549495
 31
0.0
  0
LINE
  5
265
330
25
100
AcDbEntity
  8
1
  6
Continuous
 62
     0
100
AcDbLine
 10
10443.62743473509
 20
-1273.316606202475
 30
0.0
 11
10415.9652569086
 21
-1273.316606202475
 31
0.0
  0
LINE
  5
264
330
25
100
AcDbEntity
  8
1
  6
Continuous
 62
     0
100
AcDbLine
 10
10415.02743473509
 20
-1274.940961855456
 30
0.0
 11
10408.8652569086
 21
-1274.940961855456
 31
0.0
  0
LINE
  5
263
330
25
100
AcDbEntity
  8
1
  6
Continuous
 62
     0
100
AcDbLine
 10
10444.5652569086
 20
-1268.878784028966
 30
0.0
 11
10450.98961256158
 21
-1268.878784028966
 31
0.0
  0
LINE
  5
262
330
25
100
AcDbEntity
  8
1
  6
Continuous
 62
     0
100
AcDbLine
 10
10444.5652569086
 20
-1256.754428375985
 30
0.0
 11
10450.98961256158
 21
-1256.754428375985
 31
0.0
  0
LINE
  5
261
330
25
100
AcDbEntity
  8
1
  6
Continuous
 62
     0
100
AcDbLine
 10
10438.42743473509
 20
-1257.481390306075
 30
0.0
 11
10438.42743473509
 21
-1254.316606202475
 31
0.0
  0
LINE
  5
260
330
25
100
AcDbEntity
  8
1
  6
Continuous
 62
     0
100
AcDbLine
 10
10438.42743473509
 20
-1254.316606202475
 30
0.0
 11
10440.92743473509
 21
-1254.316606202475
 31
0.0
  0
LINE
  5
25F
330
25
100
AcDbEntity
  8
1
  6
Continuous
 62
     0
100
AcDbLine
 10
10415.17879325742
 20
-1268.378784028966
 30
0.0
 11
10421.6137638374
 21
-1268.378784028966
 31
0.0
  0
LINE
  5
25E
330
25
100
AcDbEntity
  8
1
  6
Continuous
 62
     0
100
AcDbLine
 10
10415.17879325742
 20
-1257.254428375985
 30
0.0
 11
10421.6137638374
 21
-1257.254428375985
 31
0.0
  0
LINE
  5
25D
330
25
100
AcDbEntity
  8
1
  6
Continuous
 62
     0
100
AcDbLine
 10
10444.41389838627
 20
-1268.378784028966
 30
0.0
 11
10438.17570871627
 21
-1268.378784028966
 31
0.0
  0
LINE
  5
25C
330
25
100
AcDbEntity
  8
1
  6
Continuous
 62
     0
100
AcDbLine
 10
10444.41389838627
 20
-1257.254428375985
 30
0.0
 11
10442.47292733076
 21
-1257.254428375985
 31
0.0
  0
LINE
  5
25B
330
25
100
AcDbEntity
  8
1
  6
Continuous
 62
     0
100
AcDbLine
 10
10467.16696399874
 20
-1271.147606202475
 30
0.0
 11
10460.76696399874
 21
-1271.466606202476
 31
0.0
  0
LINE
  5
25A
330
25
100
AcDbEntity
  8
1
  6
Continuous
 62
     0
100
AcDbLine
 10
10451.86696399874
 20
-1254.485606202475
 30
0.0
 11
10458.26696399874
 21
-1254.166606202475
 31
0.0
  0
LINE
  5
259
330
25
100
AcDbEntity
  8
1
  6
Continuous
 62
     0
100
AcDbLine
 10
10458.26696399874
 20
-1271.466606202476
 30
0.0
 11
10451.86696399874
 21
-1271.147606202475
 31
0.0
  0
LINE
  5
258
330
25
100
AcDbEntity
  8
1
  6
Continuous
 62
     0
100
AcDbLine
 10
10460.76696399874
 20
-1254.166606202475
 30
0.0
 11
10467.16696399874
 21
-1254.485606202475
 31
0.0
  0
LINE
  5
257
330
25
100
AcDbEntity
  8
1
  6
Continuous
 62
     0
100
AcDbLine
 10
10460.76696399874
 20
-1254.166606202475
 30
0.0
 11
10458.26696399874
 21
-1254.166606202475
 31
0.0
  0
LINE
  5
256
330
25
100
AcDbEntity
  8
1
  6
Continuous
 62
     0
100
AcDbLine
 10
10458.26696399874
 20
-1271.466606202476
 30
0.0
 11
10460.76696399874
 21
-1271.466606202476
 31
0.0
  0
LINE
  5
255
330
25
100
AcDbEntity
  8
1
  6
Continuous
 62
     0
100
AcDbLine
 10
10460.76696399874
 20
-1271.466606202476
 30
0.0
 11
10460.76696399874
 21
-1254.166606202475
 31
0.0
  0
LINE
  5
254
330
25
100
AcDbEntity
  8
1
  6
Continuous
 62
     0
100
AcDbLine
 10
10458.26696399874
 20
-1254.166606202475
 30
0.0
 11
10458.26696399874
 21
-1271.466606202476
 31
0.0
  0
LINE
  5
253
330
25
100
AcDbEntity
  8
1
  6
Continuous
 62
     0
100
AcDbLine
 10
10399.02743473509
 20
-1254.166606202475
 30
0.0
 11
10399.02743473509
 21
-1271.466606202476
 31
0.0
  0
LINE
  5
252
330
25
100
AcDbEntity
  8
1
  6
Continuous
 62
     0
100
AcDbLine
 10
10401.52743473509
 20
-1271.466606202476
 30
0.0
 11
10401.52743473509
 21
-1254.166606202475
 31
0.0
  0
LINE
  5
251
330
25
100
AcDbEntity
  8
1
  6
Continuous
 62
     0
100
AcDbLine
 10
10399.02743473509
 20
-1271.466606202476
 30
0.0
 11
10401.52743473509
 21
-1271.466606202476
 31
0.0
  0
LINE
  5
250
330
25
100
AcDbEntity
  8
1
  6
Continuous
 62
     0
100
AcDbLine
 10
10401.52743473509
 20
-1254.166606202475
 30
0.0
 11
10399.02743473509
 21
-1254.166606202475
 31
0.0
  0
LINE
  5
24F
330
25
100
AcDbEntity
  8
1
  6
Continuous
 62
     0
100
AcDbLine
 10
10401.52743473509
 20
-1254.166606202475
 30
0.0
 11
10407.92743473509
 21
-1254.485606202475
 31
0.0
  0
LINE
  5
24E
330
25
100
AcDbEntity
  8
1
  6
Continuous
 62
     0
100
AcDbLine
 10
10399.02743473509
 20
-1271.466606202476
 30
0.0
 11
10392.62743473509
 21
-1271.147606202475
 31
0.0
  0
LINE
  5
24D
330
25
100
AcDbEntity
  8
1
  6
Continuous
 62
     0
100
AcDbLine
 10
10392.62743473509
 20
-1254.485606202475
 30
0.0
 11
10399.02743473509
 21
-1254.166606202475
 31
0.0
  0
LINE
  5
24C
330
25
100
AcDbEntity
  8
1
  6
Continuous
 62
     0
100
AcDbLine
 10
10407.92743473509
 20
-1271.147606202475
 30
0.0
 11
10401.52743473509
 21
-1271.466606202476
 31
0.0
  0
LINE
  5
24B
330
25
100
AcDbEntity
  8
1
  6
Continuous
 62
     0
100
AcDbLine
 10
10467.16696399874
 20
-1252.166606202475
 30
0.0
 11
10467.16696399874
 21
-1273.466606202476
 31
0.0
  0
LINE
  5
24A
330
25
100
AcDbEntity
  8
1
  6
Continuous
 62
     0
100
AcDbLine
 10
10482.16696399874
 20
-1273.466606202476
 30
0.0
 11
10467.16696399874
 21
-1273.466606202476
 31
0.0
  0
LINE
  5
249
330
25
100
AcDbEntity
  8
1
  6
Continuous
 62
     0
100
AcDbLine
 10
10482.16696399874
 20
-1252.166606202475
 30
0.0
 11
10467.16696399874
 21
-1252.166606202475
 31
0.0
  0
LINE
  5
248
330
25
100
AcDbEntity
  8
1
  6
Continuous
 62
     0
100
AcDbLine
 10
14239.31263036251
 20
-2178.816606202475
 30
0.0
 11
14239.3126303625
 21
-2299.816606202475
 31
0.0
  0
LINE
  5
247
330
25
100
AcDbEntity
  8
1
  6
Continuous
 62
     0
100
AcDbLine
 10
14244.31263036251
 20
-2020.816606202475
 30
0.0
 11
14244.31263036251
 21
-2178.816606202475
 31
0.0
  0
LINE
  5
246
330
25
100
AcDbEntity
  8
1
  6
Continuous
 62
     0
100
AcDbLine
 10
14254.31263036251
 20
-2020.816606202475
 30
0.0
 11
14254.31263036251
 21
-2178.816606202475
 31
0.0
  0
LINE
  5
244
330
25
100
AcDbEntity
  8
1
  6
Continuous
 62
     0
100
AcDbLine
 10
14254.31263036251
 20
-2178.816606202475
 30
0.0
 11
14239.31263036251
 21
-2178.816606202475
 31
0.0
  0
LINE
  5
243
330
25
100
AcDbEntity
  8
1
  6
Continuous
 62
     0
100
AcDbLine
 10
14254.31263036251
 20
-2020.816606202475
 30
0.0
 11
14239.31263036251
 21
-2020.816606202475
 31
0.0
  0
LINE
  5
242
330
25
100
AcDbEntity
  8
1
  6
Continuous
 62
     0
100
AcDbLine
 10
14239.31263036251
 20
-442.744937305316
 30
0.0
 11
14239.31263036251
 21
-463.816606202475
 31
0.0
  0
LINE
  5
240
330
25
100
AcDbEntity
  8
1
  6
Continuous
 62
     0
100
AcDbLine
 10
13271.31263036251
 20
-998.816606202475
 30
0.0
 11
13271.31263036251
 21
-2299.816606202475
 31
0.0
  0
LINE
  5
23F
330
25
100
AcDbEntity
  8
1
  6
Continuous
 62
     0
100
AcDbLine
 10
13742.1126303625
 20
-2522.816606202475
 30
0.0
 11
13768.5126303625
 21
-2522.816606202475
 31
0.0
  0
LINE
  5
23E
330
25
100
AcDbEntity
  8
1
  6
Continuous
 62
     0
100
AcDbLine
 10
13768.5126303625
 20
-2522.816606202475
 30
0.0
 11
13768.5126303625
 21
-2513.691634575745
 31
0.0
  0
LINE
  5
23D
330
25
100
AcDbEntity
  8
1
  6
Continuous
 62
     0
100
AcDbLine
 10
13742.1126303625
 20
-2522.816606202475
 30
0.0
 11
13742.1126303625
 21
-2513.691634575745
 31
0.0
  0
LINE
  5
23C
330
25
100
AcDbEntity
  8
1
  6
DOTTED
 62
     0
100
AcDbLine
 10
13768.5126303625
 20
-2513.691634575745
 30
0.0
 11
13768.5126303625
 21
-2512.720759565194
 31
0.0
  0
LINE
  5
23B
330
25
100
AcDbEntity
  8
1
  6
DOTTED
 62
     0
100
AcDbLine
 10
13742.1126303625
 20
-2513.691634575745
 30
0.0
 11
13742.1126303625
 21
-2512.720759565194
 31
0.0
  0
LINE
  5
23A
330
25
100
AcDbEntity
  8
1
  6
Continuous
 62
     0
100
AcDbLine
 10
14239.31263036251
 20
-1033.447041880334
 30
0.0
 11
14239.31263036251
 21
-2020.816606202475
 31
0.0
  0
LINE
  5
234
330
25
100
AcDbEntity
  8
1
  6
Continuous
 62
     0
100
AcDbLine
 10
10702.34455089608
 20
-283.173505905236
 30
0.0
 11
10731.32232568475
 21
-275.40893455216
 31
0.0
  0
LINE
  5
233
330
25
100
AcDbEntity
  8
1
  6
Continuous
 62
     0
100
AcDbLine
 10
10728.12973445208
 20
-267.338554642485
 30
0.0
 11
10730.63831508629
 21
-273.679860897092
 31
0.0
  0
LINE
  5
232
330
25
100
AcDbEntity
  8
1
  6
Continuous
 62
     0
100
AcDbLine
 10
10702.15453564212
 20
-281.88929391693
 30
0.0
 11
10701.07422605264
 21
-274.588056268928
 31
0.0
  0
LINE
  5
231
330
25
100
AcDbEntity
  8
1
  6
Continuous
 62
     0
100
AcDbLine
 10
10706.26678539943
 20
-270.734508353027
 30
0.0
 11
10719.03974068209
 21
-267.31200530008
 31
0.0
  0
LINE
  5
230
330
25
100
AcDbEntity
  8
1
  6
Continuous
 62
     0
100
AcDbLine
 10
10731.32232568475
 20
-275.40893455216
 30
0.0
 11
10732.61642091027
 21
-280.238563683605
 31
0.0
  0
LINE
  5
22F
330
25
100
AcDbEntity
  8
1
  6
Continuous
 62
     0
100
AcDbLine
 10
10702.34455089608
 20
-283.173505905236
 30
0.0
 11
10703.63864612159
 21
-288.00313503668
 31
0.0
  0
LINE
  5
22E
330
25
100
AcDbEntity
  8
1
  6
Continuous
 62
     0
100
AcDbLine
 10
10730.63831508629
 20
-273.679860897092
 30
0.0
 11
10731.32232568475
 21
-275.40893455216
 31
0.0
  0
LINE
  5
22D
330
25
100
AcDbEntity
  8
1
  6
Continuous
 62
     0
100
AcDbLine
 10
10724.88291934791
 20
-265.477160119851
 30
0.0
 11
10713.59820022663
 21
-267.217147400085
 31
0.0
  0
LINE
  5
22C
330
25
100
AcDbEntity
  8
1
  6
Continuous
 62
     0
100
AcDbLine
 10
10713.59820022663
 20
-267.217147400085
 30
0.0
 11
10702.95535315293
 21
-271.352633773776
 31
0.0
  0
LINE
  5
22B
330
25
100
AcDbEntity
  8
1
  6
Continuous
 62
     0
100
AcDbLine
 10
10702.34455089608
 20
-283.173505905236
 30
0.0
 11
10702.07238462327
 21
-281.334078895702
 31
0.0
  0
LINE
  5
22A
330
25
100
AcDbEntity
  8
1
  6
Continuous
 62
     0
100
AcDbLine
 10
11450.16696399874
 20
-1303.816606202475
 30
0.0
 11
11450.16696399874
 21
-2299.816606202475
 31
0.0
  0
LINE
  5
229
330
25
100
AcDbEntity
  8
1
  6
Continuous
 62
     0
100
AcDbLine
 10
11450.16696399874
 20
-1221.816606202475
 30
0.0
 11
11470.16696399874
 21
-1221.816606202475
 31
0.0
  0
LINE
  5
228
330
25
100
AcDbEntity
  8
1
  6
Continuous
 62
     0
100
AcDbLine
 10
11450.16696399874
 20
-1303.816606202475
 30
0.0
 11
11470.16696399874
 21
-1303.816606202475
 31
0.0
  0
LINE
  5
227
330
25
100
AcDbEntity
  8
1
  6
Continuous
 62
     0
100
AcDbLine
 10
11470.16696399874
 20
-1303.816606202475
 30
0.0
 11
11470.16696399874
 21
-1221.816606202475
 31
0.0
  0
LINE
  5
226
330
25
100
AcDbEntity
  8
1
  6
Continuous
 62
     0
100
AcDbLine
 10
11316.16696399874
 20
-2512.816606202476
 30
0.0
 11
11316.16696399874
 21
-2446.666537601924
 31
0.0
  0
LINE
  5
225
330
25
100
AcDbEntity
  8
1
  6
Continuous
 62
     0
100
AcDbLine
 10
10631.93404207742
 20
-2583.411680266121
 30
0.0
 11
10631.93404207742
 21
-2803.816606202476
 31
0.0
  0
LINE
  5
222
330
25
100
AcDbEntity
  8
1
  6
Continuous
 62
     0
100
AcDbLine
 10
10462.16696399874
 20
-2021.816606202475
 30
0.0
 11
10462.16696399874
 21
-2103.816606202475
 31
0.0
  0
LINE
  5
221
330
25
100
AcDbEntity
  8
1
  6
Continuous
 62
     0
100
AcDbLine
 10
10462.16696399874
 20
-2103.816606202475
 30
0.0
 11
10482.16696399874
 21
-2103.816606202475
 31
0.0
  0
LINE
  5
220
330
25
100
AcDbEntity
  8
1
  6
Continuous
 62
     0
100
AcDbLine
 10
10462.16696399874
 20
-2021.816606202475
 30
0.0
 11
10482.16696399874
 21
-2021.816606202475
 31
0.0
  0
LINE
  5
21E
330
25
100
AcDbEntity
  8
1
  6
DOTTED
 62
     0
100
AcDbLine
 10
10952.96696399874
 20
-2513.691634575745
 30
0.0
 11
10952.96696399874
 21
-2512.720759565194
 31
0.0
  0
LINE
  5
21D
330
25
100
AcDbEntity
  8
1
  6
DOTTED
 62
     0
100
AcDbLine
 10
10979.36696399874
 20
-2513.691634575745
 30
0.0
 11
10979.36696399874
 21
-2512.720759565194
 31
0.0
  0
LINE
  5
21C
330
25
100
AcDbEntity
  8
1
  6
Continuous
 62
     0
100
AcDbLine
 10
10952.96696399874
 20
-2522.816606202475
 30
0.0
 11
10952.96696399874
 21
-2513.691634575745
 31
0.0
  0
LINE
  5
21B
330
25
100
AcDbEntity
  8
1
  6
Continuous
 62
     0
100
AcDbLine
 10
10979.36696399874
 20
-2522.816606202475
 30
0.0
 11
10979.36696399874
 21
-2513.691634575745
 31
0.0
  0
LINE
  5
21A
330
25
100
AcDbEntity
  8
1
  6
Continuous
 62
     0
100
AcDbLine
 10
10952.96696399874
 20
-2522.816606202475
 30
0.0
 11
10979.36696399874
 21
-2522.816606202475
 31
0.0
  0
LINE
  5
219
330
25
100
AcDbEntity
  8
1
  6
Continuous
 62
     0
100
AcDbLine
 10
10866.16696399874
 20
-2612.816606202475
 30
0.0
 11
10866.16696399874
 21
-2803.816606202476
 31
0.0
  0
LINE
  5
218
330
25
100
AcDbEntity
  8
1
  6
Continuous
 62
     0
100
AcDbLine
 10
11066.16696399874
 20
-2612.816606202475
 30
0.0
 11
11066.16696399874
 21
-2803.816606202476
 31
0.0
  0
LINE
  5
217
330
25
100
AcDbEntity
  8
1
  6
Continuous
 62
     0
100
AcDbLine
 10
10482.16696399874
 20
-463.816606202475
 30
0.0
 11
10482.16696399874
 21
-2021.816606202475
 31
0.0
  0
LINE
  5
216
330
25
100
AcDbEntity
  8
1
  6
Continuous
 62
     0
100
AcDbLine
 10
11450.16696399874
 20
-463.816606202475
 30
0.0
 11
11450.16696399874
 21
-1221.816606202475
 31
0.0
  0
LINE
  5
215
330
25
100
AcDbEntity
  8
1
  6
Continuous
 62
     0
100
AcDbLine
 10
13251.31263036251
 20
-1295.966606202475
 30
0.0
 11
13251.31263036251
 21
-1229.666606202475
 31
0.0
  0
LINE
  5
214
330
25
100
AcDbEntity
  8
1
  6
Continuous
 62
     0
100
AcDbLine
 10
13271.31263036251
 20
-1295.966606202475
 30
0.0
 11
13251.31263036251
 21
-1295.966606202475
 31
0.0
  0
LINE
  5
213
330
25
100
AcDbEntity
  8
1
  6
Continuous
 62
     0
100
AcDbLine
 10
13271.31263036251
 20
-1229.666606202475
 30
0.0
 11
13251.31263036251
 21
-1229.666606202475
 31
0.0
  0
LINE
  5
210
330
25
100
AcDbEntity
  8
1
  6
Continuous
 62
     0
100
AcDbLine
 10
14271.31263036251
 20
-2030.07413542052
 30
0.0
 11
14270.24083359278
 21
-2028.217728959969
 31
0.0
  0
LINE
  5
20F
330
25
100
AcDbEntity
  8
1
  6
Continuous
 62
     0
100
AcDbLine
 10
14270.24083359278
 20
-2055.930541881071
 30
0.0
 11
14271.31263036251
 21
-2054.07413542052
 31
0.0
  0
LINE
  5
20E
330
25
100
AcDbEntity
  8
1
  6
Continuous
 62
     0
100
AcDbLine
 10
14261.31263036251
 20
-2055.930541881071
 30
0.0
 11
14270.24083359278
 21
-2055.930541881071
 31
0.0
  0
LINE
  5
20D
330
25
100
AcDbEntity
  8
1
  6
Continuous
 62
     0
100
AcDbLine
 10
14271.31263036251
 20
-2054.07413542052
 30
0.0
 11
14271.31263036251
 21
-2030.07413542052
 31
0.0
  0
LINE
  5
20C
330
25
100
AcDbEntity
  8
1
  6
Continuous
 62
     0
100
AcDbLine
 10
14270.24083359278
 20
-2028.217728959969
 30
0.0
 11
14261.31263036251
 21
-2028.217728959969
 31
0.0
  0
LINE
  5
20B
330
25
100
AcDbEntity
  8
1
  6
Continuous
 62
     0
100
AcDbLine
 10
14261.31263036251
 20
-2049.002338650796
 30
0.0
 11
14270.24083359278
 21
-2049.002338650796
 31
0.0
  0
LINE
  5
20A
330
25
100
AcDbEntity
  8
1
  6
Continuous
 62
     0
100
AcDbLine
 10
14261.31263036251
 20
-2035.145932190244
 30
0.0
 11
14270.24083359278
 21
-2035.145932190244
 31
0.0
  0
LINE
  5
209
330
25
100
AcDbEntity
  8
1
  6
Continuous
 62
     0
100
AcDbLine
 10
14257.31263036251
 20
-2056.07413542052
 30
0.0
 11
14261.31263036251
 21
-2056.07413542052
 31
0.0
  0
LINE
  5
208
330
25
100
AcDbEntity
  8
1
  6
Continuous
 62
     0
100
AcDbLine
 10
14261.31263036251
 20
-2056.07413542052
 30
0.0
 11
14261.31263036251
 21
-2028.07413542052
 31
0.0
  0
LINE
  5
207
330
25
100
AcDbEntity
  8
1
  6
Continuous
 62
     0
100
AcDbLine
 10
14261.31263036251
 20
-2028.07413542052
 30
0.0
 11
14257.31263036251
 21
-2028.07413542052
 31
0.0
  0
LINE
  5
206
330
25
100
AcDbEntity
  8
1
  6
Continuous
 62
     0
100
AcDbLine
 10
14261.31263036251
 20
-2043.007468753853
 30
0.0
 11
14257.31263036251
 21
-2044.15032589671
 31
0.0
  0
LINE
  5
205
330
25
100
AcDbEntity
  8
1
  6
Continuous
 62
     0
100
AcDbLine
 10
14261.31263036251
 20
-2039.997944944329
 30
0.0
 11
14257.31263036251
 21
-2041.140802087187
 31
0.0
  0
LINE
  5
204
330
25
100
AcDbEntity
  8
1
  6
Continuous
 62
     0
100
AcDbLine
 10
14254.31263036251
 20
-2057.074135420519
 30
0.0
 11
14257.31263036251
 21
-2057.074135420519
 31
0.0
  0
LINE
  5
203
330
25
100
AcDbEntity
  8
1
  6
Continuous
 62
     0
100
AcDbLine
 10
14257.31263036251
 20
-2057.074135420519
 30
0.0
 11
14257.31263036251
 21
-2027.07413542052
 31
0.0
  0
LINE
  5
202
330
25
100
AcDbEntity
  8
1
  6
Continuous
 62
     0
100
AcDbLine
 10
14257.31263036251
 20
-2027.07413542052
 30
0.0
 11
14254.31263036251
 21
-2027.07413542052
 31
0.0
  0
LINE
  5
201
330
25
100
AcDbEntity
  8
1
  6
Continuous
 62
     0
100
AcDbLine
 10
14254.31263036251
 20
-2027.07413542052
 30
0.0
 11
14254.31263036251
 21
-2057.074135420519
 31
0.0
  0
LINE
  5
1FE
330
25
100
AcDbEntity
  8
1
  6
Continuous
 62
     0
100
AcDbLine
 10
14254.31263036251
 20
-2060.898891679657
 30
0.0
 11
14254.31263036251
 21
-2090.898891679657
 31
0.0
  0
LINE
  5
1FD
330
25
100
AcDbEntity
  8
1
  6
Continuous
 62
     0
100
AcDbLine
 10
14257.31263036251
 20
-2060.898891679657
 30
0.0
 11
14254.31263036251
 21
-2060.898891679657
 31
0.0
  0
LINE
  5
1FC
330
25
100
AcDbEntity
  8
1
  6
Continuous
 62
     0
100
AcDbLine
 10
14257.31263036251
 20
-2090.898891679657
 30
0.0
 11
14257.31263036251
 21
-2060.898891679657
 31
0.0
  0
LINE
  5
1FB
330
25
100
AcDbEntity
  8
1
  6
Continuous
 62
     0
100
AcDbLine
 10
14254.31263036251
 20
-2090.898891679657
 30
0.0
 11
14257.31263036251
 21
-2090.898891679657
 31
0.0
  0
LINE
  5
1FA
330
25
100
AcDbEntity
  8
1
  6
Continuous
 62
     0
100
AcDbLine
 10
14261.31263036251
 20
-2073.822701203467
 30
0.0
 11
14257.31263036251
 21
-2074.965558346324
 31
0.0
  0
LINE
  5
1F9
330
25
100
AcDbEntity
  8
1
  6
Continuous
 62
     0
100
AcDbLine
 10
14261.31263036251
 20
-2076.83222501299
 30
0.0
 11
14257.31263036251
 21
-2077.975082155847
 31
0.0
  0
LINE
  5
1F8
330
25
100
AcDbEntity
  8
1
  6
Continuous
 62
     0
100
AcDbLine
 10
14261.31263036251
 20
-2061.898891679657
 30
0.0
 11
14257.31263036251
 21
-2061.898891679657
 31
0.0
  0
LINE
  5
1F7
330
25
100
AcDbEntity
  8
1
  6
Continuous
 62
     0
100
AcDbLine
 10
14261.31263036251
 20
-2089.898891679657
 30
0.0
 11
14261.31263036251
 21
-2061.898891679657
 31
0.0
  0
LINE
  5
1F6
330
25
100
AcDbEntity
  8
1
  6
Continuous
 62
     0
100
AcDbLine
 10
14257.31263036251
 20
-2089.898891679657
 30
0.0
 11
14261.31263036251
 21
-2089.898891679657
 31
0.0
  0
LINE
  5
1F5
330
25
100
AcDbEntity
  8
1
  6
Continuous
 62
     0
100
AcDbLine
 10
14261.31263036251
 20
-2068.970688449382
 30
0.0
 11
14270.24083359278
 21
-2068.970688449382
 31
0.0
  0
LINE
  5
1F4
330
25
100
AcDbEntity
  8
1
  6
Continuous
 62
     0
100
AcDbLine
 10
14261.31263036251
 20
-2082.827094909932
 30
0.0
 11
14270.24083359278
 21
-2082.827094909932
 31
0.0
  0
LINE
  5
1F3
330
25
100
AcDbEntity
  8
1
  6
Continuous
 62
     0
100
AcDbLine
 10
14270.24083359278
 20
-2062.042485219106
 30
0.0
 11
14261.31263036251
 21
-2062.042485219106
 31
0.0
  0
LINE
  5
1F2
330
25
100
AcDbEntity
  8
1
  6
Continuous
 62
     0
100
AcDbLine
 10
14271.31263036251
 20
-2087.898891679657
 30
0.0
 11
14271.31263036251
 21
-2063.898891679657
 31
0.0
  0
LINE
  5
1F1
330
25
100
AcDbEntity
  8
1
  6
Continuous
 62
     0
100
AcDbLine
 10
14261.31263036251
 20
-2089.755298140208
 30
0.0
 11
14270.24083359278
 21
-2089.755298140208
 31
0.0
  0
LINE
  5
1F0
330
25
100
AcDbEntity
  8
1
  6
Continuous
 62
     0
100
AcDbLine
 10
14270.24083359278
 20
-2089.755298140208
 30
0.0
 11
14271.31263036251
 21
-2087.898891679657
 31
0.0
  0
LINE
  5
1EF
330
25
100
AcDbEntity
  8
1
  6
Continuous
 62
     0
100
AcDbLine
 10
14271.31263036251
 20
-2063.898891679657
 30
0.0
 11
14270.24083359278
 21
-2062.042485219106
 31
0.0
  0
LINE
  5
1EE
330
25
100
AcDbEntity
  8
1
  6
Continuous
 62
     0
100
AcDbLine
 10
14270.24083359278
 20
-2137.590727185844
 30
0.0
 11
14271.31263036251
 21
-2135.734320725293
 31
0.0
  0
LINE
  5
1ED
330
25
100
AcDbEntity
  8
1
  6
Continuous
 62
     0
100
AcDbLine
 10
14271.31263036251
 20
-2111.734320725293
 30
0.0
 11
14270.24083359278
 21
-2109.877914264743
 31
0.0
  0
LINE
  5
1EC
330
25
100
AcDbEntity
  8
1
  6
Continuous
 62
     0
100
AcDbLine
 10
14270.24083359278
 20
-2109.877914264743
 30
0.0
 11
14261.31263036251
 21
-2109.877914264743
 31
0.0
  0
LINE
  5
1EB
330
25
100
AcDbEntity
  8
1
  6
Continuous
 62
     0
100
AcDbLine
 10
14271.31263036251
 20
-2135.734320725293
 30
0.0
 11
14271.31263036251
 21
-2111.734320725293
 31
0.0
  0
LINE
  5
1EA
330
25
100
AcDbEntity
  8
1
  6
Continuous
 62
     0
100
AcDbLine
 10
14261.31263036251
 20
-2137.590727185844
 30
0.0
 11
14270.24083359278
 21
-2137.590727185844
 31
0.0
  0
LINE
  5
1E9
330
25
100
AcDbEntity
  8
1
  6
Continuous
 62
     0
100
AcDbLine
 10
14270.24083359278
 20
-2116.806117495018
 30
0.0
 11
14261.31263036251
 21
-2116.806117495018
 31
0.0
  0
LINE
  5
1E8
330
25
100
AcDbEntity
  8
1
  6
Continuous
 62
     0
100
AcDbLine
 10
14270.24083359278
 20
-2130.662523955569
 30
0.0
 11
14261.31263036251
 21
-2130.662523955569
 31
0.0
  0
LINE
  5
1E7
330
25
100
AcDbEntity
  8
1
  6
Continuous
 62
     0
100
AcDbLine
 10
14261.31263036251
 20
-2109.734320725293
 30
0.0
 11
14257.31263036251
 21
-2109.734320725293
 31
0.0
  0
LINE
  5
1E6
330
25
100
AcDbEntity
  8
1
  6
Continuous
 62
     0
100
AcDbLine
 10
14261.31263036251
 20
-2137.734320725293
 30
0.0
 11
14261.31263036251
 21
-2109.734320725293
 31
0.0
  0
LINE
  5
1E5
330
25
100
AcDbEntity
  8
1
  6
Continuous
 62
     0
100
AcDbLine
 10
14257.31263036251
 20
-2137.734320725293
 30
0.0
 11
14261.31263036251
 21
-2137.734320725293
 31
0.0
  0
LINE
  5
1E4
330
25
100
AcDbEntity
  8
1
  6
Continuous
 62
     0
100
AcDbLine
 10
14257.31263036251
 20
-2121.658130249103
 30
0.0
 11
14261.31263036251
 21
-2122.80098739196
 31
0.0
  0
LINE
  5
1E3
330
25
100
AcDbEntity
  8
1
  6
Continuous
 62
     0
100
AcDbLine
 10
14257.31263036251
 20
-2124.667654058627
 30
0.0
 11
14261.31263036251
 21
-2125.810511201484
 31
0.0
  0
LINE
  5
1E2
330
25
100
AcDbEntity
  8
1
  6
Continuous
 62
     0
100
AcDbLine
 10
14257.31263036251
 20
-2108.734320725293
 30
0.0
 11
14254.31263036251
 21
-2108.734320725293
 31
0.0
  0
LINE
  5
1E1
330
25
100
AcDbEntity
  8
1
  6
Continuous
 62
     0
100
AcDbLine
 10
14257.31263036251
 20
-2138.734320725293
 30
0.0
 11
14257.31263036251
 21
-2108.734320725293
 31
0.0
  0
LINE
  5
1E0
330
25
100
AcDbEntity
  8
1
  6
Continuous
 62
     0
100
AcDbLine
 10
14254.31263036251
 20
-2138.734320725293
 30
0.0
 11
14257.31263036251
 21
-2138.734320725293
 31
0.0
  0
LINE
  5
1DF
330
25
100
AcDbEntity
  8
1
  6
Continuous
 62
     0
100
AcDbLine
 10
14254.31263036251
 20
-2108.734320725293
 30
0.0
 11
14254.31263036251
 21
-2138.734320725293
 31
0.0
  0
LINE
  5
1DC
330
25
100
AcDbEntity
  8
1
  6
Continuous
 62
     0
100
AcDbLine
 10
14254.31263036251
 20
-2142.55907698443
 30
0.0
 11
14254.31263036251
 21
-2172.55907698443
 31
0.0
  0
LINE
  5
1DB
330
25
100
AcDbEntity
  8
1
  6
Continuous
 62
     0
100
AcDbLine
 10
14254.31263036251
 20
-2172.55907698443
 30
0.0
 11
14257.31263036251
 21
-2172.55907698443
 31
0.0
  0
LINE
  5
1DA
330
25
100
AcDbEntity
  8
1
  6
Continuous
 62
     0
100
AcDbLine
 10
14257.31263036251
 20
-2172.55907698443
 30
0.0
 11
14257.31263036251
 21
-2142.55907698443
 31
0.0
  0
LINE
  5
1D9
330
25
100
AcDbEntity
  8
1
  6
Continuous
 62
     0
100
AcDbLine
 10
14257.31263036251
 20
-2142.55907698443
 30
0.0
 11
14254.31263036251
 21
-2142.55907698443
 31
0.0
  0
LINE
  5
1D8
330
25
100
AcDbEntity
  8
1
  6
Continuous
 62
     0
100
AcDbLine
 10
14257.31263036251
 20
-2158.492410317764
 30
0.0
 11
14261.31263036251
 21
-2159.635267460621
 31
0.0
  0
LINE
  5
1D7
330
25
100
AcDbEntity
  8
1
  6
Continuous
 62
     0
100
AcDbLine
 10
14257.31263036251
 20
-2155.48288650824
 30
0.0
 11
14261.31263036251
 21
-2156.625743651097
 31
0.0
  0
LINE
  5
1D6
330
25
100
AcDbEntity
  8
1
  6
Continuous
 62
     0
100
AcDbLine
 10
14257.31263036251
 20
-2171.55907698443
 30
0.0
 11
14261.31263036251
 21
-2171.55907698443
 31
0.0
  0
LINE
  5
1D5
330
25
100
AcDbEntity
  8
1
  6
Continuous
 62
     0
100
AcDbLine
 10
14261.31263036251
 20
-2171.55907698443
 30
0.0
 11
14261.31263036251
 21
-2143.55907698443
 31
0.0
  0
LINE
  5
1D4
330
25
100
AcDbEntity
  8
1
  6
Continuous
 62
     0
100
AcDbLine
 10
14261.31263036251
 20
-2143.55907698443
 30
0.0
 11
14257.31263036251
 21
-2143.55907698443
 31
0.0
  0
LINE
  5
1D3
330
25
100
AcDbEntity
  8
1
  6
Continuous
 62
     0
100
AcDbLine
 10
14270.24083359278
 20
-2164.487280214707
 30
0.0
 11
14261.31263036251
 21
-2164.487280214707
 31
0.0
  0
LINE
  5
1D2
330
25
100
AcDbEntity
  8
1
  6
Continuous
 62
     0
100
AcDbLine
 10
14270.24083359278
 20
-2150.630873754155
 30
0.0
 11
14261.31263036251
 21
-2150.630873754155
 31
0.0
  0
LINE
  5
1D1
330
25
100
AcDbEntity
  8
1
  6
Continuous
 62
     0
100
AcDbLine
 10
14261.31263036251
 20
-2171.415483444982
 30
0.0
 11
14270.24083359278
 21
-2171.415483444982
 31
0.0
  0
LINE
  5
1D0
330
25
100
AcDbEntity
  8
1
  6
Continuous
 62
     0
100
AcDbLine
 10
14271.31263036251
 20
-2169.55907698443
 30
0.0
 11
14271.31263036251
 21
-2145.55907698443
 31
0.0
  0
LINE
  5
1CF
330
25
100
AcDbEntity
  8
1
  6
Continuous
 62
     0
100
AcDbLine
 10
14270.24083359278
 20
-2143.70267052388
 30
0.0
 11
14261.31263036251
 21
-2143.70267052388
 31
0.0
  0
LINE
  5
1CE
330
25
100
AcDbEntity
  8
1
  6
Continuous
 62
     0
100
AcDbLine
 10
14271.31263036251
 20
-2145.55907698443
 30
0.0
 11
14270.24083359278
 21
-2143.70267052388
 31
0.0
  0
LINE
  5
1CD
330
25
100
AcDbEntity
  8
1
  6
Continuous
 62
     0
100
AcDbLine
 10
14270.24083359278
 20
-2171.415483444982
 30
0.0
 11
14271.31263036251
 21
-2169.55907698443
 31
0.0
  0
LINE
  5
1CC
330
25
100
AcDbEntity
  8
1
  6
Continuous
 62
     0
100
AcDbLine
 10
10955.68946399874
 20
-2540.496606202475
 30
0.0
 11
10955.31696399874
 21
-2533.156606202475
 31
0.0
  0
LINE
  5
1CB
330
25
100
AcDbEntity
  8
1
  6
Continuous
 62
     0
100
AcDbLine
 10
10976.64446399874
 20
-2540.496606202475
 30
0.0
 11
10977.01696399874
 21
-2533.156606202475
 31
0.0
  0
LINE
  5
1CA
330
25
100
AcDbEntity
  8
1
  6
Continuous
 62
     0
100
AcDbLine
 10
10977.01696399874
 20
-2530.156606202475
 30
0.0
 11
10976.64446399874
 21
-2522.816606202475
 31
0.0
  0
LINE
  5
1C9
330
25
100
AcDbEntity
  8
1
  6
Continuous
 62
     0
100
AcDbLine
 10
10955.31696399874
 20
-2530.156606202475
 30
0.0
 11
10955.68946399874
 21
-2522.816606202475
 31
0.0
  0
LINE
  5
1C8
330
25
100
AcDbEntity
  8
1
  6
Continuous
 62
     0
100
AcDbLine
 10
10955.31696399874
 20
-2530.156606202475
 30
0.0
 11
10955.31696399874
 21
-2533.156606202475
 31
0.0
  0
LINE
  5
1C7
330
25
100
AcDbEntity
  8
1
  6
Continuous
 62
     0
100
AcDbLine
 10
10977.01696399874
 20
-2533.156606202475
 30
0.0
 11
10955.31696399874
 21
-2533.156606202475
 31
0.0
  0
LINE
  5
1C6
330
25
100
AcDbEntity
  8
1
  6
Continuous
 62
     0
100
AcDbLine
 10
10955.31696399874
 20
-2530.156606202475
 30
0.0
 11
10977.01696399874
 21
-2530.156606202475
 31
0.0
  0
LINE
  5
1C5
330
25
100
AcDbEntity
  8
1
  6
Continuous
 62
     0
100
AcDbLine
 10
10977.01696399874
 20
-2530.156606202475
 30
0.0
 11
10977.01696399874
 21
-2533.156606202475
 31
0.0
  0
LINE
  5
1C4
330
25
100
AcDbEntity
  8
1
  6
Continuous
 62
     0
100
AcDbLine
 10
10954.80072072848
 20
-2572.046606202476
 30
0.0
 11
10976.06696399874
 21
-2572.046606202476
 31
0.0
  0
LINE
  5
1C3
330
25
100
AcDbEntity
  8
1
  6
Continuous
 62
     0
100
AcDbLine
 10
10954.80072072848
 20
-2561.046606202476
 30
0.0
 11
10976.06696399874
 21
-2561.046606202476
 31
0.0
  0
LINE
  5
1C2
330
25
100
AcDbEntity
  8
1
  6
Continuous
 62
     0
100
AcDbLine
 10
10977.06696399874
 20
-2573.446606202474
 30
0.0
 11
10976.06696399874
 21
-2572.046606202476
 31
0.0
  0
LINE
  5
1C1
330
25
100
AcDbEntity
  8
1
  6
Continuous
 62
     0
100
AcDbLine
 10
10977.06696399874
 20
-2559.646606202474
 30
0.0
 11
10976.06696399874
 21
-2561.046606202476
 31
0.0
  0
LINE
  5
1C0
330
25
100
AcDbEntity
  8
1
  6
Continuous
 62
     0
100
AcDbLine
 10
10954.80072072848
 20
-2561.046606202476
 30
0.0
 11
10954.80072072848
 21
-2572.046606202476
 31
0.0
  0
LINE
  5
1BF
330
25
100
AcDbEntity
  8
1
  6
Continuous
 62
     0
100
AcDbLine
 10
10953.66696399874
 20
-2573.446606202474
 30
0.0
 11
10954.80072072848
 21
-2572.046606202476
 31
0.0
  0
LINE
  5
1BE
330
25
100
AcDbEntity
  8
1
  6
Continuous
 62
     0
100
AcDbLine
 10
10953.66696399874
 20
-2559.646606202474
 30
0.0
 11
10954.80072072848
 21
-2561.046606202476
 31
0.0
  0
LINE
  5
1BD
330
25
100
AcDbEntity
  8
1
  6
Continuous
 62
     0
100
AcDbLine
 10
10977.06696399874
 20
-2587.189105284263
 30
0.0
 11
10977.06696399874
 21
-2572.996606202474
 31
0.0
  0
LINE
  5
1BC
330
25
100
AcDbEntity
  8
1
  6
Continuous
 62
     0
100
AcDbLine
 10
10977.06696399874
 20
-2550.304107120688
 30
0.0
 11
10977.06696399874
 21
-2562.496606202474
 31
0.0
  0
LINE
  5
1BB
330
25
100
AcDbEntity
  8
1
  6
Continuous
 62
     0
100
AcDbLine
 10
10978.66696399874
 20
-2574.496606202475
 30
0.0
 11
10980.26696399874
 21
-2574.496606202475
 31
0.0
  0
LINE
  5
1BA
330
25
100
AcDbEntity
  8
1
  6
Continuous
 62
     0
100
AcDbLine
 10
10978.66696399874
 20
-2561.496606202475
 30
0.0
 11
10980.26696399874
 21
-2561.496606202475
 31
0.0
  0
LINE
  5
1B9
330
25
100
AcDbEntity
  8
1
  6
Continuous
 62
     0
100
AcDbLine
 10
10984.69561264739
 20
-2580.396606202474
 30
0.0
 11
10980.26696399874
 21
-2580.396606202474
 31
0.0
  0
LINE
  5
1B8
330
25
100
AcDbEntity
  8
1
  6
Continuous
 62
     0
100
AcDbLine
 10
10989.16696399874
 20
-2597.996606202475
 30
0.0
 11
10984.46696399874
 21
-2579.496606202475
 31
0.0
  0
LINE
  5
1B7
330
25
100
AcDbEntity
  8
1
  6
Continuous
 62
     0
100
AcDbLine
 10
10989.16696399874
 20
-2597.996606202475
 30
0.0
 11
10997.16696399874
 21
-2597.996606202475
 31
0.0
  0
LINE
  5
1B6
330
25
100
AcDbEntity
  8
1
  6
Continuous
 62
     0
100
AcDbLine
 10
10997.16696399874
 20
-2579.583236428733
 30
0.0
 11
10997.16696399874
 21
-2597.996606202475
 31
0.0
  0
LINE
  5
1B5
330
25
100
AcDbEntity
  8
1
  6
Continuous
 62
     0
100
AcDbLine
 10
10980.26696399874
 20
-2555.596606202476
 30
0.0
 11
10984.69561264739
 21
-2555.596606202476
 31
0.0
  0
LINE
  5
1B4
330
25
100
AcDbEntity
  8
1
  6
Continuous
 62
     0
100
AcDbLine
 10
10980.26696399874
 20
-2555.096606202476
 30
0.0
 11
10984.82263967442
 21
-2555.096606202476
 31
0.0
  0
LINE
  5
1B3
330
25
100
AcDbEntity
  8
1
  6
Continuous
 62
     0
100
AcDbLine
 10
10984.46696399874
 20
-2556.496606202475
 30
0.0
 11
10989.16696399874
 21
-2537.996606202475
 31
0.0
  0
LINE
  5
1B2
330
25
100
AcDbEntity
  8
1
  6
Continuous
 62
     0
100
AcDbLine
 10
10989.16696399874
 20
-2537.996606202475
 30
0.0
 11
10997.16696399874
 21
-2537.996606202475
 31
0.0
  0
LINE
  5
1B1
330
25
100
AcDbEntity
  8
1
  6
Continuous
 62
     0
100
AcDbLine
 10
10978.66696399874
 20
-2596.996606202474
 30
0.0
 11
10953.66696399874
 21
-2596.996606202474
 31
0.0
  0
LINE
  5
1B0
330
25
100
AcDbEntity
  8
1
  6
Continuous
 62
     0
100
AcDbLine
 10
10953.66696399874
 20
-2596.996606202474
 30
0.0
 11
10953.66696399874
 21
-2540.496606202474
 31
0.0
  0
LINE
  5
1AF
330
25
100
AcDbEntity
  8
1
  6
Continuous
 62
     0
100
AcDbLine
 10
10953.66696399874
 20
-2540.496606202474
 30
0.0
 11
10978.66696399874
 21
-2540.496606202475
 31
0.0
  0
LINE
  5
1AE
330
25
100
AcDbEntity
  8
1
  6
Continuous
 62
     0
100
AcDbLine
 10
10978.66696399874
 20
-2596.996606202474
 30
0.0
 11
10978.66696399874
 21
-2540.496606202475
 31
0.0
  0
LINE
  5
1AD
330
25
100
AcDbEntity
  8
1
  6
Continuous
 62
     0
100
AcDbLine
 10
10997.16696399874
 20
-2537.996606202475
 30
0.0
 11
10997.16696399874
 21
-2556.409975976218
 31
0.0
  0
LINE
  5
1AC
330
25
100
AcDbEntity
  8
1
  6
Continuous
 62
     0
100
AcDbLine
 10
10984.46696399874
 20
-2579.496606202475
 30
0.0
 11
10984.46696399874
 21
-2556.496606202475
 31
0.0
  0
LINE
  5
1AB
330
25
100
AcDbEntity
  8
1
  6
Continuous
 62
     0
100
AcDbLine
 10
10980.26696399874
 20
-2580.396606202474
 30
0.0
 11
10980.26696399874
 21
-2557.996606202475
 31
0.0
  0
LINE
  5
1AA
330
25
100
AcDbEntity
  8
1
  6
Continuous
 62
     0
100
AcDbLine
 10
10980.26696399874
 20
-2555.096606202476
 30
0.0
 11
10980.26696399874
 21
-2557.996606202475
 31
0.0
  0
LINE
  5
1A8
330
25
100
AcDbEntity
  8
1
  6
Continuous
 62
     0
100
AcDbLine
 10
10966.16696399874
 20
-2541.613061170937
 30
0.0
 11
10966.16696399874
 21
-2549.796817900684
 31
0.0
  0
LINE
  5
1A7
330
25
100
AcDbEntity
  8
1
  6
Continuous
 62
     0
100
AcDbLine
 10
10966.16696399874
 20
-2587.696394504267
 30
0.0
 11
10966.16696399874
 21
-2595.880151234012
 31
0.0
  0
LINE
  5
1A5
330
25
100
AcDbEntity
  8
1
  6
Continuous
 62
     0
100
AcDbLine
 10
10983.76696399874
 20
-2553.996606202474
 30
0.0
 11
10983.76696399874
 21
-2555.096606202476
 31
0.0
  0
LINE
  5
1A4
330
25
100
AcDbEntity
  8
1
  6
Continuous
 62
     0
100
AcDbLine
 10
10978.66696399874
 20
-2553.996606202474
 30
0.0
 11
10983.76696399874
 21
-2553.996606202474
 31
0.0
  0
LINE
  5
1A3
330
25
100
AcDbEntity
  8
1
  6
Continuous
 62
     0
100
AcDbLine
 10
10978.66696399874
 20
-2558.996606202474
 30
0.0
 11
10980.26696399874
 21
-2558.996606202474
 31
0.0
  0
LINE
  5
1A0
330
25
100
AcDbEntity
  8
1
  6
Continuous
 62
     0
100
AcDbLine
 10
13742.81263036251
 20
-2540.496606202474
 30
0.0
 11
13767.81263036251
 21
-2540.496606202475
 31
0.0
  0
LINE
  5
19F
330
25
100
AcDbEntity
  8
1
  6
Continuous
 62
     0
100
AcDbLine
 10
13766.1626303625
 20
-2530.156606202475
 30
0.0
 11
13766.1626303625
 21
-2533.156606202475
 31
0.0
  0
LINE
  5
19E
330
25
100
AcDbEntity
  8
1
  6
Continuous
 62
     0
100
AcDbLine
 10
13744.4626303625
 20
-2530.156606202475
 30
0.0
 11
13766.1626303625
 21
-2530.156606202475
 31
0.0
  0
LINE
  5
19D
330
25
100
AcDbEntity
  8
1
  6
Continuous
 62
     0
100
AcDbLine
 10
13766.1626303625
 20
-2533.156606202475
 30
0.0
 11
13744.4626303625
 21
-2533.156606202475
 31
0.0
  0
LINE
  5
19C
330
25
100
AcDbEntity
  8
1
  6
Continuous
 62
     0
100
AcDbLine
 10
13744.4626303625
 20
-2530.156606202475
 30
0.0
 11
13744.4626303625
 21
-2533.156606202475
 31
0.0
  0
LINE
  5
19B
330
25
100
AcDbEntity
  8
1
  6
Continuous
 62
     0
100
AcDbLine
 10
13744.4626303625
 20
-2530.156606202475
 30
0.0
 11
13744.8351303625
 21
-2522.816606202475
 31
0.0
  0
LINE
  5
19A
330
25
100
AcDbEntity
  8
1
  6
Continuous
 62
     0
100
AcDbLine
 10
13766.1626303625
 20
-2530.156606202475
 30
0.0
 11
13765.7901303625
 21
-2522.816606202475
 31
0.0
  0
LINE
  5
199
330
25
100
AcDbEntity
  8
1
  6
Continuous
 62
     0
100
AcDbLine
 10
13765.7901303625
 20
-2540.496606202475
 30
0.0
 11
13766.1626303625
 21
-2533.156606202475
 31
0.0
  0
LINE
  5
198
330
25
100
AcDbEntity
  8
1
  6
Continuous
 62
     0
100
AcDbLine
 10
13744.8351303625
 20
-2540.496606202475
 30
0.0
 11
13744.4626303625
 21
-2533.156606202475
 31
0.0
  0
LINE
  5
197
330
25
100
AcDbEntity
  8
1
  6
Continuous
 62
     0
100
AcDbLine
 10
13742.1126303625
 20
-2522.816606202475
 30
0.0
 11
13768.5126303625
 21
-2522.816606202475
 31
0.0
  0
LINE
  5
196
330
25
100
AcDbEntity
  8
1
  6
Continuous
 62
     0
100
AcDbLine
 10
13769.74638709226
 20
-2595.880151234011
 30
0.0
 11
13767.81263036251
 21
-2596.996606202474
 31
0.0
  0
LINE
  5
195
330
25
100
AcDbEntity
  8
1
  6
Continuous
 62
     0
100
AcDbLine
 10
13742.81263036251
 20
-2596.996606202474
 30
0.0
 11
13740.87887363276
 21
-2595.880151234011
 31
0.0
  0
LINE
  5
194
330
25
100
AcDbEntity
  8
1
  6
Continuous
 62
     0
100
AcDbLine
 10
13769.74638709226
 20
-2595.880151234011
 30
0.0
 11
13769.74638709226
 21
-2588.11306117094
 31
0.0
  0
LINE
  5
193
330
25
100
AcDbEntity
  8
1
  6
Continuous
 62
     0
100
AcDbLine
 10
13767.81263036251
 20
-2596.996606202474
 30
0.0
 11
13761.06263036251
 21
-2596.996606202474
 31
0.0
  0
LINE
  5
192
330
25
100
AcDbEntity
  8
1
  6
Continuous
 62
     0
100
AcDbLine
 10
13740.87887363276
 20
-2595.880151234011
 30
0.0
 11
13740.87887363276
 21
-2588.11306117094
 31
0.0
  0
LINE
  5
191
330
25
100
AcDbEntity
  8
1
  6
Continuous
 62
     0
100
AcDbLine
 10
13762.52950872739
 20
-2595.880151234011
 30
0.0
 11
13762.52950872739
 21
-2578.809407258015
 31
0.0
  0
LINE
  5
190
330
25
100
AcDbEntity
  8
1
  6
Continuous
 62
     0
100
AcDbLine
 10
13748.09575199764
 20
-2595.880151234011
 30
0.0
 11
13748.09575199764
 21
-2578.809407258015
 31
0.0
  0
LINE
  5
18F
330
25
100
AcDbEntity
  8
1
  6
Continuous
 62
     0
100
AcDbLine
 10
13767.81263036251
 20
-2540.496606202475
 30
0.0
 11
13769.74638709226
 21
-2541.613061170938
 31
0.0
  0
LINE
  5
18E
330
25
100
AcDbEntity
  8
1
  6
Continuous
 62
     0
100
AcDbLine
 10
13740.87887363276
 20
-2541.613061170938
 30
0.0
 11
13742.81263036251
 21
-2540.496606202474
 31
0.0
  0
LINE
  5
18D
330
25
100
AcDbEntity
  8
1
  6
Continuous
 62
     0
100
AcDbLine
 10
13769.74638709226
 20
-2541.613061170938
 30
0.0
 11
13769.74638709226
 21
-2549.380151234014
 31
0.0
  0
LINE
  5
18C
330
25
100
AcDbEntity
  8
1
  6
Continuous
 62
     0
100
AcDbLine
 10
13742.81263036251
 20
-2540.496606202474
 30
0.0
 11
13761.6587956851
 21
-2540.496606202474
 31
0.0
  0
LINE
  5
18B
330
25
100
AcDbEntity
  8
1
  6
Continuous
 62
     0
100
AcDbLine
 10
13740.87887363276
 20
-2541.613061170938
 30
0.0
 11
13740.87887363276
 21
-2549.380151234014
 31
0.0
  0
LINE
  5
18A
330
25
100
AcDbEntity
  8
1
  6
Continuous
 62
     0
100
AcDbLine
 10
13762.52950872739
 20
-2541.613061170938
 30
0.0
 11
13762.52950872739
 21
-2557.183805146937
 31
0.0
  0
LINE
  5
189
330
25
100
AcDbEntity
  8
1
  6
Continuous
 62
     0
100
AcDbLine
 10
13748.09575199764
 20
-2541.613061170938
 30
0.0
 11
13748.09575199764
 21
-2554.051863393664
 31
0.0
  0
LINE
  5
188
330
25
100
AcDbEntity
  8
1
  6
Continuous
 62
     0
100
AcDbLine
 10
13769.74638709226
 20
-2549.380151234014
 30
0.0
 11
13767.94638709226
 21
-2550.419381718554
 31
0.0
  0
LINE
  5
187
330
25
100
AcDbEntity
  8
1
  6
Continuous
 62
     0
100
AcDbLine
 10
13742.67887363277
 20
-2550.419381718551
 30
0.0
 11
13740.87887363276
 21
-2549.380151234014
 31
0.0
  0
LINE
  5
186
330
25
100
AcDbEntity
  8
1
  6
Continuous
 62
     0
100
AcDbLine
 10
13740.87887363276
 20
-2588.11306117094
 30
0.0
 11
13742.67887363277
 21
-2587.0738306864
 31
0.0
  0
LINE
  5
185
330
25
100
AcDbEntity
  8
1
  6
Continuous
 62
     0
100
AcDbLine
 10
13767.94638709226
 20
-2587.0738306864
 30
0.0
 11
13769.74638709226
 21
-2588.11306117094
 31
0.0
  0
LINE
  5
184
330
25
100
AcDbEntity
  8
1
  6
Continuous
 62
     0
100
AcDbLine
 10
13742.67887363277
 20
-2550.419381718551
 30
0.0
 11
13742.67887363277
 21
-2559.646606202474
 31
0.0
  0
LINE
  5
183
330
25
100
AcDbEntity
  8
1
  6
Continuous
 62
     0
100
AcDbLine
 10
13767.94638709226
 20
-2587.0738306864
 30
0.0
 11
13767.94638709226
 21
-2573.446606202474
 31
0.0
  0
LINE
  5
182
330
25
100
AcDbEntity
  8
1
  6
Continuous
 62
     0
100
AcDbLine
 10
13742.67887363277
 20
-2559.646606202474
 30
0.0
 11
13743.81263036251
 21
-2561.046606202476
 31
0.0
  0
LINE
  5
181
330
25
100
AcDbEntity
  8
1
  6
Continuous
 62
     0
100
AcDbLine
 10
13742.67887363277
 20
-2573.446606202474
 30
0.0
 11
13743.22270409644
 21
-2572.775066506902
 31
0.0
  0
LINE
  5
180
330
25
100
AcDbEntity
  8
1
  6
Continuous
 62
     0
100
AcDbLine
 10
13766.81263036251
 20
-2561.046606202476
 30
0.0
 11
13767.94638709226
 21
-2559.646606202474
 31
0.0
  0
LINE
  5
17F
330
25
100
AcDbEntity
  8
1
  6
Continuous
 62
     0
100
AcDbLine
 10
13767.94638709226
 20
-2559.646606202474
 30
0.0
 11
13767.94638709226
 21
-2550.419381718554
 31
0.0
  0
LINE
  5
17E
330
25
100
AcDbEntity
  8
1
  6
Continuous
 62
     0
100
AcDbLine
 10
13742.67887363277
 20
-2573.446606202474
 30
0.0
 11
13742.67887363277
 21
-2587.0738306864
 31
0.0
  0
LINE
  5
17D
330
25
100
AcDbEntity
  8
1
  6
Continuous
 62
     0
100
AcDbLine
 10
13785.31263036251
 20
-2562.246606202475
 30
0.0
 11
13785.31263036251
 21
-2573.746606202475
 31
0.0
  0
LINE
  5
17C
330
25
100
AcDbEntity
  8
1
  6
Continuous
 62
     0
100
AcDbLine
 10
13725.31263036251
 20
-2562.246606202475
 30
0.0
 11
13725.31263036251
 21
-2573.746606202475
 31
0.0
  0
LINE
  5
17B
330
25
100
AcDbEntity
  8
1
  6
Continuous
 62
     0
100
AcDbLine
 10
13767.40255662858
 20
-2572.775066506905
 30
0.0
 11
13767.94638709226
 21
-2573.446606202474
 31
0.0
  0
LINE
  5
17A
330
25
100
AcDbEntity
  8
1
  6
Continuous
 62
     0
100
AcDbLine
 10
13766.81263036251
 20
-2561.934428375984
 30
0.0
 11
13766.81263036251
 21
-2561.046606202476
 31
0.0
  0
LINE
  5
179
330
25
100
AcDbEntity
  8
1
  6
Continuous
 62
     0
100
AcDbLine
 10
13766.29887175801
 20
-2561.046606202476
 30
0.0
 11
13766.81263036251
 21
-2561.046606202476
 31
0.0
  0
LINE
  5
178
330
25
100
AcDbEntity
  8
1
  6
Continuous
 62
     0
100
AcDbLine
 10
13743.81263036251
 20
-2561.934428375984
 30
0.0
 11
13743.81263036251
 21
-2561.046606202476
 31
0.0
  0
LINE
  5
177
330
25
100
AcDbEntity
  8
1
  6
Continuous
 62
     0
100
AcDbLine
 10
13785.31263036251
 20
-2562.246606202475
 30
0.0
 11
13768.15542990155
 21
-2562.246606202475
 31
0.0
  0
LINE
  5
176
330
25
100
AcDbEntity
  8
1
  6
Continuous
 62
     0
100
AcDbLine
 10
13785.31263036251
 20
-2573.746606202475
 30
0.0
 11
13768.15542990155
 21
-2573.746606202475
 31
0.0
  0
LINE
  5
175
330
25
100
AcDbEntity
  8
1
  6
Continuous
 62
     0
100
AcDbLine
 10
13742.46983082346
 20
-2573.746606202475
 30
0.0
 11
13725.31263036251
 21
-2573.746606202475
 31
0.0
  0
LINE
  5
174
330
25
100
AcDbEntity
  8
1
  6
Continuous
 62
     0
100
AcDbLine
 10
13725.31263036251
 20
-2562.246606202475
 30
0.0
 11
13742.46983082346
 21
-2562.246606202475
 31
0.0
  0
LINE
  5
173
330
25
100
AcDbEntity
  8
1
  6
Continuous
 62
     0
100
AcDbLine
 10
13743.81263036251
 20
-2561.046606202476
 30
0.0
 11
13744.32709297383
 21
-2561.046606202476
 31
0.0
  0
LINE
  5
172
330
25
100
AcDbEntity
  8
1
  6
Continuous
 62
     0
100
AcDbLine
 10
13761.06263036251
 20
-2540.496606202474
 30
0.0
 11
13767.81263036251
 21
-2540.496606202475
 31
0.0
  0
LINE
  5
171
330
25
100
AcDbEntity
  8
1
  6
Continuous
 62
     0
100
AcDbLine
 10
13762.07157468311
 20
-2596.996606202475
 30
0.0
 11
13742.81263036251
 21
-2596.996606202474
 31
0.0
  0
LINE
  5
170
330
25
100
AcDbEntity
  8
1
  6
Continuous
 62
     0
100
AcDbLine
 10
13751.84852874738
 20
-2573.996606202475
 30
0.0
 11
13758.77673197765
 21
-2573.996606202475
 31
0.0
  0
LINE
  5
16F
330
25
100
AcDbEntity
  8
1
  6
Continuous
 62
     0
100
AcDbLine
 10
13758.77673197765
 20
-2573.996606202475
 30
0.0
 11
13762.24083359279
 21
-2567.996606202475
 31
0.0
  0
LINE
  5
16E
330
25
100
AcDbEntity
  8
1
  6
Continuous
 62
     0
100
AcDbLine
 10
13762.24083359279
 20
-2567.996606202475
 30
0.0
 11
13758.77673197765
 21
-2561.996606202475
 31
0.0
  0
LINE
  5
16D
330
25
100
AcDbEntity
  8
1
  6
Continuous
 62
     0
100
AcDbLine
 10
13758.77673197765
 20
-2561.996606202475
 30
0.0
 11
13751.84852874738
 21
-2561.996606202475
 31
0.0
  0
LINE
  5
16C
330
25
100
AcDbEntity
  8
1
  6
Continuous
 62
     0
100
AcDbLine
 10
13751.84852874738
 20
-2561.996606202475
 30
0.0
 11
13748.38442713224
 21
-2567.996606202475
 31
0.0
  0
LINE
  5
16B
330
25
100
AcDbEntity
  8
1
  6
Continuous
 62
     0
100
AcDbLine
 10
13748.38442713224
 20
-2567.996606202475
 30
0.0
 11
13751.84852874738
 21
-2573.996606202475
 31
0.0
  0
LINE
  5
168
330
25
100
AcDbEntity
  8
1
  6
Continuous
 62
     0
100
AcDbLine
 10
13748.56263036251
 20
-2553.996606202474
 30
0.0
 11
13749.56263036251
 21
-2553.996606202474
 31
0.0
  0
LINE
  5
167
330
25
100
AcDbEntity
  8
1
  6
Continuous
 62
     0
100
AcDbLine
 10
13746.56263036251
 20
-2555.996606202474
 30
0.0
 11
13746.56263036251
 21
-2558.38216394096
 31
0.0
  0
LINE
  5
166
330
25
100
AcDbEntity
  8
1
  6
Continuous
 62
     0
100
AcDbLine
 10
13755.31263036251
 20
-2560.496606202475
 30
0.0
 11
13747.09087049881
 21
-2560.496606202475
 31
0.0
  0
LINE
  5
165
330
25
100
AcDbEntity
  8
1
  6
Continuous
 62
     0
100
AcDbLine
 10
13762.81263036251
 20
-2567.996606202475
 30
0.0
 11
13766.4126303625
 21
-2567.996606202475
 31
0.0
  0
LINE
  5
164
330
25
100
AcDbEntity
  8
1
  6
Continuous
 62
     0
100
AcDbLine
 10
13752.81263036251
 20
-2570.586972971873
 30
0.0
 11
13752.81263036251
 21
-2565.406239433079
 31
0.0
  0
LINE
  5
163
330
25
100
AcDbEntity
  8
1
  6
Continuous
 62
     0
100
AcDbLine
 10
13757.81263036251
 20
-2570.586972971873
 30
0.0
 11
13757.81263036251
 21
-2565.406239433079
 31
0.0
  0
LINE
  5
162
330
25
100
AcDbEntity
  8
1
  6
Continuous
 62
     0
100
AcDbLine
 10
10369.62870787668
 20
-1233.444279344058
 30
0.0
 11
10378.15888287667
 21
-1233.444279344058
 31
0.0
  0
LINE
  5
161
330
25
100
AcDbEntity
  8
1
  6
Continuous
 62
     0
100
AcDbLine
 10
10369.62870787668
 20
-1236.117879344058
 30
0.0
 11
10377.21933287667
 21
-1236.117879344058
 31
0.0
  0
LINE
  5
160
330
25
100
AcDbEntity
  8
1
  6
Continuous
 62
     0
100
AcDbLine
 10
10378.15888287667
 20
-1233.444279344058
 30
0.0
 11
10377.21933287667
 21
-1236.117879344058
 31
0.0
  0
LINE
  5
15F
330
25
100
AcDbEntity
  8
1
  6
Continuous
 62
     0
100
AcDbLine
 10
10378.15888287667
 20
-1233.444279344058
 30
0.0
 11
10378.27870787667
 21
-1229.609879344058
 31
0.0
  0
LINE
  5
15E
330
25
100
AcDbEntity
  8
1
  6
Continuous
 62
     0
100
AcDbLine
 10
10361.09853287668
 20
-1233.444279344058
 30
0.0
 11
10360.97870787667
 21
-1229.609879344058
 31
0.0
  0
LINE
  5
15D
330
25
100
AcDbEntity
  8
1
  6
Continuous
 62
     0
100
AcDbLine
 10
10362.03808287667
 20
-1236.117879344058
 30
0.0
 11
10361.09853287668
 21
-1233.444279344058
 31
0.0
  0
LINE
  5
15C
330
25
100
AcDbEntity
  8
1
  6
Continuous
 62
     0
100
AcDbLine
 10
10361.29770787667
 20
-1239.817879344058
 30
0.0
 11
10361.09853287668
 21
-1233.444279344058
 31
0.0
  0
LINE
  5
15B
330
25
100
AcDbEntity
  8
1
  6
Continuous
 62
     0
100
AcDbLine
 10
10362.15370787667
 20
-1239.817879344058
 30
0.0
 11
10362.03808287667
 21
-1236.117879344058
 31
0.0
  0
LINE
  5
15A
330
25
100
AcDbEntity
  8
1
  6
Continuous
 62
     0
100
AcDbLine
 10
10377.10370787667
 20
-1239.817879344058
 30
0.0
 11
10377.21933287667
 21
-1236.117879344058
 31
0.0
  0
LINE
  5
159
330
25
100
AcDbEntity
  8
1
  6
Continuous
 62
     0
100
AcDbLine
 10
10377.95970787667
 20
-1239.817879344058
 30
0.0
 11
10378.15888287667
 21
-1233.444279344058
 31
0.0
  0
LINE
  5
158
330
25
100
AcDbEntity
  8
1
  6
Continuous
 62
     0
100
AcDbLine
 10
10362.03808287667
 20
-1236.117879344058
 30
0.0
 11
10369.62870787668
 21
-1236.117879344058
 31
0.0
  0
LINE
  5
157
330
25
100
AcDbEntity
  8
1
  6
Continuous
 62
     0
100
AcDbLine
 10
10361.09853287668
 20
-1233.444279344058
 30
0.0
 11
10369.62870787668
 21
-1233.444279344058
 31
0.0
  0
LINE
  5
156
330
25
100
AcDbEntity
  8
1
  6
Continuous
 62
     0
100
AcDbLine
 10
10360.93364537667
 20
-1228.167879344058
 30
0.0
 11
10360.97870787667
 21
-1229.609879344058
 31
0.0
  0
LINE
  5
155
330
25
100
AcDbEntity
  8
1
  6
Continuous
 62
     0
100
AcDbLine
 10
10360.93364537667
 20
-1228.167879344058
 30
0.0
 11
10378.32377037667
 21
-1228.167879344058
 31
0.0
  0
LINE
  5
154
330
25
100
AcDbEntity
  8
1
  6
Continuous
 62
     0
100
AcDbLine
 10
10378.32377037667
 20
-1228.167879344058
 30
0.0
 11
10378.27870787667
 21
-1229.609879344058
 31
0.0
  0
LINE
  5
153
330
25
100
AcDbEntity
  8
1
  6
Continuous
 62
     0
100
AcDbLine
 10
10376.62870787668
 20
-1216.167879344058
 30
0.0
 11
10376.62870787668
 21
-1228.167879344058
 31
0.0
  0
LINE
  5
152
330
25
100
AcDbEntity
  8
1
  6
Continuous
 62
     0
100
AcDbLine
 10
10362.62870787668
 20
-1216.167879344058
 30
0.0
 11
10362.62870787668
 21
-1228.167879344058
 31
0.0
  0
LINE
  5
151
330
25
100
AcDbEntity
  8
1
  6
Continuous
 62
     0
100
AcDbLine
 10
10376.62870787668
 20
-1216.167879344058
 30
0.0
 11
10378.62870787668
 21
-1216.167879344058
 31
0.0
  0
LINE
  5
150
330
25
100
AcDbEntity
  8
1
  6
Continuous
 62
     0
100
AcDbLine
 10
10378.62870787668
 20
-1214.13635893528
 30
0.0
 11
10378.62870787668
 21
-1216.167879344058
 31
0.0
  0
LINE
  5
14F
330
25
100
AcDbEntity
  8
1
  6
Continuous
 62
     0
100
AcDbLine
 10
10360.62870787668
 20
-1214.13635893528
 30
0.0
 11
10360.62870787668
 21
-1216.167879344058
 31
0.0
  0
LINE
  5
14E
330
25
100
AcDbEntity
  8
1
  6
Continuous
 62
     0
100
AcDbLine
 10
10360.62083654932
 20
-1216.167879344058
 30
0.0
 11
10362.62870787668
 21
-1216.167879344058
 31
0.0
  0
LINE
  5
14B
330
25
100
AcDbEntity
  8
1
  6
Continuous
 62
     0
100
AcDbLine
 10
10403.11708091808
 20
-1198.620091987861
 30
0.0
 11
10401.99421553417
 21
-1197.971805356195
 31
0.0
  0
LINE
  5
14A
330
25
100
AcDbEntity
  8
1
  6
Continuous
 62
     0
100
AcDbLine
 10
10333.39646324413
 20
-1193.968884082375
 30
0.0
 11
10334.52450966059
 21
-1193.317606180179
 31
0.0
  0
LINE
  5
149
330
25
100
AcDbEntity
  8
1
  6
Continuous
 62
     0
100
AcDbLine
 10
10405.81708091808
 20
-1193.943554807425
 30
0.0
 11
10404.69085058774
 21
-1193.293325423031
 31
0.0
  0
LINE
  5
148
330
25
100
AcDbEntity
  8
1
  6
Continuous
 62
     0
100
AcDbLine
 10
10336.09646324413
 20
-1198.645421262811
 30
0.0
 11
10337.23072200452
 21
-1197.990556662171
 31
0.0
  0
LINE
  5
147
330
25
100
AcDbEntity
  8
1
  6
Continuous
 62
     0
100
AcDbLine
 10
10405.81708091808
 20
-1193.943554807425
 30
0.0
 11
10403.11708091808
 21
-1198.620091987861
 31
0.0
  0
LINE
  5
146
330
25
100
AcDbEntity
  8
1
  6
Continuous
 62
     0
100
AcDbLine
 10
10336.09646324413
 20
-1198.645421262811
 30
0.0
 11
10333.39646324413
 21
-1193.968884082375
 31
0.0
  0
LINE
  5
145
330
25
100
AcDbEntity
  8
1
  6
Continuous
 62
     0
100
AcDbLine
 10
10372.32870787667
 20
-1135.88933268699
 30
0.0
 11
10372.32870787667
 21
-1137.185905950321
 31
0.0
  0
LINE
  5
144
330
25
100
AcDbEntity
  8
1
  6
Continuous
 62
     0
100
AcDbLine
 10
10366.92870787667
 20
-1135.88933268699
 30
0.0
 11
10372.32870787667
 21
-1135.88933268699
 31
0.0
  0
LINE
  5
143
330
25
100
AcDbEntity
  8
1
  6
Continuous
 62
     0
100
AcDbLine
 10
10366.92870787667
 20
-1137.179744357442
 30
0.0
 11
10366.92870787667
 21
-1135.88933268699
 31
0.0
  0
LINE
  5
142
330
25
100
AcDbEntity
  8
1
  6
Continuous
 62
     0
100
AcDbLine
 10
10349.23472659635
 20
-1196.207729714893
 30
0.0
 11
10345.09410607877
 21
-1200.34835023247
 31
0.0
  0
LINE
  5
141
330
25
100
AcDbEntity
  8
1
  6
Continuous
 62
     0
100
AcDbLine
 10
10389.84870805581
 20
-1196.388696941762
 30
0.0
 11
10393.99011877285
 21
-1200.530107658795
 31
0.0
  0
LINE
  5
140
330
25
100
AcDbEntity
  8
1
  6
Continuous
 62
     0
100
AcDbLine
 10
10366.26706394054
 20
-1177.486770356769
 30
0.0
 11
10348.24106099063
 21
-1196.997360808673
 31
0.0
  0
LINE
  5
13F
330
25
100
AcDbEntity
  8
1
  6
Continuous
 62
     0
100
AcDbLine
 10
10368.30981686396
 20
-1179.529523280197
 30
0.0
 11
10348.44509550257
 21
-1197.201395320612
 31
0.0
  0
LINE
  5
13C
330
25
100
AcDbEntity
  8
1
  6
Continuous
 62
     0
100
AcDbLine
 10
10369.66792565147
 20
-1186.558875965695
 30
0.0
 11
10369.62870787668
 21
-1188.805660779464
 31
0.0
  0
LINE
  5
13B
330
25
100
AcDbEntity
  8
1
  6
Continuous
 62
     0
100
AcDbLine
 10
10369.62870787668
 20
-1188.805660779464
 30
0.0
 11
10369.58949010187
 21
-1186.558875965695
 31
0.0
  0
LINE
  5
139
330
25
100
AcDbEntity
  8
1
  6
Continuous
 62
     0
100
AcDbLine
 10
10369.62870787668
 20
-1188.805660779464
 30
0.0
 11
10367.70254403851
 21
-1189.96301677561
 31
0.0
  0
LINE
  5
138
330
25
100
AcDbEntity
  8
1
  6
Continuous
 62
     0
100
AcDbLine
 10
10367.66332626371
 20
-1189.89508959709
 30
0.0
 11
10369.62870787668
 21
-1188.805660779464
 31
0.0
  0
LINE
  5
137
330
25
100
AcDbEntity
  8
1
  6
Continuous
 62
     0
100
AcDbLine
 10
10369.62870787668
 20
-1188.805660779464
 30
0.0
 11
10371.59408948964
 21
-1189.89508959709
 31
0.0
  0
LINE
  5
136
330
25
100
AcDbEntity
  8
1
  6
Continuous
 62
     0
100
AcDbLine
 10
10371.55487171483
 20
-1189.96301677561
 30
0.0
 11
10369.62870787668
 21
-1188.805660779464
 31
0.0
  0
LINE
  5
135
330
25
100
AcDbEntity
  8
1
  6
Continuous
 62
     0
100
AcDbLine
 10
10361.29770787667
 20
-1285.815333060892
 30
0.0
 11
10361.08989537667
 21
-1292.465333060893
 31
0.0
  0
LINE
  5
134
330
25
100
AcDbEntity
  8
1
  6
Continuous
 62
     0
100
AcDbLine
 10
10377.95970787667
 20
-1285.815333060892
 30
0.0
 11
10378.16752037667
 21
-1292.465333060893
 31
0.0
  0
LINE
  5
133
330
25
100
AcDbEntity
  8
1
  6
Continuous
 62
     0
100
AcDbLine
 10
10375.62870787668
 20
-1292.465333060893
 30
0.0
 11
10375.62870787668
 21
-1301.465333060893
 31
0.0
  0
LINE
  5
132
330
25
100
AcDbEntity
  8
1
  6
Continuous
 62
     0
100
AcDbLine
 10
10375.62870787668
 20
-1301.465333060893
 30
0.0
 11
10363.62870787668
 21
-1301.465333060893
 31
0.0
  0
LINE
  5
131
330
25
100
AcDbEntity
  8
1
  6
Continuous
 62
     0
100
AcDbLine
 10
10363.62870787668
 20
-1301.465333060893
 30
0.0
 11
10363.62870787668
 21
-1292.465333060893
 31
0.0
  0
LINE
  5
12F
330
25
100
AcDbEntity
  8
1
  6
Continuous
 62
     0
100
AcDbLine
 10
10378.16752037667
 20
-1292.465333060893
 30
0.0
 11
10361.08989537667
 21
-1292.465333060893
 31
0.0
  0
LINE
  5
12C
330
25
100
AcDbEntity
  8
1
  6
Continuous
 62
     0
100
AcDbLine
 10
10981.66696399874
 20
-1034.096606202476
 30
0.0
 11
10984.66696399874
 21
-1035.828657010044
 31
0.0
  0
LINE
  5
12B
330
25
100
AcDbEntity
  8
1
  6
Continuous
 62
     0
100
AcDbLine
 10
10984.66696399874
 20
-1035.828657010044
 30
0.0
 11
10984.66696399874
 21
-1042.096606202476
 31
0.0
  0
LINE
  5
12A
330
25
100
AcDbEntity
  8
1
  6
Continuous
 62
     0
100
AcDbLine
 10
10984.66696399874
 20
-1042.096606202476
 30
0.0
 11
10947.66696399874
 21
-1042.096606202476
 31
0.0
  0
LINE
  5
129
330
25
100
AcDbEntity
  8
1
  6
Continuous
 62
     0
100
AcDbLine
 10
10947.66696399874
 20
-1042.096606202476
 30
0.0
 11
10947.66696399874
 21
-1035.828657010044
 31
0.0
  0
LINE
  5
128
330
25
100
AcDbEntity
  8
1
  6
Continuous
 62
     0
100
AcDbLine
 10
10947.66696399874
 20
-1035.828657010044
 30
0.0
 11
10950.66696399874
 21
-1034.096606202476
 31
0.0
  0
LINE
  5
127
330
25
100
AcDbEntity
  8
1
  6
Continuous
 62
     0
100
AcDbLine
 10
10950.66696399874
 20
-1034.096606202476
 30
0.0
 11
10981.66696399874
 21
-1034.096606202476
 31
0.0
  0
LINE
  5
126
330
25
100
AcDbEntity
  8
1
  6
Continuous
 62
     0
100
AcDbLine
 10
10981.16696399874
 20
-1025.596606202476
 30
0.0
 11
10981.16696399874
 21
-1034.106905077127
 31
0.0
  0
LINE
  5
125
330
25
100
AcDbEntity
  8
1
  6
Continuous
 62
     0
100
AcDbLine
 10
10951.16696399874
 20
-1025.596606202476
 30
0.0
 11
10951.16696399874
 21
-1034.096606202476
 31
0.0
  0
LINE
  5
124
330
25
100
AcDbEntity
  8
1
  6
Continuous
 62
     0
100
AcDbLine
 10
10975.41696399874
 20
-1035.828657010044
 30
0.0
 11
10975.41696399874
 21
-1042.096606202476
 31
0.0
  0
LINE
  5
123
330
25
100
AcDbEntity
  8
1
  6
Continuous
 62
     0
100
AcDbLine
 10
10956.91696399874
 20
-1035.828657010044
 30
0.0
 11
10956.91696399874
 21
-1042.096606202476
 31
0.0
  0
LINE
  5
122
330
25
100
AcDbEntity
  8
1
  6
Continuous
 62
     0
100
AcDbLine
 10
10986.16696399874
 20
-1043.096606202476
 30
0.0
 11
10986.16696399874
 21
-1045.096606202476
 31
0.0
  0
LINE
  5
121
330
25
100
AcDbEntity
  8
1
  6
Continuous
 62
     0
100
AcDbLine
 10
10947.16696399874
 20
-1042.096606202476
 30
0.0
 11
10985.16696399874
 21
-1042.096606202476
 31
0.0
  0
LINE
  5
120
330
25
100
AcDbEntity
  8
1
  6
Continuous
 62
     0
100
AcDbLine
 10
10946.16696399874
 20
-1043.096606202476
 30
0.0
 11
10946.16696399874
 21
-1045.096606202476
 31
0.0
  0
LINE
  5
11F
330
25
100
AcDbEntity
  8
1
  6
Continuous
 62
     0
100
AcDbLine
 10
10992.66696399874
 20
-1093.694682413828
 30
0.0
 11
10992.66696399874
 21
-1101.096606202476
 31
0.0
  0
LINE
  5
11E
330
25
100
AcDbEntity
  8
1
  6
Continuous
 62
     0
100
AcDbLine
 10
10992.66696399874
 20
-1101.096606202476
 30
0.0
 11
10939.66696399874
 21
-1101.096606202476
 31
0.0
  0
LINE
  5
11D
330
25
100
AcDbEntity
  8
1
  6
Continuous
 62
     0
100
AcDbLine
 10
10939.66696399874
 20
-1101.096606202476
 30
0.0
 11
10939.66696399874
 21
-1093.694682413828
 31
0.0
  0
LINE
  5
11C
330
25
100
AcDbEntity
  8
1
  6
Continuous
 62
     0
100
AcDbLine
 10
10979.41696399874
 20
-1093.694682413828
 30
0.0
 11
10979.41696399874
 21
-1101.096606202476
 31
0.0
  0
LINE
  5
11B
330
25
100
AcDbEntity
  8
1
  6
Continuous
 62
     0
100
AcDbLine
 10
10952.91696399874
 20
-1093.694682413828
 30
0.0
 11
10952.91696399874
 21
-1101.096606202476
 31
0.0
  0
LINE
  5
11A
330
25
100
AcDbEntity
  8
1
  6
Continuous
 62
     0
100
AcDbLine
 10
10941.16696399874
 20
-1092.828657010044
 30
0.0
 11
10941.16696399874
 21
-1049.096606202476
 31
0.0
  0
LINE
  5
119
330
25
100
AcDbEntity
  8
1
  6
Continuous
 62
     0
100
AcDbLine
 10
10991.16696399874
 20
-1092.828657010044
 30
0.0
 11
10991.16696399874
 21
-1049.096606202476
 31
0.0
  0
LINE
  5
118
330
25
100
AcDbEntity
  8
1
  6
Continuous
 62
     0
100
AcDbLine
 10
10943.16696399874
 20
-1047.096606202476
 30
0.0
 11
10944.16696399874
 21
-1047.096606202476
 31
0.0
  0
LINE
  5
117
330
25
100
AcDbEntity
  8
1
  6
Continuous
 62
     0
100
AcDbLine
 10
10989.16696399874
 20
-1047.096606202476
 30
0.0
 11
10988.16696399874
 21
-1047.096606202476
 31
0.0
  0
LINE
  5
116
330
25
100
AcDbEntity
  8
1
  6
Continuous
 62
     0
100
AcDbLine
 10
10944.16696399874
 20
-1047.096606202476
 30
0.0
 11
10946.16696399874
 21
-1047.096606202476
 31
0.0
  0
LINE
  5
115
330
25
100
AcDbEntity
  8
1
  6
Continuous
 62
     0
100
AcDbLine
 10
10986.16696399874
 20
-1047.096606202476
 30
0.0
 11
10946.16696399874
 21
-1047.096606202476
 31
0.0
  0
LINE
  5
114
330
25
100
AcDbEntity
  8
1
  6
Continuous
 62
     0
100
AcDbLine
 10
10988.16696399874
 20
-1047.096606202476
 30
0.0
 11
10986.16696399874
 21
-1047.096606202476
 31
0.0
  0
LINE
  5
113
330
25
100
AcDbEntity
  8
1
  6
Continuous
 62
     0
100
AcDbLine
 10
10988.16696399874
 20
-1091.096606202476
 30
0.0
 11
10992.66696399874
 21
-1093.694682413828
 31
0.0
  0
LINE
  5
112
330
25
100
AcDbEntity
  8
1
  6
Continuous
 62
     0
100
AcDbLine
 10
10988.16696399874
 20
-1091.096606202476
 30
0.0
 11
10944.16696399874
 21
-1091.096606202476
 31
0.0
  0
LINE
  5
111
330
25
100
AcDbEntity
  8
1
  6
Continuous
 62
     0
100
AcDbLine
 10
10944.16696399874
 20
-1091.096606202476
 30
0.0
 11
10939.66696399874
 21
-1093.694682413828
 31
0.0
  0
LINE
  5
110
330
25
100
AcDbEntity
  8
1
  6
Continuous
 62
     0
100
AcDbLine
 10
10939.66696399874
 20
-1101.096606202476
 30
0.0
 11
10931.16696399874
 21
-1101.096606202476
 31
0.0
  0
LINE
  5
10F
330
25
100
AcDbEntity
  8
1
  6
Continuous
 62
     0
100
AcDbLine
 10
10926.16696399874
 20
-1106.096606202476
 30
0.0
 11
10926.16696399874
 21
-1159.596606202475
 31
0.0
  0
LINE
  5
10E
330
25
100
AcDbEntity
  8
1
  6
Continuous
 62
     0
100
AcDbLine
 10
11006.16696399874
 20
-1164.596606202475
 30
0.0
 11
10931.16696399874
 21
-1164.596606202475
 31
0.0
  0
LINE
  5
10D
330
25
100
AcDbEntity
  8
1
  6
Continuous
 62
     0
100
AcDbLine
 10
11006.16696399874
 20
-1164.596606202475
 30
0.0
 11
11006.16696399874
 21
-1164.096606202475
 31
0.0
  0
LINE
  5
10C
330
25
100
AcDbEntity
  8
1
  6
Continuous
 62
     0
100
AcDbLine
 10
11007.16696399874
 20
-1163.096606202475
 30
0.0
 11
11012.16696399874
 21
-1163.096606202475
 31
0.0
  0
LINE
  5
10B
330
25
100
AcDbEntity
  8
1
  6
Continuous
 62
     0
100
AcDbLine
 10
11013.16696399874
 20
-1164.596606202475
 30
0.0
 11
11013.16696399874
 21
-1164.096606202475
 31
0.0
  0
LINE
  5
10A
330
25
100
AcDbEntity
  8
1
  6
Continuous
 62
     0
100
AcDbLine
 10
11013.16696399874
 20
-1164.596606202475
 30
0.0
 11
11018.16696399874
 21
-1164.596606202475
 31
0.0
  0
LINE
  5
109
330
25
100
AcDbEntity
  8
1
  6
Continuous
 62
     0
100
AcDbLine
 10
11018.16696399874
 20
-1164.596606202475
 30
0.0
 11
11018.16696399874
 21
-1106.596606202476
 31
0.0
  0
LINE
  5
108
330
25
100
AcDbEntity
  8
1
  6
Continuous
 62
     0
100
AcDbLine
 10
11018.16696399874
 20
-1106.596606202476
 30
0.0
 11
11013.16696399874
 21
-1106.596606202476
 31
0.0
  0
LINE
  5
107
330
25
100
AcDbEntity
  8
1
  6
Continuous
 62
     0
100
AcDbLine
 10
11013.16696399874
 20
-1106.596606202476
 30
0.0
 11
11013.16696399874
 21
-1107.096606202476
 31
0.0
  0
LINE
  5
106
330
25
100
AcDbEntity
  8
1
  6
Continuous
 62
     0
100
AcDbLine
 10
11007.16696399874
 20
-1108.096606202476
 30
0.0
 11
11012.16696399874
 21
-1108.096606202476
 31
0.0
  0
LINE
  5
105
330
25
100
AcDbEntity
  8
1
  6
Continuous
 62
     0
100
AcDbLine
 10
11006.16696399874
 20
-1106.096606202476
 30
0.0
 11
11006.16696399874
 21
-1107.096606202476
 31
0.0
  0
LINE
  5
104
330
25
100
AcDbEntity
  8
1
  6
Continuous
 62
     0
100
AcDbLine
 10
10992.66696399874
 20
-1101.096606202476
 30
0.0
 11
11001.16696399874
 21
-1101.096606202476
 31
0.0
  0
LINE
  5
103
330
25
100
AcDbEntity
  8
1
  6
Continuous
 62
     0
100
AcDbLine
 10
10987.16696399874
 20
-1190.596606202475
 30
0.0
 11
10945.16696399874
 21
-1190.596606202475
 31
0.0
  0
LINE
  5
102
330
25
100
AcDbEntity
  8
1
  6
Continuous
 62
     0
100
AcDbLine
 10
11001.16696399874
 20
-1164.596606202475
 30
0.0
 11
10931.16696399874
 21
-1164.596606202475
 31
0.0
  0
LINE
  5
101
330
25
100
AcDbEntity
  8
1
  6
Continuous
 62
     0
100
AcDbLine
 10
10996.66696399874
 20
-1175.596606202475
 30
0.0
 11
10935.66696399874
 21
-1175.596606202475
 31
0.0
  0
LINE
  5
100
330
25
100
AcDbEntity
  8
1
  6
Continuous
 62
     0
100
AcDbLine
 10
10935.66696399874
 20
-1175.596606202475
 30
0.0
 11
10935.66696399874
 21
-1188.287205125716
 31
0.0
  0
LINE
  5
FF
330
25
100
AcDbEntity
  8
1
  6
Continuous
 62
     0
100
AcDbLine
 10
10998.16696399874
 20
-1175.596606202475
 30
0.0
 11
10934.16696399874
 21
-1175.596606202475
 31
0.0
  0
LINE
  5
FE
330
25
100
AcDbEntity
  8
1
  6
Continuous
 62
     0
100
AcDbLine
 10
11001.16696399874
 20
-1164.596606202475
 30
0.0
 11
10931.16696399874
 21
-1164.596606202475
 31
0.0
  0
LINE
  5
FD
330
25
100
AcDbEntity
  8
1
  6
Continuous
 62
     0
100
AcDbLine
 10
10939.66696399874
 20
-1190.596606202475
 30
0.0
 11
10992.66696399874
 21
-1190.596606202475
 31
0.0
  0
LINE
  5
FC
330
25
100
AcDbEntity
  8
1
  6
Continuous
 62
     0
100
AcDbLine
 10
10996.66696399874
 20
-1188.287205125716
 30
0.0
 11
10996.66696399874
 21
-1175.596606202475
 31
0.0
  0
LINE
  5
FB
330
25
100
AcDbEntity
  8
1
  6
Continuous
 62
     0
100
AcDbLine
 10
10996.66696399874
 20
-1188.287205125716
 30
0.0
 11
10992.66696399874
 21
-1190.596606202475
 31
0.0
  0
LINE
  5
FA
330
25
100
AcDbEntity
  8
1
  6
Continuous
 62
     0
100
AcDbLine
 10
10935.66696399874
 20
-1188.287205125716
 30
0.0
 11
10939.66696399874
 21
-1190.596606202475
 31
0.0
  0
LINE
  5
F9
330
25
100
AcDbEntity
  8
1
  6
Continuous
 62
     0
100
AcDbLine
 10
10981.41696399874
 20
-1188.287205125716
 30
0.0
 11
10981.41696399874
 21
-1175.596606202475
 31
0.0
  0
LINE
  5
F8
330
25
100
AcDbEntity
  8
1
  6
Continuous
 62
     0
100
AcDbLine
 10
10950.91696399874
 20
-1188.287205125716
 30
0.0
 11
10950.91696399874
 21
-1175.596606202475
 31
0.0
  0
LINE
  5
F7
330
25
100
AcDbEntity
  8
1
  6
Continuous
 62
     0
100
AcDbLine
 10
11013.16696399874
 20
-1107.237851210447
 30
0.0
 11
11013.16696399874
 21
-1164.596606202475
 31
0.0
  0
LINE
  5
F6
330
25
100
AcDbEntity
  8
1
  6
Continuous
 62
     0
100
AcDbLine
 10
13165.96922730231
 20
-1188.287205125716
 30
0.0
 11
13165.96922730231
 21
-1175.596606202475
 31
0.0
  0
LINE
  5
F5
330
25
100
AcDbEntity
  8
1
  6
Continuous
 62
     0
100
AcDbLine
 10
13196.46922730231
 20
-1188.287205125716
 30
0.0
 11
13196.46922730231
 21
-1175.596606202475
 31
0.0
  0
LINE
  5
F4
330
25
100
AcDbEntity
  8
1
  6
Continuous
 62
     0
100
AcDbLine
 10
13150.71922730231
 20
-1188.287205125716
 30
0.0
 11
13154.71922730231
 21
-1190.596606202475
 31
0.0
  0
LINE
  5
F3
330
25
100
AcDbEntity
  8
1
  6
Continuous
 62
     0
100
AcDbLine
 10
13211.71922730231
 20
-1188.287205125716
 30
0.0
 11
13207.71922730231
 21
-1190.596606202475
 31
0.0
  0
LINE
  5
F2
330
25
100
AcDbEntity
  8
1
  6
Continuous
 62
     0
100
AcDbLine
 10
13211.71922730231
 20
-1188.287205125716
 30
0.0
 11
13211.71922730231
 21
-1175.596606202475
 31
0.0
  0
LINE
  5
F1
330
25
100
AcDbEntity
  8
1
  6
Continuous
 62
     0
100
AcDbLine
 10
13154.71922730231
 20
-1190.596606202475
 30
0.0
 11
13207.71922730231
 21
-1190.596606202475
 31
0.0
  0
LINE
  5
F0
330
25
100
AcDbEntity
  8
1
  6
Continuous
 62
     0
100
AcDbLine
 10
13216.21922730231
 20
-1164.596606202475
 30
0.0
 11
13146.21922730231
 21
-1164.596606202475
 31
0.0
  0
LINE
  5
EF
330
25
100
AcDbEntity
  8
1
  6
Continuous
 62
     0
100
AcDbLine
 10
13213.21922730231
 20
-1175.596606202475
 30
0.0
 11
13149.21922730231
 21
-1175.596606202475
 31
0.0
  0
LINE
  5
EE
330
25
100
AcDbEntity
  8
1
  6
Continuous
 62
     0
100
AcDbLine
 10
13150.71922730231
 20
-1175.596606202475
 30
0.0
 11
13150.71922730231
 21
-1188.287205125716
 31
0.0
  0
LINE
  5
ED
330
25
100
AcDbEntity
  8
1
  6
Continuous
 62
     0
100
AcDbLine
 10
13211.71922730231
 20
-1175.596606202475
 30
0.0
 11
13150.71922730231
 21
-1175.596606202475
 31
0.0
  0
LINE
  5
EC
330
25
100
AcDbEntity
  8
1
  6
Continuous
 62
     0
100
AcDbLine
 10
13216.21922730231
 20
-1164.596606202475
 30
0.0
 11
13146.21922730231
 21
-1164.596606202475
 31
0.0
  0
LINE
  5
EB
330
25
100
AcDbEntity
  8
1
  6
Continuous
 62
     0
100
AcDbLine
 10
13202.21922730231
 20
-1190.596606202475
 30
0.0
 11
13160.21922730231
 21
-1190.596606202475
 31
0.0
  0
LINE
  5
EA
330
25
100
AcDbEntity
  8
1
  6
Continuous
 62
     0
100
AcDbLine
 10
13207.71922730231
 20
-1101.096606202476
 30
0.0
 11
13216.21922730231
 21
-1101.096606202476
 31
0.0
  0
LINE
  5
E9
330
25
100
AcDbEntity
  8
1
  6
Continuous
 62
     0
100
AcDbLine
 10
13221.21922730231
 20
-1106.096606202476
 30
0.0
 11
13221.21922730231
 21
-1159.596606202475
 31
0.0
  0
LINE
  5
E8
330
25
100
AcDbEntity
  8
1
  6
Continuous
 62
     0
100
AcDbLine
 10
13146.21922730231
 20
-1164.596606202475
 30
0.0
 11
13216.21922730231
 21
-1164.596606202475
 31
0.0
  0
LINE
  5
E7
330
25
100
AcDbEntity
  8
1
  6
Continuous
 62
     0
100
AcDbLine
 10
13141.21922730231
 20
-1106.096606202476
 30
0.0
 11
13141.21922730231
 21
-1159.596606202475
 31
0.0
  0
LINE
  5
E6
330
25
100
AcDbEntity
  8
1
  6
Continuous
 62
     0
100
AcDbLine
 10
13154.71922730231
 20
-1101.096606202476
 30
0.0
 11
13146.21922730231
 21
-1101.096606202476
 31
0.0
  0
LINE
  5
E5
330
25
100
AcDbEntity
  8
1
  6
Continuous
 62
     0
100
AcDbLine
 10
13159.21922730231
 20
-1091.096606202476
 30
0.0
 11
13154.71922730231
 21
-1093.694682413828
 31
0.0
  0
LINE
  5
E4
330
25
100
AcDbEntity
  8
1
  6
Continuous
 62
     0
100
AcDbLine
 10
13203.21922730231
 20
-1091.096606202476
 30
0.0
 11
13159.21922730231
 21
-1091.096606202476
 31
0.0
  0
LINE
  5
E3
330
25
100
AcDbEntity
  8
1
  6
Continuous
 62
     0
100
AcDbLine
 10
13203.21922730231
 20
-1091.096606202476
 30
0.0
 11
13207.71922730231
 21
-1093.694682413828
 31
0.0
  0
LINE
  5
E2
330
25
100
AcDbEntity
  8
1
  6
Continuous
 62
     0
100
AcDbLine
 10
13203.21922730231
 20
-1047.09593486389
 30
0.0
 11
13201.21922730231
 21
-1047.09593486389
 31
0.0
  0
LINE
  5
E1
330
25
100
AcDbEntity
  8
1
  6
Continuous
 62
     0
100
AcDbLine
 10
13201.21922730231
 20
-1047.09593486389
 30
0.0
 11
13161.21922730231
 21
-1047.09593486389
 31
0.0
  0
LINE
  5
E0
330
25
100
AcDbEntity
  8
1
  6
Continuous
 62
     0
100
AcDbLine
 10
13159.21922730231
 20
-1047.09593486389
 30
0.0
 11
13161.21922730231
 21
-1047.09593486389
 31
0.0
  0
LINE
  5
DF
330
25
100
AcDbEntity
  8
1
  6
Continuous
 62
     0
100
AcDbLine
 10
13204.21922730231
 20
-1047.09593486389
 30
0.0
 11
13203.21922730231
 21
-1047.09593486389
 31
0.0
  0
LINE
  5
DE
330
25
100
AcDbEntity
  8
1
  6
Continuous
 62
     0
100
AcDbLine
 10
13158.21922730231
 20
-1047.09593486389
 30
0.0
 11
13159.21922730231
 21
-1047.09593486389
 31
0.0
  0
LINE
  5
DD
330
25
100
AcDbEntity
  8
1
  6
Continuous
 62
     0
100
AcDbLine
 10
13206.21922730231
 20
-1092.828657010044
 30
0.0
 11
13206.21922730231
 21
-1049.09593486389
 31
0.0
  0
LINE
  5
DC
330
25
100
AcDbEntity
  8
1
  6
Continuous
 62
     0
100
AcDbLine
 10
13156.21922730231
 20
-1092.828657010044
 30
0.0
 11
13156.21922730231
 21
-1049.09593486389
 31
0.0
  0
LINE
  5
DB
330
25
100
AcDbEntity
  8
1
  6
Continuous
 62
     0
100
AcDbLine
 10
13167.96922730231
 20
-1093.694682413828
 30
0.0
 11
13167.96922730231
 21
-1101.096606202476
 31
0.0
  0
LINE
  5
DA
330
25
100
AcDbEntity
  8
1
  6
Continuous
 62
     0
100
AcDbLine
 10
13194.46922730231
 20
-1093.694682413828
 30
0.0
 11
13194.46922730231
 21
-1101.096606202476
 31
0.0
  0
LINE
  5
D9
330
25
100
AcDbEntity
  8
1
  6
Continuous
 62
     0
100
AcDbLine
 10
13154.71922730231
 20
-1101.096606202476
 30
0.0
 11
13154.71922730231
 21
-1093.694682413828
 31
0.0
  0
LINE
  5
D8
330
25
100
AcDbEntity
  8
1
  6
Continuous
 62
     0
100
AcDbLine
 10
13207.71922730231
 20
-1101.096606202476
 30
0.0
 11
13154.71922730231
 21
-1101.096606202476
 31
0.0
  0
LINE
  5
D7
330
25
100
AcDbEntity
  8
1
  6
Continuous
 62
     0
100
AcDbLine
 10
13207.71922730231
 20
-1093.694682413828
 30
0.0
 11
13207.71922730231
 21
-1101.096606202476
 31
0.0
  0
LINE
  5
D6
330
25
100
AcDbEntity
  8
1
  6
Continuous
 62
     0
100
AcDbLine
 10
13161.21922730231
 20
-1043.09593486389
 30
0.0
 11
13161.21922730231
 21
-1045.09593486389
 31
0.0
  0
LINE
  5
D5
330
25
100
AcDbEntity
  8
1
  6
Continuous
 62
     0
100
AcDbLine
 10
13162.21922730231
 20
-1042.09593486389
 30
0.0
 11
13200.21922730231
 21
-1042.09593486389
 31
0.0
  0
LINE
  5
D4
330
25
100
AcDbEntity
  8
1
  6
Continuous
 62
     0
100
AcDbLine
 10
13201.21922730231
 20
-1043.09593486389
 30
0.0
 11
13201.21922730231
 21
-1045.09593486389
 31
0.0
  0
LINE
  5
D3
330
25
100
AcDbEntity
  8
1
  6
Continuous
 62
     0
100
AcDbLine
 10
13171.96922730231
 20
-1035.827985671459
 30
0.0
 11
13171.96922730231
 21
-1042.09593486389
 31
0.0
  0
LINE
  5
D2
330
25
100
AcDbEntity
  8
1
  6
Continuous
 62
     0
100
AcDbLine
 10
13190.46922730231
 20
-1035.827985671459
 30
0.0
 11
13190.46922730231
 21
-1042.09593486389
 31
0.0
  0
LINE
  5
D1
330
25
100
AcDbEntity
  8
1
  6
Continuous
 62
     0
100
AcDbLine
 10
13166.21922730231
 20
-1025.59593486389
 30
0.0
 11
13166.21922730231
 21
-1034.09593486389
 31
0.0
  0
LINE
  5
D0
330
25
100
AcDbEntity
  8
1
  6
Continuous
 62
     0
100
AcDbLine
 10
13196.21922730231
 20
-1025.59593486389
 30
0.0
 11
13196.21922730231
 21
-1034.106233738541
 31
0.0
  0
LINE
  5
CF
330
25
100
AcDbEntity
  8
1
  6
Continuous
 62
     0
100
AcDbLine
 10
13165.71922730231
 20
-1034.09593486389
 30
0.0
 11
13196.71922730231
 21
-1034.09593486389
 31
0.0
  0
LINE
  5
CE
330
25
100
AcDbEntity
  8
1
  6
Continuous
 62
     0
100
AcDbLine
 10
13162.71922730231
 20
-1035.827985671459
 30
0.0
 11
13165.71922730231
 21
-1034.09593486389
 31
0.0
  0
LINE
  5
CD
330
25
100
AcDbEntity
  8
1
  6
Continuous
 62
     0
100
AcDbLine
 10
13162.71922730231
 20
-1042.09593486389
 30
0.0
 11
13162.71922730231
 21
-1035.827985671459
 31
0.0
  0
LINE
  5
CC
330
25
100
AcDbEntity
  8
1
  6
Continuous
 62
     0
100
AcDbLine
 10
13199.71922730231
 20
-1042.09593486389
 30
0.0
 11
13162.71922730231
 21
-1042.09593486389
 31
0.0
  0
LINE
  5
CB
330
25
100
AcDbEntity
  8
1
  6
Continuous
 62
     0
100
AcDbLine
 10
13199.71922730231
 20
-1035.827985671459
 30
0.0
 11
13199.71922730231
 21
-1042.09593486389
 31
0.0
  0
LINE
  5
CA
330
25
100
AcDbEntity
  8
1
  6
Continuous
 62
     0
100
AcDbLine
 10
13196.71922730231
 20
-1034.09593486389
 30
0.0
 11
13199.71922730231
 21
-1035.827985671459
 31
0.0
  0
LINE
  5
C8
330
25
100
AcDbEntity
  8
1
  6
Continuous
 62
     0
100
AcDbLine
 10
13240.1926303625
 20
-1232.566606202475
 30
0.0
 11
13240.1926303625
 21
-1293.066606202475
 31
0.0
  0
LINE
  5
C7
330
25
100
AcDbEntity
  8
1
  6
Continuous
 62
     0
100
AcDbLine
 10
13236.1926303625
 20
-1293.066606202475
 30
0.0
 11
13236.1926303625
 21
-1232.566606202475
 31
0.0
  0
LINE
  5
C6
330
25
100
AcDbEntity
  8
1
  6
Continuous
 62
     0
100
AcDbLine
 10
13236.1926303625
 20
-1293.066606202475
 30
0.0
 11
13240.1926303625
 21
-1293.066606202475
 31
0.0
  0
LINE
  5
C5
330
25
100
AcDbEntity
  8
1
  6
Continuous
 62
     0
100
AcDbLine
 10
13240.1926303625
 20
-1232.566606202475
 30
0.0
 11
13236.1926303625
 21
-1232.566606202475
 31
0.0
  0
LINE
  5
C4
330
25
100
AcDbEntity
  8
1
  6
Continuous
 62
     0
100
AcDbLine
 10
13240.1926303625
 20
-1293.066606202475
 30
0.0
 11
13251.31263036251
 21
-1292.623606202475
 31
0.0
  0
LINE
  5
C3
330
25
100
AcDbEntity
  8
1
  6
Continuous
 62
     0
100
AcDbLine
 10
13240.1926303625
 20
-1232.566606202475
 30
0.0
 11
13251.31263036251
 21
-1233.009606202475
 31
0.0
  0
LINE
  5
C2
330
25
100
AcDbEntity
  8
1
  6
Continuous
 62
     0
100
AcDbLine
 10
13236.1926303625
 20
-1293.066606202475
 30
0.0
 11
13225.0726303625
 21
-1292.623606202475
 31
0.0
  0
LINE
  5
C1
330
25
100
AcDbEntity
  8
1
  6
Continuous
 62
     0
100
AcDbLine
 10
13225.0726303625
 20
-1233.009606202475
 30
0.0
 11
13236.1926303625
 21
-1232.566606202475
 31
0.0
  0
LINE
  5
C0
330
25
100
AcDbEntity
  8
1
  6
Continuous
 62
     0
100
AcDbLine
 10
13181.0773128673
 20
-1211.816606202475
 30
0.0
 11
13203.09023058938
 21
-1211.816606202475
 31
0.0
  0
LINE
  5
BF
330
25
100
AcDbEntity
  8
1
  6
Continuous
 62
     0
100
AcDbLine
 10
13160.5773128673
 20
-1220.981687384739
 30
0.0
 11
13160.5773128673
 21
-1252.318150735047
 31
0.0
  0
LINE
  5
BE
330
25
100
AcDbEntity
  8
1
  6
Continuous
 62
     0
100
AcDbLine
 10
13201.5773128673
 20
-1220.981687384739
 30
0.0
 11
13201.5773128673
 21
-1222.315061669903
 31
0.0
  0
LINE
  5
BD
330
25
100
AcDbEntity
  8
1
  6
Continuous
 62
     0
100
AcDbLine
 10
13159.06439514523
 20
-1211.816606202475
 30
0.0
 11
13181.0773128673
 21
-1211.816606202475
 31
0.0
  0
LINE
  5
BC
330
25
100
AcDbEntity
  8
1
  6
Continuous
 62
     0
100
AcDbLine
 10
13159.06439514523
 20
-1211.816606202475
 30
0.0
 11
13159.06439514523
 21
-1216.816606202475
 31
0.0
  0
LINE
  5
BB
330
25
100
AcDbEntity
  8
1
  6
Continuous
 62
     0
100
AcDbLine
 10
13203.09023058938
 20
-1211.816606202475
 30
0.0
 11
13203.09023058938
 21
-1216.816606202475
 31
0.0
  0
LINE
  5
BA
330
25
100
AcDbEntity
  8
1
  6
Continuous
 62
     0
100
AcDbLine
 10
13159.06439514523
 20
-1216.816606202475
 30
0.0
 11
13203.09023058938
 21
-1216.816606202475
 31
0.0
  0
LINE
  5
B8
330
25
100
AcDbEntity
  8
1
  6
Continuous
 62
     0
100
AcDbLine
 10
13214.68780682776
 20
-1297.318150735047
 30
0.0
 11
13205.5773128673
 21
-1297.318150735047
 31
0.0
  0
LINE
  5
B7
330
25
100
AcDbEntity
  8
1
  6
Continuous
 62
     0
100
AcDbLine
 10
13225.0726303625
 20
-1298.818150735047
 30
0.0
 11
13225.0726303625
 21
-1262.816606202475
 31
0.0
  0
LINE
  5
B6
330
25
100
AcDbEntity
  8
1
  6
Continuous
 62
     0
100
AcDbLine
 10
13220.0726303625
 20
-1298.818150735047
 30
0.0
 11
13225.0726303625
 21
-1298.818150735047
 31
0.0
  0
LINE
  5
B5
330
25
100
AcDbEntity
  8
1
  6
Continuous
 62
     0
100
AcDbLine
 10
13220.0726303625
 20
-1226.815061669903
 30
0.0
 11
13225.0726303625
 21
-1226.815061669903
 31
0.0
  0
LINE
  5
B4
330
25
100
AcDbEntity
  8
1
  6
Continuous
 62
     0
100
AcDbLine
 10
13220.0726303625
 20
-1297.318150735047
 30
0.0
 11
13220.0726303625
 21
-1228.315061669903
 31
0.0
  0
LINE
  5
B3
330
25
100
AcDbEntity
  8
1
  6
Continuous
 62
     0
100
AcDbLine
 10
13220.0726303625
 20
-1228.315061669903
 30
0.0
 11
13220.0726303625
 21
-1226.815061669903
 31
0.0
  0
LINE
  5
B2
330
25
100
AcDbEntity
  8
1
  6
Continuous
 62
     0
100
AcDbLine
 10
13220.0726303625
 20
-1297.318150735047
 30
0.0
 11
13220.0726303625
 21
-1298.818150735047
 31
0.0
  0
LINE
  5
B1
330
25
100
AcDbEntity
  8
1
  6
Continuous
 62
     0
100
AcDbLine
 10
13225.0726303625
 20
-1262.816606202475
 30
0.0
 11
13225.0726303625
 21
-1226.815061669903
 31
0.0
  0
LINE
  5
B0
330
25
100
AcDbEntity
  8
1
  6
Continuous
 62
     0
100
AcDbLine
 10
13214.68780682776
 20
-1228.315061669903
 30
0.0
 11
13207.5773128673
 21
-1228.315061669903
 31
0.0
  0
LINE
  5
AF
330
25
100
AcDbEntity
  8
1
  6
Continuous
 62
     0
100
AcDbLine
 10
13164.0773128673
 20
-1199.356606202475
 30
0.0
 11
13198.0773128673
 21
-1199.356606202475
 31
0.0
  0
LINE
  5
AE
330
25
100
AcDbEntity
  8
1
  6
Continuous
 62
     0
100
AcDbLine
 10
13198.0773128673
 20
-1203.056606202475
 30
0.0
 11
13164.0773128673
 21
-1203.056606202475
 31
0.0
  0
LINE
  5
AD
330
25
100
AcDbEntity
  8
1
  6
Continuous
 62
     0
100
AcDbLine
 10
13164.0773128673
 20
-1199.356606202475
 30
0.0
 11
13164.0773128673
 21
-1203.056606202475
 31
0.0
  0
LINE
  5
AC
330
25
100
AcDbEntity
  8
1
  6
Continuous
 62
     0
100
AcDbLine
 10
13198.0773128673
 20
-1203.056606202475
 30
0.0
 11
13198.0773128673
 21
-1199.356606202475
 31
0.0
  0
LINE
  5
AB
330
25
100
AcDbEntity
  8
1
  6
Continuous
 62
     0
100
AcDbLine
 10
13164.0773128673
 20
-1199.356606202475
 30
0.0
 11
13164.4528128673
 21
-1190.596606202475
 31
0.0
  0
LINE
  5
AA
330
25
100
AcDbEntity
  8
1
  6
Continuous
 62
     0
100
AcDbLine
 10
13164.0773128673
 20
-1203.056606202475
 30
0.0
 11
13164.4528128673
 21
-1211.816606202475
 31
0.0
  0
LINE
  5
A9
330
25
100
AcDbEntity
  8
1
  6
Continuous
 62
     0
100
AcDbLine
 10
13197.7018128673
 20
-1211.816606202475
 30
0.0
 11
13198.0773128673
 21
-1203.056606202475
 31
0.0
  0
LINE
  5
A8
330
25
100
AcDbEntity
  8
1
  6
Continuous
 62
     0
100
AcDbLine
 10
13197.7018128673
 20
-1190.596606202475
 30
0.0
 11
13198.0773128673
 21
-1199.356606202475
 31
0.0
  0
LINE
  5
A6
330
25
100
AcDbEntity
  8
1
  6
Continuous
 62
     0
100
AcDbLine
 10
13216.21922730231
 20
-1164.596606202475
 30
0.0
 11
13216.21922730231
 21
-1172.596606202475
 31
0.0
  0
LINE
  5
A5
330
25
100
AcDbEntity
  8
1
  6
Continuous
 62
     0
100
AcDbLine
 10
13146.21922730231
 20
-1164.596606202475
 30
0.0
 11
13146.21922730231
 21
-1172.596606202475
 31
0.0
  0
LINE
  5
A4
330
25
100
AcDbEntity
  8
1
  6
Continuous
 62
     0
100
AcDbLine
 10
13204.21922730231
 20
-1048.09593486389
 30
0.0
 11
13204.21922730231
 21
-1090.519255933286
 31
0.0
  0
LINE
  5
A3
330
25
100
AcDbEntity
  8
1
  6
Continuous
 62
     0
100
AcDbLine
 10
13202.21922730231
 20
-1048.09593486389
 30
0.0
 11
13202.21922730231
 21
-1090.096606202476
 31
0.0
  0
LINE
  5
A2
330
25
100
AcDbEntity
  8
1
  6
Continuous
 62
     0
100
AcDbLine
 10
13189.55256063564
 20
-1048.09593486389
 30
0.0
 11
13189.55256063564
 21
-1090.096606202476
 31
0.0
  0
LINE
  5
A1
330
25
100
AcDbEntity
  8
1
  6
Continuous
 62
     0
100
AcDbLine
 10
13187.55256063564
 20
-1048.09593486389
 30
0.0
 11
13187.55256063564
 21
-1090.096606202476
 31
0.0
  0
LINE
  5
A0
330
25
100
AcDbEntity
  8
1
  6
Continuous
 62
     0
100
AcDbLine
 10
13174.88589396898
 20
-1048.09593486389
 30
0.0
 11
13174.88589396898
 21
-1090.096606202476
 31
0.0
  0
LINE
  5
9F
330
25
100
AcDbEntity
  8
1
  6
Continuous
 62
     0
100
AcDbLine
 10
13172.88589396898
 20
-1048.09593486389
 30
0.0
 11
13172.88589396898
 21
-1090.096606202476
 31
0.0
  0
LINE
  5
9E
330
25
100
AcDbEntity
  8
1
  6
Continuous
 62
     0
100
AcDbLine
 10
13160.21922730231
 20
-1048.09593486389
 30
0.0
 11
13160.21922730231
 21
-1090.096606202476
 31
0.0
  0
LINE
  5
9D
330
25
100
AcDbEntity
  8
1
  6
Continuous
 62
     0
100
AcDbLine
 10
13158.21922730231
 20
-1048.09593486389
 30
0.0
 11
13158.21922730231
 21
-1090.519255933286
 31
0.0
  0
LINE
  5
9C
330
25
100
AcDbEntity
  8
1
  6
Continuous
 62
     0
100
AcDbLine
 10
10982.79146399874
 20
-1190.596606202475
 30
0.0
 11
10983.16696399874
 21
-1199.356606202475
 31
0.0
  0
LINE
  5
9B
330
25
100
AcDbEntity
  8
1
  6
Continuous
 62
     0
100
AcDbLine
 10
10982.79146399874
 20
-1211.816606202475
 30
0.0
 11
10983.16696399874
 21
-1203.056606202475
 31
0.0
  0
LINE
  5
9A
330
25
100
AcDbEntity
  8
1
  6
Continuous
 62
     0
100
AcDbLine
 10
10949.16696399874
 20
-1203.056606202475
 30
0.0
 11
10949.54246399874
 21
-1211.816606202475
 31
0.0
  0
LINE
  5
99
330
25
100
AcDbEntity
  8
1
  6
Continuous
 62
     0
100
AcDbLine
 10
10949.16696399874
 20
-1199.356606202475
 30
0.0
 11
10949.54246399874
 21
-1190.596606202475
 31
0.0
  0
LINE
  5
98
330
25
100
AcDbEntity
  8
1
  6
Continuous
 62
     0
100
AcDbLine
 10
10983.16696399874
 20
-1203.056606202475
 30
0.0
 11
10983.16696399874
 21
-1199.356606202475
 31
0.0
  0
LINE
  5
97
330
25
100
AcDbEntity
  8
1
  6
Continuous
 62
     0
100
AcDbLine
 10
10949.16696399874
 20
-1199.356606202475
 30
0.0
 11
10949.16696399874
 21
-1203.056606202475
 31
0.0
  0
LINE
  5
96
330
25
100
AcDbEntity
  8
1
  6
Continuous
 62
     0
100
AcDbLine
 10
10983.16696399874
 20
-1203.056606202475
 30
0.0
 11
10949.16696399874
 21
-1203.056606202475
 31
0.0
  0
LINE
  5
95
330
25
100
AcDbEntity
  8
1
  6
Continuous
 62
     0
100
AcDbLine
 10
10949.16696399874
 20
-1199.356606202475
 30
0.0
 11
10983.16696399874
 21
-1199.356606202475
 31
0.0
  0
LINE
  5
94
330
25
100
AcDbEntity
  8
1
  6
Continuous
 62
     0
100
AcDbLine
 10
10944.15404627667
 20
-1216.816606202475
 30
0.0
 11
10988.17988172082
 21
-1216.816606202475
 31
0.0
  0
LINE
  5
93
330
25
100
AcDbEntity
  8
1
  6
Continuous
 62
     0
100
AcDbLine
 10
10988.17988172082
 20
-1211.816606202475
 30
0.0
 11
10988.17988172082
 21
-1216.816606202475
 31
0.0
  0
LINE
  5
92
330
25
100
AcDbEntity
  8
1
  6
Continuous
 62
     0
100
AcDbLine
 10
10944.15404627667
 20
-1211.816606202475
 30
0.0
 11
10944.15404627667
 21
-1216.816606202475
 31
0.0
  0
LINE
  5
91
330
25
100
AcDbEntity
  8
1
  6
Continuous
 62
     0
100
AcDbLine
 10
10944.15404627667
 20
-1211.816606202475
 30
0.0
 11
10966.16696399874
 21
-1211.816606202475
 31
0.0
  0
LINE
  5
90
330
25
100
AcDbEntity
  8
1
  6
Continuous
 62
     0
100
AcDbLine
 10
10966.16696399874
 20
-1211.816606202475
 30
0.0
 11
10988.17988172082
 21
-1211.816606202475
 31
0.0
  0
LINE
  5
8F
330
25
100
AcDbEntity
  8
1
  6
Continuous
 62
     0
100
AcDbLine
 10
10987.30887843375
 20
-1190.596606202475
 30
0.0
 11
10945.30887843375
 21
-1190.596606202475
 31
0.0
  0
LINE
  5
8E
330
25
100
AcDbEntity
  8
1
  6
Continuous
 62
     0
100
AcDbLine
 10
10939.80887843375
 20
-1190.596606202475
 30
0.0
 11
10992.80887843375
 21
-1190.596606202475
 31
0.0
  0
LINE
  5
8D
330
25
100
AcDbEntity
  8
1
  6
Continuous
 62
     0
100
AcDbLine
 10
10996.80887843375
 20
-1188.287205125716
 30
0.0
 11
10992.80887843375
 21
-1190.596606202475
 31
0.0
  0
LINE
  5
8C
330
25
100
AcDbEntity
  8
1
  6
Continuous
 62
     0
100
AcDbLine
 10
10935.80887843375
 20
-1188.287205125716
 30
0.0
 11
10939.80887843375
 21
-1190.596606202475
 31
0.0
  0
LINE
  5
8B
330
25
100
AcDbEntity
  8
1
  6
Continuous
 62
     0
100
AcDbLine
 10
10945.66696399874
 20
-1220.981687384739
 30
0.0
 11
10945.66696399874
 21
-1222.689318142014
 31
0.0
  0
LINE
  5
8A
330
25
100
AcDbEntity
  8
1
  6
Continuous
 62
     0
100
AcDbLine
 10
10986.66696399874
 20
-1220.981687384739
 30
0.0
 11
10986.66696399874
 21
-1222.315061669904
 31
0.0
  0
LINE
  5
89
330
25
100
AcDbEntity
  8
1
  6
Continuous
 62
     0
100
AcDbLine
 10
10986.66696399874
 20
-1222.689318142013
 30
0.0
 11
10986.66696399874
 21
-1220.981687384739
 31
0.0
  0
LINE
  5
88
330
25
100
AcDbEntity
  8
1
  6
Continuous
 62
     0
100
AcDbLine
 10
11001.16696399874
 20
-1164.596606202475
 30
0.0
 11
11001.16696399874
 21
-1172.596606202475
 31
0.0
  0
LINE
  5
87
330
25
100
AcDbEntity
  8
1
  6
Continuous
 62
     0
100
AcDbLine
 10
10931.16696399874
 20
-1164.596606202475
 30
0.0
 11
10931.16696399874
 21
-1172.596606202475
 31
0.0
  0
LINE
  5
86
330
25
100
AcDbEntity
  8
1
  6
Continuous
 62
     0
100
AcDbLine
 10
10989.16696399874
 20
-1048.096606202476
 30
0.0
 11
10989.16696399874
 21
-1090.519255933286
 31
0.0
  0
LINE
  5
85
330
25
100
AcDbEntity
  8
1
  6
Continuous
 62
     0
100
AcDbLine
 10
10987.16696399874
 20
-1048.096606202476
 30
0.0
 11
10987.16696399874
 21
-1090.096606202476
 31
0.0
  0
LINE
  5
84
330
25
100
AcDbEntity
  8
1
  6
Continuous
 62
     0
100
AcDbLine
 10
10974.50029733208
 20
-1048.096606202476
 30
0.0
 11
10974.50029733208
 21
-1090.096606202476
 31
0.0
  0
LINE
  5
83
330
25
100
AcDbEntity
  8
1
  6
Continuous
 62
     0
100
AcDbLine
 10
10972.50029733208
 20
-1048.096606202476
 30
0.0
 11
10972.50029733208
 21
-1090.096606202476
 31
0.0
  0
LINE
  5
82
330
25
100
AcDbEntity
  8
1
  6
Continuous
 62
     0
100
AcDbLine
 10
10959.83363066541
 20
-1048.096606202476
 30
0.0
 11
10959.83363066541
 21
-1090.096606202476
 31
0.0
  0
LINE
  5
81
330
25
100
AcDbEntity
  8
1
  6
Continuous
 62
     0
100
AcDbLine
 10
10957.83363066541
 20
-1048.096606202476
 30
0.0
 11
10957.83363066541
 21
-1090.096606202476
 31
0.0
  0
LINE
  5
80
330
25
100
AcDbEntity
  8
1
  6
Continuous
 62
     0
100
AcDbLine
 10
10945.16696399874
 20
-1048.096606202476
 30
0.0
 11
10945.16696399874
 21
-1090.096606202476
 31
0.0
  0
LINE
  5
7F
330
25
100
AcDbEntity
  8
1
  6
Continuous
 62
     0
100
AcDbLine
 10
10943.16696399874
 20
-1048.096606202476
 30
0.0
 11
10943.16696399874
 21
-1090.519255933286
 31
0.0
  0
LINE
  5
7E
330
25
100
AcDbEntity
  8
1
  6
Continuous
 62
     0
100
AcDbLine
 10
10482.16696399874
 20
-2299.816606202475
 30
0.0
 11
10482.16696399874
 21
-2319.731092290837
 31
0.0
  0
LINE
  5
7D
330
25
100
AcDbEntity
  8
1
  6
Continuous
 62
     0
100
AcDbLine
 10
10482.16696399874
 20
-2299.816606202475
 30
0.0
 11
10966.16696399874
 21
-2299.816606202475
 31
0.0
  0
LINE
  5
7C
330
25
100
AcDbEntity
  8
1
  6
Continuous
 62
     0
100
AcDbLine
 10
10616.16696399874
 20
-2446.666537601924
 30
0.0
 11
10616.16696399874
 21
-2512.816606202476
 31
0.0
  0
LINE
  5
7B
330
25
100
AcDbEntity
  8
1
  6
Continuous
 62
     0
100
AcDbLine
 10
10966.16696399874
 20
-2299.816606202475
 30
0.0
 11
11450.16696399874
 21
-2299.816606202475
 31
0.0
  0
LINE
  5
7A
330
25
100
AcDbEntity
  8
1
  6
Continuous
 62
     0
100
AcDbLine
 10
11450.16696399874
 20
-2319.731092290837
 30
0.0
 11
11450.16696399874
 21
-2299.816606202475
 31
0.0
  0
LINE
  5
79
330
25
100
AcDbEntity
  8
1
  6
Continuous
 62
     0
100
AcDbLine
 10
11450.16696399874
 20
-463.816606202475
 30
0.0
 11
10966.16696399874
 21
-463.816606202475
 31
0.0
  0
LINE
  5
78
330
25
100
AcDbEntity
  8
1
  6
Continuous
 62
     0
100
AcDbLine
 10
10966.16696399874
 20
-463.816606202475
 30
0.0
 11
10482.16696399874
 21
-463.816606202475
 31
0.0
  0
LINE
  5
77
330
25
100
AcDbEntity
  8
1
  6
Continuous
 62
     0
100
AcDbLine
 10
10482.16696399874
 20
-443.902120114113
 30
0.0
 11
10482.16696399874
 21
-463.816606202475
 31
0.0
  0
LINE
  5
76
330
25
100
AcDbEntity
  8
1
  6
Continuous
 62
     0
100
AcDbLine
 10
11450.16696399874
 20
-463.816606202475
 30
0.0
 11
11450.16696399874
 21
-443.902120114113
 31
0.0
  0
LINE
  5
75
330
25
100
AcDbEntity
  8
1
  6
Continuous
 62
     0
100
AcDbLine
 10
10482.16696399874
 20
-443.902120114113
 30
0.0
 11
10482.16696399874
 21
-463.816606202475
 31
0.0
  0
LINE
  5
74
330
25
100
AcDbEntity
  8
1
  6
Continuous
 62
     0
100
AcDbLine
 10
11230.26154337421
 20
-281.334078895702
 30
0.0
 11
11229.9893771014
 21
-283.173505905236
 31
0.0
  0
LINE
  5
73
330
25
100
AcDbEntity
  8
1
  6
Continuous
 62
     0
100
AcDbLine
 10
11229.37857484456
 20
-271.352633773776
 30
0.0
 11
11218.73572777085
 21
-267.217147400085
 31
0.0
  0
LINE
  5
72
330
25
100
AcDbEntity
  8
1
  6
Continuous
 62
     0
100
AcDbLine
 10
11218.73572777085
 20
-267.217147400085
 30
0.0
 11
11207.45100864958
 21
-265.477160119851
 31
0.0
  0
LINE
  5
71
330
25
100
AcDbEntity
  8
1
  6
Continuous
 62
     0
100
AcDbLine
 10
11201.01160231273
 20
-275.40893455216
 30
0.0
 11
11201.69561291119
 21
-273.679860897092
 31
0.0
  0
LINE
  5
70
330
25
100
AcDbEntity
  8
1
  6
Continuous
 62
     0
100
AcDbLine
 10
11228.69528187589
 20
-288.00313503668
 30
0.0
 11
11229.9893771014
 21
-283.173505905236
 31
0.0
  0
LINE
  5
6F
330
25
100
AcDbEntity
  8
1
  6
Continuous
 62
     0
100
AcDbLine
 10
11199.71750708722
 20
-280.238563683605
 30
0.0
 11
11201.01160231273
 21
-275.40893455216
 31
0.0
  0
LINE
  5
6E
330
25
100
AcDbEntity
  8
1
  6
Continuous
 62
     0
100
AcDbLine
 10
11213.2941873154
 20
-267.31200530008
 30
0.0
 11
11226.06714259806
 21
-270.734508353027
 31
0.0
  0
LINE
  5
6D
330
25
100
AcDbEntity
  8
1
  6
Continuous
 62
     0
100
AcDbLine
 10
11231.25970194485
 20
-274.588056268928
 30
0.0
 11
11230.17939235536
 21
-281.88929391693
 31
0.0
  0
LINE
  5
6C
330
25
100
AcDbEntity
  8
1
  6
Continuous
 62
     0
100
AcDbLine
 10
11201.69561291119
 20
-273.679860897092
 30
0.0
 11
11204.2041935454
 21
-267.338554642485
 31
0.0
  0
LINE
  5
6B
330
25
100
AcDbEntity
  8
1
  6
Continuous
 62
     0
100
AcDbLine
 10
11201.01160231273
 20
-275.40893455216
 30
0.0
 11
11229.9893771014
 21
-283.173505905236
 31
0.0
  0
LINE
  5
6A
330
25
100
AcDbEntity
  8
1
  6
Continuous
 62
     0
100
AcDbLine
 10
10482.16696399874
 20
-2299.816606202475
 30
0.0
 11
10482.16696399874
 21
-2099.816606202475
 31
0.0
  0
LINE
  5
69
330
25
100
AcDbEntity
  8
1
  6
Continuous
 62
     0
100
AcDbLine
 10
13761.56263036251
 20
-226.740600404942
 30
0.0
 11
13761.56263036251
 21
-278.087492185106
 31
0.0
  0
LINE
  5
68
330
25
100
AcDbEntity
  8
1
  6
Continuous
 62
     0
100
AcDbLine
 10
13749.06263036251
 20
-226.740600404942
 30
0.0
 11
13749.06263036251
 21
-278.087492185106
 31
0.0
  0
LINE
  5
67
330
25
100
AcDbEntity
  8
1
  6
Continuous
 62
     0
100
AcDbLine
 10
13742.1962633803
 20
-270.245871319349
 30
0.0
 11
13740.31263036251
 21
-284.120781640896
 31
0.0
  0
LINE
  5
66
330
25
100
AcDbEntity
  8
1
  6
Continuous
 62
     0
100
AcDbLine
 10
13768.35337903766
 20
-270.245546709685
 30
0.0
 11
13770.31263036251
 21
-284.120781640855
 31
0.0
  0
LINE
  5
63
330
25
100
AcDbEntity
  8
1
  6
Continuous
 62
     0
100
AcDbLine
 10
10616.16696399874
 20
-2446.666537601924
 30
0.0
 11
11316.16696399874
 21
-2446.666537601924
 31
0.0
  0
LINE
  5
62
330
25
100
AcDbEntity
  8
1
  6
Continuous
 62
     0
100
AcDbLine
 10
13405.31263036251
 20
-2446.666537601924
 30
0.0
 11
14105.31263036251
 21
-2446.666537601924
 31
0.0
  0
LINE
  5
61
330
25
100
AcDbEntity
  8
1
  6
Continuous
 62
     0
100
AcDbLine
 10
14105.31263036251
 20
-2512.816606202476
 30
0.0
 11
14105.31263036251
 21
-2446.666537601924
 31
0.0
  0
LINE
  5
60
330
25
100
AcDbEntity
  8
1
  6
Continuous
 62
     0
100
AcDbLine
 10
13421.07970844118
 20
-2583.411680266121
 30
0.0
 11
13421.07970844118
 21
-2803.816606202476
 31
0.0
  0
LINE
  5
5F
330
25
100
AcDbEntity
  8
1
  6
Continuous
 62
     0
100
AcDbLine
 10
13421.07970844118
 20
-2583.411680266121
 30
0.0
 11
13421.07970844118
 21
-2803.816606202476
 31
0.0
  0
LINE
  5
5E
330
25
100
AcDbEntity
  8
1
  6
Continuous
 62
     0
100
AcDbLine
 10
13405.31263036251
 20
-2446.666537601924
 30
0.0
 11
13405.31263036251
 21
-2512.816606202476
 31
0.0
  0
LINE
  5
5D
330
25
100
AcDbEntity
  8
1
  6
Continuous
 62
     0
100
AcDbLine
 10
14105.31263036251
 20
-2512.816606202476
 30
0.0
 11
14105.31263036251
 21
-2446.666537601924
 31
0.0
  0
LINE
  5
5C
330
25
100
AcDbEntity
  8
1
  6
Continuous
 62
     0
100
AcDbLine
 10
14089.54555228383
 20
-2803.816606202476
 30
0.0
 11
14089.54555228383
 21
-2583.411680266121
 31
0.0
  0
LINE
  5
5B
330
25
100
AcDbEntity
  8
1
  6
Continuous
 62
     0
100
AcDbLine
 10
10966.16696399874
 20
-4098.011451575379
 30
0.0
 11
10979.66696399874
 21
-4098.011451575379
 31
0.0
  0
LINE
  5
59
330
25
100
AcDbEntity
  8
1
  6
Continuous
 62
     0
100
AcDbLine
 10
10975.08467852156
 20
-4081.01145157538
 30
0.0
 11
10975.08467852156
 21
-4084.01145157538
 31
0.0
  0
LINE
  5
58
330
25
100
AcDbEntity
  8
1
  6
Continuous
 62
     0
100
AcDbLine
 10
10992.16086899775
 20
-4088.01145157538
 30
0.0
 11
10991.01801185489
 21
-4084.01145157538
 31
0.0
  0
LINE
  5
57
330
25
100
AcDbEntity
  8
1
  6
Continuous
 62
     0
100
AcDbLine
 10
10989.15134518823
 20
-4088.01145157538
 30
0.0
 11
10988.00848804537
 21
-4084.01145157538
 31
0.0
  0
LINE
  5
56
330
25
100
AcDbEntity
  8
1
  6
Continuous
 62
     0
100
AcDbLine
 10
10976.08467852156
 20
-4084.01145157538
 30
0.0
 11
10976.08467852156
 21
-4088.01145157538
 31
0.0
  0
LINE
  5
55
330
25
100
AcDbEntity
  8
1
  6
Continuous
 62
     0
100
AcDbLine
 10
10997.01288175184
 20
-4088.01145157538
 30
0.0
 11
10997.01288175184
 21
-4096.939654805652
 31
0.0
  0
LINE
  5
54
330
25
100
AcDbEntity
  8
1
  6
Continuous
 62
     0
100
AcDbLine
 10
10983.15647529128
 20
-4088.01145157538
 30
0.0
 11
10983.15647529128
 21
-4096.939654805652
 31
0.0
  0
LINE
  5
53
330
25
100
AcDbEntity
  8
1
  6
Continuous
 62
     0
100
AcDbLine
 10
10976.22827206101
 20
-4088.01145157538
 30
0.0
 11
10976.22827206101
 21
-4096.939654805652
 31
0.0
  0
LINE
  5
52
330
25
100
AcDbEntity
  8
1
  6
Continuous
 62
     0
100
AcDbLine
 10
10976.22827206101
 20
-4096.939654805652
 30
0.0
 11
10978.08467852156
 21
-4098.01145157538
 31
0.0
  0
LINE
  5
51
330
25
100
AcDbEntity
  8
1
  6
Continuous
 62
     0
100
AcDbLine
 10
10928.39284301537
 20
-4096.939654805652
 30
0.0
 11
10930.24924947592
 21
-4098.01145157538
 31
0.0
  0
LINE
  5
50
330
25
100
AcDbEntity
  8
1
  6
Continuous
 62
     0
100
AcDbLine
 10
10954.24924947592
 20
-4098.01145157538
 30
0.0
 11
10956.10565593648
 21
-4096.939654805652
 31
0.0
  0
LINE
  5
4F
330
25
100
AcDbEntity
  8
1
  6
Continuous
 62
     0
100
AcDbLine
 10
10956.10565593648
 20
-4096.939654805652
 30
0.0
 11
10956.10565593648
 21
-4088.01145157538
 31
0.0
  0
LINE
  5
4E
330
25
100
AcDbEntity
  8
1
  6
Continuous
 62
     0
100
AcDbLine
 10
10930.24924947592
 20
-4098.01145157538
 30
0.0
 11
10954.24924947592
 21
-4098.01145157538
 31
0.0
  0
LINE
  5
4D
330
25
100
AcDbEntity
  8
1
  6
Continuous
 62
     0
100
AcDbLine
 10
10928.39284301537
 20
-4088.01145157538
 30
0.0
 11
10928.39284301537
 21
-4096.939654805652
 31
0.0
  0
LINE
  5
4C
330
25
100
AcDbEntity
  8
1
  6
Continuous
 62
     0
100
AcDbLine
 10
10949.1774527062
 20
-4096.939654805652
 30
0.0
 11
10949.1774527062
 21
-4088.01145157538
 31
0.0
  0
LINE
  5
4B
330
25
100
AcDbEntity
  8
1
  6
Continuous
 62
     0
100
AcDbLine
 10
10935.32104624565
 20
-4096.939654805652
 30
0.0
 11
10935.32104624565
 21
-4088.01145157538
 31
0.0
  0
LINE
  5
4A
330
25
100
AcDbEntity
  8
1
  6
Continuous
 62
     0
100
AcDbLine
 10
10956.24924947592
 20
-4088.01145157538
 30
0.0
 11
10956.24924947592
 21
-4084.01145157538
 31
0.0
  0
LINE
  5
49
330
25
100
AcDbEntity
  8
1
  6
Continuous
 62
     0
100
AcDbLine
 10
10928.24924947592
 20
-4088.01145157538
 30
0.0
 11
10956.24924947592
 21
-4088.01145157538
 31
0.0
  0
LINE
  5
48
330
25
100
AcDbEntity
  8
1
  6
Continuous
 62
     0
100
AcDbLine
 10
10928.24924947592
 20
-4084.01145157538
 30
0.0
 11
10928.24924947592
 21
-4088.01145157538
 31
0.0
  0
LINE
  5
47
330
25
100
AcDbEntity
  8
1
  6
Continuous
 62
     0
100
AcDbLine
 10
10944.32543995211
 20
-4084.01145157538
 30
0.0
 11
10943.18258280926
 21
-4088.01145157538
 31
0.0
  0
LINE
  5
46
330
25
100
AcDbEntity
  8
1
  6
Continuous
 62
     0
100
AcDbLine
 10
10941.31591614259
 20
-4084.01145157538
 30
0.0
 11
10940.17305899973
 21
-4088.01145157538
 31
0.0
  0
LINE
  5
45
330
25
100
AcDbEntity
  8
1
  6
Continuous
 62
     0
100
AcDbLine
 10
10957.24924947592
 20
-4084.01145157538
 30
0.0
 11
10957.24924947592
 21
-4081.01145157538
 31
0.0
  0
LINE
  5
44
330
25
100
AcDbEntity
  8
1
  6
Continuous
 62
     0
100
AcDbLine
 10
10927.24924947592
 20
-4084.01145157538
 30
0.0
 11
10957.24924947592
 21
-4084.01145157538
 31
0.0
  0
LINE
  5
43
330
25
100
AcDbEntity
  8
1
  6
Continuous
 62
     0
100
AcDbLine
 10
10927.24924947592
 20
-4081.01145157538
 30
0.0
 11
10927.24924947592
 21
-4084.01145157538
 31
0.0
  0
LINE
  5
42
330
25
100
AcDbEntity
  8
1
  6
Continuous
 62
     0
100
AcDbLine
 10
10957.24924947592
 20
-4081.01145157538
 30
0.0
 11
10927.24924947592
 21
-4081.01145157538
 31
0.0
  0
LINE
  5
40
330
25
100
AcDbEntity
  8
1
  6
Continuous
 62
     0
100
AcDbLine
 10
10923.42449321679
 20
-4084.01145157538
 30
0.0
 11
10923.42449321679
 21
-4081.01145157538
 31
0.0
  0
LINE
  5
3E
330
25
100
AcDbEntity
  8
1
  6
Continuous
 62
     0
100
AcDbLine
 10
10962.16696399874
 20
-4086.011451575379
 30
0.0
 11
10962.16696399874
 21
-4093.011451575379
 31
0.0
  0
LINE
  5
3D
330
25
100
AcDbEntity
  8
1
  6
Continuous
 62
     0
100
AcDbLine
 10
10970.16696399874
 20
-4093.011451575379
 30
0.0
 11
10970.16696399874
 21
-4086.011451575379
 31
0.0
  0
LINE
  5
3C
330
25
100
AcDbEntity
  8
1
  6
Continuous
 62
     0
100
AcDbLine
 10
10966.16696399874
 20
-4098.011451575379
 30
0.0
 11
10979.66696399874
 21
-4098.011451575379
 31
0.0
  0
LINE
  5
3B
330
25
100
AcDbEntity
  8
1
  6
Continuous
 62
     0
100
AcDbLine
 10
10961.59897291297
 20
-4095.011451575379
 30
0.0
 11
10956.10565593648
 21
-4095.011451575379
 31
0.0
  0
LINE
  5
3A
330
25
100
AcDbEntity
  8
1
  6
Continuous
 62
     0
100
AcDbLine
 10
10952.66696399874
 20
-4098.011451575379
 30
0.0
 11
10966.16696399874
 21
-4098.011451575379
 31
0.0
  0
LINE
  5
39
330
25
100
AcDbEntity
  8
1
  6
Continuous
 62
     0
100
AcDbLine
 10
10968.16696399874
 20
-4095.011451575379
 30
0.0
 11
10964.16696399874
 21
-4095.011451575379
 31
0.0
  0
LINE
  5
38
330
25
100
AcDbEntity
  8
1
  6
Continuous
 62
     0
100
AcDbLine
 10
10962.16696399874
 20
-4086.011451575379
 30
0.0
 11
10962.16696399874
 21
-4093.011451575379
 31
0.0
  0
LINE
  5
37
330
25
100
AcDbEntity
  8
1
  6
Continuous
 62
     0
100
AcDbLine
 10
10970.16696399874
 20
-4093.011451575379
 30
0.0
 11
10970.16696399874
 21
-4086.011451575379
 31
0.0
  0
LINE
  5
36
330
25
100
AcDbEntity
  8
1
  6
Continuous
 62
     0
100
AcDbLine
 10
10976.08467852156
 20
-4086.011451575379
 30
0.0
 11
10956.24924947592
 21
-4086.011451575379
 31
0.0
  0
LINE
  5
35
330
25
100
AcDbEntity
  8
1
  6
Continuous
 62
     0
100
AcDbLine
 10
10976.22827206101
 20
-4095.011451575379
 30
0.0
 11
10970.73495508451
 21
-4095.011451575379
 31
0.0
  0
LINE
  5
34
330
25
100
AcDbEntity
  8
1
  6
Continuous
 62
     0
100
AcDbLine
 10
10952.66696399874
 20
-4098.011451575379
 30
0.0
 11
10966.16696399874
 21
-4098.011451575379
 31
0.0
  0
LINE
  5
33
330
25
100
AcDbEntity
  8
1
  6
Continuous
 62
     0
100
AcDbLine
 10
10961.59897291297
 20
-4095.011451575379
 30
0.0
 11
10956.10565593648
 21
-4095.011451575379
 31
0.0
  0
LINE
  5
32
330
25
100
AcDbEntity
  8
1
  6
Continuous
 62
     0
100
AcDbLine
 10
10976.22827206101
 20
-4095.011451575379
 30
0.0
 11
10970.73495508451
 21
-4095.011451575379
 31
0.0
  0
LINE
  5
31
330
25
100
AcDbEntity
  8
1
  6
Continuous
 62
     0
100
AcDbLine
 10
10962.16696399874
 20
-4086.011451575379
 30
0.0
 11
10962.16696399874
 21
-4093.011451575379
 31
0.0
  0
LINE
  5
30
330
25
100
AcDbEntity
  8
1
  6
Continuous
 62
     0
100
AcDbLine
 10
10970.16696399874
 20
-4093.011451575379
 30
0.0
 11
10970.16696399874
 21
-4086.011451575379
 31
0.0
  0
LINE
  5
2F
330
25
100
AcDbEntity
  8
1
  6
Continuous
 62
     0
100
AcDbLine
 10
10968.16696399874
 20
-4095.011451575379
 30
0.0
 11
10964.16696399874
 21
-4095.011451575379
 31
0.0
  0
LINE
  5
2E
330
25
100
AcDbEntity
  8
1
  6
Continuous
 62
     0
100
AcDbLine
 10
10962.16696399874
 20
-4086.011451575379
 30
0.0
 11
10962.16696399874
 21
-4093.011451575379
 31
0.0
  0
LINE
  5
2D
330
25
100
AcDbEntity
  8
1
  6
Continuous
 62
     0
100
AcDbLine
 10
10970.16696399874
 20
-4093.011451575379
 30
0.0
 11
10970.16696399874
 21
-4086.011451575379
 31
0.0
  0
LINE
  5
2C
330
25
100
AcDbEntity
  8
1
  6
Continuous
 62
     0
100
AcDbLine
 10
10976.08467852156
 20
-4086.011451575379
 30
0.0
 11
10956.24924947592
 21
-4086.011451575379
 31
0.0
  0
POINT
  5
2B
330
25
100
AcDbEntity
  8
1
 62
     0
100
AcDbPoint
 10
10330.5084114318
 20
-1176.157775984361
 30
0.0
  0
POINT
  5
2A
330
25
100
AcDbEntity
  8
1
 62
     0
100
AcDbPoint
 10
11242.90171768287
 20
-220.313529728636
 30
0.0
  0
LINE
  5
A8F
330
25
100
AcDbEntity
  8
1
  6
Continuous
 62
     0
100
AcDbLine
 10
14257.31263036251
 20
-706.5590769844298
 30
0.0
 11
14254.31263036251
 21
-706.5590769844298
 31
0.0
  0
LINE
  5
A90
330
25
100
AcDbEntity
  8
1
  6
Continuous
 62
     0
100
AcDbLine
 10
14257.31263036251
 20
-722.4924103177641
 30
0.0
 11
14261.31263036251
 21
-723.635267460621
 31
0.0
  0
LINE
  5
A91
330
25
100
AcDbEntity
  8
1
  6
Continuous
 62
     0
100
AcDbLine
 10
14257.31263036251
 20
-719.48288650824
 30
0.0
 11
14261.31263036251
 21
-720.6257436510969
 31
0.0
  0
LINE
  5
A92
330
25
100
AcDbEntity
  8
1
  6
Continuous
 62
     0
100
AcDbLine
 10
14257.31263036251
 20
-735.5590769844298
 30
0.0
 11
14261.31263036251
 21
-735.5590769844298
 31
0.0
  0
LINE
  5
A93
330
25
100
AcDbEntity
  8
1
  6
Continuous
 62
     0
100
AcDbLine
 10
14261.31263036251
 20
-735.5590769844298
 30
0.0
 11
14261.31263036251
 21
-707.5590769844298
 31
0.0
  0
LINE
  5
A94
330
25
100
AcDbEntity
  8
1
  6
Continuous
 62
     0
100
AcDbLine
 10
14261.31263036251
 20
-707.5590769844298
 30
0.0
 11
14257.31263036251
 21
-707.5590769844298
 31
0.0
  0
LINE
  5
A95
330
25
100
AcDbEntity
  8
1
  6
Continuous
 62
     0
100
AcDbLine
 10
14270.24083359278
 20
-735.4154834449819
 30
0.0
 11
14271.31263036251
 21
-733.5590769844298
 31
0.0
  0
LINE
  5
A96
330
25
100
AcDbEntity
  8
1
  6
Continuous
 62
     0
100
AcDbLine
 10
14270.24083359278
 20
-714.6308737541549
 30
0.0
 11
14261.31263036251
 21
-714.6308737541549
 31
0.0
  0
LINE
  5
A97
330
25
100
AcDbEntity
  8
1
  6
Continuous
 62
     0
100
AcDbLine
 10
14261.31263036251
 20
-735.4154834449819
 30
0.0
 11
14270.24083359278
 21
-735.4154834449819
 31
0.0
  0
LINE
  5
A98
330
25
100
AcDbEntity
  8
1
  6
Continuous
 62
     0
100
AcDbLine
 10
14270.24083359278
 20
-728.487280214707
 30
0.0
 11
14261.31263036251
 21
-728.487280214707
 31
0.0
  0
LINE
  5
A99
330
25
100
AcDbEntity
  8
1
  6
Continuous
 62
     0
100
AcDbLine
 10
14271.31263036251
 20
-733.5590769844298
 30
0.0
 11
14271.31263036251
 21
-709.5590769844298
 31
0.0
  0
LINE
  5
A9A
330
25
100
AcDbEntity
  8
1
  6
Continuous
 62
     0
100
AcDbLine
 10
14270.24083359278
 20
-707.70267052388
 30
0.0
 11
14261.31263036251
 21
-707.70267052388
 31
0.0
  0
LINE
  5
A9B
330
25
100
AcDbEntity
  8
1
  6
Continuous
 62
     0
100
AcDbLine
 10
14271.31263036251
 20
-709.5590769844298
 30
0.0
 11
14270.24083359278
 21
-707.70267052388
 31
0.0
  0
ARC
  5
A9C
330
25
100
AcDbEntity
  8
1
  6
Continuous
 62
     0
100
AcDbCircle
 10
14691.43507561799
 20
-663.8166062024752
 30
0.0
 40
458.97244525548
100
AcDbArc
 50
170.088686020986
 51
189.9113139790138
  0
ARC
  5
A9D
330
25
100
AcDbEntity
  8
1
  6
Continuous
 62
     0
100
AcDbCircle
 10
14265.12428520162
 20
-616.4832625771851
 30
0.0
 40
6.188368025608
100
AcDbArc
 50
335.9793229189522
 51
34.22849580304347
  0
ARC
  5
A9E
330
25
100
AcDbEntity
  8
1
  6
Continuous
 62
     0
100
AcDbCircle
 10
14265.12428520162
 20
-595.6650082638539
 30
0.0
 40
6.18836802561
100
AcDbArc
 50
325.7715041969303
 51
24.02067708104479
  0
LINE
  5
A9F
330
25
100
AcDbEntity
  8
1
  6
Continuous
 62
     0
100
AcDbLine
 10
14270.24083359278
 20
-619.9305418810709
 30
0.0
 11
14271.31263036251
 21
-618.0741354205202
 31
0.0
  0
LINE
  5
AA1
330
25
100
AcDbEntity
  8
1
  6
Continuous
 62
     0
100
AcDbLine
 10
14257.31263036251
 20
-654.898891679657
 30
0.0
 11
14257.31263036251
 21
-624.898891679657
 31
0.0
  0
LINE
  5
AA2
330
25
100
AcDbEntity
  8
1
  6
Continuous
 62
     0
100
AcDbLine
 10
14261.31263036251
 20
-637.8227012034672
 30
0.0
 11
14257.31263036251
 21
-638.9655583463241
 31
0.0
  0
ARC
  5
AA3
330
25
100
AcDbEntity
  8
1
  6
Continuous
 62
     0
100
AcDbCircle
 10
14248.38442713223
 20
-606.07413542052
 30
0.0
 40
22.928203230274
100
AcDbArc
 50
342.4120462260015
 51
17.58795377399799
  0
LINE
  5
AA4
330
25
100
AcDbEntity
  8
1
  6
Continuous
 62
     0
100
AcDbLine
 10
14271.31263036251
 20
-594.07413542052
 30
0.0
 11
14270.24083359278
 21
-592.217728959969
 31
0.0
  0
ARC
  5
AA5
330
25
100
AcDbEntity
  8
1
  6
Continuous
 62
     0
100
AcDbCircle
 10
14265.12428520162
 20
-629.4897645229912
 30
0.0
 40
6.18836802561
100
AcDbArc
 50
325.7715041969287
 51
24.02067708104288
  0
LINE
  5
AA6
330
25
100
AcDbEntity
  8
1
  6
Continuous
 62
     0
100
AcDbLine
 10
14271.31263036251
 20
-618.0741354205202
 30
0.0
 11
14271.31263036251
 21
-594.07413542052
 31
0.0
  0
LINE
  5
AA7
330
25
100
AcDbEntity
  8
1
  6
Continuous
 62
     0
100
AcDbLine
 10
14261.31263036251
 20
-620.0741354205202
 30
0.0
 11
14261.31263036251
 21
-592.07413542052
 31
0.0
  0
LINE
  5
AA8
330
25
100
AcDbEntity
  8
1
  6
Continuous
 62
     0
100
AcDbLine
 10
14254.31263036251
 20
-742.8166062024752
 30
0.0
 11
14239.31263036251
 21
-742.8166062024752
 31
0.0
  0
LINE
  5
AA9
330
25
100
AcDbEntity
  8
1
  6
Continuous
 62
     0
100
AcDbLine
 10
14254.31263036251
 20
-591.07413542052
 30
0.0
 11
14254.31263036251
 21
-621.0741354205188
 31
0.0
  0
LINE
  5
AAA
330
25
100
AcDbEntity
  8
1
  6
Continuous
 62
     0
100
AcDbLine
 10
14254.31263036251
 20
-654.898891679657
 30
0.0
 11
14257.31263036251
 21
-654.898891679657
 31
0.0
  0
LINE
  5
AAB
330
25
100
AcDbEntity
  8
1
  6
Continuous
 62
     0
100
AcDbLine
 10
14257.31263036251
 20
-620.0741354205202
 30
0.0
 11
14261.31263036251
 21
-620.0741354205202
 31
0.0
  0
LINE
  5
AAC
330
25
100
AcDbEntity
  8
1
  6
Continuous
 62
     0
100
AcDbLine
 10
14257.31263036251
 20
-591.07413542052
 30
0.0
 11
14254.31263036251
 21
-591.07413542052
 31
0.0
  0
LINE
  5
AAD
330
25
100
AcDbEntity
  8
1
  6
Continuous
 62
     0
100
AcDbLine
 10
14261.31263036251
 20
-603.997944944329
 30
0.0
 11
14257.31263036251
 21
-605.140802087187
 31
0.0
  0
LINE
  5
AAE
330
25
100
AcDbEntity
  8
1
  6
Continuous
 62
     0
100
AcDbLine
 10
14261.31263036251
 20
-625.898891679657
 30
0.0
 11
14257.31263036251
 21
-625.898891679657
 31
0.0
  0
LINE
  5
AAF
330
25
100
AcDbEntity
  8
1
  6
Continuous
 62
     0
100
AcDbLine
 10
14270.24083359278
 20
-701.5907271858441
 30
0.0
 11
14271.31263036251
 21
-699.734320725293
 31
0.0
  0
LINE
  5
AB0
330
25
100
AcDbEntity
  8
1
  6
Continuous
 62
     0
100
AcDbLine
 10
14271.31263036251
 20
-675.734320725293
 30
0.0
 11
14270.24083359278
 21
-673.8779142647431
 31
0.0
  0
LINE
  5
AB1
330
25
100
AcDbEntity
  8
1
  6
Continuous
 62
     0
100
AcDbLine
 10
14270.24083359278
 20
-673.8779142647431
 30
0.0
 11
14261.31263036251
 21
-673.8779142647431
 31
0.0
  0
LINE
  5
AB2
330
25
100
AcDbEntity
  8
1
  6
Continuous
 62
     0
100
AcDbLine
 10
14261.31263036251
 20
-640.83222501299
 30
0.0
 11
14257.31263036251
 21
-641.9750821558468
 31
0.0
  0
ARC
  5
AB3
330
25
100
AcDbEntity
  8
1
  6
Continuous
 62
     0
100
AcDbCircle
 10
14248.38442713223
 20
-687.734320725293
 30
0.0
 40
22.928203230274
100
AcDbArc
 50
342.4120462260016
 51
17.58795377399637
  0
LINE
  5
AB4
330
25
100
AcDbEntity
  8
1
  6
Continuous
 62
     0
100
AcDbLine
 10
14261.31263036251
 20
-613.002338650796
 30
0.0
 11
14270.24083359278
 21
-613.002338650796
 31
0.0
  0
LINE
  5
AB5
330
25
100
AcDbEntity
  8
1
  6
Continuous
 62
     0
100
AcDbLine
 10
14244.31263036251
 20
-584.816606202475
 30
0.0
 11
14244.31263036251
 21
-742.8166062024752
 31
0.0
  0
LINE
  5
AB6
330
25
100
AcDbEntity
  8
1
  6
Continuous
 62
     0
100
AcDbLine
 10
14257.31263036251
 20
-624.898891679657
 30
0.0
 11
14254.31263036251
 21
-624.898891679657
 31
0.0
  0
LINE
  5
AB8
330
25
100
AcDbEntity
  8
1
  6
Continuous
 62
     0
100
AcDbLine
 10
14261.31263036251
 20
-619.9305418810709
 30
0.0
 11
14270.24083359278
 21
-619.9305418810709
 31
0.0
  0
ARC
  5
AB9
330
25
100
AcDbEntity
  8
1
  6
Continuous
 62
     0
100
AcDbCircle
 10
14248.38442713223
 20
-721.5590769844298
 30
0.0
 40
22.928203230274
100
AcDbArc
 50
342.4120462260007
 51
17.58795377399637
  0
ARC
  5
ABA
330
25
100
AcDbEntity
  8
1
  6
Continuous
 62
     0
100
AcDbCircle
 10
14265.12428520162
 20
-731.9682041410961
 30
0.0
 40
6.188368025608
100
AcDbArc
 50
335.9793229189522
 51
34.22849580304347
  0
ARC
  5
ABB
330
25
100
AcDbEntity
  8
1
  6
Continuous
 62
     0
100
AcDbCircle
 10
14265.12428520162
 20
-711.1499498277649
 30
0.0
 40
6.18836802561
100
AcDbArc
 50
325.7715041969303
 51
24.02067708104479
  0
LINE
  5
ABC
330
25
100
AcDbEntity
  8
1
  6
Continuous
 62
     0
100
AcDbLine
 10
14254.31263036251
 20
-584.816606202475
 30
0.0
 11
14239.31263036251
 21
-584.816606202475
 31
0.0
  0
ARC
  5
ABD
330
25
100
AcDbEntity
  8
1
  6
Continuous
 62
     0
100
AcDbCircle
 10
14265.12428520162
 20
-677.325193568628
 30
0.0
 40
6.18836802561
100
AcDbArc
 50
325.7715041969303
 51
24.02067708104479
  0
LINE
  5
ABE
330
25
100
AcDbEntity
  8
1
  6
Continuous
 62
     0
100
AcDbLine
 10
14257.31263036251
 20
-621.0741354205188
 30
0.0
 11
14257.31263036251
 21
-591.07413542052
 31
0.0
  0
LINE
  5
AC0
330
25
100
AcDbEntity
  8
1
  6
Continuous
 62
     0
100
AcDbLine
 10
14254.31263036251
 20
-624.898891679657
 30
0.0
 11
14254.31263036251
 21
-654.898891679657
 31
0.0
  0
LINE
  5
AC1
330
25
100
AcDbEntity
  8
1
  6
Continuous
 62
     0
100
AcDbLine
 10
14257.31263036251
 20
-653.898891679657
 30
0.0
 11
14261.31263036251
 21
-653.898891679657
 31
0.0
  0
ARC
  5
AC2
330
25
100
AcDbEntity
  8
1
  6
Continuous
 62
     0
100
AcDbCircle
 10
14265.12428520162
 20
-650.3080188363228
 30
0.0
 40
6.188368025607
100
AcDbArc
 50
335.9793229189714
 51
34.2284958030599
  0
LINE
  5
AC3
330
25
100
AcDbEntity
  8
1
  6
Continuous
 62
     0
100
AcDbLine
 10
14261.31263036251
 20
-632.9706884493821
 30
0.0
 11
14270.24083359278
 21
-632.9706884493821
 31
0.0
  0
ARC
  5
AC4
330
25
100
AcDbEntity
  8
1
  6
Continuous
 62
     0
100
AcDbCircle
 10
14248.38442713223
 20
-639.898891679657
 30
0.0
 40
22.928203230273
100
AcDbArc
 50
342.4120462260071
 51
17.58795377399285
  0
ARC
  5
AC5
330
25
100
AcDbEntity
  8
1
  6
Continuous
 62
     0
100
AcDbCircle
 10
14265.12428520162
 20
-698.1434478819592
 30
0.0
 40
6.188368025608
100
AcDbArc
 50
335.9793229189551
 51
34.22849580307209
  0
LINE
  5
AC6
330
25
100
AcDbEntity
  8
1
  6
Continuous
 62
     0
100
AcDbLine
 10
14270.24083359278
 20
-592.217728959969
 30
0.0
 11
14261.31263036251
 21
-592.217728959969
 31
0.0
  0
LINE
  5
AC7
330
25
100
AcDbEntity
  8
1
  6
Continuous
 62
     0
100
AcDbLine
 10
14261.31263036251
 20
-646.8270949099319
 30
0.0
 11
14270.24083359278
 21
-646.8270949099319
 31
0.0
  0
LINE
  5
AC8
330
25
100
AcDbEntity
  8
1
  6
Continuous
 62
     0
100
AcDbLine
 10
14254.31263036251
 20
-621.0741354205188
 30
0.0
 11
14257.31263036251
 21
-621.0741354205188
 31
0.0
  0
LINE
  5
AC9
330
25
100
AcDbEntity
  8
1
  6
Continuous
 62
     0
100
AcDbLine
 10
14270.24083359278
 20
-626.0424852191059
 30
0.0
 11
14261.31263036251
 21
-626.0424852191059
 31
0.0
  0
LINE
  5
ACA
330
25
100
AcDbEntity
  8
1
  6
Continuous
 62
     0
100
AcDbLine
 10
14261.31263036251
 20
-653.7552981402082
 30
0.0
 11
14270.24083359278
 21
-653.7552981402082
 31
0.0
  0
LINE
  5
ACB
330
25
100
AcDbEntity
  8
1
  6
Continuous
 62
     0
100
AcDbLine
 10
14271.31263036251
 20
-651.898891679657
 30
0.0
 11
14271.31263036251
 21
-627.898891679657
 31
0.0
  0
LINE
  5
ACC
330
25
100
AcDbEntity
  8
1
  6
Continuous
 62
     0
100
AcDbLine
 10
14270.24083359278
 20
-653.7552981402082
 30
0.0
 11
14271.31263036251
 21
-651.898891679657
 31
0.0
  0
LINE
  5
ACD
330
25
100
AcDbEntity
  8
1
  6
Continuous
 62
     0
100
AcDbLine
 10
14261.31263036251
 20
-653.898891679657
 30
0.0
 11
14261.31263036251
 21
-625.898891679657
 31
0.0
  0
LINE
  5
ACE
330
25
100
AcDbEntity
  8
1
  6
Continuous
 62
     0
100
AcDbLine
 10
14271.31263036251
 20
-627.898891679657
 30
0.0
 11
14270.24083359278
 21
-626.0424852191059
 31
0.0
  0
LINE
  5
ACF
330
25
100
AcDbEntity
  8
1
  6
Continuous
 62
     0
100
AcDbLine
 10
14254.31263036251
 20
-584.816606202475
 30
0.0
 11
14254.31263036251
 21
-742.8166062024752
 31
0.0
  0
LINE
  5
AD0
330
25
100
AcDbEntity
  8
1
  6
Continuous
 62
     0
100
AcDbLine
 10
14261.31263036251
 20
-599.1459321902439
 30
0.0
 11
14270.24083359278
 21
-599.1459321902439
 31
0.0
  0
LINE
  5
AD1
330
25
100
AcDbEntity
  8
1
  6
Continuous
 62
     0
100
AcDbLine
 10
14261.31263036251
 20
-592.07413542052
 30
0.0
 11
14257.31263036251
 21
-592.07413542052
 31
0.0
  0
LINE
  5
AD2
330
25
100
AcDbEntity
  8
1
  6
Continuous
 62
     0
100
AcDbLine
 10
14261.31263036251
 20
-607.0074687538529
 30
0.0
 11
14257.31263036251
 21
-608.15032589671
 31
0.0
  0
LINE
  5
AD3
330
25
100
AcDbEntity
  8
1
  6
Continuous
 62
     0
100
AcDbLine
 10
14271.31263036251
 20
-699.734320725293
 30
0.0
 11
14271.31263036251
 21
-675.734320725293
 31
0.0
  0
LINE
  5
AD4
330
25
100
AcDbEntity
  8
1
  6
Continuous
 62
     0
100
AcDbLine
 10
14270.24083359278
 20
-680.806117495018
 30
0.0
 11
14261.31263036251
 21
-680.806117495018
 31
0.0
  0
LINE
  5
AD5
330
25
100
AcDbEntity
  8
1
  6
Continuous
 62
     0
100
AcDbLine
 10
14270.24083359278
 20
-694.6625239555692
 30
0.0
 11
14261.31263036251
 21
-694.6625239555692
 31
0.0
  0
LINE
  5
AD6
330
25
100
AcDbEntity
  8
1
  6
Continuous
 62
     0
100
AcDbLine
 10
14261.31263036251
 20
-673.734320725293
 30
0.0
 11
14257.31263036251
 21
-673.734320725293
 31
0.0
  0
LINE
  5
AD7
330
25
100
AcDbEntity
  8
1
  6
Continuous
 62
     0
100
AcDbLine
 10
14261.31263036251
 20
-701.5907271858441
 30
0.0
 11
14270.24083359278
 21
-701.5907271858441
 31
0.0
  0
LINE
  5
AD8
330
25
100
AcDbEntity
  8
1
  6
Continuous
 62
     0
100
AcDbLine
 10
14261.31263036251
 20
-701.734320725293
 30
0.0
 11
14261.31263036251
 21
-673.734320725293
 31
0.0
  0
LINE
  5
AD9
330
25
100
AcDbEntity
  8
1
  6
Continuous
 62
     0
100
AcDbLine
 10
14257.31263036251
 20
-672.734320725293
 30
0.0
 11
14254.31263036251
 21
-672.734320725293
 31
0.0
  0
LINE
  5
ADA
330
25
100
AcDbEntity
  8
1
  6
Continuous
 62
     0
100
AcDbLine
 10
14257.31263036251
 20
-702.734320725293
 30
0.0
 11
14257.31263036251
 21
-672.734320725293
 31
0.0
  0
LINE
  5
ADB
330
25
100
AcDbEntity
  8
1
  6
Continuous
 62
     0
100
AcDbLine
 10
14254.31263036251
 20
-702.734320725293
 30
0.0
 11
14257.31263036251
 21
-702.734320725293
 31
0.0
  0
LINE
  5
ADC
330
25
100
AcDbEntity
  8
1
  6
Continuous
 62
     0
100
AcDbLine
 10
14254.31263036251
 20
-672.734320725293
 30
0.0
 11
14254.31263036251
 21
-702.734320725293
 31
0.0
  0
LINE
  5
ADD
330
25
100
AcDbEntity
  8
1
  6
Continuous
 62
     0
100
AcDbLine
 10
14257.31263036251
 20
-701.734320725293
 30
0.0
 11
14261.31263036251
 21
-701.734320725293
 31
0.0
  0
LINE
  5
ADE
330
25
100
AcDbEntity
  8
1
  6
Continuous
 62
     0
100
AcDbLine
 10
14257.31263036251
 20
-688.6676540586268
 30
0.0
 11
14261.31263036251
 21
-689.8105112014841
 31
0.0
  0
LINE
  5
AE1
330
25
100
AcDbEntity
  8
1
  6
Continuous
 62
     0
100
AcDbLine
 10
14257.31263036251
 20
-685.6581302491031
 30
0.0
 11
14261.31263036251
 21
-686.80098739196
 31
0.0
  0
LINE
  5
AE2
330
25
100
AcDbEntity
  8
1
  6
Continuous
 62
     0
100
AcDbLine
 10
14254.31263036251
 20
-706.5590769844298
 30
0.0
 11
14254.31263036251
 21
-736.5590769844298
 31
0.0
  0
LINE
  5
AE3
330
25
100
AcDbEntity
  8
1
  6
Continuous
 62
     0
100
AcDbLine
 10
14257.31263036251
 20
-736.5590769844298
 30
0.0
 11
14257.31263036251
 21
-706.5590769844298
 31
0.0
  0
LINE
  5
AE4
330
25
100
AcDbEntity
  8
1
  6
Continuous
 62
     0
100
AcDbLine
 10
14254.31263036251
 20
-736.5590769844298
 30
0.0
 11
14257.31263036251
 21
-736.5590769844298
 31
0.0
  0
LINE
  5
FFC
330
25
100
AcDbEntity
  8
0
  6
Continuous
 62
     0
100
AcDbLine
 10
14239.31263036251
 20
-463.816606202475
 30
0.0
 11
14239.31263036251
 21
-584.8166062024696
 31
0.0
  0
LINE
  5
FFD
330
25
100
AcDbEntity
  8
0
  6
Continuous
 62
     0
100
AcDbLine
 10
14239.31263036251
 20
-742.8166062024796
 30
0.0
 11
14239.31263036251
 21
-1041.5875220541
 31
0.0
  0
ENDBLK
  5
4F3
330
25
100
AcDbEntity
  8
0
100
AcDbBlockEnd
  0
BLOCK
  5
A14
330
A13
100
AcDbEntity
  8
0
100
AcDbBlockBegin
  2
*D1
 70
     1
 10
0.0
 20
0.0
 30
0.0
  3
*D1
  1

  0
LINE
  5
A16
330
A13
100
AcDbEntity
  8
0
  6
Continuous
 62
     0
370
    -2
100
AcDbLine
 10
10903.65722462836
 20
-663.816606202475
 30
0.0
 11
10801.90012278684
 21
-663.816606202475
 31
0.0
  0
LINE
  5
A17
330
A13
100
AcDbEntity
  8
0
  6
Continuous
 62
     0
370
    -2
100
AcDbLine
 10
10831.61181602628
 20
-2099.816606202475
 30
0.0
 11
10801.90012278684
 21
-2099.816606202475
 31
0.0
  0
LINE
  5
A18
330
A13
100
AcDbEntity
  8
0
  6
Continuous
 62
     0
370
    -2
100
AcDbLine
 10
10802.08012278684
 20
-663.9966062024749
 30
0.0
 11
10802.08012278684
 21
-1381.636606202475
 31
0.0
  0
LINE
  5
A19
330
A13
100
AcDbEntity
  8
0
  6
Continuous
 62
     0
370
    -2
100
AcDbLine
 10
10802.08012278684
 20
-2099.636606202475
 30
0.0
 11
10802.08012278684
 21
-1381.996606202475
 31
0.0
  0
SOLID
  5
A1A
330
A13
100
AcDbEntity
  8
0
 62
     0
100
AcDbTrace
 10
10802.11012278684
 20
-663.9966062024749
 30
0.0
 11
10802.05012278684
 21
-663.9966062024749
 31
0.0
 12
10802.08012278684
 22
-663.816606202475
 32
0.0
 13
10802.08012278684
 23
-663.816606202475
 33
0.0
  0
SOLID
  5
A1B
330
A13
100
AcDbEntity
  8
0
 62
     0
100
AcDbTrace
 10
10802.05012278684
 20
-2099.636606202475
 30
0.0
 11
10802.11012278684
 21
-2099.636606202475
 31
0.0
 12
10802.08012278684
 22
-2099.816606202475
 32
0.0
 13
10802.08012278684
 23
-2099.816606202475
 33
0.0
  0
MTEXT
  5
A1C
330
A13
100
AcDbEntity
  8
0
  6
Continuous
 62
     0
100
AcDbMText
 10
10802.08012278684
 20
-1381.816606202475
 30
0.0
 40
0.18
 41
0.0
 46
0.0
 71
     5
 72
     1
  1
\A1;1436.0000
 73
     1
 44
1.0
  0
POINT
  5
A1D
330
A13
100
AcDbEntity
  8
Defpoints
 62
     0
100
AcDbPoint
 10
10903.71972462836
 20
-663.816606202475
 30
0.0
  0
POINT
  5
A1E
330
A13
100
AcDbEntity
  8
Defpoints
 62
     0
100
AcDbPoint
 10
10831.67431602628
 20
-2099.816606202475
 30
0.0
  0
POINT
  5
A1F
330
A13
100
AcDbEntity
  8
Defpoints
 62
     0
100
AcDbPoint
 10
10802.08012278684
 20
-2099.816606202475
 30
0.0
  0
ENDBLK
  5
A15
330
A13
100
AcDbEntity
  8
0
100
AcDbBlockEnd
  0
ENDSEC
  0
SECTION
  2
ENTITIES
  0
TEXT
  5
4F6
330
A
100
AcDbEntity
  8
1
 62
     0
100
AcDbText
 10
16490.27712890613
 20
-4366.656868680892
 30
0.0
 40
52.5
  1
SAT-1500C-85
 41
0.9
  7
CONVERTER_1
100
AcDbText
  0
INSERT
  5
29
330
A
100
AcDbEntity
  8
0
100
AcDbBlockReference
  2
SAT1500C85__1
 10
0.0
 20
0.0
 30
0.0
  0
VIEWPORT
  5
2827
330
2823
100
AcDbEntity
 67
     1
  8
0
100
AcDbViewport
 10
5.25
 20
3.5
 30
0.0
 40
11.55
 41
8.925
 68
     1
 69
     1
 12
5.25
 22
3.5
 13
0.0
 23
0.0
 14
0.5
 24
0.5
 15
0.0
 25
0.0
 16
0.0
 26
0.0
 36
1.0
 17
0.0
 27
0.0
 37
0.0
 42
50.0
 43
0.0
 44
0.0
 45
8.925
 50
0.0
 51
0.0
 72
   100
 90
   557152
  1

281
     0
 71
     1
 74
     0
110
0.0
120
0.0
130
0.0
111
1.0
121
0.0
131
0.0
112
0.0
122
1.0
132
0.0
 79
     0
146
0.0
170
     0
 61
     5
348
525
292
     1
282
     1
141
0.0
142
0.0
 63
   256
361
282B
  0
VIEWPORT
  5
2828
102
{ACAD_XDICTIONARY
360
2829
102
}
330
2823
100
AcDbEntity
 67
     1
  8
0
100
AcDbViewport
 10
5.25
 20
3.5
 30
0.0
 40
8.4
 41
5.600000000000001
 68
     2
 69
     2
 12
13670.26777016896
 22
-2293.485199204764
 13
0.0
 23
0.0
 14
0.5
 24
0.5
 15
0.0
 25
0.0
 16
0.0
 26
0.0
 36
1.0
 17
0.0
 27
0.0
 37
0.0
 42
50.0
 43
0.0
 44
0.0
 45
4542.072727882545
 50
0.0
 51
0.0
 72
   100
 90
   557152
  1

281
     0
 71
     1
 74
     0
110
0.0
120
0.0
130
0.0
111
1.0
121
0.0
131
0.0
112
0.0
122
1.0
132
0.0
 79
     0
146
0.0
170
     0
 61
     5
348
525
292
     1
282
     1
141
0.0
142
0.0
 63
   256
  0
ENDSEC
  0
SECTION
  2
OBJECTS
  0
DICTIONARY
  5
19
330
0
100
AcDbDictionary
281
     1
  3
ACAD_DETAILVIEWSTYLE
350
AED
  3
ACAD_GROUP
350
1A
  3
ACAD_LAYOUT
350
51D
  3
ACAD_MATERIAL
350
539
  3
ACAD_MLEADERSTYLE
350
53F
  3
ACAD_MLINESTYLE
350
1B
  3
ACAD_PLOTSETTINGS
350
4F8
  3
ACAD_PLOTSTYLENAME
350
4F9
  3
ACAD_SCALELIST
350
4FB
  3
ACAD_SECTIONVIEWSTYLE
350
AEE
  3
ACAD_TABLESTYLE
350
53D
  3
ACAD_VISUALSTYLE
350
520
  3
ACDB_RECOMPOSE_DATA
350
2831
  3
AcDbVariableDictionary
350
AE5
  3
APPDATA
350
541
  0
SUN
  5
151A
330
15
100
AcDbSun
 90
        1
290
     0
 63
     7
421
 16777215
 40
1.0
291
     1
 91
  2455826
 92
 54000000
292
     0
 70
     2
 71
   256
280
     1
  0
SUN
  5
282B
330
2827
100
AcDbSun
 90
        1
290
     0
 63
     7
421
 16777215
 40
1.0
291
     1
 91
  2455826
 92
 54000000
292
     0
 70
     2
 71
   256
280
     1
  0
DICTIONARY
  5
2829
330
2828
100
AcDbDictionary
280
     1
281
     1
  3
ASDK_XREC_ANNOTATION_SCALE_INFO
360
282A
  0
DICTIONARY
  5
AED
102
{ACAD_REACTORS
330
19
102
}
330
19
100
AcDbDictionary
281
     1
  0
DICTIONARY
  5
1A
102
{ACAD_REACTORS
330
19
102
}
330
19
100
AcDbDictionary
281
     1
  0
DICTIONARY
  5
51D
102
{ACAD_REACTORS
330
19
102
}
330
19
100
AcDbDictionary
281
     1
  3
Model
350
51E
  3
シート1
350
2824
  0
DICTIONARY
  5
539
102
{ACAD_REACTORS
330
19
102
}
330
19
100
AcDbDictionary
281
     1
  3
ByBlock
350
53B
  3
ByLayer
350
53A
  3
Global
350
53C
  0
DICTIONARY
  5
53F
102
{ACAD_REACTORS
330
19
102
}
330
19
100
AcDbDictionary
281
     1
  3
Standard
350
540
  0
DICTIONARY
  5
1B
102
{ACAD_REACTORS
330
19
102
}
330
19
100
AcDbDictionary
281
     1
  3
STANDARD
350
1C
  0
DICTIONARY
  5
4F8
102
{ACAD_REACTORS
330
19
102
}
330
19
100
AcDbDictionary
281
     1
  0
ACDBDICTIONARYWDFLT
  5
4F9
102
{ACAD_REACTORS
330
19
102
}
330
19
100
AcDbDictionary
281
     1
  3
Normal
350
4FA
100
AcDbDictionaryWithDefault
340
4FA
  0
DICTIONARY
  5
4FB
102
{ACAD_REACTORS
330
19
102
}
330
19
100
AcDbDictionary
281
     1
  3
A0
350
4FC
  3
A1
350
4FD
  3
A2
350
4FE
  3
A3
350
4FF
  3
A4
350
500
  3
A5
350
501
  3
A6
350
502
  3
A7
350
503
  3
A8
350
504
  3
A9
350
505
  3
B0
350
506
  3
B1
350
507
  3
B2
350
508
  3
B3
350
509
  3
B4
350
50A
  3
B5
350
50B
  3
B6
350
50C
  3
B7
350
50D
  3
B8
350
50E
  3
B9
350
50F
  3
C0
350
510
  3
C1
350
511
  3
C2
350
512
  3
C3
350
513
  3
C4
350
514
  3
C5
350
515
  3
C6
350
516
  3
C7
350
517
  3
C8
350
518
  3
C9
350
519
  3
D0
350
51A
  3
D1
350
51B
  3
D2
350
51C
  0
DICTIONARY
  5
AEE
102
{ACAD_REACTORS
330
19
102
}
330
19
100
AcDbDictionary
281
     1
  0
DICTIONARY
  5
53D
102
{ACAD_REACTORS
330
19
102
}
330
19
100
AcDbDictionary
281
     1
  3
Standard
350
53E
  0
DICTIONARY
  5
520
102
{ACAD_REACTORS
330
19
102
}
330
19
100
AcDbDictionary
281
     1
  3
2dWireframe
350
525
  3
Basic
350
528
  3
Brighten
350
52C
  3
ColorChange
350
530
  3
Conceptual
350
52A
  3
Dim
350
52B
  3
EdgeColorOff
350
533
  3
Facepattern
350
52F
  3
Flat
350
521
  3
FlatWithEdges
350
522
  3
Gouraud
350
523
  3
GouraudWithEdges
350
524
  3
Hidden
350
527
  3
JitterOff
350
531
  3
Linepattern
350
52E
  3
OverhangOff
350
532
  3
Realistic
350
529
  3
Shaded
350
538
  3
Shaded with edges
350
537
  3
Shades of Gray
350
534
  3
Sketchy
350
535
  3
Thicken
350
52D
  3
Wireframe
350
526
  3
X-Ray
350
536
  0
XRECORD
  5
2831
102
{ACAD_REACTORS
330
19
102
}
330
19
100
AcDbXrecord
280
     1
 90
        1
330
53E
  0
DICTIONARY
  5
AE5
102
{ACAD_REACTORS
330
19
102
}
330
19
100
AcDbDictionary
281
     1
  3
CANNOSCALE
350
AE6
  3
CMLEADERSTYLE
350
AEB
  3
CTABLESTYLE
350
AEA
  3
MSLTSCALE
350
AEC
  0
DICTIONARY
  5
541
102
{ACAD_REACTORS
330
19
102
}
330
19
100
AcDbDictionary
281
     1
  0
XRECORD
  5
282A
102
{ACAD_REACTORS
330
2829
102
}
330
2829
100
AcDbXrecord
280
     1
 90
        1
340
4FC
  0
LAYOUT
  5
51E
102
{ACAD_REACTORS
330
51D
102
}
330
51D
100
AcDbPlotSettings
  1

  2
none_device
  4
Letter_(8.50_x_11.00_Inches)
  6

 40
6.35
 41
6.35
 42
6.35
 43
6.35
 44
215.9
 45
279.4
 46
0.0
 47
0.0
 48
0.0
 49
0.0
140
0.0
141
0.0
142
1.0
143
0.8722256190476192
 70
  1712
 72
     0
 73
     0
 74
     0
  7

 75
     0
 76
     0
 77
     2
 78
   300
147
1.146492350330064
148
-87.33095066012679
149
0.0000127000000131
100
AcDbLayout
  1
Model
 70
     1
 71
     0
 10
0.0
 20
0.0
 11
0.0
 21
0.0
 12
0.0
 22
0.0
 32
0.0
 14
10330.5084114318
 24
-4366.656868680892
 34
0.0
 15
17010.02712890613
 25
-220.3134454400247
 35
0.0
146
0.0
 13
0.0
 23
0.0
 33
0.0
 16
1.0
 26
0.0
 36
0.0
 17
0.0
 27
1.0
 37
0.0
 76
     0
330
A
331
15
  0
LAYOUT
  5
2824
102
{ACAD_REACTORS
330
51D
102
}
330
51D
100
AcDbPlotSettings
  1

  2
none_device
  4
ANSI_A_(11.00_x_8.50_Inches)
  6

 40
6.35
 41
19.05
 42
6.35
 43
19.05
 44
279.4
 45
215.9
 46
0.0
 47
0.0
 48
0.0
 49
0.0
140
0.0
141
0.0
142
1.0
143
1.0
 70
   688
 72
     0
 73
     0
 74
     5
  7

 75
    16
 76
     0
 77
     2
 78
   300
147
1.0
148
0.0
149
0.0
100
AcDbLayout
  1
シート1
 70
     1
 71
     1
 10
0.0
 20
0.0
 11
0.0
 21
0.0
 12
0.0
 22
0.0
 32
0.0
 14
1.05
 24
0.6999999999999997
 34
0.0
 15
9.45
 25
6.300000000000001
 35
0.0
146
0.0
 13
0.0
 23
0.0
 33
0.0
 16
1.0
 26
0.0
 36
0.0
 17
0.0
 27
1.0
 37
0.0
 76
     0
330
2823
331
2827
  0
MATERIAL
  5
53B
102
{ACAD_REACTORS
330
539
102
}
330
539
100
AcDbMaterial
  1
ByBlock
 72
     1
 94
      127
  0
MATERIAL
  5
53A
102
{ACAD_REACTORS
330
539
102
}
330
539
100
AcDbMaterial
  1
ByLayer
 72
     1
 94
      127
  0
MATERIAL
  5
53C
102
{ACAD_REACTORS
330
539
102
}
330
539
100
AcDbMaterial
  1
Global
 72
     1
 94
      127
  0
MLEADERSTYLE
  5
540
102
{ACAD_REACTORS
330
53F
102
}
330
53F
100
AcDbMLeaderStyle
179
     2
170
     2
171
     1
172
     0
 90
        2
 40
0.0
 41
0.0
173
     1
 91
-1056964608
340
11
 92
       -2
290
     1
 42
0.09
291
     1
 43
0.36
  3
Standard
341
0
 44
0.18
300

342
17
174
     1
178
     1
175
     1
176
     0
 93
-1056964608
 45
0.18
292
     0
297
     0
 46
0.18
343
0
 94
-1056964608
 47
1.0
 49
1.0
140
1.0
293
     1
141
0.0
294
     1
177
     0
142
1.0
295
     0
296
     0
143
0.125
271
     0
272
     9
273
     9
298
     0
  0
MLINESTYLE
  5
1C
102
{ACAD_REACTORS
330
1B
102
}
330
1B
100
AcDbMlineStyle
  2
STANDARD
 70
     0
  3

 62
     0
 51
90.0
 52
90.0
 71
     2
 49
0.5
 62
   256
  6
BYLAYER
 49
-0.5
 62
   256
  6
BYLAYER
  0
ACDBPLACEHOLDER
  5
4FA
102
{ACAD_REACTORS
330
4F9
102
}
330
4F9
  0
SCALE
  5
4FC
102
{ACAD_REACTORS
330
4FB
102
}
330
4FB
100
AcDbScale
 70
     0
300
1:1
140
1.0
141
1.0
290
     1
  0
SCALE
  5
4FD
102
{ACAD_REACTORS
330
4FB
102
}
330
4FB
100
AcDbScale
 70
     0
300
1:2
140
1.0
141
2.0
290
     0
  0
SCALE
  5
4FE
102
{ACAD_REACTORS
330
4FB
102
}
330
4FB
100
AcDbScale
 70
     0
300
1:4
140
1.0
141
4.0
290
     0
  0
SCALE
  5
4FF
102
{ACAD_REACTORS
330
4FB
102
}
330
4FB
100
AcDbScale
 70
     0
300
1:5
140
1.0
141
5.0
290
     0
  0
SCALE
  5
500
102
{ACAD_REACTORS
330
4FB
102
}
330
4FB
100
AcDbScale
 70
     0
300
1:8
140
1.0
141
8.0
290
     0
  0
SCALE
  5
501
102
{ACAD_REACTORS
330
4FB
102
}
330
4FB
100
AcDbScale
 70
     0
300
1:10
140
1.0
141
10.0
290
     0
  0
SCALE
  5
502
102
{ACAD_REACTORS
330
4FB
102
}
330
4FB
100
AcDbScale
 70
     0
300
1:16
140
1.0
141
16.0
290
     0
  0
SCALE
  5
503
102
{ACAD_REACTORS
330
4FB
102
}
330
4FB
100
AcDbScale
 70
     0
300
1:20
140
1.0
141
20.0
290
     0
  0
SCALE
  5
504
102
{ACAD_REACTORS
330
4FB
102
}
330
4FB
100
AcDbScale
 70
     0
300
1:30
140
1.0
141
30.0
290
     0
  0
SCALE
  5
505
102
{ACAD_REACTORS
330
4FB
102
}
330
4FB
100
AcDbScale
 70
     0
300
1:40
140
1.0
141
40.0
290
     0
  0
SCALE
  5
506
102
{ACAD_REACTORS
330
4FB
102
}
330
4FB
100
AcDbScale
 70
     0
300
1:50
140
1.0
141
50.0
290
     0
  0
SCALE
  5
507
102
{ACAD_REACTORS
330
4FB
102
}
330
4FB
100
AcDbScale
 70
     0
300
1:100
140
1.0
141
100.0
290
     0
  0
SCALE
  5
508
102
{ACAD_REACTORS
330
4FB
102
}
330
4FB
100
AcDbScale
 70
     0
300
2:1
140
2.0
141
1.0
290
     0
  0
SCALE
  5
509
102
{ACAD_REACTORS
330
4FB
102
}
330
4FB
100
AcDbScale
 70
     0
300
4:1
140
4.0
141
1.0
290
     0
  0
SCALE
  5
50A
102
{ACAD_REACTORS
330
4FB
102
}
330
4FB
100
AcDbScale
 70
     0
300
8:1
140
8.0
141
1.0
290
     0
  0
SCALE
  5
50B
102
{ACAD_REACTORS
330
4FB
102
}
330
4FB
100
AcDbScale
 70
     0
300
10:1
140
10.0
141
1.0
290
     0
  0
SCALE
  5
50C
102
{ACAD_REACTORS
330
4FB
102
}
330
4FB
100
AcDbScale
 70
     0
300
100:1
140
100.0
141
1.0
290
     0
  0
SCALE
  5
50D
102
{ACAD_REACTORS
330
4FB
102
}
330
4FB
100
AcDbScale
 70
     0
300
1/128" = 1'-0"
140
0.0078125
141
12.0
290
     0
  0
SCALE
  5
50E
102
{ACAD_REACTORS
330
4FB
102
}
330
4FB
100
AcDbScale
 70
     0
300
1/64" = 1'-0"
140
0.015625
141
12.0
290
     0
  0
SCALE
  5
50F
102
{ACAD_REACTORS
330
4FB
102
}
330
4FB
100
AcDbScale
 70
     0
300
1/32" = 1'-0"
140
0.03125
141
12.0
290
     0
  0
SCALE
  5
510
102
{ACAD_REACTORS
330
4FB
102
}
330
4FB
100
AcDbScale
 70
     0
300
1/16" = 1'-0"
140
0.0625
141
12.0
290
     0
  0
SCALE
  5
511
102
{ACAD_REACTORS
330
4FB
102
}
330
4FB
100
AcDbScale
 70
     0
300
3/32" = 1'-0"
140
0.09375
141
12.0
290
     0
  0
SCALE
  5
512
102
{ACAD_REACTORS
330
4FB
102
}
330
4FB
100
AcDbScale
 70
     0
300
1/8" = 1'-0"
140
0.125
141
12.0
290
     0
  0
SCALE
  5
513
102
{ACAD_REACTORS
330
4FB
102
}
330
4FB
100
AcDbScale
 70
     0
300
3/16" = 1'-0"
140
0.1875
141
12.0
290
     0
  0
SCALE
  5
514
102
{ACAD_REACTORS
330
4FB
102
}
330
4FB
100
AcDbScale
 70
     0
300
1/4" = 1'-0"
140
0.25
141
12.0
290
     0
  0
SCALE
  5
515
102
{ACAD_REACTORS
330
4FB
102
}
330
4FB
100
AcDbScale
 70
     0
300
3/8" = 1'-0"
140
0.375
141
12.0
290
     0
  0
SCALE
  5
516
102
{ACAD_REACTORS
330
4FB
102
}
330
4FB
100
AcDbScale
 70
     0
300
1/2" = 1'-0"
140
0.5
141
12.0
290
     0
  0
SCALE
  5
517
102
{ACAD_REACTORS
330
4FB
102
}
330
4FB
100
AcDbScale
 70
     0
300
3/4" = 1'-0"
140
0.75
141
12.0
290
     0
  0
SCALE
  5
518
102
{ACAD_REACTORS
330
4FB
102
}
330
4FB
100
AcDbScale
 70
     0
300
1" = 1'-0"
140
1.0
141
12.0
290
     0
  0
SCALE
  5
519
102
{ACAD_REACTORS
330
4FB
102
}
330
4FB
100
AcDbScale
 70
     0
300
1-1/2" = 1'-0"
140
1.5
141
12.0
290
     0
  0
SCALE
  5
51A
102
{ACAD_REACTORS
330
4FB
102
}
330
4FB
100
AcDbScale
 70
     0
300
3" = 1'-0"
140
3.0
141
12.0
290
     0
  0
SCALE
  5
51B
102
{ACAD_REACTORS
330
4FB
102
}
330
4FB
100
AcDbScale
 70
     0
300
6" = 1'-0"
140
6.0
141
12.0
290
     0
  0
SCALE
  5
51C
102
{ACAD_REACTORS
330
4FB
102
}
330
4FB
100
AcDbScale
 70
     0
300
1'-0" = 1'-0"
140
12.0
141
12.0
290
     0
  0
TABLESTYLE
  5
53E
102
{ACAD_REACTORS
330
53D
102
}
102
{ACAD_XDICTIONARY
360
282F
102
}
330
53D
100
AcDbTableStyle
  3
Standard
 70
     0
 71
     0
 40
0.06
 41
0.06
280
     0
281
     0
  7
STANDARD
140
0.18
170
     2
 62
     0
 63
   257
283
     0
 90
        4
 91
        0
  1

274
    -2
284
     1
 64
     0
275
    -2
285
     1
 65
     0
276
    -2
286
     1
 66
     0
277
    -2
287
     1
 67
     0
278
    -2
288
     1
 68
     0
279
    -2
289
     1
 69
     0
  7
STANDARD
140
0.25
170
     5
 62
     0
 63
   257
283
     0
 90
        4
 91
        0
  1

274
    -2
284
     1
 64
     0
275
    -2
285
     1
 65
     0
276
    -2
286
     1
 66
     0
277
    -2
287
     1
 67
     0
278
    -2
288
     1
 68
     0
279
    -2
289
     1
 69
     0
  7
STANDARD
140
0.18
170
     5
 62
     0
 63
   257
283
     0
 90
        4
 91
        0
  1

274
    -2
284
     1
 64
     0
275
    -2
285
     1
 65
     0
276
    -2
286
     1
 66
     0
277
    -2
287
     1
 67
     0
278
    -2
288
     1
 68
     0
279
    -2
289
     1
 69
     0
  0
VISUALSTYLE
  5
525
102
{ACAD_REACTORS
330
520
102
}
330
520
100
AcDbVisualStyle
  2
2dWireframe
 70
     4
177
     3
291
     0
 70
    58
 90
        0
176
     1
 90
        2
176
     1
 90
        0
176
     1
 90
        0
176
     1
 40
0.6
176
     1
 40
30.0
176
     1
 62
     7
420
 16777215
176
     1
 90
        1
176
     1
 90
        4
176
     1
 62
     7
176
     1
 62
   257
176
     1
 90
        1
176
     1
 90
        1
176
     1
 40
1.0
176
     1
 90
        0
176
     1
 62
   257
176
     1
 40
1.0
176
     1
 90
        1
176
     1
 90
        6
176
     1
 90
        2
176
     1
 62
     7
176
     1
 90
        5
176
     1
 90
        0
176
     1
 90
        0
176
     1
290
     0
176
     1
 90
        1
176
     1
 40
0.0
176
     1
 90
        0
176
     1
290
     1
176
     1
290
     1
176
     1
290
     0
176
     1
290
     0
176
     1
290
     0
176
     1
290
     0
176
     1
290
     0
176
     1
290
     0
176
     1
290
     0
176
     1
 90
       50
176
     1
 40
0.0
176
     1
 40
1.0
176
     1
 90
        0
176
     1
 62
    18
420
        0
176
     1
 90
       50
176
     1
 90
        3
176
     1
 62
     5
420
      255
176
     1
290
     0
176
     1
 90
       50
176
     1
 90
       50
176
     1
 90
       50
176
     1
290
     0
176
     1
 90
       50
176
     1
 62
   256
176
     0
 40
1.0
176
     0
 90
        2
176
     1
  1
strokes_ogs.tif
176
     1
290
     0
176
     1
 40
1.0
176
     1
 40
1.0
176
     1
  0
VISUALSTYLE
  5
528
102
{ACAD_REACTORS
330
520
102
}
330
520
100
AcDbVisualStyle
  2
Basic
 70
     7
177
     3
291
     1
 70
    58
 90
        1
176
     1
 90
        0
176
     1
 90
        1
176
     1
 90
        0
176
     1
 40
0.6
176
     1
 40
30.0
176
     1
 62
     7
420
 16777215
176
     1
 90
        0
176
     1
 90
        4
176
     1
 62
     7
176
     1
 62
   257
176
     1
 90
        1
176
     1
 90
        1
176
     1
 40
1.0
176
     1
 90
        8
176
     1
 62
     7
176
     1
 40
1.0
176
     1
 90
        1
176
     1
 90
        6
176
     1
 90
        2
176
     1
 62
     7
176
     1
 90
        5
176
     1
 90
        0
176
     1
 90
        0
176
     1
290
     0
176
     1
 90
        1
176
     1
 40
0.0
176
     1
 90
        0
176
     1
290
     0
176
     1
290
     1
176
     1
290
     1
176
     1
290
     0
176
     1
290
     0
176
     1
290
     0
176
     1
290
     0
176
     1
290
     0
176
     1
290
     0
176
     1
 90
       50
176
     1
 40
0.0
176
     1
 40
1.0
176
     1
 90
        0
176
     1
 62
    18
420
        0
176
     1
 90
       50
176
     1
 90
        3
176
     1
 62
     5
420
      255
176
     1
290
     0
176
     1
 90
       50
176
     1
 90
       50
176
     1
 90
       50
176
     1
290
     0
176
     1
 90
       50
176
     1
 62
   256
176
     0
 40
1.0
176
     0
 90
        2
176
     1
  1
strokes_ogs.tif
176
     1
290
     0
176
     1
 40
1.0
176
     1
 40
1.0
176
     1
  0
VISUALSTYLE
  5
52C
102
{ACAD_REACTORS
330
520
102
}
330
520
100
AcDbVisualStyle
  2
Brighten
 70
    12
177
     3
291
     1
 70
    58
 90
        2
176
     1
 90
        2
176
     1
 90
        0
176
     1
 90
        0
176
     1
 40
0.6
176
     1
 40
30.0
176
     1
 62
     7
420
 16777215
176
     1
 90
        1
176
     1
 90
        4
176
     1
 62
     7
176
     1
 62
   257
176
     1
 90
        1
176
     1
 90
        1
176
     1
 40
1.0
176
     1
 90
        8
176
     1
 62
     7
176
     1
 40
1.0
176
     1
 90
        1
176
     1
 90
        6
176
     1
 90
        2
176
     1
 62
     7
176
     1
 90
        5
176
     1
 90
        0
176
     1
 90
        0
176
     1
290
     0
176
     1
 90
        1
176
     1
 40
50.0
176
     1
 90
        0
176
     1
290
     0
176
     1
290
     1
176
     1
290
     1
176
     1
290
     0
176
     1
290
     0
176
     1
290
     0
176
     1
290
     0
176
     1
290
     0
176
     1
290
     0
176
     1
 90
       50
176
     1
 40
0.0
176
     1
 40
1.0
176
     1
 90
        0
176
     1
 62
    18
420
        0
176
     1
 90
       50
176
     1
 90
        3
176
     1
 62
     5
420
      255
176
     1
290
     0
176
     1
 90
       50
176
     1
 90
       50
176
     1
 90
       50
176
     1
290
     0
176
     1
 90
       50
176
     1
 62
   256
176
     0
 40
1.0
176
     0
 90
        2
176
     1
  1
strokes_ogs.tif
176
     1
290
     0
176
     1
 40
1.0
176
     1
 40
1.0
176
     1
  0
VISUALSTYLE
  5
530
102
{ACAD_REACTORS
330
520
102
}
330
520
100
AcDbVisualStyle
  2
ColorChange
 70
    16
177
     3
291
     1
 70
    58
 90
        2
176
     1
 90
        2
176
     1
 90
        3
176
     1
 90
        0
176
     1
 40
0.6
176
     1
 40
30.0
176
     1
 62
     8
420
  8421504
176
     1
 90
        1
176
     1
 90
        4
176
     1
 62
     7
176
     1
 62
   257
176
     1
 90
        1
176
     1
 90
        1
176
     1
 40
1.0
176
     1
 90
        8
176
     1
 62
     8
420
  8421504
176
     1
 40
1.0
176
     1
 90
        1
176
     1
 90
        6
176
     1
 90
        2
176
     1
 62
     7
176
     1
 90
        5
176
     1
 90
        0
176
     1
 90
        0
176
     1
290
     0
176
     1
 90
        1
176
     1
 40
0.0
176
     1
 90
        0
176
     1
290
     0
176
     1
290
     1
176
     1
290
     1
176
     1
290
     0
176
     1
290
     0
176
     1
290
     0
176
     1
290
     0
176
     1
290
     0
176
     1
290
     0
176
     1
 90
       50
176
     1
 40
0.0
176
     1
 40
1.0
176
     1
 90
        0
176
     1
 62
    18
420
        0
176
     1
 90
       50
176
     1
 90
        3
176
     1
 62
     5
420
      255
176
     1
290
     0
176
     1
 90
       50
176
     1
 90
       50
176
     1
 90
       50
176
     1
290
     0
176
     1
 90
       50
176
     1
 62
   256
176
     0
 40
1.0
176
     0
 90
        2
176
     1
  1
strokes_ogs.tif
176
     1
290
     0
176
     1
 40
1.0
176
     1
 40
1.0
176
     1
  0
VISUALSTYLE
  5
52A
102
{ACAD_REACTORS
330
520
102
}
330
520
100
AcDbVisualStyle
  2
Conceptual
 70
     9
177
     3
291
     0
 70
    58
 90
        3
176
     1
 90
        2
176
     1
 90
        0
176
     1
 90
        0
176
     1
 40
0.6
176
     1
 40
30.0
176
     1
 62
     7
420
 16777215
176
     1
 90
        2
176
     1
 90
        2
176
     1
 62
     7
176
     1
 62
   257
176
     1
 90
        1
176
     1
 90
        1
176
     1
 40
179.0
176
     1
 90
        8
176
     1
 62
     7
176
     1
 40
1.0
176
     1
 90
        1
176
     1
 90
        6
176
     1
 90
        2
176
     1
 62
     7
176
     1
 90
        3
176
     1
 90
        0
176
     1
 90
        0
176
     1
290
     0
176
     1
 90
        1
176
     1
 40
0.0
176
     1
 90
        0
176
     1
290
     0
176
     1
290
     1
176
     1
290
     1
176
     1
290
     0
176
     1
290
     0
176
     1
290
     0
176
     1
290
     0
176
     1
290
     0
176
     1
290
     0
176
     1
 90
       50
176
     1
 40
0.0
176
     1
 40
1.0
176
     1
 90
        0
176
     1
 62
    18
420
        0
176
     1
 90
       50
176
     1
 90
        3
176
     1
 62
     5
420
      255
176
     1
290
     0
176
     1
 90
       50
176
     1
 90
       50
176
     1
 90
       50
176
     1
290
     0
176
     1
 90
       50
176
     1
 62
   256
176
     0
 40
1.0
176
     0
 90
        2
176
     1
  1
strokes_ogs.tif
176
     1
290
     0
176
     1
 40
1.0
176
     1
 40
1.0
176
     1
  0
VISUALSTYLE
  5
52B
102
{ACAD_REACTORS
330
520
102
}
330
520
100
AcDbVisualStyle
  2
Dim
 70
    11
177
     3
291
     1
 70
    58
 90
        2
176
     1
 90
        2
176
     1
 90
        0
176
     1
 90
        0
176
     1
 40
0.6
176
     1
 40
30.0
176
     1
 62
     7
420
 16777215
176
     1
 90
        1
176
     1
 90
        4
176
     1
 62
     7
176
     1
 62
   257
176
     1
 90
        1
176
     1
 90
        1
176
     1
 40
1.0
176
     1
 90
        8
176
     1
 62
     7
176
     1
 40
1.0
176
     1
 90
        1
176
     1
 90
        6
176
     1
 90
        2
176
     1
 62
     7
176
     1
 90
        5
176
     1
 90
        0
176
     1
 90
        0
176
     1
290
     0
176
     1
 90
        1
176
     1
 40
-50.0
176
     1
 90
        0
176
     1
290
     0
176
     1
290
     1
176
     1
290
     1
176
     1
290
     0
176
     1
290
     0
176
     1
290
     0
176
     1
290
     0
176
     1
290
     0
176
     1
290
     0
176
     1
 90
       50
176
     1
 40
0.0
176
     1
 40
1.0
176
     1
 90
        0
176
     1
 62
    18
420
        0
176
     1
 90
       50
176
     1
 90
        3
176
     1
 62
     5
420
      255
176
     1
290
     0
176
     1
 90
       50
176
     1
 90
       50
176
     1
 90
       50
176
     1
290
     0
176
     1
 90
       50
176
     1
 62
   256
176
     0
 40
1.0
176
     0
 90
        2
176
     1
  1
strokes_ogs.tif
176
     1
290
     0
176
     1
 40
1.0
176
     1
 40
1.0
176
     1
  0
VISUALSTYLE
  5
533
102
{ACAD_REACTORS
330
520
102
}
330
520
100
AcDbVisualStyle
  2
EdgeColorOff
 70
    22
177
     3
291
     1
 70
    58
 90
        2
176
     0
 90
        2
176
     0
 90
        0
176
     0
 90
        0
176
     0
 40
0.6
176
     0
 40
30.0
176
     0
 62
     7
420
 16777215
176
     0
 90
        1
176
     0
 90
        4
176
     0
 62
     7
176
     0
 62
   257
176
     0
 90
        1
176
     0
 90
        1
176
     0
 40
1.0
176
     0
 90
        8
176
     2
 62
     7
176
     0
 40
1.0
176
     0
 90
        1
176
     0
 90
        6
176
     0
 90
        2
176
     0
 62
     7
176
     0
 90
        5
176
     0
 90
        0
176
     0
 90
        0
176
     0
290
     0
176
     0
 90
        1
176
     0
 40
0.0
176
     0
 90
        0
176
     0
290
     0
176
     0
290
     1
176
     0
290
     1
176
     0
290
     0
176
     0
290
     0
176
     0
290
     0
176
     0
290
     0
176
     0
290
     0
176
     0
290
     0
176
     0
 90
       50
176
     0
 40
0.0
176
     0
 40
1.0
176
     0
 90
        0
176
     0
 62
    18
420
        0
176
     0
 90
       50
176
     0
 90
        3
176
     0
 62
     5
420
      255
176
     0
290
     0
176
     0
 90
       50
176
     0
 90
       50
176
     0
 90
       50
176
     0
290
     0
176
     0
 90
       50
176
     0
 62
   256
176
     0
 40
1.0
176
     0
 90
        2
176
     0
  1
strokes_ogs.tif
176
     0
290
     0
176
     0
 40
1.0
176
     0
 40
1.0
176
     0
  0
VISUALSTYLE
  5
52F
102
{ACAD_REACTORS
330
520
102
}
330
520
100
AcDbVisualStyle
  2
Facepattern
 70
    15
177
     3
291
     1
 70
    58
 90
        2
176
     1
 90
        2
176
     1
 90
        0
176
     1
 90
        0
176
     1
 40
0.6
176
     1
 40
30.0
176
     1
 62
     7
420
 16777215
176
     1
 90
        1
176
     1
 90
        4
176
     1
 62
     7
176
     1
 62
   257
176
     1
 90
        1
176
     1
 90
        1
176
     1
 40
1.0
176
     1
 90
        8
176
     1
 62
     7
176
     1
 40
1.0
176
     1
 90
        1
176
     1
 90
        6
176
     1
 90
        2
176
     1
 62
     7
176
     1
 90
        5
176
     1
 90
        0
176
     1
 90
        0
176
     1
290
     0
176
     1
 90
        1
176
     1
 40
0.0
176
     1
 90
        0
176
     1
290
     0
176
     1
290
     1
176
     1
290
     1
176
     1
290
     0
176
     1
290
     0
176
     1
290
     0
176
     1
290
     0
176
     1
290
     0
176
     1
290
     0
176
     1
 90
       50
176
     1
 40
0.0
176
     1
 40
1.0
176
     1
 90
        0
176
     1
 62
    18
420
        0
176
     1
 90
       50
176
     1
 90
        3
176
     1
 62
     5
420
      255
176
     1
290
     0
176
     1
 90
       50
176
     1
 90
       50
176
     1
 90
       50
176
     1
290
     0
176
     1
 90
       50
176
     1
 62
   256
176
     0
 40
1.0
176
     0
 90
        2
176
     1
  1
strokes_ogs.tif
176
     1
290
     0
176
     1
 40
1.0
176
     1
 40
1.0
176
     1
  0
VISUALSTYLE
  5
521
102
{ACAD_REACTORS
330
520
102
}
330
520
100
AcDbVisualStyle
  2
Flat
 70
     0
177
     3
291
     1
 70
    58
 90
        2
176
     1
 90
        1
176
     1
 90
        1
176
     1
 90
        2
176
     1
 40
0.6
176
     1
 40
30.0
176
     1
 62
     7
420
 16777215
176
     1
 90
        0
176
     1
 90
        0
176
     1
 62
     7
176
     1
 62
   257
176
     1
 90
        1
176
     1
 90
        1
176
     1
 40
1.0
176
     1
 90
        8
176
     1
 62
     7
176
     1
 40
1.0
176
     1
 90
        1
176
     1
 90
        6
176
     1
 90
        2
176
     1
 62
     7
176
     1
 90
        5
176
     1
 90
        0
176
     1
 90
        0
176
     1
290
     0
176
     1
 90
       13
176
     1
 40
0.0
176
     1
 90
        0
176
     1
290
     0
176
     1
290
     1
176
     1
290
     1
176
     1
290
     0
176
     1
290
     0
176
     1
290
     0
176
     1
290
     0
176
     1
290
     0
176
     1
290
     0
176
     1
 90
       50
176
     1
 40
0.0
176
     1
 40
1.0
176
     1
 90
        0
176
     1
 62
    18
420
        0
176
     1
 90
       50
176
     1
 90
        3
176
     1
 62
     5
420
      255
176
     1
290
     0
176
     1
 90
       50
176
     1
 90
       50
176
     1
 90
       50
176
     1
290
     0
176
     1
 90
       50
176
     1
 62
   256
176
     0
 40
1.0
176
     0
 90
        2
176
     1
  1
strokes_ogs.tif
176
     1
290
     0
176
     1
 40
1.0
176
     1
 40
1.0
176
     1
  0
VISUALSTYLE
  5
522
102
{ACAD_REACTORS
330
520
102
}
330
520
100
AcDbVisualStyle
  2
FlatWithEdges
 70
     1
177
     3
291
     1
 70
    58
 90
        2
176
     1
 90
        1
176
     1
 90
        1
176
     1
 90
        2
176
     1
 40
0.6
176
     1
 40
30.0
176
     1
 62
     7
420
 16777215
176
     1
 90
        1
176
     1
 90
        0
176
     1
 62
     7
176
     1
 62
   257
176
     1
 90
        1
176
     1
 90
        1
176
     1
 40
1.0
176
     1
 90
        0
176
     1
 62
   257
176
     1
 40
1.0
176
     1
 90
        1
176
     1
 90
        6
176
     1
 90
        2
176
     1
 62
     7
176
     1
 90
        5
176
     1
 90
        0
176
     1
 90
        0
176
     1
290
     0
176
     1
 90
       13
176
     1
 40
0.0
176
     1
 90
        0
176
     1
290
     0
176
     1
290
     1
176
     1
290
     1
176
     1
290
     0
176
     1
290
     0
176
     1
290
     0
176
     1
290
     0
176
     1
290
     0
176
     1
290
     0
176
     1
 90
       50
176
     1
 40
0.0
176
     1
 40
1.0
176
     1
 90
        0
176
     1
 62
    18
420
        0
176
     1
 90
       50
176
     1
 90
        3
176
     1
 62
     5
420
      255
176
     1
290
     0
176
     1
 90
       50
176
     1
 90
       50
176
     1
 90
       50
176
     1
290
     0
176
     1
 90
       50
176
     1
 62
   256
176
     0
 40
1.0
176
     0
 90
        2
176
     1
  1
strokes_ogs.tif
176
     1
290
     0
176
     1
 40
1.0
176
     1
 40
1.0
176
     1
  0
VISUALSTYLE
  5
523
102
{ACAD_REACTORS
330
520
102
}
330
520
100
AcDbVisualStyle
  2
Gouraud
 70
     2
177
     3
291
     1
 70
    58
 90
        2
176
     1
 90
        2
176
     1
 90
        1
176
     1
 90
        2
176
     1
 40
0.6
176
     1
 40
30.0
176
     1
 62
     7
420
 16777215
176
     1
 90
        0
176
     1
 90
        0
176
     1
 62
     7
176
     1
 62
   257
176
     1
 90
        1
176
     1
 90
        1
176
     1
 40
1.0
176
     1
 90
        0
176
     1
 62
     7
176
     1
 40
1.0
176
     1
 90
        1
176
     1
 90
        6
176
     1
 90
        2
176
     1
 62
     7
176
     1
 90
        5
176
     1
 90
        0
176
     1
 90
        0
176
     1
290
     0
176
     1
 90
       13
176
     1
 40
0.0
176
     1
 90
        0
176
     1
290
     0
176
     1
290
     1
176
     1
290
     1
176
     1
290
     0
176
     1
290
     0
176
     1
290
     0
176
     1
290
     0
176
     1
290
     0
176
     1
290
     0
176
     1
 90
       50
176
     1
 40
0.0
176
     1
 40
1.0
176
     1
 90
        0
176
     1
 62
    18
420
        0
176
     1
 90
       50
176
     1
 90
        3
176
     1
 62
     5
420
      255
176
     1
290
     0
176
     1
 90
       50
176
     1
 90
       50
176
     1
 90
       50
176
     1
290
     0
176
     1
 90
       50
176
     1
 62
   256
176
     0
 40
1.0
176
     0
 90
        2
176
     1
  1
strokes_ogs.tif
176
     1
290
     0
176
     1
 40
1.0
176
     1
 40
1.0
176
     1
  0
VISUALSTYLE
  5
524
102
{ACAD_REACTORS
330
520
102
}
330
520
100
AcDbVisualStyle
  2
GouraudWithEdges
 70
     3
177
     3
291
     1
 70
    58
 90
        2
176
     1
 90
        2
176
     1
 90
        1
176
     1
 90
        2
176
     1
 40
0.6
176
     1
 40
30.0
176
     1
 62
     7
420
 16777215
176
     1
 90
        1
176
     1
 90
        0
176
     1
 62
     7
176
     1
 62
   257
176
     1
 90
        1
176
     1
 90
        1
176
     1
 40
1.0
176
     1
 90
        0
176
     1
 62
   257
176
     1
 40
1.0
176
     1
 90
        1
176
     1
 90
        6
176
     1
 90
        2
176
     1
 62
     7
176
     1
 90
        5
176
     1
 90
        0
176
     1
 90
        0
176
     1
290
     0
176
     1
 90
       13
176
     1
 40
0.0
176
     1
 90
        0
176
     1
290
     0
176
     1
290
     1
176
     1
290
     1
176
     1
290
     0
176
     1
290
     0
176
     1
290
     0
176
     1
290
     0
176
     1
290
     0
176
     1
290
     0
176
     1
 90
       50
176
     1
 40
0.0
176
     1
 40
1.0
176
     1
 90
        0
176
     1
 62
    18
420
        0
176
     1
 90
       50
176
     1
 90
        3
176
     1
 62
     5
420
      255
176
     1
290
     0
176
     1
 90
       50
176
     1
 90
       50
176
     1
 90
       50
176
     1
290
     0
176
     1
 90
       50
176
     1
 62
   256
176
     0
 40
1.0
176
     0
 90
        2
176
     1
  1
strokes_ogs.tif
176
     1
290
     0
176
     1
 40
1.0
176
     1
 40
1.0
176
     1
  0
VISUALSTYLE
  5
527
102
{ACAD_REACTORS
330
520
102
}
330
520
100
AcDbVisualStyle
  2
Hidden
 70
     6
177
     3
291
     0
 70
    58
 90
        1
176
     1
 90
        2
176
     1
 90
        2
176
     1
 90
        0
176
     1
 40
0.6
176
     1
 40
30.0
176
     1
 62
     7
420
 16777215
176
     1
 90
        2
176
     1
 90
        2
176
     1
 62
     7
176
     1
 62
   257
176
     1
 90
        2
176
     1
 90
        1
176
     1
 40
40.0
176
     1
 90
        0
176
     1
 62
   257
176
     1
 40
1.0
176
     1
 90
        1
176
     1
 90
        6
176
     1
 90
        2
176
     1
 62
     7
176
     1
 90
        3
176
     1
 90
        0
176
     1
 90
        0
176
     1
290
     0
176
     1
 90
        1
176
     1
 40
0.0
176
     1
 90
        0
176
     1
290
     0
176
     1
290
     1
176
     1
290
     1
176
     1
290
     0
176
     1
290
     0
176
     1
290
     0
176
     1
290
     0
176
     1
290
     0
176
     1
290
     0
176
     1
 90
       50
176
     1
 40
0.0
176
     1
 40
1.0
176
     1
 90
        0
176
     1
 62
    18
420
        0
176
     1
 90
       50
176
     1
 90
        3
176
     1
 62
     5
420
      255
176
     1
290
     0
176
     1
 90
       50
176
     1
 90
       50
176
     1
 90
       50
176
     1
290
     0
176
     1
 90
       50
176
     1
 62
   256
176
     0
 40
1.0
176
     0
 90
        2
176
     1
  1
strokes_ogs.tif
176
     1
290
     0
176
     1
 40
1.0
176
     1
 40
1.0
176
     1
  0
VISUALSTYLE
  5
531
102
{ACAD_REACTORS
330
520
102
}
330
520
100
AcDbVisualStyle
  2
JitterOff
 70
    20
177
     3
291
     1
 70
    58
 90
        2
176
     0
 90
        2
176
     0
 90
        0
176
     0
 90
        0
176
     0
 40
0.6
176
     0
 40
30.0
176
     0
 62
     7
420
 16777215
176
     0
 90
        1
176
     0
 90
        4
176
     0
 62
     7
176
     0
 62
   257
176
     0
 90
        1
176
     0
 90
        1
176
     0
 40
1.0
176
     0
 90
       10
176
     2
 62
     7
176
     0
 40
1.0
176
     0
 90
        1
176
     0
 90
        6
176
     0
 90
        2
176
     0
 62
     7
176
     0
 90
        5
176
     0
 90
        0
176
     0
 90
        0
176
     0
290
     0
176
     0
 90
        1
176
     0
 40
0.0
176
     0
 90
        0
176
     0
290
     0
176
     0
290
     1
176
     0
290
     1
176
     0
290
     0
176
     0
290
     0
176
     0
290
     0
176
     0
290
     0
176
     0
290
     0
176
     0
290
     0
176
     0
 90
       50
176
     0
 40
0.0
176
     0
 40
1.0
176
     0
 90
        0
176
     0
 62
    18
420
        0
176
     0
 90
       50
176
     0
 90
        3
176
     0
 62
     5
420
      255
176
     0
290
     0
176
     0
 90
       50
176
     0
 90
       50
176
     0
 90
       50
176
     0
290
     0
176
     0
 90
       50
176
     0
 62
   256
176
     0
 40
1.0
176
     0
 90
        2
176
     0
  1
strokes_ogs.tif
176
     0
290
     0
176
     0
 40
1.0
176
     0
 40
1.0
176
     0
  0
VISUALSTYLE
  5
52E
102
{ACAD_REACTORS
330
520
102
}
330
520
100
AcDbVisualStyle
  2
Linepattern
 70
    14
177
     3
291
     1
 70
    58
 90
        2
176
     1
 90
        2
176
     1
 90
        0
176
     1
 90
        0
176
     1
 40
0.6
176
     1
 40
30.0
176
     1
 62
     7
420
 16777215
176
     1
 90
        1
176
     1
 90
        4
176
     1
 62
     7
176
     1
 62
   257
176
     1
 90
        7
176
     1
 90
        7
176
     1
 40
1.0
176
     1
 90
        8
176
     1
 62
     7
176
     1
 40
1.0
176
     1
 90
        1
176
     1
 90
        6
176
     1
 90
        2
176
     1
 62
     7
176
     1
 90
        5
176
     1
 90
        0
176
     1
 90
        0
176
     1
290
     0
176
     1
 90
        1
176
     1
 40
0.0
176
     1
 90
        0
176
     1
290
     0
176
     1
290
     1
176
     1
290
     1
176
     1
290
     0
176
     1
290
     0
176
     1
290
     0
176
     1
290
     0
176
     1
290
     0
176
     1
290
     0
176
     1
 90
       50
176
     1
 40
0.0
176
     1
 40
1.0
176
     1
 90
        0
176
     1
 62
    18
420
        0
176
     1
 90
       50
176
     1
 90
        3
176
     1
 62
     5
420
      255
176
     1
290
     0
176
     1
 90
       50
176
     1
 90
       50
176
     1
 90
       50
176
     1
290
     0
176
     1
 90
       50
176
     1
 62
   256
176
     0
 40
1.0
176
     0
 90
        2
176
     1
  1
strokes_ogs.tif
176
     1
290
     0
176
     1
 40
1.0
176
     1
 40
1.0
176
     1
  0
VISUALSTYLE
  5
532
102
{ACAD_REACTORS
330
520
102
}
330
520
100
AcDbVisualStyle
  2
OverhangOff
 70
    21
177
     3
291
     1
 70
    58
 90
        2
176
     0
 90
        2
176
     0
 90
        0
176
     0
 90
        0
176
     0
 40
0.6
176
     0
 40
30.0
176
     0
 62
     7
420
 16777215
176
     0
 90
        1
176
     0
 90
        4
176
     0
 62
     7
176
     0
 62
   257
176
     0
 90
        1
176
     0
 90
        1
176
     0
 40
1.0
176
     0
 90
        9
176
     2
 62
     7
176
     0
 40
1.0
176
     0
 90
        1
176
     0
 90
        6
176
     0
 90
        2
176
     0
 62
     7
176
     0
 90
        5
176
     0
 90
        0
176
     0
 90
        0
176
     0
290
     0
176
     0
 90
        1
176
     0
 40
0.0
176
     0
 90
        0
176
     0
290
     0
176
     0
290
     1
176
     0
290
     1
176
     0
290
     0
176
     0
290
     0
176
     0
290
     0
176
     0
290
     0
176
     0
290
     0
176
     0
290
     0
176
     0
 90
       50
176
     0
 40
0.0
176
     0
 40
1.0
176
     0
 90
        0
176
     0
 62
    18
420
        0
176
     0
 90
       50
176
     0
 90
        3
176
     0
 62
     5
420
      255
176
     0
290
     0
176
     0
 90
       50
176
     0
 90
       50
176
     0
 90
       50
176
     0
290
     0
176
     0
 90
       50
176
     0
 62
   256
176
     0
 40
1.0
176
     0
 90
        2
176
     0
  1
strokes_ogs.tif
176
     0
290
     0
176
     0
 40
1.0
176
     0
 40
1.0
176
     0
  0
VISUALSTYLE
  5
529
102
{ACAD_REACTORS
330
520
102
}
330
520
100
AcDbVisualStyle
  2
Realistic
 70
     8
177
     3
291
     0
 70
    58
 90
        2
176
     1
 90
        3
176
     1
 90
        0
176
     1
 90
        2
176
     1
 40
0.6
176
     1
 40
30.0
176
     1
 62
     7
420
 16777215
176
     1
 90
        0
176
     1
 90
        0
176
     1
 62
     7
176
     1
 62
   257
176
     1
 90
        1
176
     1
 90
        1
176
     1
 40
1.0
176
     1
 90
        8
176
     1
 62
   257
176
     1
 40
1.0
176
     1
 90
        1
176
     1
 90
        6
176
     1
 90
        2
176
     1
 62
     7
176
     1
 90
        3
176
     1
 90
        0
176
     1
 90
        0
176
     1
290
     0
176
     1
 90
       13
176
     1
 40
0.0
176
     1
 90
        0
176
     1
290
     0
176
     1
290
     1
176
     1
290
     1
176
     1
290
     0
176
     1
290
     0
176
     1
290
     0
176
     1
290
     0
176
     1
290
     0
176
     1
290
     0
176
     1
 90
       50
176
     1
 40
0.0
176
     1
 40
1.0
176
     1
 90
        0
176
     1
 62
    18
420
        0
176
     1
 90
       50
176
     1
 90
        3
176
     1
 62
     5
420
      255
176
     1
290
     0
176
     1
 90
       50
176
     1
 90
       50
176
     1
 90
       50
176
     1
290
     0
176
     1
 90
       50
176
     1
 62
   256
176
     0
 40
1.0
176
     0
 90
        2
176
     1
  1
strokes_ogs.tif
176
     1
290
     0
176
     1
 40
1.0
176
     1
 40
1.0
176
     1
  0
VISUALSTYLE
  5
538
102
{ACAD_REACTORS
330
520
102
}
330
520
100
AcDbVisualStyle
  2
Shaded
 70
    27
177
     3
291
     0
 70
    58
 90
        2
176
     1
 90
        2
176
     1
 90
        1
176
     1
 90
        2
176
     1
 40
0.6
176
     1
 40
30.0
176
     1
 62
     7
420
 16777215
176
     1
 90
        0
176
     1
 90
        4
176
     1
 62
     7
176
     1
 62
   257
176
     1
 90
        1
176
     1
 90
        1
176
     1
 40
1.0
176
     1
 90
        8
176
     1
 62
   257
176
     1
 40
1.0
176
     1
 90
        1
176
     1
 90
        6
176
     1
 90
        2
176
     1
 62
     8
420
  7895160
176
     1
 90
        3
176
     1
 90
        0
176
     1
 90
        0
176
     1
290
     0
176
     1
 90
        5
176
     1
 40
0.0
176
     1
 90
        0
176
     1
290
     0
176
     1
290
     1
176
     1
290
     1
176
     1
290
     0
176
     1
290
     0
176
     1
290
     0
176
     1
290
     0
176
     1
290
     0
176
     1
290
     0
176
     1
 90
       50
176
     1
 40
0.0
176
     1
 40
1.0
176
     1
 90
        0
176
     1
 62
    18
420
        0
176
     1
 90
       50
176
     1
 90
        3
176
     1
 62
     5
420
      255
176
     1
290
     0
176
     1
 90
       50
176
     1
 90
       50
176
     1
 90
       50
176
     1
290
     0
176
     1
 90
       50
176
     1
 62
   256
176
     0
 40
1.0
176
     0
 90
        2
176
     1
  1
strokes_ogs.tif
176
     1
290
     0
176
     1
 40
1.0
176
     1
 40
1.0
176
     1
  0
VISUALSTYLE
  5
537
102
{ACAD_REACTORS
330
520
102
}
330
520
100
AcDbVisualStyle
  2
Shaded with edges
 70
    26
177
     3
291
     0
 70
    58
 90
        2
176
     1
 90
        2
176
     1
 90
        1
176
     1
 90
        2
176
     1
 40
0.6
176
     1
 40
30.0
176
     1
 62
     7
420
 16777215
176
     1
 90
        1
176
     1
 90
       10
176
     1
 62
     7
176
     1
 62
   257
176
     1
 90
        2
176
     1
 90
        1
176
     1
 40
1.0
176
     1
 90
        8
176
     1
 62
   257
176
     1
 40
1.0
176
     1
 90
        1
176
     1
 90
        6
176
     1
 90
        2
176
     1
 62
     7
176
     1
 90
        3
176
     1
 90
        0
176
     1
 90
        0
176
     1
290
     0
176
     1
 90
        5
176
     1
 40
0.0
176
     1
 90
        0
176
     1
290
     0
176
     1
290
     1
176
     1
290
     1
176
     1
290
     0
176
     1
290
     0
176
     1
290
     0
176
     1
290
     0
176
     1
290
     0
176
     1
290
     0
176
     1
 90
       50
176
     1
 40
0.0
176
     1
 40
1.0
176
     1
 90
        0
176
     1
 62
    18
420
        0
176
     1
 90
       50
176
     1
 90
        3
176
     1
 62
     5
420
      255
176
     1
290
     0
176
     1
 90
       50
176
     1
 90
       50
176
     1
 90
       50
176
     1
290
     0
176
     1
 90
       50
176
     1
 62
   256
176
     0
 40
1.0
176
     0
 90
        2
176
     1
  1
strokes_ogs.tif
176
     1
290
     0
176
     1
 40
1.0
176
     1
 40
1.0
176
     1
  0
VISUALSTYLE
  5
534
102
{ACAD_REACTORS
330
520
102
}
330
520
100
AcDbVisualStyle
  2
Shades of Gray
 70
    23
177
     3
291
     0
 70
    58
 90
        2
176
     1
 90
        2
176
     1
 90
        3
176
     1
 90
        0
176
     1
 40
0.6
176
     1
 40
30.0
176
     1
 62
     7
420
 16777215
176
     1
 90
        2
176
     1
 90
        2
176
     1
 62
     7
176
     1
 62
     7
176
     1
 90
        1
176
     1
 90
        1
176
     1
 40
40.0
176
     1
 90
        8
176
     1
 62
     7
176
     1
 40
1.0
176
     1
 90
        1
176
     1
 90
        6
176
     1
 90
        2
176
     1
 62
     7
176
     1
 90
        3
176
     1
 90
        0
176
     1
 90
        0
176
     1
290
     0
176
     1
 90
        1
176
     1
 40
0.0
176
     1
 90
        0
176
     1
290
     0
176
     1
290
     1
176
     1
290
     1
176
     1
290
     0
176
     1
290
     0
176
     1
290
     0
176
     1
290
     0
176
     1
290
     0
176
     1
290
     0
176
     1
 90
       50
176
     1
 40
0.0
176
     1
 40
1.0
176
     1
 90
        0
176
     1
 62
    18
420
        0
176
     1
 90
       50
176
     1
 90
        3
176
     1
 62
     5
420
      255
176
     1
290
     0
176
     1
 90
       50
176
     1
 90
       50
176
     1
 90
       50
176
     1
290
     0
176
     1
 90
       50
176
     1
 62
   256
176
     0
 40
1.0
176
     0
 90
        2
176
     1
  1
strokes_ogs.tif
176
     1
290
     0
176
     1
 40
1.0
176
     1
 40
1.0
176
     1
  0
VISUALSTYLE
  5
535
102
{ACAD_REACTORS
330
520
102
}
330
520
100
AcDbVisualStyle
  2
Sketchy
 70
    24
177
     3
291
     0
 70
    58
 90
        1
176
     1
 90
        2
176
     1
 90
        2
176
     1
 90
        0
176
     1
 40
0.6
176
     1
 40
30.0
176
     1
 62
     7
420
 16777215
176
     1
 90
        2
176
     1
 90
        2
176
     1
 62
     7
176
     1
 62
     7
176
     1
 90
        1
176
     1
 90
        1
176
     1
 40
40.0
176
     1
 90
       11
176
     1
 62
     7
176
     1
 40
1.0
176
     1
 90
        1
176
     1
 90
        6
176
     1
 90
        2
176
     1
 62
     7
176
     1
 90
        6
176
     1
 90
        0
176
     1
 90
        0
176
     1
290
     0
176
     1
 90
        1
176
     1
 40
0.0
176
     1
 90
        0
176
     1
290
     0
176
     1
290
     1
176
     1
290
     1
176
     1
290
     0
176
     1
290
     0
176
     1
290
     0
176
     1
290
     0
176
     1
290
     0
176
     1
290
     0
176
     1
 90
       50
176
     1
 40
0.0
176
     1
 40
1.0
176
     1
 90
        0
176
     1
 62
    18
420
        0
176
     1
 90
       50
176
     1
 90
        3
176
     1
 62
     5
420
      255
176
     1
290
     0
176
     1
 90
       50
176
     1
 90
       50
176
     1
 90
       50
176
     1
290
     0
176
     1
 90
       50
176
     1
 62
   256
176
     0
 40
1.0
176
     0
 90
        2
176
     1
  1
strokes_ogs.tif
176
     1
290
     0
176
     1
 40
1.0
176
     1
 40
1.0
176
     1
  0
VISUALSTYLE
  5
52D
102
{ACAD_REACTORS
330
520
102
}
330
520
100
AcDbVisualStyle
  2
Thicken
 70
    13
177
     3
291
     1
 70
    58
 90
        2
176
     1
 90
        2
176
     1
 90
        0
176
     1
 90
        0
176
     1
 40
0.6
176
     1
 40
30.0
176
     1
 62
     7
420
 16777215
176
     1
 90
        1
176
     1
 90
        4
176
     1
 62
     7
176
     1
 62
   257
176
     1
 90
        1
176
     1
 90
        1
176
     1
 40
1.0
176
     1
 90
       12
176
     1
 62
     7
176
     1
 40
1.0
176
     1
 90
        1
176
     1
 90
        6
176
     1
 90
        2
176
     1
 62
     7
176
     1
 90
        5
176
     1
 90
        0
176
     1
 90
        0
176
     1
290
     0
176
     1
 90
        1
176
     1
 40
0.0
176
     1
 90
        0
176
     1
290
     0
176
     1
290
     1
176
     1
290
     1
176
     1
290
     0
176
     1
290
     0
176
     1
290
     0
176
     1
290
     0
176
     1
290
     0
176
     1
290
     0
176
     1
 90
       50
176
     1
 40
0.0
176
     1
 40
1.0
176
     1
 90
        0
176
     1
 62
    18
420
        0
176
     1
 90
       50
176
     1
 90
        3
176
     1
 62
     5
420
      255
176
     1
290
     0
176
     1
 90
       50
176
     1
 90
       50
176
     1
 90
       50
176
     1
290
     0
176
     1
 90
       50
176
     1
 62
   256
176
     0
 40
1.0
176
     0
 90
        2
176
     1
  1
strokes_ogs.tif
176
     1
290
     0
176
     1
 40
1.0
176
     1
 40
1.0
176
     1
  0
VISUALSTYLE
  5
526
102
{ACAD_REACTORS
330
520
102
}
330
520
100
AcDbVisualStyle
  2
Wireframe
 70
     5
177
     3
291
     0
 70
    58
 90
        0
176
     1
 90
        2
176
     1
 90
        0
176
     1
 90
        0
176
     1
 40
0.6
176
     1
 40
30.0
176
     1
 62
     7
420
 16777215
176
     1
 90
        1
176
     1
 90
        4
176
     1
 62
     7
176
     1
 62
   257
176
     1
 90
        1
176
     1
 90
        1
176
     1
 40
1.0
176
     1
 90
        0
176
     1
 62
   257
176
     1
 40
1.0
176
     1
 90
        1
176
     1
 90
        6
176
     1
 90
        2
176
     1
 62
     7
176
     1
 90
        3
176
     1
 90
        0
176
     1
 90
        0
176
     1
290
     0
176
     1
 90
        1
176
     1
 40
0.0
176
     1
 90
        0
176
     1
290
     0
176
     1
290
     1
176
     1
290
     1
176
     1
290
     0
176
     1
290
     0
176
     1
290
     0
176
     1
290
     0
176
     1
290
     0
176
     1
290
     0
176
     1
 90
       50
176
     1
 40
0.0
176
     1
 40
1.0
176
     1
 90
        0
176
     1
 62
    18
420
        0
176
     1
 90
       50
176
     1
 90
        3
176
     1
 62
     5
420
      255
176
     1
290
     0
176
     1
 90
       50
176
     1
 90
       50
176
     1
 90
       50
176
     1
290
     0
176
     1
 90
       50
176
     1
 62
   256
176
     0
 40
1.0
176
     0
 90
        2
176
     1
  1
strokes_ogs.tif
176
     1
290
     0
176
     1
 40
1.0
176
     1
 40
1.0
176
     1
  0
VISUALSTYLE
  5
536
102
{ACAD_REACTORS
330
520
102
}
330
520
100
AcDbVisualStyle
  2
X-Ray
 70
    25
177
     3
291
     0
 70
    58
 90
        2
176
     1
 90
        2
176
     1
 90
        1
176
     1
 90
        1
176
     1
 40
0.5
176
     1
 40
30.0
176
     1
 62
     7
420
 16777215
176
     1
 90
        1
176
     1
 90
        0
176
     1
 62
     7
176
     1
 62
   257
176
     1
 90
        1
176
     1
 90
        1
176
     1
 40
1.0
176
     1
 90
        8
176
     1
 62
     7
176
     1
 40
1.0
176
     1
 90
        1
176
     1
 90
        6
176
     1
 90
        2
176
     1
 62
     7
176
     1
 90
        3
176
     1
 90
        0
176
     1
 90
        0
176
     1
290
     0
176
     1
 90
       13
176
     1
 40
0.0
176
     1
 90
        0
176
     1
290
     0
176
     1
290
     1
176
     1
290
     1
176
     1
290
     0
176
     1
290
     0
176
     1
290
     0
176
     1
290
     0
176
     1
290
     0
176
     1
290
     0
176
     1
 90
       50
176
     1
 40
0.0
176
     1
 40
1.0
176
     1
 90
        0
176
     1
 62
    18
420
        0
176
     1
 90
       50
176
     1
 90
        3
176
     1
 62
     5
420
      255
176
     1
290
     0
176
     1
 90
       50
176
     1
 90
       50
176
     1
 90
       50
176
     1
290
     0
176
     1
 90
       50
176
     1
 62
   256
176
     0
 40
1.0
176
     0
 90
        2
176
     1
  1
strokes_ogs.tif
176
     1
290
     0
176
     1
 40
1.0
176
     1
 40
1.0
176
     1
  0
DICTIONARYVAR
  5
AE6
102
{ACAD_REACTORS
330
AE5
102
}
330
AE5
100
DictionaryVariables
280
     0
  1
1:1
  0
DICTIONARYVAR
  5
AEB
102
{ACAD_REACTORS
330
AE5
102
}
330
AE5
100
DictionaryVariables
280
     0
  1
Standard
  0
DICTIONARYVAR
  5
AEA
102
{ACAD_REACTORS
330
AE5
102
}
330
AE5
100
DictionaryVariables
280
     0
  1
Standard
  0
DICTIONARYVAR
  5
AEC
102
{ACAD_REACTORS
330
AE5
102
}
330
AE5
100
DictionaryVariables
280
     0
  1
0
  0
DICTIONARY
  5
282F
330
53E
100
AcDbDictionary
280
     1
281
     1
  3
ACAD_ROUNDTRIP_2008_TABLESTYLE_CELLSTYLEMAP
360
2830
  0
CELLSTYLEMAP
  5
2830
102
{ACAD_REACTORS
330
282F
102
}
330
282F
100
AcDbCellStyleMap
 90
        3
300
CELLSTYLE
  1
TABLEFORMAT_BEGIN
 90
        5
170
     1
 91
        0
 92
    32768
 62
   257
 93
        1
300
CONTENTFORMAT
  1
CONTENTFORMAT_BEGIN
 90
        0
 91
        0
 92
        4
 93
        0
300

 40
0.0
140
1.0
 94
        5
 62
     0
340
17
144
0.25
309
CONTENTFORMAT_END
171
     1
301
MARGIN
  1
CELLMARGIN_BEGIN
 40
0.06
 40
0.06
 40
0.06
 40
0.06
 40
0.06
 40
0.06
309
CELLMARGIN_END
 94
        6
 95
        1
302
GRIDFORMAT
  1
GRIDFORMAT_BEGIN
 90
        0
 91
        1
 62
     0
 92
       -2
340
11
 93
        0
 40
0.045
309
GRIDFORMAT_END
 95
        2
302
GRIDFORMAT
  1
GRIDFORMAT_BEGIN
 90
        0
 91
        1
 62
     0
 92
       -2
340
11
 93
        0
 40
0.045
309
GRIDFORMAT_END
 95
        4
302
GRIDFORMAT
  1
GRIDFORMAT_BEGIN
 90
        0
 91
        1
 62
     0
 92
       -2
340
11
 93
        0
 40
0.045
309
GRIDFORMAT_END
 95
        8
302
GRIDFORMAT
  1
GRIDFORMAT_BEGIN
 90
        0
 91
        1
 62
     0
 92
       -2
340
11
 93
        0
 40
0.045
309
GRIDFORMAT_END
 95
       16
302
GRIDFORMAT
  1
GRIDFORMAT_BEGIN
 90
        0
 91
        1
 62
     0
 92
       -2
340
11
 93
        0
 40
0.045
309
GRIDFORMAT_END
 95
       32
302
GRIDFORMAT
  1
GRIDFORMAT_BEGIN
 90
        0
 91
        1
 62
     0
 92
       -2
340
11
 93
        0
 40
0.045
309
GRIDFORMAT_END
309
TABLEFORMAT_END
  1
CELLSTYLE_BEGIN
 90
        1
 91
        1
300
_TITLE
309
CELLSTYLE_END
300
CELLSTYLE
  1
TABLEFORMAT_BEGIN
 90
        5
170
     1
 91
        0
 92
        0
 62
   257
 93
        1
300
CONTENTFORMAT
  1
CONTENTFORMAT_BEGIN
 90
        0
 91
        0
 92
        4
 93
        0
300

 40
0.0
140
1.0
 94
        5
 62
     0
340
17
144
0.18
309
CONTENTFORMAT_END
171
     1
301
MARGIN
  1
CELLMARGIN_BEGIN
 40
0.06
 40
0.06
 40
0.06
 40
0.06
 40
0.06
 40
0.06
309
CELLMARGIN_END
 94
        6
 95
        1
302
GRIDFORMAT
  1
GRIDFORMAT_BEGIN
 90
        0
 91
        1
 62
     0
 92
       -2
340
11
 93
        0
 40
0.045
309
GRIDFORMAT_END
 95
        2
302
GRIDFORMAT
  1
GRIDFORMAT_BEGIN
 90
        0
 91
        1
 62
     0
 92
       -2
340
11
 93
        0
 40
0.045
309
GRIDFORMAT_END
 95
        4
302
GRIDFORMAT
  1
GRIDFORMAT_BEGIN
 90
        0
 91
        1
 62
     0
 92
       -2
340
11
 93
        0
 40
0.045
309
GRIDFORMAT_END
 95
        8
302
GRIDFORMAT
  1
GRIDFORMAT_BEGIN
 90
        0
 91
        1
 62
     0
 92
       -2
340
11
 93
        0
 40
0.045
309
GRIDFORMAT_END
 95
       16
302
GRIDFORMAT
  1
GRIDFORMAT_BEGIN
 90
        0
 91
        1
 62
     0
 92
       -2
340
11
 93
        0
 40
0.045
309
GRIDFORMAT_END
 95
       32
302
GRIDFORMAT
  1
GRIDFORMAT_BEGIN
 90
        0
 91
        1
 62
     0
 92
       -2
340
11
 93
        0
 40
0.045
309
GRIDFORMAT_END
309
TABLEFORMAT_END
  1
CELLSTYLE_BEGIN
 90
        2
 91
        1
300
_HEADER
309
CELLSTYLE_END
300
CELLSTYLE
  1
TABLEFORMAT_BEGIN
 90
        5
170
     1
 91
        0
 92
        0
 62
   257
 93
        1
300
CONTENTFORMAT
  1
CONTENTFORMAT_BEGIN
 90
        0
 91
        0
 92
        4
 93
        0
300

 40
0.0
140
1.0
 94
        2
 62
     0
340
17
144
0.18
309
CONTENTFORMAT_END
171
     1
301
MARGIN
  1
CELLMARGIN_BEGIN
 40
0.06
 40
0.06
 40
0.06
 40
0.06
 40
0.06
 40
0.06
309
CELLMARGIN_END
 94
        6
 95
        1
302
GRIDFORMAT
  1
GRIDFORMAT_BEGIN
 90
        0
 91
        1
 62
     0
 92
       -2
340
11
 93
        0
 40
0.045
309
GRIDFORMAT_END
 95
        2
302
GRIDFORMAT
  1
GRIDFORMAT_BEGIN
 90
        0
 91
        1
 62
     0
 92
       -2
340
11
 93
        0
 40
0.045
309
GRIDFORMAT_END
 95
        4
302
GRIDFORMAT
  1
GRIDFORMAT_BEGIN
 90
        0
 91
        1
 62
     0
 92
       -2
340
11
 93
        0
 40
0.045
309
GRIDFORMAT_END
 95
        8
302
GRIDFORMAT
  1
GRIDFORMAT_BEGIN
 90
        0
 91
        1
 62
     0
 92
       -2
340
11
 93
        0
 40
0.045
309
GRIDFORMAT_END
 95
       16
302
GRIDFORMAT
  1
GRIDFORMAT_BEGIN
 90
        0
 91
        1
 62
     0
 92
       -2
340
11
 93
        0
 40
0.045
309
GRIDFORMAT_END
 95
       32
302
GRIDFORMAT
  1
GRIDFORMAT_BEGIN
 90
        0
 91
        1
 62
     0
 92
       -2
340
11
 93
        0
 40
0.045
309
GRIDFORMAT_END
309
TABLEFORMAT_END
  1
CELLSTYLE_BEGIN
 90
        3
 91
        2
300
_DATA
309
CELLSTYLE_END
  0
ENDSEC
  0
SECTION
  2
ACDSDATA
 70
     2
 71
     2
  0
ACDSSCHEMA
 90
        0
  1
AcDb_Thumbnail_Schema
  2
AcDbDs::ID
280
    10
 91
        8
  2
Thumbnail_Data
280
    15
 91
        0
101
ACDSRECORD
 95
        0
 90
        2
  2
AcDbDs::TreatedAsObjectData
280
     1
291
     1
101
ACDSRECORD
 95
        0
 90
        3
  2
AcDbDs::Legacy
280
     1
291
     1
101
ACDSRECORD
  1
AcDbDs::ID
 90
        4
  2
AcDs:Indexable
280
     1
291
     1
101
ACDSRECORD
  1
AcDbDs::ID
 90
        5
  2
AcDbDs::HandleAttribute
280
     7
282
     1
  0
ACDSSCHEMA
 90
        1
  1
AcDb3DSolid_ASM_Data
  2
AcDbDs::ID
280
    10
 91
        8
  2
ASM_Data
280
    15
 91
        0
101
ACDSRECORD
 95
        1
 90
        2
  2
AcDbDs::TreatedAsObjectData
280
     1
291
     1
101
ACDSRECORD
 95
        1
 90
        3
  2
AcDbDs::Legacy
280
     1
291
     1
101
ACDSRECORD
  1
AcDbDs::ID
 90
        4
  2
AcDs:Indexable
280
     1
291
     1
101
ACDSRECORD
  1
AcDbDs::ID
 90
        5
  2
AcDbDs::HandleAttribute
280
     7
282
     1
  0
ACDSSCHEMA
 90
        2
  1
AcDbDs::TreatedAsObjectDataSchema
  2
AcDbDs::TreatedAsObjectData
280
     1
 91
        0
  0
ACDSSCHEMA
 90
        3
  1
AcDbDs::LegacySchema
  2
AcDbDs::Legacy
280
     1
 91
        0
  0
ACDSSCHEMA
 90
        4
  1
AcDbDs::IndexedPropertySchema
  2
AcDs:Indexable
280
     1
 91
        0
  0
ACDSSCHEMA
 90
        5
  1
AcDbDs::HandleAttributeSchema
  2
AcDbDs::HandleAttribute
280
     7
 91
        1
284
     1
  0
ACDSRECORD
 90
        0
  2
AcDbDs::ID
280
    10
320
51E
  2
Thumbnail_Data
280
    15
 94
     3877
310
89504E470D0A1A0A0000000D49484452000001000000007D08060000004DB9BDCD000000097048597300000EC400000EC401952B0E1B00000ED749444154789CEDDD7B4C5477DAC0F1EF00033330C0706760049151914B44EDA0B55AB510AF6B1B4DD59A36D56C2FC9BA66BBB1F5DDC6BA31EDB6DD74D3EE6E9764FFD99856
310
13D7C6ACD65D635C5D79ABD56A14055FDB2AAB08828A550A822057E1BC7F4C75B52A59869973E13C9FE489E099F37B9E33E8C3EF5CE61C0BA0208430A510AD0B18C8BA75EB78F7DD771FB93C3E3EFE91CB962D5BC6E63F6C2625252518A50D3B1B366CD0BA04A18130AD0B18485E5E1EC9C9C91417173F747973733313264C
310
78E8B2993367121A138AD3E9E4DAB56BC12CD3102C160B191919783C9E0796454545919393C39C3973B87DFBF603CBEBEAEAA8ADADA5AFAF4F8D52858A2CE8701760D4A85164656591909040434303870F1F1EF41823478E24373797EEEE6E3A3A3A387AF468102AD5BF3BEFA5A228D4D7D7535D5DFDC06BC2C3C3C9CFCFA7
310
AAAA8A8E8E8E07966766669295954568682857AE5CA1AAAA4A8DD2850A74D500BC5E2F313131D4D4D4505B5B1BB07123232359B06001D7AF5FE7E4C993B4B7B7076C6C3DB2DBED78BD5EAC566BC0DFCBF4F474727272E8EAEAE2F4E9D3B4B5B5056C6CA10D45EBB0DBED4A7171B112131313D43C6161614A515191929999A9
310
F936072B5C2E97B27CF972C5E17004FD673677EE5C253A3A5AF36D961852685E80525C5CAC6ABEC71F7F5C898C8CD47CBB87C37B595252A2F9364BF81FBA380B60B15854CDD7D8D848525292AA39D5101919F9D07DF8606A6A6A1AF06C8CD0375D9C05F0783C288AA25ABEF4F4740E1E3CA85A3EB58484843069D224222323
310
55CBE972B9B879F326CDCDCDAAE51481A38B06505D5D4D5959996AF91E762A6CB8282F2FE7D8B163AAE5CBCACA222444171349E107F9C9096162866E00168B2F84B6E467605C866C005151F0DE7BF0B7BFC1BE7D3071A2D61599D7C489573971A241EB32849F0CD9007EF633686A82B7DF868D1BE1D7BF068743EBAACC293E
310
BE0BE8D4BA0CE1275D1C041C2CAB155A5BE1F469080D851B3720220286F9057EBA75FEBCD615087F19B201D4D7435C1CBCFC32C4C4405D1DB4B4685D95798D1EAD7505C25F86DC05D8B2059A9B2129099C4EF8D39F403EA8A68DDADA5876EE746A5D86F093216700007FFDABD61508800B17E2F9CD6F420099821991216700
310
4288C09006208489490310C2C4A401086162D2008430316900429898A11BC0C285909AAA7515DA7BE6190833EC095DA125C336809414F8F39F61DE3CAD2BD1D6BC79B06913E4E4685D893022C3360087032E5C00B75BEB4AB4F5E493BE4BA15D2EAD2B114664D806505404BB76416F2F4C99A27535DA4948F0ED06CD9FAF75
310
25C28854DF73B4DBEDBCF9E69B00BCFFFEFB747777FB354E63236CDDEAFBBAA42450D5194F7636FCF6B7306284D6950823527D06F093C77F424181138F278D193366F83DCEC89170ED1A1C3AE4FB58B0595557C3EF7FEFFB70941083A57A0338517B8296162B3535173970E080DFE3ECDE0D3D3DF0CF7FC2F5EB835F7FFAF4
310
E97EE7D6937FFCC3371B3A73061213E3FC1AC366B3B26041119191D6005727F44EF506505B5BCBDEBDFF435BDBC7BCFA6A0FAB57A710131333E871DC6EC8CBF3FD06F487CD66F36F459DE9EAF21D03C8CB83AD5B17FA35C69225695CBA749C929288005727F44EA38380ED381CEDA4A44042827F9F258F8BF3DD0BD06E0F70
310
690673F2A4EF3A80C6460809F1EF904E5C5C188D8D3124268607B83A6104AA3F8E2839192531F13FDFFBF378298B05A5B010C56A1D7C7E8FC7A32C5FBE5CF3C732052AAC569469D35052539395C993270F7AFDE8689B326F9E53494C1CFCB319B3B2B294ECEC6CCDDF0309FF4293EBC7FCD967FF31458153A7FC5FFFC89123
310
432F42277A7BE1F0617038FC7B2C585B5B177BF67405B82A610486BD0E40083174D20084303169004298983400214C4C1A801026260D4008139306208489490310C2C4A401086162D20084303169004298983400214C4C1A801026260D4008139306208489490310C2C4A401086162D2008430316900429898E60D60FCF8F1
310
7EDD16BCA4047EFE7378FB6D888E0E426126121B1B4B717131494949835E3735B59D5FFCA22D0855093568DE00929292B879F3E6A0D62929F13D0D372202BABBE157BF02AB3CD3C26F5EAF97B2B232C68F1F3FE875F3F31B59B122007779159AD0BC01848686E2703806B54E6121F4F7FB1E89B5752B8C19037E4C22C40F1A
310
1A1A98356B16DF7FFFBD5FEB575404B820A11A4D6E0B7EAFFDFBF7535C5C3CA875E2E27C0F041937CEF78CC08C0CE8EB0B4E7D6670E6CC19AAAAAAE8EFEFF76BFD828200172454A3F90CA0AFAF6FD0FFF0FEF847DFBDF057ACF01D0758BB165A5A8254A049F8FB9FBFBBDB371B13C6A4F90CC01F8D8DF0D147307A34DCBA05
310
75755A57645E870EA5B36851087049EB52841F0CD900C03703387346EB2A048473ED9AE61349E127F9C9096162BA9801783C1E1445512D5F7A7A3A070F1E542D9F9ABC5EEFA0CFAA0C85CBE5E2E8D1A3AAE51381A58B06505D5D4D5959996AF93C1E8F6AB9D4565E5ECEB163C754CBE7F57AFD3E7D28B4A78B5D00357FFB03
310
389D4E5A86E16983F6F676A255BE2C32363696D6D65655738AC0D145033875EA143366CC20343434E8B9264F9E4C4747C7B0FD475B5151C194295354792FE7CE9DCB37DF7C13F43C22782C80BABF7E1F212C2C8C69D3A611121242555555C0C74F4B4B23363696F3E7CF535F5F1FF0F1F5242A2A0AAFD74B676727972E05FE
310
F49CC7E3C16AB572FCF871DADAE4730046A69B067087C56261CD9A35F4F4F400505959494B4B0B7D83BCD4CF6EB73371E244EC763B2929296CDEBC9973E7CE05A364DD4A484860D5AA55B4B4B4D0DBDBCBF1E3C7E9ECEC1CF43876BB9D091326101919496868283B76EC18F64DD42C74D700004A4A4AD8BF7F3F00858585C4
310
C5C51112E2DB5BE9E9E9B9E798C1F7800DF01DF50E0F0FC762B100D0D5D5454545059D9D9DE4E4E4D0D6D6C6952B5754DE126DD96C36264D9AC4575F7D85D56AC5EBF562B7DBEF2EEFEEEEFEE1AB2EE006E0027C4D383C3CFCEEEBBABABAA8ACACA4A3A383D1A347D3DDDD2D0D6098D0C55980819C3A75EABEEFC3C3C32928
310
28203535958F3FFE3F2A2BC7F397BF4472F8F0613A3B3B1F7A40D1E17070F5EA55B54AD68D9E9E1E52535301E8EDEDE5C89123F72D8F8888202F2F8FCC4C27A5A5DFF0CB5FE670F972131515157767603F969191A1EA191B115CBA3808F863039D15484C4CA4B3B393DDBB77D3D4D486D37998F2F2727272721EB99ED3E91C
310
B607FD06D2DFDF3FE0767B3C1E1A1A1AB87AF57FB1D9BAB87973370D0D0D6466663E729D3B332C313CE8B201F4F4F4DC3705BD576E6E2E677EB806F85FFF82A347E1C68D1BC4C7C7AB59E2B0E072B9F8EEBBEFF8F7BFA1AC0CCE9E85FAFAFA011B80185E74BF0B3090F5EBB5AE6078B87103962DD3BA0AA1055DCE008410EA
310
9006208489490310C2C4A401086162BAB810E889279EC0EBF5DEFD3E3B3B9BBABA3A6EDFBEFDC06BC78C19F3D02BFA1EF5F70F5BD6D2D2C2A79F7E3AF4C275E8B9E79EBB7BEE1F06F7BEF8B34E6B6B2B9F7CF2C910AB165AD1450370381C444545A996AFAFAF6FD87E84353E3E1EAB8AF7481FCEEFA519E8A2010821B421C7
310
008430316900429898611B406222FCEE77B07225A4A5695D8D10C664D806B07A35BCF71E8C1D0B79795A5723843119B6019C3801E3C74354145CB8A07535421893611B4052D2584A4B8B494A7A929A1AADAB11C2980C731A302C2C8C8C8C0CE6CD9B87DBEDC6E57271F5EAD5BB7FB6B6B6F2F5D75FF3E5975FCA7DEA84F82F
310
E9BE0158AD569E7DF659727373A9AFAF67CF9E3D5CBE7CF981D7C5C6C6525050C0F4E9D3B15AAD6CD9B2850BB26F20C48074DD0066CD9AC5CC9933D9BE7D3BA74F9FFEAFD7B3DBED3CFFFCF3D8ED764A4B4B8358A110C6A7E83156AE5CA9CC9E3D7B4863A4A5A529EFBCF38EE2743A35DF1E09099D86E605DC17168B4579E5
310
955794B163C706643CABD5AABCF5D65B8ACBE5D27CDB2424F416BA3B0BB074E9524E9C3841515111F9F9F9431E6FFDFAF5949696B27CF9726263630350A110C38BE65DE84E4C9D3A5559B870A1022863C78E55AC56EB90C7CCCDCD5542424294C4C444E5F5D75FD77C1B252474169A17A0008ACD6653366CD810D41C4F3FFD
310
B43275EA54CDB75542422FA19B5D80A54B97B26DDBB6A0E6D8B56B170B162C907BDB0BF103DD3480DCDC5CCE9E3D1BD41C8AA270F2E4491E7BECB1A0E611C22874D100468D1A458D4AD7F3EEDDBB973973E6A8924B08BDD3450358B468119F7FFEB92AB96EDDBA85C3E1502597107AA78B06909090405353936AF91A1B1B49
310
4C4C542D9F107AA57A03080B83E8685F2C5C082B563C89D3E9A4BFBF5FB51A6EDDBAC5AA55AB54CB27845EA9FE6CC0679E8175EB60E244B87C19DADBC3F9FBDF6FAA5D060D0D0DAAE714426F549F01ECD8014545BE99C0C891F0EAAB9DC4C4C4A85D06292929AAE714426F546F008A027D7DFF894387BEA2A5A545D573F361
310
61616CDAB449B57C42E8952E0E02363636929C9CAC5A3EB7DBFDD07B0A086136BA6800070E1C60E6CC995A972184E9E8A2015456563261C20455723DF5D453949595A9924B08BDD3450300A8A9A961D4A85141CF336BD62CBEF8E28BA0E711C20874D300B66FDFCEE2C58B839AA3B0B0906FBFFDF6A14F1D16C28C74D3009A
310
9A9AA8AEAE66F2E4C94119DF6AB5B278F1623EFBECB3A08C2F845169FE99E47B63F5EAD58ADBED56D6AC59A31417170F79BC0F3EF840898888505E7BED35B92D9884C483A17901F785CD6653D6AE5DAB8C18312220E3454444282FBEF8A2929797A7F9B64948E830342FE081B0D96CCAAA55AB86FC9F363C3C5C79E38D3794
310
71E3C669BE4D12127A0C5D3F17E085175E203939998D1B37D2DADA3AA875972C59425E5E1E1F7EF821EDEDED41AA500863D3750300484A4AE2A5975E223434947DFBF6515E5EFEC8D7BADD6EE6CF9F8FDBED66E7CE9D545454A858A910C6A3FB067087C3E160F6ECD978BD5E5CAE666CB678AAABABF1783C401BF5F5362E5E
310
FCEEEEA3C37A7B7BB52E5908DD334C03B8D7471FC14F7F0AF032B007B842763634376B5B97104663C8062084080CDD5C082484509F3400214C4C1A801026260D4008139306208489A97E57602186ABBC3CDF8D6ED3D2A0A9096A6A7CA7A6274D829C1CB878D1F7F5C183101707FBF7434686EF26B9F9F9F0E18770EE9CBA35
310
CB0C408800696B83EC6CDF1DAFDD6EA8AEF6FD7D4202ECDB07B1B1F7BFFEDEFBE06EDB065A3CB04AAE0310C2C4FE1F261DD4A13572F05F0000000049454E44AE426082
  0
ACDSRECORD
 90
        0
  2
AcDbDs::ID
280
    10
320
2824
  2
Thumbnail_Data
280
    15
 94
     3895
310
89504E470D0A1A0A0000000D49484452000001000000007A080600000050BC8D75000000097048597300000EC400000EC401952B0E1B00000EE949444154789CEDDD5B4C9BF51B07F06FDF3228A71E6829E7712C738CCA61409C71D30BBD588C32B364C9623426269A989898E885174BBCF042E3C57669D40B899A18A366EA
310
CD548C896118B75A19B0C23816286C8C52CA19DA72F85F347DFF656C65EBFBB66FFBF4F95C8DD2DFEF7D184F1FDEC3EFA0EAE8E8D805632C25094A07C018534E9AD201C86D696909814040E93018412A950A46A351E9306445AE00984C263CF7DC734A87C108BA7EFD3AE6E7E7950E4356E40A40767636F2F3F3950E8311A4
310
D3E9C81500BE07C0580AE302C0580AE302C0580AE302C0580AE302C0580AE302C0580AE302C0580AE302C0580A233710285C5F5F1F7C3E9FF8B5C562815EAF0700381C0EACAFAF0300F47A3D2C160B00606E6E0E939393629B868606A4A7A703006C369BF87A7171314A4A4A000013131370BBDD0080B4B4343435350100D6
310
D7D7E17038C436D5D5D5C8CBCB03000C0E0E6275751500A0D56A71E4C81100C0C6C6066EDEBC29B6B15AADD06834FBDA141616A2ACAC0C00E0F178303E3E0E0050ABD5686E6E16DBDBED76ECECEC0000AAAAAAC4A1AC2E970BB3B3B30080DCDC5C3CF6D8630080CDCD4DF4F7F78BEDEBEBEB9199990900181A1AC2F2F23200
310
A0A0A000870F1F06002C2C2C606C6C0C002008028E1F3F2EB6EFE9E9C1D6D61600C06C36A3BCBC1C00303D3D8D3B77EE00080EB16D69690100F87C3EF4F5F589ED2B2A2AC4815DC3C3C3585A5A02101CF05557570700F07ABD181D1D15DBD4D5D5213B3B1B0070E3C60D7168787E7E3E2A2A2A0000333333B87DFBB6D8A6A5
310
A5052A950A814000376EDC105FDFDADAC289132740958ADA6C40BD5E8FF6F67600C10F6C6B6BABC211B164169E4357AF5E150B1D157C09C0580A235D0042A7A88C458B7A0E912E000505054A87C0921CF51C225D00186391912E002323234A87C0921CF51C225D00161717950E812539EA3944BA0030C622233D1048CACA40
310
5D5D5DE2001C96DC36373771F2E4C9A8DA525F5D8A7401088DFA8A8646A3E1414444848FE07C5452722819F0250063298C740170B95C4A87C0921CF51C227D09303B3B2B4E9891D3850B17D0D6D686EAEA6A714251882008301A8DB870E1023EFBEC3371524A22595F5FC7ECEC2C3C1E0F00E0A79F7EC2993367000427EC14
310
161622232343C9101346AC722851902E00720BCD3A7BE6996750505080CACA4A646565ED79CFF6F636A6A7A771FEFC790C0C0CC06432A1A2A2022A954AA1A8830281001C0E0702810032333351545484AAAA2A007B67F0CDCDCD616868083E9F0F999999387AF428D46AB592A1B318225D0072737365EBEB9F7FFE81D1683C
310
F0C6A05AAD467979B938ED757E7E1E76BB1D56AB55B1BFAA2E970B1E8F07757575E2D4E670E1D377CD6633CC663380E0D4E4DEDE5E141717A3B0B0306EF126123973281191BE07109AE32E95D7EB85D16814D70C78142693092D2D2D7BE6B8C7DBECEC2C1A1B1BEFFBE18F24333313CDCDCDE4AF8323912B871215E93300B9
310
0C0F0F431004498F93941C51363C3C2CA9FDC4C4043F12258A7401989F9F87C96492DC8F2008923F00528A8754B5B5B5FC018E925C3994A8485F02389D4EA54320E1FAF5EB7B96294B25D47388740160F2E8EBEB13D7F563B4902E006969A4AF70E246A7D3C1EFF72B1D8622A8E710E902105A9D9749D3DEDE9EB2F710A8E7
310
10E902C0E4919E9EAEF84026161BA40BC0DADA9AD221B024473D87481780818101A54360498E7A0E912E00F1323E3E8EAEAE2EA5C3D8E7F2E5CBE24E3A8CDD0FED5B9C71F2EBAFBFE2CF3FFF8C7AD59958F9F0C30F919595256E47C6D8BD481780C6C64649EDBBBBBBB1BBBB7BE0249EEAEA6A98CD662C2D2D41A7D3493AA6
310
9C8C4623464747D1D6D6A67428494B6A0E253AD29700870E1D92D4FEBBEFBEC32FBFFC72E0FB9C4E272E5DBA1471E6981203696EDDBA85CACACA03DF17DA7094ED273587121DE902B0BDBD2DA9FDD9B36771F7EE5D7CFCF1C711DF67B55AF1DE7BEF41101EFCDFD9D3D3232996687CF1C517F8E4934FB0B0B0F0C0F7DCBA75
310
0BDDDDDD293DE32F12A93994E8481780FFFEFB4F52FBB2B232BCFBEEBB78FFFDF723BEEFE8D1A307EE21A7C41653F5F5F578FBEDB723AE4A54545484E9E969710D00B697D41C4A74A4EF0148155A31E7A0997C79797907DE68536293C9D2D252949696468C5FA7D3E1F5D75F8F63542C91903E03608C4546BA00505FCD85C5
310
1EF51C225D00A8AFE7C6628F7A0E912E008CB1C8481780DEDE5EA54360498E7A0E912E00A9BA8805930FF51C225D00186391912E00A1CD39188B16F51C225D0078741B938A7A0E912E008CB1C8481780A1A12159FA999E9E96A59F6435383888C9C949A5C350845C3994A8481780E5E56559FA71BBDDB2F493ACBABBBBE1F5
310
7A950E431172E550A2225D00E4427D69E883A8D56AF28B63A62AD205408929B8149D397326658B20F51C225D009498824B91C16040565696D26128827A0EF17A000F41A7D3E1F7DF7F87C16088BA0FDE1E9C2522D205C0E3F1C068344AEEA7AAAA0AABABAB686E6E8EAAFDEDDBB751545424398E68D5D5D5A1BEBE3EAAF5ED
310
363636A0D16862105572902B871215E902303E3E2ECB2F2F2D2D0D353535B0D96CF07ABD8F7426E0F7FB515E5E8ED2D252C97144ABA1A101BDBDBD70BBDD8F14BBD7EB45717131AC566B0CA34B6C72E550A2225D00E4A4D56AD1DADA0A9BCDB6EF74786C6C0C1E8F072D2D2D7B16060D0402E8E9E951F4C30F008220A0A9A9
310
E9BEB12F2F2FC366B3E1C48913FBAEF36D361BEAEBEBE3192A8B33D23701E3B1B5F3C8C8089C4E275E79E515FCFDF7DF7BBEE7703870ECD8B198C710ADF9F9794C4C4CE0830F3EC0F8F8F89E5D84FC7E3FF925B11F066F0F9EC4E2F1E86A7171112D2D2DB878F1E27D3710494F4F8F790CD1723A9D78FCF1C771F1E2451C3B
310
760C232323E2F7969797136A9313A5507FFC49BA00C48B5EAFC7F3CF3FAF741851E39D835217E902C0A3D79854D47388F405CEC0C0802CCFAFB7B7B7F1F5D75F03089E363B1C0EF17BE15FDFFBBDA9A929D8ED76A8D56A3CFBECB38ADD0CECECECC4CCCC4CC4D881E0F3FE9B376F02086E17B6B9B90993C984DADA5A3CF9E4
310
93718F3B11C89543898A7401908B20083877EE9CA43E0EDA6034964E9D3A25698B2BEA37C25219FF661F824AA54AEAA1B04A161F96D848DF0388D7D6CE5D5D5DB874E912363737E3723C163FBC3D78128BD7736CB7DB8DB5B53545B60067B1457D2C04E902B0B3B313D3FEFD7E3FEC763B3A3B3BF1C71F7FA0B7B717B3B3B3
310
313D268BAF58E790D248DF03B0DBED31B983BBB0B080DF7EFB0D1B1B1B78FAE9A7F1E9A79F02080E9EF9EBAFBFB0B6B686C6C646F2FBCAA58258E550A2205D0062A1BFBF1F0E870367CF9EDD37CA4FABD5E285175E00005CBB760D57AE5CC1E9D3A7950893B18742FA12406EC3C3C3181B1B436363E381437C5B5B5B313232
310
822B57AEC4293AC61E1DE90270E4C811D9FAF2F97CE8EEEEC68B2FBE889A9A9A03DFAF52A9F0C61B6FC06C368B836B58F29133871211E902A0D56A65EBEB871F7EC04B2FBD0441101E6A608C4AA58246A3C1F1E3C761B7DB658B83C5979C399488481700B9E9F5FAA8DA151616F2D3019690481780BEBE3E59FA595959C1EE
310
EE6ED4EDDBDADA648B85C517F5DF1BE902E0F3F924B5EFE8E8C06BAFBD86B7DE7A0BB5B5B551F7633018F0EDB7DF4A8A8529436A0E253A7E0C18C1A953A7D0D4D40497CB85959515497D25F2CA402C75912E0052B776AEAAAA02105C55F7FBEFBF8FBA9FC9C9C9A8571466CAE2EDC193985C5B3B1F3A7408814020EAF6369B
310
0D4F3CF1842CB1B0F8E2EDC11900A0BABA1A6363638FDC2E1008C0EBF526F574624617E9022075479C704F3DF514FEFDF75F783C1ECCCDCD1DF8FE9D9D1DF4F6F6E2E79F7F467B7BBB6C71B0F89233871211E90210BECCB51C4E9F3E8D1F7FFCF1A1A688AA542A389D4E582C16F2A79194C99D4389867401909B56ABC5F9F3
310
E7D1D9D989A1A1A107BECFED76E3CB2FBF84C562414343431C2364ECD1907E0A108BBFBCB9B9B93877EE1CFAFBFBF1D5575F617777170683015AAD16C3C3C31004013A9D0E2FBFFC322FC54500F5B337D20520968F70AC562BAC562B9C4E273EFAE82300C1FB04AFBEFA6ACC8EC9E28FFA6340D205201E2A2B2BF1F9E79F2B
310
1D066351217D0FC0E572291D024B72D473887401E019784C2AEA39C497002C698D8C8CA0A3A303252525686C6CC437DF7C03A3D188A9A929BCF9E69BB87CF9322C160BF90D3EA5205D00A82FE690EA8A8A8AF0CE3BEF40A3D1202B2B0B252525484F4F87DFEF47414101AAABAB0104B7688B16F51C225D00A82FE794EA7272
310
72909393237E7DEF1D7B8D4603405A01A09E43A4EF0130C622237D06E076BB919F9F1F55DBCDCD4DD86C369923624A90B2659B941C4A06A40BC0C4C444D4BFBC93274FCA1C0D4B4652722819F0250063298C7401A0BEB1238B3DEA3944BA0050DFDA99C51EF51C225D00186391912E00ABABAB4A87C0921CF51C225D000607
310
07950E812539EA3944BA0030C622233D0E00084E1809292A2A12878E4E4D4D89BBBE646767A3B8B81840700DB8F0453F2B2A2AC43BC1E17DE5E5E5C168340200E6E6E6C4B5E3D46AB5B89F80CFE7DB330C35FCF82E974B1CA0121AC77EBF36E1C70F6F6330186032990000CBCBCBB87BF72E00401004710C3C008C8E8E8ADB
310
9A15161622373717407080CBE2E2220020333313A5A5A50000BFDF8FC9C949B17D7979B9B815FAF4F4343636360004F7490C3D1F5F59591167CDA954AA3DBB278F8D8D6167670700A0D3E9C41576E6E7E7E1F57AC5F7592C1600C15594272626C4D7CD6633743A1D0060666606EBEBEB00808C8C0C1C3E7C1840F034FDCE9D
310
3B629BB2B2327118F0F8F838B6B7B70104C7F517141400003C1E0F161616C43635353550A954D8DADA82D3E9145F9732882819902E004D4D4D7BAEE1C297E832180C6262843FEAD168347B067EA8D56AF1DFE1AF87120C088E490F7D48542A95F87A5A5ADA9E36A1F700C10F50E8F8E1BB0DDFDB4610FE7F92663018B0B5B5
310
B5EF67098F39FCF8A198430520BC4D4E4E8EF873871F5FAD563FF0E7D7EBF562010BEF2B2323E38183654C269378FCF09F3F3B3BFBBEBB2CDF7BFCF0FF679D4E87ECECEC7D71DD7BFCF07E4D26935880EE3D7E781F218220ECE92B5464A85275747444BFEB6502D2EBF5BC0C378B89AB57AF46B5374422E37B008CA5302E00
310
8CA5302E008CA5302E008CA5302E008CA5302E008CA5302E008CA5302E008CA530720381C287F13226A74020200ED9A682DC5060EABBB9322627BE04602C85FD0F4DA39F3926A256320000000049454E44AE426082
  0
ENDSEC
  0
EOF
