  0
SECTION
  2
HEADER
  9
$ACADVER
  1
AC1014
  9
$ACADMAINTVER
 70
           0
  9
$DWGCODEPAGE
  3
DOS932
  9
$INSBASE
 10
0.0
 20
0.0
 30
0.0
  9
$EXTMIN
 10
1.000000000000E+20
 20
1.000000000000E+20
 30
1.000000000000E+20
  9
$EXTMAX
 10
-1.000000000000E+20
 20
-1.000000000000E+20
 30
-1.000000000000E+20
  9
$LIMMIN
 10
0.0
 20
0.0
  9
$LIMMAX
 10
0.0
 20
0.0
  9
$ORTHOMODE
 70
           0
  9
$REGENMODE
 70
           1
  9
$FILLMODE
 70
           1
  9
$QTEXTMODE
 70
           0
  9
$MIRRTEXT
 70
           1
  9
$DRAGMODE
 70
           2
  9
$LTSCALE
 40
1.0
  9
$OSMODE
 70
           0
  9
$ATTMODE
 70
           1
  9
$TEXTSIZE
 40
0.2
  9
$TRACEWID
 40
0.05
  9
$TEXTSTYLE
  7
STANDARD
  9
$CLAYER
  8
0
  9
$CELTYPE
  6
CONTINUOUS
  9
$CECOLOR
 62
         256
  9
$CELTSCALE
 40
1.0
  9
$DELOBJ
 70
           1
  9
$DISPSILH
 70
           0
  9
$DIMSCALE
 40
1.0
  9
$DIMASZ
 40
0.18
  9
$DIMEXO
 40
0.0625
  9
$DIMDLI
 40
0.38
  9
$DIMRND
 40
0.0
  9
$DIMDLE
 40
0.0
  9
$DIMEXE
 40
0.18
  9
$DIMTP
 40
0.0
  9
$DIMTM
 40
0.0
  9
$DIMTXT
 40
0.18
  9
$DIMCEN
 40
0.09
  9
$DIMTSZ
 40
0.0
  9
$DIMTOL
 70
           0
  9
$DIMLIM
 70
           0
  9
$DIMTIH
 70
           1
  9
$DIMTOH
 70
           1
  9
$DIMSE1
 70
           0
  9
$DIMSE2
 70
           0
  9
$DIMTAD
 70
           0
  9
$DIMZIN
 70
           0
  9
$DIMBLK
  1

  9
$DIMASO
 70
           1
  9
$DIMSHO
 70
           1
  9
$DIMPOST
  1

  9
$DIMAPOST
  1

  9
$DIMALT
 70
           0
  9
$DIMALTD
 70
           2
  9
$DIMALTF
 40
25.4
  9
$DIMLFAC
 40
1.0
  9
$DIMTOFL
 70
           0
  9
$DIMTVP
 40
0.0
  9
$DIMTIX
 70
           0
  9
$DIMSOXD
 70
           0
  9
$DIMSAH
 70
           0
  9
$DIMBLK1
  1

  9
$DIMBLK2
  1

  9
$DIMSTYLE
  2
STANDARD
  9
$DIMCLRD
 70
           0
  9
$DIMCLRE
 70
           0
  9
$DIMCLRT
 70
           0
  9
$DIMTFAC
 40
1.0
  9
$DIMGAP
 40
0.09
  9
$DIMJUST
 70
           0
  9
$DIMSD1
 70
           0
  9
$DIMSD2
 70
           0
  9
$DIMTOLJ
 70
           1
  9
$DIMTZIN
 70
           0
  9
$DIMALTZ
 70
           0
  9
$DIMALTTZ
 70
           0
  9
$DIMFIT
 70
           3
  9
$DIMUPT
 70
           0
  9
$DIMUNIT
 70
           2
  9
$DIMDEC
 70
           4
  9
$DIMTDEC
 70
           4
  9
$DIMALTU
 70
           2
  9
$DIMALTTD
 70
           2
  9
$DIMTXSTY
  7
STANDARD
  9
$DIMAUNIT
 70
           0
  9
$LUNITS
 70
           2
  9
$LUPREC
 70
           4
  9
$SKETCHINC
 40
0.1
  9
$FILLETRAD
 40
0.0
  9
$AUNITS
 70
           0
  9
$AUPREC
 70
           0
  9
$MENU
  1
acad
  9
$ELEVATION
 40
0.0
  9
$PELEVATION
 40
0.0
  9
$THICKNESS
 40
0.0
  9
$LIMCHECK
 70
           0
  9
$BLIPMODE
 70
           1
  9
$CHAMFERA
 40
0.0
  9
$CHAMFERB
 40
0.0
  9
$CHAMFERC
 40
0.0
  9
$CHAMFERD
 40
0.0
  9
$SKPOLY
 70
           0
  9
$TDCREATE
 40
0.000000000
  9
$TDUPDATE
 40
0.000000000
  9
$TDINDWG
 40
0.0000000000
  9
$TDUSRTIMER
 40
0.0000000000
  9
$USRTIMER
 70
           1
  9
$ANGBASE
 50
0.0
  9
$ANGDIR
 70
           0
  9
$PDMODE
 70
           0
  9
$PDSIZE
 40
0.0
  9
$PLINEWID
 40
0.0
  9
$COORDS
 70
           0
  9
$SPLFRAME
 70
           0
  9
$SPLINETYPE
 70
           6
  9
$SPLINESEGS
 70
           8
  9
$ATTDIA
 70
           0
  9
$ATTREQ
 70
           1
  9
$HANDLING
 70
           1
  9
$HANDSEED
  5
48D
  9
$SURFTAB1
 70
           6
  9
$SURFTAB2
 70
           6
  9
$SURFTYPE
 70
           6
  9
$SURFU
 70
           6
  9
$SURFV
 70
           6
  9
$UCSNAME
  2

  9
$UCSORG
 10
0.0
 20
0.0
 30
0.0
  9
$UCSXDIR
 10
1.0
 20
0.0
 30
0.0
  9
$UCSYDIR
 10
0.0
 20
1.0
 30
0.0
  9
$PUCSNAME
  2

  9
$PUCSORG
 10
0.0
 20
0.0
 30
0.0
  9
$PUCSXDIR
 10
1.0
 20
0.0
 30
0.0
  9
$PUCSYDIR
 10
0.0
 20
1.0
 30
0.0
  9
$USERI1
 70
           0
  9
$USERI2
 70
           0
  9
$USERI3
 70
           0
  9
$USERI4
 70
           0
  9
$USERI5
 70
           0
  9
$USERR1
 40
0.0
  9
$USERR2
 40
0.0
  9
$USERR3
 40
0.0
  9
$USERR4
 40
0.0
  9
$USERR5
 40
0.0
  9
$WORLDVIEW
 70
           1
  9
$SHADEDGE
 70
           3
  9
$SHADEDIF
 70
          70
  9
$TILEMODE
 70
           1
  9
$MAXACTVP
 70
          16
  9
$PINSBASE
 10
0.0
 20
0.0
 30
0.0
  9
$PLIMCHECK
 70
           0
  9
$PEXTMIN
 10
1.000000000000E+20
 20
1.000000000000E+20
 30
1.000000000000E+20
  9
$PEXTMAX
 10
-1.000000000000E+20
 20
-1.000000000000E+20
 30
-1.000000000000E+20
  9
$PLIMMIN
 10
0.0
 20
0.0
  9
$PLIMMAX
 10
12.0
 20
9.0
  9
$UNITMODE
 70
           0
  9
$VISRETAIN
 70
           0
  9
$PLINEGEN
 70
           1
  9
$PSLTSCALE
 70
           0
  9
$TREEDEPTH
 70
        3020
  9
$PICKSTYLE
 70
           1
  9
$CMLSTYLE
  2
STANDARD
  9
$CMLJUST
 70
           0
  9
$CMLSCALE
 40
1.0
  9
$PROXYGRAPHICS
 70
           0
  9
$MEASUREMENT
 70
           0
  0
ENDSEC
  0
SECTION
  2
CLASSES
  0
CLASS
  1
LWPOLYLINE
  2
AcDbPolyline
  3
"AutoCAD"
 90
        0
280
           0
281
           1
  0
CLASS
  1
IMAGE
  2
AcDbRasterImage
  3
ISM
 90
      127
280
           0
281
           1
  0
CLASS
  1
OLE2FRAME
  2
AcDbOle2Frame
  3
""
 90
        0
280
           0
281
           1
  0
CLASS
  1
HATCH
  2
AcDbHatch
  3
"ACAD_SEDONA"
 90
        0
280
           0
281
           1
  0
CLASS
  1
DICTIONARYVAR
  2
AcDbDictionaryVar
  3
"AutoCAD"
 90
        0
280
           0
281
           0
  0
CLASS
  1
RASTERVARIABLES
  2
AcDbRasterVariables
  3
ISM
 90
        0
280
           0
281
           0
  0
CLASS
  1
IMAGEDEF
  2
AcDbRasterImageDef
  3
ISM
 90
        0
280
           0
281
           0
  0
CLASS
  1
IMAGEDEF_REACTOR
  2
AcDbRasterImageDefReactor
  3
ISM
 90
        1
280
           0
281
           0
  0
CLASS
  1
IDBUFFER
  2
AcDbIdBuffer
  3
"Acad"
 90
        0
280
           0
281
           0
  0
CLASS
  1
SPATIAL_FILTER
  2
AcDbSpatialFilter
  3
"Acad"
 90
        0
280
           0
281
           0
  0
CLASS
  1
XRECORD
  2
AcDbXrecord
  3
"<Built In>"
 90
        0
280
           0
281
           0
  0
CLASS
  1
SORTENTSTABLE
  2
AcDbSortentsTable
  3
"AutoCAD"
 90
        0
280
           0
281
           0
  0
CLASS
  1
LAYER_INDEX
  2
AcDbLayerIndex
  3
"Acad"
 90
        0
280
           0
281
           0
  0
CLASS
  1
SPATIAL_INDEX
  2
AcDbSpatialIndex
  3
"Acad"
 90
        0
280
           0
281
           0
  0
CLASS
  1
OBJECT_PTR
  2
CAseDLPNTableRecord
  3
"ASE-LPNTableRecord"
 90
        1
280
           0
281
           0
  0
CLASS
  1
LAYOUT
  2
AcDbLayout
  3
"AutoCAD 2000"
 90
        1
280
           0
281
           0
  0
CLASS
  1
PLOTSETTINGS
  2
AcDbPlotSettings
  3
"AutoCAD 2000"
 90
        1
280
           0
281
           0
  0
CLASS
  1
ACDBDICTIONARYWDFLT
  2
AcDbDictionaryWithDefault
  3
"AutoCAD 2000"
 90
        1
280
           0
281
           0
  0
CLASS
  1
ACDBPLACEHOLDER
  2
AcDbPlaceHolder
  3
"AutoCAD 2000"
 90
        1
280
           0
281
           0
  0
CLASS
  1
VBA_PROJECT
  2
AcDbVbaProject
  3
"acadvba"
 90
        1
280
           0
281
           0
  0
CLASS
  1
WIPEOUT
  2
AcDbWipeout
  3
WipeOut|AutoCAD Express Tool|expresstools@autodesk.com
 90
      127
280
           0
281
           1
  0
CLASS
  1
WIPEOUTVARIABLES
  2
AcDbWipeoutVariables
  3
WipeOut|AutoCAD Express Tool|expresstools@autodesk.com
 90
        0
280
           0
281
           0
  0
CLASS
  1
RTEXT
  2
RText
  3
RText|AutoCAD Express Tool|expresstools@autodesk.com
 90
        0
280
           0
281
           1
  0
CLASS
  1
ARCALIGNEDTEXT
  2
AcDbArcAlignedText
  3
ATEXT|AutoCAD Express Tool|expresstools@autodesk.com
 90
        0
280
           0
281
           1
  0
ENDSEC
  0
SECTION
  2
TABLES
  0
TABLE
  2
VPORT
  5
7
100
AcDbSymbolTable
 70
           1
  0
VPORT
  5
15
100
AcDbSymbolTableRecord
100
AcDbViewportTableRecord
  2
*ACTIVE
 70
           0
 10
0.0
 20
0.0
 11
1.0
 21
1.0
 12
6.591288
 22
4.579184
 13
0.0
 23
0.0
 14
1.0
 24
1.0
 15
0.0
 25
0.0
 16
0.0
 26
0.0
 36
1.0
 17
0.0
 27
0.0
 37
0.0
 40
9.158369
 41
0.688564
 42
50.0
 43
0.0
 44
0.0
 50
0.0
 51
0.0
 71
           0
 72
         100
 73
           1
 74
           1
 75
           0
 76
           0
 77
           0
 78
           0
  0
ENDTAB
  0
TABLE
  2
LTYPE
  5
4
100
AcDbSymbolTable
 70
          10
  0
LTYPE
  5
11
100
AcDbSymbolTableRecord
100
AcDbLinetypeTableRecord
  2
BYBLOCK
 70
          64
  3

 72
          65
 73
           0
 40
0.0
  0
LTYPE
  5
12
100
AcDbSymbolTableRecord
100
AcDbLinetypeTableRecord
  2
BYLAYER
 70
          64
  3

 72
          65
 73
           0
 40
0.0
  0
LTYPE
  5
13
100
AcDbSymbolTableRecord
100
AcDbLinetypeTableRecord
  2
CONTINUOUS
 70
          64
  3
Solid line
 72
          65
 73
           0
 40
0.0
  0
LTYPE
  5
1D
100
AcDbSymbolTableRecord
100
AcDbLinetypeTableRecord
  2
DASHED
 70
          64
  3
Dashed
 72
          65
 73
           2
 40
15.0
 49
12.0
 74
           0
 49
-3.0
 74
           0
  0
LTYPE
  5
1E
100
AcDbSymbolTableRecord
100
AcDbLinetypeTableRecord
  2
DOTTED
 70
          64
  3
Dotted
 72
          65
 73
           2
 40
3.5
 49
0.5
 74
           0
 49
-3.0
 74
           0
  0
LTYPE
  5
1F
100
AcDbSymbolTableRecord
100
AcDbLinetypeTableRecord
  2
DOT_CENTER
 70
          64
  3
Dot_Center
 72
          65
 73
           4
 40
2.0
 49
1.25
 74
           0
 49
-0.25
 74
           0
 49
0.25
 74
           0
 49
-0.25
 74
           0
  0
LTYPE
  5
20
100
AcDbSymbolTableRecord
100
AcDbLinetypeTableRecord
  2
LONG_DASHED
 70
          64
  3
Long_Dashed
 72
          65
 73
           2
 40
2.0
 49
1.5
 74
           0
 49
-0.5
 74
           0
  0
LTYPE
  5
21
100
AcDbSymbolTableRecord
100
AcDbLinetypeTableRecord
  2
DASH_CENTER
 70
          64
  3
Dash_Center
 72
          65
 73
           4
 40
36.0
 49
24.0
 74
           0
 49
-3.0
 74
           0
 49
6.0
 74
           0
 49
-3.0
 74
           0
  0
LTYPE
  5
22
100
AcDbSymbolTableRecord
100
AcDbLinetypeTableRecord
  2
PHANTOM
 70
          64
  3
Phantom
 72
          65
 73
           6
 40
2.5
 49
1.25
 74
           0
 49
-0.25
 74
           0
 49
0.25
 74
           0
 49
-0.25
 74
           0
 49
0.25
 74
           0
 49
-0.25
 74
           0
  0
LTYPE
  5
23
100
AcDbSymbolTableRecord
100
AcDbLinetypeTableRecord
  2
CENTER_DASH_DASH
 70
          64
  3
Center_Dash_Dash
 72
          65
 73
           6
 40
22.0
 49
12.0
 74
           0
 49
-3.0
 74
           0
 49
0.5
 74
           0
 49
-3.0
 74
           0
 49
0.5
 74
           0
 49
-3.0
 74
           0
  0
ENDTAB
  0
TABLE
  2
LAYER
  5
2
100
AcDbSymbolTable
 70
           2
  0
LAYER
  5
14
100
AcDbSymbolTableRecord
100
AcDbLayerTableRecord
  2
0
 70
           0
 62
           7
  6
CONTINUOUS
  0
LAYER
  5
24
100
AcDbSymbolTableRecord
100
AcDbLayerTableRecord
  2
1
 70
           0
 62
           7
  6
CONTINUOUS
  0
ENDTAB
  0
TABLE
  2
STYLE
  5
3
100
AcDbSymbolTable
 70
           2
  0
STYLE
  5
17
100
AcDbSymbolTableRecord
100
AcDbTextStyleTableRecord
  2
STANDARD
 70
           0
 40
0.0
 41
1.0
 50
0.0
 71
           0
 42
0.0
  3
txt
  4

  0
STYLE
  5
48A
100
AcDbSymbolTableRecord
100
AcDbTextStyleTableRecord
  2
CONVERTER_1
 70
           0
 40
0.0
 41
0.9
 50
0.0
 71
           0
 42
0.0
  3
txt.shx
  4

  0
ENDTAB
  0
TABLE
  2
VIEW
  5
5
100
AcDbSymbolTable
 70
           0
  0
ENDTAB
  0
TABLE
  2
UCS
  5
6
100
AcDbSymbolTable
 70
           0
  0
ENDTAB
  0
TABLE
  2
APPID
  5
8
100
AcDbSymbolTable
 70
           1
  0
APPID
  5
16
100
AcDbSymbolTableRecord
100
AcDbRegAppTableRecord
  2
ACAD
 70
           0
  0
ENDTAB
  0
TABLE
  2
DIMSTYLE
  5
9
100
AcDbSymbolTable
 70
           1
  0
DIMSTYLE
105
18
100
AcDbSymbolTableRecord
100
AcDbDimStyleTableRecord
  2
STANDARD
 70
           0
  3

  4

  5

  6

  7

 40
1.0
 41
0.18
 42
0.0625
 43
0.38
 44
0.18
 45
0.0
 46
0.0
 47
0.0
 48
0.0
 71
           0
 72
           0
 73
           1
 74
           1
 75
           0
 76
           0
 77
           0
 78
           0
140
0.18
141
0.09
142
0.0
143
25.4
144
1.0
145
0.0
146
1.0
147
0.09
170
           0
171
           2
172
           0
173
           0
174
           0
175
           0
176
           0
177
           0
178
           0
270
           2
271
           4
272
           4
273
           2
274
           2
275
           0
280
           0
281
           0
282
           0
283
           1
284
           0
285
           0
286
           0
287
           0
288
           0
340
17
  0
ENDTAB
  0
TABLE
  2
BLOCK_RECORD
  5
1
100
AcDbSymbolTable
 70
           1
  0
BLOCK_RECORD
  5
A
100
AcDbSymbolTableRecord
100
AcDbBlockTableRecord
  2
*MODEL_SPACE
  0
BLOCK_RECORD
  5
B
100
AcDbSymbolTableRecord
100
AcDbBlockTableRecord
  2
*PAPER_SPACE
  0
BLOCK_RECORD
  5
25
100
AcDbSymbolTableRecord
100
AcDbBlockTableRecord
  2
SAT1501C85__1
  0
ENDTAB
  0
ENDSEC
  0
SECTION
  2
BLOCKS
  0
BLOCK
  5
D
100
AcDbEntity
  8
0
100
AcDbBlockBegin
  2
*MODEL_SPACE
 70
           0
 10
0.0
 20
0.0
 30
0.0
  3
*MODEL_SPACE
  1

  0
ENDBLK
  5
E
100
AcDbEntity
  8
0
100
AcDbBlockEnd
  0
BLOCK
  5
F
100
AcDbEntity
 67
           1
  8
0
100
AcDbBlockBegin
  2
*PAPER_SPACE
 70
           0
 10
0.0
 20
0.0
 30
0.0
  3
*PAPER_SPACE
  1

  0
ENDBLK
  5
10
100
AcDbEntity
 67
           1
  8
0
100
AcDbBlockEnd
  0
BLOCK
  5
26
100
AcDbEntity
  8
0
100
AcDbBlockBegin
  2
SAT1501C85__1
 70
           0
 10
0.0
 20
0.0
 30
0.0
  3
SAT1501C85__1
  1

  0
ARC
  5
487
100
AcDbEntity
  8
1
  6
CONTINUOUS
 62
           2
100
AcDbCircle
 10
10517.00291890014
 20
-3773.850393139369
 40
2.0
100
AcDbArc
 50
-90.0
 51
0.0
  0
ARC
  5
486
100
AcDbEntity
  8
1
  6
CONTINUOUS
 62
           2
100
AcDbCircle
 10
10517.00291890014
 20
-3742.850393139369
 40
2.0
100
AcDbArc
 50
0.0
 51
90.0
  0
ARC
  5
485
100
AcDbEntity
  8
1
  6
CONTINUOUS
 62
           2
100
AcDbCircle
 10
10443.00291890014
 20
-3773.850393139369
 40
2.0
100
AcDbArc
 50
180.0
 51
-90.0
  0
ARC
  5
484
100
AcDbEntity
  8
1
  6
CONTINUOUS
 62
           2
100
AcDbCircle
 10
10443.00291890014
 20
-3742.850393139369
 40
2.0
100
AcDbArc
 50
90.0
 51
180.0
  0
ARC
  5
483
100
AcDbEntity
  8
1
  6
CONTINUOUS
 62
           2
100
AcDbCircle
 10
10548.76164575855
 20
-3738.850393139369
 40
3.0
100
AcDbArc
 50
90.0
 51
125.051136747286
  0
ARC
  5
482
100
AcDbEntity
  8
1
  6
CONTINUOUS
 62
           2
100
AcDbCircle
 10
10529.76164575855
 20
-3738.850393139369
 40
3.000000000004
100
AcDbArc
 50
54.948863252571
 51
90.0
  0
ARC
  5
481
100
AcDbEntity
  8
1
  6
CONTINUOUS
 62
           2
100
AcDbCircle
 10
11121.501645758561
 20
-3159.115075644168
 40
1.0
100
AcDbArc
 50
-90.0
 51
0.0
  0
ARC
  5
480
100
AcDbEntity
  8
1
  6
CONTINUOUS
 62
           2
100
AcDbCircle
 10
11121.501645758561
 20
-3216.115075644168
 40
1.0
100
AcDbArc
 50
0.0
 51
90.0
  0
ARC
  5
47F
100
AcDbEntity
  8
1
  6
CONTINUOUS
 62
           2
100
AcDbCircle
 10
10493.46338963649
 20
-1120.853351822154
 40
3.0
100
AcDbArc
 50
180.0
 51
-90.0
  0
ARC
  5
47E
100
AcDbEntity
  8
1
  6
CONTINUOUS
 62
           2
100
AcDbCircle
 10
10493.46338963649
 20
-1149.853351822154
 40
3.0
100
AcDbArc
 50
90.0
 51
180.0
  0
ARC
  5
47D
100
AcDbEntity
  8
1
  6
CONTINUOUS
 62
           2
100
AcDbCircle
 10
10549.98487267044
 20
-1142.703351822152
 40
3.0
100
AcDbArc
 50
90.0
 51
145.570996049126
  0
ARC
  5
47C
100
AcDbEntity
  8
1
  6
CONTINUOUS
 62
           2
100
AcDbCircle
 10
10549.98487267044
 20
-1128.003351822152
 40
3.000000000001
100
AcDbArc
 50
-145.570996049062
 51
-90.0
  0
ARC
  5
47B
100
AcDbEntity
  8
1
  6
CONTINUOUS
 62
           2
100
AcDbCircle
 10
10528.53936031937
 20
-1128.003351822152
 40
3.0
100
AcDbArc
 50
-90.0
 51
-34.429003950938
  0
ARC
  5
47A
100
AcDbEntity
  8
1
  6
CONTINUOUS
 62
           2
100
AcDbCircle
 10
10528.53936031937
 20
-1142.703351822152
 40
2.999999999998
100
AcDbArc
 50
34.429003950873
 51
90.0
  0
ARC
  5
479
100
AcDbEntity
  8
1
  6
CONTINUOUS
 62
           7
100
AcDbCircle
 10
10842.762645418519
 20
-145.113039191043
 40
2.999999999995
100
AcDbArc
 50
137.574439099077
 51
-158.416561971895
  0
ARC
  5
478
100
AcDbEntity
  8
1
  6
CONTINUOUS
 62
           7
100
AcDbCircle
 10
10808.43937618888
 20
-154.309931462722
 40
2.999999999993
100
AcDbArc
 50
8.416561971978
 51
72.425560900815
  0
ARC
  5
477
100
AcDbEntity
  8
1
  6
CONTINUOUS
 62
           7
100
AcDbCircle
 10
10834.674767639481
 20
-140.978867587892
 40
2.999999999993
100
AcDbArc
 50
21.583438028103
 51
98.765389027172
  0
ARC
  5
476
100
AcDbEntity
  8
1
  6
CONTINUOUS
 62
           7
100
AcDbCircle
 10
10813.37659800666
 20
-146.685694941267
 40
3.000000000001
100
AcDbArc
 50
111.234610972903
 51
-171.583438028064
  0
ARC
  5
475
100
AcDbEntity
  8
1
  6
CONTINUOUS
 62
           2
100
AcDbCircle
 10
11103.50164575855
 20
-2452.119982048412
 40
3.0
100
AcDbArc
 50
0.0
 51
38.091957105242
  0
ARC
  5
474
100
AcDbEntity
  8
1
  6
CONTINUOUS
 62
           2
100
AcDbCircle
 10
11103.50164575855
 20
-2428.946721595897
 40
3.000000000002
100
AcDbArc
 50
-38.091957105208
 51
0.0
  0
ARC
  5
473
100
AcDbEntity
  8
1
  6
CONTINUOUS
 62
           2
100
AcDbCircle
 10
13851.80451258328
 20
-2432.783351822154
 40
2.0
100
AcDbArc
 50
-90.0
 51
-31.108922510715
  0
ARC
  5
472
100
AcDbEntity
  8
1
  6
CONTINUOUS
 62
           2
100
AcDbCircle
 10
13851.80451258328
 20
-2448.283351822154
 40
1.999999999996
100
AcDbArc
 50
31.108922510458
 51
90.0
  0
ARC
  5
471
100
AcDbEntity
  8
1
  6
CONTINUOUS
 62
           2
100
AcDbCircle
 10
13877.49011166136
 20
-2432.783351822154
 40
2.000000000001
100
AcDbArc
 50
-148.891077489285
 51
-90.0
  0
ARC
  5
470
100
AcDbEntity
  8
1
  6
CONTINUOUS
 62
           2
100
AcDbCircle
 10
13877.49011166136
 20
-2448.283351822154
 40
2.0
100
AcDbArc
 50
90.0
 51
148.891077489541
  0
ARC
  5
46F
100
AcDbEntity
  8
1
  6
CONTINUOUS
 62
           2
100
AcDbCircle
 10
13857.897312122321
 20
-2428.533351822153
 40
2.0
100
AcDbArc
 50
90.0
 51
180.0
  0
ARC
  5
46E
100
AcDbEntity
  8
1
  6
CONTINUOUS
 62
           7
100
AcDbCircle
 10
10457.68271765202
 20
-1069.631166038711
 40
0.144444444437
100
AcDbArc
 50
137.782165415363
 51
-47.782165417884
  0
ARC
  5
46D
100
AcDbEntity
  8
1
  6
CONTINUOUS
 62
           2
100
AcDbCircle
 10
11056.50164575855
 20
-915.633351822155
 40
1.0
100
AcDbArc
 50
90.0
 51
180.0
  0
ARC
  5
46C
100
AcDbEntity
  8
1
  6
CONTINUOUS
 62
           2
100
AcDbCircle
 10
11094.50164575855
 20
-915.633351822155
 40
1.0
100
AcDbArc
 50
0.0
 51
90.0
  0
ARC
  5
46B
100
AcDbEntity
  8
1
  6
CONTINUOUS
 62
           2
100
AcDbCircle
 10
11098.50164575855
 20
-921.633351822155
 40
2.0
100
AcDbArc
 50
0.0
 51
90.0
  0
ARC
  5
46A
100
AcDbEntity
  8
1
  6
CONTINUOUS
 62
           2
100
AcDbCircle
 10
11052.50164575855
 20
-921.633351822155
 40
2.0
100
AcDbArc
 50
90.0
 51
180.0
  0
ARC
  5
469
100
AcDbEntity
  8
1
  6
CONTINUOUS
 62
           2
100
AcDbCircle
 10
11053.50164575855
 20
-917.633351822155
 40
2.0
100
AcDbArc
 50
-90.0
 51
0.0
  0
ARC
  5
468
100
AcDbEntity
  8
1
  6
CONTINUOUS
 62
           2
100
AcDbCircle
 10
11097.50164575855
 20
-917.633351822155
 40
2.0
100
AcDbArc
 50
180.0
 51
-90.0
  0
ARC
  5
467
100
AcDbEntity
  8
1
  6
CONTINUOUS
 62
           2
100
AcDbCircle
 10
11100.50164575855
 20
-963.056001552965
 40
2.0
100
AcDbArc
 50
180.0
 51
-120.00000000001
  0
ARC
  5
466
100
AcDbEntity
  8
1
  6
CONTINUOUS
 62
           2
100
AcDbCircle
 10
11095.50164575855
 20
-962.633351822155
 40
1.0
100
AcDbArc
 50
-90.0
 51
0.0
  0
ARC
  5
465
100
AcDbEntity
  8
1
  6
CONTINUOUS
 62
           2
100
AcDbCircle
 10
11084.834979091889
 20
-962.633351822155
 40
1.0
100
AcDbArc
 50
180.0
 51
-90.0
  0
ARC
  5
464
100
AcDbEntity
  8
1
  6
CONTINUOUS
 62
           2
100
AcDbCircle
 10
11080.834979091889
 20
-962.633351822155
 40
1.0
100
AcDbArc
 50
-90.0
 51
0.0
  0
ARC
  5
463
100
AcDbEntity
  8
1
  6
CONTINUOUS
 62
           2
100
AcDbCircle
 10
11070.168312425219
 20
-962.633351822155
 40
1.0
100
AcDbArc
 50
180.0
 51
-90.0
  0
ARC
  5
462
100
AcDbEntity
  8
1
  6
CONTINUOUS
 62
           2
100
AcDbCircle
 10
11066.168312425219
 20
-962.633351822155
 40
1.0
100
AcDbArc
 50
-90.0
 51
0.0
  0
ARC
  5
461
100
AcDbEntity
  8
1
  6
CONTINUOUS
 62
           2
100
AcDbCircle
 10
11050.50164575855
 20
-963.056001552965
 40
1.999999999999
100
AcDbArc
 50
-59.99999999999
 51
0.0
  0
ARC
  5
460
100
AcDbEntity
  8
1
  6
CONTINUOUS
 62
           2
100
AcDbCircle
 10
11055.50164575855
 20
-962.633351822155
 40
1.0
100
AcDbArc
 50
180.0
 51
-90.0
  0
ARC
  5
45F
100
AcDbEntity
  8
1
  6
CONTINUOUS
 62
           2
100
AcDbCircle
 10
11040.50164575855
 20
-978.633351822155
 40
5.0
100
AcDbArc
 50
90.0
 51
180.0
  0
ARC
  5
45E
100
AcDbEntity
  8
1
  6
CONTINUOUS
 62
           2
100
AcDbCircle
 10
11110.50164575855
 20
-978.633351822155
 40
5.0
100
AcDbArc
 50
0.0
 51
90.0
  0
ARC
  5
45D
100
AcDbEntity
  8
1
  6
CONTINUOUS
 62
           2
100
AcDbCircle
 10
11040.50164575855
 20
-1032.133351822155
 40
5.0
100
AcDbArc
 50
180.0
 51
-90.0
  0
ARC
  5
45C
100
AcDbEntity
  8
1
  6
CONTINUOUS
 62
           2
100
AcDbCircle
 10
11116.50164575855
 20
-979.633351822155
 40
1.0
100
AcDbArc
 50
180.0
 51
-90.0
  0
ARC
  5
45B
100
AcDbEntity
  8
1
  6
CONTINUOUS
 62
           2
100
AcDbCircle
 10
11121.50164575855
 20
-979.633351822155
 40
1.0
100
AcDbArc
 50
-90.0
 51
0.0
  0
ARC
  5
45A
100
AcDbEntity
  8
1
  6
CONTINUOUS
 62
           2
100
AcDbCircle
 10
11116.50164575855
 20
-1036.633351822155
 40
1.0
100
AcDbArc
 50
90.0
 51
180.0
  0
ARC
  5
459
100
AcDbEntity
  8
1
  6
CONTINUOUS
 62
           2
100
AcDbCircle
 10
11121.50164575855
 20
-1036.633351822155
 40
1.0
100
AcDbArc
 50
0.0
 51
90.0
  0
ARC
  5
458
100
AcDbEntity
  8
1
  6
CONTINUOUS
 62
           2
100
AcDbCircle
 10
11107.50164575855
 20
-1045.133351822155
 40
3.0
100
AcDbArc
 50
-90.0
 51
0.0
  0
ARC
  5
457
100
AcDbEntity
  8
1
  6
CONTINUOUS
 62
           2
100
AcDbCircle
 10
11043.50164575855
 20
-1045.133351822155
 40
3.0
100
AcDbArc
 50
180.0
 51
-90.0
  0
ARC
  5
456
100
AcDbEntity
  8
1
  6
CONTINUOUS
 62
           2
100
AcDbCircle
 10
13325.553909062121
 20
-1032.133351822155
 40
5.0
100
AcDbArc
 50
-90.0
 51
0.0
  0
ARC
  5
455
100
AcDbEntity
  8
1
  6
CONTINUOUS
 62
           2
100
AcDbCircle
 10
13258.553909062121
 20
-1045.133351822155
 40
3.0
100
AcDbArc
 50
180.0
 51
-90.0
  0
ARC
  5
454
100
AcDbEntity
  8
1
  6
CONTINUOUS
 62
           2
100
AcDbCircle
 10
13322.553909062121
 20
-1045.133351822155
 40
3.0
100
AcDbArc
 50
-90.0
 51
0.0
  0
ARC
  5
453
100
AcDbEntity
  8
1
  6
CONTINUOUS
 62
           2
100
AcDbCircle
 10
13255.553909062121
 20
-1032.133351822155
 40
5.0
100
AcDbArc
 50
180.0
 51
-90.0
  0
ARC
  5
452
100
AcDbEntity
  8
1
  6
CONTINUOUS
 62
           2
100
AcDbCircle
 10
13325.553909062121
 20
-978.633351822155
 40
5.0
100
AcDbArc
 50
0.0
 51
90.0
  0
ARC
  5
451
100
AcDbEntity
  8
1
  6
CONTINUOUS
 62
           2
100
AcDbCircle
 10
13255.553909062121
 20
-978.633351822155
 40
5.0
100
AcDbArc
 50
90.0
 51
180.0
  0
ARC
  5
450
100
AcDbEntity
  8
1
  6
CONTINUOUS
 62
           2
100
AcDbCircle
 10
13270.553909062121
 20
-962.633351822155
 40
1.0
100
AcDbArc
 50
180.0
 51
-90.0
  0
ARC
  5
44F
100
AcDbEntity
  8
1
  6
CONTINUOUS
 62
           2
100
AcDbCircle
 10
13265.553909062121
 20
-963.056001552965
 40
1.999999999999
100
AcDbArc
 50
-59.99999999999
 51
0.0
  0
ARC
  5
44E
100
AcDbEntity
  8
1
  6
CONTINUOUS
 62
           2
100
AcDbCircle
 10
13281.22057572879
 20
-962.633351822155
 40
1.0
100
AcDbArc
 50
-90.0
 51
0.0
  0
ARC
  5
44D
100
AcDbEntity
  8
1
  6
CONTINUOUS
 62
           2
100
AcDbCircle
 10
13285.22057572879
 20
-962.633351822155
 40
1.0
100
AcDbArc
 50
180.0
 51
-90.0
  0
ARC
  5
44C
100
AcDbEntity
  8
1
  6
CONTINUOUS
 62
           2
100
AcDbCircle
 10
13295.88724239546
 20
-962.633351822155
 40
1.0
100
AcDbArc
 50
-90.0
 51
0.0
  0
ARC
  5
44B
100
AcDbEntity
  8
1
  6
CONTINUOUS
 62
           2
100
AcDbCircle
 10
13299.88724239546
 20
-962.633351822155
 40
1.0
100
AcDbArc
 50
180.0
 51
-90.0
  0
ARC
  5
44A
100
AcDbEntity
  8
1
  6
CONTINUOUS
 62
           2
100
AcDbCircle
 10
13310.553909062121
 20
-962.633351822155
 40
1.0
100
AcDbArc
 50
-90.0
 51
0.0
  0
ARC
  5
449
100
AcDbEntity
  8
1
  6
CONTINUOUS
 62
           2
100
AcDbCircle
 10
13315.553909062121
 20
-963.056001552965
 40
2.0
100
AcDbArc
 50
180.0
 51
-120.00000000001
  0
ARC
  5
448
100
AcDbEntity
  8
1
  6
CONTINUOUS
 62
           2
100
AcDbCircle
 10
13312.553909062121
 20
-917.632680483569
 40
2.0
100
AcDbArc
 50
180.0
 51
-90.0
  0
ARC
  5
447
100
AcDbEntity
  8
1
  6
CONTINUOUS
 62
           2
100
AcDbCircle
 10
13268.553909062121
 20
-917.632680483569
 40
2.0
100
AcDbArc
 50
-90.0
 51
0.0
  0
ARC
  5
446
100
AcDbEntity
  8
1
  6
CONTINUOUS
 62
           2
100
AcDbCircle
 10
13267.553909062121
 20
-921.632680483569
 40
2.0
100
AcDbArc
 50
90.0
 51
180.0
  0
ARC
  5
445
100
AcDbEntity
  8
1
  6
CONTINUOUS
 62
           2
100
AcDbCircle
 10
13313.553909062121
 20
-921.632680483569
 40
2.0
100
AcDbArc
 50
0.0
 51
90.0
  0
ARC
  5
444
100
AcDbEntity
  8
1
  6
CONTINUOUS
 62
           2
100
AcDbCircle
 10
13309.553909062121
 20
-915.632680483569
 40
1.0
100
AcDbArc
 50
0.0
 51
90.0
  0
ARC
  5
443
100
AcDbEntity
  8
1
  6
CONTINUOUS
 62
           2
100
AcDbCircle
 10
13271.553909062121
 20
-915.632680483569
 40
1.0
100
AcDbArc
 50
90.0
 51
180.0
  0
ARC
  5
442
100
AcDbEntity
  8
1
  6
CONTINUOUS
 62
           2
100
AcDbCircle
 10
13314.91199462712
 20
-1124.854896354726
 40
45.0
100
AcDbArc
 50
180.0
 51
-90.0
  0
ARC
  5
441
100
AcDbEntity
  8
1
  6
CONTINUOUS
 62
           2
100
AcDbCircle
 10
13316.91199462712
 20
-1094.851807289582
 40
6.0
100
AcDbArc
 50
180.0
 51
-90.0
  0
ARC
  5
440
100
AcDbEntity
  8
1
  6
CONTINUOUS
 62
           2
100
AcDbCircle
 10
11025.00164575855
 20
-1095.226063761693
 40
30.000000000005
100
AcDbArc
 50
-38.470645540594
 51
0.0
  0
ARC
  5
43F
100
AcDbEntity
  8
1
  6
CONTINUOUS
 62
           2
100
AcDbCircle
 10
11126.00164575855
 20
-1095.226063761692
 40
30.0
100
AcDbArc
 50
180.0
 51
-141.529354459393
  0
ARC
  5
43E
100
AcDbEntity
  8
1
  6
CONTINUOUS
 62
           7
100
AcDbCircle
 10
11337.62669351045
 20
-146.685694941267
 40
3.000000000001
100
AcDbArc
 50
-8.416561971936
 51
68.765389027129
  0
ARC
  5
43D
100
AcDbEntity
  8
1
  6
CONTINUOUS
 62
           7
100
AcDbCircle
 10
11316.32852387763
 20
-140.978867587892
 40
3.0
100
AcDbArc
 50
81.234610972828
 51
158.41656197191
  0
ARC
  5
43C
100
AcDbEntity
  8
1
  6
CONTINUOUS
 62
           7
100
AcDbCircle
 10
11342.56391532823
 20
-154.309931462722
 40
3.000000000001
100
AcDbArc
 50
107.574439099185
 51
171.583438028022
  0
ARC
  5
43B
100
AcDbEntity
  8
1
  6
CONTINUOUS
 62
           7
100
AcDbCircle
 10
11308.240646098589
 20
-145.113039191043
 40
3.000000000005
100
AcDbArc
 50
-21.583438028015
 51
42.425560900899
  0
ARC
  5
43A
100
AcDbEntity
  8
1
  6
CONTINUOUS
 62
           7
100
AcDbCircle
 10
13325.26380847787
 20
-1952.353351822154
 40
9.999999999998
100
AcDbArc
 50
-171.549301106397
 51
-90.0
  0
ARC
  5
439
100
AcDbEntity
  8
1
  6
CONTINUOUS
 62
           7
100
AcDbCircle
 10
13363.63975783364
 20
-1904.353351822154
 40
18.0
100
AcDbArc
 50
180.0
 51
-90.0
  0
ARC
  5
438
100
AcDbEntity
  8
1
  6
CONTINUOUS
 62
           7
100
AcDbCircle
 10
13363.63975783364
 20
-1904.353351822154
 40
18.0
100
AcDbArc
 50
180.0
 51
-90.0
  0
ARC
  5
437
100
AcDbEntity
  8
1
  6
CONTINUOUS
 62
           7
100
AcDbCircle
 10
13325.26380847787
 20
-1592.353351822154
 40
10.0
100
AcDbArc
 50
90.0
 51
171.549301106396
  0
ARC
  5
436
100
AcDbEntity
  8
1
  6
CONTINUOUS
 62
           7
100
AcDbCircle
 10
13363.63975783364
 20
-1640.353351822154
 40
18.0
100
AcDbArc
 50
90.0
 51
180.0
  0
CIRCLE
  5
435
100
AcDbEntity
  8
1
  6
CONTINUOUS
 62
           2
100
AcDbCircle
 10
10480.00291890014
 20
-3761.85039313937
 40
8.330999999999
  0
CIRCLE
  5
434
100
AcDbEntity
  8
1
  6
CONTINUOUS
 62
           2
100
AcDbCircle
 10
10480.00291890014
 20
-3761.85039313937
 40
7.474999999999
  0
CIRCLE
  5
433
100
AcDbEntity
  8
1
  6
CONTINUOUS
 62
           7
100
AcDbCircle
 10
11376.02202776284
 20
-3461.330011135087
 40
11.5
  0
CIRCLE
  5
432
100
AcDbEntity
  8
1
  6
CONTINUOUS
 62
           7
100
AcDbCircle
 10
10774.981263754269
 20
-3461.330011135087
 40
11.5
  0
CIRCLE
  5
431
100
AcDbEntity
  8
1
  6
CONTINUOUS
 62
           7
100
AcDbCircle
 10
10774.981263754269
 20
-4062.370775143653
 40
11.5
  0
CIRCLE
  5
430
100
AcDbEntity
  8
1
  6
CONTINUOUS
 62
           7
100
AcDbCircle
 10
11376.02202776284
 20
-4062.370775143653
 40
11.5
  0
CIRCLE
  5
42F
100
AcDbEntity
  8
1
  6
DOTTED
 62
           7
100
AcDbCircle
 10
13864.647312122321
 20
-1935.353351822154
 40
36.999999999996
  0
CIRCLE
  5
42E
100
AcDbEntity
  8
1
  6
CONTINUOUS
 62
           2
100
AcDbCircle
 10
10539.2621164949
 20
-1135.353351822154
 40
8.5
  0
CIRCLE
  5
42D
100
AcDbEntity
  8
1
  6
CONTINUOUS
 62
           2
100
AcDbCircle
 10
10539.2621164949
 20
-1135.353351822154
 40
5.0
  0
CIRCLE
  5
42C
100
AcDbEntity
  8
1
  6
CONTINUOUS
 62
           2
100
AcDbCircle
 10
10539.2621164949
 20
-1135.353351822154
 40
3.0
  0
CIRCLE
  5
42B
100
AcDbEntity
  8
1
  6
CONTINUOUS
 62
           2
100
AcDbCircle
 10
10539.2621164949
 20
-1135.353351822154
 40
6.25
  0
CIRCLE
  5
42A
100
AcDbEntity
  8
1
  6
CONTINUOUS
 62
           7
100
AcDbCircle
 10
10818.40354869715
 20
-122.850191059704
 40
17.499999999991
  0
CIRCLE
  5
429
100
AcDbEntity
  8
1
  6
CONTINUOUS
 62
           7
100
AcDbCircle
 10
13864.647312122321
 20
-1135.353351822154
 40
41.0
  0
CIRCLE
  5
428
100
AcDbEntity
  8
1
  6
CONTINUOUS
 62
           7
100
AcDbCircle
 10
13864.647312122321
 20
-1135.353351822154
 40
36.112999999999
  0
CIRCLE
  5
427
100
AcDbEntity
  8
1
  6
CONTINUOUS
 62
           2
100
AcDbCircle
 10
13864.647312122321
 20
-1135.353351822154
 40
37.591999999999
  0
CIRCLE
  5
426
100
AcDbEntity
  8
1
  6
CONTINUOUS
 62
           2
100
AcDbCircle
 10
13864.647312122321
 20
-2440.533351822154
 40
11.100000000001
  0
CIRCLE
  5
425
100
AcDbEntity
  8
1
  6
CONTINUOUS
 62
           2
100
AcDbCircle
 10
13864.647312122321
 20
-2440.533351822154
 40
6.0
  0
CIRCLE
  5
424
100
AcDbEntity
  8
1
  6
CONTINUOUS
 62
           2
100
AcDbCircle
 10
13864.647312122321
 20
-2440.533351822154
 40
7.5
  0
CIRCLE
  5
423
100
AcDbEntity
  8
1
  6
CONTINUOUS
 62
           2
100
AcDbCircle
 10
13864.647312122321
 20
-2440.533351822154
 40
3.600000000001
  0
CIRCLE
  5
422
100
AcDbEntity
  8
1
  6
CONTINUOUS
 62
           7
100
AcDbCircle
 10
10478.96657915238
 20
-1048.708783583668
 40
36.09209352415
  0
CIRCLE
  5
421
100
AcDbEntity
  8
1
  6
CONTINUOUS
 62
           7
100
AcDbCircle
 10
10478.96338963649
 20
-1048.704624963737
 40
2.888888888891
  0
CIRCLE
  5
420
100
AcDbEntity
  8
1
  6
CONTINUOUS
 62
           7
100
AcDbCircle
 10
10463.073744963271
 20
-1066.129212338452
 40
0.722222222221
  0
CIRCLE
  5
41F
100
AcDbEntity
  8
1
  6
CONTINUOUS
 62
           2
100
AcDbCircle
 10
10478.96338963649
 20
-1061.342406399142
 40
2.247127062104
  0
CIRCLE
  5
41E
100
AcDbEntity
  8
1
  6
CONTINUOUS
 62
           2
100
AcDbCircle
 10
13290.41199462712
 20
-1008.133351822155
 40
19.5
  0
CIRCLE
  5
41D
100
AcDbEntity
  8
1
  6
CONTINUOUS
 62
           2
100
AcDbCircle
 10
13290.41199462712
 20
-1008.133351822155
 40
21.0
  0
CIRCLE
  5
41C
100
AcDbEntity
  8
1
  6
CONTINUOUS
 62
           2
100
AcDbCircle
 10
13290.41199462712
 20
-1008.133351822155
 40
29.0
  0
CIRCLE
  5
41B
100
AcDbEntity
  8
1
  6
CONTINUOUS
 62
           7
100
AcDbCircle
 10
11332.59974281995
 20
-122.850191059704
 40
17.500000000001
  0
CIRCLE
  5
41A
100
AcDbEntity
  8
1
  6
CONTINUOUS
 62
           7
100
AcDbCircle
 10
11075.50164575855
 20
-3761.85039313937
 40
484.000000000003
  0
CIRCLE
  5
419
100
AcDbEntity
  8
1
  6
CONTINUOUS
 62
           7
100
AcDbCircle
 10
11075.50164575855
 20
-3761.85039313937
 40
475.000000000002
  0
CIRCLE
  5
418
100
AcDbEntity
  8
1
  6
DOT_CENTER
 62
           2
100
AcDbCircle
 10
11075.50164575855
 20
-3761.85039313937
 40
425.000000000005
  0
CIRCLE
  5
417
100
AcDbEntity
  8
1
  6
CONTINUOUS
 62
           7
100
AcDbCircle
 10
11175.50164575855
 20
-1772.353351822154
 40
25.0
  0
CIRCLE
  5
416
100
AcDbEntity
  8
1
  6
CONTINUOUS
 62
           7
100
AcDbCircle
 10
10975.50164575855
 20
-1772.353351822154
 40
25.0
  0
CIRCLE
  5
415
100
AcDbEntity
  8
1
  6
CONTINUOUS
 62
           7
100
AcDbCircle
 10
11175.50164575855
 20
-1772.353351822154
 40
12.0
  0
CIRCLE
  5
414
100
AcDbEntity
  8
1
  6
CONTINUOUS
 62
           7
100
AcDbCircle
 10
11175.50164575855
 20
-1772.353351822154
 40
15.0
  0
CIRCLE
  5
413
100
AcDbEntity
  8
1
  6
CONTINUOUS
 62
           3
100
AcDbCircle
 10
11175.50164575855
 20
-1772.353351822154
 40
8.0
  0
CIRCLE
  5
412
100
AcDbEntity
  8
1
  6
CONTINUOUS
 62
           3
100
AcDbCircle
 10
10975.50164575855
 20
-1772.353351822154
 40
8.0
  0
CIRCLE
  5
411
100
AcDbEntity
  8
1
  6
CONTINUOUS
 62
           7
100
AcDbCircle
 10
10975.50164575855
 20
-1772.353351822154
 40
15.0
  0
CIRCLE
  5
410
100
AcDbEntity
  8
1
  6
CONTINUOUS
 62
           7
100
AcDbCircle
 10
10975.50164575855
 20
-1772.353351822154
 40
12.0
  0
ARC
  5
40F
100
AcDbEntity
  8
1
  6
CONTINUOUS
 62
           7
100
AcDbCircle
 10
11075.50164575855
 20
-3761.85039313937
 40
490.000000000001
100
AcDbArc
 50
54.721523406876
 51
125.278476593115
  0
ARC
  5
40E
100
AcDbEntity
  8
1
  6
CONTINUOUS
 62
           7
100
AcDbCircle
 10
13484.647312122321
 20
-316.438865733792
 40
104.000000000004
100
AcDbArc
 50
116.387799961246
 51
180.0
  0
ARC
  5
40D
100
AcDbEntity
  8
1
  6
CONTINUOUS
 62
           7
100
AcDbCircle
 10
14244.647312122321
 20
-316.438865733792
 40
104.0
100
AcDbArc
 50
0.0
 51
63.612200038759
  0
ARC
  5
40C
100
AcDbEntity
  8
1
  6
CONTINUOUS
 62
           7
100
AcDbCircle
 10
14244.647312122321
 20
-316.438865733792
 40
104.0
100
AcDbArc
 50
0.0
 51
63.612200038759
  0
ARC
  5
40B
100
AcDbEntity
  8
1
  6
CONTINUOUS
 62
           7
100
AcDbCircle
 10
14244.647312122321
 20
-316.438865733792
 40
104.0
100
AcDbArc
 50
0.0
 51
63.612200038759
  0
ARC
  5
40A
100
AcDbEntity
  8
1
  6
CONTINUOUS
 62
           7
100
AcDbCircle
 10
13864.647312122401
 20
-1082.353351821961
 40
958.999999999791
100
AcDbArc
 50
63.612200038756
 51
70.19045356819
  0
ARC
  5
409
100
AcDbEntity
  8
1
  6
CONTINUOUS
 62
           7
100
AcDbCircle
 10
13864.64731212231
 20
-1082.353351822138
 40
958.999999999984
100
AcDbArc
 50
90.373411008324
 51
109.80954643181
  0
ARC
  5
408
100
AcDbEntity
  8
1
  6
CONTINUOUS
 62
           7
100
AcDbCircle
 10
13864.647312122241
 20
-1082.353351821961
 40
958.999999999791
100
AcDbArc
 50
109.809546431809
 51
116.387799961244
  0
ARC
  5
407
100
AcDbEntity
  8
1
  6
CONTINUOUS
 62
           7
100
AcDbCircle
 10
13484.647312122321
 20
-316.438865733792
 40
104.000000000004
100
AcDbArc
 50
116.387799961246
 51
180.0
  0
ARC
  5
406
100
AcDbEntity
  8
1
  6
CONTINUOUS
 62
           7
100
AcDbCircle
 10
14244.647312122321
 20
-2192.267837910516
 40
103.999999999999
100
AcDbArc
 50
-63.612200038759
 51
0.0
  0
ARC
  5
405
100
AcDbEntity
  8
1
  6
CONTINUOUS
 62
           7
100
AcDbCircle
 10
14244.647312122321
 20
-2192.267837910516
 40
103.999999999999
100
AcDbArc
 50
-63.612200038759
 51
0.0
  0
ARC
  5
404
100
AcDbEntity
  8
1
  6
CONTINUOUS
 62
           7
100
AcDbCircle
 10
14244.647312122321
 20
-2192.267837910516
 40
103.999999999999
100
AcDbArc
 50
-63.612200038759
 51
0.0
  0
ARC
  5
403
100
AcDbEntity
  8
1
  6
CONTINUOUS
 62
           7
100
AcDbCircle
 10
14244.647312122321
 20
-2192.267837910516
 40
103.999999999999
100
AcDbArc
 50
-63.612200038759
 51
0.0
  0
ARC
  5
402
100
AcDbEntity
  8
1
  6
CONTINUOUS
 62
           7
100
AcDbCircle
 10
13864.647312122401
 20
-1426.353351822348
 40
958.999999999791
100
AcDbArc
 50
-68.594663326099
 51
-63.612200038756
  0
ARC
  5
401
100
AcDbEntity
  8
1
  6
CONTINUOUS
 62
           7
100
AcDbCircle
 10
13484.647312122321
 20
-2192.267837910516
 40
104.0
100
AcDbArc
 50
180.0
 51
-116.387799961246
  0
ARC
  5
400
100
AcDbEntity
  8
1
  6
CONTINUOUS
 62
           7
100
AcDbCircle
 10
13484.647312122321
 20
-2192.267837910516
 40
104.0
100
AcDbArc
 50
180.0
 51
-116.387799961246
  0
ARC
  5
3FF
100
AcDbEntity
  8
1
  6
CONTINUOUS
 62
           2
100
AcDbCircle
 10
10480.00291890014
 20
-3761.85039313937
 40
11.5
100
AcDbArc
 50
90.0
 51
-90.0
  0
ARC
  5
3FE
100
AcDbEntity
  8
1
  6
CONTINUOUS
 62
           2
100
AcDbCircle
 10
10568.44986255309
 20
-3767.10039313937
 40
15.163861141555
100
AcDbArc
 50
-171.466995559557
 51
-159.743841999575
  0
ARC
  5
3FD
100
AcDbEntity
  8
1
  6
CONTINUOUS
 62
           2
100
AcDbCircle
 10
10512.07342896402
 20
-3756.60039313937
 40
15.163861141553
100
AcDbArc
 50
8.533004440444
 51
20.256158000427
  0
ARC
  5
3FC
100
AcDbEntity
  8
1
  6
CONTINUOUS
 62
           2
100
AcDbCircle
 10
10568.44986255309
 20
-3756.60039313937
 40
15.163861141555
100
AcDbArc
 50
-173.372959072818
 51
-159.743841999575
  0
ARC
  5
3FB
100
AcDbEntity
  8
1
  6
CONTINUOUS
 62
           2
100
AcDbCircle
 10
10512.07342896402
 20
-3767.10039313937
 40
15.163861141554
100
AcDbArc
 50
6.627040927183
 51
20.256158000427
  0
ARC
  5
3FA
100
AcDbEntity
  8
1
  6
CONTINUOUS
 62
           2
100
AcDbCircle
 10
10539.26164575855
 20
-3744.539143139371
 40
9.111249999993
100
AcDbArc
 50
-117.095877975956
 51
-62.904122023993
  0
ARC
  5
3F9
100
AcDbEntity
  8
1
  6
CONTINUOUS
 62
           2
100
AcDbCircle
 10
10547.097784617001
 20
-3756.60039313937
 40
15.163861141558
100
AcDbArc
 50
-20.256158000415
 51
20.256158000415
  0
ARC
  5
3F8
100
AcDbEntity
  8
1
  6
CONTINUOUS
 62
           2
100
AcDbCircle
 10
10547.097784617001
 20
-3767.10039313937
 40
15.163861141557
100
AcDbArc
 50
-20.256158000411
 51
20.256158000415
  0
ARC
  5
3F7
100
AcDbEntity
  8
1
  6
CONTINUOUS
 62
           2
100
AcDbCircle
 10
10568.44986255309
 20
-3767.10039313937
 40
15.163861141551
100
AcDbArc
 50
159.743841999575
 51
173.372959072812
  0
ARC
  5
3F6
100
AcDbEntity
  8
1
  6
CONTINUOUS
 62
           2
100
AcDbCircle
 10
10568.44986255309
 20
-3756.60039313937
 40
15.163861141551
100
AcDbArc
 50
159.743841999575
 51
171.466995559552
  0
ARC
  5
3F5
100
AcDbEntity
  8
1
  6
CONTINUOUS
 62
           2
100
AcDbCircle
 10
10512.07342896402
 20
-3756.60039313937
 40
15.163861141549
100
AcDbArc
 50
-20.256158000427
 51
-6.627040927183
  0
ARC
  5
3F4
100
AcDbEntity
  8
1
  6
CONTINUOUS
 62
           2
100
AcDbCircle
 10
10512.07342896402
 20
-3767.10039313937
 40
15.163861141549
100
AcDbArc
 50
-20.256158000422
 51
-8.533004440444
  0
ARC
  5
3F3
100
AcDbEntity
  8
1
  6
CONTINUOUS
 62
           2
100
AcDbCircle
 10
10533.42550690011
 20
-3756.60039313937
 40
15.163861141559
100
AcDbArc
 50
159.743841999587
 51
-159.743841999587
  0
ARC
  5
3F2
100
AcDbEntity
  8
1
  6
CONTINUOUS
 62
           2
100
AcDbCircle
 10
10533.42550690011
 20
-3767.10039313937
 40
15.163861141559
100
AcDbArc
 50
159.743841999587
 51
-159.743841999591
  0
ARC
  5
3F1
100
AcDbEntity
  8
1
  6
CONTINUOUS
 62
           2
100
AcDbCircle
 10
10539.26164575855
 20
-3725.308726472697
 40
13.541666666667
100
AcDbArc
 50
-125.051136747436
 51
-54.948863252532
  0
ARC
  5
3F0
100
AcDbEntity
  8
1
  6
CONTINUOUS
 62
           2
100
AcDbCircle
 10
11075.50164575855
 20
-3187.615075644168
 40
40.141914435017
100
AcDbArc
 50
-30.740714129758
 51
-149.259285870234
  0
ARC
  5
3EF
100
AcDbEntity
  8
1
  6
CONTINUOUS
 62
           2
100
AcDbCircle
 10
11075.53031466241
 20
-3195.222831161517
 40
34.787361012422
100
AcDbArc
 50
7.71000821894
 51
173.029145890945
  0
ARC
  5
3EE
100
AcDbEntity
  8
1
  6
CONTINUOUS
 62
           2
100
AcDbCircle
 10
11030.584659725881
 20
-3221.22556960463
 40
10.415441500099
100
AcDbArc
 50
-31.131490566085
 51
0.0
  0
ARC
  5
3ED
100
AcDbEntity
  8
1
  6
CONTINUOUS
 62
           2
100
AcDbCircle
 10
11120.41863179123
 20
-3221.22556960463
 40
10.415441500099
100
AcDbArc
 50
180.0
 51
-148.868509433915
  0
ARC
  5
3EC
100
AcDbEntity
  8
1
  6
CONTINUOUS
 62
           2
100
AcDbCircle
 10
10522.67691851068
 20
-1144.461338084233
 40
5.414822022413
100
AcDbArc
 50
145.771504196998
 51
-155.979322918954
  0
ARC
  5
3EB
100
AcDbEntity
  8
1
  6
CONTINUOUS
 62
           2
100
AcDbCircle
 10
10537.324294321381
 20
-1135.353351822154
 40
20.062177826481
100
AcDbArc
 50
162.412046225999
 51
-162.412046226
  0
ARC
  5
3EA
100
AcDbEntity
  8
1
  6
CONTINUOUS
 62
           2
100
AcDbCircle
 10
10522.67691851068
 20
-1126.245365560075
 40
5.414822022411
100
AcDbArc
 50
155.979322918954
 51
-145.771504196998
  0
ARC
  5
3E9
100
AcDbEntity
  8
1
  6
CONTINUOUS
 62
           2
100
AcDbCircle
 10
10555.84731447913
 20
-1144.461338084233
 40
5.414822022411
100
AcDbArc
 50
-24.020677081046
 51
34.228495803002
  0
ARC
  5
3E8
100
AcDbEntity
  8
1
  6
CONTINUOUS
 62
           2
100
AcDbCircle
 10
10541.199938668429
 20
-1135.353351822154
 40
20.062177826481
100
AcDbArc
 50
-17.587953774
 51
17.587953774
  0
ARC
  5
3E7
100
AcDbEntity
  8
1
  6
CONTINUOUS
 62
           2
100
AcDbCircle
 10
10555.84731447913
 20
-1126.245365560075
 40
5.414822022413
100
AcDbArc
 50
-34.228495803002
 51
24.020677081046
  0
ARC
  5
3E6
100
AcDbEntity
  8
1
  6
CONTINUOUS
 62
           2
100
AcDbCircle
 10
10539.2621164949
 20
-1135.353351822154
 40
9.999999999995
100
AcDbArc
 50
-145.570996049271
 51
-34.429003950693
  0
ARC
  5
3E5
100
AcDbEntity
  8
1
  6
CONTINUOUS
 62
           2
100
AcDbCircle
 10
10539.2621164949
 20
-1135.353351822154
 40
10.000000000004
100
AcDbArc
 50
34.429003950694
 51
145.57099604927
  0
ARC
  5
3E4
100
AcDbEntity
  8
1
  6
CONTINUOUS
 62
           2
100
AcDbCircle
 10
10573.02429432138
 20
-1135.353351822154
 40
20.06217782648
100
AcDbArc
 50
-163.904036789944
 51
-162.412046225998
  0
ARC
  5
3E3
100
AcDbEntity
  8
1
  6
CONTINUOUS
 62
           2
100
AcDbCircle
 10
10558.376918510679
 20
-1144.461338084233
 40
5.414822022411
100
AcDbArc
 50
145.771504196987
 51
-155.979322918946
  0
ARC
  5
3E2
100
AcDbEntity
  8
1
  6
CONTINUOUS
 62
           2
100
AcDbCircle
 10
10558.376918510679
 20
-1126.245365560075
 40
5.41482202241
100
AcDbArc
 50
155.979322918946
 51
-145.771504196987
  0
ARC
  5
3E1
100
AcDbEntity
  8
1
  6
CONTINUOUS
 62
           2
100
AcDbCircle
 10
10505.237760841939
 20
-1135.353351822154
 40
20.062177826472
100
AcDbArc
 50
16.095963210063
 51
17.587953774
  0
ARC
  5
3E0
100
AcDbEntity
  8
1
  6
CONTINUOUS
 62
           2
100
AcDbCircle
 10
10519.88513665264
 20
-1126.245365560075
 40
5.414822022413
100
AcDbArc
 50
-34.228495803002
 51
24.020677081046
  0
ARC
  5
3DF
100
AcDbEntity
  8
1
  6
CONTINUOUS
 62
           2
100
AcDbCircle
 10
10519.88513665264
 20
-1144.461338084233
 40
5.414822022411
100
AcDbArc
 50
-24.020677081046
 51
34.228495803002
  0
ARC
  5
3DE
100
AcDbEntity
  8
1
  6
CONTINUOUS
 62
           2
100
AcDbCircle
 10
10545.164994555351
 20
-1131.364522255224
 40
6.806710713908
100
AcDbArc
 50
3.041596008613
 51
41.51019968795
  0
ARC
  5
3DD
100
AcDbEntity
  8
1
  6
CONTINUOUS
 62
           2
100
AcDbCircle
 10
10505.237760841939
 20
-1135.353351822154
 40
20.062177826481
100
AcDbArc
 50
-17.587953774
 51
-16.095963210062
  0
ARC
  5
3DC
100
AcDbEntity
  8
1
  6
CONTINUOUS
 62
           2
100
AcDbCircle
 10
10573.02429432138
 20
-1135.353351822154
 40
20.062177826479
100
AcDbArc
 50
162.412046225998
 51
163.904036789944
  0
ARC
  5
3DB
100
AcDbEntity
  8
1
  6
CONTINUOUS
 62
           7
100
AcDbCircle
 10
13864.647312122321
 20
-2485.353351822154
 40
100.0
100
AcDbArc
 50
0.0
 51
180.0
  0
ARC
  5
3DA
100
AcDbEntity
  8
1
  6
CONTINUOUS
 62
           7
100
AcDbCircle
 10
10818.40354869715
 20
-122.850191059704
 40
30.000000000006
100
AcDbArc
 50
-42.425560900821
 51
-107.57443909915
  0
ARC
  5
3D9
100
AcDbEntity
  8
1
  6
CONTINUOUS
 62
           7
100
AcDbCircle
 10
12016.666823785081
 20
-1135.353351822154
 40
459.000000000022
100
AcDbArc
 50
174.875245897026
 51
-174.875245897026
  0
ARC
  5
3D8
100
AcDbEntity
  8
1
  6
CONTINUOUS
 62
           7
100
AcDbCircle
 10
11561.95615451939
 20
-2452.888113611858
 40
152.252346488172
100
AcDbArc
 50
153.668036846968
 51
-178.848262174543
  0
ARC
  5
3D7
100
AcDbEntity
  8
1
  6
CONTINUOUS
 62
           7
100
AcDbCircle
 10
10589.04713699772
 20
-2452.888113611858
 40
152.252346488165
100
AcDbArc
 50
-1.151737825456
 51
26.331963153033
  0
ARC
  5
3D6
100
AcDbEntity
  8
1
  6
CONTINUOUS
 62
           7
100
AcDbCircle
 10
10134.336467732021
 20
-1935.353351822154
 40
459.000000000031
100
AcDbArc
 50
-5.124754102973
 51
5.124754102973
  0
ARC
  5
3D5
100
AcDbEntity
  8
1
  6
CONTINUOUS
 62
           7
100
AcDbCircle
 10
11075.50164575855
 20
-2485.353351822154
 40
100.0
100
AcDbArc
 50
0.0
 51
180.0
  0
ARC
  5
3D4
100
AcDbEntity
  8
1
  6
CONTINUOUS
 62
           2
100
AcDbCircle
 10
11099.651645758549
 20
-2440.283351822153
 40
14.252192813739
100
AcDbArc
 50
158.385221057213
 51
-158.385221057213
  0
ARC
  5
3D3
100
AcDbEntity
  8
1
  6
CONTINUOUS
 62
           2
100
AcDbCircle
 10
11118.28289575855
 20
-2440.533351822154
 40
15.781249999998
100
AcDbArc
 50
141.908042894759
 51
-141.908042894762
  0
ARC
  5
3D2
100
AcDbEntity
  8
1
  6
CONTINUOUS
 62
           2
100
AcDbCircle
 10
11069.25164575855
 20
-2451.481136177447
 40
18.052215644707
100
AcDbArc
 50
-110.256158000421
 51
-69.743841999581
  0
ARC
  5
3D1
100
AcDbEntity
  8
1
  6
CONTINUOUS
 62
           2
100
AcDbCircle
 10
11081.75164575855
 20
-2451.481136177447
 40
18.052215644708
100
AcDbArc
 50
-110.256158000419
 51
-69.743841999579
  0
ARC
  5
3D0
100
AcDbEntity
  8
1
  6
CONTINUOUS
 62
           2
100
AcDbCircle
 10
11069.25164575855
 20
-2431.08556746686
 40
18.052215644707
100
AcDbArc
 50
69.74384199958
 51
110.25615800042
  0
ARC
  5
3CF
100
AcDbEntity
  8
1
  6
CONTINUOUS
 62
           2
100
AcDbCircle
 10
11081.75164575855
 20
-2431.08556746686
 40
18.052215644707
100
AcDbArc
 50
69.74384199958
 51
110.25615800042
  0
ARC
  5
3CE
100
AcDbEntity
  8
1
  6
CONTINUOUS
 62
           2
100
AcDbCircle
 10
11081.75164575855
 20
-2405.397802844118
 40
18.052215644708
100
AcDbArc
 50
-110.256158000419
 51
-98.762318068003
  0
ARC
  5
3CD
100
AcDbEntity
  8
1
  6
CONTINUOUS
 62
           2
100
AcDbCircle
 10
11069.25164575855
 20
-2405.397802844118
 40
18.052215644707
100
AcDbArc
 50
-110.25615800042
 51
-98.762318068003
  0
ARC
  5
3CC
100
AcDbEntity
  8
1
  6
CONTINUOUS
 62
           2
100
AcDbCircle
 10
11081.75164575855
 20
-2477.168900800191
 40
18.052215644708
100
AcDbArc
 50
69.74384199958
 51
81.237681931997
  0
ARC
  5
3CB
100
AcDbEntity
  8
1
  6
CONTINUOUS
 62
           2
100
AcDbCircle
 10
11069.25164575855
 20
-2477.168900800191
 40
18.052215644708
100
AcDbArc
 50
69.74384199958
 51
81.237681931997
  0
ARC
  5
3CA
100
AcDbEntity
  8
1
  6
CONTINUOUS
 62
           2
100
AcDbCircle
 10
11069.25164575855
 20
-2405.397802844118
 40
18.052215644708
100
AcDbArc
 50
-81.237681931997
 51
-69.743841999581
  0
ARC
  5
3C9
100
AcDbEntity
  8
1
  6
CONTINUOUS
 62
           2
100
AcDbCircle
 10
11081.75164575855
 20
-2477.168900800191
 40
18.052215644708
100
AcDbArc
 50
98.762318068003
 51
110.256158000419
  0
ARC
  5
3C8
100
AcDbEntity
  8
1
  6
CONTINUOUS
 62
           2
100
AcDbCircle
 10
11081.75164575855
 20
-2405.397802844118
 40
18.052215644708
100
AcDbArc
 50
-81.237681931997
 51
-69.74384199958
  0
ARC
  5
3C7
100
AcDbEntity
  8
1
  6
CONTINUOUS
 62
           2
100
AcDbCircle
 10
11069.25164575855
 20
-2477.168900800191
 40
18.052215644708
100
AcDbArc
 50
98.762318068003
 51
110.256158000419
  0
ARC
  5
3C6
100
AcDbEntity
  8
1
  6
CONTINUOUS
 62
           2
100
AcDbCircle
 10
13864.647312122321
 20
-2485.378458536439
 40
25.760231957409
100
AcDbArc
 50
73.730496507343
 51
106.269503492637
  0
ARC
  5
3C5
100
AcDbEntity
  8
1
  6
CONTINUOUS
 62
           2
100
AcDbCircle
 10
13864.647312122321
 20
-2445.649806790598
 40
23.883545031554
100
AcDbArc
 50
-107.587953773981
 51
-72.412046225998
  0
ARC
  5
3C4
100
AcDbEntity
  8
1
  6
CONTINUOUS
 62
           2
100
AcDbCircle
 10
13864.647312122321
 20
-2401.541417362366
 40
21.615815918786
100
AcDbArc
 50
-109.503854479457
 51
-70.49614552052
  0
ARC
  5
3C3
100
AcDbEntity
  8
1
  6
CONTINUOUS
 62
           2
100
AcDbCircle
 10
13864.647312122321
 20
-2436.916896853732
 40
23.88354503158
100
AcDbArc
 50
72.412046226016
 51
107.587953773963
  0
ARC
  5
3C2
100
AcDbEntity
  8
1
  6
CONTINUOUS
 62
           2
100
AcDbCircle
 10
13875.490152910519
 20
-2465.979544698076
 40
6.446216693346
100
AcDbArc
 50
65.97932291894
 51
79.658790361538
  0
ARC
  5
3C1
100
AcDbEntity
  8
1
  6
CONTINUOUS
 62
           2
100
AcDbCircle
 10
13853.80447133413
 20
-2465.979544698077
 40
6.446216693343
100
AcDbArc
 50
55.771504196954
 51
82.487084244353
  0
ARC
  5
3C0
100
AcDbEntity
  8
1
  6
CONTINUOUS
 62
           2
100
AcDbCircle
 10
13875.490152910519
 20
-2416.587158946235
 40
6.446216693342
100
AcDbArc
 50
-124.228495803032
 51
-97.512915755713
  0
ARC
  5
3BF
100
AcDbEntity
  8
1
  6
CONTINUOUS
 62
           2
100
AcDbCircle
 10
13853.80447133413
 20
-2416.587158946233
 40
6.446216693346
100
AcDbArc
 50
-114.020677081041
 51
-100.341209638526
  0
ARC
  5
3BE
100
AcDbEntity
  8
1
  6
CONTINUOUS
 62
           2
100
AcDbCircle
 10
13875.490152910519
 20
-2463.087158946232
 40
6.446216693342
100
AcDbArc
 50
-124.228495803032
 51
-65.979322918935
  0
ARC
  5
3BD
100
AcDbEntity
  8
1
  6
CONTINUOUS
 62
           2
100
AcDbCircle
 10
13864.647312122321
 20
-2445.649806790614
 40
23.88354503154
100
AcDbArc
 50
-76.069099515849
 51
-72.412046225987
  0
ARC
  5
3BC
100
AcDbEntity
  8
1
  6
CONTINUOUS
 62
           2
100
AcDbCircle
 10
13853.80447133413
 20
-2463.087158946231
 40
6.446216693345
100
AcDbArc
 50
-114.020677081045
 51
-55.771504196961
  0
ARC
  5
3BB
100
AcDbEntity
  8
1
  6
CONTINUOUS
 62
           2
100
AcDbCircle
 10
13875.490152910519
 20
-2419.479544698074
 40
6.446216693345
100
AcDbArc
 50
65.979322918935
 51
124.228495803032
  0
ARC
  5
3BA
100
AcDbEntity
  8
1
  6
CONTINUOUS
 62
           2
100
AcDbCircle
 10
13864.647312122321
 20
-2436.916896853693
 40
23.88354503154
100
AcDbArc
 50
103.930900484151
 51
107.587953773991
  0
ARC
  5
3B9
100
AcDbEntity
  8
1
  6
CONTINUOUS
 62
           2
100
AcDbCircle
 10
13853.80447133413
 20
-2419.479544698075
 40
6.446216693344
100
AcDbArc
 50
55.771504196961
 51
114.020677081045
  0
ARC
  5
3B8
100
AcDbEntity
  8
1
  6
CONTINUOUS
 62
           2
100
AcDbCircle
 10
13864.647312122321
 20
-2399.149806790616
 40
23.883545031541
100
AcDbArc
 50
-76.069099515849
 51
-72.412046225987
  0
ARC
  5
3B7
100
AcDbEntity
  8
1
  6
CONTINUOUS
 62
           2
100
AcDbCircle
 10
13853.80447133413
 20
-2416.587158946233
 40
6.446216693346
100
AcDbArc
 50
-82.487084244353
 51
-55.771504196963
  0
ARC
  5
3B6
100
AcDbEntity
  8
1
  6
CONTINUOUS
 62
           2
100
AcDbCircle
 10
13875.490152910519
 20
-2416.587158946235
 40
6.446216693345
100
AcDbArc
 50
-79.658790361543
 51
-65.979322918937
  0
ARC
  5
3B5
100
AcDbEntity
  8
1
  6
CONTINUOUS
 62
           2
100
AcDbCircle
 10
13864.647312122321
 20
-2483.416896853694
 40
23.88354503154
100
AcDbArc
 50
103.930900484151
 51
107.587953773993
  0
ARC
  5
3B4
100
AcDbEntity
  8
1
  6
CONTINUOUS
 62
           2
100
AcDbCircle
 10
13853.80447133413
 20
-2465.979544698077
 40
6.446216693347
100
AcDbArc
 50
100.341209638521
 51
114.020677081041
  0
ARC
  5
3B3
100
AcDbEntity
  8
1
  6
CONTINUOUS
 62
           2
100
AcDbCircle
 10
13875.490152910519
 20
-2465.979544698076
 40
6.446216693343
100
AcDbArc
 50
97.512915755716
 51
124.228495803037
  0
ARC
  5
3B2
100
AcDbEntity
  8
1
  6
CONTINUOUS
 62
           2
100
AcDbCircle
 10
13864.647312122321
 20
-2399.149806790616
 40
23.88354503154
100
AcDbArc
 50
-107.587953773991
 51
-103.93090048415
  0
ARC
  5
3B1
100
AcDbEntity
  8
1
  6
CONTINUOUS
 62
           2
100
AcDbCircle
 10
13864.647312122321
 20
-2483.416896853694
 40
23.883545031541
100
AcDbArc
 50
72.412046225986
 51
76.069099515849
  0
ARC
  5
3B0
100
AcDbEntity
  8
1
  6
CONTINUOUS
 62
           2
100
AcDbCircle
 10
13864.647312122321
 20
-2436.916896853693
 40
23.883545031543
100
AcDbArc
 50
72.412046225987
 51
76.069099515849
  0
ARC
  5
3AF
100
AcDbEntity
  8
1
  6
CONTINUOUS
 62
           2
100
AcDbCircle
 10
13864.647312122321
 20
-2445.649806790614
 40
23.883545031539
100
AcDbArc
 50
-107.587953773992
 51
-103.930900484151
  0
ARC
  5
3AE
100
AcDbEntity
  8
1
  6
CONTINUOUS
 62
           2
100
AcDbCircle
 10
13864.647312122321
 20
-2440.533351822154
 40
12.999999999997
100
AcDbArc
 50
31.108922510504
 51
148.891077489499
  0
ARC
  5
3AD
100
AcDbEntity
  8
1
  6
CONTINUOUS
 62
           2
100
AcDbCircle
 10
13864.647312122321
 20
-2440.533351822154
 40
13.000000000004
100
AcDbArc
 50
-148.89107748946
 51
-31.108922510544
  0
ARC
  5
3AC
100
AcDbEntity
  8
1
  6
CONTINUOUS
 62
           7
100
AcDbCircle
 10
10478.918945192039
 20
-1048.670537630899
 40
39.04445932423
100
AcDbArc
 50
93.899904844086
 51
-153.889170205381
  0
ARC
  5
3AB
100
AcDbEntity
  8
1
  6
CONTINUOUS
 62
           7
100
AcDbCircle
 10
10478.918945192039
 20
-1048.670537630899
 40
39.044459324227
100
AcDbArc
 50
-153.889170205381
 51
-145.958605674406
  0
ARC
  5
3AA
100
AcDbEntity
  8
1
  6
CONTINUOUS
 62
           7
100
AcDbCircle
 10
10479.00783408093
 20
-1048.762573429561
 40
38.955598656249
100
AcDbArc
 50
-33.933112924655
 51
-25.984434102924
  0
ARC
  5
3A9
100
AcDbEntity
  8
1
  6
CONTINUOUS
 62
           7
100
AcDbCircle
 10
10479.00783408093
 20
-1048.762573429561
 40
38.955598656248
100
AcDbArc
 50
-74.888655776963
 51
-33.933112924655
  0
ARC
  5
3A8
100
AcDbEntity
  8
1
  6
CONTINUOUS
 62
           7
100
AcDbCircle
 10
10511.69082575617
 20
-1067.599819017321
 40
3.637499999999
100
AcDbArc
 50
-77.924977949216
 51
17.924977949179
  0
ARC
  5
3A7
100
AcDbEntity
  8
1
  6
CONTINUOUS
 62
           7
100
AcDbCircle
 10
10446.19208192567
 20
-1067.625148292271
 40
3.637499999995
100
AcDbArc
 50
162.075022050851
 51
-102.07502205078
  0
ARC
  5
3A6
100
AcDbEntity
  8
1
  6
CONTINUOUS
 62
           7
100
AcDbCircle
 10
10478.96338963649
 20
-1010.863578306668
 40
3.637499999992
100
AcDbArc
 50
42.075022050951
 51
137.924977949164
  0
ARC
  5
3A5
100
AcDbEntity
  8
1
  6
CONTINUOUS
 62
           7
100
AcDbCircle
 10
10478.918945192039
 20
-1048.670537630899
 40
39.044459324229
100
AcDbArc
 50
85.969342150797
 51
93.899904844086
  0
ARC
  5
3A4
100
AcDbEntity
  8
1
  6
CONTINUOUS
 62
           7
100
AcDbCircle
 10
10478.918945192039
 20
-1048.670537630899
 40
39.044459324238
100
AcDbArc
 50
-0.05002145217
 51
85.969342150797
  0
ARC
  5
3A3
100
AcDbEntity
  8
1
  6
CONTINUOUS
 62
           7
100
AcDbCircle
 10
10478.96607992501
 20
-1048.708132670823
 40
28.591593842011
100
AcDbArc
 50
180.0
 51
-135.510592132952
  0
ARC
  5
3A2
100
AcDbEntity
  8
1
  6
CONTINUOUS
 62
           7
100
AcDbCircle
 10
10478.96607992501
 20
-1048.708132670823
 40
28.591593842012
100
AcDbArc
 50
-44.999999999999
 51
180.0
  0
ARC
  5
3A1
100
AcDbEntity
  8
1
  6
CONTINUOUS
 62
           7
100
AcDbCircle
 10
10478.96226100384
 20
-1048.703641183724
 40
32.087775151116
100
AcDbArc
 50
-45.000831183762
 51
179.926907891323
  0
ARC
  5
3A0
100
AcDbEntity
  8
1
  6
CONTINUOUS
 62
           7
100
AcDbCircle
 10
10478.96338963649
 20
-1048.704624963737
 40
3.611111111109
100
AcDbArc
 50
74.697968285745
 51
-158.578178478207
  0
ARC
  5
39F
100
AcDbEntity
  8
1
  6
CONTINUOUS
 62
           7
100
AcDbCircle
 10
10478.96338963649
 20
-1048.704624963737
 40
3.611111111115
100
AcDbArc
 50
-111.421821521943
 51
0.0
  0
ARC
  5
39E
100
AcDbEntity
  8
1
  6
CONTINUOUS
 62
           7
100
AcDbCircle
 10
10478.96338963649
 20
-1048.704624963737
 40
3.611111111109
100
AcDbArc
 50
0.0
 51
15.302031714379
  0
ARC
  5
39D
100
AcDbEntity
  8
1
  6
CONTINUOUS
 62
           7
100
AcDbCircle
 10
10479.00783408093
 20
-1048.762573429561
 40
38.955598656251
100
AcDbArc
 50
-25.984434102924
 51
0.085230463913
  0
ARC
  5
39C
100
AcDbEntity
  8
1
  6
CONTINUOUS
 62
           7
100
AcDbCircle
 10
10478.918945192039
 20
-1048.670537630899
 40
39.044459324231
100
AcDbArc
 50
-145.958605674406
 51
-105.07613521128
  0
ARC
  5
39B
100
AcDbEntity
  8
1
  6
CONTINUOUS
 62
           7
100
AcDbCircle
 10
10478.96338963649
 20
-1048.373490873315
 40
39.342857142856
100
AcDbArc
 50
-105.026113759121
 51
-74.973886240881
  0
ARC
  5
39A
100
AcDbEntity
  8
1
  6
CONTINUOUS
 62
           7
100
AcDbCircle
 10
10478.96226100384
 20
-1048.703641183724
 40
32.087775151115
100
AcDbArc
 50
179.926907891323
 51
-135.444465308202
  0
ARC
  5
399
100
AcDbEntity
  8
1
  6
CONTINUOUS
 62
           7
100
AcDbCircle
 10
10511.848332410391
 20
-1078.988236900403
 40
42.897491299712
100
AcDbArc
 50
116.582304419184
 51
133.266911622696
  0
ARC
  5
398
100
AcDbEntity
  8
1
  6
CONTINUOUS
 62
           7
100
AcDbCircle
 10
10492.36149403385
 20
-1040.043882445705
 40
0.650179290189
100
AcDbArc
 50
-63.417695581085
 51
30.139023485603
  0
ARC
  5
397
100
AcDbEntity
  8
1
  6
CONTINUOUS
 62
           7
100
AcDbCircle
 10
10448.679777699819
 20
-1015.819682189831
 40
42.89749129971
100
AcDbArc
 50
-43.2669116227
 51
-26.582304419182
  0
ARC
  5
396
100
AcDbEntity
  8
1
  6
CONTINUOUS
 62
           7
100
AcDbCircle
 10
10487.62413215452
 20
-1035.306520566374
 40
0.650179290189
100
AcDbArc
 50
59.860976514721
 51
153.417695580843
  0
ARC
  5
395
100
AcDbEntity
  8
1
  6
CONTINUOUS
 62
           7
100
AcDbCircle
 10
10481.066192769569
 20
-1046.601821830651
 40
13.711205269322
100
AcDbArc
 50
30.139023485574
 51
59.860976514413
  0
ARC
  5
394
100
AcDbEntity
  8
1
  6
CONTINUOUS
 62
           2
100
AcDbCircle
 10
11075.50164575855
 20
-932.199143429707
 40
25.565791607553
100
AcDbArc
 50
68.788505585337
 51
111.211494414663
  0
ARC
  5
393
100
AcDbEntity
  8
1
  6
CONTINUOUS
 62
           2
100
AcDbCircle
 10
11091.00164575855
 20
-918.775749671047
 40
12.142397848893
100
AcDbArc
 50
90.0
 51
120.979098861629
  0
ARC
  5
392
100
AcDbEntity
  8
1
  6
CONTINUOUS
 62
           2
100
AcDbCircle
 10
11060.00164575855
 20
-918.775749671047
 40
12.142397848894
100
AcDbArc
 50
59.020901138371
 51
90.0
  0
ARC
  5
391
100
AcDbEntity
  8
1
  6
CONTINUOUS
 62
           2
100
AcDbCircle
 10
11075.50164575855
 20
-898.133351822155
 40
15.0
100
AcDbArc
 50
0.0
 51
180.0
  0
ARC
  5
390
100
AcDbEntity
  8
1
  6
CONTINUOUS
 62
           2
100
AcDbCircle
 10
11075.50164575855
 20
-998.719408806031
 40
35.086056983878
100
AcDbArc
 50
67.812245868759
 51
112.18775413124
  0
ARC
  5
38F
100
AcDbEntity
  8
1
  6
CONTINUOUS
 62
           2
100
AcDbCircle
 10
11053.50164575855
 20
-979.666849922773
 40
16.033498100619
100
AcDbArc
 50
56.925269932794
 51
90.0
  0
ARC
  5
38E
100
AcDbEntity
  8
1
  6
CONTINUOUS
 62
           2
100
AcDbCircle
 10
11097.50164575855
 20
-920.633351822155
 40
1.0
100
AcDbArc
 50
0.0
 51
180.0
  0
ARC
  5
38D
100
AcDbEntity
  8
1
  6
CONTINUOUS
 62
           2
100
AcDbCircle
 10
11082.834979091889
 20
-920.633351822155
 40
1.0
100
AcDbArc
 50
0.0
 51
180.0
  0
ARC
  5
38C
100
AcDbEntity
  8
1
  6
CONTINUOUS
 62
           2
100
AcDbCircle
 10
11068.168312425219
 20
-920.633351822155
 40
1.0
100
AcDbArc
 50
0.0
 51
180.0
  0
ARC
  5
38B
100
AcDbEntity
  8
1
  6
CONTINUOUS
 62
           2
100
AcDbCircle
 10
11053.50164575855
 20
-920.633351822155
 40
1.0
100
AcDbArc
 50
0.0
 51
180.0
  0
ARC
  5
38A
100
AcDbEntity
  8
1
  6
CONTINUOUS
 62
           2
100
AcDbCircle
 10
11097.50164575855
 20
-979.666849922773
 40
16.033498100618
100
AcDbArc
 50
90.0
 51
123.074730067206
  0
ARC
  5
389
100
AcDbEntity
  8
1
  6
CONTINUOUS
 62
           2
100
AcDbCircle
 10
11075.50164575855
 20
-1011.62739304187
 40
51.505958780283
100
AcDbArc
 50
-107.222444972133
 51
-72.777555027867
  0
ARC
  5
388
100
AcDbEntity
  8
1
  6
CONTINUOUS
 62
           2
100
AcDbCircle
 10
11049.00164575855
 20
-1034.577066242156
 40
28.556285579999
100
AcDbArc
 50
-90.0
 51
-66.798947104067
  0
ARC
  5
387
100
AcDbEntity
  8
1
  6
CONTINUOUS
 62
           2
100
AcDbCircle
 10
11102.00164575855
 20
-1034.577066242156
 40
28.556285579997
100
AcDbArc
 50
-113.201052895933
 51
-90.0
  0
ARC
  5
386
100
AcDbEntity
  8
1
  6
CONTINUOUS
 62
           2
100
AcDbCircle
 10
13317.053909062121
 20
-1034.577066242156
 40
28.556285579997
100
AcDbArc
 50
-113.201052895933
 51
-90.0
  0
ARC
  5
385
100
AcDbEntity
  8
1
  6
CONTINUOUS
 62
           2
100
AcDbCircle
 10
13264.053909062121
 20
-1034.577066242156
 40
28.556285579999
100
AcDbArc
 50
-90.0
 51
-66.798947104067
  0
ARC
  5
384
100
AcDbEntity
  8
1
  6
CONTINUOUS
 62
           2
100
AcDbCircle
 10
13290.553909062121
 20
-1011.62739304187
 40
51.505958780283
100
AcDbArc
 50
-107.222444972133
 51
-72.777555027867
  0
ARC
  5
383
100
AcDbEntity
  8
1
  6
CONTINUOUS
 62
           2
100
AcDbCircle
 10
13312.553909062121
 20
-979.666849922773
 40
16.033498100618
100
AcDbArc
 50
90.0
 51
123.074730067206
  0
ARC
  5
382
100
AcDbEntity
  8
1
  6
CONTINUOUS
 62
           2
100
AcDbCircle
 10
13268.553909062121
 20
-920.632680483569
 40
1.0
100
AcDbArc
 50
0.0
 51
180.0
  0
ARC
  5
381
100
AcDbEntity
  8
1
  6
CONTINUOUS
 62
           2
100
AcDbCircle
 10
13283.22057572879
 20
-920.632680483569
 40
1.0
100
AcDbArc
 50
0.0
 51
180.0
  0
ARC
  5
380
100
AcDbEntity
  8
1
  6
CONTINUOUS
 62
           2
100
AcDbCircle
 10
13297.88724239546
 20
-920.632680483569
 40
1.0
100
AcDbArc
 50
0.0
 51
180.0
  0
ARC
  5
37F
100
AcDbEntity
  8
1
  6
CONTINUOUS
 62
           2
100
AcDbCircle
 10
13312.553909062121
 20
-920.632680483569
 40
1.0
100
AcDbArc
 50
0.0
 51
180.0
  0
ARC
  5
37E
100
AcDbEntity
  8
1
  6
CONTINUOUS
 62
           2
100
AcDbCircle
 10
13268.553909062121
 20
-979.666849922773
 40
16.033498100619
100
AcDbArc
 50
56.925269932794
 51
90.0
  0
ARC
  5
37D
100
AcDbEntity
  8
1
  6
CONTINUOUS
 62
           2
100
AcDbCircle
 10
13290.553909062121
 20
-998.719408806031
 40
35.086056983878
100
AcDbArc
 50
67.812245868759
 51
112.18775413124
  0
ARC
  5
37C
100
AcDbEntity
  8
1
  6
CONTINUOUS
 62
           2
100
AcDbCircle
 10
13290.553909062121
 20
-898.132680483569
 40
15.0
100
AcDbArc
 50
0.0
 51
180.0
  0
ARC
  5
37B
100
AcDbEntity
  8
1
  6
CONTINUOUS
 62
           2
100
AcDbCircle
 10
13275.053909062121
 20
-918.775078332463
 40
12.142397848894
100
AcDbArc
 50
59.020901138371
 51
90.0
  0
ARC
  5
37A
100
AcDbEntity
  8
1
  6
CONTINUOUS
 62
           2
100
AcDbCircle
 10
13306.053909062121
 20
-918.775078332463
 40
12.142397848894
100
AcDbArc
 50
90.0
 51
120.979098861629
  0
ARC
  5
379
100
AcDbEntity
  8
1
  6
CONTINUOUS
 62
           2
100
AcDbCircle
 10
13290.553909062121
 20
-932.198472091121
 40
25.565791607552
100
AcDbArc
 50
68.788505585336
 51
111.211494414663
  0
ARC
  5
378
100
AcDbEntity
  8
1
  6
CONTINUOUS
 62
           2
100
AcDbCircle
 10
13263.42227578713
 20
-1093.518433004418
 40
6.48971883999
100
AcDbArc
 50
0.0
 51
39.925937785437
  0
ARC
  5
377
100
AcDbEntity
  8
1
  6
CONTINUOUS
 62
           2
100
AcDbCircle
 10
13317.401713467099
 20
-1093.518433004418
 40
6.489718839986
100
AcDbArc
 50
140.074062214563
 51
180.0
  0
ARC
  5
376
100
AcDbEntity
  8
1
  6
CONTINUOUS
 62
           2
100
AcDbCircle
 10
13324.02248858758
 20
-1180.270337854825
 40
10.415441500098
100
AcDbArc
 50
58.868509433916
 51
90.0
  0
ARC
  5
375
100
AcDbEntity
  8
1
  6
CONTINUOUS
 62
           2
100
AcDbCircle
 10
13324.02248858758
 20
-1090.436365789484
 40
10.415441500098
100
AcDbArc
 50
-90.0
 51
-58.868509433914
  0
ARC
  5
374
100
AcDbEntity
  8
1
  6
CONTINUOUS
 62
           2
100
AcDbCircle
 10
11075.64356019357
 20
-1011.62739304187
 40
51.505958780283
100
AcDbArc
 50
-107.222444972133
 51
-72.777555027867
  0
ARC
  5
373
100
AcDbEntity
  8
1
  6
CONTINUOUS
 62
           2
100
AcDbCircle
 10
11049.14356019357
 20
-1034.577066242156
 40
28.556285579999
100
AcDbArc
 50
-90.0
 51
-66.798947104067
  0
ARC
  5
372
100
AcDbEntity
  8
1
  6
CONTINUOUS
 62
           2
100
AcDbCircle
 10
11102.14356019357
 20
-1034.577066242156
 40
28.556285579997
100
AcDbArc
 50
-113.201052895933
 51
-90.0
  0
ARC
  5
371
100
AcDbEntity
  8
1
  6
CONTINUOUS
 62
           2
100
AcDbCircle
 10
11048.511926918571
 20
-1093.518433004418
 40
6.489718839979
100
AcDbArc
 50
0.0
 51
39.925937785437
  0
ARC
  5
370
100
AcDbEntity
  8
1
  6
CONTINUOUS
 62
           2
100
AcDbCircle
 10
11102.49136459854
 20
-1093.518433004418
 40
6.489718839986
100
AcDbArc
 50
140.074062214563
 51
180.0
  0
ARC
  5
36F
100
AcDbEntity
  8
1
  6
CONTINUOUS
 62
           2
100
AcDbCircle
 10
11075.50164575855
 20
-1135.353351822154
 40
36.001544532568
100
AcDbArc
 50
130.373913242242
 51
-90.0
  0
ARC
  5
36E
100
AcDbEntity
  8
1
  6
CONTINUOUS
 62
           2
100
AcDbCircle
 10
11075.50164575855
 20
-1135.353351822154
 40
34.501544532566
100
AcDbArc
 50
141.529354459391
 51
-90.0
  0
ARC
  5
36D
100
AcDbEntity
  8
1
  6
CONTINUOUS
 62
           2
100
AcDbCircle
 10
11075.50164575855
 20
-1135.353351822154
 40
34.501544532572
100
AcDbArc
 50
-90.0
 51
38.470645540598
  0
ARC
  5
36C
100
AcDbEntity
  8
1
  6
CONTINUOUS
 62
           2
100
AcDbCircle
 10
11075.50164575855
 20
-1135.353351822154
 40
36.001544532572
100
AcDbArc
 50
-90.0
 51
49.626086757745
  0
ARC
  5
36B
100
AcDbEntity
  8
1
  6
CONTINUOUS
 62
           7
100
AcDbCircle
 10
10695.50164575855
 20
-2192.267837910516
 40
104.0
100
AcDbArc
 50
180.0
 51
-116.387799961241
  0
ARC
  5
36A
100
AcDbEntity
  8
1
  6
DOTTED
 62
           7
100
AcDbCircle
 10
11075.50164575847
 20
-1426.353351822348
 40
958.999999999791
100
AcDbArc
 50
-111.4053366739
 51
-109.80954643181
  0
ARC
  5
369
100
AcDbEntity
  8
1
  6
DOTTED
 62
           7
100
AcDbCircle
 10
11075.50164575855
 20
-1426.353351822171
 40
958.999999999983
100
AcDbArc
 50
-109.80954643181
 51
-90.0
  0
ARC
  5
368
100
AcDbEntity
  8
1
  6
CONTINUOUS
 62
           7
100
AcDbCircle
 10
11455.50164575855
 20
-2192.267837910516
 40
104.000000000004
100
AcDbArc
 50
-63.612200038753
 51
0.0
  0
ARC
  5
367
100
AcDbEntity
  8
1
  6
CONTINUOUS
 62
           7
100
AcDbCircle
 10
11075.501645758641
 20
-1426.353351822348
 40
958.999999999787
100
AcDbArc
 50
-68.5946633261
 51
-63.612200038756
  0
ARC
  5
366
100
AcDbEntity
  8
1
  6
CONTINUOUS
 62
           7
100
AcDbCircle
 10
11455.50164575855
 20
-2192.267837910516
 40
104.000000000004
100
AcDbArc
 50
-63.612200038753
 51
0.0
  0
ARC
  5
365
100
AcDbEntity
  8
1
  6
DOTTED
 62
           7
100
AcDbCircle
 10
11075.501645758561
 20
-1426.353351822171
 40
958.999999999983
100
AcDbArc
 50
-90.0
 51
-70.19045356819
  0
ARC
  5
364
100
AcDbEntity
  8
1
  6
CONTINUOUS
 62
           7
100
AcDbCircle
 10
10695.50164575855
 20
-316.438865733792
 40
103.999999999999
100
AcDbArc
 50
116.387799961241
 51
180.0
  0
ARC
  5
363
100
AcDbEntity
  8
1
  6
CONTINUOUS
 62
           7
100
AcDbCircle
 10
11075.50164575847
 20
-1082.353351821961
 40
958.999999999791
100
AcDbArc
 50
109.809546431809
 51
116.387799961243
  0
ARC
  5
362
100
AcDbEntity
  8
1
  6
CONTINUOUS
 62
           7
100
AcDbCircle
 10
11075.50164575855
 20
-1082.353351822138
 40
958.999999999984
100
AcDbArc
 50
90.0
 51
109.80954643181
  0
ARC
  5
361
100
AcDbEntity
  8
1
  6
CONTINUOUS
 62
           7
100
AcDbCircle
 10
11075.501645758561
 20
-1082.353351822138
 40
958.999999999981
100
AcDbArc
 50
70.19045356819
 51
90.0
  0
ARC
  5
360
100
AcDbEntity
  8
1
  6
CONTINUOUS
 62
           7
100
AcDbCircle
 10
11075.501645758641
 20
-1082.353351821961
 40
958.999999999791
100
AcDbArc
 50
63.612200038756
 51
70.190453568191
  0
ARC
  5
35F
100
AcDbEntity
  8
1
  6
CONTINUOUS
 62
           7
100
AcDbCircle
 10
11455.50164575855
 20
-316.438865733792
 40
104.0
100
AcDbArc
 50
0.0
 51
63.612200038753
  0
ARC
  5
35E
100
AcDbEntity
  8
1
  6
CONTINUOUS
 62
           7
100
AcDbCircle
 10
11455.50164575855
 20
-316.438865733792
 40
104.0
100
AcDbArc
 50
0.0
 51
63.612200038753
  0
ARC
  5
35D
100
AcDbEntity
  8
1
  6
CONTINUOUS
 62
           7
100
AcDbCircle
 10
11455.50164575855
 20
-316.438865733792
 40
104.0
100
AcDbArc
 50
0.0
 51
63.612200038753
  0
ARC
  5
35C
100
AcDbEntity
  8
1
  6
CONTINUOUS
 62
           7
100
AcDbCircle
 10
10695.50164575855
 20
-316.438865733792
 40
103.999999999999
100
AcDbArc
 50
116.387799961241
 51
180.0
  0
ARC
  5
35B
100
AcDbEntity
  8
1
  6
CONTINUOUS
 62
           7
100
AcDbCircle
 10
11332.59974281995
 20
-122.850191059704
 40
30.0
100
AcDbArc
 50
-72.42556090083
 51
-137.574439099164
  0
ARC
  5
35A
100
AcDbEntity
  8
1
  6
CONTINUOUS
 62
           7
100
AcDbCircle
 10
13864.647312122321
 20
-99.277346024621
 40
6.25
100
AcDbArc
 50
0.0
 51
180.0
  0
ARC
  5
359
100
AcDbEntity
  8
1
  6
CONTINUOUS
 62
           7
100
AcDbCircle
 10
13864.642857874031
 20
-110.853835312146
 40
49.686199239439
100
AcDbArc
 50
-102.516208841417
 51
-77.422203381869
  0
ARC
  5
358
100
AcDbEntity
  8
1
  6
CONTINUOUS
 62
           7
100
AcDbCircle
 10
13873.389744670991
 20
-149.700205436592
 40
9.867633396018
100
AcDbArc
 50
-77.872735433043
 51
-57.773264069711
  0
ARC
  5
357
100
AcDbEntity
  8
1
  6
CONTINUOUS
 62
           7
100
AcDbCircle
 10
13877.890017261951
 20
-156.450657791002
 40
1.769429344084
100
AcDbArc
 50
-64.496701838566
 51
-6.713982048576
  0
ARC
  5
356
100
AcDbEntity
  8
1
  6
CONTINUOUS
 62
           7
100
AcDbCircle
 10
13855.90487957364
 20
-149.700205436592
 40
9.867633396014
100
AcDbArc
 50
-122.226735930235
 51
-102.127264566956
  0
ARC
  5
355
100
AcDbEntity
  8
1
  6
CONTINUOUS
 62
           7
100
AcDbCircle
 10
13851.404606982691
 20
-156.450657791002
 40
1.769429344085
100
AcDbArc
 50
-173.286017951424
 51
-115.503298161434
  0
ARC
  5
354
100
AcDbEntity
  8
1
  6
CONTINUOUS
 62
           7
100
AcDbCircle
 10
13853.1435668431
 20
-142.782810127509
 40
1.612338933402
100
AcDbArc
 50
140.745956303976
 51
-140.491960591542
  0
ARC
  5
353
100
AcDbEntity
  8
1
  6
CONTINUOUS
 62
           7
100
AcDbCircle
 10
13855.712903635211
 20
-140.618393450459
 40
4.971771314832
100
AcDbArc
 50
-140.084615389906
 51
-117.775972477202
  0
ARC
  5
352
100
AcDbEntity
  8
1
  6
CONTINUOUS
 62
           7
100
AcDbCircle
 10
13860.27375154728
 20
-131.605805068516
 40
15.072223653273
100
AcDbArc
 50
-117.149957438373
 51
-101.676770461748
  0
ARC
  5
351
100
AcDbEntity
  8
1
  6
CONTINUOUS
 62
           7
100
AcDbCircle
 10
13863.009743705419
 20
-120.792835677532
 40
26.219752682686
100
AcDbArc
 50
-102.749622296005
 51
-100.131873858281
  0
ARC
  5
350
100
AcDbEntity
  8
1
  6
CONTINUOUS
 62
           7
100
AcDbCircle
 10
13855.712903635211
 20
-144.946515818099
 40
4.971771314835
100
AcDbArc
 50
117.775972477208
 51
140.084615389915
  0
ARC
  5
34F
100
AcDbEntity
  8
1
  6
CONTINUOUS
 62
           7
100
AcDbCircle
 10
13860.27375154728
 20
-153.959104200043
 40
15.072223653273
100
AcDbArc
 50
101.676770461748
 51
117.149957438373
  0
ARC
  5
34E
100
AcDbEntity
  8
1
  6
CONTINUOUS
 62
           7
100
AcDbCircle
 10
13863.009743705419
 20
-164.772073591026
 40
26.219752682684
100
AcDbArc
 50
100.131873858281
 51
102.749622296005
  0
ARC
  5
34D
100
AcDbEntity
  8
1
  6
CONTINUOUS
 62
           7
100
AcDbCircle
 10
13876.15105740153
 20
-142.782810127509
 40
1.612338933405
100
AcDbArc
 50
-39.508039408252
 51
39.254043696024
  0
ARC
  5
34C
100
AcDbEntity
  8
1
  6
CONTINUOUS
 62
           7
100
AcDbCircle
 10
13873.581720609431
 20
-144.946515818099
 40
4.97177131483
100
AcDbArc
 50
39.915384610098
 51
62.224027522903
  0
ARC
  5
34B
100
AcDbEntity
  8
1
  6
CONTINUOUS
 62
           7
100
AcDbCircle
 10
13869.020872697351
 20
-153.959104200043
 40
15.072223653273
100
AcDbArc
 50
62.850042561626
 51
78.323229538259
  0
ARC
  5
34A
100
AcDbEntity
  8
1
  6
CONTINUOUS
 62
           7
100
AcDbCircle
 10
13866.28488053922
 20
-164.772073591026
 40
26.219752682683
100
AcDbArc
 50
77.250377704018
 51
79.868126141714
  0
ARC
  5
349
100
AcDbEntity
  8
1
  6
CONTINUOUS
 62
           7
100
AcDbCircle
 10
13866.28488053922
 20
-120.792835677532
 40
26.219752682684
100
AcDbArc
 50
-79.868126141714
 51
-77.250377704018
  0
ARC
  5
348
100
AcDbEntity
  8
1
  6
CONTINUOUS
 62
           7
100
AcDbCircle
 10
13869.020872697351
 20
-131.605805068516
 40
15.072223653273
100
AcDbArc
 50
-78.323229538259
 51
-62.850042561626
  0
ARC
  5
347
100
AcDbEntity
  8
1
  6
CONTINUOUS
 62
           7
100
AcDbCircle
 10
13873.581720609431
 20
-140.618393450459
 40
4.971771314831
100
AcDbArc
 50
-62.224027522909
 51
-39.915384610107
  0
ARC
  5
346
100
AcDbEntity
  8
1
  6
CONTINUOUS
 62
           7
100
AcDbCircle
 10
13864.647312122321
 20
-1082.353351822138
 40
958.999999999985
100
AcDbArc
 50
70.190453568189
 51
89.626588991675
  0
ARC
  5
345
100
AcDbEntity
  8
1
  6
CONTINUOUS
 62
           7
100
AcDbCircle
 10
11075.50164575847
 20
-1426.353351822348
 40
958.99999999979
100
AcDbArc
 50
-116.387799961243
 51
-111.4053366739
  0
ARC
  5
344
100
AcDbEntity
  8
1
  6
DOTTED
 62
           7
100
AcDbCircle
 10
11075.501645758641
 20
-1426.353351822348
 40
958.999999999786
100
AcDbArc
 50
-70.190453568191
 51
-68.5946633261
  0
ARC
  5
343
100
AcDbEntity
  8
1
  6
CONTINUOUS
 62
           7
100
AcDbCircle
 10
13864.647312122241
 20
-1426.353351822348
 40
958.999999999795
100
AcDbArc
 50
-116.387799961244
 51
-111.4053366739
  0
ARC
  5
342
100
AcDbEntity
  8
1
  6
CONTINUOUS
 62
           7
100
AcDbCircle
 10
13484.647312122321
 20
-2192.267837910516
 40
104.0
100
AcDbArc
 50
180.0
 51
-116.387799961246
  0
ARC
  5
341
100
AcDbEntity
  8
1
  6
DOTTED
 62
           7
100
AcDbCircle
 10
13864.64731212231
 20
-1426.353351822171
 40
958.99999999998
100
AcDbArc
 50
-109.80954643181
 51
-89.999999999999
  0
ARC
  5
340
100
AcDbEntity
  8
1
  6
CONTINUOUS
 62
           7
100
AcDbCircle
 10
14351.101820883159
 20
-2452.888113611858
 40
152.25234648817
100
AcDbArc
 50
153.668036846968
 51
-178.848262174543
  0
ARC
  5
33F
100
AcDbEntity
  8
1
  6
CONTINUOUS
 62
           7
100
AcDbCircle
 10
14244.647312122321
 20
-2192.267837910516
 40
103.999999999999
100
AcDbArc
 50
-63.612200038759
 51
0.0
  0
ARC
  5
33E
100
AcDbEntity
  8
1
  6
CONTINUOUS
 62
           7
100
AcDbCircle
 10
13864.647312122401
 20
-1426.353351822348
 40
958.999999999791
100
AcDbArc
 50
-68.594663326099
 51
-63.612200038756
  0
ARC
  5
33D
100
AcDbEntity
  8
1
  6
CONTINUOUS
 62
           7
100
AcDbCircle
 10
14244.647312122321
 20
-2192.267837910516
 40
103.999999999999
100
AcDbArc
 50
-63.612200038759
 51
0.0
  0
ARC
  5
33C
100
AcDbEntity
  8
1
  6
CONTINUOUS
 62
           7
100
AcDbCircle
 10
13378.19280336148
 20
-2452.888113611858
 40
152.252346488165
100
AcDbArc
 50
-1.151737825456
 51
26.331963153031
  0
ARC
  5
33B
100
AcDbEntity
  8
1
  6
CONTINUOUS
 62
           7
100
AcDbCircle
 10
13378.19280336148
 20
-2452.888113611858
 40
152.252346488165
100
AcDbArc
 50
-1.151737825456
 51
26.331963153031
  0
ARC
  5
33A
100
AcDbEntity
  8
1
  6
CONTINUOUS
 62
           7
100
AcDbCircle
 10
14351.101820883159
 20
-2452.888113611858
 40
152.25234648817
100
AcDbArc
 50
153.668036846968
 51
-178.848262174543
  0
ARC
  5
339
100
AcDbEntity
  8
1
  6
CONTINUOUS
 62
           7
100
AcDbCircle
 10
14351.101820883159
 20
-2452.888113611858
 40
152.25234648817
100
AcDbArc
 50
153.668036846968
 51
-178.848262174543
  0
ARC
  5
338
100
AcDbEntity
  8
1
  6
DOTTED
 62
           7
100
AcDbCircle
 10
13864.647312122321
 20
-1426.353351822171
 40
958.999999999983
100
AcDbArc
 50
-90.0
 51
-70.190453568189
  0
ARC
  5
337
100
AcDbEntity
  8
1
  6
DOTTED
 62
           7
100
AcDbCircle
 10
13864.647312122401
 20
-1426.353351822348
 40
958.99999999979
100
AcDbArc
 50
-70.19045356819
 51
-68.594663326099
  0
ARC
  5
336
100
AcDbEntity
  8
1
  6
DOTTED
 62
           7
100
AcDbCircle
 10
13864.647312122241
 20
-1426.353351822348
 40
958.999999999791
100
AcDbArc
 50
-111.4053366739
 51
-109.80954643181
  0
ARC
  5
335
100
AcDbEntity
  8
1
  6
DOTTED
 62
           7
100
AcDbCircle
 10
13864.64731212231
 20
-1426.353351822171
 40
958.99999999998
100
AcDbArc
 50
-109.80954643181
 51
-89.999999999999
  0
ARC
  5
334
100
AcDbEntity
  8
1
  6
CONTINUOUS
 62
           7
100
AcDbCircle
 10
11125.53819630969
 20
-1753.400191247113
 40
154.81360519929
100
AcDbArc
 50
-52.20087942543
 51
-27.96769587517
  0
ARC
  5
333
100
AcDbEntity
  8
1
  6
CONTINUOUS
 62
           7
100
AcDbCircle
 10
11160.11722863031
 20
-1772.35597288494
 40
115.384417178526
100
AcDbArc
 50
-27.706839390136
 51
27.602644601208
  0
ARC
  5
332
100
AcDbEntity
  8
1
  6
CONTINUOUS
 62
           7
100
AcDbCircle
 10
11099.00622944317
 20
-1720.765557319258
 40
196.863995078347
100
AcDbArc
 50
-62.131708429279
 51
-51.92060015835
  0
ARC
  5
331
100
AcDbEntity
  8
1
  6
CONTINUOUS
 62
           7
100
AcDbCircle
 10
10990.886062886801
 20
-1772.35597288494
 40
115.384417178521
100
AcDbArc
 50
152.397355398791
 51
-152.293160609863
  0
ARC
  5
330
100
AcDbEntity
  8
1
  6
CONTINUOUS
 62
           7
100
AcDbCircle
 10
11025.465095207421
 20
-1753.400191247113
 40
154.813605199297
100
AcDbArc
 50
-152.03230412483
 51
-127.799120574573
  0
ARC
  5
32F
100
AcDbEntity
  8
1
  6
CONTINUOUS
 62
           7
100
AcDbCircle
 10
11051.99706207394
 20
-1720.765557319258
 40
196.86399507835
100
AcDbArc
 50
-128.079399841652
 51
-117.868291570721
  0
ARC
  5
32E
100
AcDbEntity
  8
1
  6
CONTINUOUS
 62
           7
100
AcDbCircle
 10
11075.50164575855
 20
-1662.335928578786
 40
260.078843904307
100
AcDbArc
 50
-109.080582901075
 51
-70.919417098923
  0
ARC
  5
32D
100
AcDbEntity
  8
1
  6
CONTINUOUS
 62
           7
100
AcDbCircle
 10
11160.11722863031
 20
-1772.350730759368
 40
115.384417178521
100
AcDbArc
 50
-27.602644601209
 51
27.706839390136
  0
ARC
  5
32C
100
AcDbEntity
  8
1
  6
CONTINUOUS
 62
           7
100
AcDbCircle
 10
11125.53819630969
 20
-1791.306512397195
 40
154.813605199297
100
AcDbArc
 50
27.96769587517
 51
52.20087942543
  0
ARC
  5
32B
100
AcDbEntity
  8
1
  6
CONTINUOUS
 62
           7
100
AcDbCircle
 10
11099.00622944317
 20
-1823.94114632505
 40
196.863995078344
100
AcDbArc
 50
51.92060015835
 51
62.131708429279
  0
ARC
  5
32A
100
AcDbEntity
  8
1
  6
CONTINUOUS
 62
           7
100
AcDbCircle
 10
11051.99706207394
 20
-1823.94114632505
 40
196.863995078348
100
AcDbArc
 50
117.86829157072
 51
128.079399841652
  0
ARC
  5
329
100
AcDbEntity
  8
1
  6
CONTINUOUS
 62
           7
100
AcDbCircle
 10
11025.465095207421
 20
-1791.306512397195
 40
154.813605199298
100
AcDbArc
 50
127.799120574573
 51
152.03230412483
  0
ARC
  5
328
100
AcDbEntity
  8
1
  6
CONTINUOUS
 62
           7
100
AcDbCircle
 10
10990.886062886801
 20
-1772.350730759368
 40
115.384417178526
100
AcDbArc
 50
152.293160609863
 51
-152.397355398791
  0
ARC
  5
327
100
AcDbEntity
  8
1
  6
CONTINUOUS
 62
           7
100
AcDbCircle
 10
11075.50164575855
 20
-1882.370775065523
 40
260.078843904311
100
AcDbArc
 50
70.919417098923
 51
109.080582901075
  0
ARC
  5
326
100
AcDbEntity
  8
1
  6
CONTINUOUS
 62
           7
100
AcDbCircle
 10
11175.501276122801
 20
-1907.35288663379
 40
15.000403896509
100
AcDbArc
 50
-177.045788179536
 51
-4.356291287532
  0
ARC
  5
325
100
AcDbEntity
  8
1
  6
CONTINUOUS
 62
           7
100
AcDbCircle
 10
11175.501276122801
 20
-1637.353817010518
 40
15.0004038965
100
AcDbArc
 50
4.356291287532
 51
177.045788179541
  0
ARC
  5
324
100
AcDbEntity
  8
1
  6
CONTINUOUS
 62
           7
100
AcDbCircle
 10
10975.50201539431
 20
-1907.35288663379
 40
15.000403896502
100
AcDbArc
 50
-175.643708712468
 51
-2.954211820463
  0
ARC
  5
323
100
AcDbEntity
  8
1
  6
CONTINUOUS
 62
           7
100
AcDbCircle
 10
10975.50201539431
 20
-1637.353817010518
 40
15.000403896509
100
AcDbArc
 50
2.954211820459
 51
175.643708712468
  0
ARC
  5
322
100
AcDbEntity
  8
1
  6
CONTINUOUS
 62
           7
100
AcDbCircle
 10
13169.547921098951
 20
-1772.353351822154
 40
254.09183673469
100
AcDbArc
 50
-36.180978737385
 51
36.180978737385
  0
ARC
  5
321
100
AcDbEntity
  8
1
  6
CONTINUOUS
 62
           7
100
AcDbCircle
 10
13280.82810299453
 20
-1782.76247897882
 40
6.188368025619
100
AcDbArc
 50
145.771504196985
 51
-155.979322919008
  0
ARC
  5
320
100
AcDbEntity
  8
1
  6
CONTINUOUS
 62
           7
100
AcDbCircle
 10
13297.567961063911
 20
-1772.353351822154
 40
22.928203230275
100
AcDbArc
 50
162.412046226007
 51
-162.412046226007
  0
ARC
  5
31F
100
AcDbEntity
  8
1
  6
CONTINUOUS
 62
           7
100
AcDbCircle
 10
13280.82810299453
 20
-1761.944224665488
 40
6.188368025617
100
AcDbArc
 50
155.979322919008
 51
-145.771504196985
  0
ARC
  5
31E
100
AcDbEntity
  8
1
  6
CONTINUOUS
 62
           7
100
AcDbCircle
 10
12958.81115658103
 20
-1772.353351822154
 40
517.628601252609
100
AcDbArc
 50
-35.420031612006
 51
35.420031612006
  0
ARC
  5
31D
100
AcDbEntity
  8
1
  6
CONTINUOUS
 62
           7
100
AcDbCircle
 10
11165.09251860189
 20
-3177.632678062391
 40
6.188368025611
100
AcDbArc
 50
55.771504196942
 51
114.020677081022
  0
ARC
  5
31C
100
AcDbEntity
  8
1
  6
CONTINUOUS
 62
           7
100
AcDbCircle
 10
11175.50164575855
 20
-3194.372536131782
 40
22.928203230278
100
AcDbArc
 50
72.412046225996
 51
107.587953773977
  0
ARC
  5
31B
100
AcDbEntity
  8
1
  6
CONTINUOUS
 62
           7
100
AcDbCircle
 10
11185.91077291522
 20
-3177.632678062391
 40
6.188368025611
100
AcDbArc
 50
65.979322918977
 51
124.228495803058
  0
ARC
  5
31A
100
AcDbEntity
  8
1
  6
CONTINUOUS
 62
           7
100
AcDbCircle
 10
10965.09251860189
 20
-3177.632678062391
 40
6.188368025611
100
AcDbArc
 50
55.771504196942
 51
114.020677081022
  0
ARC
  5
319
100
AcDbEntity
  8
1
  6
CONTINUOUS
 62
           7
100
AcDbCircle
 10
10975.50164575855
 20
-3194.372536131782
 40
22.928203230278
100
AcDbArc
 50
72.412046225996
 51
107.587953773977
  0
ARC
  5
318
100
AcDbEntity
  8
1
  6
CONTINUOUS
 62
           7
100
AcDbCircle
 10
10985.91077291522
 20
-3177.632678062391
 40
6.188368025611
100
AcDbArc
 50
65.979322918977
 51
124.228495803058
  0
LINE
  5
317
100
AcDbEntity
  8
1
  6
CONTINUOUS
 62
           7
100
AcDbLine
 10
11358.50163478337
 20
-3361.836635611016
 11
11355.2808221537
 21
-3366.907849905983
  0
LINE
  5
316
100
AcDbEntity
  8
1
  6
CONTINUOUS
 62
           7
100
AcDbLine
 10
10792.50165673379
 20
-3361.836635610979
 11
10795.99521680727
 21
-3366.714775692775
  0
LINE
  5
315
100
AcDbEntity
  8
1
  6
CONTINUOUS
 62
           7
100
AcDbLine
 10
13964.647312122321
 20
-2485.353351822154
 11
13964.647312122321
 21
-2676.353351822154
  0
LINE
  5
314
100
AcDbEntity
  8
1
  6
CONTINUOUS
 62
           7
100
AcDbLine
 10
13764.647312122321
 20
-2485.353351822154
 11
13764.647312122321
 21
-2676.353351822154
  0
LINE
  5
313
100
AcDbEntity
  8
1
  6
CONTINUOUS
 62
           7
100
AcDbLine
 10
13389.647312122321
 20
-2676.353351822154
 11
14339.647312122321
 21
-2676.353351822154
  0
LINE
  5
312
100
AcDbEntity
  8
1
  6
CONTINUOUS
 62
           7
100
AcDbLine
 10
14339.647312122321
 20
-2676.353351822154
 11
14339.647312122321
 21
-2685.353351822154
  0
LINE
  5
311
100
AcDbEntity
  8
1
  6
CONTINUOUS
 62
           7
100
AcDbLine
 10
14339.647312122321
 20
-2685.353351822154
 11
13389.647312122321
 21
-2685.353351822154
  0
LINE
  5
310
100
AcDbEntity
  8
1
  6
CONTINUOUS
 62
           7
100
AcDbLine
 10
13389.647312122321
 20
-2685.353351822154
 11
13389.647312122321
 21
-2676.353351822154
  0
LINE
  5
30F
100
AcDbEntity
  8
1
  6
CONTINUOUS
 62
           7
100
AcDbLine
 10
11409.73456767988
 20
-2676.353351822154
 11
11409.73456767988
 21
-2455.948425885799
  0
LINE
  5
30E
100
AcDbEntity
  8
1
  6
CONTINUOUS
 62
           7
100
AcDbLine
 10
10600.50164575855
 20
-2685.353351822154
 11
10600.50164575855
 21
-2676.353351822154
  0
LINE
  5
30D
100
AcDbEntity
  8
1
  6
CONTINUOUS
 62
           7
100
AcDbLine
 10
11550.50164575855
 20
-2685.353351822154
 11
10600.50164575855
 21
-2685.353351822154
  0
LINE
  5
30C
100
AcDbEntity
  8
1
  6
CONTINUOUS
 62
           7
100
AcDbLine
 10
11550.50164575855
 20
-2676.353351822154
 11
11550.50164575855
 21
-2685.353351822154
  0
LINE
  5
30B
100
AcDbEntity
  8
1
  6
CONTINUOUS
 62
           7
100
AcDbLine
 10
10600.50164575855
 20
-2676.353351822154
 11
11550.50164575855
 21
-2676.353351822154
  0
LINE
  5
30A
100
AcDbEntity
  8
1
  6
CONTINUOUS
 62
           7
100
AcDbLine
 10
13380.647312122321
 20
-336.353351822154
 11
13380.647312122321
 21
-1472.353351822154
  0
LINE
  5
309
100
AcDbEntity
  8
1
  6
CONTINUOUS
 62
           7
100
AcDbLine
 10
13380.647312122321
 20
-316.438865733792
 11
13380.647312122321
 21
-336.353351822154
  0
LINE
  5
308
100
AcDbEntity
  8
1
  6
CONTINUOUS
 62
           7
100
AcDbLine
 10
14348.647312122321
 20
-336.353351822154
 11
14348.647312122321
 21
-316.438865733792
  0
LINE
  5
307
100
AcDbEntity
  8
1
  6
CONTINUOUS
 62
           7
100
AcDbLine
 10
13380.647312122321
 20
-316.438865733792
 11
13380.647312122321
 21
-336.353351822154
  0
LINE
  5
306
100
AcDbEntity
  8
1
  6
CONTINUOUS
 62
           7
100
AcDbLine
 10
13864.647312122321
 20
-336.353351822154
 11
13380.647312122321
 21
-336.353351822154
  0
LINE
  5
305
100
AcDbEntity
  8
1
  6
CONTINUOUS
 62
           7
100
AcDbLine
 10
14348.647312122321
 20
-336.353351822154
 11
13864.647312122321
 21
-336.353351822154
  0
LINE
  5
304
100
AcDbEntity
  8
1
  6
CONTINUOUS
 62
           7
100
AcDbLine
 10
13864.647312122321
 20
-2172.353351822154
 11
14348.647312122321
 21
-2172.353351822154
  0
LINE
  5
303
100
AcDbEntity
  8
1
  6
CONTINUOUS
 62
           7
100
AcDbLine
 10
13380.647312122321
 20
-2172.353351822154
 11
13864.647312122321
 21
-2172.353351822154
  0
LINE
  5
302
100
AcDbEntity
  8
1
  6
CONTINUOUS
 62
           7
100
AcDbLine
 10
14348.647312122321
 20
-2192.267837910516
 11
14348.647312122321
 21
-2172.353351822154
  0
LINE
  5
301
100
AcDbEntity
  8
1
  6
CONTINUOUS
 62
           7
100
AcDbLine
 10
13380.647312122321
 20
-2172.353351822154
 11
13380.647312122321
 21
-2192.267837910516
  0
LINE
  5
300
100
AcDbEntity
  8
1
  6
CONTINUOUS
 62
           2
100
AcDbLine
 10
10468.69122123705
 20
-3761.85039313937
 11
10441.00291890014
 21
-3761.85039313937
  0
LINE
  5
2FF
100
AcDbEntity
  8
1
  6
CONTINUOUS
 62
           2
100
AcDbLine
 10
10517.00291890014
 20
-3775.850393139369
 11
10443.00291890014
 21
-3775.850393139369
  0
LINE
  5
2FE
100
AcDbEntity
  8
1
  6
CONTINUOUS
 62
           2
100
AcDbLine
 10
10443.00291890014
 20
-3740.850393139369
 11
10517.00291890014
 21
-3740.850393139369
  0
LINE
  5
2FD
100
AcDbEntity
  8
1
  6
CONTINUOUS
 62
           2
100
AcDbLine
 10
10519.00291890014
 20
-3751.35039313937
 11
10519.00291890014
 21
-3742.850393139369
  0
LINE
  5
2FC
100
AcDbEntity
  8
1
  6
CONTINUOUS
 62
           2
100
AcDbLine
 10
10519.00291890014
 20
-3772.35039313937
 11
10519.00291890014
 21
-3773.850393139369
  0
LINE
  5
2FB
100
AcDbEntity
  8
1
  6
CONTINUOUS
 62
           2
100
AcDbLine
 10
10441.00291890014
 20
-3773.850393139369
 11
10441.00291890014
 21
-3742.850393139369
  0
LINE
  5
2FA
100
AcDbEntity
  8
1
  6
DOT_CENTER
 62
           2
100
AcDbLine
 10
10469.17261890014
 20
-3761.85039313937
 11
10490.833218900139
 21
-3761.85039313937
  0
LINE
  5
2F9
100
AcDbEntity
  8
1
  6
DOT_CENTER
 62
           2
100
AcDbLine
 10
10480.00291890014
 20
-3772.68069313937
 11
10480.00291890014
 21
-3751.020093139369
  0
LINE
  5
2F8
100
AcDbEntity
  8
1
  6
CONTINUOUS
 62
           2
100
AcDbLine
 10
10474.00291890014
 20
-3755.85039313937
 11
10486.00291890014
 21
-3767.85039313937
  0
LINE
  5
2F7
100
AcDbEntity
  8
1
  6
CONTINUOUS
 62
           2
100
AcDbLine
 10
10486.00291890014
 20
-3755.85039313937
 11
10474.00291890014
 21
-3767.85039313937
  0
LINE
  5
2F6
100
AcDbEntity
  8
1
  6
CONTINUOUS
 62
           2
100
AcDbLine
 10
10474.00291890014
 20
-3755.85039313937
 11
10486.00291890014
 21
-3755.85039313937
  0
LINE
  5
2F5
100
AcDbEntity
  8
1
  6
CONTINUOUS
 62
           2
100
AcDbLine
 10
10486.00291890014
 20
-3755.85039313937
 11
10486.00291890014
 21
-3767.85039313937
  0
LINE
  5
2F4
100
AcDbEntity
  8
1
  6
CONTINUOUS
 62
           2
100
AcDbLine
 10
10486.00291890014
 20
-3767.85039313937
 11
10474.00291890014
 21
-3767.85039313937
  0
LINE
  5
2F3
100
AcDbEntity
  8
1
  6
CONTINUOUS
 62
           2
100
AcDbLine
 10
10474.00291890014
 20
-3767.85039313937
 11
10474.00291890014
 21
-3755.85039313937
  0
LINE
  5
2F2
100
AcDbEntity
  8
1
  6
DOT_CENTER
 62
           2
100
AcDbLine
 10
10480.00291890014
 20
-3784.290836623681
 11
10480.00291890014
 21
-3736.176199860615
  0
LINE
  5
2F1
100
AcDbEntity
  8
1
  6
CONTINUOUS
 62
           2
100
AcDbLine
 10
10503.00164575855
 20
-3750.35039313937
 11
10480.00291890014
 21
-3750.35039313937
  0
LINE
  5
2F0
100
AcDbEntity
  8
1
  6
CONTINUOUS
 62
           2
100
AcDbLine
 10
10503.00164575855
 20
-3750.35039313937
 11
10503.00164575855
 21
-3761.85039313937
  0
LINE
  5
2EF
100
AcDbEntity
  8
1
  6
CONTINUOUS
 62
           2
100
AcDbLine
 10
10480.00291890014
 20
-3773.35039313937
 11
10503.00164575855
 21
-3773.35039313937
  0
LINE
  5
2EE
100
AcDbEntity
  8
1
  6
CONTINUOUS
 62
           2
100
AcDbLine
 10
10503.00164575855
 20
-3761.85039313937
 11
10503.00164575855
 21
-3773.35039313937
  0
LINE
  5
2ED
100
AcDbEntity
  8
1
  6
CONTINUOUS
 62
           2
100
AcDbLine
 10
10503.00164575855
 20
-3761.85039313937
 11
10503.00164575855
 21
-3773.35039313937
  0
LINE
  5
2EC
100
AcDbEntity
  8
1
  6
CONTINUOUS
 62
           2
100
AcDbLine
 10
10503.00164575855
 20
-3750.35039313937
 11
10503.00164575855
 21
-3761.85039313937
  0
LINE
  5
2EB
100
AcDbEntity
  8
1
  6
CONTINUOUS
 62
           2
100
AcDbLine
 10
10518.30164575856
 20
-3772.35039313937
 11
10518.30164575856
 21
-3751.35039313937
  0
LINE
  5
2EA
100
AcDbEntity
  8
1
  6
CONTINUOUS
 62
           2
100
AcDbLine
 10
10509.40164575856
 20
-3753.200393139369
 11
10509.40164575856
 21
-3770.50039313937
  0
LINE
  5
2E9
100
AcDbEntity
  8
1
  6
CONTINUOUS
 62
           2
100
AcDbLine
 10
10511.90164575856
 20
-3770.50039313937
 11
10511.90164575856
 21
-3753.200393139369
  0
LINE
  5
2E8
100
AcDbEntity
  8
1
  6
CONTINUOUS
 62
           2
100
AcDbLine
 10
10511.90164575856
 20
-3753.200393139369
 11
10509.40164575856
 21
-3753.200393139369
  0
LINE
  5
2E7
100
AcDbEntity
  8
1
  6
CONTINUOUS
 62
           2
100
AcDbLine
 10
10509.40164575856
 20
-3770.50039313937
 11
10511.90164575856
 21
-3770.50039313937
  0
LINE
  5
2E6
100
AcDbEntity
  8
1
  6
CONTINUOUS
 62
           2
100
AcDbLine
 10
10518.30164575856
 20
-3770.18139313937
 11
10511.90164575856
 21
-3770.50039313937
  0
LINE
  5
2E5
100
AcDbEntity
  8
1
  6
CONTINUOUS
 62
           2
100
AcDbLine
 10
10503.00164575855
 20
-3753.519393139369
 11
10509.40164575856
 21
-3753.200393139369
  0
LINE
  5
2E4
100
AcDbEntity
  8
1
  6
CONTINUOUS
 62
           2
100
AcDbLine
 10
10509.40164575856
 20
-3770.50039313937
 11
10503.00164575855
 21
-3770.181393139369
  0
LINE
  5
2E3
100
AcDbEntity
  8
1
  6
CONTINUOUS
 62
           2
100
AcDbLine
 10
10511.90164575856
 20
-3753.200393139369
 11
10518.30164575856
 21
-3753.519393139369
  0
LINE
  5
2E2
100
AcDbEntity
  8
1
  6
CONTINUOUS
 62
           7
100
AcDbLine
 10
10568.66164575855
 20
-3770.50039313937
 11
10571.50164575855
 21
-3770.50039313937
  0
LINE
  5
2E1
100
AcDbEntity
  8
1
  6
CONTINUOUS
 62
           2
100
AcDbLine
 10
10568.66164575855
 20
-3770.50039313937
 11
10562.26164575855
 21
-3770.18139313937
  0
LINE
  5
2E0
100
AcDbEntity
  8
1
  6
CONTINUOUS
 62
           2
100
AcDbLine
 10
10562.26164575855
 20
-3753.519393139369
 11
10568.66164575855
 21
-3753.200393139369
  0
LINE
  5
2DF
100
AcDbEntity
  8
1
  6
CONTINUOUS
 62
           7
100
AcDbLine
 10
10571.50164575855
 20
-3753.200393139369
 11
10568.66164575855
 21
-3753.200393139369
  0
LINE
  5
2DE
100
AcDbEntity
  8
1
  6
CONTINUOUS
 62
           2
100
AcDbLine
 10
10568.66164575855
 20
-3753.200393139369
 11
10568.66164575855
 21
-3770.50039313937
  0
LINE
  5
2DD
100
AcDbEntity
  8
1
  6
CONTINUOUS
 62
           2
100
AcDbLine
 10
10553.809501057551
 20
-3752.650393139368
 11
10543.41164575855
 21
-3752.650393139368
  0
LINE
  5
2DC
100
AcDbEntity
  8
1
  6
CONTINUOUS
 62
           2
100
AcDbLine
 10
10526.71379045956
 20
-3752.650393139368
 11
10535.111645758559
 21
-3752.650393139368
  0
LINE
  5
2DB
100
AcDbEntity
  8
1
  6
CONTINUOUS
 62
           2
100
AcDbLine
 10
10554.223823585049
 20
-3761.85039313937
 11
10561.323823585049
 21
-3761.85039313937
  0
LINE
  5
2DA
100
AcDbEntity
  8
1
  6
CONTINUOUS
 62
           2
100
AcDbLine
 10
10519.19946793206
 20
-3761.85039313937
 11
10526.29946793206
 21
-3761.85039313937
  0
LINE
  5
2D9
100
AcDbEntity
  8
1
  6
CONTINUOUS
 62
           2
100
AcDbLine
 10
10526.56164575856
 20
-3751.350393139369
 11
10526.56164575856
 21
-3746.450393139367
  0
LINE
  5
2D8
100
AcDbEntity
  8
1
  6
CONTINUOUS
 62
           2
100
AcDbLine
 10
10526.56164575856
 20
-3746.450393139367
 11
10527.26164575855
 21
-3746.450393139367
  0
LINE
  5
2D7
100
AcDbEntity
  8
1
  6
CONTINUOUS
 62
           2
100
AcDbLine
 10
10530.76164575855
 20
-3751.350393139369
 11
10530.76164575855
 21
-3749.350393139369
  0
LINE
  5
2D6
100
AcDbEntity
  8
1
  6
CONTINUOUS
 62
           2
100
AcDbLine
 10
10527.26164575855
 20
-3749.350393139369
 11
10529.26164575855
 21
-3749.350393139369
  0
LINE
  5
2D5
100
AcDbEntity
  8
1
  6
CONTINUOUS
 62
           2
100
AcDbLine
 10
10527.26164575855
 20
-3749.350393139369
 11
10527.26164575855
 21
-3745.25039313937
  0
LINE
  5
2D4
100
AcDbEntity
  8
1
  6
CONTINUOUS
 62
           2
100
AcDbLine
 10
10562.26164575855
 20
-3751.35039313937
 11
10562.26164575855
 21
-3772.35039313937
  0
LINE
  5
2D3
100
AcDbEntity
  8
1
  6
CONTINUOUS
 62
           2
100
AcDbLine
 10
10562.26164575855
 20
-3772.35039313937
 11
10518.26164575855
 21
-3772.35039313937
  0
LINE
  5
2D2
100
AcDbEntity
  8
1
  6
CONTINUOUS
 62
           2
100
AcDbLine
 10
10518.26164575855
 20
-3772.35039313937
 11
10518.26164575855
 21
-3751.35039313937
  0
LINE
  5
2D1
100
AcDbEntity
  8
1
  6
CONTINUOUS
 62
           2
100
AcDbLine
 10
10562.26164575855
 20
-3751.35039313937
 11
10518.26164575855
 21
-3751.35039313937
  0
LINE
  5
2D0
100
AcDbEntity
  8
1
  6
DOT_CENTER
 62
           2
100
AcDbLine
 10
10564.613290656849
 20
-3761.85039313937
 11
10517.86264979821
 21
-3761.85039313937
  0
LINE
  5
2CF
100
AcDbEntity
  8
1
  6
DOT_CENTER
 62
           2
100
AcDbLine
 10
10539.26164575855
 20
-3774.441780121958
 11
10539.26164575855
 21
-3732.625087330959
  0
LINE
  5
2CE
100
AcDbEntity
  8
1
  6
CONTINUOUS
 62
           2
100
AcDbLine
 10
10549.26164575855
 20
-3749.350393139369
 11
10549.26164575855
 21
-3745.850393139369
  0
LINE
  5
2CD
100
AcDbEntity
  8
1
  6
CONTINUOUS
 62
           2
100
AcDbLine
 10
10529.26164575855
 20
-3749.350393139369
 11
10549.26164575855
 21
-3749.350393139369
  0
LINE
  5
2CC
100
AcDbEntity
  8
1
  6
CONTINUOUS
 62
           2
100
AcDbLine
 10
10529.26164575855
 20
-3745.850393139369
 11
10529.26164575855
 21
-3749.350393139369
  0
LINE
  5
2CB
100
AcDbEntity
  8
1
  6
CONTINUOUS
 62
           2
100
AcDbLine
 10
10549.26164575855
 20
-3745.850393139369
 11
10529.26164575855
 21
-3745.850393139369
  0
LINE
  5
2CA
100
AcDbEntity
  8
1
  6
CONTINUOUS
 62
           2
100
AcDbLine
 10
10559.26164575855
 20
-3742.850393139369
 11
10549.26164575855
 21
-3745.850393139369
  0
LINE
  5
2C9
100
AcDbEntity
  8
1
  6
CONTINUOUS
 62
           2
100
AcDbLine
 10
10559.26164575855
 20
-3735.850393139369
 11
10559.26164575855
 21
-3742.850393139369
  0
LINE
  5
2C8
100
AcDbEntity
  8
1
  6
CONTINUOUS
 62
           2
100
AcDbLine
 10
10548.76164575855
 20
-3735.850393139369
 11
10559.26164575855
 21
-3735.850393139369
  0
LINE
  5
2C7
100
AcDbEntity
  8
1
  6
CONTINUOUS
 62
           2
100
AcDbLine
 10
10519.26164575855
 20
-3742.850393139369
 11
10519.26164575855
 21
-3735.850393139369
  0
LINE
  5
2C6
100
AcDbEntity
  8
1
  6
CONTINUOUS
 62
           2
100
AcDbLine
 10
10529.26164575855
 20
-3745.850393139369
 11
10519.26164575855
 21
-3742.850393139369
  0
LINE
  5
2C5
100
AcDbEntity
  8
1
  6
CONTINUOUS
 62
           2
100
AcDbLine
 10
10519.26164575855
 20
-3735.850393139369
 11
10529.76164575855
 21
-3735.850393139369
  0
LINE
  5
2C4
100
AcDbEntity
  8
1
  6
CONTINUOUS
 62
           2
100
AcDbLine
 10
10534.26164575855
 20
-3749.350393139369
 11
10534.26164575855
 21
-3751.350393139369
  0
LINE
  5
2C3
100
AcDbEntity
  8
1
  6
CONTINUOUS
 62
           2
100
AcDbLine
 10
10544.26164575855
 20
-3749.350393139369
 11
10544.26164575855
 21
-3751.350393139369
  0
LINE
  5
2C2
100
AcDbEntity
  8
1
  6
CONTINUOUS
 62
           2
100
AcDbLine
 10
11062.69409040159
 20
-3162.867606742161
 11
11075.50164575855
 21
-3155.473161209158
  0
LINE
  5
2C1
100
AcDbEntity
  8
1
  6
CONTINUOUS
 62
           2
100
AcDbLine
 10
11075.50164575855
 20
-3155.473161209158
 11
11088.30920111552
 21
-3162.867606742161
  0
LINE
  5
2C0
100
AcDbEntity
  8
1
  6
CONTINUOUS
 62
           2
100
AcDbLine
 10
11110.003190291131
 20
-3215.115075644168
 11
11121.501645758561
 21
-3215.115075644168
  0
LINE
  5
2BF
100
AcDbEntity
  8
1
  6
CONTINUOUS
 62
           2
100
AcDbLine
 10
11104.792729530171
 20
-3160.115075644168
 11
11121.501645758561
 21
-3160.115075644168
  0
LINE
  5
2BE
100
AcDbEntity
  8
1
  6
DOT_CENTER
 62
           2
100
AcDbLine
 10
11027.95687748053
 20
-3187.615075644168
 11
11152.39176922092
 21
-3187.615075644168
  0
LINE
  5
2BD
100
AcDbEntity
  8
1
  6
CONTINUOUS
 62
           2
100
AcDbLine
 10
11122.501645758561
 20
-3216.615075644168
 11
11122.501645758561
 21
-3216.115075644168
  0
LINE
  5
2BC
100
AcDbEntity
  8
1
  6
CONTINUOUS
 62
           2
100
AcDbLine
 10
11122.501645758561
 20
-3216.615075644168
 11
11127.501645758561
 21
-3216.615075644168
  0
LINE
  5
2BB
100
AcDbEntity
  8
1
  6
CONTINUOUS
 62
           2
100
AcDbLine
 10
11127.501645758561
 20
-3216.615075644168
 11
11127.501645758561
 21
-3158.615075644168
  0
LINE
  5
2BA
100
AcDbEntity
  8
1
  6
CONTINUOUS
 62
           2
100
AcDbLine
 10
11127.501645758561
 20
-3158.615075644168
 11
11122.501645758561
 21
-3158.615075644168
  0
LINE
  5
2B9
100
AcDbEntity
  8
1
  6
CONTINUOUS
 62
           2
100
AcDbLine
 10
11122.501645758561
 20
-3158.615075644168
 11
11122.501645758561
 21
-3159.115075644168
  0
LINE
  5
2B8
100
AcDbEntity
  8
1
  6
CONTINUOUS
 62
           2
100
AcDbLine
 10
11122.501645758561
 20
-3159.25632065214
 11
11122.501645758561
 21
-3216.615075644168
  0
LINE
  5
2B7
100
AcDbEntity
  8
1
  6
CONTINUOUS
 62
           2
100
AcDbLine
 10
11041.00010122598
 20
-3215.627203666134
 11
11041.00010122598
 21
-3191.000883004188
  0
LINE
  5
2B6
100
AcDbEntity
  8
1
  6
CONTINUOUS
 62
           2
100
AcDbLine
 10
11110.003190291131
 20
-3190.555783690651
 11
11110.003190291131
 21
-3215.472586674977
  0
LINE
  5
2B5
100
AcDbEntity
  8
1
  6
CONTINUOUS
 62
           2
100
AcDbLine
 10
11110.003190291131
 20
-3221.22556960463
 11
11110.003190291131
 21
-3214.115075644168
  0
LINE
  5
2B4
100
AcDbEntity
  8
1
  6
CONTINUOUS
 62
           2
100
AcDbLine
 10
11039.50010122598
 20
-3231.61039313937
 11
11075.50164575855
 21
-3231.61039313937
  0
LINE
  5
2B3
100
AcDbEntity
  8
1
  6
CONTINUOUS
 62
           2
100
AcDbLine
 10
11111.503190291131
 20
-3226.61039313937
 11
11110.003190291131
 21
-3226.61039313937
  0
LINE
  5
2B2
100
AcDbEntity
  8
1
  6
CONTINUOUS
 62
           2
100
AcDbLine
 10
11039.50010122598
 20
-3226.61039313937
 11
11041.00010122598
 21
-3226.61039313937
  0
LINE
  5
2B1
100
AcDbEntity
  8
1
  6
CONTINUOUS
 62
           2
100
AcDbLine
 10
11041.00010122598
 20
-3226.61039313937
 11
11110.003190291131
 21
-3226.61039313937
  0
LINE
  5
2B0
100
AcDbEntity
  8
1
  6
CONTINUOUS
 62
           2
100
AcDbLine
 10
11039.50010122598
 20
-3231.61039313937
 11
11039.50010122598
 21
-3226.61039313937
  0
LINE
  5
2AF
100
AcDbEntity
  8
1
  6
CONTINUOUS
 62
           2
100
AcDbLine
 10
11111.503190291131
 20
-3231.61039313937
 11
11111.503190291131
 21
-3226.61039313937
  0
LINE
  5
2AE
100
AcDbEntity
  8
1
  6
CONTINUOUS
 62
           2
100
AcDbLine
 10
11075.50164575855
 20
-3231.61039313937
 11
11111.503190291131
 21
-3231.61039313937
  0
LINE
  5
2AD
100
AcDbEntity
  8
1
  6
CONTINUOUS
 62
           2
100
AcDbLine
 10
11041.00010122598
 20
-3221.22556960463
 11
11041.00010122598
 21
-3212.115075644168
  0
LINE
  5
2AC
100
AcDbEntity
  8
1
  6
CONTINUOUS
 62
           2
100
AcDbLine
 10
11045.25164575855
 20
-3242.73039313937
 11
11045.69464575856
 21
-3231.61039313937
  0
LINE
  5
2AB
100
AcDbEntity
  8
1
  6
CONTINUOUS
 62
           2
100
AcDbLine
 10
11105.30864575855
 20
-3231.61039313937
 11
11105.75164575855
 21
-3242.73039313937
  0
LINE
  5
2AA
100
AcDbEntity
  8
1
  6
CONTINUOUS
 62
           2
100
AcDbLine
 10
11045.69464575856
 20
-3257.85039313937
 11
11045.25164575855
 21
-3246.73039313937
  0
LINE
  5
2A9
100
AcDbEntity
  8
1
  6
CONTINUOUS
 62
           2
100
AcDbLine
 10
11105.30864575855
 20
-3257.85039313937
 11
11105.75164575855
 21
-3246.73039313937
  0
LINE
  5
2A8
100
AcDbEntity
  8
1
  6
CONTINUOUS
 62
           2
100
AcDbLine
 10
11045.25164575855
 20
-3242.73039313937
 11
11045.25164575855
 21
-3246.73039313937
  0
LINE
  5
2A7
100
AcDbEntity
  8
1
  6
CONTINUOUS
 62
           2
100
AcDbLine
 10
11105.75164575855
 20
-3246.73039313937
 11
11105.75164575855
 21
-3242.73039313937
  0
LINE
  5
2A6
100
AcDbEntity
  8
1
  6
CONTINUOUS
 62
           2
100
AcDbLine
 10
11045.25164575855
 20
-3242.73039313937
 11
11105.75164575855
 21
-3242.73039313937
  0
LINE
  5
2A5
100
AcDbEntity
  8
1
  6
CONTINUOUS
 62
           2
100
AcDbLine
 10
11105.75164575855
 20
-3246.73039313937
 11
11045.25164575855
 21
-3246.73039313937
  0
LINE
  5
2A4
100
AcDbEntity
  8
1
  6
CONTINUOUS
 62
           2
100
AcDbLine
 10
11042.35164575855
 20
-3257.85039313937
 11
11108.65164575856
 21
-3257.85039313937
  0
LINE
  5
2A3
100
AcDbEntity
  8
1
  6
CONTINUOUS
 62
           2
100
AcDbLine
 10
11042.35164575855
 20
-3257.85039313937
 11
11042.35164575855
 21
-3272.973028660303
  0
LINE
  5
2A2
100
AcDbEntity
  8
1
  6
CONTINUOUS
 62
           2
100
AcDbLine
 10
11108.65164575856
 20
-3257.85039313937
 11
11108.65164575856
 21
-3272.973028660303
  0
LINE
  5
2A1
100
AcDbEntity
  8
1
  6
CONTINUOUS
 62
           2
100
AcDbLine
 10
11042.35164575855
 20
-3257.85039313937
 11
11108.65164575856
 21
-3257.85039313937
  0
LINE
  5
2A0
100
AcDbEntity
  8
1
  6
CONTINUOUS
 62
           7
100
AcDbLine
 10
10571.50164575855
 20
-3720.85039313937
 11
10571.50164575855
 21
-3802.85039313937
  0
LINE
  5
29F
100
AcDbEntity
  8
1
  6
CONTINUOUS
 62
           7
100
AcDbLine
 10
10593.336467732061
 20
-3720.85039313937
 11
10571.50164575855
 21
-3720.85039313937
  0
LINE
  5
29E
100
AcDbEntity
  8
1
  6
CONTINUOUS
 62
           7
100
AcDbLine
 10
10593.336467732061
 20
-3802.85039313937
 11
10571.50164575855
 21
-3802.85039313937
  0
LINE
  5
29D
100
AcDbEntity
  8
1
  6
CONTINUOUS
 62
           7
100
AcDbLine
 10
11579.501645758561
 20
-3802.85039313937
 11
11557.66682378505
 21
-3802.85039313937
  0
LINE
  5
29C
100
AcDbEntity
  8
1
  6
CONTINUOUS
 62
           7
100
AcDbLine
 10
11579.501645758561
 20
-3720.85039313937
 11
11557.66682378505
 21
-3720.85039313937
  0
LINE
  5
29B
100
AcDbEntity
  8
1
  6
CONTINUOUS
 62
           7
100
AcDbLine
 10
11579.501645758561
 20
-3802.85039313937
 11
11579.501645758561
 21
-3720.85039313937
  0
LINE
  5
29A
100
AcDbEntity
  8
1
  6
DOT_CENTER
 62
           2
100
AcDbLine
 10
11075.50164575855
 20
-4321.486610633812
 11
11075.50164575855
 21
-4204.825453239884
  0
LINE
  5
299
100
AcDbEntity
  8
1
  6
DOT_CENTER
 62
           2
100
AcDbLine
 10
11435.8326282536
 20
-4122.181375634417
 11
10714.951814990411
 21
-3401.300562371224
  0
LINE
  5
298
100
AcDbEntity
  8
1
  6
DOT_CENTER
 62
           2
100
AcDbLine
 10
10731.522013104341
 20
-4105.830025793585
 11
11432.89759579446
 21
-3404.454443103468
  0
LINE
  5
297
100
AcDbEntity
  8
1
  6
DOT_CENTER
 62
           2
100
AcDbLine
 10
13779.3114833277
 20
-1935.353351822154
 11
13941.8464845126
 21
-1935.353351822154
  0
LINE
  5
296
100
AcDbEntity
  8
1
  6
CONTINUOUS
 62
           2
100
AcDbLine
 10
10478.96338963649
 20
-1112.354624963737
 11
10490.46338963649
 21
-1112.354624963737
  0
LINE
  5
295
100
AcDbEntity
  8
1
  6
CONTINUOUS
 62
           2
100
AcDbLine
 10
10490.46338963649
 20
-1112.354624963737
 11
10490.46338963649
 21
-1120.853351822154
  0
LINE
  5
294
100
AcDbEntity
  8
1
  6
CONTINUOUS
 62
           2
100
AcDbLine
 10
10501.9621164949
 20
-1123.853351822154
 11
10493.46338963649
 21
-1123.853351822154
  0
LINE
  5
293
100
AcDbEntity
  8
1
  6
CONTINUOUS
 62
           2
100
AcDbLine
 10
10467.46338963649
 20
-1112.354624963737
 11
10478.96338963649
 21
-1112.354624963737
  0
LINE
  5
292
100
AcDbEntity
  8
1
  6
CONTINUOUS
 62
           2
100
AcDbLine
 10
10501.9621164949
 20
-1123.853351822154
 11
10501.9621164949
 21
-1135.353351822154
  0
LINE
  5
291
100
AcDbEntity
  8
1
  6
CONTINUOUS
 62
           2
100
AcDbLine
 10
10467.46338963649
 20
-1112.354624963737
 11
10467.46338963649
 21
-1135.353351822154
  0
LINE
  5
290
100
AcDbEntity
  8
1
  6
CONTINUOUS
 62
           2
100
AcDbLine
 10
10467.46338963649
 20
-1135.353351822154
 11
10467.46338963649
 21
-1158.352078680571
  0
LINE
  5
28F
100
AcDbEntity
  8
1
  6
CONTINUOUS
 62
           2
100
AcDbLine
 10
10501.9621164949
 20
-1135.353351822154
 11
10501.9621164949
 21
-1146.853351822154
  0
LINE
  5
28E
100
AcDbEntity
  8
1
  6
CONTINUOUS
 62
           2
100
AcDbLine
 10
10478.96338963649
 20
-1158.352078680571
 11
10467.46338963649
 21
-1158.352078680571
  0
LINE
  5
28D
100
AcDbEntity
  8
1
  6
CONTINUOUS
 62
           2
100
AcDbLine
 10
10493.46338963649
 20
-1146.853351822154
 11
10501.9621164949
 21
-1146.853351822154
  0
LINE
  5
28C
100
AcDbEntity
  8
1
  6
CONTINUOUS
 62
           2
100
AcDbLine
 10
10490.46338963649
 20
-1149.853351822154
 11
10490.46338963649
 21
-1158.352078680571
  0
LINE
  5
28B
100
AcDbEntity
  8
1
  6
CONTINUOUS
 62
           2
100
AcDbLine
 10
10490.46338963649
 20
-1158.352078680571
 11
10478.96338963649
 21
-1158.352078680571
  0
LINE
  5
28A
100
AcDbEntity
  8
1
  6
CONTINUOUS
 62
           2
100
AcDbLine
 10
10518.199938668409
 20
-1147.477707475135
 11
10517.2621164949
 21
-1145.853351822154
  0
LINE
  5
289
100
AcDbEntity
  8
1
  6
CONTINUOUS
 62
           2
100
AcDbLine
 10
10517.2621164949
 20
-1124.853351822154
 11
10518.199938668409
 21
-1123.228996169173
  0
LINE
  5
288
100
AcDbEntity
  8
1
  6
CONTINUOUS
 62
           2
100
AcDbLine
 10
10517.2621164949
 20
-1145.853351822154
 11
10517.2621164949
 21
-1124.853351822154
  0
LINE
  5
287
100
AcDbEntity
  8
1
  6
CONTINUOUS
 62
           2
100
AcDbLine
 10
10518.199938668409
 20
-1141.415529648644
 11
10524.362116494911
 21
-1141.415529648644
  0
LINE
  5
286
100
AcDbEntity
  8
1
  6
CONTINUOUS
 62
           2
100
AcDbLine
 10
10518.199938668409
 20
-1129.291173995664
 11
10524.362116494911
 21
-1129.291173995664
  0
LINE
  5
285
100
AcDbEntity
  8
1
  6
CONTINUOUS
 62
           2
100
AcDbLine
 10
10561.2621164949
 20
-1145.853351822154
 11
10560.324294321401
 21
-1147.477707475135
  0
LINE
  5
284
100
AcDbEntity
  8
1
  6
CONTINUOUS
 62
           2
100
AcDbLine
 10
10560.324294321401
 20
-1123.228996169173
 11
10561.2621164949
 21
-1124.853351822154
  0
LINE
  5
283
100
AcDbEntity
  8
1
  6
CONTINUOUS
 62
           2
100
AcDbLine
 10
10560.324294321401
 20
-1147.477707475135
 11
10553.89993866841
 21
-1147.477707475135
  0
LINE
  5
282
100
AcDbEntity
  8
1
  6
CONTINUOUS
 62
           2
100
AcDbLine
 10
10561.2621164949
 20
-1124.853351822154
 11
10561.2621164949
 21
-1145.853351822154
  0
LINE
  5
281
100
AcDbEntity
  8
1
  6
CONTINUOUS
 62
           2
100
AcDbLine
 10
10560.324294321401
 20
-1123.228996169173
 11
10553.89993866841
 21
-1123.228996169173
  0
LINE
  5
280
100
AcDbEntity
  8
1
  6
CONTINUOUS
 62
           2
100
AcDbLine
 10
10559.2621164949
 20
-1131.003351822152
 11
10549.98487267044
 21
-1131.003351822152
  0
LINE
  5
27F
100
AcDbEntity
  8
1
  6
CONTINUOUS
 62
           2
100
AcDbLine
 10
10559.2621164949
 20
-1131.003351822152
 11
10559.2621164949
 21
-1139.703351822152
  0
LINE
  5
27E
100
AcDbEntity
  8
1
  6
CONTINUOUS
 62
           2
100
AcDbLine
 10
10559.2621164949
 20
-1139.703351822152
 11
10549.98487267044
 21
-1139.703351822152
  0
LINE
  5
27D
100
AcDbEntity
  8
1
  6
CONTINUOUS
 62
           2
100
AcDbLine
 10
10519.2621164949
 20
-1131.003351822152
 11
10528.53936031937
 21
-1131.003351822152
  0
LINE
  5
27C
100
AcDbEntity
  8
1
  6
CONTINUOUS
 62
           2
100
AcDbLine
 10
10519.2621164949
 20
-1131.003351822152
 11
10519.2621164949
 21
-1139.703351822152
  0
LINE
  5
27B
100
AcDbEntity
  8
1
  6
CONTINUOUS
 62
           2
100
AcDbLine
 10
10519.2621164949
 20
-1139.703351822152
 11
10528.53936031937
 21
-1139.703351822152
  0
LINE
  5
27A
100
AcDbEntity
  8
1
  6
DOT_CENTER
 62
           2
100
AcDbLine
 10
10539.2621164949
 20
-1119.956957471653
 11
10539.2621164949
 21
-1150.705803555853
  0
LINE
  5
279
100
AcDbEntity
  8
1
  6
CONTINUOUS
 62
           2
100
AcDbLine
 10
10539.2621164949
 20
-1126.353351822154
 11
10539.2621164949
 21
-1144.353351822154
  0
LINE
  5
278
100
AcDbEntity
  8
1
  6
CONTINUOUS
 62
           2
100
AcDbLine
 10
10534.2621164949
 20
-1132.466600476202
 11
10534.2621164949
 21
-1138.240103168102
  0
LINE
  5
277
100
AcDbEntity
  8
1
  6
CONTINUOUS
 62
           2
100
AcDbLine
 10
10534.2621164949
 20
-1138.240103168102
 11
10539.2621164949
 21
-1141.126854514054
  0
LINE
  5
276
100
AcDbEntity
  8
1
  6
CONTINUOUS
 62
           2
100
AcDbLine
 10
10539.2621164949
 20
-1141.126854514054
 11
10544.2621164949
 21
-1138.240103168102
  0
LINE
  5
275
100
AcDbEntity
  8
1
  6
CONTINUOUS
 62
           2
100
AcDbLine
 10
10544.2621164949
 20
-1138.240103168102
 11
10544.2621164949
 21
-1132.466600476202
  0
LINE
  5
274
100
AcDbEntity
  8
1
  6
CONTINUOUS
 62
           2
100
AcDbLine
 10
10544.2621164949
 20
-1132.466600476202
 11
10539.2621164949
 21
-1129.579849130254
  0
LINE
  5
273
100
AcDbEntity
  8
1
  6
CONTINUOUS
 62
           2
100
AcDbLine
 10
10539.2621164949
 20
-1129.579849130254
 11
10534.2621164949
 21
-1132.466600476202
  0
LINE
  5
272
100
AcDbEntity
  8
1
  6
CONTINUOUS
 62
           2
100
AcDbLine
 10
10539.2621164949
 20
-1129.103351822154
 11
10533.54597301807
 21
-1129.103351822154
  0
LINE
  5
271
100
AcDbEntity
  8
1
  6
CONTINUOUS
 62
           2
100
AcDbLine
 10
10545.5121164949
 20
-1135.353351822154
 11
10547.7621164949
 21
-1135.353351822154
  0
LINE
  5
270
100
AcDbEntity
  8
1
  6
CONTINUOUS
 62
           2
100
AcDbLine
 10
10537.0260485174
 20
-1133.353351822154
 11
10541.498184472401
 21
-1133.353351822154
  0
LINE
  5
26F
100
AcDbEntity
  8
1
  6
CONTINUOUS
 62
           2
100
AcDbLine
 10
10537.0260485174
 20
-1137.353351822154
 11
10541.498184472401
 21
-1137.353351822154
  0
LINE
  5
26E
100
AcDbEntity
  8
1
  6
CONTINUOUS
 62
           2
100
AcDbLine
 10
10552.9621164949
 20
-1124.853351822154
 11
10553.89993866841
 21
-1123.228996169173
  0
LINE
  5
26D
100
AcDbEntity
  8
1
  6
CONTINUOUS
 62
           2
100
AcDbLine
 10
10553.89993866841
 20
-1147.477707475135
 11
10552.9621164949
 21
-1145.853351822154
  0
LINE
  5
26C
100
AcDbEntity
  8
1
  6
CONTINUOUS
 62
           2
100
AcDbLine
 10
10525.29993866841
 20
-1145.853351822154
 11
10524.362116494911
 21
-1147.477707475135
  0
LINE
  5
26B
100
AcDbEntity
  8
1
  6
CONTINUOUS
 62
           2
100
AcDbLine
 10
10524.362116494911
 20
-1123.228996169173
 11
10525.29993866841
 21
-1124.853351822154
  0
LINE
  5
26A
100
AcDbEntity
  8
1
  6
CONTINUOUS
 62
           2
100
AcDbLine
 10
10552.9621164949
 20
-1124.853351822154
 11
10525.29993866841
 21
-1124.853351822154
  0
LINE
  5
269
100
AcDbEntity
  8
1
  6
CONTINUOUS
 62
           2
100
AcDbLine
 10
10524.362116494911
 20
-1123.228996169173
 11
10518.199938668409
 21
-1123.228996169173
  0
LINE
  5
268
100
AcDbEntity
  8
1
  6
CONTINUOUS
 62
           2
100
AcDbLine
 10
10552.9621164949
 20
-1145.853351822154
 11
10525.29993866841
 21
-1145.853351822154
  0
LINE
  5
267
100
AcDbEntity
  8
1
  6
CONTINUOUS
 62
           2
100
AcDbLine
 10
10524.362116494911
 20
-1147.477707475135
 11
10518.199938668409
 21
-1147.477707475135
  0
LINE
  5
266
100
AcDbEntity
  8
1
  6
CONTINUOUS
 62
           2
100
AcDbLine
 10
10553.89993866841
 20
-1141.415529648644
 11
10560.324294321401
 21
-1141.415529648644
  0
LINE
  5
265
100
AcDbEntity
  8
1
  6
CONTINUOUS
 62
           2
100
AcDbLine
 10
10553.89993866841
 20
-1129.291173995664
 11
10560.324294321401
 21
-1129.291173995664
  0
LINE
  5
264
100
AcDbEntity
  8
1
  6
CONTINUOUS
 62
           2
100
AcDbLine
 10
10547.7621164949
 20
-1130.018135925753
 11
10547.7621164949
 21
-1126.853351822154
  0
LINE
  5
263
100
AcDbEntity
  8
1
  6
CONTINUOUS
 62
           2
100
AcDbLine
 10
10547.7621164949
 20
-1126.853351822154
 11
10550.2621164949
 21
-1126.853351822154
  0
LINE
  5
262
100
AcDbEntity
  8
1
  6
CONTINUOUS
 62
           2
100
AcDbLine
 10
10524.513475017229
 20
-1140.915529648644
 11
10530.948445597211
 21
-1140.915529648644
  0
LINE
  5
261
100
AcDbEntity
  8
1
  6
CONTINUOUS
 62
           2
100
AcDbLine
 10
10524.513475017229
 20
-1129.791173995664
 11
10530.948445597211
 21
-1129.791173995664
  0
LINE
  5
260
100
AcDbEntity
  8
1
  6
CONTINUOUS
 62
           2
100
AcDbLine
 10
10553.748580146081
 20
-1140.915529648644
 11
10547.510390476091
 21
-1140.915529648644
  0
LINE
  5
25F
100
AcDbEntity
  8
1
  6
CONTINUOUS
 62
           2
100
AcDbLine
 10
10553.748580146081
 20
-1129.791173995664
 11
10551.80760909058
 21
-1129.791173995664
  0
LINE
  5
25E
100
AcDbEntity
  8
1
  6
CONTINUOUS
 62
           7
100
AcDbLine
 10
10576.50164575855
 20
-1143.684351822154
 11
10570.10164575855
 21
-1144.003351822154
  0
LINE
  5
25D
100
AcDbEntity
  8
1
  6
CONTINUOUS
 62
           2
100
AcDbLine
 10
10561.201645758551
 20
-1127.022351822154
 11
10567.60164575855
 21
-1126.703351822154
  0
LINE
  5
25C
100
AcDbEntity
  8
1
  6
CONTINUOUS
 62
           2
100
AcDbLine
 10
10567.60164575855
 20
-1144.003351822154
 11
10561.201645758551
 21
-1143.684351822154
  0
LINE
  5
25B
100
AcDbEntity
  8
1
  6
CONTINUOUS
 62
           7
100
AcDbLine
 10
10570.10164575855
 20
-1126.703351822154
 11
10576.50164575855
 21
-1127.022351822154
  0
LINE
  5
25A
100
AcDbEntity
  8
1
  6
CONTINUOUS
 62
           2
100
AcDbLine
 10
10570.10164575855
 20
-1126.703351822154
 11
10567.60164575855
 21
-1126.703351822154
  0
LINE
  5
259
100
AcDbEntity
  8
1
  6
CONTINUOUS
 62
           2
100
AcDbLine
 10
10567.60164575855
 20
-1144.003351822154
 11
10570.10164575855
 21
-1144.003351822154
  0
LINE
  5
258
100
AcDbEntity
  8
1
  6
CONTINUOUS
 62
           2
100
AcDbLine
 10
10570.10164575855
 20
-1144.003351822154
 11
10570.10164575855
 21
-1126.703351822154
  0
LINE
  5
257
100
AcDbEntity
  8
1
  6
CONTINUOUS
 62
           2
100
AcDbLine
 10
10567.60164575855
 20
-1126.703351822154
 11
10567.60164575855
 21
-1144.003351822154
  0
LINE
  5
256
100
AcDbEntity
  8
1
  6
CONTINUOUS
 62
           2
100
AcDbLine
 10
10508.362116494911
 20
-1126.703351822154
 11
10508.362116494911
 21
-1144.003351822154
  0
LINE
  5
255
100
AcDbEntity
  8
1
  6
CONTINUOUS
 62
           2
100
AcDbLine
 10
10510.862116494911
 20
-1144.003351822154
 11
10510.862116494911
 21
-1126.703351822154
  0
LINE
  5
254
100
AcDbEntity
  8
1
  6
CONTINUOUS
 62
           2
100
AcDbLine
 10
10508.362116494911
 20
-1144.003351822154
 11
10510.862116494911
 21
-1144.003351822154
  0
LINE
  5
253
100
AcDbEntity
  8
1
  6
CONTINUOUS
 62
           2
100
AcDbLine
 10
10510.862116494911
 20
-1126.703351822154
 11
10508.362116494911
 21
-1126.703351822154
  0
LINE
  5
252
100
AcDbEntity
  8
1
  6
CONTINUOUS
 62
           2
100
AcDbLine
 10
10510.862116494911
 20
-1126.703351822154
 11
10517.2621164949
 21
-1127.022351822154
  0
LINE
  5
251
100
AcDbEntity
  8
1
  6
CONTINUOUS
 62
           2
100
AcDbLine
 10
10508.362116494911
 20
-1144.003351822154
 11
10501.9621164949
 21
-1143.684351822154
  0
LINE
  5
250
100
AcDbEntity
  8
1
  6
CONTINUOUS
 62
           2
100
AcDbLine
 10
10501.9621164949
 20
-1127.022351822154
 11
10508.362116494911
 21
-1126.703351822154
  0
LINE
  5
24F
100
AcDbEntity
  8
1
  6
CONTINUOUS
 62
           2
100
AcDbLine
 10
10517.2621164949
 20
-1143.684351822154
 11
10510.862116494911
 21
-1144.003351822154
  0
LINE
  5
24E
100
AcDbEntity
  8
1
  6
CONTINUOUS
 62
           7
100
AcDbLine
 10
10576.50164575855
 20
-1124.703351822154
 11
10576.50164575855
 21
-1146.003351822154
  0
LINE
  5
24D
100
AcDbEntity
  8
1
  6
CONTINUOUS
 62
           7
100
AcDbLine
 10
10591.50164575855
 20
-1146.003351822154
 11
10576.50164575855
 21
-1146.003351822154
  0
LINE
  5
24C
100
AcDbEntity
  8
1
  6
CONTINUOUS
 62
           7
100
AcDbLine
 10
10591.50164575855
 20
-1124.703351822154
 11
10576.50164575855
 21
-1124.703351822154
  0
LINE
  5
24B
100
AcDbEntity
  8
1
  6
CONTINUOUS
 62
           7
100
AcDbLine
 10
14348.647312122321
 20
-2051.353351822154
 11
14348.647312122321
 21
-2172.353351822154
  0
LINE
  5
24A
100
AcDbEntity
  8
1
  6
CONTINUOUS
 62
           7
100
AcDbLine
 10
14348.647312122321
 20
-315.281682924995
 11
14348.647312122321
 21
-336.353351822154
  0
LINE
  5
249
100
AcDbEntity
  8
1
  6
CONTINUOUS
 62
           7
100
AcDbLine
 10
14348.647312122321
 20
-336.353351822154
 11
14348.647312122321
 21
-986.341413226303
  0
LINE
  5
248
100
AcDbEntity
  8
1
  6
CONTINUOUS
 62
           2
100
AcDbLine
 10
13851.44731212232
 20
-2395.353351822154
 11
13877.84731212232
 21
-2395.353351822154
  0
LINE
  5
247
100
AcDbEntity
  8
1
  6
CONTINUOUS
 62
           2
100
AcDbLine
 10
13877.84731212232
 20
-2395.353351822154
 11
13877.84731212232
 21
-2386.228380195424
  0
LINE
  5
246
100
AcDbEntity
  8
1
  6
CONTINUOUS
 62
           2
100
AcDbLine
 10
13851.44731212232
 20
-2395.353351822154
 11
13851.44731212232
 21
-2386.228380195424
  0
LINE
  5
245
100
AcDbEntity
  8
1
  6
DOTTED
 62
           2
100
AcDbLine
 10
13877.84731212232
 20
-2386.228380195424
 11
13877.84731212232
 21
-2385.257505184873
  0
LINE
  5
244
100
AcDbEntity
  8
1
  6
DOTTED
 62
           2
100
AcDbLine
 10
13851.44731212232
 20
-2386.228380195424
 11
13851.44731212232
 21
-2385.257505184873
  0
LINE
  5
243
100
AcDbEntity
  8
1
  6
CONTINUOUS
 62
           7
100
AcDbLine
 10
14348.647312122321
 20
-905.983787500013
 11
14348.647312122321
 21
-2073.091632731705
  0
LINE
  5
242
100
AcDbEntity
  8
1
  6
DOT_CENTER
 62
           2
100
AcDbLine
 10
13265.435754405131
 20
-1135.353351822154
 11
14011.525173693941
 21
-1135.353351822154
  0
LINE
  5
241
100
AcDbEntity
  8
1
  6
CONTINUOUS
 62
           7
100
AcDbLine
 10
10811.679232655901
 20
-155.710251524914
 11
10840.657007444561
 21
-147.945680171839
  0
LINE
  5
240
100
AcDbEntity
  8
1
  6
CONTINUOUS
 62
           7
100
AcDbLine
 10
10837.464416211889
 20
-139.875300262163
 11
10839.972996846111
 21
-146.216606516771
  0
LINE
  5
23F
100
AcDbEntity
  8
1
  6
CONTINUOUS
 62
           7
100
AcDbLine
 10
10811.489217401941
 20
-154.426039536609
 11
10810.408907812451
 21
-147.124801888607
  0
LINE
  5
23E
100
AcDbEntity
  8
1
  6
CONTINUOUS
 62
           7
100
AcDbLine
 10
10815.60146715924
 20
-143.271253972706
 11
10828.374422441901
 21
-139.848750919758
  0
LINE
  5
23D
100
AcDbEntity
  8
1
  6
CONTINUOUS
 62
           7
100
AcDbLine
 10
10840.657007444561
 20
-147.945680171839
 11
10841.95110267008
 21
-152.775309303284
  0
LINE
  5
23C
100
AcDbEntity
  8
1
  6
CONTINUOUS
 62
           7
100
AcDbLine
 10
10811.679232655901
 20
-155.710251524914
 11
10812.973327881409
 21
-160.539880656359
  0
LINE
  5
23B
100
AcDbEntity
  8
1
  6
CONTINUOUS
 62
           7
100
AcDbLine
 10
10839.972996846111
 20
-146.216606516771
 11
10840.657007444561
 21
-147.945680171839
  0
LINE
  5
23A
100
AcDbEntity
  8
1
  6
CONTINUOUS
 62
           7
100
AcDbLine
 10
10834.217601107721
 20
-138.01390573953
 11
10822.93288198645
 21
-139.753893019763
  0
LINE
  5
239
100
AcDbEntity
  8
1
  6
CONTINUOUS
 62
           7
100
AcDbLine
 10
10822.93288198645
 20
-139.753893019763
 11
10812.290034912739
 21
-143.889379393455
  0
LINE
  5
238
100
AcDbEntity
  8
1
  6
CONTINUOUS
 62
           7
100
AcDbLine
 10
10811.679232655901
 20
-155.710251524914
 11
10811.407066383081
 21
-153.870824515381
  0
LINE
  5
237
100
AcDbEntity
  8
1
  6
CONTINUOUS
 62
           7
100
AcDbLine
 10
11559.501645758561
 20
-1176.353351822154
 11
11559.50164575855
 21
-2172.353351822154
  0
LINE
  5
236
100
AcDbEntity
  8
1
  6
CONTINUOUS
 62
           7
100
AcDbLine
 10
11559.501645758561
 20
-1094.353351822154
 11
11579.501645758561
 21
-1094.353351822154
  0
LINE
  5
235
100
AcDbEntity
  8
1
  6
CONTINUOUS
 62
           7
100
AcDbLine
 10
11559.501645758561
 20
-1176.353351822154
 11
11579.501645758561
 21
-1176.353351822154
  0
LINE
  5
234
100
AcDbEntity
  8
1
  6
CONTINUOUS
 62
           7
100
AcDbLine
 10
11579.501645758561
 20
-1176.353351822154
 11
11579.501645758561
 21
-1094.353351822154
  0
LINE
  5
233
100
AcDbEntity
  8
1
  6
CONTINUOUS
 62
           7
100
AcDbLine
 10
11425.50164575855
 20
-2385.353351822154
 11
11425.50164575855
 21
-2319.203283221603
  0
LINE
  5
232
100
AcDbEntity
  8
1
  6
CONTINUOUS
 62
           7
100
AcDbLine
 10
10741.268723837229
 20
-2455.948425885799
 11
10741.268723837229
 21
-2676.353351822154
  0
LINE
  5
231
100
AcDbEntity
  8
1
  6
DOT_CENTER
 62
           2
100
AcDbLine
 10
11075.50164575855
 20
-4320.538717062733
 11
11075.50164575855
 21
-3115.64611954262
  0
LINE
  5
230
100
AcDbEntity
  8
1
  6
DOT_CENTER
 62
           2
100
AcDbLine
 10
10413.504537448091
 20
-3761.85039313937
 11
11633.0501839554
 21
-3761.85039313937
  0
LINE
  5
22F
100
AcDbEntity
  8
1
  6
CONTINUOUS
 62
           7
100
AcDbLine
 10
10571.50164575855
 20
-1894.353351822154
 11
10571.50164575855
 21
-1976.353351822154
  0
LINE
  5
22E
100
AcDbEntity
  8
1
  6
CONTINUOUS
 62
           7
100
AcDbLine
 10
10571.50164575855
 20
-1976.353351822154
 11
10591.50164575855
 21
-1976.353351822154
  0
LINE
  5
22D
100
AcDbEntity
  8
1
  6
CONTINUOUS
 62
           7
100
AcDbLine
 10
10571.50164575855
 20
-1894.353351822154
 11
10591.50164575855
 21
-1894.353351822154
  0
LINE
  5
22C
100
AcDbEntity
  8
1
  6
DOT_CENTER
 62
           2
100
AcDbLine
 10
10521.55687532615
 20
-1935.353351822154
 11
10622.96051127178
 21
-1935.353351822154
  0
LINE
  5
22B
100
AcDbEntity
  8
1
  6
DOTTED
 62
           2
100
AcDbLine
 10
11062.30164575856
 20
-2386.228380195424
 11
11062.30164575856
 21
-2385.257505184873
  0
LINE
  5
22A
100
AcDbEntity
  8
1
  6
DOTTED
 62
           2
100
AcDbLine
 10
11088.701645758551
 20
-2386.228380195424
 11
11088.701645758551
 21
-2385.257505184873
  0
LINE
  5
229
100
AcDbEntity
  8
1
  6
CONTINUOUS
 62
           2
100
AcDbLine
 10
11062.30164575856
 20
-2395.353351822154
 11
11062.30164575856
 21
-2386.228380195424
  0
LINE
  5
228
100
AcDbEntity
  8
1
  6
CONTINUOUS
 62
           2
100
AcDbLine
 10
11088.701645758551
 20
-2395.353351822154
 11
11088.701645758551
 21
-2386.228380195424
  0
LINE
  5
227
100
AcDbEntity
  8
1
  6
CONTINUOUS
 62
           2
100
AcDbLine
 10
11062.30164575856
 20
-2395.353351822154
 11
11088.701645758551
 21
-2395.353351822154
  0
LINE
  5
226
100
AcDbEntity
  8
1
  6
CONTINUOUS
 62
           7
100
AcDbLine
 10
10975.50164575855
 20
-2485.353351822154
 11
10975.50164575855
 21
-2676.353351822154
  0
LINE
  5
225
100
AcDbEntity
  8
1
  6
CONTINUOUS
 62
           7
100
AcDbLine
 10
11175.50164575855
 20
-2485.353351822154
 11
11175.50164575855
 21
-2676.353351822154
  0
LINE
  5
224
100
AcDbEntity
  8
1
  6
CONTINUOUS
 62
           7
100
AcDbLine
 10
10591.50164575855
 20
-336.353351822154
 11
10591.50164575855
 21
-1894.353351822154
  0
LINE
  5
223
100
AcDbEntity
  8
1
  6
CONTINUOUS
 62
           7
100
AcDbLine
 10
11559.50164575855
 20
-336.353351822154
 11
11559.501645758561
 21
-1094.353351822154
  0
LINE
  5
222
100
AcDbEntity
  8
1
  6
CONTINUOUS
 62
           7
100
AcDbLine
 10
13360.647312122321
 20
-1168.503351822154
 11
13360.647312122321
 21
-1102.203351822154
  0
LINE
  5
221
100
AcDbEntity
  8
1
  6
CONTINUOUS
 62
           7
100
AcDbLine
 10
13380.647312122321
 20
-1168.503351822154
 11
13360.647312122321
 21
-1168.503351822154
  0
LINE
  5
220
100
AcDbEntity
  8
1
  6
CONTINUOUS
 62
           7
100
AcDbLine
 10
13380.647312122321
 20
-1102.203351822154
 11
13360.647312122321
 21
-1102.203351822154
  0
LINE
  5
21F
100
AcDbEntity
  8
1
  6
DOT_CENTER
 62
           2
100
AcDbLine
 10
13815.777712122321
 20
-1135.353351822154
 11
13913.516912122321
 21
-1135.353351822154
  0
LINE
  5
21E
100
AcDbEntity
  8
1
  6
DOT_CENTER
 62
           2
100
AcDbLine
 10
13864.647312122321
 20
-1184.222951822154
 11
13864.647312122321
 21
-1086.483751822154
  0
LINE
  5
21D
100
AcDbEntity
  8
1
  6
CONTINUOUS
 62
           2
100
AcDbLine
 10
11065.024145758551
 20
-2413.033351822154
 11
11064.651645758549
 21
-2405.693351822154
  0
LINE
  5
21C
100
AcDbEntity
  8
1
  6
CONTINUOUS
 62
           2
100
AcDbLine
 10
11085.979145758551
 20
-2413.033351822154
 11
11086.35164575855
 21
-2405.693351822154
  0
LINE
  5
21B
100
AcDbEntity
  8
1
  6
CONTINUOUS
 62
           2
100
AcDbLine
 10
11086.35164575855
 20
-2402.693351822154
 11
11085.979145758551
 21
-2395.353351822154
  0
LINE
  5
21A
100
AcDbEntity
  8
1
  6
CONTINUOUS
 62
           2
100
AcDbLine
 10
11064.651645758549
 20
-2402.693351822154
 11
11065.024145758551
 21
-2395.353351822154
  0
LINE
  5
219
100
AcDbEntity
  8
1
  6
CONTINUOUS
 62
           2
100
AcDbLine
 10
11064.651645758549
 20
-2402.693351822154
 11
11064.651645758549
 21
-2405.693351822154
  0
LINE
  5
218
100
AcDbEntity
  8
1
  6
CONTINUOUS
 62
           2
100
AcDbLine
 10
11086.35164575855
 20
-2405.693351822154
 11
11064.651645758549
 21
-2405.693351822154
  0
LINE
  5
217
100
AcDbEntity
  8
1
  6
CONTINUOUS
 62
           2
100
AcDbLine
 10
11064.651645758549
 20
-2402.693351822154
 11
11086.35164575855
 21
-2402.693351822154
  0
LINE
  5
216
100
AcDbEntity
  8
1
  6
CONTINUOUS
 62
           2
100
AcDbLine
 10
11086.35164575855
 20
-2402.693351822154
 11
11086.35164575855
 21
-2405.693351822154
  0
LINE
  5
215
100
AcDbEntity
  8
1
  6
CONTINUOUS
 62
           2
100
AcDbLine
 10
11064.135402488289
 20
-2444.583351822155
 11
11085.401645758549
 21
-2444.583351822155
  0
LINE
  5
214
100
AcDbEntity
  8
1
  6
CONTINUOUS
 62
           2
100
AcDbLine
 10
11064.135402488289
 20
-2433.583351822155
 11
11085.401645758549
 21
-2433.583351822155
  0
LINE
  5
213
100
AcDbEntity
  8
1
  6
CONTINUOUS
 62
           2
100
AcDbLine
 10
11086.401645758549
 20
-2445.983351822153
 11
11085.401645758549
 21
-2444.583351822155
  0
LINE
  5
212
100
AcDbEntity
  8
1
  6
CONTINUOUS
 62
           2
100
AcDbLine
 10
11086.401645758549
 20
-2432.183351822153
 11
11085.401645758549
 21
-2433.583351822155
  0
LINE
  5
211
100
AcDbEntity
  8
1
  6
CONTINUOUS
 62
           2
100
AcDbLine
 10
11064.135402488289
 20
-2433.583351822155
 11
11064.135402488289
 21
-2444.583351822155
  0
LINE
  5
210
100
AcDbEntity
  8
1
  6
CONTINUOUS
 62
           2
100
AcDbLine
 10
11063.00164575855
 20
-2445.983351822153
 11
11064.135402488289
 21
-2444.583351822155
  0
LINE
  5
20F
100
AcDbEntity
  8
1
  6
CONTINUOUS
 62
           2
100
AcDbLine
 10
11063.00164575855
 20
-2432.183351822153
 11
11064.135402488289
 21
-2433.583351822155
  0
LINE
  5
20E
100
AcDbEntity
  8
1
  6
CONTINUOUS
 62
           2
100
AcDbLine
 10
11086.401645758549
 20
-2459.725850903942
 11
11086.401645758549
 21
-2445.533351822153
  0
LINE
  5
20D
100
AcDbEntity
  8
1
  6
CONTINUOUS
 62
           2
100
AcDbLine
 10
11086.401645758549
 20
-2422.840852740367
 11
11086.401645758549
 21
-2435.033351822153
  0
LINE
  5
20C
100
AcDbEntity
  8
1
  6
CONTINUOUS
 62
           2
100
AcDbLine
 10
11088.00164575855
 20
-2447.033351822154
 11
11089.60164575855
 21
-2447.033351822154
  0
LINE
  5
20B
100
AcDbEntity
  8
1
  6
CONTINUOUS
 62
           2
100
AcDbLine
 10
11088.00164575855
 20
-2434.033351822154
 11
11089.60164575855
 21
-2434.033351822154
  0
LINE
  5
20A
100
AcDbEntity
  8
1
  6
CONTINUOUS
 62
           2
100
AcDbLine
 10
11094.030294407199
 20
-2452.933351822153
 11
11089.60164575855
 21
-2452.933351822153
  0
LINE
  5
209
100
AcDbEntity
  8
1
  6
CONTINUOUS
 62
           2
100
AcDbLine
 10
11098.50164575855
 20
-2470.533351822154
 11
11093.801645758551
 21
-2452.033351822154
  0
LINE
  5
208
100
AcDbEntity
  8
1
  6
CONTINUOUS
 62
           2
100
AcDbLine
 10
11098.50164575855
 20
-2470.533351822154
 11
11106.50164575855
 21
-2470.533351822154
  0
LINE
  5
207
100
AcDbEntity
  8
1
  6
CONTINUOUS
 62
           2
100
AcDbLine
 10
11106.50164575855
 20
-2452.119982048412
 11
11106.50164575855
 21
-2470.533351822154
  0
LINE
  5
206
100
AcDbEntity
  8
1
  6
CONTINUOUS
 62
           2
100
AcDbLine
 10
11089.60164575855
 20
-2428.133351822155
 11
11094.030294407199
 21
-2428.133351822155
  0
LINE
  5
205
100
AcDbEntity
  8
1
  6
CONTINUOUS
 62
           2
100
AcDbLine
 10
11089.60164575855
 20
-2427.633351822155
 11
11094.15732143423
 21
-2427.633351822155
  0
LINE
  5
204
100
AcDbEntity
  8
1
  6
CONTINUOUS
 62
           2
100
AcDbLine
 10
11093.801645758551
 20
-2429.033351822154
 11
11098.50164575855
 21
-2410.533351822154
  0
LINE
  5
203
100
AcDbEntity
  8
1
  6
CONTINUOUS
 62
           2
100
AcDbLine
 10
11098.50164575855
 20
-2410.533351822154
 11
11106.50164575855
 21
-2410.533351822154
  0
LINE
  5
202
100
AcDbEntity
  8
1
  6
CONTINUOUS
 62
           2
100
AcDbLine
 10
11088.00164575855
 20
-2469.533351822152
 11
11063.00164575855
 21
-2469.533351822153
  0
LINE
  5
201
100
AcDbEntity
  8
1
  6
CONTINUOUS
 62
           2
100
AcDbLine
 10
11063.00164575855
 20
-2469.533351822153
 11
11063.00164575855
 21
-2413.033351822153
  0
LINE
  5
200
100
AcDbEntity
  8
1
  6
CONTINUOUS
 62
           2
100
AcDbLine
 10
11063.00164575855
 20
-2413.033351822153
 11
11088.00164575855
 21
-2413.033351822154
  0
LINE
  5
1FF
100
AcDbEntity
  8
1
  6
CONTINUOUS
 62
           2
100
AcDbLine
 10
11088.00164575855
 20
-2469.533351822152
 11
11088.00164575855
 21
-2413.033351822154
  0
LINE
  5
1FE
100
AcDbEntity
  8
1
  6
CONTINUOUS
 62
           2
100
AcDbLine
 10
11106.50164575855
 20
-2410.533351822154
 11
11106.50164575855
 21
-2428.946721595897
  0
LINE
  5
1FD
100
AcDbEntity
  8
1
  6
CONTINUOUS
 62
           2
100
AcDbLine
 10
11093.801645758551
 20
-2452.033351822154
 11
11093.801645758551
 21
-2429.033351822154
  0
LINE
  5
1FC
100
AcDbEntity
  8
1
  6
CONTINUOUS
 62
           2
100
AcDbLine
 10
11089.60164575855
 20
-2452.933351822153
 11
11089.60164575855
 21
-2430.533351822154
  0
LINE
  5
1FB
100
AcDbEntity
  8
1
  6
CONTINUOUS
 62
           2
100
AcDbLine
 10
11089.60164575855
 20
-2427.633351822155
 11
11089.60164575855
 21
-2430.533351822154
  0
LINE
  5
1FA
100
AcDbEntity
  8
1
  6
DOT_CENTER
 62
           2
100
AcDbLine
 10
11056.000080582249
 20
-2440.533351822154
 11
11110.813524922951
 21
-2440.533351822154
  0
LINE
  5
1F9
100
AcDbEntity
  8
1
  6
CONTINUOUS
 62
           2
100
AcDbLine
 10
11075.50164575855
 20
-2414.149806790616
 11
11075.50164575855
 21
-2422.333563520363
  0
LINE
  5
1F8
100
AcDbEntity
  8
1
  6
CONTINUOUS
 62
           2
100
AcDbLine
 10
11075.50164575855
 20
-2460.233140123946
 11
11075.50164575855
 21
-2468.416896853692
  0
LINE
  5
1F7
100
AcDbEntity
  8
1
  6
DOT_CENTER
 62
           2
100
AcDbLine
 10
11075.50164575855
 20
-2409.320828440204
 11
11075.50164575855
 21
-2472.760931644925
  0
LINE
  5
1F6
100
AcDbEntity
  8
1
  6
CONTINUOUS
 62
           2
100
AcDbLine
 10
11093.10164575855
 20
-2426.533351822153
 11
11093.10164575855
 21
-2427.633351822155
  0
LINE
  5
1F5
100
AcDbEntity
  8
1
  6
CONTINUOUS
 62
           2
100
AcDbLine
 10
11088.00164575855
 20
-2426.533351822153
 11
11093.10164575855
 21
-2426.533351822153
  0
LINE
  5
1F4
100
AcDbEntity
  8
1
  6
CONTINUOUS
 62
           2
100
AcDbLine
 10
11088.00164575855
 20
-2431.533351822153
 11
11089.60164575855
 21
-2431.533351822153
  0
LINE
  5
1F3
100
AcDbEntity
  8
1
  6
DOT_CENTER
 62
           2
100
AcDbLine
 10
13864.647312122321
 20
-2472.760931644925
 11
13864.647312122321
 21
-2409.320828440204
  0
LINE
  5
1F2
100
AcDbEntity
  8
1
  6
CONTINUOUS
 62
           2
100
AcDbLine
 10
13864.647312122321
 20
-2422.333563520363
 11
13864.647312122321
 21
-2414.149806790616
  0
LINE
  5
1F1
100
AcDbEntity
  8
1
  6
CONTINUOUS
 62
           2
100
AcDbLine
 10
13852.147312122321
 20
-2413.033351822153
 11
13877.147312122321
 21
-2413.033351822154
  0
LINE
  5
1F0
100
AcDbEntity
  8
1
  6
CONTINUOUS
 62
           2
100
AcDbLine
 10
13875.497312122319
 20
-2402.693351822154
 11
13875.497312122319
 21
-2405.693351822154
  0
LINE
  5
1EF
100
AcDbEntity
  8
1
  6
CONTINUOUS
 62
           2
100
AcDbLine
 10
13853.79731212232
 20
-2402.693351822154
 11
13875.497312122319
 21
-2402.693351822154
  0
LINE
  5
1EE
100
AcDbEntity
  8
1
  6
CONTINUOUS
 62
           2
100
AcDbLine
 10
13875.497312122319
 20
-2405.693351822154
 11
13853.79731212232
 21
-2405.693351822154
  0
LINE
  5
1ED
100
AcDbEntity
  8
1
  6
CONTINUOUS
 62
           2
100
AcDbLine
 10
13853.79731212232
 20
-2402.693351822154
 11
13853.79731212232
 21
-2405.693351822154
  0
LINE
  5
1EC
100
AcDbEntity
  8
1
  6
CONTINUOUS
 62
           2
100
AcDbLine
 10
13853.79731212232
 20
-2402.693351822154
 11
13854.16981212232
 21
-2395.353351822154
  0
LINE
  5
1EB
100
AcDbEntity
  8
1
  6
CONTINUOUS
 62
           2
100
AcDbLine
 10
13875.497312122319
 20
-2402.693351822154
 11
13875.12481212232
 21
-2395.353351822154
  0
LINE
  5
1EA
100
AcDbEntity
  8
1
  6
CONTINUOUS
 62
           2
100
AcDbLine
 10
13875.12481212232
 20
-2413.033351822154
 11
13875.497312122319
 21
-2405.693351822154
  0
LINE
  5
1E9
100
AcDbEntity
  8
1
  6
CONTINUOUS
 62
           2
100
AcDbLine
 10
13854.16981212232
 20
-2413.033351822154
 11
13853.79731212232
 21
-2405.693351822154
  0
LINE
  5
1E8
100
AcDbEntity
  8
1
  6
CONTINUOUS
 62
           2
100
AcDbLine
 10
13851.44731212232
 20
-2395.353351822154
 11
13877.84731212232
 21
-2395.353351822154
  0
LINE
  5
1E7
100
AcDbEntity
  8
1
  6
CONTINUOUS
 62
           2
100
AcDbLine
 10
13879.081068852071
 20
-2468.41689685369
 11
13877.147312122321
 21
-2469.533351822153
  0
LINE
  5
1E6
100
AcDbEntity
  8
1
  6
CONTINUOUS
 62
           2
100
AcDbLine
 10
13852.147312122321
 20
-2469.533351822153
 11
13850.21355539258
 21
-2468.41689685369
  0
LINE
  5
1E5
100
AcDbEntity
  8
1
  6
CONTINUOUS
 62
           2
100
AcDbLine
 10
13879.081068852071
 20
-2468.41689685369
 11
13879.081068852071
 21
-2460.649806790619
  0
LINE
  5
1E4
100
AcDbEntity
  8
1
  6
CONTINUOUS
 62
           2
100
AcDbLine
 10
13877.147312122321
 20
-2469.533351822153
 11
13870.397312122321
 21
-2469.533351822153
  0
LINE
  5
1E3
100
AcDbEntity
  8
1
  6
CONTINUOUS
 62
           2
100
AcDbLine
 10
13850.21355539258
 20
-2468.41689685369
 11
13850.21355539258
 21
-2460.649806790619
  0
LINE
  5
1E2
100
AcDbEntity
  8
1
  6
CONTINUOUS
 62
           2
100
AcDbLine
 10
13871.8641904872
 20
-2468.41689685369
 11
13871.8641904872
 21
-2451.346152877694
  0
LINE
  5
1E1
100
AcDbEntity
  8
1
  6
CONTINUOUS
 62
           2
100
AcDbLine
 10
13857.43043375745
 20
-2468.41689685369
 11
13857.43043375745
 21
-2451.346152877694
  0
LINE
  5
1E0
100
AcDbEntity
  8
1
  6
CONTINUOUS
 62
           2
100
AcDbLine
 10
13877.147312122321
 20
-2413.033351822154
 11
13879.081068852071
 21
-2414.149806790616
  0
LINE
  5
1DF
100
AcDbEntity
  8
1
  6
CONTINUOUS
 62
           2
100
AcDbLine
 10
13850.21355539258
 20
-2414.149806790616
 11
13852.147312122321
 21
-2413.033351822153
  0
LINE
  5
1DE
100
AcDbEntity
  8
1
  6
CONTINUOUS
 62
           2
100
AcDbLine
 10
13879.081068852071
 20
-2414.149806790616
 11
13879.081068852071
 21
-2421.916896853693
  0
LINE
  5
1DD
100
AcDbEntity
  8
1
  6
CONTINUOUS
 62
           2
100
AcDbLine
 10
13852.147312122321
 20
-2413.033351822153
 11
13870.99347744491
 21
-2413.033351822153
  0
LINE
  5
1DC
100
AcDbEntity
  8
1
  6
CONTINUOUS
 62
           2
100
AcDbLine
 10
13850.21355539258
 20
-2414.149806790616
 11
13850.21355539258
 21
-2421.916896853693
  0
LINE
  5
1DB
100
AcDbEntity
  8
1
  6
CONTINUOUS
 62
           2
100
AcDbLine
 10
13871.8641904872
 20
-2414.149806790616
 11
13871.8641904872
 21
-2429.720550766615
  0
LINE
  5
1DA
100
AcDbEntity
  8
1
  6
CONTINUOUS
 62
           2
100
AcDbLine
 10
13857.43043375745
 20
-2414.149806790616
 11
13857.43043375745
 21
-2426.588609013343
  0
LINE
  5
1D9
100
AcDbEntity
  8
1
  6
CONTINUOUS
 62
           2
100
AcDbLine
 10
13879.081068852071
 20
-2421.916896853693
 11
13877.281068852069
 21
-2422.956127338233
  0
LINE
  5
1D8
100
AcDbEntity
  8
1
  6
CONTINUOUS
 62
           2
100
AcDbLine
 10
13852.013555392579
 20
-2422.95612733823
 11
13850.21355539258
 21
-2421.916896853693
  0
LINE
  5
1D7
100
AcDbEntity
  8
1
  6
CONTINUOUS
 62
           2
100
AcDbLine
 10
13850.21355539258
 20
-2460.649806790619
 11
13852.013555392579
 21
-2459.610576306079
  0
LINE
  5
1D6
100
AcDbEntity
  8
1
  6
CONTINUOUS
 62
           2
100
AcDbLine
 10
13877.281068852069
 20
-2459.610576306079
 11
13879.081068852071
 21
-2460.649806790619
  0
LINE
  5
1D5
100
AcDbEntity
  8
1
  6
CONTINUOUS
 62
           2
100
AcDbLine
 10
13852.013555392579
 20
-2422.95612733823
 11
13852.013555392579
 21
-2432.183351822153
  0
LINE
  5
1D4
100
AcDbEntity
  8
1
  6
CONTINUOUS
 62
           2
100
AcDbLine
 10
13877.281068852069
 20
-2459.610576306079
 11
13877.281068852069
 21
-2445.983351822153
  0
LINE
  5
1D3
100
AcDbEntity
  8
1
  6
CONTINUOUS
 62
           2
100
AcDbLine
 10
13852.013555392579
 20
-2432.183351822153
 11
13853.147312122321
 21
-2433.583351822155
  0
LINE
  5
1D2
100
AcDbEntity
  8
1
  6
CONTINUOUS
 62
           2
100
AcDbLine
 10
13852.013555392579
 20
-2445.983351822153
 11
13852.557385856249
 21
-2445.311812126581
  0
LINE
  5
1D1
100
AcDbEntity
  8
1
  6
CONTINUOUS
 62
           2
100
AcDbLine
 10
13876.147312122321
 20
-2433.583351822155
 11
13877.281068852069
 21
-2432.183351822153
  0
LINE
  5
1D0
100
AcDbEntity
  8
1
  6
CONTINUOUS
 62
           2
100
AcDbLine
 10
13877.281068852069
 20
-2432.183351822153
 11
13877.281068852069
 21
-2422.956127338233
  0
LINE
  5
1CF
100
AcDbEntity
  8
1
  6
CONTINUOUS
 62
           2
100
AcDbLine
 10
13852.013555392579
 20
-2445.983351822153
 11
13852.013555392579
 21
-2459.610576306079
  0
LINE
  5
1CE
100
AcDbEntity
  8
1
  6
CONTINUOUS
 62
           2
100
AcDbLine
 10
13894.647312122321
 20
-2434.783351822154
 11
13894.647312122321
 21
-2446.283351822154
  0
LINE
  5
1CD
100
AcDbEntity
  8
1
  6
CONTINUOUS
 62
           2
100
AcDbLine
 10
13834.647312122321
 20
-2434.783351822154
 11
13834.647312122321
 21
-2446.283351822154
  0
LINE
  5
1CC
100
AcDbEntity
  8
1
  6
CONTINUOUS
 62
           2
100
AcDbLine
 10
13876.73723838839
 20
-2445.311812126584
 11
13877.281068852069
 21
-2445.983351822153
  0
LINE
  5
1CB
100
AcDbEntity
  8
1
  6
CONTINUOUS
 62
           2
100
AcDbLine
 10
13876.147312122321
 20
-2434.471173995663
 11
13876.147312122321
 21
-2433.583351822155
  0
LINE
  5
1CA
100
AcDbEntity
  8
1
  6
CONTINUOUS
 62
           2
100
AcDbLine
 10
13875.63355351782
 20
-2433.583351822155
 11
13876.147312122321
 21
-2433.583351822155
  0
LINE
  5
1C9
100
AcDbEntity
  8
1
  6
CONTINUOUS
 62
           2
100
AcDbLine
 10
13853.147312122321
 20
-2434.471173995663
 11
13853.147312122321
 21
-2433.583351822155
  0
LINE
  5
1C8
100
AcDbEntity
  8
1
  6
CONTINUOUS
 62
           2
100
AcDbLine
 10
13894.647312122321
 20
-2434.783351822154
 11
13877.49011166136
 21
-2434.783351822154
  0
LINE
  5
1C7
100
AcDbEntity
  8
1
  6
CONTINUOUS
 62
           2
100
AcDbLine
 10
13894.647312122321
 20
-2446.283351822154
 11
13877.49011166136
 21
-2446.283351822154
  0
LINE
  5
1C6
100
AcDbEntity
  8
1
  6
CONTINUOUS
 62
           2
100
AcDbLine
 10
13851.80451258328
 20
-2446.283351822154
 11
13834.647312122321
 21
-2446.283351822154
  0
LINE
  5
1C5
100
AcDbEntity
  8
1
  6
CONTINUOUS
 62
           2
100
AcDbLine
 10
13834.647312122321
 20
-2434.783351822154
 11
13851.80451258328
 21
-2434.783351822154
  0
LINE
  5
1C4
100
AcDbEntity
  8
1
  6
CONTINUOUS
 62
           2
100
AcDbLine
 10
13853.147312122321
 20
-2433.583351822155
 11
13853.66177473364
 21
-2433.583351822155
  0
LINE
  5
1C3
100
AcDbEntity
  8
1
  6
CONTINUOUS
 62
           2
100
AcDbLine
 10
13870.397312122321
 20
-2413.033351822153
 11
13877.147312122321
 21
-2413.033351822154
  0
LINE
  5
1C2
100
AcDbEntity
  8
1
  6
CONTINUOUS
 62
           2
100
AcDbLine
 10
13871.40625644293
 20
-2469.533351822154
 11
13852.147312122321
 21
-2469.533351822153
  0
LINE
  5
1C1
100
AcDbEntity
  8
1
  6
CONTINUOUS
 62
           2
100
AcDbLine
 10
13861.18321050719
 20
-2446.533351822154
 11
13868.111413737461
 21
-2446.533351822154
  0
LINE
  5
1C0
100
AcDbEntity
  8
1
  6
CONTINUOUS
 62
           2
100
AcDbLine
 10
13868.111413737461
 20
-2446.533351822154
 11
13871.575515352601
 21
-2440.533351822154
  0
LINE
  5
1BF
100
AcDbEntity
  8
1
  6
CONTINUOUS
 62
           2
100
AcDbLine
 10
13871.575515352601
 20
-2440.533351822154
 11
13868.111413737461
 21
-2434.533351822154
  0
LINE
  5
1BE
100
AcDbEntity
  8
1
  6
CONTINUOUS
 62
           2
100
AcDbLine
 10
13868.111413737461
 20
-2434.533351822154
 11
13861.18321050719
 21
-2434.533351822154
  0
LINE
  5
1BD
100
AcDbEntity
  8
1
  6
CONTINUOUS
 62
           2
100
AcDbLine
 10
13861.18321050719
 20
-2434.533351822154
 11
13857.71910889205
 21
-2440.533351822154
  0
LINE
  5
1BC
100
AcDbEntity
  8
1
  6
CONTINUOUS
 62
           2
100
AcDbLine
 10
13857.71910889205
 20
-2440.533351822154
 11
13861.18321050719
 21
-2446.533351822154
  0
LINE
  5
1BB
100
AcDbEntity
  8
1
  6
DOT_CENTER
 62
           2
100
AcDbLine
 10
13864.647312122321
 20
-2474.471554738233
 11
13864.647312122321
 21
-2406.965294964363
  0
LINE
  5
1BA
100
AcDbEntity
  8
1
  6
DOT_CENTER
 62
           2
100
AcDbLine
 10
13830.14640215884
 20
-2440.533351822154
 11
13899.93883437082
 21
-2440.533351822154
  0
LINE
  5
1B9
100
AcDbEntity
  8
1
  6
CONTINUOUS
 62
           2
100
AcDbLine
 10
13857.897312122321
 20
-2426.533351822153
 11
13858.897312122321
 21
-2426.533351822153
  0
LINE
  5
1B8
100
AcDbEntity
  8
1
  6
CONTINUOUS
 62
           2
100
AcDbLine
 10
13855.897312122321
 20
-2428.533351822153
 11
13855.897312122321
 21
-2430.918909560639
  0
LINE
  5
1B7
100
AcDbEntity
  8
1
  6
CONTINUOUS
 62
           2
100
AcDbLine
 10
13864.647312122321
 20
-2433.033351822154
 11
13856.42555225863
 21
-2433.033351822154
  0
LINE
  5
1B6
100
AcDbEntity
  8
1
  6
CONTINUOUS
 62
           2
100
AcDbLine
 10
13872.147312122321
 20
-2440.533351822154
 11
13875.747312122319
 21
-2440.533351822154
  0
LINE
  5
1B5
100
AcDbEntity
  8
1
  6
CONTINUOUS
 62
           2
100
AcDbLine
 10
13862.147312122321
 20
-2443.123718591553
 11
13862.147312122321
 21
-2437.942985052758
  0
LINE
  5
1B4
100
AcDbEntity
  8
1
  6
CONTINUOUS
 62
           2
100
AcDbLine
 10
13867.147312122321
 20
-2443.123718591553
 11
13867.147312122321
 21
-2437.942985052758
  0
LINE
  5
1B3
100
AcDbEntity
  8
1
  6
CONTINUOUS
 62
           2
100
AcDbLine
 10
10478.96338963649
 20
-1105.981024963737
 11
10487.49356463649
 21
-1105.981024963737
  0
LINE
  5
1B2
100
AcDbEntity
  8
1
  6
CONTINUOUS
 62
           2
100
AcDbLine
 10
10478.96338963649
 20
-1108.654624963737
 11
10486.554014636489
 21
-1108.654624963737
  0
LINE
  5
1B1
100
AcDbEntity
  8
1
  6
CONTINUOUS
 62
           2
100
AcDbLine
 10
10487.49356463649
 20
-1105.981024963737
 11
10486.554014636489
 21
-1108.654624963737
  0
LINE
  5
1B0
100
AcDbEntity
  8
1
  6
CONTINUOUS
 62
           2
100
AcDbLine
 10
10487.49356463649
 20
-1105.981024963737
 11
10487.61338963649
 21
-1102.146624963736
  0
LINE
  5
1AF
100
AcDbEntity
  8
1
  6
CONTINUOUS
 62
           2
100
AcDbLine
 10
10470.43321463649
 20
-1105.981024963737
 11
10470.313389636491
 21
-1102.146624963737
  0
LINE
  5
1AE
100
AcDbEntity
  8
1
  6
CONTINUOUS
 62
           2
100
AcDbLine
 10
10471.37276463649
 20
-1108.654624963737
 11
10470.43321463649
 21
-1105.981024963737
  0
LINE
  5
1AD
100
AcDbEntity
  8
1
  6
CONTINUOUS
 62
           2
100
AcDbLine
 10
10470.63238963649
 20
-1112.354624963737
 11
10470.43321463649
 21
-1105.981024963737
  0
LINE
  5
1AC
100
AcDbEntity
  8
1
  6
CONTINUOUS
 62
           2
100
AcDbLine
 10
10471.48838963649
 20
-1112.354624963737
 11
10471.37276463649
 21
-1108.654624963737
  0
LINE
  5
1AB
100
AcDbEntity
  8
1
  6
CONTINUOUS
 62
           2
100
AcDbLine
 10
10486.438389636491
 20
-1112.354624963737
 11
10486.554014636489
 21
-1108.654624963737
  0
LINE
  5
1AA
100
AcDbEntity
  8
1
  6
CONTINUOUS
 62
           2
100
AcDbLine
 10
10487.29438963649
 20
-1112.354624963737
 11
10487.49356463649
 21
-1105.981024963737
  0
LINE
  5
1A9
100
AcDbEntity
  8
1
  6
CONTINUOUS
 62
           2
100
AcDbLine
 10
10471.37276463649
 20
-1108.654624963737
 11
10478.96338963649
 21
-1108.654624963737
  0
LINE
  5
1A8
100
AcDbEntity
  8
1
  6
CONTINUOUS
 62
           2
100
AcDbLine
 10
10470.43321463649
 20
-1105.981024963737
 11
10478.96338963649
 21
-1105.981024963737
  0
LINE
  5
1A7
100
AcDbEntity
  8
1
  6
CONTINUOUS
 62
           2
100
AcDbLine
 10
10470.268327136489
 20
-1100.704624963737
 11
10470.313389636491
 21
-1102.146624963737
  0
LINE
  5
1A6
100
AcDbEntity
  8
1
  6
CONTINUOUS
 62
           2
100
AcDbLine
 10
10470.268327136489
 20
-1100.704624963737
 11
10487.658452136489
 21
-1100.704624963737
  0
LINE
  5
1A5
100
AcDbEntity
  8
1
  6
CONTINUOUS
 62
           2
100
AcDbLine
 10
10487.658452136489
 20
-1100.704624963737
 11
10487.61338963649
 21
-1102.146624963736
  0
LINE
  5
1A4
100
AcDbEntity
  8
1
  6
CONTINUOUS
 62
           7
100
AcDbLine
 10
10485.96338963649
 20
-1088.704624963737
 11
10485.96338963649
 21
-1100.704624963737
  0
LINE
  5
1A3
100
AcDbEntity
  8
1
  6
CONTINUOUS
 62
           7
100
AcDbLine
 10
10471.96338963649
 20
-1088.704624963737
 11
10471.96338963649
 21
-1100.704624963737
  0
LINE
  5
1A2
100
AcDbEntity
  8
1
  6
CONTINUOUS
 62
           7
100
AcDbLine
 10
10485.96338963649
 20
-1088.704624963737
 11
10487.96338963649
 21
-1088.704624963737
  0
LINE
  5
1A1
100
AcDbEntity
  8
1
  6
CONTINUOUS
 62
           7
100
AcDbLine
 10
10487.96338963649
 20
-1086.673104554959
 11
10487.96338963649
 21
-1088.704624963737
  0
LINE
  5
1A0
100
AcDbEntity
  8
1
  6
CONTINUOUS
 62
           7
100
AcDbLine
 10
10469.96338963649
 20
-1086.673104554959
 11
10469.96338963649
 21
-1088.704624963737
  0
LINE
  5
19F
100
AcDbEntity
  8
1
  6
CONTINUOUS
 62
           7
100
AcDbLine
 10
10469.955518309131
 20
-1088.704624963737
 11
10471.96338963649
 21
-1088.704624963737
  0
LINE
  5
19E
100
AcDbEntity
  8
1
  6
DOT_CENTER
 62
           2
100
AcDbLine
 10
10441.223687897909
 20
-1070.493651921643
 11
10447.156163723481
 21
-1067.068535406789
  0
LINE
  5
19D
100
AcDbEntity
  8
1
  6
DOT_CENTER
 62
           2
100
AcDbLine
 10
10511.00438153404
 20
-1067.20350026089
 11
10516.66025033298
 21
-1070.468917634464
  0
LINE
  5
19C
100
AcDbEntity
  8
1
  6
CONTINUOUS
 62
           7
100
AcDbLine
 10
10512.451762677891
 20
-1071.156837607539
 11
10511.328897293981
 21
-1070.508550975874
  0
LINE
  5
19B
100
AcDbEntity
  8
1
  6
CONTINUOUS
 62
           7
100
AcDbLine
 10
10442.731145003951
 20
-1066.505629702055
 11
10443.859191420401
 21
-1065.854351799858
  0
LINE
  5
19A
100
AcDbEntity
  8
1
  6
CONTINUOUS
 62
           7
100
AcDbLine
 10
10515.15176267789
 20
-1066.480300427103
 11
10514.02553234755
 21
-1065.83007104271
  0
LINE
  5
199
100
AcDbEntity
  8
1
  6
CONTINUOUS
 62
           7
100
AcDbLine
 10
10445.431145003949
 20
-1071.18216688249
 11
10446.565403764331
 21
-1070.52730228185
  0
LINE
  5
198
100
AcDbEntity
  8
1
  6
CONTINUOUS
 62
           7
100
AcDbLine
 10
10515.15176267789
 20
-1066.480300427103
 11
10512.451762677891
 21
-1071.156837607539
  0
LINE
  5
197
100
AcDbEntity
  8
1
  6
CONTINUOUS
 62
           7
100
AcDbLine
 10
10445.431145003949
 20
-1071.18216688249
 11
10442.731145003951
 21
-1066.505629702055
  0
LINE
  5
196
100
AcDbEntity
  8
1
  6
CONTINUOUS
 62
           7
100
AcDbLine
 10
10481.66338963648
 20
-1008.426078306668
 11
10481.66338963648
 21
-1009.72265157
  0
LINE
  5
195
100
AcDbEntity
  8
1
  6
CONTINUOUS
 62
           7
100
AcDbLine
 10
10476.26338963649
 20
-1008.426078306668
 11
10481.66338963648
 21
-1008.426078306668
  0
LINE
  5
194
100
AcDbEntity
  8
1
  6
CONTINUOUS
 62
           7
100
AcDbLine
 10
10476.26338963649
 20
-1009.716489977121
 11
10476.26338963649
 21
-1008.426078306668
  0
LINE
  5
193
100
AcDbEntity
  8
1
  6
CONTINUOUS
 62
           7
100
AcDbLine
 10
10458.56940835617
 20
-1068.744475334572
 11
10454.428787838589
 21
-1072.885095852149
  0
LINE
  5
192
100
AcDbEntity
  8
1
  6
CONTINUOUS
 62
           7
100
AcDbLine
 10
10499.183389815629
 20
-1068.925442561441
 11
10503.32480053266
 21
-1073.066853278473
  0
LINE
  5
191
100
AcDbEntity
  8
1
  6
CONTINUOUS
 62
           7
100
AcDbLine
 10
10475.601745700351
 20
-1050.023515976448
 11
10457.57574275045
 21
-1069.534106428352
  0
LINE
  5
190
100
AcDbEntity
  8
1
  6
CONTINUOUS
 62
           7
100
AcDbLine
 10
10477.644498623769
 20
-1052.066268899876
 11
10457.77977726238
 21
-1069.738140940291
  0
LINE
  5
18F
100
AcDbEntity
  8
1
  6
DOT_CENTER
 62
           2
100
AcDbLine
 10
10433.326196194619
 20
-1048.704624963737
 11
10526.74295770223
 21
-1048.704624963737
  0
LINE
  5
18E
100
AcDbEntity
  8
1
  6
DOT_CENTER
 62
           2
100
AcDbLine
 10
10478.96338963649
 20
-1002.53979129102
 11
10478.96338963649
 21
-1057.425424137333
  0
LINE
  5
18D
100
AcDbEntity
  8
1
  6
CONTINUOUS
 62
           2
100
AcDbLine
 10
10479.00260741129
 20
-1059.095621585374
 11
10478.96338963649
 21
-1061.342406399142
  0
LINE
  5
18C
100
AcDbEntity
  8
1
  6
CONTINUOUS
 62
           2
100
AcDbLine
 10
10478.96338963649
 20
-1061.342406399142
 11
10478.924171861679
 21
-1059.095621585374
  0
LINE
  5
18B
100
AcDbEntity
  8
1
  6
DOT_CENTER
 62
           2
100
AcDbLine
 10
10478.96338963649
 20
-1059.672551199437
 11
10478.96338963649
 21
-1147.216729714383
  0
LINE
  5
18A
100
AcDbEntity
  8
1
  6
CONTINUOUS
 62
           2
100
AcDbLine
 10
10478.96338963649
 20
-1061.342406399142
 11
10477.037225798331
 21
-1062.499762395289
  0
LINE
  5
189
100
AcDbEntity
  8
1
  6
CONTINUOUS
 62
           2
100
AcDbLine
 10
10476.99800802352
 20
-1062.431835216768
 11
10478.96338963649
 21
-1061.342406399142
  0
LINE
  5
188
100
AcDbEntity
  8
1
  6
CONTINUOUS
 62
           2
100
AcDbLine
 10
10478.96338963649
 20
-1061.342406399142
 11
10480.92877124945
 21
-1062.431835216768
  0
LINE
  5
187
100
AcDbEntity
  8
1
  6
CONTINUOUS
 62
           2
100
AcDbLine
 10
10480.889553474641
 20
-1062.499762395289
 11
10478.96338963649
 21
-1061.342406399142
  0
LINE
  5
186
100
AcDbEntity
  8
1
  6
CONTINUOUS
 62
           2
100
AcDbLine
 10
10470.63238963649
 20
-1158.352078680571
 11
10470.424577136489
 21
-1165.002078680572
  0
LINE
  5
185
100
AcDbEntity
  8
1
  6
CONTINUOUS
 62
           2
100
AcDbLine
 10
10487.29438963649
 20
-1158.352078680571
 11
10487.502202136489
 21
-1165.002078680572
  0
LINE
  5
184
100
AcDbEntity
  8
1
  6
CONTINUOUS
 62
           2
100
AcDbLine
 10
10484.96338963649
 20
-1165.002078680572
 11
10484.96338963649
 21
-1174.002078680572
  0
LINE
  5
183
100
AcDbEntity
  8
1
  6
CONTINUOUS
 62
           2
100
AcDbLine
 10
10484.96338963649
 20
-1174.002078680572
 11
10472.96338963649
 21
-1174.002078680572
  0
LINE
  5
182
100
AcDbEntity
  8
1
  6
CONTINUOUS
 62
           2
100
AcDbLine
 10
10472.96338963649
 20
-1174.002078680572
 11
10472.96338963649
 21
-1165.002078680572
  0
LINE
  5
181
100
AcDbEntity
  8
1
  6
DOT_CENTER
 62
           2
100
AcDbLine
 10
10478.96338963649
 20
-1177.896456681057
 11
10478.96338963649
 21
-1147.216729714383
  0
LINE
  5
180
100
AcDbEntity
  8
1
  6
CONTINUOUS
 62
           2
100
AcDbLine
 10
10487.502202136489
 20
-1165.002078680572
 11
10470.424577136489
 21
-1165.002078680572
  0
LINE
  5
17F
100
AcDbEntity
  8
1
  6
DOT_CENTER
 62
           2
100
AcDbLine
 10
10475.25852319192
 20
-1135.353351822154
 11
11616.35695515125
 21
-1135.353351822154
  0
LINE
  5
17E
100
AcDbEntity
  8
1
  6
DOT_CENTER
 62
           2
100
AcDbLine
 10
11093.643378483741
 20
-1008.133351822155
 11
11152.39176922092
 21
-1008.133351822155
  0
LINE
  5
17D
100
AcDbEntity
  8
1
  6
CONTINUOUS
 62
           2
100
AcDbLine
 10
11091.00164575855
 20
-906.633351822155
 11
11094.00164575855
 21
-908.365402629723
  0
LINE
  5
17C
100
AcDbEntity
  8
1
  6
CONTINUOUS
 62
           2
100
AcDbLine
 10
11094.00164575855
 20
-908.365402629723
 11
11094.00164575855
 21
-914.633351822155
  0
LINE
  5
17B
100
AcDbEntity
  8
1
  6
CONTINUOUS
 62
           2
100
AcDbLine
 10
11094.00164575855
 20
-914.633351822155
 11
11057.00164575855
 21
-914.633351822155
  0
LINE
  5
17A
100
AcDbEntity
  8
1
  6
CONTINUOUS
 62
           2
100
AcDbLine
 10
11057.00164575855
 20
-914.633351822155
 11
11057.00164575855
 21
-908.365402629723
  0
LINE
  5
179
100
AcDbEntity
  8
1
  6
CONTINUOUS
 62
           2
100
AcDbLine
 10
11057.00164575855
 20
-908.365402629723
 11
11060.00164575855
 21
-906.633351822155
  0
LINE
  5
178
100
AcDbEntity
  8
1
  6
CONTINUOUS
 62
           2
100
AcDbLine
 10
11060.00164575855
 20
-906.633351822155
 11
11091.00164575855
 21
-906.633351822155
  0
LINE
  5
177
100
AcDbEntity
  8
1
  6
CONTINUOUS
 62
           2
100
AcDbLine
 10
11090.50164575855
 20
-898.133351822155
 11
11090.50164575855
 21
-906.643650696806
  0
LINE
  5
176
100
AcDbEntity
  8
1
  6
CONTINUOUS
 62
           2
100
AcDbLine
 10
11060.50164575855
 20
-898.133351822155
 11
11060.50164575855
 21
-906.633351822155
  0
LINE
  5
175
100
AcDbEntity
  8
1
  6
CONTINUOUS
 62
           2
100
AcDbLine
 10
11084.75164575855
 20
-908.365402629723
 11
11084.75164575855
 21
-914.633351822155
  0
LINE
  5
174
100
AcDbEntity
  8
1
  6
CONTINUOUS
 62
           2
100
AcDbLine
 10
11066.25164575855
 20
-908.365402629723
 11
11066.25164575855
 21
-914.633351822155
  0
LINE
  5
173
100
AcDbEntity
  8
1
  6
CONTINUOUS
 62
           2
100
AcDbLine
 10
11095.50164575855
 20
-915.633351822155
 11
11095.50164575855
 21
-917.633351822155
  0
LINE
  5
172
100
AcDbEntity
  8
1
  6
CONTINUOUS
 62
           2
100
AcDbLine
 10
11056.50164575855
 20
-914.633351822155
 11
11094.50164575855
 21
-914.633351822155
  0
LINE
  5
171
100
AcDbEntity
  8
1
  6
CONTINUOUS
 62
           2
100
AcDbLine
 10
11055.50164575855
 20
-915.633351822155
 11
11055.50164575855
 21
-917.633351822155
  0
LINE
  5
170
100
AcDbEntity
  8
1
  6
CONTINUOUS
 62
           2
100
AcDbLine
 10
11102.00164575855
 20
-966.231428033507
 11
11102.00164575855
 21
-973.633351822155
  0
LINE
  5
16F
100
AcDbEntity
  8
1
  6
CONTINUOUS
 62
           2
100
AcDbLine
 10
11102.00164575855
 20
-973.633351822155
 11
11049.00164575855
 21
-973.633351822155
  0
LINE
  5
16E
100
AcDbEntity
  8
1
  6
CONTINUOUS
 62
           2
100
AcDbLine
 10
11049.00164575855
 20
-973.633351822155
 11
11049.00164575855
 21
-966.231428033507
  0
LINE
  5
16D
100
AcDbEntity
  8
1
  6
CONTINUOUS
 62
           2
100
AcDbLine
 10
11088.75164575855
 20
-966.231428033507
 11
11088.75164575855
 21
-973.633351822155
  0
LINE
  5
16C
100
AcDbEntity
  8
1
  6
CONTINUOUS
 62
           2
100
AcDbLine
 10
11062.25164575855
 20
-966.231428033507
 11
11062.25164575855
 21
-973.633351822155
  0
LINE
  5
16B
100
AcDbEntity
  8
1
  6
CONTINUOUS
 62
           2
100
AcDbLine
 10
11050.50164575855
 20
-965.365402629723
 11
11050.50164575855
 21
-921.633351822155
  0
LINE
  5
16A
100
AcDbEntity
  8
1
  6
CONTINUOUS
 62
           2
100
AcDbLine
 10
11100.50164575855
 20
-965.365402629723
 11
11100.50164575855
 21
-921.633351822155
  0
LINE
  5
169
100
AcDbEntity
  8
1
  6
CONTINUOUS
 62
           2
100
AcDbLine
 10
11052.50164575855
 20
-919.633351822155
 11
11053.50164575855
 21
-919.633351822155
  0
LINE
  5
168
100
AcDbEntity
  8
1
  6
CONTINUOUS
 62
           2
100
AcDbLine
 10
11098.50164575855
 20
-919.633351822155
 11
11097.50164575855
 21
-919.633351822155
  0
LINE
  5
167
100
AcDbEntity
  8
1
  6
CONTINUOUS
 62
           2
100
AcDbLine
 10
11053.50164575855
 20
-919.633351822155
 11
11055.50164575855
 21
-919.633351822155
  0
LINE
  5
166
100
AcDbEntity
  8
1
  6
CONTINUOUS
 62
           2
100
AcDbLine
 10
11095.50164575855
 20
-919.633351822155
 11
11055.50164575855
 21
-919.633351822155
  0
LINE
  5
165
100
AcDbEntity
  8
1
  6
CONTINUOUS
 62
           2
100
AcDbLine
 10
11097.50164575855
 20
-919.633351822155
 11
11095.50164575855
 21
-919.633351822155
  0
LINE
  5
164
100
AcDbEntity
  8
1
  6
CONTINUOUS
 62
           2
100
AcDbLine
 10
11097.50164575855
 20
-963.633351822155
 11
11102.00164575855
 21
-966.231428033507
  0
LINE
  5
163
100
AcDbEntity
  8
1
  6
CONTINUOUS
 62
           2
100
AcDbLine
 10
11097.50164575855
 20
-963.633351822155
 11
11053.50164575855
 21
-963.633351822155
  0
LINE
  5
162
100
AcDbEntity
  8
1
  6
CONTINUOUS
 62
           2
100
AcDbLine
 10
11053.50164575855
 20
-963.633351822155
 11
11049.00164575855
 21
-966.231428033507
  0
LINE
  5
161
100
AcDbEntity
  8
1
  6
CONTINUOUS
 62
           2
100
AcDbLine
 10
11049.00164575855
 20
-973.633351822155
 11
11040.50164575855
 21
-973.633351822155
  0
LINE
  5
160
100
AcDbEntity
  8
1
  6
CONTINUOUS
 62
           2
100
AcDbLine
 10
11035.50164575855
 20
-978.633351822155
 11
11035.50164575855
 21
-1032.133351822155
  0
LINE
  5
15F
100
AcDbEntity
  8
1
  6
CONTINUOUS
 62
           2
100
AcDbLine
 10
11115.50164575855
 20
-1037.133351822155
 11
11040.50164575855
 21
-1037.133351822155
  0
LINE
  5
15E
100
AcDbEntity
  8
1
  6
CONTINUOUS
 62
           2
100
AcDbLine
 10
11115.50164575855
 20
-1037.133351822155
 11
11115.50164575855
 21
-1036.633351822155
  0
LINE
  5
15D
100
AcDbEntity
  8
1
  6
CONTINUOUS
 62
           2
100
AcDbLine
 10
11116.50164575855
 20
-1035.633351822155
 11
11121.50164575855
 21
-1035.633351822155
  0
LINE
  5
15C
100
AcDbEntity
  8
1
  6
CONTINUOUS
 62
           2
100
AcDbLine
 10
11122.50164575855
 20
-1037.133351822155
 11
11122.50164575855
 21
-1036.633351822155
  0
LINE
  5
15B
100
AcDbEntity
  8
1
  6
CONTINUOUS
 62
           2
100
AcDbLine
 10
11122.50164575855
 20
-1037.133351822155
 11
11127.50164575855
 21
-1037.133351822155
  0
LINE
  5
15A
100
AcDbEntity
  8
1
  6
CONTINUOUS
 62
           2
100
AcDbLine
 10
11127.50164575855
 20
-1037.133351822155
 11
11127.50164575855
 21
-979.133351822155
  0
LINE
  5
159
100
AcDbEntity
  8
1
  6
CONTINUOUS
 62
           2
100
AcDbLine
 10
11127.50164575855
 20
-979.133351822155
 11
11122.50164575855
 21
-979.133351822155
  0
LINE
  5
158
100
AcDbEntity
  8
1
  6
CONTINUOUS
 62
           2
100
AcDbLine
 10
11122.50164575855
 20
-979.133351822155
 11
11122.50164575855
 21
-979.633351822155
  0
LINE
  5
157
100
AcDbEntity
  8
1
  6
CONTINUOUS
 62
           2
100
AcDbLine
 10
11116.50164575855
 20
-980.633351822155
 11
11121.50164575855
 21
-980.633351822155
  0
LINE
  5
156
100
AcDbEntity
  8
1
  6
CONTINUOUS
 62
           2
100
AcDbLine
 10
11115.50164575855
 20
-978.633351822155
 11
11115.50164575855
 21
-979.633351822155
  0
LINE
  5
155
100
AcDbEntity
  8
1
  6
CONTINUOUS
 62
           2
100
AcDbLine
 10
11102.00164575855
 20
-973.633351822155
 11
11110.50164575855
 21
-973.633351822155
  0
LINE
  5
154
100
AcDbEntity
  8
1
  6
CONTINUOUS
 62
           2
100
AcDbLine
 10
11096.50164575855
 20
-1063.133351822155
 11
11054.50164575855
 21
-1063.133351822155
  0
LINE
  5
153
100
AcDbEntity
  8
1
  6
CONTINUOUS
 62
           2
100
AcDbLine
 10
11110.50164575855
 20
-1037.133351822155
 11
11040.50164575855
 21
-1037.133351822155
  0
LINE
  5
152
100
AcDbEntity
  8
1
  6
CONTINUOUS
 62
           2
100
AcDbLine
 10
11106.00164575855
 20
-1048.133351822155
 11
11045.00164575855
 21
-1048.133351822155
  0
LINE
  5
151
100
AcDbEntity
  8
1
  6
CONTINUOUS
 62
           2
100
AcDbLine
 10
11045.00164575855
 20
-1048.133351822155
 11
11045.00164575855
 21
-1060.823950745395
  0
LINE
  5
150
100
AcDbEntity
  8
1
  6
CONTINUOUS
 62
           2
100
AcDbLine
 10
11107.50164575855
 20
-1048.133351822155
 11
11043.50164575855
 21
-1048.133351822155
  0
LINE
  5
14F
100
AcDbEntity
  8
1
  6
CONTINUOUS
 62
           2
100
AcDbLine
 10
11110.50164575855
 20
-1037.133351822155
 11
11040.50164575855
 21
-1037.133351822155
  0
LINE
  5
14E
100
AcDbEntity
  8
1
  6
CONTINUOUS
 62
           2
100
AcDbLine
 10
11049.00164575855
 20
-1063.133351822155
 11
11102.00164575855
 21
-1063.133351822155
  0
LINE
  5
14D
100
AcDbEntity
  8
1
  6
CONTINUOUS
 62
           2
100
AcDbLine
 10
11106.00164575855
 20
-1060.823950745395
 11
11106.00164575855
 21
-1048.133351822155
  0
LINE
  5
14C
100
AcDbEntity
  8
1
  6
CONTINUOUS
 62
           2
100
AcDbLine
 10
11106.00164575855
 20
-1060.823950745395
 11
11102.00164575855
 21
-1063.133351822155
  0
LINE
  5
14B
100
AcDbEntity
  8
1
  6
CONTINUOUS
 62
           2
100
AcDbLine
 10
11045.00164575855
 20
-1060.823950745395
 11
11049.00164575855
 21
-1063.133351822155
  0
LINE
  5
14A
100
AcDbEntity
  8
1
  6
CONTINUOUS
 62
           2
100
AcDbLine
 10
11090.75164575855
 20
-1060.823950745395
 11
11090.75164575855
 21
-1048.133351822155
  0
LINE
  5
149
100
AcDbEntity
  8
1
  6
CONTINUOUS
 62
           2
100
AcDbLine
 10
11060.25164575855
 20
-1060.823950745395
 11
11060.25164575855
 21
-1048.133351822155
  0
LINE
  5
148
100
AcDbEntity
  8
1
  6
CONTINUOUS
 62
           2
100
AcDbLine
 10
11122.50164575855
 20
-979.774596830126
 11
11122.50164575855
 21
-1037.133351822155
  0
LINE
  5
147
100
AcDbEntity
  8
1
  6
CONTINUOUS
 62
           2
100
AcDbLine
 10
13275.303909062121
 20
-1060.823950745395
 11
13275.303909062121
 21
-1048.133351822155
  0
LINE
  5
146
100
AcDbEntity
  8
1
  6
CONTINUOUS
 62
           2
100
AcDbLine
 10
13305.803909062121
 20
-1060.823950745395
 11
13305.803909062121
 21
-1048.133351822155
  0
LINE
  5
145
100
AcDbEntity
  8
1
  6
CONTINUOUS
 62
           2
100
AcDbLine
 10
13260.053909062121
 20
-1060.823950745395
 11
13264.053909062121
 21
-1063.133351822155
  0
LINE
  5
144
100
AcDbEntity
  8
1
  6
CONTINUOUS
 62
           2
100
AcDbLine
 10
13321.053909062121
 20
-1060.823950745395
 11
13317.053909062121
 21
-1063.133351822155
  0
LINE
  5
143
100
AcDbEntity
  8
1
  6
CONTINUOUS
 62
           2
100
AcDbLine
 10
13321.053909062121
 20
-1060.823950745395
 11
13321.053909062121
 21
-1048.133351822155
  0
LINE
  5
142
100
AcDbEntity
  8
1
  6
CONTINUOUS
 62
           2
100
AcDbLine
 10
13264.053909062121
 20
-1063.133351822155
 11
13317.053909062121
 21
-1063.133351822155
  0
LINE
  5
141
100
AcDbEntity
  8
1
  6
CONTINUOUS
 62
           2
100
AcDbLine
 10
13325.553909062121
 20
-1037.133351822155
 11
13255.553909062121
 21
-1037.133351822155
  0
LINE
  5
140
100
AcDbEntity
  8
1
  6
CONTINUOUS
 62
           2
100
AcDbLine
 10
13322.553909062121
 20
-1048.133351822155
 11
13258.553909062121
 21
-1048.133351822155
  0
LINE
  5
13F
100
AcDbEntity
  8
1
  6
CONTINUOUS
 62
           2
100
AcDbLine
 10
13260.053909062121
 20
-1048.133351822155
 11
13260.053909062121
 21
-1060.823950745395
  0
LINE
  5
13E
100
AcDbEntity
  8
1
  6
CONTINUOUS
 62
           2
100
AcDbLine
 10
13321.053909062121
 20
-1048.133351822155
 11
13260.053909062121
 21
-1048.133351822155
  0
LINE
  5
13D
100
AcDbEntity
  8
1
  6
CONTINUOUS
 62
           2
100
AcDbLine
 10
13325.553909062121
 20
-1037.133351822155
 11
13255.553909062121
 21
-1037.133351822155
  0
LINE
  5
13C
100
AcDbEntity
  8
1
  6
CONTINUOUS
 62
           2
100
AcDbLine
 10
13311.553909062121
 20
-1063.133351822155
 11
13269.553909062121
 21
-1063.133351822155
  0
LINE
  5
13B
100
AcDbEntity
  8
1
  6
CONTINUOUS
 62
           2
100
AcDbLine
 10
13317.053909062121
 20
-973.633351822155
 11
13325.553909062121
 21
-973.633351822155
  0
LINE
  5
13A
100
AcDbEntity
  8
1
  6
CONTINUOUS
 62
           2
100
AcDbLine
 10
13330.553909062121
 20
-978.633351822155
 11
13330.553909062121
 21
-1032.133351822155
  0
LINE
  5
139
100
AcDbEntity
  8
1
  6
CONTINUOUS
 62
           2
100
AcDbLine
 10
13255.553909062121
 20
-1037.133351822155
 11
13325.553909062121
 21
-1037.133351822155
  0
LINE
  5
138
100
AcDbEntity
  8
1
  6
CONTINUOUS
 62
           2
100
AcDbLine
 10
13250.553909062121
 20
-978.633351822155
 11
13250.553909062121
 21
-1032.133351822155
  0
LINE
  5
137
100
AcDbEntity
  8
1
  6
CONTINUOUS
 62
           2
100
AcDbLine
 10
13264.053909062121
 20
-973.633351822155
 11
13255.553909062121
 21
-973.633351822155
  0
LINE
  5
136
100
AcDbEntity
  8
1
  6
CONTINUOUS
 62
           2
100
AcDbLine
 10
13268.553909062121
 20
-963.633351822155
 11
13264.053909062121
 21
-966.231428033507
  0
LINE
  5
135
100
AcDbEntity
  8
1
  6
CONTINUOUS
 62
           2
100
AcDbLine
 10
13312.553909062121
 20
-963.633351822155
 11
13268.553909062121
 21
-963.633351822155
  0
LINE
  5
134
100
AcDbEntity
  8
1
  6
CONTINUOUS
 62
           2
100
AcDbLine
 10
13312.553909062121
 20
-963.633351822155
 11
13317.053909062121
 21
-966.231428033507
  0
LINE
  5
133
100
AcDbEntity
  8
1
  6
CONTINUOUS
 62
           2
100
AcDbLine
 10
13312.553909062121
 20
-919.632680483569
 11
13310.553909062121
 21
-919.632680483569
  0
LINE
  5
132
100
AcDbEntity
  8
1
  6
CONTINUOUS
 62
           2
100
AcDbLine
 10
13310.553909062121
 20
-919.632680483569
 11
13270.553909062121
 21
-919.632680483569
  0
LINE
  5
131
100
AcDbEntity
  8
1
  6
CONTINUOUS
 62
           2
100
AcDbLine
 10
13268.553909062121
 20
-919.632680483569
 11
13270.553909062121
 21
-919.632680483569
  0
LINE
  5
130
100
AcDbEntity
  8
1
  6
CONTINUOUS
 62
           2
100
AcDbLine
 10
13313.553909062121
 20
-919.632680483569
 11
13312.553909062121
 21
-919.632680483569
  0
LINE
  5
12F
100
AcDbEntity
  8
1
  6
CONTINUOUS
 62
           2
100
AcDbLine
 10
13267.553909062121
 20
-919.632680483569
 11
13268.553909062121
 21
-919.632680483569
  0
LINE
  5
12E
100
AcDbEntity
  8
1
  6
CONTINUOUS
 62
           2
100
AcDbLine
 10
13315.553909062121
 20
-965.365402629723
 11
13315.553909062121
 21
-921.632680483569
  0
LINE
  5
12D
100
AcDbEntity
  8
1
  6
CONTINUOUS
 62
           2
100
AcDbLine
 10
13265.553909062121
 20
-965.365402629723
 11
13265.553909062121
 21
-921.632680483569
  0
LINE
  5
12C
100
AcDbEntity
  8
1
  6
CONTINUOUS
 62
           2
100
AcDbLine
 10
13277.303909062121
 20
-966.231428033507
 11
13277.303909062121
 21
-973.633351822155
  0
LINE
  5
12B
100
AcDbEntity
  8
1
  6
CONTINUOUS
 62
           2
100
AcDbLine
 10
13303.803909062121
 20
-966.231428033507
 11
13303.803909062121
 21
-973.633351822155
  0
LINE
  5
12A
100
AcDbEntity
  8
1
  6
CONTINUOUS
 62
           2
100
AcDbLine
 10
13264.053909062121
 20
-973.633351822155
 11
13264.053909062121
 21
-966.231428033507
  0
LINE
  5
129
100
AcDbEntity
  8
1
  6
CONTINUOUS
 62
           2
100
AcDbLine
 10
13317.053909062121
 20
-973.633351822155
 11
13264.053909062121
 21
-973.633351822155
  0
LINE
  5
128
100
AcDbEntity
  8
1
  6
CONTINUOUS
 62
           2
100
AcDbLine
 10
13317.053909062121
 20
-966.231428033507
 11
13317.053909062121
 21
-973.633351822155
  0
LINE
  5
127
100
AcDbEntity
  8
1
  6
CONTINUOUS
 62
           2
100
AcDbLine
 10
13270.553909062121
 20
-915.632680483569
 11
13270.553909062121
 21
-917.632680483569
  0
LINE
  5
126
100
AcDbEntity
  8
1
  6
CONTINUOUS
 62
           2
100
AcDbLine
 10
13271.553909062121
 20
-914.632680483569
 11
13309.553909062121
 21
-914.632680483569
  0
LINE
  5
125
100
AcDbEntity
  8
1
  6
CONTINUOUS
 62
           2
100
AcDbLine
 10
13310.553909062121
 20
-915.632680483569
 11
13310.553909062121
 21
-917.632680483569
  0
LINE
  5
124
100
AcDbEntity
  8
1
  6
CONTINUOUS
 62
           2
100
AcDbLine
 10
13281.303909062121
 20
-908.364731291138
 11
13281.303909062121
 21
-914.632680483569
  0
LINE
  5
123
100
AcDbEntity
  8
1
  6
CONTINUOUS
 62
           2
100
AcDbLine
 10
13299.803909062121
 20
-908.364731291138
 11
13299.803909062121
 21
-914.632680483569
  0
LINE
  5
122
100
AcDbEntity
  8
1
  6
CONTINUOUS
 62
           2
100
AcDbLine
 10
13275.553909062121
 20
-898.132680483569
 11
13275.553909062121
 21
-906.632680483569
  0
LINE
  5
121
100
AcDbEntity
  8
1
  6
CONTINUOUS
 62
           2
100
AcDbLine
 10
13305.553909062121
 20
-898.132680483569
 11
13305.553909062121
 21
-906.64297935822
  0
LINE
  5
120
100
AcDbEntity
  8
1
  6
CONTINUOUS
 62
           2
100
AcDbLine
 10
13275.053909062121
 20
-906.632680483569
 11
13306.053909062121
 21
-906.632680483569
  0
LINE
  5
11F
100
AcDbEntity
  8
1
  6
CONTINUOUS
 62
           2
100
AcDbLine
 10
13272.053909062121
 20
-908.364731291138
 11
13275.053909062121
 21
-906.632680483569
  0
LINE
  5
11E
100
AcDbEntity
  8
1
  6
CONTINUOUS
 62
           2
100
AcDbLine
 10
13272.053909062121
 20
-914.632680483569
 11
13272.053909062121
 21
-908.364731291138
  0
LINE
  5
11D
100
AcDbEntity
  8
1
  6
CONTINUOUS
 62
           2
100
AcDbLine
 10
13309.053909062121
 20
-914.632680483569
 11
13272.053909062121
 21
-914.632680483569
  0
LINE
  5
11C
100
AcDbEntity
  8
1
  6
CONTINUOUS
 62
           2
100
AcDbLine
 10
13309.053909062121
 20
-908.364731291138
 11
13309.053909062121
 21
-914.632680483569
  0
LINE
  5
11B
100
AcDbEntity
  8
1
  6
CONTINUOUS
 62
           2
100
AcDbLine
 10
13306.053909062121
 20
-906.632680483569
 11
13309.053909062121
 21
-908.364731291138
  0
LINE
  5
11A
100
AcDbEntity
  8
1
  6
DOT_CENTER
 62
           2
100
AcDbLine
 10
13290.41199462712
 20
-1176.215871494776
 11
13290.41199462712
 21
-860.450873623162
  0
LINE
  5
119
100
AcDbEntity
  8
1
  6
CONTINUOUS
 62
           2
100
AcDbLine
 10
13349.52731212232
 20
-1105.103351822154
 11
13349.52731212232
 21
-1165.603351822154
  0
LINE
  5
118
100
AcDbEntity
  8
1
  6
CONTINUOUS
 62
           2
100
AcDbLine
 10
13345.52731212232
 20
-1165.603351822154
 11
13345.52731212232
 21
-1105.103351822154
  0
LINE
  5
117
100
AcDbEntity
  8
1
  6
CONTINUOUS
 62
           2
100
AcDbLine
 10
13345.52731212232
 20
-1165.603351822154
 11
13349.52731212232
 21
-1165.603351822154
  0
LINE
  5
116
100
AcDbEntity
  8
1
  6
CONTINUOUS
 62
           2
100
AcDbLine
 10
13349.52731212232
 20
-1105.103351822154
 11
13345.52731212232
 21
-1105.103351822154
  0
LINE
  5
115
100
AcDbEntity
  8
1
  6
CONTINUOUS
 62
           7
100
AcDbLine
 10
13349.52731212232
 20
-1165.603351822154
 11
13360.647312122321
 21
-1165.160351822155
  0
LINE
  5
114
100
AcDbEntity
  8
1
  6
CONTINUOUS
 62
           7
100
AcDbLine
 10
13349.52731212232
 20
-1105.103351822154
 11
13360.647312122321
 21
-1105.546351822154
  0
LINE
  5
113
100
AcDbEntity
  8
1
  6
CONTINUOUS
 62
           2
100
AcDbLine
 10
13345.52731212232
 20
-1165.603351822154
 11
13334.407312122319
 21
-1165.160351822155
  0
LINE
  5
112
100
AcDbEntity
  8
1
  6
CONTINUOUS
 62
           2
100
AcDbLine
 10
13334.407312122319
 20
-1105.546351822154
 11
13345.52731212232
 21
-1105.103351822154
  0
LINE
  5
111
100
AcDbEntity
  8
1
  6
CONTINUOUS
 62
           2
100
AcDbLine
 10
13290.41199462712
 20
-1084.353351822154
 11
13312.42491234919
 21
-1084.353351822154
  0
LINE
  5
110
100
AcDbEntity
  8
1
  6
CONTINUOUS
 62
           2
100
AcDbLine
 10
13269.91199462712
 20
-1093.518433004418
 11
13269.91199462712
 21
-1124.854896354726
  0
LINE
  5
10F
100
AcDbEntity
  8
1
  6
CONTINUOUS
 62
           2
100
AcDbLine
 10
13310.91199462712
 20
-1093.518433004418
 11
13310.91199462712
 21
-1094.851807289582
  0
LINE
  5
10E
100
AcDbEntity
  8
1
  6
CONTINUOUS
 62
           2
100
AcDbLine
 10
13268.39907690504
 20
-1084.353351822154
 11
13290.41199462712
 21
-1084.353351822154
  0
LINE
  5
10D
100
AcDbEntity
  8
1
  6
CONTINUOUS
 62
           2
100
AcDbLine
 10
13268.39907690504
 20
-1084.353351822154
 11
13268.39907690504
 21
-1089.353351822154
  0
LINE
  5
10C
100
AcDbEntity
  8
1
  6
CONTINUOUS
 62
           2
100
AcDbLine
 10
13312.42491234919
 20
-1084.353351822154
 11
13312.42491234919
 21
-1089.353351822154
  0
LINE
  5
10B
100
AcDbEntity
  8
1
  6
CONTINUOUS
 62
           2
100
AcDbLine
 10
13268.39907690504
 20
-1089.353351822154
 11
13312.42491234919
 21
-1089.353351822154
  0
LINE
  5
10A
100
AcDbEntity
  8
1
  6
DOT_CENTER
 62
           2
100
AcDbLine
 10
13290.41199462712
 20
-1176.794026912576
 11
13290.41199462712
 21
-1074.946041793214
  0
LINE
  5
109
100
AcDbEntity
  8
1
  6
CONTINUOUS
 62
           2
100
AcDbLine
 10
13324.02248858758
 20
-1169.854896354726
 11
13314.91199462712
 21
-1169.854896354726
  0
LINE
  5
108
100
AcDbEntity
  8
1
  6
CONTINUOUS
 62
           2
100
AcDbLine
 10
13334.407312122319
 20
-1171.354896354726
 11
13334.407312122319
 21
-1135.353351822154
  0
LINE
  5
107
100
AcDbEntity
  8
1
  6
CONTINUOUS
 62
           2
100
AcDbLine
 10
13329.407312122319
 20
-1171.354896354726
 11
13334.407312122319
 21
-1171.354896354726
  0
LINE
  5
106
100
AcDbEntity
  8
1
  6
CONTINUOUS
 62
           2
100
AcDbLine
 10
13329.407312122319
 20
-1099.351807289582
 11
13334.407312122319
 21
-1099.351807289582
  0
LINE
  5
105
100
AcDbEntity
  8
1
  6
CONTINUOUS
 62
           2
100
AcDbLine
 10
13329.407312122319
 20
-1169.854896354726
 11
13329.407312122319
 21
-1100.851807289582
  0
LINE
  5
104
100
AcDbEntity
  8
1
  6
CONTINUOUS
 62
           2
100
AcDbLine
 10
13329.407312122319
 20
-1100.851807289582
 11
13329.407312122319
 21
-1099.351807289582
  0
LINE
  5
103
100
AcDbEntity
  8
1
  6
CONTINUOUS
 62
           2
100
AcDbLine
 10
13329.407312122319
 20
-1169.854896354726
 11
13329.407312122319
 21
-1171.354896354726
  0
LINE
  5
102
100
AcDbEntity
  8
1
  6
CONTINUOUS
 62
           2
100
AcDbLine
 10
13334.407312122319
 20
-1135.353351822154
 11
13334.407312122319
 21
-1099.351807289582
  0
LINE
  5
101
100
AcDbEntity
  8
1
  6
CONTINUOUS
 62
           2
100
AcDbLine
 10
13324.02248858758
 20
-1100.851807289582
 11
13316.91199462712
 21
-1100.851807289582
  0
LINE
  5
100
100
AcDbEntity
  8
1
  6
CONTINUOUS
 62
           2
100
AcDbLine
 10
13273.41199462712
 20
-1071.893351822154
 11
13307.41199462712
 21
-1071.893351822154
  0
LINE
  5
FF
100
AcDbEntity
  8
1
  6
CONTINUOUS
 62
           2
100
AcDbLine
 10
13307.41199462712
 20
-1075.593351822154
 11
13273.41199462712
 21
-1075.593351822154
  0
LINE
  5
FE
100
AcDbEntity
  8
1
  6
CONTINUOUS
 62
           2
100
AcDbLine
 10
13273.41199462712
 20
-1071.893351822154
 11
13273.41199462712
 21
-1075.593351822154
  0
LINE
  5
FD
100
AcDbEntity
  8
1
  6
CONTINUOUS
 62
           2
100
AcDbLine
 10
13307.41199462712
 20
-1075.593351822154
 11
13307.41199462712
 21
-1071.893351822154
  0
LINE
  5
FC
100
AcDbEntity
  8
1
  6
CONTINUOUS
 62
           2
100
AcDbLine
 10
13273.41199462712
 20
-1071.893351822154
 11
13273.78749462712
 21
-1063.133351822155
  0
LINE
  5
FB
100
AcDbEntity
  8
1
  6
CONTINUOUS
 62
           2
100
AcDbLine
 10
13273.41199462712
 20
-1075.593351822154
 11
13273.78749462712
 21
-1084.353351822154
  0
LINE
  5
FA
100
AcDbEntity
  8
1
  6
CONTINUOUS
 62
           2
100
AcDbLine
 10
13307.03649462712
 20
-1084.353351822154
 11
13307.41199462712
 21
-1075.593351822154
  0
LINE
  5
F9
100
AcDbEntity
  8
1
  6
CONTINUOUS
 62
           2
100
AcDbLine
 10
13307.03649462712
 20
-1063.133351822155
 11
13307.41199462712
 21
-1071.893351822154
  0
LINE
  5
F8
100
AcDbEntity
  8
1
  6
DOT_CENTER
 62
           2
100
AcDbLine
 10
13241.13328779109
 20
-1008.133351822155
 11
13341.829162009341
 21
-1008.133351822155
  0
LINE
  5
F7
100
AcDbEntity
  8
1
  6
CONTINUOUS
 62
           2
100
AcDbLine
 10
13325.553909062121
 20
-1037.133351822155
 11
13325.553909062121
 21
-1045.133351822155
  0
LINE
  5
F6
100
AcDbEntity
  8
1
  6
CONTINUOUS
 62
           2
100
AcDbLine
 10
13255.553909062121
 20
-1037.133351822155
 11
13255.553909062121
 21
-1045.133351822155
  0
LINE
  5
F5
100
AcDbEntity
  8
1
  6
CONTINUOUS
 62
           2
100
AcDbLine
 10
13313.553909062121
 20
-920.632680483569
 11
13313.553909062121
 21
-963.056001552965
  0
LINE
  5
F4
100
AcDbEntity
  8
1
  6
CONTINUOUS
 62
           2
100
AcDbLine
 10
13311.553909062121
 20
-920.632680483569
 11
13311.553909062121
 21
-962.633351822155
  0
LINE
  5
F3
100
AcDbEntity
  8
1
  6
CONTINUOUS
 62
           2
100
AcDbLine
 10
13298.88724239546
 20
-920.632680483569
 11
13298.88724239546
 21
-962.633351822155
  0
LINE
  5
F2
100
AcDbEntity
  8
1
  6
CONTINUOUS
 62
           2
100
AcDbLine
 10
13296.88724239546
 20
-920.632680483569
 11
13296.88724239546
 21
-962.633351822155
  0
LINE
  5
F1
100
AcDbEntity
  8
1
  6
CONTINUOUS
 62
           2
100
AcDbLine
 10
13284.22057572879
 20
-920.632680483569
 11
13284.22057572879
 21
-962.633351822155
  0
LINE
  5
F0
100
AcDbEntity
  8
1
  6
CONTINUOUS
 62
           2
100
AcDbLine
 10
13282.22057572879
 20
-920.632680483569
 11
13282.22057572879
 21
-962.633351822155
  0
LINE
  5
EF
100
AcDbEntity
  8
1
  6
CONTINUOUS
 62
           2
100
AcDbLine
 10
13269.553909062121
 20
-920.632680483569
 11
13269.553909062121
 21
-962.633351822155
  0
LINE
  5
EE
100
AcDbEntity
  8
1
  6
CONTINUOUS
 62
           2
100
AcDbLine
 10
13267.553909062121
 20
-920.632680483569
 11
13267.553909062121
 21
-963.056001552965
  0
LINE
  5
ED
100
AcDbEntity
  8
1
  6
CONTINUOUS
 62
           2
100
AcDbLine
 10
11092.126145758561
 20
-1063.133351822155
 11
11092.50164575855
 21
-1071.893351822154
  0
LINE
  5
EC
100
AcDbEntity
  8
1
  6
CONTINUOUS
 62
           2
100
AcDbLine
 10
11092.126145758561
 20
-1084.353351822154
 11
11092.50164575855
 21
-1075.593351822154
  0
LINE
  5
EB
100
AcDbEntity
  8
1
  6
CONTINUOUS
 62
           2
100
AcDbLine
 10
11058.50164575855
 20
-1075.593351822154
 11
11058.87714575855
 21
-1084.353351822154
  0
LINE
  5
EA
100
AcDbEntity
  8
1
  6
CONTINUOUS
 62
           2
100
AcDbLine
 10
11058.50164575855
 20
-1071.893351822154
 11
11058.87714575855
 21
-1063.133351822155
  0
LINE
  5
E9
100
AcDbEntity
  8
1
  6
CONTINUOUS
 62
           2
100
AcDbLine
 10
11092.50164575855
 20
-1075.593351822154
 11
11092.50164575855
 21
-1071.893351822154
  0
LINE
  5
E8
100
AcDbEntity
  8
1
  6
CONTINUOUS
 62
           2
100
AcDbLine
 10
11058.50164575855
 20
-1071.893351822154
 11
11058.50164575855
 21
-1075.593351822154
  0
LINE
  5
E7
100
AcDbEntity
  8
1
  6
CONTINUOUS
 62
           2
100
AcDbLine
 10
11092.50164575855
 20
-1075.593351822154
 11
11058.50164575855
 21
-1075.593351822154
  0
LINE
  5
E6
100
AcDbEntity
  8
1
  6
CONTINUOUS
 62
           2
100
AcDbLine
 10
11058.50164575855
 20
-1071.893351822154
 11
11092.50164575855
 21
-1071.893351822154
  0
LINE
  5
E5
100
AcDbEntity
  8
1
  6
CONTINUOUS
 62
           2
100
AcDbLine
 10
11053.48872803648
 20
-1089.353351822154
 11
11097.51456348063
 21
-1089.353351822154
  0
LINE
  5
E4
100
AcDbEntity
  8
1
  6
CONTINUOUS
 62
           2
100
AcDbLine
 10
11097.51456348063
 20
-1084.353351822154
 11
11097.51456348063
 21
-1089.353351822154
  0
LINE
  5
E3
100
AcDbEntity
  8
1
  6
CONTINUOUS
 62
           2
100
AcDbLine
 10
11053.48872803648
 20
-1084.353351822154
 11
11053.48872803648
 21
-1089.353351822154
  0
LINE
  5
E2
100
AcDbEntity
  8
1
  6
CONTINUOUS
 62
           2
100
AcDbLine
 10
11053.48872803648
 20
-1084.353351822154
 11
11075.50164575855
 21
-1084.353351822154
  0
LINE
  5
E1
100
AcDbEntity
  8
1
  6
CONTINUOUS
 62
           2
100
AcDbLine
 10
11075.50164575855
 20
-1084.353351822154
 11
11097.51456348063
 21
-1084.353351822154
  0
LINE
  5
E0
100
AcDbEntity
  8
1
  6
CONTINUOUS
 62
           2
100
AcDbLine
 10
11096.64356019357
 20
-1063.133351822155
 11
11054.64356019357
 21
-1063.133351822155
  0
LINE
  5
DF
100
AcDbEntity
  8
1
  6
CONTINUOUS
 62
           2
100
AcDbLine
 10
11049.14356019357
 20
-1063.133351822155
 11
11102.14356019357
 21
-1063.133351822155
  0
LINE
  5
DE
100
AcDbEntity
  8
1
  6
CONTINUOUS
 62
           2
100
AcDbLine
 10
11106.14356019357
 20
-1060.823950745395
 11
11102.14356019357
 21
-1063.133351822155
  0
LINE
  5
DD
100
AcDbEntity
  8
1
  6
CONTINUOUS
 62
           2
100
AcDbLine
 10
11045.14356019357
 20
-1060.823950745395
 11
11049.14356019357
 21
-1063.133351822155
  0
LINE
  5
DC
100
AcDbEntity
  8
1
  6
CONTINUOUS
 62
           2
100
AcDbLine
 10
11055.00164575855
 20
-1093.518433004418
 11
11055.00164575855
 21
-1095.226063761693
  0
LINE
  5
DB
100
AcDbEntity
  8
1
  6
CONTINUOUS
 62
           2
100
AcDbLine
 10
11096.00164575855
 20
-1093.518433004418
 11
11096.00164575855
 21
-1094.851807289582
  0
LINE
  5
DA
100
AcDbEntity
  8
1
  6
CONTINUOUS
 62
           2
100
AcDbLine
 10
11096.00164575855
 20
-1095.226063761692
 11
11096.00164575855
 21
-1093.518433004418
  0
LINE
  5
D9
100
AcDbEntity
  8
1
  6
CONTINUOUS
 62
           2
100
AcDbLine
 10
11110.50164575855
 20
-1037.133351822155
 11
11110.50164575855
 21
-1045.133351822155
  0
LINE
  5
D8
100
AcDbEntity
  8
1
  6
CONTINUOUS
 62
           2
100
AcDbLine
 10
11040.50164575855
 20
-1037.133351822155
 11
11040.50164575855
 21
-1045.133351822155
  0
LINE
  5
D7
100
AcDbEntity
  8
1
  6
CONTINUOUS
 62
           2
100
AcDbLine
 10
11098.50164575855
 20
-920.633351822155
 11
11098.50164575855
 21
-963.056001552965
  0
LINE
  5
D6
100
AcDbEntity
  8
1
  6
CONTINUOUS
 62
           2
100
AcDbLine
 10
11096.50164575855
 20
-920.633351822155
 11
11096.50164575855
 21
-962.633351822155
  0
LINE
  5
D5
100
AcDbEntity
  8
1
  6
CONTINUOUS
 62
           2
100
AcDbLine
 10
11083.834979091889
 20
-920.633351822155
 11
11083.834979091889
 21
-962.633351822155
  0
LINE
  5
D4
100
AcDbEntity
  8
1
  6
CONTINUOUS
 62
           2
100
AcDbLine
 10
11081.834979091889
 20
-920.633351822155
 11
11081.834979091889
 21
-962.633351822155
  0
LINE
  5
D3
100
AcDbEntity
  8
1
  6
CONTINUOUS
 62
           2
100
AcDbLine
 10
11069.168312425219
 20
-920.633351822155
 11
11069.168312425219
 21
-962.633351822155
  0
LINE
  5
D2
100
AcDbEntity
  8
1
  6
CONTINUOUS
 62
           2
100
AcDbLine
 10
11067.168312425219
 20
-920.633351822155
 11
11067.168312425219
 21
-962.633351822155
  0
LINE
  5
D1
100
AcDbEntity
  8
1
  6
CONTINUOUS
 62
           2
100
AcDbLine
 10
11054.50164575855
 20
-920.633351822155
 11
11054.50164575855
 21
-962.633351822155
  0
LINE
  5
D0
100
AcDbEntity
  8
1
  6
CONTINUOUS
 62
           2
100
AcDbLine
 10
11052.50164575855
 20
-920.633351822155
 11
11052.50164575855
 21
-963.056001552965
  0
LINE
  5
CF
100
AcDbEntity
  8
1
  6
CONTINUOUS
 62
           7
100
AcDbLine
 10
10591.50164575855
 20
-2172.353351822154
 11
10591.50164575855
 21
-2192.267837910516
  0
LINE
  5
CE
100
AcDbEntity
  8
1
  6
CONTINUOUS
 62
           7
100
AcDbLine
 10
10591.50164575855
 20
-2172.353351822154
 11
11075.50164575855
 21
-2172.353351822154
  0
LINE
  5
CD
100
AcDbEntity
  8
1
  6
CONTINUOUS
 62
           7
100
AcDbLine
 10
10725.50164575855
 20
-2319.203283221603
 11
10725.50164575855
 21
-2385.353351822154
  0
LINE
  5
CC
100
AcDbEntity
  8
1
  6
CONTINUOUS
 62
           7
100
AcDbLine
 10
11075.50164575855
 20
-2172.353351822154
 11
11559.50164575855
 21
-2172.353351822154
  0
LINE
  5
CB
100
AcDbEntity
  8
1
  6
CONTINUOUS
 62
           7
100
AcDbLine
 10
11559.50164575855
 20
-2192.267837910516
 11
11559.50164575855
 21
-2172.353351822154
  0
LINE
  5
CA
100
AcDbEntity
  8
1
  6
CONTINUOUS
 62
           7
100
AcDbLine
 10
11559.50164575855
 20
-336.353351822154
 11
11075.50164575855
 21
-336.353351822154
  0
LINE
  5
C9
100
AcDbEntity
  8
1
  6
CONTINUOUS
 62
           7
100
AcDbLine
 10
11075.50164575855
 20
-336.353351822154
 11
10591.50164575855
 21
-336.353351822154
  0
LINE
  5
C8
100
AcDbEntity
  8
1
  6
CONTINUOUS
 62
           7
100
AcDbLine
 10
10591.50164575855
 20
-316.438865733792
 11
10591.50164575855
 21
-336.353351822154
  0
LINE
  5
C7
100
AcDbEntity
  8
1
  6
CONTINUOUS
 62
           7
100
AcDbLine
 10
11559.50164575855
 20
-336.353351822154
 11
11559.50164575855
 21
-316.438865733792
  0
LINE
  5
C6
100
AcDbEntity
  8
1
  6
CONTINUOUS
 62
           7
100
AcDbLine
 10
10591.50164575855
 20
-316.438865733792
 11
10591.50164575855
 21
-336.353351822154
  0
LINE
  5
C5
100
AcDbEntity
  8
1
  6
CONTINUOUS
 62
           7
100
AcDbLine
 10
11339.59622513403
 20
-153.870824515381
 11
11339.324058861221
 21
-155.710251524914
  0
LINE
  5
C4
100
AcDbEntity
  8
1
  6
CONTINUOUS
 62
           7
100
AcDbLine
 10
11338.713256604369
 20
-143.889379393455
 11
11328.070409530659
 21
-139.753893019763
  0
LINE
  5
C3
100
AcDbEntity
  8
1
  6
CONTINUOUS
 62
           7
100
AcDbLine
 10
11328.070409530659
 20
-139.753893019763
 11
11316.78569040939
 21
-138.01390573953
  0
LINE
  5
C2
100
AcDbEntity
  8
1
  6
CONTINUOUS
 62
           7
100
AcDbLine
 10
11310.346284072541
 20
-147.945680171839
 11
11311.030294671011
 21
-146.216606516771
  0
LINE
  5
C1
100
AcDbEntity
  8
1
  6
CONTINUOUS
 62
           7
100
AcDbLine
 10
11338.029963635699
 20
-160.539880656359
 11
11339.324058861221
 21
-155.710251524914
  0
LINE
  5
C0
100
AcDbEntity
  8
1
  6
CONTINUOUS
 62
           7
100
AcDbLine
 10
11309.05218884703
 20
-152.775309303284
 11
11310.346284072541
 21
-147.945680171839
  0
LINE
  5
BF
100
AcDbEntity
  8
1
  6
CONTINUOUS
 62
           7
100
AcDbLine
 10
11322.62886907521
 20
-139.848750919758
 11
11335.40182435787
 21
-143.271253972706
  0
LINE
  5
BE
100
AcDbEntity
  8
1
  6
CONTINUOUS
 62
           7
100
AcDbLine
 10
11340.59438370466
 20
-147.124801888607
 11
11339.514074115181
 21
-154.426039536609
  0
LINE
  5
BD
100
AcDbEntity
  8
1
  6
CONTINUOUS
 62
           7
100
AcDbLine
 10
11311.030294671011
 20
-146.216606516771
 11
11313.538875305219
 21
-139.875300262163
  0
LINE
  5
BC
100
AcDbEntity
  8
1
  6
CONTINUOUS
 62
           7
100
AcDbLine
 10
11310.346284072541
 20
-147.945680171839
 11
11339.324058861221
 21
-155.710251524914
  0
LINE
  5
BB
100
AcDbEntity
  8
1
  6
CONTINUOUS
 62
           7
100
AcDbLine
 10
10591.50164575855
 20
-2172.353351822154
 11
10591.50164575855
 21
-1972.353351822154
  0
LINE
  5
BA
100
AcDbEntity
  8
1
  6
CONTINUOUS
 62
           7
100
AcDbLine
 10
13870.897312122321
 20
-99.277346024621
 11
13870.897312122321
 21
-150.624237804785
  0
LINE
  5
B9
100
AcDbEntity
  8
1
  6
CONTINUOUS
 62
           7
100
AcDbLine
 10
13858.397312122321
 20
-99.277346024621
 11
13858.397312122321
 21
-150.624237804785
  0
LINE
  5
B8
100
AcDbEntity
  8
1
  6
CONTINUOUS
 62
           7
100
AcDbLine
 10
13851.53094514011
 20
-142.782616939028
 11
13849.647312122321
 21
-156.657527260575
  0
LINE
  5
B7
100
AcDbEntity
  8
1
  6
CONTINUOUS
 62
           7
100
AcDbLine
 10
13877.688060797471
 20
-142.782292329364
 11
13879.647312122321
 21
-156.657527260534
  0
LINE
  5
B6
100
AcDbEntity
  8
1
  6
DOT_CENTER
 62
           2
100
AcDbLine
 10
11075.50164575855
 20
-21.315229502278
 11
11075.50164575855
 21
-2808.343923598309
  0
LINE
  5
B5
100
AcDbEntity
  8
1
  6
DOT_CENTER
 62
           2
100
AcDbLine
 10
13864.647312122321
 20
33.314180911342
 11
13864.647312122321
 21
-2738.409404984819
  0
LINE
  5
B4
100
AcDbEntity
  8
1
  6
CONTINUOUS
 62
           7
100
AcDbLine
 10
10725.50164575855
 20
-2319.203283221603
 11
11425.50164575855
 21
-2319.203283221603
  0
LINE
  5
B3
100
AcDbEntity
  8
1
  6
CONTINUOUS
 62
           7
100
AcDbLine
 10
13514.647312122321
 20
-2319.203283221603
 11
14214.647312122321
 21
-2319.203283221603
  0
LINE
  5
B2
100
AcDbEntity
  8
1
  6
CONTINUOUS
 62
           7
100
AcDbLine
 10
14214.647312122321
 20
-2385.353351822154
 11
14214.647312122321
 21
-2319.203283221603
  0
LINE
  5
B1
100
AcDbEntity
  8
1
  6
CONTINUOUS
 62
           7
100
AcDbLine
 10
13530.414390200989
 20
-2455.948425885799
 11
13530.414390200989
 21
-2676.353351822154
  0
LINE
  5
B0
100
AcDbEntity
  8
1
  6
CONTINUOUS
 62
           7
100
AcDbLine
 10
13530.414390200989
 20
-2455.948425885799
 11
13530.414390200989
 21
-2676.353351822154
  0
LINE
  5
AF
100
AcDbEntity
  8
1
  6
CONTINUOUS
 62
           7
100
AcDbLine
 10
13514.647312122321
 20
-2319.203283221603
 11
13514.647312122321
 21
-2385.353351822154
  0
LINE
  5
AE
100
AcDbEntity
  8
1
  6
CONTINUOUS
 62
           7
100
AcDbLine
 10
14214.647312122321
 20
-2385.353351822154
 11
14214.647312122321
 21
-2319.203283221603
  0
LINE
  5
AD
100
AcDbEntity
  8
1
  6
CONTINUOUS
 62
           7
100
AcDbLine
 10
14198.88023404364
 20
-2676.353351822154
 11
14198.88023404364
 21
-2455.948425885799
  0
LINE
  5
AC
100
AcDbEntity
  8
1
  6
DOT_CENTER
 62
           2
100
AcDbLine
 10
10742.477712929691
 20
-1772.353351822154
 11
11414.11049461049
 21
-1772.353351822154
  0
LINE
  5
AB
100
AcDbEntity
  8
1
  6
DOT_CENTER
 62
           2
100
AcDbLine
 10
11175.50164575855
 20
-1947.353351822154
 11
11175.50164575855
 21
-1597.353351822154
  0
LINE
  5
AA
100
AcDbEntity
  8
1
  6
DOT_CENTER
 62
           2
100
AcDbLine
 10
10975.50164575855
 20
-1597.353351822154
 11
10975.50164575855
 21
-1947.353351822154
  0
LINE
  5
A9
100
AcDbEntity
  8
1
  6
CONTINUOUS
 62
           7
100
AcDbLine
 10
11190.458343673199
 20
-1908.492293212212
 11
11195.50164575855
 21
-1787.353351822154
  0
LINE
  5
A8
100
AcDbEntity
  8
1
  6
CONTINUOUS
 62
           7
100
AcDbLine
 10
11155.50164575855
 20
-1787.353351822154
 11
11160.54494784391
 21
-1908.492293212212
  0
LINE
  5
A7
100
AcDbEntity
  8
1
  6
CONTINUOUS
 62
           7
100
AcDbLine
 10
11160.54494784391
 20
-1636.214410432096
 11
11155.50164575855
 21
-1757.353351822154
  0
LINE
  5
A6
100
AcDbEntity
  8
1
  6
CONTINUOUS
 62
           7
100
AcDbLine
 10
11195.50164575855
 20
-1757.353351822154
 11
11190.458343673199
 21
-1636.214410432096
  0
LINE
  5
A5
100
AcDbEntity
  8
1
  6
CONTINUOUS
 62
           7
100
AcDbLine
 10
10955.50164575855
 20
-1787.353351822154
 11
10960.54494784391
 21
-1908.492293212212
  0
LINE
  5
A4
100
AcDbEntity
  8
1
  6
CONTINUOUS
 62
           7
100
AcDbLine
 10
10990.458343673199
 20
-1908.492293212212
 11
10995.50164575855
 21
-1787.353351822154
  0
LINE
  5
A3
100
AcDbEntity
  8
1
  6
CONTINUOUS
 62
           7
100
AcDbLine
 10
10995.50164575855
 20
-1757.353351822154
 11
10990.458343673199
 21
-1636.214410432096
  0
LINE
  5
A2
100
AcDbEntity
  8
1
  6
CONTINUOUS
 62
           7
100
AcDbLine
 10
10960.54494784391
 20
-1636.214410432096
 11
10955.50164575855
 21
-1757.353351822154
  0
LINE
  5
A1
100
AcDbEntity
  8
1
  6
CONTINUOUS
 62
           7
100
AcDbLine
 10
11182.42984898883
 20
-1760.353351822154
 11
11168.573442528281
 21
-1760.353351822154
  0
LINE
  5
A0
100
AcDbEntity
  8
1
  6
CONTINUOUS
 62
           7
100
AcDbLine
 10
11168.573442528281
 20
-1760.353351822154
 11
11161.645239298001
 21
-1772.353351822154
  0
LINE
  5
9F
100
AcDbEntity
  8
1
  6
CONTINUOUS
 62
           7
100
AcDbLine
 10
11161.645239298001
 20
-1772.353351822154
 11
11168.573442528281
 21
-1784.353351822154
  0
LINE
  5
9E
100
AcDbEntity
  8
1
  6
CONTINUOUS
 62
           7
100
AcDbLine
 10
11168.573442528281
 20
-1784.353351822154
 11
11182.42984898883
 21
-1784.353351822154
  0
LINE
  5
9D
100
AcDbEntity
  8
1
  6
CONTINUOUS
 62
           7
100
AcDbLine
 10
11182.42984898883
 20
-1784.353351822154
 11
11189.35805221911
 21
-1772.353351822154
  0
LINE
  5
9C
100
AcDbEntity
  8
1
  6
CONTINUOUS
 62
           7
100
AcDbLine
 10
11189.35805221911
 20
-1772.353351822154
 11
11182.42984898883
 21
-1760.353351822154
  0
LINE
  5
9B
100
AcDbEntity
  8
1
  6
DOT_CENTER
 62
           2
100
AcDbLine
 10
11194.25164575855
 20
-1772.353351822154
 11
11156.75164575855
 21
-1772.353351822154
  0
LINE
  5
9A
100
AcDbEntity
  8
1
  6
DOT_CENTER
 62
           2
100
AcDbLine
 10
11175.50164575855
 20
-1753.603351822154
 11
11175.50164575855
 21
-1791.103351822154
  0
LINE
  5
99
100
AcDbEntity
  8
1
  6
DOT_CENTER
 62
           2
100
AcDbLine
 10
10975.50164575855
 20
-1753.603351822154
 11
10975.50164575855
 21
-1791.103351822154
  0
LINE
  5
98
100
AcDbEntity
  8
1
  6
DOT_CENTER
 62
           2
100
AcDbLine
 10
10994.25164575855
 20
-1772.353351822154
 11
10956.75164575855
 21
-1772.353351822154
  0
LINE
  5
97
100
AcDbEntity
  8
1
  6
CONTINUOUS
 62
           7
100
AcDbLine
 10
10989.35805221911
 20
-1772.353351822154
 11
10982.42984898883
 21
-1760.353351822154
  0
LINE
  5
96
100
AcDbEntity
  8
1
  6
CONTINUOUS
 62
           7
100
AcDbLine
 10
10982.42984898883
 20
-1784.353351822154
 11
10989.35805221911
 21
-1772.353351822154
  0
LINE
  5
95
100
AcDbEntity
  8
1
  6
CONTINUOUS
 62
           7
100
AcDbLine
 10
10968.573442528281
 20
-1784.353351822154
 11
10982.42984898883
 21
-1784.353351822154
  0
LINE
  5
94
100
AcDbEntity
  8
1
  6
CONTINUOUS
 62
           7
100
AcDbLine
 10
10961.645239298001
 20
-1772.353351822154
 11
10968.573442528281
 21
-1784.353351822154
  0
LINE
  5
93
100
AcDbEntity
  8
1
  6
CONTINUOUS
 62
           7
100
AcDbLine
 10
10968.573442528281
 20
-1760.353351822154
 11
10961.645239298001
 21
-1772.353351822154
  0
LINE
  5
92
100
AcDbEntity
  8
1
  6
CONTINUOUS
 62
           7
100
AcDbLine
 10
10982.42984898883
 20
-1760.353351822154
 11
10968.573442528281
 21
-1760.353351822154
  0
LINE
  5
91
100
AcDbEntity
  8
1
  6
DOT_CENTER
 62
           2
100
AcDbLine
 10
10730.517157689619
 20
-1772.353351822154
 11
11430.02315466465
 21
-1772.353351822154
  0
LINE
  5
90
100
AcDbEntity
  8
1
  6
CONTINUOUS
 62
           7
100
AcDbLine
 10
13345.63975783364
 20
-1799.853351822154
 11
13385.40288190825
 21
-1799.853351822154
  0
LINE
  5
8F
100
AcDbEntity
  8
1
  6
CONTINUOUS
 62
           7
100
AcDbLine
 10
13345.63975783364
 20
-1744.853351822154
 11
13385.40288190825
 21
-1744.853351822154
  0
LINE
  5
8E
100
AcDbEntity
  8
1
  6
CONTINUOUS
 62
           7
100
AcDbLine
 10
13385.40288190825
 20
-1906.402959763487
 11
13385.40288190825
 21
-1638.303743880822
  0
LINE
  5
8D
100
AcDbEntity
  8
1
  6
CONTINUOUS
 62
           7
100
AcDbLine
 10
13374.63975783364
 20
-1922.353351822154
 11
13374.63975783364
 21
-2072.353351822154
  0
LINE
  5
8C
100
AcDbEntity
  8
1
  6
CONTINUOUS
 62
           7
100
AcDbLine
 10
13290.63975783364
 20
-1757.353351822154
 11
13290.63975783364
 21
-1787.353351822154
  0
LINE
  5
8B
100
AcDbEntity
  8
1
  6
CONTINUOUS
 62
           7
100
AcDbLine
 10
13290.63975783364
 20
-1787.353351822154
 11
13287.63975783364
 21
-1787.353351822154
  0
LINE
  5
8A
100
AcDbEntity
  8
1
  6
CONTINUOUS
 62
           7
100
AcDbLine
 10
13287.63975783364
 20
-1787.353351822154
 11
13287.63975783364
 21
-1757.353351822154
  0
LINE
  5
89
100
AcDbEntity
  8
1
  6
CONTINUOUS
 62
           7
100
AcDbLine
 10
13287.63975783364
 20
-1757.353351822154
 11
13290.63975783364
 21
-1757.353351822154
  0
LINE
  5
88
100
AcDbEntity
  8
1
  6
CONTINUOUS
 62
           7
100
AcDbLine
 10
13287.63975783364
 20
-1786.209758282705
 11
13287.63975783364
 21
-1787.353351822154
  0
LINE
  5
87
100
AcDbEntity
  8
1
  6
CONTINUOUS
 62
           7
100
AcDbLine
 10
13287.63975783364
 20
-1758.496945361603
 11
13287.63975783364
 21
-1757.353351822154
  0
LINE
  5
86
100
AcDbEntity
  8
1
  6
CONTINUOUS
 62
           7
100
AcDbLine
 10
13275.71155460336
 20
-1786.209758282705
 11
13274.63975783364
 21
-1784.353351822154
  0
LINE
  5
85
100
AcDbEntity
  8
1
  6
CONTINUOUS
 62
           7
100
AcDbLine
 10
13274.63975783364
 20
-1760.353351822154
 11
13275.71155460336
 21
-1758.496945361603
  0
LINE
  5
84
100
AcDbEntity
  8
1
  6
CONTINUOUS
 62
           7
100
AcDbLine
 10
13287.63975783364
 20
-1786.209758282705
 11
13275.71155460336
 21
-1786.209758282705
  0
LINE
  5
83
100
AcDbEntity
  8
1
  6
CONTINUOUS
 62
           7
100
AcDbLine
 10
13274.63975783364
 20
-1784.353351822154
 11
13274.63975783364
 21
-1760.353351822154
  0
LINE
  5
82
100
AcDbEntity
  8
1
  6
CONTINUOUS
 62
           7
100
AcDbLine
 10
13275.71155460336
 20
-1758.496945361603
 11
13287.63975783364
 21
-1758.496945361603
  0
LINE
  5
81
100
AcDbEntity
  8
1
  6
CONTINUOUS
 62
           7
100
AcDbLine
 10
13287.63975783364
 20
-1779.281555052429
 11
13275.71155460336
 21
-1779.281555052429
  0
LINE
  5
80
100
AcDbEntity
  8
1
  6
CONTINUOUS
 62
           7
100
AcDbLine
 10
13287.63975783364
 20
-1765.425148591879
 11
13275.71155460336
 21
-1765.425148591879
  0
LINE
  5
7F
100
AcDbEntity
  8
1
  6
CONTINUOUS
 62
           7
100
AcDbLine
 10
13262.63975783364
 20
-1780.353351822154
 11
13260.63975783364
 21
-1778.353351822154
  0
LINE
  5
7E
100
AcDbEntity
  8
1
  6
CONTINUOUS
 62
           7
100
AcDbLine
 10
13260.63975783364
 20
-1778.353351822154
 11
13260.63975783364
 21
-1766.353351822154
  0
LINE
  5
7D
100
AcDbEntity
  8
1
  6
CONTINUOUS
 62
           7
100
AcDbLine
 10
13260.63975783364
 20
-1766.353351822154
 11
13262.63975783364
 21
-1764.353351822154
  0
LINE
  5
7C
100
AcDbEntity
  8
1
  6
CONTINUOUS
 62
           7
100
AcDbLine
 10
13262.63975783364
 20
-1764.353351822154
 11
13274.63975783364
 21
-1764.353351822154
  0
LINE
  5
7B
100
AcDbEntity
  8
1
  6
CONTINUOUS
 62
           7
100
AcDbLine
 10
13262.63975783364
 20
-1780.353351822154
 11
13262.63975783364
 21
-1764.353351822154
  0
LINE
  5
7A
100
AcDbEntity
  8
1
  6
CONTINUOUS
 62
           3
100
AcDbLine
 10
13274.63975783364
 20
-1765.435851822154
 11
13261.55725783364
 21
-1765.435851822154
  0
LINE
  5
79
100
AcDbEntity
  8
1
  6
CONTINUOUS
 62
           3
100
AcDbLine
 10
13274.63975783364
 20
-1779.270851822154
 11
13261.55725783364
 21
-1779.270851822154
  0
LINE
  5
78
100
AcDbEntity
  8
1
  6
CONTINUOUS
 62
           7
100
AcDbLine
 10
13274.63975783364
 20
-1780.353351822154
 11
13262.63975783364
 21
-1780.353351822154
  0
LINE
  5
77
100
AcDbEntity
  8
1
  6
CONTINUOUS
 62
           7
100
AcDbLine
 10
13374.63975783364
 20
-1962.353351822154
 11
13325.26380847787
 21
-1962.353351822154
  0
LINE
  5
76
100
AcDbEntity
  8
1
  6
CONTINUOUS
 62
           7
100
AcDbLine
 10
13290.63975783364
 20
-1787.353351822154
 11
13315.372381655099
 21
-1953.822935235823
  0
LINE
  5
75
100
AcDbEntity
  8
1
  6
CONTINUOUS
 62
           7
100
AcDbLine
 10
13290.63975783364
 20
-1787.353351822154
 11
13315.372381655099
 21
-1953.822935235823
  0
LINE
  5
74
100
AcDbEntity
  8
1
  6
CONTINUOUS
 62
           7
100
AcDbLine
 10
13363.63975783364
 20
-1922.353351822154
 11
13374.63975783364
 21
-1922.353351822154
  0
LINE
  5
73
100
AcDbEntity
  8
1
  6
CONTINUOUS
 62
           7
100
AcDbLine
 10
13345.63975783364
 20
-1904.353351822154
 11
13345.63975783364
 21
-1787.353351822154
  0
LINE
  5
72
100
AcDbEntity
  8
1
  6
CONTINUOUS
 62
           7
100
AcDbLine
 10
13374.63975783364
 20
-1622.353351822154
 11
13363.63975783364
 21
-1622.353351822154
  0
LINE
  5
71
100
AcDbEntity
  8
1
  6
CONTINUOUS
 62
           7
100
AcDbLine
 10
13345.63975783364
 20
-1757.353351822154
 11
13345.63975783364
 21
-1640.353351822154
  0
LINE
  5
70
100
AcDbEntity
  8
1
  6
CONTINUOUS
 62
           7
100
AcDbLine
 10
13315.372381655099
 20
-1590.883768408485
 11
13290.63975783364
 21
-1757.353351822154
  0
LINE
  5
6F
100
AcDbEntity
  8
1
  6
CONTINUOUS
 62
           7
100
AcDbLine
 10
13325.26380847787
 20
-1582.353351822154
 11
13374.63975783364
 21
-1582.353351822154
  0
LINE
  5
6E
100
AcDbEntity
  8
1
  6
CONTINUOUS
 62
           7
100
AcDbLine
 10
13290.63975783364
 20
-1787.353351822154
 11
13290.63975783364
 21
-1757.353351822154
  0
LINE
  5
6D
100
AcDbEntity
  8
1
  6
CONTINUOUS
 62
           7
100
AcDbLine
 10
13345.63975783364
 20
-1787.353351822154
 11
13290.63975783364
 21
-1787.353351822154
  0
LINE
  5
6C
100
AcDbEntity
  8
1
  6
CONTINUOUS
 62
           7
100
AcDbLine
 10
13345.63975783364
 20
-1757.353351822154
 11
13345.63975783364
 21
-1787.353351822154
  0
LINE
  5
6B
100
AcDbEntity
  8
1
  6
CONTINUOUS
 62
           7
100
AcDbLine
 10
13290.63975783364
 20
-1757.353351822154
 11
13345.63975783364
 21
-1757.353351822154
  0
LINE
  5
6A
100
AcDbEntity
  8
1
  6
CONTINUOUS
 62
           7
100
AcDbLine
 10
13374.63975783364
 20
-1472.353351822154
 11
13374.63975783364
 21
-1622.353351822154
  0
LINE
  5
69
100
AcDbEntity
  8
1
  6
CONTINUOUS
 62
           7
100
AcDbLine
 10
13374.63975783364
 20
-2072.353351822154
 11
13380.63975783364
 21
-2072.353351822154
  0
LINE
  5
68
100
AcDbEntity
  8
1
  6
CONTINUOUS
 62
           7
100
AcDbLine
 10
13374.63975783364
 20
-1472.353351822154
 11
13380.63975783364
 21
-1472.353351822154
  0
LINE
  5
67
100
AcDbEntity
  8
1
  6
DOT_CENTER
 62
           2
100
AcDbLine
 10
13230.191563139781
 20
-1772.353351822154
 11
13518.02240011578
 21
-1772.353351822154
  0
LINE
  5
66
100
AcDbEntity
  8
1
  6
CONTINUOUS
 62
           7
100
AcDbLine
 10
13380.647312122321
 20
-2072.353351822154
 11
13380.647312122321
 21
-2172.353351822154
  0
LINE
  5
65
100
AcDbEntity
  8
1
  6
CONTINUOUS
 62
           7
100
AcDbLine
 10
11190.50164575855
 20
-3187.444332901506
 11
11190.50164575855
 21
-3285.889119858754
  0
LINE
  5
64
100
AcDbEntity
  8
1
  6
CONTINUOUS
 62
           7
100
AcDbLine
 10
11160.50164575855
 20
-3187.444332901506
 11
11160.50164575855
 21
-3279.279154875008
  0
LINE
  5
63
100
AcDbEntity
  8
1
  6
CONTINUOUS
 62
           7
100
AcDbLine
 10
11200.50164575855
 20
-3187.444332901506
 11
11150.50164575855
 21
-3187.444332901506
  0
LINE
  5
62
100
AcDbEntity
  8
1
  6
CONTINUOUS
 62
           7
100
AcDbLine
 10
11200.50164575855
 20
-3187.444332901506
 11
11200.50164575855
 21
-3242.444332901506
  0
LINE
  5
61
100
AcDbEntity
  8
1
  6
CONTINUOUS
 62
           7
100
AcDbLine
 10
11150.50164575855
 20
-3187.444332901506
 11
11150.50164575855
 21
-3242.444332901506
  0
LINE
  5
60
100
AcDbEntity
  8
1
  6
CONTINUOUS
 62
           7
100
AcDbLine
 10
11200.50164575855
 20
-3242.444332901506
 11
11190.50164575855
 21
-3242.444332901506
  0
LINE
  5
5F
100
AcDbEntity
  8
1
  6
CONTINUOUS
 62
           7
100
AcDbLine
 10
11150.50164575855
 20
-3242.444332901506
 11
11160.50164575855
 21
-3242.444332901506
  0
LINE
  5
5E
100
AcDbEntity
  8
1
  6
CONTINUOUS
 62
           7
100
AcDbLine
 10
11190.50164575855
 20
-3187.444332901506
 11
11160.50164575855
 21
-3187.444332901506
  0
LINE
  5
5D
100
AcDbEntity
  8
1
  6
CONTINUOUS
 62
           7
100
AcDbLine
 10
11160.50164575855
 20
-3187.444332901506
 11
11160.50164575855
 21
-3184.444332901506
  0
LINE
  5
5C
100
AcDbEntity
  8
1
  6
CONTINUOUS
 62
           7
100
AcDbLine
 10
11160.50164575855
 20
-3184.444332901506
 11
11190.50164575855
 21
-3184.444332901506
  0
LINE
  5
5B
100
AcDbEntity
  8
1
  6
CONTINUOUS
 62
           7
100
AcDbLine
 10
11190.50164575855
 20
-3184.444332901506
 11
11190.50164575855
 21
-3187.444332901506
  0
LINE
  5
5A
100
AcDbEntity
  8
1
  6
CONTINUOUS
 62
           7
100
AcDbLine
 10
11161.645239298001
 20
-3184.444332901506
 11
11160.50164575855
 21
-3184.444332901506
  0
LINE
  5
59
100
AcDbEntity
  8
1
  6
CONTINUOUS
 62
           7
100
AcDbLine
 10
11189.35805221911
 20
-3184.444332901506
 11
11190.50164575855
 21
-3184.444332901506
  0
LINE
  5
58
100
AcDbEntity
  8
1
  6
CONTINUOUS
 62
           7
100
AcDbLine
 10
11161.645239298001
 20
-3172.51612967123
 11
11163.50164575855
 21
-3171.444332901506
  0
LINE
  5
57
100
AcDbEntity
  8
1
  6
CONTINUOUS
 62
           7
100
AcDbLine
 10
11187.50164575855
 20
-3171.444332901506
 11
11189.35805221911
 21
-3172.51612967123
  0
LINE
  5
56
100
AcDbEntity
  8
1
  6
CONTINUOUS
 62
           7
100
AcDbLine
 10
11161.645239298001
 20
-3184.444332901506
 11
11161.645239298001
 21
-3172.51612967123
  0
LINE
  5
55
100
AcDbEntity
  8
1
  6
CONTINUOUS
 62
           7
100
AcDbLine
 10
11163.50164575855
 20
-3171.444332901506
 11
11187.50164575855
 21
-3171.444332901506
  0
LINE
  5
54
100
AcDbEntity
  8
1
  6
CONTINUOUS
 62
           7
100
AcDbLine
 10
11189.35805221911
 20
-3172.51612967123
 11
11189.35805221911
 21
-3184.444332901506
  0
LINE
  5
53
100
AcDbEntity
  8
1
  6
CONTINUOUS
 62
           7
100
AcDbLine
 10
11168.573442528281
 20
-3184.444332901506
 11
11168.573442528281
 21
-3172.51612967123
  0
LINE
  5
52
100
AcDbEntity
  8
1
  6
CONTINUOUS
 62
           7
100
AcDbLine
 10
11182.42984898883
 20
-3184.444332901506
 11
11182.42984898883
 21
-3172.51612967123
  0
LINE
  5
51
100
AcDbEntity
  8
1
  6
DOT_CENTER
 62
           2
100
AcDbLine
 10
11175.50164575855
 20
-3294.325194155702
 11
11175.50164575855
 21
-3143.602981672184
  0
LINE
  5
50
100
AcDbEntity
  8
1
  6
CONTINUOUS
 62
           7
100
AcDbLine
 10
11167.50164575855
 20
-3159.444332901506
 11
11169.50164575855
 21
-3157.444332901506
  0
LINE
  5
4F
100
AcDbEntity
  8
1
  6
CONTINUOUS
 62
           7
100
AcDbLine
 10
11169.50164575855
 20
-3157.444332901506
 11
11181.50164575855
 21
-3157.444332901506
  0
LINE
  5
4E
100
AcDbEntity
  8
1
  6
CONTINUOUS
 62
           7
100
AcDbLine
 10
11181.50164575855
 20
-3157.444332901506
 11
11183.50164575855
 21
-3159.444332901506
  0
LINE
  5
4D
100
AcDbEntity
  8
1
  6
CONTINUOUS
 62
           7
100
AcDbLine
 10
11183.50164575855
 20
-3159.444332901506
 11
11183.50164575855
 21
-3171.444332901506
  0
LINE
  5
4C
100
AcDbEntity
  8
1
  6
CONTINUOUS
 62
           7
100
AcDbLine
 10
11167.50164575855
 20
-3159.444332901506
 11
11183.50164575855
 21
-3159.444332901506
  0
LINE
  5
4B
100
AcDbEntity
  8
1
  6
CONTINUOUS
 62
           3
100
AcDbLine
 10
11182.41914575856
 20
-3171.444332901506
 11
11182.41914575856
 21
-3158.361832901506
  0
LINE
  5
4A
100
AcDbEntity
  8
1
  6
CONTINUOUS
 62
           3
100
AcDbLine
 10
11168.58414575855
 20
-3171.444332901506
 11
11168.58414575855
 21
-3158.361832901506
  0
LINE
  5
49
100
AcDbEntity
  8
1
  6
CONTINUOUS
 62
           7
100
AcDbLine
 10
11167.50164575855
 20
-3171.444332901506
 11
11167.50164575855
 21
-3159.444332901506
  0
LINE
  5
48
100
AcDbEntity
  8
1
  6
CONTINUOUS
 62
           7
100
AcDbLine
 10
10983.50164575855
 20
-3159.444332901506
 11
10983.50164575855
 21
-3171.444332901506
  0
LINE
  5
47
100
AcDbEntity
  8
1
  6
CONTINUOUS
 62
           3
100
AcDbLine
 10
10982.41914575856
 20
-3158.361832901506
 11
10982.41914575856
 21
-3171.444332901506
  0
LINE
  5
46
100
AcDbEntity
  8
1
  6
CONTINUOUS
 62
           3
100
AcDbLine
 10
10968.58414575855
 20
-3158.361832901506
 11
10968.58414575855
 21
-3171.444332901506
  0
LINE
  5
45
100
AcDbEntity
  8
1
  6
CONTINUOUS
 62
           7
100
AcDbLine
 10
10967.50164575855
 20
-3159.444332901506
 11
10983.50164575855
 21
-3159.444332901506
  0
LINE
  5
44
100
AcDbEntity
  8
1
  6
CONTINUOUS
 62
           7
100
AcDbLine
 10
10967.50164575855
 20
-3171.444332901506
 11
10967.50164575855
 21
-3159.444332901506
  0
LINE
  5
43
100
AcDbEntity
  8
1
  6
CONTINUOUS
 62
           7
100
AcDbLine
 10
10967.50164575855
 20
-3159.444332901506
 11
10969.50164575855
 21
-3157.444332901506
  0
LINE
  5
42
100
AcDbEntity
  8
1
  6
CONTINUOUS
 62
           7
100
AcDbLine
 10
10969.50164575855
 20
-3157.444332901506
 11
10981.50164575855
 21
-3157.444332901506
  0
LINE
  5
41
100
AcDbEntity
  8
1
  6
CONTINUOUS
 62
           7
100
AcDbLine
 10
10981.50164575855
 20
-3157.444332901506
 11
10983.50164575855
 21
-3159.444332901506
  0
LINE
  5
40
100
AcDbEntity
  8
1
  6
DOT_CENTER
 62
           2
100
AcDbLine
 10
10975.50164575855
 20
-3143.602981672184
 11
10975.50164575855
 21
-3294.325194155702
  0
LINE
  5
3F
100
AcDbEntity
  8
1
  6
CONTINUOUS
 62
           7
100
AcDbLine
 10
10968.573442528281
 20
-3172.51612967123
 11
10968.573442528281
 21
-3184.444332901506
  0
LINE
  5
3E
100
AcDbEntity
  8
1
  6
CONTINUOUS
 62
           7
100
AcDbLine
 10
10982.42984898883
 20
-3172.51612967123
 11
10982.42984898883
 21
-3184.444332901506
  0
LINE
  5
3D
100
AcDbEntity
  8
1
  6
CONTINUOUS
 62
           7
100
AcDbLine
 10
10961.645239298001
 20
-3184.444332901506
 11
10961.645239298001
 21
-3172.51612967123
  0
LINE
  5
3C
100
AcDbEntity
  8
1
  6
CONTINUOUS
 62
           7
100
AcDbLine
 10
10963.50164575855
 20
-3171.444332901506
 11
10987.50164575855
 21
-3171.444332901506
  0
LINE
  5
3B
100
AcDbEntity
  8
1
  6
CONTINUOUS
 62
           7
100
AcDbLine
 10
10989.35805221911
 20
-3172.51612967123
 11
10989.35805221911
 21
-3184.444332901506
  0
LINE
  5
3A
100
AcDbEntity
  8
1
  6
CONTINUOUS
 62
           7
100
AcDbLine
 10
10961.645239298001
 20
-3172.51612967123
 11
10963.50164575855
 21
-3171.444332901506
  0
LINE
  5
39
100
AcDbEntity
  8
1
  6
CONTINUOUS
 62
           7
100
AcDbLine
 10
10987.50164575855
 20
-3171.444332901506
 11
10989.35805221911
 21
-3172.51612967123
  0
LINE
  5
38
100
AcDbEntity
  8
1
  6
CONTINUOUS
 62
           7
100
AcDbLine
 10
10960.50164575855
 20
-3184.444332901506
 11
10961.645239298001
 21
-3184.444332901506
  0
LINE
  5
37
100
AcDbEntity
  8
1
  6
CONTINUOUS
 62
           7
100
AcDbLine
 10
10990.50164575855
 20
-3184.444332901506
 11
10989.35805221911
 21
-3184.444332901506
  0
LINE
  5
36
100
AcDbEntity
  8
1
  6
CONTINUOUS
 62
           7
100
AcDbLine
 10
10960.50164575855
 20
-3187.444332901506
 11
10960.50164575855
 21
-3184.444332901506
  0
LINE
  5
35
100
AcDbEntity
  8
1
  6
CONTINUOUS
 62
           7
100
AcDbLine
 10
10960.50164575855
 20
-3184.444332901506
 11
10990.50164575855
 21
-3184.444332901506
  0
LINE
  5
34
100
AcDbEntity
  8
1
  6
CONTINUOUS
 62
           7
100
AcDbLine
 10
10990.50164575855
 20
-3184.444332901506
 11
10990.50164575855
 21
-3187.444332901506
  0
LINE
  5
33
100
AcDbEntity
  8
1
  6
CONTINUOUS
 62
           7
100
AcDbLine
 10
10990.50164575855
 20
-3187.444332901506
 11
10960.50164575855
 21
-3187.444332901506
  0
LINE
  5
32
100
AcDbEntity
  8
1
  6
CONTINUOUS
 62
           7
100
AcDbLine
 10
10990.50164575855
 20
-3242.444332901506
 11
11000.50164575855
 21
-3242.444332901506
  0
LINE
  5
31
100
AcDbEntity
  8
1
  6
CONTINUOUS
 62
           7
100
AcDbLine
 10
10960.50164575855
 20
-3242.444332901506
 11
10950.50164575855
 21
-3242.444332901506
  0
LINE
  5
30
100
AcDbEntity
  8
1
  6
CONTINUOUS
 62
           7
100
AcDbLine
 10
11000.50164575855
 20
-3242.444332901506
 11
11000.50164575855
 21
-3187.444332901506
  0
LINE
  5
2F
100
AcDbEntity
  8
1
  6
CONTINUOUS
 62
           7
100
AcDbLine
 10
10950.50164575855
 20
-3242.444332901506
 11
10950.50164575855
 21
-3187.444332901506
  0
LINE
  5
2E
100
AcDbEntity
  8
1
  6
CONTINUOUS
 62
           7
100
AcDbLine
 10
11000.50164575855
 20
-3187.444332901506
 11
10950.50164575855
 21
-3187.444332901506
  0
LINE
  5
2D
100
AcDbEntity
  8
1
  6
CONTINUOUS
 62
           7
100
AcDbLine
 10
10990.50164575855
 20
-3279.279154875008
 11
10990.50164575855
 21
-3187.444332901506
  0
LINE
  5
2C
100
AcDbEntity
  8
1
  6
CONTINUOUS
 62
           7
100
AcDbLine
 10
10960.50164575855
 20
-3285.889119858754
 11
10960.50164575855
 21
-3187.444332901506
  0
POINT
  5
2B
100
AcDbEntity
  8
1
 62
           6
100
AcDbPoint
 10
10439.84309319161
 20
-1048.69452160404
  0
POINT
  5
2A
100
AcDbEntity
  8
1
 62
           6
100
AcDbPoint
 10
11352.236399442691
 20
-92.850275348314
  0
ENDBLK
  5
488
100
AcDbEntity
  8
0
100
AcDbBlockEnd
  0
ENDSEC
  0
SECTION
  2
ENTITIES
  0
TEXT
  5
48B
100
AcDbEntity
  8
1
 62
           2
100
AcDbText
 10
16490.277128906131
 20
-4366.656868680892
 40
52.5
  1
SAT-1501C-85
 41
0.9
  7
CONVERTER_1
100
AcDbText
  0
INSERT
  5
29
100
AcDbEntity
  8
0
100
AcDbBlockReference
  2
SAT1501C85__1
 10
0.0
 20
0.0
  0
ENDSEC
  0
SECTION
  2
OBJECTS
  0
DICTIONARY
  5
19
100
AcDbDictionary
  3
ACAD_GROUP
350
1A
  3
ACAD_MLINESTYLE
350
1B
  0
DICTIONARY
  5
1A
102
{ACAD_REACTORS
330
19
102
}
100
AcDbDictionary
  0
DICTIONARY
  5
1B
102
{ACAD_REACTORS
330
19
102
}
100
AcDbDictionary
  3
STANDARD
350
1C
  0
MLINESTYLE
  5
1C
102
{ACAD_REACTORS
330
1B
102
}
100
AcDbMlineStyle
  2
STANDARD
 70
           0
  3

 62
           0
 51
90.0
 52
90.0
 71
           2
 49
0.5
 62
         256
  6
BYLAYER
 49
-0.5
 62
         256
  6
BYLAYER
  0
ENDSEC
  0
EOF
