  0
SECTION
  2
HEADER
  9
$ACADVER
  1
AC1027
  9
$ACADMAINTVER
 70
   105
  9
$DWGCODEPAGE
  3
ANSI_932
  9
$REQUIREDVERSIONS
160
                 0
  9
$LASTSAVEDBY
  1
kurimoto
  9
$INSBASE
 10
0.0
 20
0.0
 30
0.0
  9
$EXTMIN
 10
10699.79891752662
 20
-4430.86068354169
 30
0.0
  9
$EXTMAX
 10
17033.65212890613
 20
141.3786300864285
 30
0.0
  9
$LIMMIN
 10
0.0
 20
0.0
  9
$LIMMAX
 10
0.0
 20
0.0
  9
$ORTHOMODE
 70
     0
  9
$REGENMODE
 70
     1
  9
$FILLMODE
 70
     1
  9
$QTEXTMODE
 70
     0
  9
$MIRRTEXT
 70
     1
  9
$LTSCALE
 40
1.0
  9
$ATTMODE
 70
     1
  9
$TEXTSIZE
 40
0.0
  9
$TRACEWID
 40
0.05
  9
$TEXTSTYLE
  7
STANDARD
  9
$CLAYER
  8
0
  9
$CELTYPE
  6
CONTINUOUS
  9
$CECOLOR
 62
   256
  9
$CELTSCALE
 40
1.0
  9
$DISPSILH
 70
     0
  9
$DIMSCALE
 40
1.0
  9
$DIMASZ
 40
0.18
  9
$DIMEXO
 40
0.0625
  9
$DIMDLI
 40
0.38
  9
$DIMRND
 40
0.0
  9
$DIMDLE
 40
0.0
  9
$DIMEXE
 40
0.18
  9
$DIMTP
 40
0.0
  9
$DIMTM
 40
0.0
  9
$DIMTXT
 40
0.18
  9
$DIMCEN
 40
0.09
  9
$DIMTSZ
 40
0.0
  9
$DIMTOL
 70
     0
  9
$DIMLIM
 70
     0
  9
$DIMTIH
 70
     1
  9
$DIMTOH
 70
     1
  9
$DIMSE1
 70
     0
  9
$DIMSE2
 70
     0
  9
$DIMTAD
 70
     0
  9
$DIMZIN
 70
     0
  9
$DIMBLK
  1

  9
$DIMASO
 70
     1
  9
$DIMSHO
 70
     1
  9
$DIMPOST
  1

  9
$DIMAPOST
  1

  9
$DIMALT
 70
     0
  9
$DIMALTD
 70
     2
  9
$DIMALTF
 40
25.4
  9
$DIMLFAC
 40
1.0
  9
$DIMTOFL
 70
     0
  9
$DIMTVP
 40
0.0
  9
$DIMTIX
 70
     0
  9
$DIMSOXD
 70
     0
  9
$DIMSAH
 70
     0
  9
$DIMBLK1
  1

  9
$DIMBLK2
  1

  9
$DIMSTYLE
  2
STANDARD
  9
$DIMCLRD
 70
     0
  9
$DIMCLRE
 70
     0
  9
$DIMCLRT
 70
     0
  9
$DIMTFAC
 40
1.0
  9
$DIMGAP
 40
0.09
  9
$DIMJUST
 70
     0
  9
$DIMSD1
 70
     0
  9
$DIMSD2
 70
     0
  9
$DIMTOLJ
 70
     1
  9
$DIMTZIN
 70
     0
  9
$DIMALTZ
 70
     0
  9
$DIMALTTZ
 70
     0
  9
$DIMUPT
 70
     0
  9
$DIMDEC
 70
     4
  9
$DIMTDEC
 70
     4
  9
$DIMALTU
 70
     2
  9
$DIMALTTD
 70
     2
  9
$DIMTXSTY
  7
STANDARD
  9
$DIMAUNIT
 70
     0
  9
$DIMADEC
 70
     0
  9
$DIMALTRND
 40
0.0
  9
$DIMAZIN
 70
     0
  9
$DIMDSEP
 70
    46
  9
$DIMATFIT
 70
     3
  9
$DIMFRAC
 70
     0
  9
$DIMLDRBLK
  1

  9
$DIMLUNIT
 70
     2
  9
$DIMLWD
 70
    -2
  9
$DIMLWE
 70
    -2
  9
$DIMTMOVE
 70
     2
  9
$DIMFXL
 40
1.0
  9
$DIMFXLON
 70
     0
  9
$DIMJOGANG
 40
0.7853981633974483
  9
$DIMTFILL
 70
     0
  9
$DIMTFILLCLR
 70
     0
  9
$DIMARCSYM
 70
     0
  9
$DIMLTYPE
  6

  9
$DIMLTEX1
  6

  9
$DIMLTEX2
  6

  9
$DIMTXTDIRECTION
 70
     0
  9
$LUNITS
 70
     2
  9
$LUPREC
 70
     4
  9
$SKETCHINC
 40
0.1
  9
$FILLETRAD
 40
0.0
  9
$AUNITS
 70
     0
  9
$AUPREC
 70
     0
  9
$MENU
  1
acad
  9
$ELEVATION
 40
0.0
  9
$PELEVATION
 40
0.0
  9
$THICKNESS
 40
0.0
  9
$LIMCHECK
 70
     0
  9
$CHAMFERA
 40
0.0
  9
$CHAMFERB
 40
0.0
  9
$CHAMFERC
 40
0.0
  9
$CHAMFERD
 40
0.0
  9
$SKPOLY
 70
     0
  9
$TDCREATE
 40
2447893.0
  9
$TDUCREATE
 40
2447892.625
  9
$TDUPDATE
 40
2458624.382483148
  9
$TDUUPDATE
 40
2458624.007483148
  9
$TDINDWG
 40
0.0101995486
  9
$TDUSRTIMER
 40
0.00011125
  9
$USRTIMER
 70
     1
  9
$ANGBASE
 50
0.0
  9
$ANGDIR
 70
     0
  9
$PDMODE
 70
     0
  9
$PDSIZE
 40
0.0
  9
$PLINEWID
 40
0.0
  9
$SPLFRAME
 70
     0
  9
$SPLINETYPE
 70
     6
  9
$SPLINESEGS
 70
     8
  9
$HANDSEED
  5
19CF
  9
$SURFTAB1
 70
     6
  9
$SURFTAB2
 70
     6
  9
$SURFTYPE
 70
     6
  9
$SURFU
 70
     6
  9
$SURFV
 70
     6
  9
$UCSBASE
  2

  9
$UCSNAME
  2

  9
$UCSORG
 10
0.0
 20
0.0
 30
0.0
  9
$UCSXDIR
 10
1.0
 20
0.0
 30
0.0
  9
$UCSYDIR
 10
0.0
 20
1.0
 30
0.0
  9
$UCSORTHOREF
  2

  9
$UCSORTHOVIEW
 70
     0
  9
$UCSORGTOP
 10
0.0
 20
0.0
 30
0.0
  9
$UCSORGBOTTOM
 10
0.0
 20
0.0
 30
0.0
  9
$UCSORGLEFT
 10
0.0
 20
0.0
 30
0.0
  9
$UCSORGRIGHT
 10
0.0
 20
0.0
 30
0.0
  9
$UCSORGFRONT
 10
0.0
 20
0.0
 30
0.0
  9
$UCSORGBACK
 10
0.0
 20
0.0
 30
0.0
  9
$PUCSBASE
  2

  9
$PUCSNAME
  2

  9
$PUCSORG
 10
0.0
 20
0.0
 30
0.0
  9
$PUCSXDIR
 10
1.0
 20
0.0
 30
0.0
  9
$PUCSYDIR
 10
0.0
 20
1.0
 30
0.0
  9
$PUCSORTHOREF
  2

  9
$PUCSORTHOVIEW
 70
     0
  9
$PUCSORGTOP
 10
0.0
 20
0.0
 30
0.0
  9
$PUCSORGBOTTOM
 10
0.0
 20
0.0
 30
0.0
  9
$PUCSORGLEFT
 10
0.0
 20
0.0
 30
0.0
  9
$PUCSORGRIGHT
 10
0.0
 20
0.0
 30
0.0
  9
$PUCSORGFRONT
 10
0.0
 20
0.0
 30
0.0
  9
$PUCSORGBACK
 10
0.0
 20
0.0
 30
0.0
  9
$USERI1
 70
     0
  9
$USERI2
 70
     0
  9
$USERI3
 70
     0
  9
$USERI4
 70
     0
  9
$USERI5
 70
     0
  9
$USERR1
 40
0.0
  9
$USERR2
 40
0.0
  9
$USERR3
 40
0.0
  9
$USERR4
 40
0.0
  9
$USERR5
 40
0.0
  9
$WORLDVIEW
 70
     1
  9
$SHADEDGE
 70
     3
  9
$SHADEDIF
 70
    70
  9
$TILEMODE
 70
     1
  9
$MAXACTVP
 70
    16
  9
$PINSBASE
 10
0.0
 20
0.0
 30
0.0
  9
$PLIMCHECK
 70
     0
  9
$PEXTMIN
 10
1.05
 20
0.6999999999999997
 30
0.0
  9
$PEXTMAX
 10
9.45
 20
6.300000000000001
 30
0.0
  9
$PLIMMIN
 10
-0.25
 20
-0.7500000000000001
  9
$PLIMMAX
 10
10.75
 20
7.75
  9
$UNITMODE
 70
     0
  9
$VISRETAIN
 70
     0
  9
$PLINEGEN
 70
     1
  9
$PSLTSCALE
 70
     1
  9
$TREEDEPTH
 70
  3020
  9
$CMLSTYLE
  2
STANDARD
  9
$CMLJUST
 70
     0
  9
$CMLSCALE
 40
1.0
  9
$PROXYGRAPHICS
 70
     0
  9
$MEASUREMENT
 70
     0
  9
$CELWEIGHT
370
    -1
  9
$ENDCAPS
280
     0
  9
$JOINSTYLE
280
     0
  9
$LWDISPLAY
290
     0
  9
$INSUNITS
 70
     0
  9
$HYPERLINKBASE
  1

  9
$STYLESHEET
  1

  9
$XEDIT
290
     1
  9
$CEPSNTYPE
380
     0
  9
$PSTYLEMODE
290
     1
  9
$FINGERPRINTGUID
  2
{0FDB2459-3DE2-4BA3-9A76-F72718084EDA}
  9
$VERSIONGUID
  2
{FAEB1C32-E019-11D5-929B-00C0DF256EC4}
  9
$EXTNAMES
290
     1
  9
$PSVPSCALE
 40
0.0
  9
$OLESTARTUP
290
     0
  9
$SORTENTS
280
   127
  9
$INDEXCTL
280
     0
  9
$HIDETEXT
280
     1
  9
$XCLIPFRAME
280
     2
  9
$HALOGAP
280
     0
  9
$OBSCOLOR
 70
   257
  9
$OBSLTYPE
280
     0
  9
$INTERSECTIONDISPLAY
280
     0
  9
$INTERSECTIONCOLOR
 70
   257
  9
$DIMASSOC
280
     2
  9
$PROJECTNAME
  1

  9
$CAMERADISPLAY
290
     0
  9
$LENSLENGTH
 40
50.0
  9
$CAMERAHEIGHT
 40
0.0
  9
$STEPSPERSEC
 40
2.0
  9
$STEPSIZE
 40
6.0
  9
$3DDWFPREC
 40
2.0
  9
$PSOLWIDTH
 40
0.25
  9
$PSOLHEIGHT
 40
4.0
  9
$LOFTANG1
 40
1.570796326794897
  9
$LOFTANG2
 40
1.570796326794897
  9
$LOFTMAG1
 40
0.0
  9
$LOFTMAG2
 40
0.0
  9
$LOFTPARAM
 70
     7
  9
$LOFTNORMALS
280
     1
  9
$LATITUDE
 40
37.795
  9
$LONGITUDE
 40
-122.394
  9
$NORTHDIRECTION
 40
0.0
  9
$TIMEZONE
 70
 -8000
  9
$LIGHTGLYPHDISPLAY
280
     1
  9
$TILEMODELIGHTSYNCH
280
     1
  9
$SOLIDHIST
280
     0
  9
$SHOWHIST
280
     1
  9
$DWFFRAME
280
     2
  9
$DGNFRAME
280
     2
  9
$REALWORLDSCALE
290
     1
  9
$INTERFERECOLOR
 62
   256
  9
$CSHADOW
280
     0
  9
$SHADOWPLANELOCATION
 40
0.0
  0
ENDSEC
  0
SECTION
  2
CLASSES
  0
CLASS
  1
LWPOLYLINE
  2
AcDbPolyline
  3
ObjectDBX Classes
 90
        0
 91
        1
280
     0
281
     1
  0
CLASS
  1
IMAGE
  2
AcDbRasterImage
  3
ISM
 90
      127
 91
        5
280
     0
281
     1
  0
CLASS
  1
OLE2FRAME
  2
AcDbOle2Frame
  3
ObjectDBX Classes
 90
        0
 91
        1
280
     0
281
     1
  0
CLASS
  1
HATCH
  2
AcDbHatch
  3
ObjectDBX Classes
 90
        0
 91
        1
280
     0
281
     1
  0
CLASS
  1
DICTIONARYVAR
  2
AcDbDictionaryVar
  3
ObjectDBX Classes
 90
        0
 91
        4
280
     0
281
     0
  0
CLASS
  1
RASTERVARIABLES
  2
AcDbRasterVariables
  3
ISM
 90
        0
 91
        4
280
     0
281
     0
  0
CLASS
  1
IMAGEDEF
  2
AcDbRasterImageDef
  3
ISM
 90
        0
 91
        4
280
     0
281
     0
  0
CLASS
  1
IMAGEDEF_REACTOR
  2
AcDbRasterImageDefReactor
  3
ISM
 90
        1
 91
        4
280
     0
281
     0
  0
CLASS
  1
IDBUFFER
  2
AcDbIdBuffer
  3
ObjectDBX Classes
 90
        0
 91
        4
280
     0
281
     0
  0
CLASS
  1
SPATIAL_FILTER
  2
AcDbSpatialFilter
  3
ObjectDBX Classes
 90
        0
 91
        4
280
     0
281
     0
  0
CLASS
  1
XRECORD
  2
AcDbXrecord
  3
ObjectDBX Classes
 90
        0
 91
        1
280
     0
281
     0
  0
CLASS
  1
SORTENTSTABLE
  2
AcDbSortentsTable
  3
ObjectDBX Classes
 90
        0
 91
        4
280
     0
281
     0
  0
CLASS
  1
LAYER_INDEX
  2
AcDbLayerIndex
  3
ObjectDBX Classes
 90
        0
 91
        4
280
     0
281
     0
  0
CLASS
  1
SPATIAL_INDEX
  2
AcDbSpatialIndex
  3
AutoCAD 2000
 90
        0
 91
        4
280
     0
281
     0
  0
CLASS
  1
OBJECT_PTR
  2
CAseDLPNTableRecord
  3
ASE-LPNTableRecord
 90
        1
 91
        4
280
     0
281
     0
  0
CLASS
  1
LAYOUT
  2
AcDbLayout
  3
ObjectDBX Classes
 90
        0
 91
        1
280
     0
281
     0
  0
CLASS
  1
PLOTSETTINGS
  2
AcDbPlotSettings
  3
ObjectDBX Classes
 90
        0
 91
        4
280
     0
281
     0
  0
CLASS
  1
ACDBDICTIONARYWDFLT
  2
AcDbDictionaryWithDefault
  3
ObjectDBX Classes
 90
        0
 91
        4
280
     0
281
     0
  0
CLASS
  1
ACDBPLACEHOLDER
  2
AcDbPlaceHolder
  3
ObjectDBX Classes
 90
        0
 91
        1
280
     0
281
     0
  0
CLASS
  1
VBA_PROJECT
  2
AcDbVbaProject
  3
ObjectDBX Classes
 90
        0
 91
        1
280
     0
281
     0
  0
CLASS
  1
WIPEOUT
  2
AcDbWipeout
  3
WipeOut|AutoCAD Express Tool|expresstools@autodesk.com
 90
      127
 91
        4
280
     0
281
     1
  0
CLASS
  1
WIPEOUTVARIABLES
  2
AcDbWipeoutVariables
  3
WipeOut|AutoCAD Express Tool|expresstools@autodesk.com
 90
        0
 91
        4
280
     0
281
     0
  0
CLASS
  1
RTEXT
  2
RText
  3
RText|AutoCAD Express Tool|expresstools@autodesk.com
 90
        0
 91
        4
280
     0
281
     1
  0
CLASS
  1
ARCALIGNEDTEXT
  2
AcDbArcAlignedText
  3
ATEXT|AutoCAD Express Tool|expresstools@autodesk.com
 90
        0
 91
        4
280
     0
281
     1
  0
CLASS
  1
SCALE
  2
AcDbScale
  3
ObjectDBX Classes
 90
     1153
 91
        4
280
     0
281
     0
  0
CLASS
  1
VISUALSTYLE
  2
AcDbVisualStyle
  3
ObjectDBX Classes
 90
     4095
 91
        4
280
     0
281
     0
  0
CLASS
  1
MATERIAL
  2
AcDbMaterial
  3
ObjectDBX Classes
 90
     1153
 91
        4
280
     0
281
     0
  0
CLASS
  1
TABLESTYLE
  2
AcDbTableStyle
  3
ObjectDBX Classes
 90
     4095
 91
        4
280
     0
281
     0
  0
CLASS
  1
MLEADERSTYLE
  2
AcDbMLeaderStyle
  3
ACDB_MLEADERSTYLE_CLASS
 90
     4095
 91
        4
280
     0
281
     0
  0
CLASS
  1
CELLSTYLEMAP
  2
AcDbCellStyleMap
  3
ObjectDBX Classes
 90
     1152
 91
        4
280
     0
281
     0
  0
CLASS
  1
SUN
  2
AcDbSun
  3
SCENEOE
 90
     1153
 91
        4
280
     0
281
     0
  0
ENDSEC
  0
SECTION
  2
TABLES
  0
TABLE
  2
VPORT
  5
7
330
0
100
AcDbSymbolTable
 70
     1
  0
VPORT
  5
15
330
7
100
AcDbSymbolTableRecord
100
AcDbViewportTableRecord
  2
*ACTIVE
 70
     0
 10
0.0
 20
0.0
 11
1.0
 21
1.0
 12
13866.72552321638
 22
-2144.741015295267
 13
0.0
 23
0.0
 14
1.0
 24
1.0
 15
0.0
 25
0.0
 16
0.0
 26
0.0
 36
1.0
 17
0.0
 27
0.0
 37
0.0
 40
4663.684076578659
 41
2.085858585858586
 42
50.0
 43
0.0
 44
0.0
 50
0.0
 51
0.0
 71
    16
 72
   100
 73
     1
 74
     1
 75
     0
 76
     0
 77
     0
 78
     0
281
     0
 65
     1
110
0.0
120
0.0
130
0.0
111
1.0
121
0.0
131
0.0
112
0.0
122
1.0
132
0.0
 79
     0
146
0.0
348
529
 60
     3
 61
     5
292
     1
282
     1
141
0.0
142
0.0
 63
   256
361
19C8
  0
ENDTAB
  0
TABLE
  2
LTYPE
  5
4
330
0
100
AcDbSymbolTable
 70
     8
  0
LTYPE
  5
11
330
4
100
AcDbSymbolTableRecord
100
AcDbLinetypeTableRecord
  2
BYBLOCK
 70
     0
  3

 72
    65
 73
     0
 40
0.0
  0
LTYPE
  5
12
330
4
100
AcDbSymbolTableRecord
100
AcDbLinetypeTableRecord
  2
BYLAYER
 70
     0
  3

 72
    65
 73
     0
 40
0.0
  0
LTYPE
  5
13
330
4
100
AcDbSymbolTableRecord
100
AcDbLinetypeTableRecord
  2
CONTINUOUS
 70
     0
  3
Solid line
 72
    65
 73
     0
 40
0.0
  0
LTYPE
  5
1D
330
4
100
AcDbSymbolTableRecord
100
AcDbLinetypeTableRecord
  2
DASHED
 70
     0
  3
Dashed
 72
    65
 73
     2
 40
15.0
 49
12.0
 74
     0
 49
-3.0
 74
     0
  0
LTYPE
  5
1E
330
4
100
AcDbSymbolTableRecord
100
AcDbLinetypeTableRecord
  2
DOTTED
 70
     0
  3
Dotted
 72
    65
 73
     2
 40
3.5
 49
0.5
 74
     0
 49
-3.0
 74
     0
  0
LTYPE
  5
1F
330
4
100
AcDbSymbolTableRecord
100
AcDbLinetypeTableRecord
  2
DOT_CENTER
 70
     0
  3
Dot_Center
 72
    65
 73
     4
 40
2.0
 49
1.25
 74
     0
 49
-0.25
 74
     0
 49
0.25
 74
     0
 49
-0.25
 74
     0
  0
LTYPE
  5
20
330
4
100
AcDbSymbolTableRecord
100
AcDbLinetypeTableRecord
  2
LONG_DASHED
 70
     0
  3
Long_Dashed
 72
    65
 73
     2
 40
2.0
 49
1.5
 74
     0
 49
-0.5
 74
     0
  0
LTYPE
  5
21
330
4
100
AcDbSymbolTableRecord
100
AcDbLinetypeTableRecord
  2
DASH_CENTER
 70
     0
  3
Dash_Center
 72
    65
 73
     4
 40
36.0
 49
24.0
 74
     0
 49
-3.0
 74
     0
 49
6.0
 74
     0
 49
-3.0
 74
     0
  0
LTYPE
  5
22
330
4
100
AcDbSymbolTableRecord
100
AcDbLinetypeTableRecord
  2
PHANTOM
 70
     0
  3
Phantom
 72
    65
 73
     6
 40
2.5
 49
1.25
 74
     0
 49
-0.25
 74
     0
 49
0.25
 74
     0
 49
-0.25
 74
     0
 49
0.25
 74
     0
 49
-0.25
 74
     0
  0
LTYPE
  5
23
330
4
100
AcDbSymbolTableRecord
100
AcDbLinetypeTableRecord
  2
CENTER_DASH_DASH
 70
     0
  3
Center_Dash_Dash
 72
    65
 73
     6
 40
22.0
 49
12.0
 74
     0
 49
-3.0
 74
     0
 49
0.5
 74
     0
 49
-3.0
 74
     0
 49
0.5
 74
     0
 49
-3.0
 74
     0
  0
ENDTAB
  0
TABLE
  2
LAYER
  5
2
330
0
100
AcDbSymbolTable
 70
     2
  0
LAYER
  5
14
330
2
100
AcDbSymbolTableRecord
100
AcDbLayerTableRecord
  2
0
 70
     0
 62
     7
  6
CONTINUOUS
370
    -3
390
4FE
347
540
348
0
  0
LAYER
  5
24
330
2
100
AcDbSymbolTableRecord
100
AcDbLayerTableRecord
  2
1
 70
     0
 62
     7
  6
CONTINUOUS
370
    -3
390
4FE
347
540
348
0
  0
ENDTAB
  0
TABLE
  2
STYLE
  5
3
330
0
100
AcDbSymbolTable
 70
     2
  0
STYLE
  5
17
330
3
100
AcDbSymbolTableRecord
100
AcDbTextStyleTableRecord
  2
STANDARD
 70
     0
 40
0.0
 41
1.0
 50
0.0
 71
     0
 42
0.0
  3
txt
  4

  0
STYLE
  5
4F9
330
3
100
AcDbSymbolTableRecord
100
AcDbTextStyleTableRecord
  2
CONVERTER_1
 70
     0
 40
0.0
 41
0.9
 50
0.0
 71
     0
 42
0.0
  3
txt.shx
  4

  0
ENDTAB
  0
TABLE
  2
VIEW
  5
5
330
0
100
AcDbSymbolTable
 70
     0
  0
ENDTAB
  0
TABLE
  2
UCS
  5
6
330
0
100
AcDbSymbolTable
 70
     0
  0
ENDTAB
  0
TABLE
  2
APPID
  5
8
330
0
100
AcDbSymbolTable
 70
     1
  0
APPID
  5
16
330
8
100
AcDbSymbolTableRecord
100
AcDbRegAppTableRecord
  2
ACAD
 70
     0
  0
ENDTAB
  0
TABLE
  2
DIMSTYLE
  5
9
330
0
100
AcDbSymbolTable
 70
     1
100
AcDbDimStyleTable
  0
DIMSTYLE
105
18
330
9
100
AcDbSymbolTableRecord
100
AcDbDimStyleTableRecord
  2
STANDARD
 70
     0
178
     0
289
     0
340
17
  0
ENDTAB
  0
TABLE
  2
BLOCK_RECORD
  5
1
330
0
100
AcDbSymbolTable
 70
     1
  0
BLOCK_RECORD
  5
A
330
1
100
AcDbSymbolTableRecord
100
AcDbBlockTableRecord
  2
*MODEL_SPACE
340
522
 70
     0
280
     1
281
     0
  0
BLOCK_RECORD
  5
19BC
330
1
100
AcDbSymbolTableRecord
100
AcDbBlockTableRecord
  2
*Paper_Space
340
19BD
 70
     0
280
     1
281
     0
  0
BLOCK_RECORD
  5
25
330
1
100
AcDbSymbolTableRecord
100
AcDbBlockTableRecord
  2
SAT2000C100__1
340
0
102
{BLKREFS
331
29
102
}
 70
     0
280
     1
281
     0
  0
ENDTAB
  0
ENDSEC
  0
SECTION
  2
BLOCKS
  0
BLOCK
  5
D
330
A
100
AcDbEntity
  8
0
100
AcDbBlockBegin
  2
*MODEL_SPACE
 70
     0
 10
0.0
 20
0.0
 30
0.0
  3
*MODEL_SPACE
  1

  0
ENDBLK
  5
E
330
A
100
AcDbEntity
  8
0
100
AcDbBlockEnd
  0
BLOCK
  5
19BE
330
19BC
100
AcDbEntity
 67
     1
  8
0
100
AcDbBlockBegin
  2
*Paper_Space
 70
     0
 10
0.0
 20
0.0
 30
0.0
  3
*Paper_Space
  1

  0
ENDBLK
  5
19BF
330
19BC
100
AcDbEntity
 67
     1
  8
0
100
AcDbBlockEnd
  0
BLOCK
  5
26
330
25
100
AcDbEntity
  8
0
100
AcDbBlockBegin
  2
SAT2000C100__1
 70
     0
 10
0.0
 20
0.0
 30
0.0
  3
SAT2000C100__1
  1

  0
ARC
  5
4F6
330
25
100
AcDbEntity
  8
1
  6
Continuous
 62
     0
100
AcDbCircle
 10
11405.35735873485
 20
-3249.160660676961
 30
0.0
 40
10.000000000002
100
AcDbArc
 50
219.8683415499956
 51
270.0
  0
ARC
  5
4F5
330
25
100
AcDbEntity
  8
1
  6
Continuous
 62
     0
100
AcDbCircle
 10
11405.35735873485
 20
-3324.160660676961
 30
0.0
 40
10.0
100
AcDbArc
 50
90.0
 51
140.1316584500038
  0
ARC
  5
4F4
330
25
100
AcDbEntity
  8
1
  6
Continuous
 62
     0
100
AcDbCircle
 10
11414.45747009356
 20
-3258.160660676961
 30
0.0
 40
1.0
100
AcDbArc
 50
270.0
 51
0.0
  0
ARC
  5
4F3
330
25
100
AcDbEntity
  8
1
  6
Continuous
 62
     0
100
AcDbCircle
 10
11414.45747009356
 20
-3315.160660676961
 30
0.0
 40
1.0
100
AcDbArc
 50
0.0
 51
90.0
  0
ARC
  5
4F2
330
25
100
AcDbEntity
  8
1
  6
Continuous
 62
     0
100
AcDbCircle
 10
13666.59245275008
 20
-635.942714204663
 30
0.0
 40
1.0
100
AcDbArc
 50
90.0
 51
180.0
  0
ARC
  5
4F1
330
25
100
AcDbEntity
  8
1
  6
Continuous
 62
     0
100
AcDbCircle
 10
13704.59245275008
 20
-635.942714204663
 30
0.0
 40
1.0
100
AcDbArc
 50
0.0
 51
90.0
  0
ARC
  5
4F0
330
25
100
AcDbEntity
  8
1
  6
Continuous
 62
     0
100
AcDbCircle
 10
13708.59245275008
 20
-641.942714204663
 30
0.0
 40
2.0
100
AcDbArc
 50
0.0
 51
90.0
  0
ARC
  5
4EF
330
25
100
AcDbEntity
  8
1
  6
Continuous
 62
     0
100
AcDbCircle
 10
13662.59245275008
 20
-641.942714204663
 30
0.0
 40
2.0
100
AcDbArc
 50
90.0
 51
180.0
  0
ARC
  5
4EE
330
25
100
AcDbEntity
  8
1
  6
Continuous
 62
     0
100
AcDbCircle
 10
13663.59245275008
 20
-637.942714204663
 30
0.0
 40
2.0
100
AcDbArc
 50
270.0
 51
0.0
  0
ARC
  5
4ED
330
25
100
AcDbEntity
  8
1
  6
Continuous
 62
     0
100
AcDbCircle
 10
13707.59245275008
 20
-637.942714204663
 30
0.0
 40
2.0
100
AcDbArc
 50
180.0
 51
270.0
  0
ARC
  5
4EC
330
25
100
AcDbEntity
  8
1
  6
Continuous
 62
     0
100
AcDbCircle
 10
13694.92578608341
 20
-682.942714204663
 30
0.0
 40
1.0
100
AcDbArc
 50
180.0
 51
270.0
  0
ARC
  5
4EB
330
25
100
AcDbEntity
  8
1
  6
Continuous
 62
     0
100
AcDbCircle
 10
13690.92578608341
 20
-682.942714204663
 30
0.0
 40
1.0
100
AcDbArc
 50
270.0
 51
0.0
  0
ARC
  5
4EA
330
25
100
AcDbEntity
  8
1
  6
Continuous
 62
     0
100
AcDbCircle
 10
13680.25911941675
 20
-682.942714204663
 30
0.0
 40
1.0
100
AcDbArc
 50
180.0
 51
270.0
  0
ARC
  5
4E9
330
25
100
AcDbEntity
  8
1
  6
Continuous
 62
     0
100
AcDbCircle
 10
13676.25911941675
 20
-682.942714204663
 30
0.0
 40
1.0
100
AcDbArc
 50
270.0
 51
0.0
  0
ARC
  5
4E8
330
25
100
AcDbEntity
  8
1
  6
Continuous
 62
     0
100
AcDbCircle
 10
13660.59245275008
 20
-683.365363935473
 30
0.0
 40
2.0
100
AcDbArc
 50
299.9999999999989
 51
0.0
  0
ARC
  5
4E7
330
25
100
AcDbEntity
  8
1
  6
Continuous
 62
     0
100
AcDbCircle
 10
13665.59245275008
 20
-682.942714204663
 30
0.0
 40
1.0
100
AcDbArc
 50
180.0
 51
270.0
  0
ARC
  5
4E6
330
25
100
AcDbEntity
  8
1
  6
Continuous
 62
     0
100
AcDbCircle
 10
13641.59245275008
 20
-733.942714204662
 30
0.0
 40
5.0
100
AcDbArc
 50
90.0
 51
180.0
  0
ARC
  5
4E5
330
25
100
AcDbEntity
  8
1
  6
Continuous
 62
     0
100
AcDbCircle
 10
13728.59245275008
 20
-733.942714204663
 30
0.0
 40
5.0
100
AcDbArc
 50
0.0
 51
90.0
  0
ARC
  5
4E4
330
25
100
AcDbEntity
  8
1
  6
Continuous
 62
     0
100
AcDbCircle
 10
13725.59245275008
 20
-802.942714204663
 30
0.0
 40
3.75
100
AcDbArc
 50
270.0
 51
0.0
  0
ARC
  5
4E3
330
25
100
AcDbEntity
  8
1
  6
Continuous
 62
     0
100
AcDbCircle
 10
13645.59245275008
 20
-802.942714204663
 30
0.0
 40
3.75
100
AcDbArc
 50
180.0
 51
270.0
  0
ARC
  5
4E2
330
25
100
AcDbEntity
  8
1
  6
Continuous
 62
     0
100
AcDbCircle
 10
13731.59245275008
 20
-797.442714204663
 30
0.0
 40
2.0
100
AcDbArc
 50
270.0
 51
0.0
  0
ARC
  5
4E1
330
25
100
AcDbEntity
  8
1
  6
Continuous
 62
     0
100
AcDbCircle
 10
13638.59245275008
 20
-797.442714204663
 30
0.0
 40
2.0
100
AcDbArc
 50
180.0
 51
270.0
  0
ARC
  5
4E0
330
25
100
AcDbEntity
  8
1
  6
Continuous
 62
     0
100
AcDbCircle
 10
13711.59713525488
 20
-856.542714204664
 30
0.0
 40
1.5
100
AcDbArc
 50
90.0
 51
180.0
  0
ARC
  5
4DF
330
25
100
AcDbEntity
  8
1
  6
Continuous
 62
     0
100
AcDbCircle
 10
13725.59245275008
 20
-802.942714204663
 30
0.0
 40
3.75
100
AcDbArc
 50
270.0
 51
0.0
  0
ARC
  5
4DE
330
25
100
AcDbEntity
  8
1
  6
Continuous
 62
     0
100
AcDbCircle
 10
13645.59245275008
 20
-802.942714204663
 30
0.0
 40
3.75
100
AcDbArc
 50
180.0
 51
270.0
  0
ARC
  5
4DD
330
25
100
AcDbEntity
  8
1
  6
Continuous
 62
     0
100
AcDbCircle
 10
13659.19245275008
 20
-856.442714204663
 30
0.0
 40
1.4
100
AcDbArc
 50
0.0
 51
90.0
  0
ARC
  5
4DC
330
25
100
AcDbEntity
  8
1
  6
Continuous
 62
     0
100
AcDbCircle
 10
13731.59245275008
 20
-797.442714204663
 30
0.0
 40
2.0
100
AcDbArc
 50
270.0
 51
0.0
  0
ARC
  5
4DB
330
25
100
AcDbEntity
  8
1
  6
Continuous
 62
     0
100
AcDbCircle
 10
13638.59245275008
 20
-797.442714204663
 30
0.0
 40
2.0
100
AcDbArc
 50
180.0
 51
270.0
  0
ARC
  5
4DA
330
25
100
AcDbEntity
  8
1
  6
Continuous
 62
     0
100
AcDbCircle
 10
11313.45747009356
 20
-797.442714204663
 30
0.0
 40
2.0
100
AcDbArc
 50
180.0
 51
270.0
  0
ARC
  5
4D9
330
25
100
AcDbEntity
  8
1
  6
Continuous
 62
     0
100
AcDbCircle
 10
11406.45747009356
 20
-797.442714204663
 30
0.0
 40
2.0
100
AcDbArc
 50
270.0
 51
0.0
  0
ARC
  5
4D8
330
25
100
AcDbEntity
  8
1
  6
Continuous
 62
     0
100
AcDbCircle
 10
11315.45747009356
 20
-873.295058091784
 30
0.0
 40
19.999999999999
100
AcDbArc
 50
325.6559370342911
 51
0.0
  0
ARC
  5
4D7
330
25
100
AcDbEntity
  8
1
  6
Continuous
 62
     0
100
AcDbCircle
 10
11334.05747009356
 20
-856.442714204663
 30
0.0
 40
1.4
100
AcDbArc
 50
0.0
 51
90.0
  0
ARC
  5
4D6
330
25
100
AcDbEntity
  8
1
  6
Continuous
 62
     0
100
AcDbCircle
 10
11405.45747009356
 20
-873.295058091784
 30
0.0
 40
20.0
100
AcDbArc
 50
180.0
 51
214.3440629657125
  0
ARC
  5
4D5
330
25
100
AcDbEntity
  8
1
  6
Continuous
 62
     0
100
AcDbCircle
 10
11386.85747009356
 20
-856.442714204663
 30
0.0
 40
1.4
100
AcDbArc
 50
90.0
 51
180.0
  0
ARC
  5
4D4
330
25
100
AcDbEntity
  8
1
  6
Continuous
 62
     0
100
AcDbCircle
 10
10702.95874323514
 20
-3901.860660676962
 30
0.0
 40
2.0
100
AcDbArc
 50
180.0
 51
270.0
  0
ARC
  5
4D3
330
25
100
AcDbEntity
  8
1
  6
Continuous
 62
     0
100
AcDbCircle
 10
10702.95874323514
 20
-3870.860660676962
 30
0.0
 40
2.0
100
AcDbArc
 50
90.0
 51
180.0
  0
ARC
  5
4D2
330
25
100
AcDbEntity
  8
1
  6
Continuous
 62
     0
100
AcDbCircle
 10
14282.08245275008
 20
-2647.507040946403
 30
0.0
 40
2.0
100
AcDbArc
 50
90.0
 51
180.0
  0
ARC
  5
4D1
330
25
100
AcDbEntity
  8
1
  6
Continuous
 62
     0
100
AcDbCircle
 10
14301.67525228912
 20
-2667.257040946404
 30
0.0
 40
2.0
100
AcDbArc
 50
90.0
 51
148.891077489551
  0
ARC
  5
4D0
330
25
100
AcDbEntity
  8
1
  6
Continuous
 62
     0
100
AcDbCircle
 10
14301.67525228912
 20
-2651.757040946404
 30
0.0
 40
2.000000000002
100
AcDbArc
 50
211.1089225107259
 51
270.0
  0
ARC
  5
4CF
330
25
100
AcDbEntity
  8
1
  6
Continuous
 62
     0
100
AcDbCircle
 10
14275.98965321104
 20
-2667.257040946404
 30
0.0
 40
1.999999999996
100
AcDbArc
 50
31.10892251044708
 51
90.0
  0
ARC
  5
4CE
330
25
100
AcDbEntity
  8
1
  6
Continuous
 62
     0
100
AcDbCircle
 10
14275.98965321104
 20
-2651.757040946404
 30
0.0
 40
2.0
100
AcDbArc
 50
270.0
 51
328.8910774892695
  0
ARC
  5
4CD
330
25
100
AcDbEntity
  8
1
  6
Continuous
 62
     0
100
AcDbCircle
 10
13716.09713525488
 20
-863.541169672092
 30
0.0
 40
6.0
100
AcDbArc
 50
180.0
 51
270.0
  0
ARC
  5
4CC
330
25
100
AcDbEntity
  8
1
  6
Continuous
 62
     0
100
AcDbCircle
 10
11163.84660361096
 20
76.58419654983
 30
0.0
 40
4.999999999999
100
AcDbArc
 50
135.7173872833792
 51
196.9831151249494
  0
ARC
  5
4CB
330
25
100
AcDbEntity
  8
1
  6
Continuous
 62
     0
100
AcDbCircle
 10
11119.99040634614
 20
66.861511692402
 30
0.0
 40
5.000000000003
100
AcDbArc
 50
8.016884875044912
 51
69.28261271664455
  0
ARC
  5
4CA
330
25
100
AcDbEntity
  8
1
  6
Continuous
 62
     0
100
AcDbCircle
 10
11126.47923020388
 20
78.151743672674
 30
0.0
 40
3.0
100
AcDbArc
 50
109.4192286962993
 51
188.016884875021
  0
ARC
  5
4C9
330
25
100
AcDbEntity
  8
1
  6
Continuous
 62
     0
100
AcDbCircle
 10
11153.19427380583
 20
84.0743262515
 30
0.0
 40
3.000000000003
100
AcDbArc
 50
16.98311512491478
 51
95.58077130353776
  0
ARC
  5
4C8
330
25
100
AcDbEntity
  8
1
  6
Continuous
 62
     0
100
AcDbCircle
 10
11567.72066638129
 20
84.0743262515
 30
0.0
 40
3.000000000001
100
AcDbArc
 50
84.41922869628402
 51
163.0168848750852
  0
ARC
  5
4C7
330
25
100
AcDbEntity
  8
1
  6
Continuous
 62
     0
100
AcDbCircle
 10
11594.43570998324
 20
78.151743672674
 30
0.0
 40
3.0
100
AcDbArc
 50
351.9831151249799
 51
70.58077130351641
  0
ARC
  5
4C6
330
25
100
AcDbEntity
  8
1
  6
Continuous
 62
     0
100
AcDbCircle
 10
11600.92453384098
 20
66.861511692402
 30
0.0
 40
4.999999999999
100
AcDbArc
 50
110.7173872833506
 51
171.9831151249415
  0
ARC
  5
4C5
330
25
100
AcDbEntity
  8
1
  6
Continuous
 62
     0
100
AcDbCircle
 10
11557.06833657616
 20
76.58419654983
 30
0.0
 40
5.000000000001
100
AcDbArc
 50
343.0168848750509
 51
44.28261271661594
  0
ARC
  5
4C4
330
25
100
AcDbEntity
  8
1
  6
Continuous
 62
     0
100
AcDbCircle
 10
11320.45747009356
 20
-802.942714204663
 30
0.0
 40
3.75
100
AcDbArc
 50
180.0
 51
270.0
  0
ARC
  5
4C3
330
25
100
AcDbEntity
  8
1
  6
Continuous
 62
     0
100
AcDbCircle
 10
11400.45747009356
 20
-802.942714204663
 30
0.0
 40
3.75
100
AcDbArc
 50
270.0
 51
0.0
  0
ARC
  5
4C2
330
25
100
AcDbEntity
  8
1
  6
Continuous
 62
     0
100
AcDbCircle
 10
11414.45747009356
 20
-791.942714204663
 30
0.0
 40
1.0
100
AcDbArc
 50
0.0
 51
90.0
  0
ARC
  5
4C1
330
25
100
AcDbEntity
  8
1
  6
Continuous
 62
     0
100
AcDbCircle
 10
11409.45747009356
 20
-791.942714204663
 30
0.0
 40
1.0
100
AcDbArc
 50
90.0
 51
180.0
  0
ARC
  5
4C0
330
25
100
AcDbEntity
  8
1
  6
Continuous
 62
     0
100
AcDbCircle
 10
11414.45747009356
 20
-734.942714204663
 30
0.0
 40
1.0
100
AcDbArc
 50
270.0
 51
0.0
  0
ARC
  5
4BF
330
25
100
AcDbEntity
  8
1
  6
Continuous
 62
     0
100
AcDbCircle
 10
11409.45747009356
 20
-734.942714204663
 30
0.0
 40
1.0
100
AcDbArc
 50
180.0
 51
270.0
  0
ARC
  5
4BE
330
25
100
AcDbEntity
  8
1
  6
Continuous
 62
     0
100
AcDbCircle
 10
11403.45747009356
 20
-733.942714204663
 30
0.0
 40
5.0
100
AcDbArc
 50
0.0
 51
90.0
  0
ARC
  5
4BD
330
25
100
AcDbEntity
  8
1
  6
Continuous
 62
     0
100
AcDbCircle
 10
11316.45747009356
 20
-733.942714204662
 30
0.0
 40
5.0
100
AcDbArc
 50
90.0
 51
180.0
  0
ARC
  5
4BC
330
25
100
AcDbEntity
  8
1
  6
Continuous
 62
     0
100
AcDbCircle
 10
11340.45747009356
 20
-682.942714204663
 30
0.0
 40
1.0
100
AcDbArc
 50
180.0
 51
270.0
  0
ARC
  5
4BB
330
25
100
AcDbEntity
  8
1
  6
Continuous
 62
     0
100
AcDbCircle
 10
11335.45747009356
 20
-683.365363935473
 30
0.0
 40
2.0
100
AcDbArc
 50
299.9999999999989
 51
0.0
  0
ARC
  5
4BA
330
25
100
AcDbEntity
  8
1
  6
Continuous
 62
     0
100
AcDbCircle
 10
11351.12413676023
 20
-682.942714204663
 30
0.0
 40
1.0
100
AcDbArc
 50
270.0
 51
0.0
  0
ARC
  5
4B9
330
25
100
AcDbEntity
  8
1
  6
Continuous
 62
     0
100
AcDbCircle
 10
11355.12413676023
 20
-682.942714204663
 30
0.0
 40
1.0
100
AcDbArc
 50
180.0
 51
270.0
  0
ARC
  5
4B8
330
25
100
AcDbEntity
  8
1
  6
Continuous
 62
     0
100
AcDbCircle
 10
11365.7908034269
 20
-682.942714204663
 30
0.0
 40
1.0
100
AcDbArc
 50
270.0
 51
0.0
  0
ARC
  5
4B7
330
25
100
AcDbEntity
  8
1
  6
Continuous
 62
     0
100
AcDbCircle
 10
11369.7908034269
 20
-682.942714204663
 30
0.0
 40
1.0
100
AcDbArc
 50
180.0
 51
270.0
  0
ARC
  5
4B6
330
25
100
AcDbEntity
  8
1
  6
Continuous
 62
     0
100
AcDbCircle
 10
11382.45747009356
 20
-637.942714204663
 30
0.0
 40
2.0
100
AcDbArc
 50
180.0
 51
270.0
  0
ARC
  5
4B5
330
25
100
AcDbEntity
  8
1
  6
Continuous
 62
     0
100
AcDbCircle
 10
11338.45747009356
 20
-637.942714204663
 30
0.0
 40
2.0
100
AcDbArc
 50
270.0
 51
0.0
  0
ARC
  5
4B4
330
25
100
AcDbEntity
  8
1
  6
Continuous
 62
     0
100
AcDbCircle
 10
11337.45747009356
 20
-641.942714204663
 30
0.0
 40
2.0
100
AcDbArc
 50
90.0
 51
180.0
  0
ARC
  5
4B3
330
25
100
AcDbEntity
  8
1
  6
Continuous
 62
     0
100
AcDbCircle
 10
11383.45747009356
 20
-641.942714204663
 30
0.0
 40
2.0
100
AcDbArc
 50
0.0
 51
90.0
  0
ARC
  5
4B2
330
25
100
AcDbEntity
  8
1
  6
Continuous
 62
     0
100
AcDbCircle
 10
11379.45747009356
 20
-635.942714204663
 30
0.0
 40
1.0
100
AcDbArc
 50
0.0
 51
90.0
  0
ARC
  5
4B1
330
25
100
AcDbEntity
  8
1
  6
Continuous
 62
     0
100
AcDbCircle
 10
11341.45747009356
 20
-635.942714204663
 30
0.0
 40
1.0
100
AcDbArc
 50
90.0
 51
180.0
  0
ARC
  5
4B0
330
25
100
AcDbEntity
  8
1
  6
Continuous
 62
     0
100
AcDbCircle
 10
10717.63854198703
 20
-1238.320528421221
 30
0.0
 40
0.144444444445
100
AcDbArc
 50
137.7821654174533
 51
312.2178345823586
  0
ARC
  5
4AF
330
25
100
AcDbEntity
  8
1
  6
Continuous
 62
     0
100
AcDbCircle
 10
10788.49518465438
 20
-1311.392714204662
 30
0.0
 40
2.999999999998
100
AcDbArc
 50
34.42900395086972
 51
90.0
  0
ARC
  5
4AE
330
25
100
AcDbEntity
  8
1
  6
Continuous
 62
     0
100
AcDbCircle
 10
10788.49518465438
 20
-1296.692714204662
 30
0.0
 40
3.0
100
AcDbArc
 50
270.0
 51
325.570996049073
  0
ARC
  5
4AD
330
25
100
AcDbEntity
  8
1
  6
Continuous
 62
     0
100
AcDbCircle
 10
10809.94069700545
 20
-1296.692714204662
 30
0.0
 40
3.000000000009
100
AcDbArc
 50
214.4290039508092
 51
270.0
  0
ARC
  5
4AC
330
25
100
AcDbEntity
  8
1
  6
Continuous
 62
     0
100
AcDbCircle
 10
10809.94069700545
 20
-1311.392714204662
 30
0.0
 40
3.0
100
AcDbArc
 50
90.0
 51
145.5709960492537
  0
ARC
  5
4AB
330
25
100
AcDbEntity
  8
1
  6
Continuous
 62
     0
100
AcDbCircle
 10
10753.41921397149
 20
-1318.542714204664
 30
0.0
 40
3.0
100
AcDbArc
 50
90.0
 51
180.0
  0
ARC
  5
4AA
330
25
100
AcDbEntity
  8
1
  6
Continuous
 62
     0
100
AcDbCircle
 10
10753.41921397149
 20
-1289.542714204664
 30
0.0
 40
3.0
100
AcDbArc
 50
180.0
 51
270.0
  0
ARC
  5
4A9
330
25
100
AcDbEntity
  8
1
  6
Continuous
 62
     0
100
AcDbCircle
 10
11388.45747009356
 20
-2647.636083978406
 30
0.0
 40
3.000000000003
100
AcDbArc
 50
321.9080428948274
 51
0.0
  0
ARC
  5
4A8
330
25
100
AcDbEntity
  8
1
  6
Continuous
 62
     0
100
AcDbCircle
 10
11388.45747009356
 20
-2670.809344430921
 30
0.0
 40
3.0
100
AcDbArc
 50
0.0
 51
38.09195710521546
  0
ARC
  5
49F
330
25
100
AcDbEntity
  8
1
  6
Continuous
 62
     0
100
AcDbCircle
 10
11358.45747009356
 20
-4425.860660676963
 30
0.0
 40
2.0
100
AcDbArc
 50
180.0
 51
270.0
  0
ARC
  5
49E
330
25
100
AcDbEntity
  8
1
  6
Continuous
 62
     0
100
AcDbCircle
 10
11362.45747009356
 20
-4425.860660676963
 30
0.0
 40
2.0
100
AcDbArc
 50
270.0
 51
0.0
  0
ARC
  5
49D
330
25
100
AcDbEntity
  8
1
  6
Continuous
 62
     0
100
AcDbCircle
 10
11358.45747009356
 20
-4425.860660676963
 30
0.0
 40
2.0
100
AcDbArc
 50
180.0
 51
270.0
  0
ARC
  5
49C
330
25
100
AcDbEntity
  8
1
  6
Continuous
 62
     0
100
AcDbCircle
 10
11362.45747009356
 20
-4425.860660676963
 30
0.0
 40
2.0
100
AcDbArc
 50
270.0
 51
0.0
  0
ARC
  5
49B
330
25
100
AcDbEntity
  8
1
  6
Continuous
 62
     0
100
AcDbCircle
 10
11358.45747009356
 20
-4425.860660676963
 30
0.0
 40
2.0
100
AcDbArc
 50
180.0
 51
270.0
  0
ARC
  5
49A
330
25
100
AcDbEntity
  8
1
  6
Continuous
 62
     0
100
AcDbCircle
 10
11362.45747009356
 20
-4425.860660676963
 30
0.0
 40
2.0
100
AcDbArc
 50
270.0
 51
0.0
  0
ARC
  5
499
330
25
100
AcDbEntity
  8
1
  6
Continuous
 62
     0
100
AcDbCircle
 10
11358.45747009356
 20
-4425.860660676963
 30
0.0
 40
2.0
100
AcDbArc
 50
180.0
 51
270.0
  0
ARC
  5
498
330
25
100
AcDbEntity
  8
1
  6
Continuous
 62
     0
100
AcDbCircle
 10
11362.45747009356
 20
-4425.860660676963
 30
0.0
 40
2.0
100
AcDbArc
 50
270.0
 51
0.0
  0
CIRCLE
  5
497
330
25
100
AcDbEntity
  8
1
  6
Continuous
 62
     0
100
AcDbCircle
 10
13685.59245275008
 20
-763.442714204663
 30
0.0
 40
29.0
  0
CIRCLE
  5
496
330
25
100
AcDbEntity
  8
1
  6
Continuous
 62
     0
100
AcDbCircle
 10
13685.59245275008
 20
-763.442714204663
 30
0.0
 40
23.9015
  0
CIRCLE
  5
495
330
25
100
AcDbEntity
  8
1
  6
Continuous
 62
     0
100
AcDbCircle
 10
13685.59245275008
 20
-763.442714204663
 30
0.0
 40
22.422500000001
  0
CIRCLE
  5
494
330
25
100
AcDbEntity
  8
1
  6
Continuous
 62
     0
100
AcDbCircle
 10
11059.93708808928
 20
-4190.381042681244
 30
0.0
 40
13.5
  0
CIRCLE
  5
493
330
25
100
AcDbEntity
  8
1
  6
Continuous
 62
     0
100
AcDbCircle
 10
11059.93708808928
 20
-3589.340278672679
 30
0.0
 40
13.5
  0
CIRCLE
  5
492
330
25
100
AcDbEntity
  8
1
  6
Continuous
 62
     0
100
AcDbCircle
 10
11660.97785209784
 20
-3589.340278672679
 30
0.0
 40
13.5
  0
CIRCLE
  5
491
330
25
100
AcDbEntity
  8
1
  6
Continuous
 62
     0
100
AcDbCircle
 10
11660.97785209784
 20
-4190.381042681244
 30
0.0
 40
13.5
  0
CIRCLE
  5
490
330
25
100
AcDbEntity
  8
1
  6
Continuous
 62
     0
100
AcDbCircle
 10
10739.95874323514
 20
-3889.860660676961
 30
0.0
 40
8.331000000001
  0
CIRCLE
  5
48F
330
25
100
AcDbEntity
  8
1
  6
Continuous
 62
     0
100
AcDbCircle
 10
10739.95874323514
 20
-3889.860660676961
 30
0.0
 40
7.475000000001
  0
CIRCLE
  5
48D
330
25
100
AcDbEntity
  8
1
  6
Continuous
 62
     0
100
AcDbCircle
 10
11360.45747009356
 20
-3889.860660676961
 30
0.0
 40
500.0
  0
CIRCLE
  5
48C
330
25
100
AcDbEntity
  8
1
  6
Continuous
 62
     0
100
AcDbCircle
 10
11360.45747009356
 20
-3889.860660676961
 30
0.0
 40
509.0
  0
CIRCLE
  5
48B
330
25
100
AcDbEntity
  8
1
  6
Continuous
 62
     0
100
AcDbCircle
 10
14260.1311953227
 20
-973.33367914301
 30
0.0
 40
9.5
  0
CIRCLE
  5
48A
330
25
100
AcDbEntity
  8
1
  6
Continuous
 62
     0
100
AcDbCircle
 10
14219.54148781173
 20
-932.743971632045
 30
0.0
 40
9.5
  0
CIRCLE
  5
489
330
25
100
AcDbEntity
  8
1
  6
Continuous
 62
     0
100
AcDbCircle
 10
14219.54148781173
 20
-875.341456777282
 30
0.0
 40
9.5
  0
CIRCLE
  5
488
330
25
100
AcDbEntity
  8
1
  6
Continuous
 62
     0
100
AcDbCircle
 10
14260.1311953227
 20
-834.751749266317
 30
0.0
 40
9.5
  0
CIRCLE
  5
487
330
25
100
AcDbEntity
  8
1
  6
Continuous
 62
     0
100
AcDbCircle
 10
14317.53371017746
 20
-973.33367914301
 30
0.0
 40
9.5
  0
CIRCLE
  5
486
330
25
100
AcDbEntity
  8
1
  6
Continuous
 62
     0
100
AcDbCircle
 10
14358.12341768843
 20
-932.743971632045
 30
0.0
 40
9.5
  0
CIRCLE
  5
485
330
25
100
AcDbEntity
  8
1
  6
Continuous
 62
     0
100
AcDbCircle
 10
14358.12341768843
 20
-875.341456777282
 30
0.0
 40
9.5
  0
CIRCLE
  5
484
330
25
100
AcDbEntity
  8
1
  6
Continuous
 62
     0
100
AcDbCircle
 10
14317.53371017746
 20
-834.751749266317
 30
0.0
 40
9.5
  0
CIRCLE
  5
483
330
25
100
AcDbEntity
  8
1
  6
Continuous
 62
     0
100
AcDbCircle
 10
14288.83245275008
 20
-904.042714204664
 30
0.0
 40
40.0
  0
CIRCLE
  5
482
330
25
100
AcDbEntity
  8
1
  6
Continuous
 62
     0
100
AcDbCircle
 10
14288.83245275008
 20
-904.042714204664
 30
0.0
 40
45.0
  0
CIRCLE
  5
480
330
25
100
AcDbEntity
  8
1
  6
Continuous
 62
     0
100
AcDbCircle
 10
14288.83245275008
 20
-904.042714204664
 30
0.0
 40
92.5
  0
CIRCLE
  5
47F
330
25
100
AcDbEntity
  8
1
  6
Continuous
 62
     0
100
AcDbCircle
 10
14288.83245275008
 20
-2659.507040946404
 30
0.0
 40
3.600000000001
  0
CIRCLE
  5
47E
330
25
100
AcDbEntity
  8
1
  6
Continuous
 62
     0
100
AcDbCircle
 10
14288.83245275008
 20
-2659.507040946404
 30
0.0
 40
7.5
  0
CIRCLE
  5
47D
330
25
100
AcDbEntity
  8
1
  6
Continuous
 62
     0
100
AcDbCircle
 10
14288.83245275008
 20
-2659.507040946404
 30
0.0
 40
6.0
  0
CIRCLE
  5
47C
330
25
100
AcDbEntity
  8
1
  6
Continuous
 62
     0
100
AcDbCircle
 10
14288.83245275008
 20
-2659.507040946404
 30
0.0
 40
11.100000000001
  0
CIRCLE
  5
47B
330
25
100
AcDbEntity
  8
1
  6
Continuous
 62
     0
100
AcDbCircle
 10
11134.49451314218
 20
105.210317228547
 30
0.0
 40
20.000000000001
  0
CIRCLE
  5
47A
330
25
100
AcDbEntity
  8
1
  6
Continuous
 62
     0
100
AcDbCircle
 10
11586.42042704494
 20
105.210317228547
 30
0.0
 40
20.000000000001
  0
CIRCLE
  5
46C
330
25
100
AcDbEntity
  8
1
  6
Continuous
 62
     0
100
AcDbCircle
 10
10738.91921397149
 20
-1230.031768781652
 30
0.0
 40
2.247127062104
  0
CIRCLE
  5
46B
330
25
100
AcDbEntity
  8
1
  6
Continuous
 62
     0
100
AcDbCircle
 10
10723.02956929828
 20
-1234.818574720961
 30
0.0
 40
0.722222222221
  0
CIRCLE
  5
46A
330
25
100
AcDbEntity
  8
1
  6
Continuous
 62
     0
100
AcDbCircle
 10
10738.91921397149
 20
-1217.393987346247
 30
0.0
 40
2.888888888889
  0
CIRCLE
  5
469
330
25
100
AcDbEntity
  8
1
  6
Continuous
 62
     0
100
AcDbCircle
 10
10738.92240348738
 20
-1217.398145966177
 30
0.0
 40
36.09209352415
  0
CIRCLE
  5
468
330
25
100
AcDbEntity
  8
1
  6
Continuous
 62
     0
100
AcDbCircle
 10
10799.21794082991
 20
-1304.042714204664
 30
0.0
 40
6.25
  0
CIRCLE
  5
467
330
25
100
AcDbEntity
  8
1
  6
Continuous
 62
     0
100
AcDbCircle
 10
10799.21794082991
 20
-1304.042714204664
 30
0.0
 40
3.0
  0
CIRCLE
  5
466
330
25
100
AcDbEntity
  8
1
  6
Continuous
 62
     0
100
AcDbCircle
 10
10799.21794082991
 20
-1304.042714204664
 30
0.0
 40
5.0
  0
CIRCLE
  5
465
330
25
100
AcDbEntity
  8
1
  6
Continuous
 62
     0
100
AcDbCircle
 10
10799.21794082991
 20
-1304.042714204664
 30
0.0
 40
8.5
  0
ARC
  5
458
330
25
100
AcDbEntity
  8
1
  6
Continuous
 62
     0
100
AcDbCircle
 10
11353.91874785688
 20
-3282.009369761962
 30
0.0
 40
56.523480904121
100
AcDbArc
 50
321.2635209313452
 51
325.3325057419449
  0
ARC
  5
457
330
25
100
AcDbEntity
  8
1
  6
Continuous
 62
     0
100
AcDbCircle
 10
11360.45747009356
 20
-3286.660660676961
 30
0.0
 40
48.5
100
AcDbArc
 50
315.3466591947682
 51
320.1316584499884
  0
ARC
  5
456
330
25
100
AcDbEntity
  8
1
  6
Continuous
 62
     0
100
AcDbCircle
 10
11360.45747009356
 20
-3286.660660676961
 30
0.0
 40
48.500000000003
100
AcDbArc
 50
325.4579924503849
 51
224.6533408052352
  0
ARC
  5
455
330
25
100
AcDbEntity
  8
1
  6
Continuous
 62
     0
100
AcDbCircle
 10
13685.59245275008
 20
-652.508505812215
 30
0.0
 40
25.565791607551
100
AcDbArc
 50
68.78850558533539
 51
111.2114944146646
  0
ARC
  5
454
330
25
100
AcDbEntity
  8
1
  6
Continuous
 62
     0
100
AcDbCircle
 10
13701.09245275008
 20
-639.085112053556
 30
0.0
 40
12.142397848893
100
AcDbArc
 50
90.0
 51
120.9790988616308
  0
ARC
  5
453
330
25
100
AcDbEntity
  8
1
  6
Continuous
 62
     0
100
AcDbCircle
 10
13670.09245275008
 20
-639.085112053556
 30
0.0
 40
12.142397848893
100
AcDbArc
 50
59.0209011383692
 51
90.0
  0
ARC
  5
452
330
25
100
AcDbEntity
  8
1
  6
Continuous
 62
     0
100
AcDbCircle
 10
13685.59245275008
 20
-618.442714204663
 30
0.0
 40
15.0
100
AcDbArc
 50
0.0
 51
180.0
  0
ARC
  5
451
330
25
100
AcDbEntity
  8
1
  6
Continuous
 62
     0
100
AcDbCircle
 10
13707.59245275008
 20
-640.942714204663
 30
0.0
 40
1.0
100
AcDbArc
 50
0.0
 51
180.0
  0
ARC
  5
450
330
25
100
AcDbEntity
  8
1
  6
Continuous
 62
     0
100
AcDbCircle
 10
13692.92578608341
 20
-640.942714204663
 30
0.0
 40
1.0
100
AcDbArc
 50
0.0
 51
180.0
  0
ARC
  5
44F
330
25
100
AcDbEntity
  8
1
  6
Continuous
 62
     0
100
AcDbCircle
 10
13678.25911941675
 20
-640.942714204663
 30
0.0
 40
1.0
100
AcDbArc
 50
0.0
 51
180.0
  0
ARC
  5
44E
330
25
100
AcDbEntity
  8
1
  6
Continuous
 62
     0
100
AcDbCircle
 10
13663.59245275008
 20
-640.942714204663
 30
0.0
 40
1.0
100
AcDbArc
 50
0.0
 51
180.0
  0
ARC
  5
44D
330
25
100
AcDbEntity
  8
1
  6
Continuous
 62
     0
100
AcDbCircle
 10
13718.89484579384
 20
-745.888071179658
 30
0.0
 40
35.695356974996
100
AcDbArc
 50
90.0
 51
113.2010528959335
  0
ARC
  5
44C
330
25
100
AcDbEntity
  8
1
  6
Continuous
 62
     0
100
AcDbCircle
 10
13652.64484579384
 20
-745.888071179658
 30
0.0
 40
35.695356974995
100
AcDbArc
 50
66.79894710406575
 51
90.0
  0
ARC
  5
44B
330
25
100
AcDbEntity
  8
1
  6
Continuous
 62
     0
100
AcDbCircle
 10
13685.76984579384
 20
-774.575162680019
 30
0.0
 40
64.382448475356
100
AcDbArc
 50
72.77755502786738
 51
107.2224449721326
  0
ARC
  5
44A
330
25
100
AcDbEntity
  8
1
  6
Continuous
 62
     0
100
AcDbCircle
 10
13718.71745275008
 20
-745.888071179658
 30
0.0
 40
35.695356974996
100
AcDbArc
 50
90.0
 51
113.2010528959335
  0
ARC
  5
449
330
25
100
AcDbEntity
  8
1
  6
Continuous
 62
     0
100
AcDbCircle
 10
13652.46745275008
 20
-745.888071179658
 30
0.0
 40
35.695356974995
100
AcDbArc
 50
66.79894710406575
 51
90.0
  0
ARC
  5
448
330
25
100
AcDbEntity
  8
1
  6
Continuous
 62
     0
100
AcDbCircle
 10
13685.59245275008
 20
-774.575162680019
 30
0.0
 40
64.382448475356
100
AcDbArc
 50
72.77755502786738
 51
107.2224449721326
  0
ARC
  5
447
330
25
100
AcDbEntity
  8
1
  6
Continuous
 62
     0
100
AcDbCircle
 10
13710.56651820658
 20
-888.667900097337
 30
0.0
 40
50.031165077228
100
AcDbArc
 50
177.2623668772519
 51
265.4915850997201
  0
ARC
  5
446
330
25
100
AcDbEntity
  8
1
  6
Continuous
 62
     0
100
AcDbCircle
 10
13685.59245275008
 20
-761.060265729308
 30
0.0
 40
64.382448475355
100
AcDbArc
 50
252.7775550278671
 51
287.2224449721328
  0
ARC
  5
445
330
25
100
AcDbEntity
  8
1
  6
Continuous
 62
     0
100
AcDbCircle
 10
13652.46745275008
 20
-789.747357229667
 30
0.0
 40
35.695356974997
100
AcDbArc
 50
270.0
 51
293.2010528959329
  0
ARC
  5
444
330
25
100
AcDbEntity
  8
1
  6
Continuous
 62
     0
100
AcDbCircle
 10
13718.71745275008
 20
-789.747357229667
 30
0.0
 40
35.695356974996
100
AcDbArc
 50
246.7989471040664
 51
270.0
  0
ARC
  5
443
330
25
100
AcDbEntity
  8
1
  6
Continuous
 62
     0
100
AcDbCircle
 10
13685.76984579384
 20
-761.060265729308
 30
0.0
 40
64.382448475355
100
AcDbArc
 50
252.7775550278671
 51
287.2224449721328
  0
ARC
  5
442
330
25
100
AcDbEntity
  8
1
  6
Continuous
 62
     0
100
AcDbCircle
 10
13652.64484579384
 20
-789.747357229667
 30
0.0
 40
35.695356974997
100
AcDbArc
 50
270.0
 51
293.2010528959329
  0
ARC
  5
441
330
25
100
AcDbEntity
  8
1
  6
Continuous
 62
     0
100
AcDbCircle
 10
13718.89484579384
 20
-789.747357229667
 30
0.0
 40
35.695356974996
100
AcDbArc
 50
246.7989471040664
 51
270.0
  0
ARC
  5
440
330
25
100
AcDbEntity
  8
1
  6
Continuous
 62
     0
100
AcDbCircle
 10
11360.45747009356
 20
-774.575162680019
 30
0.0
 40
64.382448475356
100
AcDbArc
 50
72.77755502786738
 51
107.2224449721326
  0
ARC
  5
43F
330
25
100
AcDbEntity
  8
1
  6
Continuous
 62
     0
100
AcDbCircle
 10
11327.33247009356
 20
-745.888071179658
 30
0.0
 40
35.695356974995
100
AcDbArc
 50
66.79894710406575
 51
90.0
  0
ARC
  5
43E
330
25
100
AcDbEntity
  8
1
  6
Continuous
 62
     0
100
AcDbCircle
 10
11393.58247009356
 20
-745.888071179658
 30
0.0
 40
35.695356974996
100
AcDbArc
 50
90.0
 51
113.2010528959335
  0
ARC
  5
43D
330
25
100
AcDbEntity
  8
1
  6
Continuous
 62
     0
100
AcDbCircle
 10
11360.63486313732
 20
-774.575162680019
 30
0.0
 40
64.382448475356
100
AcDbArc
 50
72.77755502786738
 51
107.2224449721326
  0
ARC
  5
43C
330
25
100
AcDbEntity
  8
1
  6
Continuous
 62
     0
100
AcDbCircle
 10
11327.50986313732
 20
-745.888071179658
 30
0.0
 40
35.695356974995
100
AcDbArc
 50
66.79894710406575
 51
90.0
  0
ARC
  5
43B
330
25
100
AcDbEntity
  8
1
  6
Continuous
 62
     0
100
AcDbCircle
 10
11393.75986313732
 20
-745.888071179658
 30
0.0
 40
35.695356974996
100
AcDbArc
 50
90.0
 51
113.2010528959335
  0
ARC
  5
43A
330
25
100
AcDbEntity
  8
1
  6
Continuous
 62
     0
100
AcDbCircle
 10
11360.45747009356
 20
-904.042714204664
 30
0.0
 40
36.001544532573
100
AcDbArc
 50
270.0
 51
44.18570785168649
  0
ARC
  5
439
330
25
100
AcDbEntity
  8
1
  6
Continuous
 62
     0
100
AcDbCircle
 10
11360.48613899742
 20
-3294.26841619431
 30
0.0
 40
34.787361012412
100
AcDbArc
 50
7.710008218938776
 51
173.0291458909459
  0
ARC
  5
438
330
25
100
AcDbEntity
  8
1
  6
Continuous
 62
     0
100
AcDbCircle
 10
11315.54048406089
 20
-3324.235837142222
 30
0.0
 40
10.415441500099
100
AcDbArc
 50
328.8685094339154
 51
0.0
  0
ARC
  5
437
330
25
100
AcDbEntity
  8
1
  6
Continuous
 62
     0
100
AcDbCircle
 10
11405.37445612623
 20
-3324.235837142222
 30
0.0
 40
10.415441500099
100
AcDbArc
 50
180.0
 51
211.1314905660846
  0
ARC
  5
436
330
25
100
AcDbEntity
  8
1
  6
Continuous
 62
     0
100
AcDbCircle
 10
10739.95874323514
 20
-3889.860660676961
 30
0.0
 40
11.5
100
AcDbArc
 50
90.0
 51
270.0
  0
ARC
  5
435
330
25
100
AcDbEntity
  8
1
  6
Continuous
 62
     0
100
AcDbCircle
 10
11407.79081371885
 20
-4424.672315516078
 30
0.0
 40
6.188368025611
100
AcDbArc
 50
245.9793229189774
 51
304.2284958030818
  0
ARC
  5
434
330
25
100
AcDbEntity
  8
1
  6
Continuous
 62
     0
100
AcDbCircle
 10
11428.60906803218
 20
-4424.672315516078
 30
0.0
 40
6.188368025608
100
AcDbArc
 50
235.7715041969414
 51
294.0206770810328
  0
ARC
  5
433
330
25
100
AcDbEntity
  8
1
  6
Continuous
 62
     0
100
AcDbCircle
 10
11418.19994087552
 20
-4407.932457446686
 30
0.0
 40
22.928203230276
100
AcDbArc
 50
252.4120462259947
 51
287.5879537739859
  0
ARC
  5
432
330
25
100
AcDbEntity
  8
1
  6
Continuous
 62
     0
100
AcDbCircle
 10
11384.37518461638
 20
-4407.932457446686
 30
0.0
 40
22.928203230272
100
AcDbArc
 50
252.4120462260208
 51
287.5879537740036
  0
ARC
  5
431
330
25
100
AcDbEntity
  8
1
  6
Continuous
 62
     0
100
AcDbCircle
 10
11394.78431177304
 20
-4424.672315516078
 30
0.0
 40
6.188368025604
100
AcDbArc
 50
235.771504196997
 51
294.0206770811064
  0
ARC
  5
430
330
25
100
AcDbEntity
  8
1
  6
Continuous
 62
     0
100
AcDbCircle
 10
11373.96605745972
 20
-4424.672315516078
 30
0.0
 40
6.188368025611
100
AcDbArc
 50
245.9793229189774
 51
304.2284958030818
  0
ARC
  5
42F
330
25
100
AcDbEntity
  8
1
  6
Continuous
 62
     0
100
AcDbCircle
 10
11346.94888272741
 20
-4424.672315516078
 30
0.0
 40
6.188368025609
100
AcDbArc
 50
235.7715041969274
 51
294.0206770810294
  0
ARC
  5
42E
330
25
100
AcDbEntity
  8
1
  6
Continuous
 62
     0
100
AcDbCircle
 10
11326.13062841408
 20
-4424.672315516078
 30
0.0
 40
6.188368025611
100
AcDbArc
 50
245.9793229189774
 51
304.2284958030818
  0
ARC
  5
42D
330
25
100
AcDbEntity
  8
1
  6
Continuous
 62
     0
100
AcDbCircle
 10
11336.53975557074
 20
-4407.932457446686
 30
0.0
 40
22.928203230273
100
AcDbArc
 50
252.4120462260165
 51
287.5879537740071
  0
ARC
  5
42C
330
25
100
AcDbEntity
  8
1
  6
Continuous
 62
     0
100
AcDbCircle
 10
11302.71499931161
 20
-4407.932457446686
 30
0.0
 40
22.928203230276
100
AcDbArc
 50
252.4120462259905
 51
287.5879537739808
  0
ARC
  5
42B
330
25
100
AcDbEntity
  8
1
  6
Continuous
 62
     0
100
AcDbCircle
 10
11292.30587215494
 20
-4424.672315516078
 30
0.0
 40
6.188368025612
100
AcDbArc
 50
245.9793229189621
 51
304.2284958030535
  0
ARC
  5
42A
330
25
100
AcDbEntity
  8
1
  6
Continuous
 62
     0
100
AcDbCircle
 10
11313.12412646827
 20
-4424.672315516078
 30
0.0
 40
6.188368025609
100
AcDbArc
 50
235.7715041969274
 51
294.0206770810294
  0
ARC
  5
429
330
25
100
AcDbEntity
  8
1
  6
Continuous
 62
     0
100
AcDbCircle
 10
14288.83245275008
 20
-1595.042714204664
 30
0.0
 40
1008.999999999999
100
AcDbArc
 50
267.744999329787
 51
272.255000670214
  0
ARC
  5
428
330
25
100
AcDbEntity
  8
1
  6
Continuous
 62
     0
100
AcDbCircle
 10
14288.83245275008
 20
-2659.507040946404
 30
0.0
 40
13.000000000004
100
AcDbArc
 50
211.1089225105414
 51
328.8910774894568
  0
ARC
  5
427
330
25
100
AcDbEntity
  8
1
  6
Continuous
 62
     0
100
AcDbCircle
 10
14288.83245275008
 20
-2659.507040946404
 30
0.0
 40
12.999999999997
100
AcDbArc
 50
31.1089225105044
 51
148.8910774894973
  0
ARC
  5
426
330
25
100
AcDbEntity
  8
1
  6
Continuous
 62
     0
100
AcDbCircle
 10
14288.83245275008
 20
-2664.623495914864
 30
0.0
 40
23.883545031539
100
AcDbArc
 50
252.4120462260076
 51
256.0690995158483
  0
ARC
  5
425
330
25
100
AcDbEntity
  8
1
  6
Continuous
 62
     0
100
AcDbCircle
 10
14288.83245275008
 20
-2655.890585977943
 30
0.0
 40
23.883545031543
100
AcDbArc
 50
72.41204622598782
 51
76.0690995158507
  0
ARC
  5
424
330
25
100
AcDbEntity
  8
1
  6
Continuous
 62
     0
100
AcDbCircle
 10
14288.83245275008
 20
-2702.390585977944
 30
0.0
 40
23.88354503154
100
AcDbArc
 50
72.41204622598552
 51
76.06909951584912
  0
ARC
  5
423
330
25
100
AcDbEntity
  8
1
  6
Continuous
 62
     0
100
AcDbCircle
 10
14288.83245275008
 20
-2618.123495914866
 30
0.0
 40
23.88354503154
100
AcDbArc
 50
252.4120462260083
 51
256.0690995158491
  0
ARC
  5
422
330
25
100
AcDbEntity
  8
1
  6
Continuous
 62
     0
100
AcDbCircle
 10
14299.67529353828
 20
-2684.953233822326
 30
0.0
 40
6.446216693344
100
AcDbArc
 50
97.51291575571503
 51
124.2284958030366
  0
ARC
  5
421
330
25
100
AcDbEntity
  8
1
  6
Continuous
 62
     0
100
AcDbCircle
 10
14277.98961196189
 20
-2684.953233822327
 30
0.0
 40
6.446216693348
100
AcDbArc
 50
100.3412096385187
 51
114.020677081035
  0
ARC
  5
420
330
25
100
AcDbEntity
  8
1
  6
Continuous
 62
     0
100
AcDbCircle
 10
14288.83245275008
 20
-2702.390585977944
 30
0.0
 40
23.883545031539
100
AcDbArc
 50
103.9309004841516
 51
107.5879537739924
  0
ARC
  5
41F
330
25
100
AcDbEntity
  8
1
  6
Continuous
 62
     0
100
AcDbCircle
 10
14299.67529353828
 20
-2635.560848070484
 30
0.0
 40
6.446216693345
100
AcDbArc
 50
280.3412096384579
 51
294.0206770810646
  0
ARC
  5
41E
330
25
100
AcDbEntity
  8
1
  6
Continuous
 62
     0
100
AcDbCircle
 10
14277.98961196189
 20
-2635.560848070483
 30
0.0
 40
6.446216693346
100
AcDbArc
 50
277.5129157556477
 51
304.2284958030431
  0
ARC
  5
41D
330
25
100
AcDbEntity
  8
1
  6
Continuous
 62
     0
100
AcDbCircle
 10
14288.83245275008
 20
-2618.123495914866
 30
0.0
 40
23.883545031539
100
AcDbArc
 50
283.9309004841517
 51
287.5879537740151
  0
ARC
  5
41C
330
25
100
AcDbEntity
  8
1
  6
Continuous
 62
     0
100
AcDbCircle
 10
14277.98961196189
 20
-2638.453233822325
 30
0.0
 40
6.446216693343
100
AcDbArc
 50
55.77150419695658
 51
114.0206770810367
  0
ARC
  5
41B
330
25
100
AcDbEntity
  8
1
  6
Continuous
 62
     0
100
AcDbCircle
 10
14288.83245275008
 20
-2655.890585977943
 30
0.0
 40
23.88354503154
100
AcDbArc
 50
103.9309004841509
 51
107.5879537739917
  0
ARC
  5
41A
330
25
100
AcDbEntity
  8
1
  6
Continuous
 62
     0
100
AcDbCircle
 10
14299.67529353828
 20
-2638.453233822324
 30
0.0
 40
6.446216693346
100
AcDbArc
 50
65.97932291893866
 51
124.2284958030252
  0
ARC
  5
419
330
25
100
AcDbEntity
  8
1
  6
Continuous
 62
     0
100
AcDbCircle
 10
14277.98961196189
 20
-2682.060848070481
 30
0.0
 40
6.446216693346
100
AcDbArc
 50
245.9793229189567
 51
304.2284958030431
  0
ARC
  5
418
330
25
100
AcDbEntity
  8
1
  6
Continuous
 62
     0
100
AcDbCircle
 10
14288.83245275008
 20
-2664.623495914864
 30
0.0
 40
23.88354503154
100
AcDbArc
 50
283.9309004841509
 51
287.5879537740146
  0
ARC
  5
417
330
25
100
AcDbEntity
  8
1
  6
Continuous
 62
     0
100
AcDbCircle
 10
14299.67529353828
 20
-2682.060848070482
 30
0.0
 40
6.446216693342
100
AcDbArc
 50
235.7715041969699
 51
294.0206770810581
  0
ARC
  5
416
330
25
100
AcDbEntity
  8
1
  6
Continuous
 62
     0
100
AcDbCircle
 10
14277.98961196189
 20
-2635.560848070483
 30
0.0
 40
6.446216693346
100
AcDbArc
 50
245.9793229189567
 51
259.6587903614784
  0
ARC
  5
415
330
25
100
AcDbEntity
  8
1
  6
Continuous
 62
     0
100
AcDbCircle
 10
14299.67529353828
 20
-2635.560848070484
 30
0.0
 40
6.446216693342
100
AcDbArc
 50
235.7715041969722
 51
262.4870842442824
  0
ARC
  5
414
330
25
100
AcDbEntity
  8
1
  6
Continuous
 62
     0
100
AcDbCircle
 10
14277.98961196189
 20
-2684.953233822327
 30
0.0
 40
6.446216693343
100
AcDbArc
 50
55.77150419695658
 51
82.48708424434913
  0
ARC
  5
413
330
25
100
AcDbEntity
  8
1
  6
Continuous
 62
     0
100
AcDbCircle
 10
14299.67529353828
 20
-2684.953233822326
 30
0.0
 40
6.446216693346
100
AcDbArc
 50
65.97932291894031
 51
79.65879036154351
  0
ARC
  5
412
330
25
100
AcDbEntity
  8
1
  6
Continuous
 62
     0
100
AcDbCircle
 10
14288.83245275008
 20
-2655.890585977983
 30
0.0
 40
23.883545031581
100
AcDbArc
 50
72.41204622601683
 51
107.5879537739604
  0
ARC
  5
411
330
25
100
AcDbEntity
  8
1
  6
Continuous
 62
     0
100
AcDbCircle
 10
14288.83245275008
 20
-2620.515106486616
 30
0.0
 40
21.615815918786
100
AcDbArc
 50
250.4961455205435
 51
289.503854479482
  0
ARC
  5
410
330
25
100
AcDbEntity
  8
1
  6
Continuous
 62
     0
100
AcDbCircle
 10
14288.83245275008
 20
-2664.623495914847
 30
0.0
 40
23.883545031555
100
AcDbArc
 50
252.4120462260198
 51
287.5879537740029
  0
ARC
  5
40F
330
25
100
AcDbEntity
  8
1
  6
Continuous
 62
     0
100
AcDbCircle
 10
14288.83245275008
 20
-2704.352147660689
 30
0.0
 40
25.760231957409
100
AcDbArc
 50
73.7304965073435
 51
106.2695034926354
  0
ARC
  5
40E
330
25
100
AcDbEntity
  8
1
  6
Continuous
 62
     0
100
AcDbCircle
 10
14823.64410758919
 20
-2228.376057829952
 30
0.0
 40
6.18836802561
100
AcDbArc
 50
325.7715041969287
 51
24.02067708099564
  0
ARC
  5
40D
330
25
100
AcDbEntity
  8
1
  6
Continuous
 62
     0
100
AcDbCircle
 10
14823.64410758919
 20
-2249.194312143284
 30
0.0
 40
6.188368025618
100
AcDbArc
 50
335.979322919001
 51
34.22849580306128
  0
ARC
  5
40C
330
25
100
AcDbEntity
  8
1
  6
Continuous
 62
     0
100
AcDbCircle
 10
14806.9042495198
 20
-2238.785184986618
 30
0.0
 40
22.928203230275
100
AcDbArc
 50
342.4120462260042
 51
17.58795377399256
  0
ARC
  5
40B
330
25
100
AcDbEntity
  8
1
  6
Continuous
 62
     0
100
AcDbCircle
 10
14806.9042495198
 20
-2204.960428727481
 30
0.0
 40
22.928203230275
100
AcDbArc
 50
342.4120462260042
 51
17.58795377399472
  0
ARC
  5
40A
330
25
100
AcDbEntity
  8
1
  6
Continuous
 62
     0
100
AcDbCircle
 10
14823.64410758919
 20
-2215.369555884146
 30
0.0
 40
6.188368025618
100
AcDbArc
 50
335.9793229189895
 51
34.22849580305431
  0
ARC
  5
409
330
25
100
AcDbEntity
  8
1
  6
Continuous
 62
     0
100
AcDbCircle
 10
14823.64410758919
 20
-2194.551301570816
 30
0.0
 40
6.188368025609
100
AcDbArc
 50
325.7715041969426
 51
24.02067708101788
  0
ARC
  5
408
330
25
100
AcDbEntity
  8
1
  6
Continuous
 62
     0
100
AcDbCircle
 10
14823.64410758919
 20
-2167.53412683851
 30
0.0
 40
6.188368025618
100
AcDbArc
 50
335.979322919001
 51
34.22849580306128
  0
ARC
  5
407
330
25
100
AcDbEntity
  8
1
  6
Continuous
 62
     0
100
AcDbCircle
 10
14823.64410758919
 20
-2146.715872525179
 30
0.0
 40
6.18836802561
100
AcDbArc
 50
325.7715041969321
 51
24.02067708099949
  0
ARC
  5
406
330
25
100
AcDbEntity
  8
1
  6
Continuous
 62
     0
100
AcDbCircle
 10
14806.9042495198
 20
-2157.124999681844
 30
0.0
 40
22.928203230275
100
AcDbArc
 50
342.4120462260054
 51
17.58795377399256
  0
ARC
  5
405
330
25
100
AcDbEntity
  8
1
  6
Continuous
 62
     0
100
AcDbCircle
 10
14806.9042495198
 20
-2123.300243422707
 30
0.0
 40
22.928203230275
100
AcDbArc
 50
342.4120462260042
 51
17.58795377399256
  0
ARC
  5
404
330
25
100
AcDbEntity
  8
1
  6
Continuous
 62
     0
100
AcDbCircle
 10
14823.64410758919
 20
-2112.891116266041
 30
0.0
 40
6.18836802561
100
AcDbArc
 50
325.7715041969287
 51
24.02067708099564
  0
ARC
  5
403
330
25
100
AcDbEntity
  8
1
  6
Continuous
 62
     0
100
AcDbCircle
 10
14823.64410758919
 20
-2133.709370579373
 30
0.0
 40
6.188368025618
100
AcDbArc
 50
335.979322919001
 51
34.22849580306128
  0
ARC
  5
402
330
25
100
AcDbEntity
  8
1
  6
Continuous
 62
     0
100
AcDbCircle
 10
15249.95489800557
 20
-2181.042714204663
 30
0.0
 40
458.972445255489
100
AcDbArc
 50
170.088686020987
 51
189.911313979013
  0
ARC
  5
401
330
25
100
AcDbEntity
  8
1
  6
Continuous
 62
     0
100
AcDbCircle
 10
13723.20762921534
 20
-859.125728171993
 30
0.0
 40
10.415441500099
100
AcDbArc
 50
270.0
 51
301.1314905660818
  0
ARC
  5
400
330
25
100
AcDbEntity
  8
1
  6
Continuous
 62
     0
100
AcDbCircle
 10
13723.20762921534
 20
-948.959700237335
 30
0.0
 40
10.415441500098
100
AcDbArc
 50
58.86850943391497
 51
90.0
  0
ARC
  5
3FF
330
25
100
AcDbEntity
  8
1
  6
Continuous
 62
     0
100
AcDbCircle
 10
14288.83245275008
 20
-914.042714204664
 30
0.0
 40
1008.999999999997
100
AcDbArc
 50
63.61220003875699
 51
89.545717503817
  0
ARC
  5
3FE
330
25
100
AcDbEntity
  8
1
  6
Continuous
 62
     0
100
AcDbCircle
 10
14303.96407664253
 20
82.854695018847
 30
0.0
 40
0.867981349404
100
AcDbArc
 50
326.445258585716
 51
34.28210515536589
  0
ARC
  5
3FD
330
25
100
AcDbEntity
  8
1
  6
Continuous
 62
     0
100
AcDbCircle
 10
14302.90553348747
 20
82.195711926921
 30
0.0
 40
2.114445598486
100
AcDbArc
 50
32.87987650663509
 51
58.14043270268422
  0
ARC
  5
3FC
330
25
100
AcDbEntity
  8
1
  6
Continuous
 62
     0
100
AcDbCircle
 10
14299.52976965804
 20
76.72466508467
 30
0.0
 40
8.543133604494
100
AcDbArc
 50
58.27890074455848
 51
72.22922379446459
  0
ARC
  5
3FB
330
25
100
AcDbEntity
  8
1
  6
Continuous
 62
     0
100
AcDbCircle
 10
14293.30408433309
 20
56.151205721681
 30
0.0
 40
30.037119456797
100
AcDbArc
 50
72.89798909852692
 51
83.25406525200496
  0
ARC
  5
3FA
330
25
100
AcDbEntity
  8
1
  6
Continuous
 62
     0
100
AcDbCircle
 10
14293.30408433309
 20
109.556834887008
 30
0.0
 40
30.037119456798
100
AcDbArc
 50
276.7459347479948
 51
287.1020109014725
  0
ARC
  5
3F9
330
25
100
AcDbEntity
  8
1
  6
Continuous
 62
     0
100
AcDbCircle
 10
14299.52976965804
 20
88.983375524019
 30
0.0
 40
8.543133604494
100
AcDbArc
 50
287.7707762055354
 51
301.7210992554418
  0
ARC
  5
3F8
330
25
100
AcDbEntity
  8
1
  6
Continuous
 62
     0
100
AcDbCircle
 10
14302.90553348747
 20
83.512328681769
 30
0.0
 40
2.114445598487
100
AcDbArc
 50
301.8595672973003
 51
327.1201234933894
  0
ARC
  5
3F7
330
25
100
AcDbEntity
  8
1
  6
Continuous
 62
     0
100
AcDbCircle
 10
14303.96407664253
 20
82.853345589842
 30
0.0
 40
0.867981349404
100
AcDbArc
 50
325.717894844634
 51
33.55474141426051
  0
ARC
  5
3F6
330
25
100
AcDbEntity
  8
1
  6
Continuous
 62
     0
100
AcDbCircle
 10
14273.70082885763
 20
82.853345589842
 30
0.0
 40
0.867981349411
100
AcDbArc
 50
146.4452585861018
 51
214.2821051550013
  0
ARC
  5
3F5
330
25
100
AcDbEntity
  8
1
  6
Continuous
 62
     0
100
AcDbCircle
 10
14274.75937201268
 20
83.512328681769
 30
0.0
 40
2.114445598486
100
AcDbArc
 50
212.8798765066351
 51
238.1404327029145
  0
ARC
  5
3F4
330
25
100
AcDbEntity
  8
1
  6
Continuous
 62
     0
100
AcDbCircle
 10
14278.13513584212
 20
88.983375524019
 30
0.0
 40
8.543133604493
100
AcDbArc
 50
238.2789007445544
 51
252.2292237944752
  0
ARC
  5
3F3
330
25
100
AcDbEntity
  8
1
  6
Continuous
 62
     0
100
AcDbCircle
 10
14284.36082116707
 20
109.556834887008
 30
0.0
 40
30.037119456797
100
AcDbArc
 50
252.8979890985306
 51
263.2540652520084
  0
ARC
  5
3F2
330
25
100
AcDbEntity
  8
1
  6
Continuous
 62
     0
100
AcDbCircle
 10
14284.36082116707
 20
56.151205721681
 30
0.0
 40
30.037119456797
100
AcDbArc
 50
96.74593474799156
 51
107.1020109014695
  0
ARC
  5
3F1
330
25
100
AcDbEntity
  8
1
  6
Continuous
 62
     0
100
AcDbCircle
 10
14278.13513584212
 20
76.72466508467
 30
0.0
 40
8.543133604493
100
AcDbArc
 50
107.7707762055248
 51
121.7210992554454
  0
ARC
  5
3F0
330
25
100
AcDbEntity
  8
1
  6
Continuous
 62
     0
100
AcDbCircle
 10
14274.75937201268
 20
82.195711926921
 30
0.0
 40
2.114445598482
100
AcDbArc
 50
121.8595672970941
 51
147.120123493358
  0
ARC
  5
3EF
330
25
100
AcDbEntity
  8
1
  6
Continuous
 62
     0
100
AcDbCircle
 10
14273.70082885763
 20
82.854695018847
 30
0.0
 40
0.867981349411
100
AcDbArc
 50
145.7178948449987
 51
213.5547414139224
  0
ARC
  5
3EE
330
25
100
AcDbEntity
  8
1
  6
Continuous
 62
     0
100
AcDbCircle
 10
14305.07528361469
 20
71.158836729351
 30
0.0
 40
1.262772106956
100
AcDbArc
 50
314.7775790914456
 51
354.6006054710582
  0
ARC
  5
3ED
330
25
100
AcDbEntity
  8
1
  6
Continuous
 62
     0
100
AcDbCircle
 10
14301.81230711021
 20
75.267197357655
 30
0.0
 40
6.503072230994
100
AcDbArc
 50
287.4485239878578
 51
309.6824243072472
  0
ARC
  5
3EC
330
25
100
AcDbEntity
  8
1
  6
Continuous
 62
     0
100
AcDbCircle
 10
14290.35311801419
 20
117.159974628298
 30
0.0
 40
49.93084959659
100
AcDbArc
 50
268.2556266704823
 51
285.5782375573592
  0
ARC
  5
3EB
330
25
100
AcDbEntity
  8
1
  6
Continuous
 62
     0
100
AcDbCircle
 10
14287.31178748597
 20
117.159974628298
 30
0.0
 40
49.930849596589
100
AcDbArc
 50
254.4217624426383
 51
271.7443733295157
  0
ARC
  5
3EA
330
25
100
AcDbEntity
  8
1
  6
Continuous
 62
     0
100
AcDbCircle
 10
14275.85259838995
 20
75.267197357655
 30
0.0
 40
6.503072230999
100
AcDbArc
 50
230.3175756926844
 51
252.5514760121225
  0
ARC
  5
3E9
330
25
100
AcDbEntity
  8
1
  6
Continuous
 62
     0
100
AcDbCircle
 10
14272.58962188547
 20
71.158836729351
 30
0.0
 40
1.262772106959
100
AcDbArc
 50
185.3993945289442
 51
225.2224209082337
  0
ARC
  5
3E8
330
25
100
AcDbEntity
  8
1
  6
Continuous
 62
     0
100
AcDbCircle
 10
14288.83245275008
 20
132.356973484865
 30
0.0
 40
8.0
100
AcDbArc
 50
0.0
 51
180.0
  0
ARC
  5
3E7
330
25
100
AcDbEntity
  8
1
  6
Continuous
 62
     0
100
AcDbCircle
 10
14288.83245275008
 20
-2695.042714204664
 30
0.0
 40
100.0
100
AcDbArc
 50
0.0
 51
180.0
  0
ARC
  5
3E4
330
25
100
AcDbEntity
  8
1
  6
Continuous
 62
     0
100
AcDbCircle
 10
11134.49451314218
 20
105.210317228547
 30
0.0
 40
36.000000000001
100
AcDbArc
 50
315.7173872833739
 51
249.2826127166264
  0
ARC
  5
3E3
330
25
100
AcDbEntity
  8
1
  6
Continuous
 62
     0
100
AcDbCircle
 10
11586.42042704494
 20
105.210317228547
 30
0.0
 40
36.000000000001
100
AcDbArc
 50
290.7173872833735
 51
224.2826127166262
  0
ARC
  5
3E2
330
25
100
AcDbEntity
  8
1
  6
Continuous
 62
     0
100
AcDbCircle
 10
11360.45747009356
 20
-904.042714204664
 30
0.0
 40
34.501544532573
100
AcDbArc
 50
270.0
 51
34.34406296569987
  0
ARC
  5
3E1
330
25
100
AcDbEntity
  8
1
  6
Continuous
 62
     0
100
AcDbCircle
 10
11360.45747009356
 20
-904.042714204664
 30
0.0
 40
34.501544532571
100
AcDbArc
 50
145.0616359453058
 51
270.0
  0
ARC
  5
3E0
330
25
100
AcDbEntity
  8
1
  6
Continuous
 62
     0
100
AcDbCircle
 10
11360.45747009356
 20
-904.042714204664
 30
0.0
 40
36.001544532567
100
AcDbArc
 50
135.8142921482982
 51
270.0
  0
ARC
  5
3DF
330
25
100
AcDbEntity
  8
1
  6
Continuous
 62
     0
100
AcDbCircle
 10
11393.75986313732
 20
-789.747357229667
 30
0.0
 40
35.695356974996
100
AcDbArc
 50
246.7989471040664
 51
270.0
  0
ARC
  5
3DE
330
25
100
AcDbEntity
  8
1
  6
Continuous
 62
     0
100
AcDbCircle
 10
11327.50986313732
 20
-789.747357229667
 30
0.0
 40
35.695356974997
100
AcDbArc
 50
270.0
 51
293.2010528959329
  0
ARC
  5
3DD
330
25
100
AcDbEntity
  8
1
  6
Continuous
 62
     0
100
AcDbCircle
 10
11360.63486313732
 20
-761.060265729308
 30
0.0
 40
64.382448475355
100
AcDbArc
 50
252.7775550278671
 51
287.2224449721328
  0
ARC
  5
3DC
330
25
100
AcDbEntity
  8
1
  6
Continuous
 62
     0
100
AcDbCircle
 10
11393.58247009356
 20
-789.747357229667
 30
0.0
 40
35.695356974996
100
AcDbArc
 50
246.7989471040664
 51
270.0
  0
ARC
  5
3DB
330
25
100
AcDbEntity
  8
1
  6
Continuous
 62
     0
100
AcDbCircle
 10
11327.33247009356
 20
-789.747357229667
 30
0.0
 40
35.695356974997
100
AcDbArc
 50
270.0
 51
293.2010528959329
  0
ARC
  5
3DA
330
25
100
AcDbEntity
  8
1
  6
Continuous
 62
     0
100
AcDbCircle
 10
11360.45747009356
 20
-761.060265729308
 30
0.0
 40
64.382448475355
100
AcDbArc
 50
252.7775550278671
 51
287.2224449721328
  0
ARC
  5
3D9
330
25
100
AcDbEntity
  8
1
  6
Continuous
 62
     0
100
AcDbCircle
 10
11338.45747009356
 20
-640.942714204663
 30
0.0
 40
1.0
100
AcDbArc
 50
0.0
 51
180.0
  0
ARC
  5
3D8
330
25
100
AcDbEntity
  8
1
  6
Continuous
 62
     0
100
AcDbCircle
 10
11353.12413676023
 20
-640.942714204663
 30
0.0
 40
1.0
100
AcDbArc
 50
0.0
 51
180.0
  0
ARC
  5
3D7
330
25
100
AcDbEntity
  8
1
  6
Continuous
 62
     0
100
AcDbCircle
 10
11367.7908034269
 20
-640.942714204663
 30
0.0
 40
1.0
100
AcDbArc
 50
0.0
 51
180.0
  0
ARC
  5
3D6
330
25
100
AcDbEntity
  8
1
  6
Continuous
 62
     0
100
AcDbCircle
 10
11382.45747009356
 20
-640.942714204663
 30
0.0
 40
1.0
100
AcDbArc
 50
0.0
 51
180.0
  0
ARC
  5
3D5
330
25
100
AcDbEntity
  8
1
  6
Continuous
 62
     0
100
AcDbCircle
 10
11360.45747009356
 20
-618.442714204663
 30
0.0
 40
15.0
100
AcDbArc
 50
0.0
 51
180.0
  0
ARC
  5
3D4
330
25
100
AcDbEntity
  8
1
  6
Continuous
 62
     0
100
AcDbCircle
 10
11344.95747009356
 20
-639.085112053556
 30
0.0
 40
12.142397848893
100
AcDbArc
 50
59.0209011383692
 51
90.0
  0
ARC
  5
3D3
330
25
100
AcDbEntity
  8
1
  6
Continuous
 62
     0
100
AcDbCircle
 10
11375.95747009356
 20
-639.085112053556
 30
0.0
 40
12.142397848893
100
AcDbArc
 50
90.0
 51
120.9790988616308
  0
ARC
  5
3D2
330
25
100
AcDbEntity
  8
1
  6
Continuous
 62
     0
100
AcDbCircle
 10
11360.45747009356
 20
-652.508505812215
 30
0.0
 40
25.565791607551
100
AcDbArc
 50
68.78850558533539
 51
111.2114944146646
  0
ARC
  5
3D1
330
25
100
AcDbEntity
  8
1
  6
Continuous
 62
     0
100
AcDbCircle
 10
10741.02201710458
 20
-1215.291184213161
 30
0.0
 40
13.711205269313
100
AcDbArc
 50
30.13902348559888
 51
59.86097651441055
  0
ARC
  5
3D0
330
25
100
AcDbEntity
  8
1
  6
Continuous
 62
     0
100
AcDbCircle
 10
10747.57995648953
 20
-1203.995882948884
 30
0.0
 40
0.65017929019
100
AcDbArc
 50
59.86097651457227
 51
153.4176955807713
  0
ARC
  5
3CF
330
25
100
AcDbEntity
  8
1
  6
Continuous
 62
     0
100
AcDbCircle
 10
10708.63560203483
 20
-1184.509044572341
 30
0.0
 40
42.897491299708
100
AcDbArc
 50
316.7330883772993
 51
333.4176955808174
  0
ARC
  5
3CE
330
25
100
AcDbEntity
  8
1
  6
Continuous
 62
     0
100
AcDbCircle
 10
10752.31731836885
 20
-1208.733244828214
 30
0.0
 40
0.650179290193
100
AcDbArc
 50
296.5823044196408
 51
30.1390234856027
  0
ARC
  5
3CD
330
25
100
AcDbEntity
  8
1
  6
Continuous
 62
     0
100
AcDbCircle
 10
10771.8041567454
 20
-1247.677599282912
 30
0.0
 40
42.897491299712
100
AcDbArc
 50
116.5823044191848
 51
133.266911622695
  0
ARC
  5
3CC
330
25
100
AcDbEntity
  8
1
  6
Continuous
 62
     0
100
AcDbCircle
 10
10738.91808533885
 20
-1217.393003566234
 30
0.0
 40
32.087775151113
100
AcDbArc
 50
179.9269078913212
 51
224.5555346918007
  0
ARC
  5
3CB
330
25
100
AcDbEntity
  8
1
  6
Continuous
 62
     0
100
AcDbCircle
 10
10738.91921397149
 20
-1217.062853255824
 30
0.0
 40
39.342857142856
100
AcDbArc
 50
254.973886240879
 51
285.0261137591182
  0
ARC
  5
3CA
330
25
100
AcDbEntity
  8
1
  6
Continuous
 62
     0
100
AcDbCircle
 10
10738.87476952705
 20
-1217.359900013409
 30
0.0
 40
39.044459324232
100
AcDbArc
 50
214.0413943255924
 51
254.9238647887039
  0
ARC
  5
3C9
330
25
100
AcDbEntity
  8
1
  6
Continuous
 62
     0
100
AcDbCircle
 10
10738.96365841594
 20
-1217.451935812071
 30
0.0
 40
38.955598656242
100
AcDbArc
 50
334.0155658970711
 51
0.0852304639130696
  0
ARC
  5
3C8
330
25
100
AcDbEntity
  8
1
  6
Continuous
 62
     0
100
AcDbCircle
 10
10738.91921397149
 20
-1217.393987346247
 30
0.0
 40
3.611111111109
100
AcDbArc
 50
0.0
 51
15.30203171435754
  0
ARC
  5
3C7
330
25
100
AcDbEntity
  8
1
  6
Continuous
 62
     0
100
AcDbCircle
 10
10738.91921397149
 20
-1217.393987346247
 30
0.0
 40
3.61111111111
100
AcDbArc
 50
248.5781784782126
 51
0.0
  0
ARC
  5
3C6
330
25
100
AcDbEntity
  8
1
  6
Continuous
 62
     0
100
AcDbCircle
 10
10738.91921397149
 20
-1217.393987346247
 30
0.0
 40
3.611111111112
100
AcDbArc
 50
74.6979682856096
 51
201.4218215218231
  0
ARC
  5
3C5
330
25
100
AcDbEntity
  8
1
  6
Continuous
 62
     0
100
AcDbCircle
 10
10738.91808533885
 20
-1217.393003566234
 30
0.0
 40
32.087775151115
100
AcDbArc
 50
314.9991688162391
 51
179.9269078913212
  0
ARC
  5
3C4
330
25
100
AcDbEntity
  8
1
  6
Continuous
 62
     0
100
AcDbCircle
 10
10738.92190426002
 20
-1217.397495053333
 30
0.0
 40
28.591593842013
100
AcDbArc
 50
315.0000000000045
 51
180.0
  0
ARC
  5
3C3
330
25
100
AcDbEntity
  8
1
  6
Continuous
 62
     0
100
AcDbCircle
 10
10738.92190426002
 20
-1217.397495053333
 30
0.0
 40
28.591593842009
100
AcDbArc
 50
180.0
 51
224.4894078670362
  0
ARC
  5
3C2
330
25
100
AcDbEntity
  8
1
  6
Continuous
 62
     0
100
AcDbCircle
 10
10738.87476952705
 20
-1217.359900013409
 30
0.0
 40
39.044459324227
100
AcDbArc
 50
359.9499785478301
 51
85.96934215079943
  0
ARC
  5
3C1
330
25
100
AcDbEntity
  8
1
  6
Continuous
 62
     0
100
AcDbCircle
 10
10738.87476952705
 20
-1217.359900013409
 30
0.0
 40
39.04445932423
100
AcDbArc
 50
85.96934215079975
 51
93.89990484410232
  0
ARC
  5
3C0
330
25
100
AcDbEntity
  8
1
  6
Continuous
 62
     0
100
AcDbCircle
 10
10738.91921397149
 20
-1179.552940689178
 30
0.0
 40
3.637499999999
100
AcDbArc
 50
42.0750220508525
 51
137.9249779491529
  0
ARC
  5
3BF
330
25
100
AcDbEntity
  8
1
  6
Continuous
 62
     0
100
AcDbCircle
 10
10706.14790626068
 20
-1236.314510674781
 30
0.0
 40
3.637500000004
100
AcDbArc
 50
162.0750220508749
 51
257.9249779492321
  0
ARC
  5
3BE
330
25
100
AcDbEntity
  8
1
  6
Continuous
 62
     0
100
AcDbCircle
 10
10771.64665009117
 20
-1236.289181399831
 30
0.0
 40
3.637500000001
100
AcDbArc
 50
282.0750220509245
 51
17.92497794912029
  0
ARC
  5
3BD
330
25
100
AcDbEntity
  8
1
  6
Continuous
 62
     0
100
AcDbCircle
 10
10738.96365841594
 20
-1217.451935812071
 30
0.0
 40
38.955598656245
100
AcDbArc
 50
285.1113442230244
 51
326.0668870753443
  0
ARC
  5
3BC
330
25
100
AcDbEntity
  8
1
  6
Continuous
 62
     0
100
AcDbCircle
 10
10738.96365841594
 20
-1217.451935812071
 30
0.0
 40
38.955598656249
100
AcDbArc
 50
326.0668870753447
 51
334.0155658970701
  0
ARC
  5
3BB
330
25
100
AcDbEntity
  8
1
  6
Continuous
 62
     0
100
AcDbCircle
 10
10738.87476952705
 20
-1217.359900013409
 30
0.0
 40
39.044459324229
100
AcDbArc
 50
206.1108297946179
 51
214.041394325594
  0
ARC
  5
3BA
330
25
100
AcDbEntity
  8
1
  6
Continuous
 62
     0
100
AcDbCircle
 10
10738.87476952705
 20
-1217.359900013409
 30
0.0
 40
39.044459324231
100
AcDbArc
 50
93.89990484410225
 51
206.110829794618
  0
ARC
  5
3B9
330
25
100
AcDbEntity
  8
1
  6
Continuous
 62
     0
100
AcDbCircle
 10
10832.98011865639
 20
-1304.042714204664
 30
0.0
 40
20.062177826479
100
AcDbArc
 50
162.4120462259957
 51
163.9040367899408
  0
ARC
  5
3B8
330
25
100
AcDbEntity
  8
1
  6
Continuous
 62
     0
100
AcDbCircle
 10
10765.19358517694
 20
-1304.042714204664
 30
0.0
 40
20.062177826479
100
AcDbArc
 50
342.4120462259988
 51
343.9040367899453
  0
ARC
  5
3B7
330
25
100
AcDbEntity
  8
1
  6
Continuous
 62
     0
100
AcDbCircle
 10
10805.12081889036
 20
-1300.053884637734
 30
0.0
 40
6.806710713908
100
AcDbArc
 50
3.041596008611384
 51
41.5101996879439
  0
ARC
  5
3B6
330
25
100
AcDbEntity
  8
1
  6
Continuous
 62
     0
100
AcDbCircle
 10
10779.84096098765
 20
-1313.150700466743
 30
0.0
 40
5.414822022401
100
AcDbArc
 50
335.9793229189091
 51
34.22849580308465
  0
ARC
  5
3B5
330
25
100
AcDbEntity
  8
1
  6
Continuous
 62
     0
100
AcDbCircle
 10
10779.84096098765
 20
-1294.934727942585
 30
0.0
 40
5.414822022402
100
AcDbArc
 50
325.7715041969302
 51
24.02067708110619
  0
ARC
  5
3B4
330
25
100
AcDbEntity
  8
1
  6
Continuous
 62
     0
100
AcDbCircle
 10
10765.19358517694
 20
-1304.042714204664
 30
0.0
 40
20.062177826482
100
AcDbArc
 50
16.09596321005631
 51
17.58795377400526
  0
ARC
  5
3B3
330
25
100
AcDbEntity
  8
1
  6
Continuous
 62
     0
100
AcDbCircle
 10
10818.33274284568
 20
-1294.934727942585
 30
0.0
 40
5.41482202241
100
AcDbArc
 50
155.9793229189374
 51
214.2284958030584
  0
ARC
  5
3B2
330
25
100
AcDbEntity
  8
1
  6
Continuous
 62
     0
100
AcDbCircle
 10
10818.33274284568
 20
-1313.150700466743
 30
0.0
 40
5.414822022404
100
AcDbArc
 50
145.771504196931
 51
204.0206770810553
  0
ARC
  5
3B1
330
25
100
AcDbEntity
  8
1
  6
Continuous
 62
     0
100
AcDbCircle
 10
10832.98011865639
 20
-1304.042714204664
 30
0.0
 40
20.06217782648
100
AcDbArc
 50
196.0959632100552
 51
197.5879537740031
  0
ARC
  5
3B0
330
25
100
AcDbEntity
  8
1
  6
Continuous
 62
     0
100
AcDbCircle
 10
10799.21794082991
 20
-1304.042714204664
 30
0.0
 40
9.999999999994
100
AcDbArc
 50
34.42900395073518
 51
145.570996049267
  0
ARC
  5
3AF
330
25
100
AcDbEntity
  8
1
  6
Continuous
 62
     0
100
AcDbCircle
 10
10799.21794082991
 20
-1304.042714204664
 30
0.0
 40
9.999999999995
100
AcDbArc
 50
214.4290039507271
 51
325.5709960492697
  0
ARC
  5
3AE
330
25
100
AcDbEntity
  8
1
  6
Continuous
 62
     0
100
AcDbCircle
 10
10815.80313881414
 20
-1294.934727942585
 30
0.0
 40
5.414822022402
100
AcDbArc
 50
325.7715041969302
 51
24.02067708106319
  0
ARC
  5
3AD
330
25
100
AcDbEntity
  8
1
  6
Continuous
 62
     0
100
AcDbCircle
 10
10801.15576300344
 20
-1304.042714204664
 30
0.0
 40
20.062177826469
100
AcDbArc
 50
342.4120462259887
 51
17.58795377401377
  0
ARC
  5
3AC
330
25
100
AcDbEntity
  8
1
  6
Continuous
 62
     0
100
AcDbCircle
 10
10815.80313881414
 20
-1313.150700466743
 30
0.0
 40
5.414822022409
100
AcDbArc
 50
335.9793229189528
 51
34.22849580307914
  0
ARC
  5
3AB
330
25
100
AcDbEntity
  8
1
  6
Continuous
 62
     0
100
AcDbCircle
 10
10782.63274284568
 20
-1294.934727942585
 30
0.0
 40
5.414822022412
100
AcDbArc
 50
155.9793229189408
 51
214.2284958030575
  0
ARC
  5
3AA
330
25
100
AcDbEntity
  8
1
  6
Continuous
 62
     0
100
AcDbCircle
 10
10797.28011865639
 20
-1304.042714204664
 30
0.0
 40
20.062177826479
100
AcDbArc
 50
162.4120462259957
 51
197.5879537740019
  0
ARC
  5
3A9
330
25
100
AcDbEntity
  8
1
  6
Continuous
 62
     0
100
AcDbCircle
 10
10782.63274284568
 20
-1313.150700466743
 30
0.0
 40
5.414822022404
100
AcDbArc
 50
145.771504196931
 51
204.0206770810487
  0
ARC
  5
3A8
330
25
100
AcDbEntity
  8
1
  6
Continuous
 62
     0
100
AcDbCircle
 10
11978.0957336257
 20
-904.042714204664
 30
0.0
 40
117.417949238091
100
AcDbArc
 50
157.7026180772271
 51
202.2973819227721
  0
ARC
  5
3A7
330
25
100
AcDbEntity
  8
1
  6
Continuous
 62
     0
100
AcDbCircle
 10
10742.81920656142
 20
-2054.042714204664
 30
0.0
 40
117.417949238089
100
AcDbArc
 50
337.7026180772281
 51
22.2973819227728
  0
ARC
  5
3A6
330
25
100
AcDbEntity
  8
1
  6
Continuous
 62
     0
100
AcDbCircle
 10
11354.20747009356
 20
-2695.8582631827
 30
0.0
 40
18.052215644708
100
AcDbArc
 50
98.76231806800313
 51
110.2561580004196
  0
ARC
  5
3A5
330
25
100
AcDbEntity
  8
1
  6
Continuous
 62
     0
100
AcDbCircle
 10
11366.70747009356
 20
-2624.087165226627
 30
0.0
 40
18.052215644708
100
AcDbArc
 50
278.7623180680031
 51
290.2561580004195
  0
ARC
  5
3A4
330
25
100
AcDbEntity
  8
1
  6
Continuous
 62
     0
100
AcDbCircle
 10
11366.70747009356
 20
-2695.8582631827
 30
0.0
 40
18.052215644708
100
AcDbArc
 50
98.76231806800313
 51
110.2561580004196
  0
ARC
  5
3A3
330
25
100
AcDbEntity
  8
1
  6
Continuous
 62
     0
100
AcDbCircle
 10
11354.20747009356
 20
-2624.087165226627
 30
0.0
 40
18.052215644708
100
AcDbArc
 50
278.7623180680031
 51
290.2561580004195
  0
ARC
  5
3A2
330
25
100
AcDbEntity
  8
1
  6
Continuous
 62
     0
100
AcDbCircle
 10
11354.20747009356
 20
-2695.8582631827
 30
0.0
 40
18.052215644709
100
AcDbArc
 50
69.74384199958187
 51
81.23768193199732
  0
ARC
  5
3A1
330
25
100
AcDbEntity
  8
1
  6
Continuous
 62
     0
100
AcDbCircle
 10
11366.70747009356
 20
-2695.8582631827
 30
0.0
 40
18.052215644708
100
AcDbArc
 50
69.74384199958037
 51
81.23768193199686
  0
ARC
  5
3A0
330
25
100
AcDbEntity
  8
1
  6
Continuous
 62
     0
100
AcDbCircle
 10
11354.20747009356
 20
-2624.087165226627
 30
0.0
 40
18.052215644707
100
AcDbArc
 50
249.7438419995794
 51
261.2376819319964
  0
ARC
  5
39F
330
25
100
AcDbEntity
  8
1
  6
Continuous
 62
     0
100
AcDbCircle
 10
11366.70747009356
 20
-2624.087165226627
 30
0.0
 40
18.052215644708
100
AcDbArc
 50
249.7438419995804
 51
261.2376819319969
  0
ARC
  5
39E
330
25
100
AcDbEntity
  8
1
  6
Continuous
 62
     0
100
AcDbCircle
 10
11366.70747009356
 20
-2649.774929849369
 30
0.0
 40
18.052215644707
100
AcDbArc
 50
69.74384199957936
 51
110.2561580004206
  0
ARC
  5
39D
330
25
100
AcDbEntity
  8
1
  6
Continuous
 62
     0
100
AcDbCircle
 10
11354.20747009356
 20
-2649.774929849369
 30
0.0
 40
18.052215644708
100
AcDbArc
 50
69.74384199958037
 51
110.2561580004196
  0
ARC
  5
39C
330
25
100
AcDbEntity
  8
1
  6
Continuous
 62
     0
100
AcDbCircle
 10
11366.70747009356
 20
-2670.170498559956
 30
0.0
 40
18.052215644708
100
AcDbArc
 50
249.7438419995804
 51
290.2561580004195
  0
ARC
  5
39B
330
25
100
AcDbEntity
  8
1
  6
Continuous
 62
     0
100
AcDbCircle
 10
11354.20747009356
 20
-2670.170498559956
 30
0.0
 40
18.052215644707
100
AcDbArc
 50
249.7438419995794
 51
290.2561580004206
  0
ARC
  5
39A
330
25
100
AcDbEntity
  8
1
  6
Continuous
 62
     0
100
AcDbCircle
 10
11403.23872009356
 20
-2659.222714204663
 30
0.0
 40
15.781249999998
100
AcDbArc
 50
141.9080428947509
 51
218.0919571052398
  0
ARC
  5
399
330
25
100
AcDbEntity
  8
1
  6
Continuous
 62
     0
100
AcDbCircle
 10
11384.60747009356
 20
-2658.972714204662
 30
0.0
 40
14.252192813739
100
AcDbArc
 50
158.3852210572138
 51
201.6147789427863
  0
ARC
  5
398
330
25
100
AcDbEntity
  8
1
  6
Continuous
 62
     0
100
AcDbCircle
 10
11360.45747009356
 20
-1595.042714204664
 30
0.0
 40
1008.999999999999
100
AcDbArc
 50
243.6582502298999
 51
248.182271897196
  0
ARC
  5
395
330
25
100
AcDbEntity
  8
1
  6
Continuous
 62
     0
100
AcDbCircle
 10
11360.45747009356
 20
-1595.042714204664
 30
0.0
 40
1008.999999999999
100
AcDbArc
 50
267.744999329787
 51
272.255000670214
  0
ARC
  5
394
330
25
100
AcDbEntity
  8
1
  6
Continuous
 62
     0
100
AcDbCircle
 10
11360.45747009356
 20
-2695.042714204664
 30
0.0
 40
100.0
100
AcDbArc
 50
0.0
 51
180.0
  0
ARC
  5
393
330
25
100
AcDbEntity
  8
1
  6
Continuous
 62
     0
100
AcDbCircle
 10
10960.45747009356
 20
-2401.268489034519
 30
0.0
 40
109.0
100
AcDbArc
 50
180.0
 51
243.6122000387587
  0
ARC
  5
392
330
25
100
AcDbEntity
  8
1
  6
Continuous
 62
     0
100
AcDbCircle
 10
11760.45747009356
 20
-2401.268489034519
 30
0.0
 40
109.000000000002
100
AcDbArc
 50
296.3877999612461
 51
0.0
  0
ARC
  5
391
330
25
100
AcDbEntity
  8
1
  6
Continuous
 62
     0
100
AcDbCircle
 10
11360.45747009356
 20
-1595.042714204664
 30
0.0
 40
1008.999999999999
100
AcDbArc
 50
291.817728102804
 51
296.387799961243
  0
ARC
  5
390
330
25
100
AcDbEntity
  8
1
  6
Continuous
 62
     0
100
AcDbCircle
 10
13888.83245275008
 20
-2401.268489034519
 30
0.0
 40
109.0
100
AcDbArc
 50
180.0
 51
243.6122000387544
  0
ARC
  5
38F
330
25
100
AcDbEntity
  8
1
  6
Continuous
 62
     0
100
AcDbCircle
 10
14288.83245275008
 20
-1595.042714204664
 30
0.0
 40
1009.0
100
AcDbArc
 50
243.6582502299
 51
248.182271897196
  0
ARC
  5
38E
330
25
100
AcDbEntity
  8
1
  6
Continuous
 62
     0
100
AcDbCircle
 10
14288.83245275008
 20
-1595.042714204664
 30
0.0
 40
1008.999999999999
100
AcDbArc
 50
291.817728102804
 51
296.387799961243
  0
ARC
  5
38D
330
25
100
AcDbEntity
  8
1
  6
Continuous
 62
     0
100
AcDbCircle
 10
14688.83245275008
 20
-2401.268489034519
 30
0.0
 40
108.999999999998
100
AcDbArc
 50
296.3877999612408
 51
0.0
  0
ARC
  5
38C
330
25
100
AcDbEntity
  8
1
  6
Continuous
 62
     0
100
AcDbCircle
 10
11360.45747009356
 20
-914.042714204664
 30
0.0
 40
1009.000000000002
100
AcDbArc
 50
63.612200038757
 51
68.18227189719596
  0
ARC
  5
38B
330
25
100
AcDbEntity
  8
1
  6
Continuous
 62
     0
100
AcDbCircle
 10
11760.45747009356
 20
-107.81693937481
 30
0.0
 40
109.0
100
AcDbArc
 50
0.0
 51
63.61220003875438
  0
ARC
  5
38A
330
25
100
AcDbEntity
  8
1
  6
Continuous
 62
     0
100
AcDbCircle
 10
10960.45747009356
 20
-107.81693937481
 30
0.0
 40
108.999999999998
100
AcDbArc
 50
116.3877999612397
 51
180.0
  0
ARC
  5
389
330
25
100
AcDbEntity
  8
1
  6
Continuous
 62
     0
100
AcDbCircle
 10
11360.45747009356
 20
-914.042714204664
 30
0.0
 40
1008.999999999999
100
AcDbArc
 50
111.817728102804
 51
116.3417497701
  0
ARC
  5
388
330
25
100
AcDbEntity
  8
1
  6
Continuous
 62
     0
100
AcDbCircle
 10
10960.45747009356
 20
-107.81693937481
 30
0.0
 40
108.999999999998
100
AcDbArc
 50
116.3877999612397
 51
180.0
  0
ARC
  5
387
330
25
100
AcDbEntity
  8
1
  6
Continuous
 62
     0
100
AcDbCircle
 10
11360.45747009356
 20
-914.042714204664
 30
0.0
 40
1009.000000000001
100
AcDbArc
 50
63.86338685812494
 51
116.3417497701
  0
ARC
  5
386
330
25
100
AcDbEntity
  8
1
  6
Continuous
 62
     0
100
AcDbCircle
 10
13888.83245275008
 20
-107.81693937481
 30
0.0
 40
109.000000000003
100
AcDbArc
 50
116.3877999612459
 51
180.0
  0
ARC
  5
385
330
25
100
AcDbEntity
  8
1
  6
Continuous
 62
     0
100
AcDbCircle
 10
14288.83245275008
 20
-914.042714204664
 30
0.0
 40
1008.999999999999
100
AcDbArc
 50
111.817728102804
 51
116.3417497701
  0
ARC
  5
384
330
25
100
AcDbEntity
  8
1
  6
Continuous
 62
     0
100
AcDbCircle
 10
13888.83245275008
 20
-107.81693937481
 30
0.0
 40
109.000000000003
100
AcDbArc
 50
116.3877999612459
 51
180.0
  0
ARC
  5
383
330
25
100
AcDbEntity
  8
1
  6
Continuous
 62
     0
100
AcDbCircle
 10
14688.83245275008
 20
-107.81693937481
 30
0.0
 40
109.0
100
AcDbArc
 50
0.0
 51
63.61220003875869
  0
ARC
  5
382
330
25
100
AcDbEntity
  8
1
  6
Continuous
 62
     0
100
AcDbCircle
 10
14288.83245275008
 20
-914.042714204664
 30
0.0
 40
1008.999999999997
100
AcDbArc
 50
63.61220003875699
 51
68.18227189719595
  0
ARC
  5
381
330
25
100
AcDbEntity
  8
1
  6
Continuous
 62
     0
100
AcDbCircle
 10
14288.83245275008
 20
-914.042714204664
 30
0.0
 40
1009.000000000001
100
AcDbArc
 50
90.454282496182
 51
116.002748352268
  0
ARC
  5
380
330
25
100
AcDbEntity
  8
1
  6
Continuous
 62
     0
100
AcDbCircle
 10
12037.74749840287
 20
-2687.013231812402
 30
0.0
 40
315.971260282133
100
AcDbArc
 50
163.077829185707
 51
181.456160860873
  0
ARC
  5
37F
330
25
100
AcDbEntity
  8
1
  6
Continuous
 62
     0
100
AcDbCircle
 10
10683.16744178426
 20
-2687.013231812402
 30
0.0
 40
315.971260282126
100
AcDbArc
 50
358.5438391391269
 51
16.92217081429293
  0
ARC
  5
37E
330
25
100
AcDbEntity
  8
1
  6
Continuous
 62
     0
100
AcDbCircle
 10
13611.54242444078
 20
-2687.013231812402
 30
0.0
 40
315.971260282117
100
AcDbArc
 50
358.5438391391269
 51
16.92217081429301
  0
ARC
  5
37D
330
25
100
AcDbEntity
  8
1
  6
Continuous
 62
     0
100
AcDbCircle
 10
13611.54242444078
 20
-2687.013231812402
 30
0.0
 40
315.971260282117
100
AcDbArc
 50
358.5438391391269
 51
16.92217081429301
  0
ARC
  5
37C
330
25
100
AcDbEntity
  8
1
  6
Continuous
 62
     0
100
AcDbCircle
 10
14966.12248105938
 20
-2687.013231812402
 30
0.0
 40
315.971260282121
100
AcDbArc
 50
163.077829185707
 51
181.4561608608731
  0
ARC
  5
37B
330
25
100
AcDbEntity
  8
1
  6
Continuous
 62
     0
100
AcDbCircle
 10
14966.12248105938
 20
-2687.013231812402
 30
0.0
 40
315.971260282121
100
AcDbArc
 50
163.077829185707
 51
181.4561608608731
  0
LINE
  5
378
330
25
100
AcDbEntity
  8
1
  6
Continuous
 62
     0
100
AcDbLine
 10
11414.45747009356
 20
-3259.160660676961
 30
0.0
 11
11405.35735873485
 21
-3259.160660676961
 31
0.0
  0
LINE
  5
377
330
25
100
AcDbEntity
  8
1
  6
Continuous
 62
     0
100
AcDbLine
 10
11405.35735873485
 20
-3314.160660676961
 30
0.0
 11
11414.45747009356
 21
-3314.160660676961
 31
0.0
  0
LINE
  5
376
330
25
100
AcDbEntity
  8
1
  6
Continuous
 62
     0
100
AcDbLine
 10
11415.45747009356
 20
-3315.660660676961
 30
0.0
 11
11415.45747009356
 21
-3315.160660676961
 31
0.0
  0
LINE
  5
375
330
25
100
AcDbEntity
  8
1
  6
Continuous
 62
     0
100
AcDbLine
 10
11415.45747009356
 20
-3315.660660676961
 30
0.0
 11
11420.45747009356
 21
-3315.660660676961
 31
0.0
  0
LINE
  5
374
330
25
100
AcDbEntity
  8
1
  6
Continuous
 62
     0
100
AcDbLine
 10
11420.45747009356
 20
-3315.660660676961
 30
0.0
 11
11420.45747009356
 21
-3257.660660676961
 31
0.0
  0
LINE
  5
373
330
25
100
AcDbEntity
  8
1
  6
Continuous
 62
     0
100
AcDbLine
 10
11420.45747009356
 20
-3257.660660676961
 30
0.0
 11
11415.45747009356
 21
-3257.660660676961
 31
0.0
  0
LINE
  5
372
330
25
100
AcDbEntity
  8
1
  6
Continuous
 62
     0
100
AcDbLine
 10
11415.45747009356
 20
-3257.660660676961
 30
0.0
 11
11415.45747009356
 21
-3258.160660676961
 31
0.0
  0
LINE
  5
371
330
25
100
AcDbEntity
  8
1
  6
Continuous
 62
     0
100
AcDbLine
 10
11415.45747009356
 20
-3258.301905684933
 30
0.0
 11
11415.45747009356
 21
-3315.660660676961
 31
0.0
  0
LINE
  5
36D
330
25
100
AcDbEntity
  8
1
  6
Continuous
 62
     0
100
AcDbLine
 10
13701.09245275008
 20
-626.942714204663
 30
0.0
 11
13704.09245275008
 21
-628.674765012232
 31
0.0
  0
LINE
  5
36C
330
25
100
AcDbEntity
  8
1
  6
Continuous
 62
     0
100
AcDbLine
 10
13704.09245275008
 20
-628.674765012232
 30
0.0
 11
13704.09245275008
 21
-634.942714204663
 31
0.0
  0
LINE
  5
36B
330
25
100
AcDbEntity
  8
1
  6
Continuous
 62
     0
100
AcDbLine
 10
13704.09245275008
 20
-634.942714204663
 30
0.0
 11
13667.09245275008
 21
-634.942714204663
 31
0.0
  0
LINE
  5
36A
330
25
100
AcDbEntity
  8
1
  6
Continuous
 62
     0
100
AcDbLine
 10
13667.09245275008
 20
-634.942714204663
 30
0.0
 11
13667.09245275008
 21
-628.674765012232
 31
0.0
  0
LINE
  5
369
330
25
100
AcDbEntity
  8
1
  6
Continuous
 62
     0
100
AcDbLine
 10
13667.09245275008
 20
-628.674765012232
 30
0.0
 11
13670.09245275008
 21
-626.942714204663
 31
0.0
  0
LINE
  5
368
330
25
100
AcDbEntity
  8
1
  6
Continuous
 62
     0
100
AcDbLine
 10
13670.09245275008
 20
-626.942714204663
 30
0.0
 11
13701.09245275008
 21
-626.942714204663
 31
0.0
  0
LINE
  5
367
330
25
100
AcDbEntity
  8
1
  6
Continuous
 62
     0
100
AcDbLine
 10
13700.59245275008
 20
-618.442714204663
 30
0.0
 11
13700.59245275008
 21
-626.953013079315
 31
0.0
  0
LINE
  5
366
330
25
100
AcDbEntity
  8
1
  6
Continuous
 62
     0
100
AcDbLine
 10
13670.59245275008
 20
-618.442714204663
 30
0.0
 11
13670.59245275008
 21
-626.942714204663
 31
0.0
  0
LINE
  5
365
330
25
100
AcDbEntity
  8
1
  6
Continuous
 62
     0
100
AcDbLine
 10
13694.84245275008
 20
-628.674765012232
 30
0.0
 11
13694.84245275008
 21
-634.942714204663
 31
0.0
  0
LINE
  5
364
330
25
100
AcDbEntity
  8
1
  6
Continuous
 62
     0
100
AcDbLine
 10
13676.34245275008
 20
-628.674765012232
 30
0.0
 11
13676.34245275008
 21
-634.942714204663
 31
0.0
  0
LINE
  5
363
330
25
100
AcDbEntity
  8
1
  6
Continuous
 62
     0
100
AcDbLine
 10
13705.59245275008
 20
-635.942714204663
 30
0.0
 11
13705.59245275008
 21
-637.942714204663
 31
0.0
  0
LINE
  5
362
330
25
100
AcDbEntity
  8
1
  6
Continuous
 62
     0
100
AcDbLine
 10
13666.59245275008
 20
-634.942714204663
 30
0.0
 11
13704.59245275008
 21
-634.942714204663
 31
0.0
  0
LINE
  5
361
330
25
100
AcDbEntity
  8
1
  6
Continuous
 62
     0
100
AcDbLine
 10
13665.59245275008
 20
-635.942714204663
 30
0.0
 11
13665.59245275008
 21
-637.942714204663
 31
0.0
  0
LINE
  5
360
330
25
100
AcDbEntity
  8
1
  6
Continuous
 62
     0
100
AcDbLine
 10
13660.59245275008
 20
-710.192714204662
 30
0.0
 11
13660.59245275008
 21
-641.942714204663
 31
0.0
  0
LINE
  5
35F
330
25
100
AcDbEntity
  8
1
  6
Continuous
 62
     0
100
AcDbLine
 10
13710.59245275008
 20
-710.192714204662
 30
0.0
 11
13710.59245275008
 21
-641.942714204663
 31
0.0
  0
LINE
  5
35E
330
25
100
AcDbEntity
  8
1
  6
Continuous
 62
     0
100
AcDbLine
 10
13662.59245275008
 20
-639.942714204663
 30
0.0
 11
13663.59245275008
 21
-639.942714204663
 31
0.0
  0
LINE
  5
35D
330
25
100
AcDbEntity
  8
1
  6
Continuous
 62
     0
100
AcDbLine
 10
13708.59245275008
 20
-639.942714204663
 30
0.0
 11
13707.59245275008
 21
-639.942714204663
 31
0.0
  0
LINE
  5
35C
330
25
100
AcDbEntity
  8
1
  6
Continuous
 62
     0
100
AcDbLine
 10
13663.59245275008
 20
-639.942714204663
 30
0.0
 11
13665.59245275008
 21
-639.942714204663
 31
0.0
  0
LINE
  5
35B
330
25
100
AcDbEntity
  8
1
  6
Continuous
 62
     0
100
AcDbLine
 10
13705.59245275008
 20
-639.942714204663
 30
0.0
 11
13665.59245275008
 21
-639.942714204663
 31
0.0
  0
LINE
  5
35A
330
25
100
AcDbEntity
  8
1
  6
Continuous
 62
     0
100
AcDbLine
 10
13707.59245275008
 20
-639.942714204663
 30
0.0
 11
13705.59245275008
 21
-639.942714204663
 31
0.0
  0
LINE
  5
359
330
25
100
AcDbEntity
  8
1
  6
Continuous
 62
     0
100
AcDbLine
 10
13707.59245275008
 20
-683.942714204663
 30
0.0
 11
13663.59245275008
 21
-683.942714204663
 31
0.0
  0
LINE
  5
358
330
25
100
AcDbEntity
  8
1
  6
Continuous
 62
     0
100
AcDbLine
 10
13659.09245275008
 20
-728.942714204662
 30
0.0
 11
13650.59245275008
 21
-728.942714204662
 31
0.0
  0
LINE
  5
357
330
25
100
AcDbEntity
  8
1
  6
Continuous
 62
     0
100
AcDbLine
 10
13733.59245275008
 20
-733.942714204663
 30
0.0
 11
13733.59245275008
 21
-734.942714204663
 31
0.0
  0
LINE
  5
356
330
25
100
AcDbEntity
  8
1
  6
Continuous
 62
     0
100
AcDbLine
 10
13720.09245275008
 20
-728.942714204663
 30
0.0
 11
13728.59245275008
 21
-728.942714204663
 31
0.0
  0
LINE
  5
355
330
25
100
AcDbEntity
  8
1
  6
Continuous
 62
     0
100
AcDbLine
 10
13729.34245275008
 20
-799.442714204663
 30
0.0
 11
13641.84245275008
 21
-799.442714204663
 31
0.0
  0
LINE
  5
354
330
25
100
AcDbEntity
  8
1
  6
Continuous
 62
     0
100
AcDbLine
 10
13723.71745275008
 20
-806.692714204663
 30
0.0
 11
13647.46745275008
 21
-806.692714204663
 31
0.0
  0
LINE
  5
353
330
25
100
AcDbEntity
  8
1
  6
Continuous
 62
     0
100
AcDbLine
 10
13725.59245275008
 20
-806.692714204663
 30
0.0
 11
13645.59245275008
 21
-806.692714204663
 31
0.0
  0
LINE
  5
352
330
25
100
AcDbEntity
  8
1
  6
Continuous
 62
     0
100
AcDbLine
 10
13729.34245275008
 20
-799.442714204663
 30
0.0
 11
13638.59245275008
 21
-799.442714204663
 31
0.0
  0
LINE
  5
351
330
25
100
AcDbEntity
  8
1
  6
Continuous
 62
     0
100
AcDbLine
 10
13729.34245275008
 20
-799.442714204663
 30
0.0
 11
13729.34245275008
 21
-802.942714204663
 31
0.0
  0
LINE
  5
350
330
25
100
AcDbEntity
  8
1
  6
Continuous
 62
     0
100
AcDbLine
 10
13641.84245275008
 20
-799.442714204663
 30
0.0
 11
13641.84245275008
 21
-802.942714204663
 31
0.0
  0
LINE
  5
34F
330
25
100
AcDbEntity
  8
1
  6
Continuous
 62
     0
100
AcDbLine
 10
13708.59245275008
 20
-640.942714204663
 30
0.0
 11
13708.59245275008
 21
-683.365363935473
 31
0.0
  0
LINE
  5
34E
330
25
100
AcDbEntity
  8
1
  6
Continuous
 62
     0
100
AcDbLine
 10
13706.59245275008
 20
-640.942714204663
 30
0.0
 11
13706.59245275008
 21
-682.942714204663
 31
0.0
  0
LINE
  5
34D
330
25
100
AcDbEntity
  8
1
  6
Continuous
 62
     0
100
AcDbLine
 10
13693.92578608341
 20
-640.942714204663
 30
0.0
 11
13693.92578608341
 21
-682.942714204663
 31
0.0
  0
LINE
  5
34C
330
25
100
AcDbEntity
  8
1
  6
Continuous
 62
     0
100
AcDbLine
 10
13691.92578608341
 20
-640.942714204663
 30
0.0
 11
13691.92578608341
 21
-682.942714204663
 31
0.0
  0
LINE
  5
34B
330
25
100
AcDbEntity
  8
1
  6
Continuous
 62
     0
100
AcDbLine
 10
13679.25911941675
 20
-640.942714204663
 30
0.0
 11
13679.25911941675
 21
-682.942714204663
 31
0.0
  0
LINE
  5
34A
330
25
100
AcDbEntity
  8
1
  6
Continuous
 62
     0
100
AcDbLine
 10
13677.25911941675
 20
-640.942714204663
 30
0.0
 11
13677.25911941675
 21
-682.942714204663
 31
0.0
  0
LINE
  5
349
330
25
100
AcDbEntity
  8
1
  6
Continuous
 62
     0
100
AcDbLine
 10
13664.59245275008
 20
-640.942714204663
 30
0.0
 11
13664.59245275008
 21
-682.942714204663
 31
0.0
  0
LINE
  5
348
330
25
100
AcDbEntity
  8
1
  6
Continuous
 62
     0
100
AcDbLine
 10
13662.59245275008
 20
-640.942714204663
 30
0.0
 11
13662.59245275008
 21
-683.365363935473
 31
0.0
  0
LINE
  5
347
330
25
100
AcDbEntity
  8
1
  6
Continuous
 62
     0
100
AcDbLine
 10
13720.09245275008
 20
-728.942714204663
 30
0.0
 11
13641.59245275008
 21
-728.942714204662
 31
0.0
  0
LINE
  5
346
330
25
100
AcDbEntity
  8
1
  6
Continuous
 62
     0
100
AcDbLine
 10
13636.59245275008
 20
-733.942714204662
 30
0.0
 11
13636.59245275008
 21
-797.442714204663
 31
0.0
  0
LINE
  5
345
330
25
100
AcDbEntity
  8
1
  6
Continuous
 62
     0
100
AcDbLine
 10
13733.59245275008
 20
-733.942714204663
 30
0.0
 11
13733.59245275008
 21
-797.442714204663
 31
0.0
  0
LINE
  5
344
330
25
100
AcDbEntity
  8
1
  6
Continuous
 62
     0
100
AcDbLine
 10
13731.59245275008
 20
-799.442714204663
 30
0.0
 11
13641.84245275008
 21
-799.442714204663
 31
0.0
  0
LINE
  5
343
330
25
100
AcDbEntity
  8
1
  6
Continuous
 62
     0
100
AcDbLine
 10
13652.64484579384
 20
-710.192714204662
 30
0.0
 11
13647.64484579384
 21
-713.079465550612
 31
0.0
  0
LINE
  5
342
330
25
100
AcDbEntity
  8
1
  6
Continuous
 62
     0
100
AcDbLine
 10
13718.89484579384
 20
-710.192714204662
 30
0.0
 11
13723.89484579384
 21
-713.079465550612
 31
0.0
  0
LINE
  5
341
330
25
100
AcDbEntity
  8
1
  6
Continuous
 62
     0
100
AcDbLine
 10
13718.89484579384
 20
-710.192714204662
 30
0.0
 11
13652.64484579384
 21
-710.192714204662
 31
0.0
  0
LINE
  5
340
330
25
100
AcDbEntity
  8
1
  6
Continuous
 62
     0
100
AcDbLine
 10
13659.51984579384
 20
-710.192714204662
 30
0.0
 11
13712.01984579384
 21
-710.192714204662
 31
0.0
  0
LINE
  5
33F
330
25
100
AcDbEntity
  8
1
  6
Continuous
 62
     0
100
AcDbLine
 10
13666.52995275008
 20
-728.942714204662
 30
0.0
 11
13666.52995275008
 21
-713.079465550612
 31
0.0
  0
LINE
  5
33E
330
25
100
AcDbEntity
  8
1
  6
Continuous
 62
     0
100
AcDbLine
 10
13704.65495275008
 20
-728.942714204662
 30
0.0
 11
13704.65495275008
 21
-713.079465550612
 31
0.0
  0
LINE
  5
33D
330
25
100
AcDbEntity
  8
1
  6
Continuous
 62
     0
100
AcDbLine
 10
13652.46745275008
 20
-710.192714204662
 30
0.0
 11
13647.46745275008
 21
-713.079465550612
 31
0.0
  0
LINE
  5
33C
330
25
100
AcDbEntity
  8
1
  6
Continuous
 62
     0
100
AcDbLine
 10
13718.71745275008
 20
-710.192714204662
 30
0.0
 11
13723.71745275008
 21
-713.079465550612
 31
0.0
  0
LINE
  5
33B
330
25
100
AcDbEntity
  8
1
  6
Continuous
 62
     0
100
AcDbLine
 10
13723.71745275008
 20
-728.942714204662
 30
0.0
 11
13723.71745275008
 21
-713.079465550612
 31
0.0
  0
LINE
  5
33A
330
25
100
AcDbEntity
  8
1
  6
Continuous
 62
     0
100
AcDbLine
 10
13718.71745275008
 20
-710.192714204662
 30
0.0
 11
13652.46745275008
 21
-710.192714204662
 31
0.0
  0
LINE
  5
339
330
25
100
AcDbEntity
  8
1
  6
Continuous
 62
     0
100
AcDbLine
 10
13647.46745275008
 20
-713.079465550612
 30
0.0
 11
13647.46745275008
 21
-728.942714204662
 31
0.0
  0
LINE
  5
338
330
25
100
AcDbEntity
  8
1
  6
Continuous
 62
     0
100
AcDbLine
 10
13647.46745275008
 20
-728.942714204662
 30
0.0
 11
13723.71745275008
 21
-728.942714204662
 31
0.0
  0
LINE
  5
337
330
25
100
AcDbEntity
  8
1
  6
Continuous
 62
     0
100
AcDbLine
 10
13659.34245275008
 20
-710.192714204662
 30
0.0
 11
13711.84245275008
 21
-710.192714204662
 31
0.0
  0
LINE
  5
336
330
25
100
AcDbEntity
  8
1
  6
Continuous
 62
     0
100
AcDbLine
 10
13710.09713525488
 20
-855.042714204664
 30
0.0
 11
13659.09245275008
 21
-855.042714204664
 31
0.0
  0
LINE
  5
335
330
25
100
AcDbEntity
  8
1
  6
Continuous
 62
     0
100
AcDbLine
 10
13711.84245275008
 20
-825.442714204663
 30
0.0
 11
13659.34245275008
 21
-825.442714204663
 31
0.0
  0
LINE
  5
334
330
25
100
AcDbEntity
  8
1
  6
Continuous
 62
     0
100
AcDbLine
 10
13729.34245275008
 20
-799.442714204663
 30
0.0
 11
13641.84245275008
 21
-799.442714204663
 31
0.0
  0
LINE
  5
333
330
25
100
AcDbEntity
  8
1
  6
Continuous
 62
     0
100
AcDbLine
 10
13723.71745275008
 20
-806.692714204663
 30
0.0
 11
13647.46745275008
 21
-806.692714204663
 31
0.0
  0
LINE
  5
332
330
25
100
AcDbEntity
  8
1
  6
Continuous
 62
     0
100
AcDbLine
 10
13647.46745275008
 20
-806.692714204663
 30
0.0
 11
13647.46745275008
 21
-822.555962858714
 31
0.0
  0
LINE
  5
331
330
25
100
AcDbEntity
  8
1
  6
Continuous
 62
     0
100
AcDbLine
 10
13725.59245275008
 20
-806.692714204663
 30
0.0
 11
13645.59245275008
 21
-806.692714204663
 31
0.0
  0
LINE
  5
330
330
25
100
AcDbEntity
  8
1
  6
Continuous
 62
     0
100
AcDbLine
 10
13729.34245275008
 20
-799.442714204663
 30
0.0
 11
13638.59245275008
 21
-799.442714204663
 31
0.0
  0
LINE
  5
32F
330
25
100
AcDbEntity
  8
1
  6
Continuous
 62
     0
100
AcDbLine
 10
13652.46745275008
 20
-825.442714204663
 30
0.0
 11
13718.71745275008
 21
-825.442714204663
 31
0.0
  0
LINE
  5
32E
330
25
100
AcDbEntity
  8
1
  6
Continuous
 62
     0
100
AcDbLine
 10
13723.71745275008
 20
-822.555962858714
 30
0.0
 11
13723.71745275008
 21
-806.692714204663
 31
0.0
  0
LINE
  5
32D
330
25
100
AcDbEntity
  8
1
  6
Continuous
 62
     0
100
AcDbLine
 10
13723.71745275008
 20
-822.555962858714
 30
0.0
 11
13718.71745275008
 21
-825.442714204663
 31
0.0
  0
LINE
  5
32C
330
25
100
AcDbEntity
  8
1
  6
Continuous
 62
     0
100
AcDbLine
 10
13647.46745275008
 20
-822.555962858714
 30
0.0
 11
13652.46745275008
 21
-825.442714204663
 31
0.0
  0
LINE
  5
32B
330
25
100
AcDbEntity
  8
1
  6
Continuous
 62
     0
100
AcDbLine
 10
13704.65495275008
 20
-822.555962858714
 30
0.0
 11
13704.65495275008
 21
-806.692714204663
 31
0.0
  0
LINE
  5
32A
330
25
100
AcDbEntity
  8
1
  6
Continuous
 62
     0
100
AcDbLine
 10
13666.52995275008
 20
-822.555962858714
 30
0.0
 11
13666.52995275008
 21
-806.692714204663
 31
0.0
  0
LINE
  5
329
330
25
100
AcDbEntity
  8
1
  6
Continuous
 62
     0
100
AcDbLine
 10
13712.01984579384
 20
-825.442714204663
 30
0.0
 11
13659.51984579384
 21
-825.442714204663
 31
0.0
  0
LINE
  5
328
330
25
100
AcDbEntity
  8
1
  6
Continuous
 62
     0
100
AcDbLine
 10
13652.64484579384
 20
-825.442714204663
 30
0.0
 11
13718.89484579384
 21
-825.442714204663
 31
0.0
  0
LINE
  5
327
330
25
100
AcDbEntity
  8
1
  6
Continuous
 62
     0
100
AcDbLine
 10
13723.89484579384
 20
-822.555962858714
 30
0.0
 11
13718.89484579384
 21
-825.442714204663
 31
0.0
  0
LINE
  5
326
330
25
100
AcDbEntity
  8
1
  6
Continuous
 62
     0
100
AcDbLine
 10
13647.64484579384
 20
-822.555962858714
 30
0.0
 11
13652.64484579384
 21
-825.442714204663
 31
0.0
  0
LINE
  5
325
330
25
100
AcDbEntity
  8
1
  6
Continuous
 62
     0
100
AcDbLine
 10
13729.34245275008
 20
-799.442714204663
 30
0.0
 11
13729.34245275008
 21
-802.942714204663
 31
0.0
  0
LINE
  5
324
330
25
100
AcDbEntity
  8
1
  6
Continuous
 62
     0
100
AcDbLine
 10
13641.84245275008
 20
-799.442714204663
 30
0.0
 11
13641.84245275008
 21
-802.942714204663
 31
0.0
  0
LINE
  5
323
330
25
100
AcDbEntity
  8
1
  6
Continuous
 62
     0
100
AcDbLine
 10
13659.09245275008
 20
-850.042714204664
 30
0.0
 11
13712.09245275008
 21
-850.042714204664
 31
0.0
  0
LINE
  5
322
330
25
100
AcDbEntity
  8
1
  6
Continuous
 62
     0
100
AcDbLine
 10
13712.09245275008
 20
-850.042714204664
 30
0.0
 11
13712.09245275008
 21
-855.042714204664
 31
0.0
  0
LINE
  5
321
330
25
100
AcDbEntity
  8
1
  6
Continuous
 62
     0
100
AcDbLine
 10
13712.09245275008
 20
-855.042714204664
 30
0.0
 11
13711.99245275008
 21
-855.042714204664
 31
0.0
  0
LINE
  5
320
330
25
100
AcDbEntity
  8
1
  6
Continuous
 62
     0
100
AcDbLine
 10
13659.09245275008
 20
-855.042714204664
 30
0.0
 11
13659.09245275008
 21
-850.042714204664
 31
0.0
  0
LINE
  5
31F
330
25
100
AcDbEntity
  8
1
  6
Continuous
 62
     0
100
AcDbLine
 10
13712.09245275008
 20
-855.042714204664
 30
0.0
 11
13711.59713525488
 21
-855.042714204664
 31
0.0
  0
LINE
  5
31E
330
25
100
AcDbEntity
  8
1
  6
Continuous
 62
     0
100
AcDbLine
 10
13659.19245275008
 20
-855.042714204664
 30
0.0
 11
13659.09245275008
 21
-855.042714204664
 31
0.0
  0
LINE
  5
31D
330
25
100
AcDbEntity
  8
1
  6
Continuous
 62
     0
100
AcDbLine
 10
13660.59245275008
 20
-886.278284911971
 30
0.0
 11
13660.59245275008
 21
-856.442714204663
 31
0.0
  0
LINE
  5
31C
330
25
100
AcDbEntity
  8
1
  6
Continuous
 62
     0
100
AcDbLine
 10
13706.54745275008
 20
-825.442714204663
 30
0.0
 11
13706.94245275008
 21
-836.192714204663
 31
0.0
  0
LINE
  5
31B
330
25
100
AcDbEntity
  8
1
  6
Continuous
 62
     0
100
AcDbLine
 10
13664.63745275008
 20
-850.042714204664
 30
0.0
 11
13664.24245275008
 21
-839.292714204664
 31
0.0
  0
LINE
  5
31A
330
25
100
AcDbEntity
  8
1
  6
Continuous
 62
     0
100
AcDbLine
 10
13706.54745275008
 20
-850.042714204664
 30
0.0
 11
13706.94245275008
 21
-839.292714204664
 31
0.0
  0
LINE
  5
319
330
25
100
AcDbEntity
  8
1
  6
Continuous
 62
     0
100
AcDbLine
 10
13664.24245275008
 20
-836.192714204663
 30
0.0
 11
13664.63745275008
 21
-825.442714204663
 31
0.0
  0
LINE
  5
318
330
25
100
AcDbEntity
  8
1
  6
Continuous
 62
     0
100
AcDbLine
 10
13706.94245275008
 20
-839.292714204664
 30
0.0
 11
13706.94245275008
 21
-836.192714204663
 31
0.0
  0
LINE
  5
317
330
25
100
AcDbEntity
  8
1
  6
Continuous
 62
     0
100
AcDbLine
 10
13664.24245275008
 20
-836.192714204663
 30
0.0
 11
13664.24245275008
 21
-839.292714204664
 31
0.0
  0
LINE
  5
316
330
25
100
AcDbEntity
  8
1
  6
Continuous
 62
     0
100
AcDbLine
 10
13706.94245275008
 20
-836.192714204663
 30
0.0
 11
13664.24245275008
 21
-836.192714204663
 31
0.0
  0
LINE
  5
315
330
25
100
AcDbEntity
  8
1
  6
Continuous
 62
     0
100
AcDbLine
 10
13706.94245275008
 20
-839.292714204664
 30
0.0
 11
13664.24245275008
 21
-839.292714204664
 31
0.0
  0
LINE
  5
314
330
25
100
AcDbEntity
  8
1
  6
Continuous
 62
     0
100
AcDbLine
 10
13731.59245275008
 20
-799.442714204663
 30
0.0
 11
13641.84245275008
 21
-799.442714204663
 31
0.0
  0
LINE
  5
313
330
25
100
AcDbEntity
  8
1
  6
Continuous
 62
     0
100
AcDbLine
 10
11334.20747009356
 20
-710.192714204662
 30
0.0
 11
11386.70747009356
 21
-710.192714204662
 31
0.0
  0
LINE
  5
312
330
25
100
AcDbEntity
  8
1
  6
Continuous
 62
     0
100
AcDbLine
 10
11322.33247009356
 20
-728.942714204662
 30
0.0
 11
11398.58247009356
 21
-728.942714204662
 31
0.0
  0
LINE
  5
311
330
25
100
AcDbEntity
  8
1
  6
Continuous
 62
     0
100
AcDbLine
 10
11322.33247009356
 20
-713.079465550612
 30
0.0
 11
11322.33247009356
 21
-728.942714204662
 31
0.0
  0
LINE
  5
310
330
25
100
AcDbEntity
  8
1
  6
Continuous
 62
     0
100
AcDbLine
 10
11393.58247009356
 20
-710.192714204662
 30
0.0
 11
11327.33247009356
 21
-710.192714204662
 31
0.0
  0
LINE
  5
30F
330
25
100
AcDbEntity
  8
1
  6
Continuous
 62
     0
100
AcDbLine
 10
11398.58247009356
 20
-728.942714204662
 30
0.0
 11
11398.58247009356
 21
-713.079465550612
 31
0.0
  0
LINE
  5
30E
330
25
100
AcDbEntity
  8
1
  6
Continuous
 62
     0
100
AcDbLine
 10
11393.58247009356
 20
-710.192714204662
 30
0.0
 11
11398.58247009356
 21
-713.079465550612
 31
0.0
  0
LINE
  5
30D
330
25
100
AcDbEntity
  8
1
  6
Continuous
 62
     0
100
AcDbLine
 10
11327.33247009356
 20
-710.192714204662
 30
0.0
 11
11322.33247009356
 21
-713.079465550612
 31
0.0
  0
LINE
  5
30C
330
25
100
AcDbEntity
  8
1
  6
Continuous
 62
     0
100
AcDbLine
 10
11379.51997009356
 20
-728.942714204662
 30
0.0
 11
11379.51997009356
 21
-713.079465550612
 31
0.0
  0
LINE
  5
30B
330
25
100
AcDbEntity
  8
1
  6
Continuous
 62
     0
100
AcDbLine
 10
11341.39497009356
 20
-728.942714204662
 30
0.0
 11
11341.39497009356
 21
-713.079465550612
 31
0.0
  0
LINE
  5
30A
330
25
100
AcDbEntity
  8
1
  6
Continuous
 62
     0
100
AcDbLine
 10
11334.38486313732
 20
-710.192714204662
 30
0.0
 11
11386.88486313732
 21
-710.192714204662
 31
0.0
  0
LINE
  5
309
330
25
100
AcDbEntity
  8
1
  6
Continuous
 62
     0
100
AcDbLine
 10
11393.75986313732
 20
-710.192714204662
 30
0.0
 11
11327.50986313732
 21
-710.192714204662
 31
0.0
  0
LINE
  5
308
330
25
100
AcDbEntity
  8
1
  6
Continuous
 62
     0
100
AcDbLine
 10
11393.75986313732
 20
-710.192714204662
 30
0.0
 11
11398.75986313732
 21
-713.079465550612
 31
0.0
  0
LINE
  5
307
330
25
100
AcDbEntity
  8
1
  6
Continuous
 62
     0
100
AcDbLine
 10
11327.50986313732
 20
-710.192714204662
 30
0.0
 11
11322.50986313732
 21
-713.079465550612
 31
0.0
  0
LINE
  5
306
330
25
100
AcDbEntity
  8
1
  6
Continuous
 62
     0
100
AcDbLine
 10
11406.45747009356
 20
-799.442714204663
 30
0.0
 11
11316.70747009356
 21
-799.442714204663
 31
0.0
  0
LINE
  5
305
330
25
100
AcDbEntity
  8
1
  6
Continuous
 62
     0
100
AcDbLine
 10
11408.45747009356
 20
-792.442714204663
 30
0.0
 11
11408.45747009356
 21
-797.442714204663
 31
0.0
  0
LINE
  5
304
330
25
100
AcDbEntity
  8
1
  6
Continuous
 62
     0
100
AcDbLine
 10
11311.45747009356
 20
-733.942714204662
 30
0.0
 11
11311.45747009356
 21
-797.442714204663
 31
0.0
  0
LINE
  5
303
330
25
100
AcDbEntity
  8
1
  6
Continuous
 62
     0
100
AcDbLine
 10
11394.95747009356
 20
-728.942714204663
 30
0.0
 11
11316.45747009356
 21
-728.942714204662
 31
0.0
  0
LINE
  5
302
330
25
100
AcDbEntity
  8
1
  6
Continuous
 62
     0
100
AcDbLine
 10
11381.80747009356
 20
-839.292714204664
 30
0.0
 11
11339.10747009356
 21
-839.292714204664
 31
0.0
  0
LINE
  5
301
330
25
100
AcDbEntity
  8
1
  6
Continuous
 62
     0
100
AcDbLine
 10
11381.80747009356
 20
-836.192714204663
 30
0.0
 11
11339.10747009356
 21
-836.192714204663
 31
0.0
  0
LINE
  5
300
330
25
100
AcDbEntity
  8
1
  6
Continuous
 62
     0
100
AcDbLine
 10
11339.10747009356
 20
-836.192714204663
 30
0.0
 11
11339.10747009356
 21
-839.292714204664
 31
0.0
  0
LINE
  5
2FF
330
25
100
AcDbEntity
  8
1
  6
Continuous
 62
     0
100
AcDbLine
 10
11381.80747009356
 20
-839.292714204664
 30
0.0
 11
11381.80747009356
 21
-836.192714204663
 31
0.0
  0
LINE
  5
2FE
330
25
100
AcDbEntity
  8
1
  6
Continuous
 62
     0
100
AcDbLine
 10
11339.10747009356
 20
-836.192714204663
 30
0.0
 11
11339.50247009356
 21
-825.442714204663
 31
0.0
  0
LINE
  5
2FD
330
25
100
AcDbEntity
  8
1
  6
Continuous
 62
     0
100
AcDbLine
 10
11381.41247009356
 20
-850.042714204664
 30
0.0
 11
11381.80747009356
 21
-839.292714204664
 31
0.0
  0
LINE
  5
2FC
330
25
100
AcDbEntity
  8
1
  6
Continuous
 62
     0
100
AcDbLine
 10
11339.50247009356
 20
-850.042714204664
 30
0.0
 11
11339.10747009356
 21
-839.292714204664
 31
0.0
  0
LINE
  5
2FB
330
25
100
AcDbEntity
  8
1
  6
Continuous
 62
     0
100
AcDbLine
 10
11381.41247009356
 20
-825.442714204663
 30
0.0
 11
11381.80747009356
 21
-836.192714204663
 31
0.0
  0
LINE
  5
2FA
330
25
100
AcDbEntity
  8
1
  6
Continuous
 62
     0
100
AcDbLine
 10
11335.45747009356
 20
-873.295058091784
 30
0.0
 11
11335.45747009356
 21
-856.442714204663
 31
0.0
  0
LINE
  5
2F9
330
25
100
AcDbEntity
  8
1
  6
Continuous
 62
     0
100
AcDbLine
 10
11334.05747009356
 20
-855.042714204664
 30
0.0
 11
11333.95747009356
 21
-855.042714204664
 31
0.0
  0
LINE
  5
2F8
330
25
100
AcDbEntity
  8
1
  6
Continuous
 62
     0
100
AcDbLine
 10
11386.95747009356
 20
-855.042714204664
 30
0.0
 11
11333.95747009356
 21
-855.042714204664
 31
0.0
  0
LINE
  5
2F7
330
25
100
AcDbEntity
  8
1
  6
Continuous
 62
     0
100
AcDbLine
 10
11385.45747009356
 20
-856.442714204663
 30
0.0
 11
11385.45747009356
 21
-873.295058091784
 31
0.0
  0
LINE
  5
2F6
330
25
100
AcDbEntity
  8
1
  6
Continuous
 62
     0
100
AcDbLine
 10
11333.95747009356
 20
-855.042714204664
 30
0.0
 11
11333.95747009356
 21
-850.042714204664
 31
0.0
  0
LINE
  5
2F5
330
25
100
AcDbEntity
  8
1
  6
Continuous
 62
     0
100
AcDbLine
 10
11386.95747009356
 20
-855.042714204664
 30
0.0
 11
11386.85747009356
 21
-855.042714204664
 31
0.0
  0
LINE
  5
2F4
330
25
100
AcDbEntity
  8
1
  6
Continuous
 62
     0
100
AcDbLine
 10
11386.95747009356
 20
-850.042714204664
 30
0.0
 11
11386.95747009356
 21
-855.042714204664
 31
0.0
  0
LINE
  5
2F3
330
25
100
AcDbEntity
  8
1
  6
Continuous
 62
     0
100
AcDbLine
 10
11333.95747009356
 20
-850.042714204664
 30
0.0
 11
11386.95747009356
 21
-850.042714204664
 31
0.0
  0
LINE
  5
2EF
330
25
100
AcDbEntity
  8
1
  6
Continuous
 62
     0
100
AcDbLine
 10
10702.95874323514
 20
-3868.860660676962
 30
0.0
 11
10751.45747009356
 21
-3868.860660676962
 31
0.0
  0
LINE
  5
2EE
330
25
100
AcDbEntity
  8
1
  6
Continuous
 62
     0
100
AcDbLine
 10
10739.95874323514
 20
-3901.360660676961
 30
0.0
 11
10751.45747009356
 21
-3901.360660676961
 31
0.0
  0
LINE
  5
2ED
330
25
100
AcDbEntity
  8
1
  6
Continuous
 62
     0
100
AcDbLine
 10
11347.6499147366
 20
-3261.913191774956
 30
0.0
 11
11360.45747009356
 21
-3254.518746241952
 31
0.0
  0
LINE
  5
2EC
330
25
100
AcDbEntity
  8
1
  6
Continuous
 62
     0
100
AcDbLine
 10
11360.45747009356
 20
-3254.518746241952
 30
0.0
 11
11373.26502545052
 21
-3261.913191774956
 31
0.0
  0
LINE
  5
2EA
330
25
100
AcDbEntity
  8
1
  6
Continuous
 62
     0
100
AcDbLine
 10
11325.95592556099
 20
-3324.235837142222
 30
0.0
 11
11325.95592556099
 21
-3290.046468036981
 31
0.0
  0
LINE
  5
2E9
330
25
100
AcDbEntity
  8
1
  6
Continuous
 62
     0
100
AcDbLine
 10
11394.95901462613
 20
-3289.601368723445
 30
0.0
 11
11394.95901462613
 21
-3324.235837142222
 31
0.0
  0
LINE
  5
2E8
330
25
100
AcDbEntity
  8
1
  6
Continuous
 62
     0
100
AcDbLine
 10
11394.95901462613
 20
-3324.235837142222
 30
0.0
 11
11394.95901462613
 21
-3317.12534318176
 31
0.0
  0
LINE
  5
2E7
330
25
100
AcDbEntity
  8
1
  6
Continuous
 62
     0
100
AcDbLine
 10
11324.45592556099
 20
-3334.620660676962
 30
0.0
 11
11360.45747009356
 21
-3334.620660676962
 31
0.0
  0
LINE
  5
2E6
330
25
100
AcDbEntity
  8
1
  6
Continuous
 62
     0
100
AcDbLine
 10
11396.45901462613
 20
-3329.620660676962
 30
0.0
 11
11394.95901462613
 21
-3329.620660676962
 31
0.0
  0
LINE
  5
2E5
330
25
100
AcDbEntity
  8
1
  6
Continuous
 62
     0
100
AcDbLine
 10
11324.45592556099
 20
-3329.620660676962
 30
0.0
 11
11325.95592556099
 21
-3329.620660676962
 31
0.0
  0
LINE
  5
2E4
330
25
100
AcDbEntity
  8
1
  6
Continuous
 62
     0
100
AcDbLine
 10
11325.95592556099
 20
-3329.620660676962
 30
0.0
 11
11394.95901462613
 21
-3329.620660676962
 31
0.0
  0
LINE
  5
2E3
330
25
100
AcDbEntity
  8
1
  6
Continuous
 62
     0
100
AcDbLine
 10
11324.45592556099
 20
-3334.620660676962
 30
0.0
 11
11324.45592556099
 21
-3329.620660676962
 31
0.0
  0
LINE
  5
2E2
330
25
100
AcDbEntity
  8
1
  6
Continuous
 62
     0
100
AcDbLine
 10
11396.45901462613
 20
-3334.620660676962
 30
0.0
 11
11396.45901462613
 21
-3329.620660676962
 31
0.0
  0
LINE
  5
2E1
330
25
100
AcDbEntity
  8
1
  6
Continuous
 62
     0
100
AcDbLine
 10
11360.45747009356
 20
-3334.620660676962
 30
0.0
 11
11396.45901462613
 21
-3334.620660676962
 31
0.0
  0
LINE
  5
2E0
330
25
100
AcDbEntity
  8
1
  6
Continuous
 62
     0
100
AcDbLine
 10
11325.95592556099
 20
-3324.235837142222
 30
0.0
 11
11325.95592556099
 21
-3315.12534318176
 31
0.0
  0
LINE
  5
2DF
330
25
100
AcDbEntity
  8
1
  6
Continuous
 62
     0
100
AcDbLine
 10
11330.20747009356
 20
-3345.740660676962
 30
0.0
 11
11330.65047009356
 21
-3334.620660676962
 31
0.0
  0
LINE
  5
2DE
330
25
100
AcDbEntity
  8
1
  6
Continuous
 62
     0
100
AcDbLine
 10
11390.26447009356
 20
-3334.620660676962
 30
0.0
 11
11390.70747009356
 21
-3345.740660676962
 31
0.0
  0
LINE
  5
2DD
330
25
100
AcDbEntity
  8
1
  6
Continuous
 62
     0
100
AcDbLine
 10
11330.65047009356
 20
-3360.860660676961
 30
0.0
 11
11330.20747009356
 21
-3349.740660676962
 31
0.0
  0
LINE
  5
2DC
330
25
100
AcDbEntity
  8
1
  6
Continuous
 62
     0
100
AcDbLine
 10
11390.26447009356
 20
-3360.860660676961
 30
0.0
 11
11390.70747009356
 21
-3349.740660676962
 31
0.0
  0
LINE
  5
2DB
330
25
100
AcDbEntity
  8
1
  6
Continuous
 62
     0
100
AcDbLine
 10
11330.20747009356
 20
-3345.740660676962
 30
0.0
 11
11330.20747009356
 21
-3349.740660676962
 31
0.0
  0
LINE
  5
2DA
330
25
100
AcDbEntity
  8
1
  6
Continuous
 62
     0
100
AcDbLine
 10
11390.70747009356
 20
-3349.740660676962
 30
0.0
 11
11390.70747009356
 21
-3345.740660676962
 31
0.0
  0
LINE
  5
2D9
330
25
100
AcDbEntity
  8
1
  6
Continuous
 62
     0
100
AcDbLine
 10
11330.20747009356
 20
-3345.740660676962
 30
0.0
 11
11390.70747009356
 21
-3345.740660676962
 31
0.0
  0
LINE
  5
2D8
330
25
100
AcDbEntity
  8
1
  6
Continuous
 62
     0
100
AcDbLine
 10
11390.70747009356
 20
-3349.740660676962
 30
0.0
 11
11330.20747009356
 21
-3349.740660676962
 31
0.0
  0
LINE
  5
2D7
330
25
100
AcDbEntity
  8
1
  6
Continuous
 62
     0
100
AcDbLine
 10
11327.30747009356
 20
-3360.860660676961
 30
0.0
 11
11393.60747009356
 21
-3360.860660676961
 31
0.0
  0
LINE
  5
2D6
330
25
100
AcDbEntity
  8
1
  6
Continuous
 62
     0
100
AcDbLine
 10
11327.30747009356
 20
-3360.860660676961
 30
0.0
 11
11327.30747009356
 21
-3380.860660676961
 31
0.0
  0
LINE
  5
2D5
330
25
100
AcDbEntity
  8
1
  6
Continuous
 62
     0
100
AcDbLine
 10
11393.60747009356
 20
-3360.860660676961
 30
0.0
 11
11393.60747009356
 21
-3380.860660676961
 31
0.0
  0
LINE
  5
2D4
330
25
100
AcDbEntity
  8
1
  6
Continuous
 62
     0
100
AcDbLine
 10
11327.30747009356
 20
-3360.860660676961
 30
0.0
 11
11393.60747009356
 21
-3360.860660676961
 31
0.0
  0
LINE
  5
2D3
330
25
100
AcDbEntity
  8
1
  6
Continuous
 62
     0
100
AcDbLine
 10
10728.64704557206
 20
-3889.860660676961
 30
0.0
 11
10700.95874323514
 21
-3889.860660676961
 31
0.0
  0
LINE
  5
2D2
330
25
100
AcDbEntity
  8
1
  6
Continuous
 62
     0
100
AcDbLine
 10
10751.45747009356
 20
-3903.860660676962
 30
0.0
 11
10702.95874323514
 21
-3903.860660676962
 31
0.0
  0
LINE
  5
2D1
330
25
100
AcDbEntity
  8
1
  6
Continuous
 62
     0
100
AcDbLine
 10
10700.95874323514
 20
-3901.860660676962
 30
0.0
 11
10700.95874323514
 21
-3870.860660676962
 31
0.0
  0
LINE
  5
2CE
330
25
100
AcDbEntity
  8
1
  6
Continuous
 62
     0
100
AcDbLine
 10
10733.95874323514
 20
-3883.860660676961
 30
0.0
 11
10745.95874323514
 21
-3895.860660676961
 31
0.0
  0
LINE
  5
2CD
330
25
100
AcDbEntity
  8
1
  6
Continuous
 62
     0
100
AcDbLine
 10
10745.95874323514
 20
-3883.860660676961
 30
0.0
 11
10733.95874323514
 21
-3895.860660676961
 31
0.0
  0
LINE
  5
2CC
330
25
100
AcDbEntity
  8
1
  6
Continuous
 62
     0
100
AcDbLine
 10
10733.95874323514
 20
-3883.860660676961
 30
0.0
 11
10745.95874323514
 21
-3883.860660676961
 31
0.0
  0
LINE
  5
2CB
330
25
100
AcDbEntity
  8
1
  6
Continuous
 62
     0
100
AcDbLine
 10
10745.95874323514
 20
-3883.860660676961
 30
0.0
 11
10745.95874323514
 21
-3895.860660676961
 31
0.0
  0
LINE
  5
2CA
330
25
100
AcDbEntity
  8
1
  6
Continuous
 62
     0
100
AcDbLine
 10
10745.95874323514
 20
-3895.860660676961
 30
0.0
 11
10733.95874323514
 21
-3895.860660676961
 31
0.0
  0
LINE
  5
2C9
330
25
100
AcDbEntity
  8
1
  6
Continuous
 62
     0
100
AcDbLine
 10
10733.95874323514
 20
-3895.860660676961
 30
0.0
 11
10733.95874323514
 21
-3883.860660676961
 31
0.0
  0
LINE
  5
2C7
330
25
100
AcDbEntity
  8
1
  6
Continuous
 62
     0
100
AcDbLine
 10
10751.45747009356
 20
-3878.360660676961
 30
0.0
 11
10739.95874323514
 21
-3878.360660676961
 31
0.0
  0
LINE
  5
2C6
330
25
100
AcDbEntity
  8
1
  6
Continuous
 62
     0
100
AcDbLine
 10
11430.19994087552
 20
-4430.860660676963
 30
0.0
 11
11432.05634733607
 21
-4429.788863907236
 31
0.0
  0
LINE
  5
2C5
330
25
100
AcDbEntity
  8
1
  6
Continuous
 62
     0
100
AcDbLine
 10
11404.34353441497
 20
-4429.788863907236
 30
0.0
 11
11406.19994087552
 21
-4430.860660676963
 31
0.0
  0
LINE
  5
2C4
330
25
100
AcDbEntity
  8
1
  6
Continuous
 62
     0
100
AcDbLine
 10
11404.34353441497
 20
-4420.860660676963
 30
0.0
 11
11404.34353441497
 21
-4429.788863907236
 31
0.0
  0
LINE
  5
2C3
330
25
100
AcDbEntity
  8
1
  6
Continuous
 62
     0
100
AcDbLine
 10
11406.19994087552
 20
-4430.860660676963
 30
0.0
 11
11430.19994087552
 21
-4430.860660676963
 31
0.0
  0
LINE
  5
2C2
330
25
100
AcDbEntity
  8
1
  6
Continuous
 62
     0
100
AcDbLine
 10
11432.05634733607
 20
-4429.788863907236
 30
0.0
 11
11432.05634733607
 21
-4420.860660676963
 31
0.0
  0
LINE
  5
2C1
330
25
100
AcDbEntity
  8
1
  6
Continuous
 62
     0
100
AcDbLine
 10
11411.27173764524
 20
-4420.860660676963
 30
0.0
 11
11411.27173764524
 21
-4429.788863907236
 31
0.0
  0
LINE
  5
2C0
330
25
100
AcDbEntity
  8
1
  6
Continuous
 62
     0
100
AcDbLine
 10
11425.12814410579
 20
-4420.860660676963
 30
0.0
 11
11425.12814410579
 21
-4429.788863907236
 31
0.0
  0
LINE
  5
2BF
330
25
100
AcDbEntity
  8
1
  6
Continuous
 62
     0
100
AcDbLine
 10
11404.19994087552
 20
-4416.860660676963
 30
0.0
 11
11404.19994087552
 21
-4420.860660676963
 31
0.0
  0
LINE
  5
2BE
330
25
100
AcDbEntity
  8
1
  6
Continuous
 62
     0
100
AcDbLine
 10
11404.19994087552
 20
-4420.860660676963
 30
0.0
 11
11432.19994087552
 21
-4420.860660676963
 31
0.0
  0
LINE
  5
2BD
330
25
100
AcDbEntity
  8
1
  6
Continuous
 62
     0
100
AcDbLine
 10
11432.19994087552
 20
-4420.860660676963
 30
0.0
 11
11432.19994087552
 21
-4416.860660676963
 31
0.0
  0
LINE
  5
2BC
330
25
100
AcDbEntity
  8
1
  6
Continuous
 62
     0
100
AcDbLine
 10
11417.26660754218
 20
-4420.860660676963
 30
0.0
 11
11416.12375039933
 21
-4416.860660676963
 31
0.0
  0
LINE
  5
2BB
330
25
100
AcDbEntity
  8
1
  6
Continuous
 62
     0
100
AcDbLine
 10
11420.27613135171
 20
-4420.860660676963
 30
0.0
 11
11419.13327420885
 21
-4416.860660676963
 31
0.0
  0
LINE
  5
2BA
330
25
100
AcDbEntity
  8
1
  6
Continuous
 62
     0
100
AcDbLine
 10
11403.19994087552
 20
-4413.860660676963
 30
0.0
 11
11403.19994087552
 21
-4416.860660676963
 31
0.0
  0
LINE
  5
2B9
330
25
100
AcDbEntity
  8
1
  6
Continuous
 62
     0
100
AcDbLine
 10
11403.19994087552
 20
-4416.860660676963
 30
0.0
 11
11433.19994087552
 21
-4416.860660676963
 31
0.0
  0
LINE
  5
2B8
330
25
100
AcDbEntity
  8
1
  6
Continuous
 62
     0
100
AcDbLine
 10
11433.19994087552
 20
-4416.860660676963
 30
0.0
 11
11433.19994087552
 21
-4413.860660676963
 31
0.0
  0
LINE
  5
2B7
330
25
100
AcDbEntity
  8
1
  6
Continuous
 62
     0
100
AcDbLine
 10
11433.19994087552
 20
-4413.860660676963
 30
0.0
 11
11403.19994087552
 21
-4413.860660676963
 31
0.0
  0
LINE
  5
2B4
330
25
100
AcDbEntity
  8
1
  6
Continuous
 62
     0
100
AcDbLine
 10
11399.37518461638
 20
-4413.860660676963
 30
0.0
 11
11369.37518461638
 21
-4413.860660676963
 31
0.0
  0
LINE
  5
2B3
330
25
100
AcDbEntity
  8
1
  6
Continuous
 62
     0
100
AcDbLine
 10
11399.37518461638
 20
-4416.860660676963
 30
0.0
 11
11399.37518461638
 21
-4413.860660676963
 31
0.0
  0
LINE
  5
2B2
330
25
100
AcDbEntity
  8
1
  6
Continuous
 62
     0
100
AcDbLine
 10
11369.37518461638
 20
-4416.860660676963
 30
0.0
 11
11399.37518461638
 21
-4416.860660676963
 31
0.0
  0
LINE
  5
2B1
330
25
100
AcDbEntity
  8
1
  6
Continuous
 62
     0
100
AcDbLine
 10
11369.37518461638
 20
-4413.860660676963
 30
0.0
 11
11369.37518461638
 21
-4416.860660676963
 31
0.0
  0
LINE
  5
2B0
330
25
100
AcDbEntity
  8
1
  6
Continuous
 62
     0
100
AcDbLine
 10
11386.45137509257
 20
-4420.860660676963
 30
0.0
 11
11385.30851794971
 21
-4416.860660676963
 31
0.0
  0
LINE
  5
2AF
330
25
100
AcDbEntity
  8
1
  6
Continuous
 62
     0
100
AcDbLine
 10
11383.44185128305
 20
-4420.860660676963
 30
0.0
 11
11382.29899414019
 21
-4416.860660676963
 31
0.0
  0
LINE
  5
2AE
330
25
100
AcDbEntity
  8
1
  6
Continuous
 62
     0
100
AcDbLine
 10
11398.37518461638
 20
-4420.860660676963
 30
0.0
 11
11398.37518461638
 21
-4416.860660676963
 31
0.0
  0
LINE
  5
2AD
330
25
100
AcDbEntity
  8
1
  6
Continuous
 62
     0
100
AcDbLine
 10
11370.37518461638
 20
-4420.860660676963
 30
0.0
 11
11398.37518461638
 21
-4420.860660676963
 31
0.0
  0
LINE
  5
2AC
330
25
100
AcDbEntity
  8
1
  6
Continuous
 62
     0
100
AcDbLine
 10
11370.37518461638
 20
-4416.860660676963
 30
0.0
 11
11370.37518461638
 21
-4420.860660676963
 31
0.0
  0
LINE
  5
2AB
330
25
100
AcDbEntity
  8
1
  6
Continuous
 62
     0
100
AcDbLine
 10
11391.30338784666
 20
-4420.860660676963
 30
0.0
 11
11391.30338784666
 21
-4429.788863907236
 31
0.0
  0
LINE
  5
2AA
330
25
100
AcDbEntity
  8
1
  6
Continuous
 62
     0
100
AcDbLine
 10
11377.44698138611
 20
-4420.860660676963
 30
0.0
 11
11377.44698138611
 21
-4429.788863907236
 31
0.0
  0
LINE
  5
2A9
330
25
100
AcDbEntity
  8
1
  6
Continuous
 62
     0
100
AcDbLine
 10
11398.23159107693
 20
-4429.788863907236
 30
0.0
 11
11398.23159107693
 21
-4420.860660676963
 31
0.0
  0
LINE
  5
2A8
330
25
100
AcDbEntity
  8
1
  6
Continuous
 62
     0
100
AcDbLine
 10
11372.37518461638
 20
-4430.860660676963
 30
0.0
 11
11396.37518461638
 21
-4430.860660676963
 31
0.0
  0
LINE
  5
2A7
330
25
100
AcDbEntity
  8
1
  6
Continuous
 62
     0
100
AcDbLine
 10
11370.51877815583
 20
-4420.860660676963
 30
0.0
 11
11370.51877815583
 21
-4429.788863907236
 31
0.0
  0
LINE
  5
2A6
330
25
100
AcDbEntity
  8
1
  6
Continuous
 62
     0
100
AcDbLine
 10
11370.51877815583
 20
-4429.788863907236
 30
0.0
 11
11372.37518461638
 21
-4430.860660676963
 31
0.0
  0
LINE
  5
2A5
330
25
100
AcDbEntity
  8
1
  6
Continuous
 62
     0
100
AcDbLine
 10
11396.37518461638
 20
-4430.860660676963
 30
0.0
 11
11398.23159107693
 21
-4429.788863907236
 31
0.0
  0
LINE
  5
2A4
330
25
100
AcDbEntity
  8
1
  6
Continuous
 62
     0
100
AcDbLine
 10
11322.68334911019
 20
-4429.788863907236
 30
0.0
 11
11324.53975557074
 21
-4430.860660676963
 31
0.0
  0
LINE
  5
2A3
330
25
100
AcDbEntity
  8
1
  6
Continuous
 62
     0
100
AcDbLine
 10
11348.53975557074
 20
-4430.860660676963
 30
0.0
 11
11350.3961620313
 21
-4429.788863907236
 31
0.0
  0
LINE
  5
2A2
330
25
100
AcDbEntity
  8
1
  6
Continuous
 62
     0
100
AcDbLine
 10
11350.3961620313
 20
-4429.788863907236
 30
0.0
 11
11350.3961620313
 21
-4420.860660676963
 31
0.0
  0
LINE
  5
2A1
330
25
100
AcDbEntity
  8
1
  6
Continuous
 62
     0
100
AcDbLine
 10
11324.53975557074
 20
-4430.860660676963
 30
0.0
 11
11348.53975557074
 21
-4430.860660676963
 31
0.0
  0
LINE
  5
2A0
330
25
100
AcDbEntity
  8
1
  6
Continuous
 62
     0
100
AcDbLine
 10
11322.68334911019
 20
-4420.860660676963
 30
0.0
 11
11322.68334911019
 21
-4429.788863907236
 31
0.0
  0
LINE
  5
29F
330
25
100
AcDbEntity
  8
1
  6
Continuous
 62
     0
100
AcDbLine
 10
11343.46795880102
 20
-4429.788863907236
 30
0.0
 11
11343.46795880102
 21
-4420.860660676963
 31
0.0
  0
LINE
  5
29E
330
25
100
AcDbEntity
  8
1
  6
Continuous
 62
     0
100
AcDbLine
 10
11329.61155234047
 20
-4429.788863907236
 30
0.0
 11
11329.61155234047
 21
-4420.860660676963
 31
0.0
  0
LINE
  5
29D
330
25
100
AcDbEntity
  8
1
  6
Continuous
 62
     0
100
AcDbLine
 10
11350.53975557074
 20
-4420.860660676963
 30
0.0
 11
11350.53975557074
 21
-4416.860660676963
 31
0.0
  0
LINE
  5
29C
330
25
100
AcDbEntity
  8
1
  6
Continuous
 62
     0
100
AcDbLine
 10
11322.53975557074
 20
-4420.860660676963
 30
0.0
 11
11350.53975557074
 21
-4420.860660676963
 31
0.0
  0
LINE
  5
29B
330
25
100
AcDbEntity
  8
1
  6
Continuous
 62
     0
100
AcDbLine
 10
11322.53975557074
 20
-4416.860660676963
 30
0.0
 11
11322.53975557074
 21
-4420.860660676963
 31
0.0
  0
LINE
  5
29A
330
25
100
AcDbEntity
  8
1
  6
Continuous
 62
     0
100
AcDbLine
 10
11338.61594604693
 20
-4416.860660676963
 30
0.0
 11
11337.47308890408
 21
-4420.860660676963
 31
0.0
  0
LINE
  5
299
330
25
100
AcDbEntity
  8
1
  6
Continuous
 62
     0
100
AcDbLine
 10
11335.60642223741
 20
-4416.860660676963
 30
0.0
 11
11334.46356509455
 21
-4420.860660676963
 31
0.0
  0
LINE
  5
298
330
25
100
AcDbEntity
  8
1
  6
Continuous
 62
     0
100
AcDbLine
 10
11351.53975557074
 20
-4416.860660676963
 30
0.0
 11
11351.53975557074
 21
-4413.860660676963
 31
0.0
  0
LINE
  5
297
330
25
100
AcDbEntity
  8
1
  6
Continuous
 62
     0
100
AcDbLine
 10
11321.53975557074
 20
-4416.860660676963
 30
0.0
 11
11351.53975557074
 21
-4416.860660676963
 31
0.0
  0
LINE
  5
296
330
25
100
AcDbEntity
  8
1
  6
Continuous
 62
     0
100
AcDbLine
 10
11321.53975557074
 20
-4413.860660676963
 30
0.0
 11
11321.53975557074
 21
-4416.860660676963
 31
0.0
  0
LINE
  5
295
330
25
100
AcDbEntity
  8
1
  6
Continuous
 62
     0
100
AcDbLine
 10
11351.53975557074
 20
-4413.860660676963
 30
0.0
 11
11321.53975557074
 21
-4413.860660676963
 31
0.0
  0
LINE
  5
292
330
25
100
AcDbEntity
  8
1
  6
Continuous
 62
     0
100
AcDbLine
 10
11317.71499931161
 20
-4413.860660676963
 30
0.0
 11
11287.71499931161
 21
-4413.860660676963
 31
0.0
  0
LINE
  5
291
330
25
100
AcDbEntity
  8
1
  6
Continuous
 62
     0
100
AcDbLine
 10
11287.71499931161
 20
-4413.860660676963
 30
0.0
 11
11287.71499931161
 21
-4416.860660676963
 31
0.0
  0
LINE
  5
290
330
25
100
AcDbEntity
  8
1
  6
Continuous
 62
     0
100
AcDbLine
 10
11287.71499931161
 20
-4416.860660676963
 30
0.0
 11
11317.71499931161
 21
-4416.860660676963
 31
0.0
  0
LINE
  5
28F
330
25
100
AcDbEntity
  8
1
  6
Continuous
 62
     0
100
AcDbLine
 10
11317.71499931161
 20
-4416.860660676963
 30
0.0
 11
11317.71499931161
 21
-4413.860660676963
 31
0.0
  0
LINE
  5
28E
330
25
100
AcDbEntity
  8
1
  6
Continuous
 62
     0
100
AcDbLine
 10
11301.78166597827
 20
-4416.860660676963
 30
0.0
 11
11300.63880883542
 21
-4420.860660676963
 31
0.0
  0
LINE
  5
28D
330
25
100
AcDbEntity
  8
1
  6
Continuous
 62
     0
100
AcDbLine
 10
11304.7911897878
 20
-4416.860660676963
 30
0.0
 11
11303.64833264494
 21
-4420.860660676963
 31
0.0
  0
LINE
  5
28C
330
25
100
AcDbEntity
  8
1
  6
Continuous
 62
     0
100
AcDbLine
 10
11288.71499931161
 20
-4416.860660676963
 30
0.0
 11
11288.71499931161
 21
-4420.860660676963
 31
0.0
  0
LINE
  5
28B
330
25
100
AcDbEntity
  8
1
  6
Continuous
 62
     0
100
AcDbLine
 10
11288.71499931161
 20
-4420.860660676963
 30
0.0
 11
11316.71499931161
 21
-4420.860660676963
 31
0.0
  0
LINE
  5
28A
330
25
100
AcDbEntity
  8
1
  6
Continuous
 62
     0
100
AcDbLine
 10
11316.71499931161
 20
-4420.860660676963
 30
0.0
 11
11316.71499931161
 21
-4416.860660676963
 31
0.0
  0
LINE
  5
289
330
25
100
AcDbEntity
  8
1
  6
Continuous
 62
     0
100
AcDbLine
 10
11295.78679608133
 20
-4429.788863907236
 30
0.0
 11
11295.78679608133
 21
-4420.860660676963
 31
0.0
  0
LINE
  5
288
330
25
100
AcDbEntity
  8
1
  6
Continuous
 62
     0
100
AcDbLine
 10
11309.64320254188
 20
-4429.788863907236
 30
0.0
 11
11309.64320254188
 21
-4420.860660676963
 31
0.0
  0
LINE
  5
287
330
25
100
AcDbEntity
  8
1
  6
Continuous
 62
     0
100
AcDbLine
 10
11288.85859285106
 20
-4420.860660676963
 30
0.0
 11
11288.85859285106
 21
-4429.788863907236
 31
0.0
  0
LINE
  5
286
330
25
100
AcDbEntity
  8
1
  6
Continuous
 62
     0
100
AcDbLine
 10
11290.71499931161
 20
-4430.860660676963
 30
0.0
 11
11314.71499931161
 21
-4430.860660676963
 31
0.0
  0
LINE
  5
285
330
25
100
AcDbEntity
  8
1
  6
Continuous
 62
     0
100
AcDbLine
 10
11316.57140577216
 20
-4429.788863907236
 30
0.0
 11
11316.57140577216
 21
-4420.860660676963
 31
0.0
  0
LINE
  5
284
330
25
100
AcDbEntity
  8
1
  6
Continuous
 62
     0
100
AcDbLine
 10
11314.71499931161
 20
-4430.860660676963
 30
0.0
 11
11316.57140577216
 21
-4429.788863907236
 31
0.0
  0
LINE
  5
283
330
25
100
AcDbEntity
  8
1
  6
Continuous
 62
     0
100
AcDbLine
 10
11288.85859285106
 20
-4429.788863907236
 30
0.0
 11
11290.71499931161
 21
-4430.860660676963
 31
0.0
  0
LINE
  5
282
330
25
100
AcDbEntity
  8
1
  6
Continuous
 62
     0
100
AcDbLine
 10
11281.45747009356
 20
-4391.997097579488
 30
0.0
 11
11281.45747009356
 21
-4413.860660676963
 31
0.0
  0
LINE
  5
281
330
25
100
AcDbEntity
  8
1
  6
Continuous
 62
     0
100
AcDbLine
 10
11439.45747009356
 20
-4391.990281034874
 30
0.0
 11
11439.45747009356
 21
-4413.860660676963
 31
0.0
  0
LINE
  5
27F
330
25
100
AcDbEntity
  8
1
  6
Continuous
 62
     0
100
AcDbLine
 10
11439.45747009356
 20
-4413.860660676963
 30
0.0
 11
11281.45747009356
 21
-4413.860660676963
 31
0.0
  0
LINE
  5
27E
330
25
100
AcDbEntity
  8
1
  6
Continuous
 62
     0
100
AcDbLine
 10
11439.45747009356
 20
-4403.860660676963
 30
0.0
 11
11281.45747009356
 21
-4403.860660676963
 31
0.0
  0
LINE
  5
27B
330
25
100
AcDbEntity
  8
1
  6
Continuous
 62
     0
100
AcDbLine
 10
10751.45747009356
 20
-3797.360660676961
 30
0.0
 11
10769.45747009356
 21
-3797.360660676961
 31
0.0
  0
LINE
  5
27A
330
25
100
AcDbEntity
  8
1
  6
Continuous
 62
     0
100
AcDbLine
 10
10769.45747009356
 20
-3797.360660676961
 30
0.0
 11
10769.45747009356
 21
-3982.360660676961
 31
0.0
  0
LINE
  5
279
330
25
100
AcDbEntity
  8
1
  6
Continuous
 62
     0
100
AcDbLine
 10
10769.45747009356
 20
-3982.360660676961
 30
0.0
 11
10751.45747009356
 21
-3982.360660676961
 31
0.0
  0
LINE
  5
278
330
25
100
AcDbEntity
  8
1
  6
Continuous
 62
     0
100
AcDbLine
 10
10751.45747009356
 20
-3982.360660676961
 30
0.0
 11
10751.45747009356
 21
-3797.360660676961
 31
0.0
  0
LINE
  5
277
330
25
100
AcDbEntity
  8
1
  6
Continuous
 62
     0
100
AcDbLine
 10
10769.45747009356
 20
-3845.310660676962
 30
0.0
 11
10853.45584473451
 21
-3845.310660676962
 31
0.0
  0
LINE
  5
276
330
25
100
AcDbEntity
  8
1
  6
Continuous
 62
     0
100
AcDbLine
 10
10769.45747009356
 20
-3934.410660676961
 30
0.0
 11
10853.4438210046
 21
-3934.410660676962
 31
0.0
  0
LINE
  5
275
330
25
100
AcDbEntity
  8
1
  6
Continuous
 62
     0
100
AcDbLine
 10
11867.46962754277
 20
-3934.410660676961
 30
0.0
 11
11951.45747009356
 21
-3934.410660676961
 31
0.0
  0
LINE
  5
274
330
25
100
AcDbEntity
  8
1
  6
Continuous
 62
     0
100
AcDbLine
 10
11867.52412714394
 20
-3845.310660676962
 30
0.0
 11
11951.45747009356
 21
-3845.310660676962
 31
0.0
  0
LINE
  5
273
330
25
100
AcDbEntity
  8
1
  6
Continuous
 62
     0
100
AcDbLine
 10
11969.45747009356
 20
-3797.360660676961
 30
0.0
 11
11969.45747009356
 21
-3982.360660676961
 31
0.0
  0
LINE
  5
272
330
25
100
AcDbEntity
  8
1
  6
Continuous
 62
     0
100
AcDbLine
 10
11969.45747009356
 20
-3982.360660676961
 30
0.0
 11
11951.45747009356
 21
-3982.360660676961
 31
0.0
  0
LINE
  5
271
330
25
100
AcDbEntity
  8
1
  6
Continuous
 62
     0
100
AcDbLine
 10
11951.45747009356
 20
-3982.360660676961
 30
0.0
 11
11951.45747009356
 21
-3797.360660676961
 31
0.0
  0
LINE
  5
270
330
25
100
AcDbEntity
  8
1
  6
Continuous
 62
     0
100
AcDbLine
 10
11951.45747009356
 20
-3797.360660676961
 30
0.0
 11
11969.45747009356
 21
-3797.360660676961
 31
0.0
  0
LINE
  5
266
330
25
100
AcDbEntity
  8
1
  6
DOTTED
 62
     0
100
AcDbLine
 10
14275.63245275008
 20
-2604.917742577933
 30
0.0
 11
14275.63245275008
 21
-2603.946867567382
 31
0.0
  0
LINE
  5
265
330
25
100
AcDbEntity
  8
1
  6
DOTTED
 62
     0
100
AcDbLine
 10
14302.03245275008
 20
-2604.917742577933
 30
0.0
 11
14302.03245275008
 21
-2603.946867567382
 31
0.0
  0
LINE
  5
264
330
25
100
AcDbEntity
  8
1
  6
Continuous
 62
     0
100
AcDbLine
 10
14275.63245275008
 20
-2614.042714204663
 30
0.0
 11
14275.63245275008
 21
-2604.917742577933
 31
0.0
  0
LINE
  5
263
330
25
100
AcDbEntity
  8
1
  6
Continuous
 62
     0
100
AcDbLine
 10
14302.03245275008
 20
-2614.042714204663
 30
0.0
 11
14302.03245275008
 21
-2604.917742577933
 31
0.0
  0
LINE
  5
262
330
25
100
AcDbEntity
  8
1
  6
Continuous
 62
     0
100
AcDbLine
 10
14275.63245275008
 20
-2614.042714204663
 30
0.0
 11
14302.03245275008
 21
-2614.042714204663
 31
0.0
  0
LINE
  5
261
330
25
100
AcDbEntity
  8
1
  6
Continuous
 62
     0
100
AcDbLine
 10
14291.33245275008
 20
-2662.097407715803
 30
0.0
 11
14291.33245275008
 21
-2656.916674177008
 31
0.0
  0
LINE
  5
260
330
25
100
AcDbEntity
  8
1
  6
Continuous
 62
     0
100
AcDbLine
 10
14286.33245275008
 20
-2662.097407715803
 30
0.0
 11
14286.33245275008
 21
-2656.916674177008
 31
0.0
  0
LINE
  5
25F
330
25
100
AcDbEntity
  8
1
  6
Continuous
 62
     0
100
AcDbLine
 10
14296.33245275008
 20
-2659.507040946404
 30
0.0
 11
14299.93245275008
 21
-2659.507040946404
 31
0.0
  0
LINE
  5
25E
330
25
100
AcDbEntity
  8
1
  6
Continuous
 62
     0
100
AcDbLine
 10
14288.83245275008
 20
-2652.007040946404
 30
0.0
 11
14280.61069288639
 21
-2652.007040946404
 31
0.0
  0
LINE
  5
25D
330
25
100
AcDbEntity
  8
1
  6
Continuous
 62
     0
100
AcDbLine
 10
14280.08245275008
 20
-2647.507040946403
 30
0.0
 11
14280.08245275008
 21
-2649.892598684889
 31
0.0
  0
LINE
  5
25C
330
25
100
AcDbEntity
  8
1
  6
Continuous
 62
     0
100
AcDbLine
 10
14282.08245275008
 20
-2645.507040946403
 30
0.0
 11
14283.08245275008
 21
-2645.507040946403
 31
0.0
  0
LINE
  5
259
330
25
100
AcDbEntity
  8
1
  6
Continuous
 62
     0
100
AcDbLine
 10
14281.90424951981
 20
-2659.507040946404
 30
0.0
 11
14285.36835113495
 21
-2665.507040946404
 31
0.0
  0
LINE
  5
258
330
25
100
AcDbEntity
  8
1
  6
Continuous
 62
     0
100
AcDbLine
 10
14285.36835113495
 20
-2653.507040946404
 30
0.0
 11
14281.90424951981
 21
-2659.507040946404
 31
0.0
  0
LINE
  5
257
330
25
100
AcDbEntity
  8
1
  6
Continuous
 62
     0
100
AcDbLine
 10
14292.29655436522
 20
-2653.507040946404
 30
0.0
 11
14285.36835113495
 21
-2653.507040946404
 31
0.0
  0
LINE
  5
256
330
25
100
AcDbEntity
  8
1
  6
Continuous
 62
     0
100
AcDbLine
 10
14295.76065598036
 20
-2659.507040946404
 30
0.0
 11
14292.29655436522
 21
-2653.507040946404
 31
0.0
  0
LINE
  5
255
330
25
100
AcDbEntity
  8
1
  6
Continuous
 62
     0
100
AcDbLine
 10
14292.29655436522
 20
-2665.507040946404
 30
0.0
 11
14295.76065598036
 21
-2659.507040946404
 31
0.0
  0
LINE
  5
254
330
25
100
AcDbEntity
  8
1
  6
Continuous
 62
     0
100
AcDbLine
 10
14285.36835113495
 20
-2665.507040946404
 30
0.0
 11
14292.29655436522
 21
-2665.507040946404
 31
0.0
  0
LINE
  5
253
330
25
100
AcDbEntity
  8
1
  6
Continuous
 62
     0
100
AcDbLine
 10
14295.59139707069
 20
-2688.507040946403
 30
0.0
 11
14276.33245275008
 21
-2688.507040946403
 31
0.0
  0
LINE
  5
252
330
25
100
AcDbEntity
  8
1
  6
Continuous
 62
     0
100
AcDbLine
 10
14294.58245275008
 20
-2632.007040946403
 30
0.0
 11
14301.33245275008
 21
-2632.007040946404
 31
0.0
  0
LINE
  5
251
330
25
100
AcDbEntity
  8
1
  6
Continuous
 62
     0
100
AcDbLine
 10
14277.33245275008
 20
-2652.557040946404
 30
0.0
 11
14277.8469153614
 21
-2652.557040946404
 31
0.0
  0
LINE
  5
250
330
25
100
AcDbEntity
  8
1
  6
Continuous
 62
     0
100
AcDbLine
 10
14258.83245275008
 20
-2653.757040946404
 30
0.0
 11
14275.98965321104
 21
-2653.757040946404
 31
0.0
  0
LINE
  5
24F
330
25
100
AcDbEntity
  8
1
  6
Continuous
 62
     0
100
AcDbLine
 10
14275.98965321104
 20
-2665.257040946404
 30
0.0
 11
14258.83245275008
 21
-2665.257040946404
 31
0.0
  0
LINE
  5
24E
330
25
100
AcDbEntity
  8
1
  6
Continuous
 62
     0
100
AcDbLine
 10
14318.83245275008
 20
-2665.257040946404
 30
0.0
 11
14301.67525228912
 21
-2665.257040946404
 31
0.0
  0
LINE
  5
24D
330
25
100
AcDbEntity
  8
1
  6
Continuous
 62
     0
100
AcDbLine
 10
14318.83245275008
 20
-2653.757040946404
 30
0.0
 11
14301.67525228912
 21
-2653.757040946404
 31
0.0
  0
LINE
  5
24C
330
25
100
AcDbEntity
  8
1
  6
Continuous
 62
     0
100
AcDbLine
 10
14277.33245275008
 20
-2653.444863119913
 30
0.0
 11
14277.33245275008
 21
-2652.557040946404
 31
0.0
  0
LINE
  5
24B
330
25
100
AcDbEntity
  8
1
  6
Continuous
 62
     0
100
AcDbLine
 10
14299.81869414558
 20
-2652.557040946404
 30
0.0
 11
14300.33245275008
 21
-2652.557040946404
 31
0.0
  0
LINE
  5
24A
330
25
100
AcDbEntity
  8
1
  6
Continuous
 62
     0
100
AcDbLine
 10
14300.33245275008
 20
-2653.444863119913
 30
0.0
 11
14300.33245275008
 21
-2652.557040946404
 31
0.0
  0
LINE
  5
249
330
25
100
AcDbEntity
  8
1
  6
Continuous
 62
     0
100
AcDbLine
 10
14300.92237901615
 20
-2664.285501250834
 30
0.0
 11
14301.46620947983
 21
-2664.957040946403
 31
0.0
  0
LINE
  5
248
330
25
100
AcDbEntity
  8
1
  6
Continuous
 62
     0
100
AcDbLine
 10
14258.83245275008
 20
-2653.757040946404
 30
0.0
 11
14258.83245275008
 21
-2665.257040946404
 31
0.0
  0
LINE
  5
247
330
25
100
AcDbEntity
  8
1
  6
Continuous
 62
     0
100
AcDbLine
 10
14318.83245275008
 20
-2653.757040946404
 30
0.0
 11
14318.83245275008
 21
-2665.257040946404
 31
0.0
  0
LINE
  5
246
330
25
100
AcDbEntity
  8
1
  6
Continuous
 62
     0
100
AcDbLine
 10
14276.19869602034
 20
-2664.957040946403
 30
0.0
 11
14276.19869602034
 21
-2678.584265430329
 31
0.0
  0
LINE
  5
245
330
25
100
AcDbEntity
  8
1
  6
Continuous
 62
     0
100
AcDbLine
 10
14301.46620947983
 20
-2651.157040946403
 30
0.0
 11
14301.46620947983
 21
-2641.929816462483
 31
0.0
  0
LINE
  5
244
330
25
100
AcDbEntity
  8
1
  6
Continuous
 62
     0
100
AcDbLine
 10
14300.33245275008
 20
-2652.557040946404
 30
0.0
 11
14301.46620947983
 21
-2651.157040946403
 31
0.0
  0
LINE
  5
243
330
25
100
AcDbEntity
  8
1
  6
Continuous
 62
     0
100
AcDbLine
 10
14276.19869602034
 20
-2664.957040946403
 30
0.0
 11
14276.74252648401
 21
-2664.285501250831
 31
0.0
  0
LINE
  5
242
330
25
100
AcDbEntity
  8
1
  6
Continuous
 62
     0
100
AcDbLine
 10
14276.19869602034
 20
-2651.157040946403
 30
0.0
 11
14277.33245275008
 21
-2652.557040946404
 31
0.0
  0
LINE
  5
241
330
25
100
AcDbEntity
  8
1
  6
Continuous
 62
     0
100
AcDbLine
 10
14301.46620947983
 20
-2678.584265430329
 30
0.0
 11
14301.46620947983
 21
-2664.957040946403
 31
0.0
  0
LINE
  5
240
330
25
100
AcDbEntity
  8
1
  6
Continuous
 62
     0
100
AcDbLine
 10
14276.19869602034
 20
-2641.92981646248
 30
0.0
 11
14276.19869602034
 21
-2651.157040946403
 31
0.0
  0
LINE
  5
23F
330
25
100
AcDbEntity
  8
1
  6
Continuous
 62
     0
100
AcDbLine
 10
14301.46620947983
 20
-2678.584265430329
 30
0.0
 11
14303.26620947983
 21
-2679.623495914869
 31
0.0
  0
LINE
  5
23E
330
25
100
AcDbEntity
  8
1
  6
Continuous
 62
     0
100
AcDbLine
 10
14274.39869602034
 20
-2679.623495914869
 30
0.0
 11
14276.19869602034
 21
-2678.584265430329
 31
0.0
  0
LINE
  5
23D
330
25
100
AcDbEntity
  8
1
  6
Continuous
 62
     0
100
AcDbLine
 10
14276.19869602034
 20
-2641.92981646248
 30
0.0
 11
14274.39869602034
 21
-2640.890585977943
 31
0.0
  0
LINE
  5
23C
330
25
100
AcDbEntity
  8
1
  6
Continuous
 62
     0
100
AcDbLine
 10
14303.26620947983
 20
-2640.890585977943
 30
0.0
 11
14301.46620947983
 21
-2641.929816462483
 31
0.0
  0
LINE
  5
23B
330
25
100
AcDbEntity
  8
1
  6
Continuous
 62
     0
100
AcDbLine
 10
14281.61557438521
 20
-2633.123495914866
 30
0.0
 11
14281.61557438521
 21
-2645.562298137593
 31
0.0
  0
LINE
  5
23A
330
25
100
AcDbEntity
  8
1
  6
Continuous
 62
     0
100
AcDbLine
 10
14296.04933111496
 20
-2633.123495914866
 30
0.0
 11
14296.04933111496
 21
-2648.694239890865
 31
0.0
  0
LINE
  5
239
330
25
100
AcDbEntity
  8
1
  6
Continuous
 62
     0
100
AcDbLine
 10
14274.39869602034
 20
-2633.123495914866
 30
0.0
 11
14274.39869602034
 21
-2640.890585977943
 31
0.0
  0
LINE
  5
238
330
25
100
AcDbEntity
  8
1
  6
Continuous
 62
     0
100
AcDbLine
 10
14276.33245275008
 20
-2632.007040946403
 30
0.0
 11
14295.17861807267
 21
-2632.007040946403
 31
0.0
  0
LINE
  5
237
330
25
100
AcDbEntity
  8
1
  6
Continuous
 62
     0
100
AcDbLine
 10
14303.26620947983
 20
-2633.123495914866
 30
0.0
 11
14303.26620947983
 21
-2640.890585977943
 31
0.0
  0
LINE
  5
236
330
25
100
AcDbEntity
  8
1
  6
Continuous
 62
     0
100
AcDbLine
 10
14274.39869602034
 20
-2633.123495914866
 30
0.0
 11
14276.33245275008
 21
-2632.007040946403
 31
0.0
  0
LINE
  5
235
330
25
100
AcDbEntity
  8
1
  6
Continuous
 62
     0
100
AcDbLine
 10
14301.33245275008
 20
-2632.007040946404
 30
0.0
 11
14303.26620947983
 21
-2633.123495914866
 31
0.0
  0
LINE
  5
234
330
25
100
AcDbEntity
  8
1
  6
Continuous
 62
     0
100
AcDbLine
 10
14281.61557438521
 20
-2687.39058597794
 30
0.0
 11
14281.61557438521
 21
-2670.319842001944
 31
0.0
  0
LINE
  5
233
330
25
100
AcDbEntity
  8
1
  6
Continuous
 62
     0
100
AcDbLine
 10
14296.04933111496
 20
-2687.39058597794
 30
0.0
 11
14296.04933111496
 21
-2670.319842001944
 31
0.0
  0
LINE
  5
232
330
25
100
AcDbEntity
  8
1
  6
Continuous
 62
     0
100
AcDbLine
 10
14274.39869602034
 20
-2687.39058597794
 30
0.0
 11
14274.39869602034
 21
-2679.623495914869
 31
0.0
  0
LINE
  5
231
330
25
100
AcDbEntity
  8
1
  6
Continuous
 62
     0
100
AcDbLine
 10
14301.33245275008
 20
-2688.507040946403
 30
0.0
 11
14294.58245275008
 21
-2688.507040946403
 31
0.0
  0
LINE
  5
230
330
25
100
AcDbEntity
  8
1
  6
Continuous
 62
     0
100
AcDbLine
 10
14303.26620947983
 20
-2687.39058597794
 30
0.0
 11
14303.26620947983
 21
-2679.623495914869
 31
0.0
  0
LINE
  5
22F
330
25
100
AcDbEntity
  8
1
  6
Continuous
 62
     0
100
AcDbLine
 10
14276.33245275008
 20
-2688.507040946403
 30
0.0
 11
14274.39869602034
 21
-2687.39058597794
 31
0.0
  0
LINE
  5
22E
330
25
100
AcDbEntity
  8
1
  6
Continuous
 62
     0
100
AcDbLine
 10
14303.26620947983
 20
-2687.39058597794
 30
0.0
 11
14301.33245275008
 21
-2688.507040946403
 31
0.0
  0
LINE
  5
22D
330
25
100
AcDbEntity
  8
1
  6
Continuous
 62
     0
100
AcDbLine
 10
14275.63245275008
 20
-2614.327040946404
 30
0.0
 11
14302.03245275008
 21
-2614.327040946404
 31
0.0
  0
LINE
  5
22C
330
25
100
AcDbEntity
  8
1
  6
Continuous
 62
     0
100
AcDbLine
 10
14278.35495275008
 20
-2632.007040946404
 30
0.0
 11
14277.98245275008
 21
-2624.667040946404
 31
0.0
  0
LINE
  5
22B
330
25
100
AcDbEntity
  8
1
  6
Continuous
 62
     0
100
AcDbLine
 10
14299.30995275008
 20
-2632.007040946404
 30
0.0
 11
14299.68245275008
 21
-2624.667040946404
 31
0.0
  0
LINE
  5
22A
330
25
100
AcDbEntity
  8
1
  6
Continuous
 62
     0
100
AcDbLine
 10
14299.68245275008
 20
-2621.667040946404
 30
0.0
 11
14299.30995275008
 21
-2614.327040946404
 31
0.0
  0
LINE
  5
229
330
25
100
AcDbEntity
  8
1
  6
Continuous
 62
     0
100
AcDbLine
 10
14277.98245275008
 20
-2621.667040946404
 30
0.0
 11
14278.35495275008
 21
-2614.327040946404
 31
0.0
  0
LINE
  5
228
330
25
100
AcDbEntity
  8
1
  6
Continuous
 62
     0
100
AcDbLine
 10
14277.98245275008
 20
-2621.667040946404
 30
0.0
 11
14277.98245275008
 21
-2624.667040946404
 31
0.0
  0
LINE
  5
227
330
25
100
AcDbEntity
  8
1
  6
Continuous
 62
     0
100
AcDbLine
 10
14299.68245275008
 20
-2624.667040946404
 30
0.0
 11
14277.98245275008
 21
-2624.667040946404
 31
0.0
  0
LINE
  5
226
330
25
100
AcDbEntity
  8
1
  6
Continuous
 62
     0
100
AcDbLine
 10
14277.98245275008
 20
-2621.667040946404
 30
0.0
 11
14299.68245275008
 21
-2621.667040946404
 31
0.0
  0
LINE
  5
225
330
25
100
AcDbEntity
  8
1
  6
Continuous
 62
     0
100
AcDbLine
 10
14299.68245275008
 20
-2621.667040946404
 30
0.0
 11
14299.68245275008
 21
-2624.667040946404
 31
0.0
  0
LINE
  5
224
330
25
100
AcDbEntity
  8
1
  6
Continuous
 62
     0
100
AcDbLine
 10
14276.33245275008
 20
-2632.007040946403
 30
0.0
 11
14301.33245275008
 21
-2632.007040946404
 31
0.0
  0
LINE
  5
221
330
25
100
AcDbEntity
  8
1
  6
DOTTED
 62
     0
100
AcDbLine
 10
14275.63245275008
 20
-2605.202069319674
 30
0.0
 11
14275.63245275008
 21
-2604.231194309123
 31
0.0
  0
LINE
  5
220
330
25
100
AcDbEntity
  8
1
  6
DOTTED
 62
     0
100
AcDbLine
 10
14302.03245275008
 20
-2605.202069319674
 30
0.0
 11
14302.03245275008
 21
-2604.231194309123
 31
0.0
  0
LINE
  5
21F
330
25
100
AcDbEntity
  8
1
  6
Continuous
 62
     0
100
AcDbLine
 10
14275.63245275008
 20
-2614.327040946404
 30
0.0
 11
14275.63245275008
 21
-2605.202069319674
 31
0.0
  0
LINE
  5
21E
330
25
100
AcDbEntity
  8
1
  6
Continuous
 62
     0
100
AcDbLine
 10
14302.03245275008
 20
-2614.327040946404
 30
0.0
 11
14302.03245275008
 21
-2605.202069319674
 31
0.0
  0
LINE
  5
21D
330
25
100
AcDbEntity
  8
1
  6
Continuous
 62
     0
100
AcDbLine
 10
14275.63245275008
 20
-2614.327040946404
 30
0.0
 11
14302.03245275008
 21
-2614.327040946404
 31
0.0
  0
LINE
  5
21C
330
25
100
AcDbEntity
  8
1
  6
Continuous
 62
     0
100
AcDbLine
 10
14828.76065598035
 20
-2252.641591447169
 30
0.0
 11
14829.83245275008
 21
-2250.785184986618
 31
0.0
  0
LINE
  5
21B
330
25
100
AcDbEntity
  8
1
  6
Continuous
 62
     0
100
AcDbLine
 10
14829.83245275008
 20
-2226.785184986618
 30
0.0
 11
14828.76065598035
 21
-2224.928778526068
 31
0.0
  0
LINE
  5
21A
330
25
100
AcDbEntity
  8
1
  6
Continuous
 62
     0
100
AcDbLine
 10
14828.76065598035
 20
-2224.928778526068
 30
0.0
 11
14819.83245275008
 21
-2224.928778526068
 31
0.0
  0
LINE
  5
219
330
25
100
AcDbEntity
  8
1
  6
Continuous
 62
     0
100
AcDbLine
 10
14829.83245275008
 20
-2250.785184986618
 30
0.0
 11
14829.83245275008
 21
-2226.785184986618
 31
0.0
  0
LINE
  5
218
330
25
100
AcDbEntity
  8
1
  6
Continuous
 62
     0
100
AcDbLine
 10
14819.83245275008
 20
-2252.641591447169
 30
0.0
 11
14828.76065598035
 21
-2252.641591447169
 31
0.0
  0
LINE
  5
217
330
25
100
AcDbEntity
  8
1
  6
Continuous
 62
     0
100
AcDbLine
 10
14828.76065598035
 20
-2231.856981756343
 30
0.0
 11
14819.83245275008
 21
-2231.856981756343
 31
0.0
  0
LINE
  5
216
330
25
100
AcDbEntity
  8
1
  6
Continuous
 62
     0
100
AcDbLine
 10
14828.76065598035
 20
-2245.713388216894
 30
0.0
 11
14819.83245275008
 21
-2245.713388216894
 31
0.0
  0
LINE
  5
215
330
25
100
AcDbEntity
  8
1
  6
Continuous
 62
     0
100
AcDbLine
 10
14819.83245275008
 20
-2224.785184986618
 30
0.0
 11
14815.83245275008
 21
-2224.785184986618
 31
0.0
  0
LINE
  5
214
330
25
100
AcDbEntity
  8
1
  6
Continuous
 62
     0
100
AcDbLine
 10
14819.83245275008
 20
-2252.785184986618
 30
0.0
 11
14819.83245275008
 21
-2224.785184986618
 31
0.0
  0
LINE
  5
213
330
25
100
AcDbEntity
  8
1
  6
Continuous
 62
     0
100
AcDbLine
 10
14815.83245275008
 20
-2252.785184986618
 30
0.0
 11
14819.83245275008
 21
-2252.785184986618
 31
0.0
  0
LINE
  5
212
330
25
100
AcDbEntity
  8
1
  6
Continuous
 62
     0
100
AcDbLine
 10
14815.83245275008
 20
-2236.708994510428
 30
0.0
 11
14819.83245275008
 21
-2237.851851653285
 31
0.0
  0
LINE
  5
211
330
25
100
AcDbEntity
  8
1
  6
Continuous
 62
     0
100
AcDbLine
 10
14815.83245275008
 20
-2239.718518319952
 30
0.0
 11
14819.83245275008
 21
-2240.861375462809
 31
0.0
  0
LINE
  5
210
330
25
100
AcDbEntity
  8
1
  6
Continuous
 62
     0
100
AcDbLine
 10
14815.83245275008
 20
-2223.785184986618
 30
0.0
 11
14812.83245275008
 21
-2223.785184986618
 31
0.0
  0
LINE
  5
20F
330
25
100
AcDbEntity
  8
1
  6
Continuous
 62
     0
100
AcDbLine
 10
14815.83245275008
 20
-2253.785184986618
 30
0.0
 11
14815.83245275008
 21
-2223.785184986618
 31
0.0
  0
LINE
  5
20E
330
25
100
AcDbEntity
  8
1
  6
Continuous
 62
     0
100
AcDbLine
 10
14812.83245275008
 20
-2253.785184986618
 30
0.0
 11
14815.83245275008
 21
-2253.785184986618
 31
0.0
  0
LINE
  5
20D
330
25
100
AcDbEntity
  8
1
  6
Continuous
 62
     0
100
AcDbLine
 10
14812.83245275008
 20
-2223.785184986618
 30
0.0
 11
14812.83245275008
 21
-2253.785184986618
 31
0.0
  0
LINE
  5
20A
330
25
100
AcDbEntity
  8
1
  6
Continuous
 62
     0
100
AcDbLine
 10
14812.83245275008
 20
-2189.960428727481
 30
0.0
 11
14812.83245275008
 21
-2219.960428727481
 31
0.0
  0
LINE
  5
209
330
25
100
AcDbEntity
  8
1
  6
Continuous
 62
     0
100
AcDbLine
 10
14812.83245275008
 20
-2219.960428727481
 30
0.0
 11
14815.83245275008
 21
-2219.960428727481
 31
0.0
  0
LINE
  5
208
330
25
100
AcDbEntity
  8
1
  6
Continuous
 62
     0
100
AcDbLine
 10
14815.83245275008
 20
-2219.960428727481
 30
0.0
 11
14815.83245275008
 21
-2189.960428727481
 31
0.0
  0
LINE
  5
207
330
25
100
AcDbEntity
  8
1
  6
Continuous
 62
     0
100
AcDbLine
 10
14815.83245275008
 20
-2189.960428727481
 30
0.0
 11
14812.83245275008
 21
-2189.960428727481
 31
0.0
  0
LINE
  5
206
330
25
100
AcDbEntity
  8
1
  6
Continuous
 62
     0
100
AcDbLine
 10
14815.83245275008
 20
-2205.893762060814
 30
0.0
 11
14819.83245275008
 21
-2207.036619203672
 31
0.0
  0
LINE
  5
205
330
25
100
AcDbEntity
  8
1
  6
Continuous
 62
     0
100
AcDbLine
 10
14815.83245275008
 20
-2202.88423825129
 30
0.0
 11
14819.83245275008
 21
-2204.027095394148
 31
0.0
  0
LINE
  5
204
330
25
100
AcDbEntity
  8
1
  6
Continuous
 62
     0
100
AcDbLine
 10
14815.83245275008
 20
-2218.960428727481
 30
0.0
 11
14819.83245275008
 21
-2218.960428727481
 31
0.0
  0
LINE
  5
203
330
25
100
AcDbEntity
  8
1
  6
Continuous
 62
     0
100
AcDbLine
 10
14819.83245275008
 20
-2218.960428727481
 30
0.0
 11
14819.83245275008
 21
-2190.960428727481
 31
0.0
  0
LINE
  5
202
330
25
100
AcDbEntity
  8
1
  6
Continuous
 62
     0
100
AcDbLine
 10
14819.83245275008
 20
-2190.960428727481
 30
0.0
 11
14815.83245275008
 21
-2190.960428727481
 31
0.0
  0
LINE
  5
201
330
25
100
AcDbEntity
  8
1
  6
Continuous
 62
     0
100
AcDbLine
 10
14828.76065598035
 20
-2211.888631957757
 30
0.0
 11
14819.83245275008
 21
-2211.888631957757
 31
0.0
  0
LINE
  5
200
330
25
100
AcDbEntity
  8
1
  6
Continuous
 62
     0
100
AcDbLine
 10
14828.76065598035
 20
-2198.032225497205
 30
0.0
 11
14819.83245275008
 21
-2198.032225497205
 31
0.0
  0
LINE
  5
1FF
330
25
100
AcDbEntity
  8
1
  6
Continuous
 62
     0
100
AcDbLine
 10
14819.83245275008
 20
-2218.816835188032
 30
0.0
 11
14828.76065598035
 21
-2218.816835188032
 31
0.0
  0
LINE
  5
1FE
330
25
100
AcDbEntity
  8
1
  6
Continuous
 62
     0
100
AcDbLine
 10
14829.83245275008
 20
-2216.960428727481
 30
0.0
 11
14829.83245275008
 21
-2192.960428727481
 31
0.0
  0
LINE
  5
1FD
330
25
100
AcDbEntity
  8
1
  6
Continuous
 62
     0
100
AcDbLine
 10
14828.76065598035
 20
-2191.10402226693
 30
0.0
 11
14819.83245275008
 21
-2191.10402226693
 31
0.0
  0
LINE
  5
1FC
330
25
100
AcDbEntity
  8
1
  6
Continuous
 62
     0
100
AcDbLine
 10
14829.83245275008
 20
-2192.960428727481
 30
0.0
 11
14828.76065598035
 21
-2191.10402226693
 31
0.0
  0
LINE
  5
1FB
330
25
100
AcDbEntity
  8
1
  6
Continuous
 62
     0
100
AcDbLine
 10
14828.76065598035
 20
-2218.816835188032
 30
0.0
 11
14829.83245275008
 21
-2216.960428727481
 31
0.0
  0
LINE
  5
1FA
330
25
100
AcDbEntity
  8
1
  6
Continuous
 62
     0
100
AcDbLine
 10
14829.83245275008
 20
-2145.124999681844
 30
0.0
 11
14828.76065598035
 21
-2143.268593221293
 31
0.0
  0
LINE
  5
1F9
330
25
100
AcDbEntity
  8
1
  6
Continuous
 62
     0
100
AcDbLine
 10
14828.76065598035
 20
-2170.981406142396
 30
0.0
 11
14829.83245275008
 21
-2169.124999681844
 31
0.0
  0
LINE
  5
1F8
330
25
100
AcDbEntity
  8
1
  6
Continuous
 62
     0
100
AcDbLine
 10
14819.83245275008
 20
-2170.981406142396
 30
0.0
 11
14828.76065598035
 21
-2170.981406142396
 31
0.0
  0
LINE
  5
1F7
330
25
100
AcDbEntity
  8
1
  6
Continuous
 62
     0
100
AcDbLine
 10
14829.83245275008
 20
-2169.124999681844
 30
0.0
 11
14829.83245275008
 21
-2145.124999681844
 31
0.0
  0
LINE
  5
1F6
330
25
100
AcDbEntity
  8
1
  6
Continuous
 62
     0
100
AcDbLine
 10
14828.76065598035
 20
-2143.268593221293
 30
0.0
 11
14819.83245275008
 21
-2143.268593221293
 31
0.0
  0
LINE
  5
1F5
330
25
100
AcDbEntity
  8
1
  6
Continuous
 62
     0
100
AcDbLine
 10
14819.83245275008
 20
-2164.05320291212
 30
0.0
 11
14828.76065598035
 21
-2164.05320291212
 31
0.0
  0
LINE
  5
1F4
330
25
100
AcDbEntity
  8
1
  6
Continuous
 62
     0
100
AcDbLine
 10
14819.83245275008
 20
-2150.196796451569
 30
0.0
 11
14828.76065598035
 21
-2150.196796451569
 31
0.0
  0
LINE
  5
1F3
330
25
100
AcDbEntity
  8
1
  6
Continuous
 62
     0
100
AcDbLine
 10
14815.83245275008
 20
-2171.124999681844
 30
0.0
 11
14819.83245275008
 21
-2171.124999681844
 31
0.0
  0
LINE
  5
1F2
330
25
100
AcDbEntity
  8
1
  6
Continuous
 62
     0
100
AcDbLine
 10
14819.83245275008
 20
-2171.124999681844
 30
0.0
 11
14819.83245275008
 21
-2143.124999681844
 31
0.0
  0
LINE
  5
1F1
330
25
100
AcDbEntity
  8
1
  6
Continuous
 62
     0
100
AcDbLine
 10
14819.83245275008
 20
-2143.124999681844
 30
0.0
 11
14815.83245275008
 21
-2143.124999681844
 31
0.0
  0
LINE
  5
1F0
330
25
100
AcDbEntity
  8
1
  6
Continuous
 62
     0
100
AcDbLine
 10
14819.83245275008
 20
-2158.058333015178
 30
0.0
 11
14815.83245275008
 21
-2159.201190158035
 31
0.0
  0
LINE
  5
1EF
330
25
100
AcDbEntity
  8
1
  6
Continuous
 62
     0
100
AcDbLine
 10
14819.83245275008
 20
-2155.048809205654
 30
0.0
 11
14815.83245275008
 21
-2156.191666348512
 31
0.0
  0
LINE
  5
1EE
330
25
100
AcDbEntity
  8
1
  6
Continuous
 62
     0
100
AcDbLine
 10
14812.83245275008
 20
-2172.124999681844
 30
0.0
 11
14815.83245275008
 21
-2172.124999681844
 31
0.0
  0
LINE
  5
1ED
330
25
100
AcDbEntity
  8
1
  6
Continuous
 62
     0
100
AcDbLine
 10
14815.83245275008
 20
-2172.124999681844
 30
0.0
 11
14815.83245275008
 21
-2142.124999681844
 31
0.0
  0
LINE
  5
1EC
330
25
100
AcDbEntity
  8
1
  6
Continuous
 62
     0
100
AcDbLine
 10
14815.83245275008
 20
-2142.124999681844
 30
0.0
 11
14812.83245275008
 21
-2142.124999681844
 31
0.0
  0
LINE
  5
1EB
330
25
100
AcDbEntity
  8
1
  6
Continuous
 62
     0
100
AcDbLine
 10
14812.83245275008
 20
-2142.124999681844
 30
0.0
 11
14812.83245275008
 21
-2172.124999681844
 31
0.0
  0
LINE
  5
1E8
330
25
100
AcDbEntity
  8
1
  6
Continuous
 62
     0
100
AcDbLine
 10
14812.83245275008
 20
-2108.300243422707
 30
0.0
 11
14812.83245275008
 21
-2138.300243422707
 31
0.0
  0
LINE
  5
1E7
330
25
100
AcDbEntity
  8
1
  6
Continuous
 62
     0
100
AcDbLine
 10
14815.83245275008
 20
-2108.300243422707
 30
0.0
 11
14812.83245275008
 21
-2108.300243422707
 31
0.0
  0
LINE
  5
1E6
330
25
100
AcDbEntity
  8
1
  6
Continuous
 62
     0
100
AcDbLine
 10
14815.83245275008
 20
-2138.300243422707
 30
0.0
 11
14815.83245275008
 21
-2108.300243422707
 31
0.0
  0
LINE
  5
1E5
330
25
100
AcDbEntity
  8
1
  6
Continuous
 62
     0
100
AcDbLine
 10
14812.83245275008
 20
-2138.300243422707
 30
0.0
 11
14815.83245275008
 21
-2138.300243422707
 31
0.0
  0
LINE
  5
1E4
330
25
100
AcDbEntity
  8
1
  6
Continuous
 62
     0
100
AcDbLine
 10
14819.83245275008
 20
-2121.224052946517
 30
0.0
 11
14815.83245275008
 21
-2122.366910089374
 31
0.0
  0
LINE
  5
1E3
330
25
100
AcDbEntity
  8
1
  6
Continuous
 62
     0
100
AcDbLine
 10
14819.83245275008
 20
-2124.233576756041
 30
0.0
 11
14815.83245275008
 21
-2125.376433898898
 31
0.0
  0
LINE
  5
1E2
330
25
100
AcDbEntity
  8
1
  6
Continuous
 62
     0
100
AcDbLine
 10
14819.83245275008
 20
-2109.300243422707
 30
0.0
 11
14815.83245275008
 21
-2109.300243422707
 31
0.0
  0
LINE
  5
1E1
330
25
100
AcDbEntity
  8
1
  6
Continuous
 62
     0
100
AcDbLine
 10
14819.83245275008
 20
-2137.300243422707
 30
0.0
 11
14819.83245275008
 21
-2109.300243422707
 31
0.0
  0
LINE
  5
1E0
330
25
100
AcDbEntity
  8
1
  6
Continuous
 62
     0
100
AcDbLine
 10
14815.83245275008
 20
-2137.300243422707
 30
0.0
 11
14819.83245275008
 21
-2137.300243422707
 31
0.0
  0
LINE
  5
1DF
330
25
100
AcDbEntity
  8
1
  6
Continuous
 62
     0
100
AcDbLine
 10
14819.83245275008
 20
-2116.372040192432
 30
0.0
 11
14828.76065598035
 21
-2116.372040192432
 31
0.0
  0
LINE
  5
1DE
330
25
100
AcDbEntity
  8
1
  6
Continuous
 62
     0
100
AcDbLine
 10
14819.83245275008
 20
-2130.228446652983
 30
0.0
 11
14828.76065598035
 21
-2130.228446652983
 31
0.0
  0
LINE
  5
1DD
330
25
100
AcDbEntity
  8
1
  6
Continuous
 62
     0
100
AcDbLine
 10
14828.76065598035
 20
-2109.443836962157
 30
0.0
 11
14819.83245275008
 21
-2109.443836962157
 31
0.0
  0
LINE
  5
1DC
330
25
100
AcDbEntity
  8
1
  6
Continuous
 62
     0
100
AcDbLine
 10
14829.83245275008
 20
-2135.300243422707
 30
0.0
 11
14829.83245275008
 21
-2111.300243422707
 31
0.0
  0
LINE
  5
1DB
330
25
100
AcDbEntity
  8
1
  6
Continuous
 62
     0
100
AcDbLine
 10
14819.83245275008
 20
-2137.156649883258
 30
0.0
 11
14828.76065598035
 21
-2137.156649883258
 31
0.0
  0
LINE
  5
1DA
330
25
100
AcDbEntity
  8
1
  6
Continuous
 62
     0
100
AcDbLine
 10
14828.76065598035
 20
-2137.156649883258
 30
0.0
 11
14829.83245275008
 21
-2135.300243422707
 31
0.0
  0
LINE
  5
1D9
330
25
100
AcDbEntity
  8
1
  6
Continuous
 62
     0
100
AcDbLine
 10
14829.83245275008
 20
-2111.300243422707
 30
0.0
 11
14828.76065598035
 21
-2109.443836962157
 31
0.0
  0
LINE
  5
1D8
330
25
100
AcDbEntity
  8
1
  6
Continuous
 62
     0
100
AcDbLine
 10
14812.83245275008
 20
-2102.042714204663
 30
0.0
 11
14797.83245275008
 21
-2102.042714204663
 31
0.0
  0
LINE
  5
1D7
330
25
100
AcDbEntity
  8
1
  6
Continuous
 62
     0
100
AcDbLine
 10
14812.83245275008
 20
-2260.042714204663
 30
0.0
 11
14797.83245275008
 21
-2260.042714204663
 31
0.0
  0
LINE
  5
1D5
330
25
100
AcDbEntity
  8
1
  6
Continuous
 62
     0
100
AcDbLine
 10
14812.83245275008
 20
-2102.042714204663
 30
0.0
 11
14812.83245275008
 21
-2260.042714204663
 31
0.0
  0
LINE
  5
1D4
330
25
100
AcDbEntity
  8
1
  6
Continuous
 62
     0
100
AcDbLine
 10
14802.83245275008
 20
-2102.042714204663
 30
0.0
 11
14802.83245275008
 21
-2260.042714204663
 31
0.0
  0
LINE
  5
1D3
330
25
100
AcDbEntity
  8
1
  6
Continuous
 62
     0
100
AcDbLine
 10
13723.20762921534
 20
-869.541169672092
 30
0.0
 11
13716.09713525488
 21
-869.541169672092
 31
0.0
  0
LINE
  5
1D2
330
25
100
AcDbEntity
  8
1
  6
Continuous
 62
     0
100
AcDbLine
 10
13733.59245275008
 20
-904.042714204664
 30
0.0
 11
13733.59245275008
 21
-868.041169672092
 31
0.0
  0
LINE
  5
1D1
330
25
100
AcDbEntity
  8
1
  6
Continuous
 62
     0
100
AcDbLine
 10
13728.59245275008
 20
-938.544258737236
 30
0.0
 11
13728.59245275008
 21
-940.044258737236
 31
0.0
  0
LINE
  5
1D0
330
25
100
AcDbEntity
  8
1
  6
Continuous
 62
     0
100
AcDbLine
 10
13728.59245275008
 20
-869.541169672092
 30
0.0
 11
13728.59245275008
 21
-868.041169672092
 31
0.0
  0
LINE
  5
1CF
330
25
100
AcDbEntity
  8
1
  6
Continuous
 62
     0
100
AcDbLine
 10
13728.59245275008
 20
-938.544258737236
 30
0.0
 11
13728.59245275008
 21
-869.541169672092
 31
0.0
  0
LINE
  5
1CE
330
25
100
AcDbEntity
  8
1
  6
Continuous
 62
     0
100
AcDbLine
 10
13728.59245275008
 20
-868.041169672092
 30
0.0
 11
13733.59245275008
 21
-868.041169672092
 31
0.0
  0
LINE
  5
1CD
330
25
100
AcDbEntity
  8
1
  6
Continuous
 62
     0
100
AcDbLine
 10
13728.59245275008
 20
-940.044258737236
 30
0.0
 11
13733.59245275008
 21
-940.044258737236
 31
0.0
  0
LINE
  5
1CC
330
25
100
AcDbEntity
  8
1
  6
Continuous
 62
     0
100
AcDbLine
 10
13733.59245275008
 20
-940.044258737236
 30
0.0
 11
13733.59245275008
 21
-904.042714204664
 31
0.0
  0
LINE
  5
1CB
330
25
100
AcDbEntity
  8
1
  6
Continuous
 62
     0
100
AcDbLine
 10
13723.20762921534
 20
-938.544258737236
 30
0.0
 11
13706.63379296714
 21
-938.544258737236
 31
0.0
  0
LINE
  5
1CA
330
25
100
AcDbEntity
  8
1
  6
Continuous
 62
     0
100
AcDbLine
 10
13710.09713525488
 20
-856.542714204664
 30
0.0
 11
13710.09713525488
 21
-863.541169672092
 31
0.0
  0
LINE
  5
1C9
330
25
100
AcDbEntity
  8
1
  6
Continuous
 62
     0
100
AcDbLine
 10
13733.59245275008
 20
-874.235714204664
 30
0.0
 11
13744.71245275008
 21
-873.792714204664
 31
0.0
  0
LINE
  5
1C8
330
25
100
AcDbEntity
  8
1
  6
Continuous
 62
     0
100
AcDbLine
 10
13744.71245275008
 20
-934.292714204664
 30
0.0
 11
13733.59245275008
 21
-933.849714204664
 31
0.0
  0
LINE
  5
1C7
330
25
100
AcDbEntity
  8
1
  6
Continuous
 62
     0
100
AcDbLine
 10
13748.71245275008
 20
-873.792714204664
 30
0.0
 11
13759.83245275008
 21
-874.235714204664
 31
0.0
  0
LINE
  5
1C6
330
25
100
AcDbEntity
  8
1
  6
Continuous
 62
     0
100
AcDbLine
 10
13748.71245275008
 20
-934.292714204664
 30
0.0
 11
13759.83245275008
 21
-933.849714204664
 31
0.0
  0
LINE
  5
1C5
330
25
100
AcDbEntity
  8
1
  6
Continuous
 62
     0
100
AcDbLine
 10
13748.71245275008
 20
-873.792714204664
 30
0.0
 11
13744.71245275008
 21
-873.792714204664
 31
0.0
  0
LINE
  5
1C4
330
25
100
AcDbEntity
  8
1
  6
Continuous
 62
     0
100
AcDbLine
 10
13744.71245275008
 20
-934.292714204664
 30
0.0
 11
13748.71245275008
 21
-934.292714204664
 31
0.0
  0
LINE
  5
1C3
330
25
100
AcDbEntity
  8
1
  6
Continuous
 62
     0
100
AcDbLine
 10
13744.71245275008
 20
-934.292714204664
 30
0.0
 11
13744.71245275008
 21
-873.792714204664
 31
0.0
  0
LINE
  5
1C2
330
25
100
AcDbEntity
  8
1
  6
Continuous
 62
     0
100
AcDbLine
 10
13748.71245275008
 20
-873.792714204664
 30
0.0
 11
13748.71245275008
 21
-934.292714204664
 31
0.0
  0
LINE
  5
1C0
330
25
100
AcDbEntity
  8
1
  6
Continuous
 62
     0
100
AcDbLine
 10
13779.83245275008
 20
-870.892714204663
 30
0.0
 11
13759.83245275008
 21
-870.892714204663
 31
0.0
  0
LINE
  5
1BF
330
25
100
AcDbEntity
  8
1
  6
Continuous
 62
     0
100
AcDbLine
 10
13779.83245275008
 20
-937.192714204664
 30
0.0
 11
13759.83245275008
 21
-937.192714204664
 31
0.0
  0
LINE
  5
1BE
330
25
100
AcDbEntity
  8
1
  6
Continuous
 62
     0
100
AcDbLine
 10
13759.83245275008
 20
-937.192714204664
 30
0.0
 11
13759.83245275008
 21
-870.892714204663
 31
0.0
  0
LINE
  5
1BD
330
25
100
AcDbEntity
  8
1
  6
Continuous
 62
     0
100
AcDbLine
 10
14304.83245275008
 20
82.853959988561
 30
0.0
 11
14306.33245275008
 21
71.040012661976
 31
0.0
  0
LINE
  5
1BC
330
25
100
AcDbEntity
  8
1
  6
Continuous
 62
     0
100
AcDbLine
 10
14272.83245275008
 20
82.853959989195
 30
0.0
 11
14271.33245275008
 21
71.040012661341
 31
0.0
  0
LINE
  5
1BB
330
25
100
AcDbEntity
  8
1
  6
Continuous
 62
     0
100
AcDbLine
 10
14280.83245275008
 20
132.356973484865
 30
0.0
 11
14280.83245275008
 21
71.039950223267
 31
0.0
  0
LINE
  5
1BA
330
25
100
AcDbEntity
  8
1
  6
Continuous
 62
     0
100
AcDbLine
 10
14296.83245275008
 20
132.356973484865
 30
0.0
 11
14296.83245275008
 21
71.039950223267
 31
0.0
  0
LINE
  5
1B8
330
25
100
AcDbEntity
  8
1
  6
Continuous
 62
     0
100
AcDbLine
 10
14797.83245275008
 20
-2381.042714204664
 30
0.0
 11
13779.83245275008
 21
-2381.042714204664
 31
0.0
  0
LINE
  5
1B7
330
25
100
AcDbEntity
  8
1
  6
Continuous
 62
     0
100
AcDbLine
 10
13779.83245275008
 20
-128.042714204664
 30
0.0
 11
14797.83245275008
 21
-128.042714204664
 31
0.0
  0
LINE
  5
1B6
330
25
100
AcDbEntity
  8
1
  6
Continuous
 62
     0
100
AcDbLine
 10
13788.83245275008
 20
-2895.042714204664
 30
0.0
 11
14788.83245275008
 21
-2895.042714204664
 31
0.0
  0
LINE
  5
1B5
330
25
100
AcDbEntity
  8
1
  6
Continuous
 62
     0
100
AcDbLine
 10
14788.83245275008
 20
-2895.042714204664
 30
0.0
 11
14788.83245275008
 21
-2904.042714204664
 31
0.0
  0
LINE
  5
1B4
330
25
100
AcDbEntity
  8
1
  6
Continuous
 62
     0
100
AcDbLine
 10
14788.83245275008
 20
-2904.042714204664
 30
0.0
 11
13788.83245275008
 21
-2904.042714204664
 31
0.0
  0
LINE
  5
1B3
330
25
100
AcDbEntity
  8
1
  6
Continuous
 62
     0
100
AcDbLine
 10
13788.83245275008
 20
-2904.042714204664
 30
0.0
 11
13788.83245275008
 21
-2895.042714204664
 31
0.0
  0
LINE
  5
1B2
330
25
100
AcDbEntity
  8
1
  6
Continuous
 62
     0
100
AcDbLine
 10
13913.83245275008
 20
-2531.768928207453
 30
0.0
 11
14663.83245275008
 21
-2531.768928207453
 31
0.0
  0
LINE
  5
1B1
330
25
100
AcDbEntity
  8
1
  6
Continuous
 62
     0
100
AcDbLine
 10
14388.83245275008
 20
-2695.042714204664
 30
0.0
 11
14388.83245275008
 21
-2895.042714204664
 31
0.0
  0
LINE
  5
1B0
330
25
100
AcDbEntity
  8
1
  6
Continuous
 62
     0
100
AcDbLine
 10
14188.83245275008
 20
-2695.042714204664
 30
0.0
 11
14188.83245275008
 21
-2895.042714204664
 31
0.0
  0
LINE
  5
1AC
330
25
100
AcDbEntity
  8
1
  6
Continuous
 62
     0
100
AcDbLine
 10
13779.83245275008
 20
-128.042714204664
 30
0.0
 11
13779.83245275008
 21
-2098.592714204664
 31
0.0
  0
LINE
  5
1AB
330
25
100
AcDbEntity
  8
1
  6
Continuous
 62
     0
100
AcDbLine
 10
13779.83245275008
 20
-2381.042714204664
 30
0.0
 11
13779.83245275008
 21
-2098.592714204664
 31
0.0
  0
LINE
  5
1A8
330
25
100
AcDbEntity
  8
1
  6
Continuous
 62
     0
100
AcDbLine
 10
11127.45252961131
 20
81.114997750414
 30
0.0
 11
11152.17401348933
 21
86.595618778784
 31
0.0
  0
LINE
  5
1A7
330
25
100
AcDbEntity
  8
1
  6
Continuous
 62
     0
100
AcDbLine
 10
11159.06464923395
 20
75.123747188778
 30
0.0
 11
11156.06344643204
 21
84.95059586813
 31
0.0
  0
LINE
  5
1A6
330
25
100
AcDbEntity
  8
1
  6
Continuous
 62
     0
100
AcDbLine
 10
11123.5085491682
 20
77.73334890185
 30
0.0
 11
11124.94154140561
 21
67.558836310443
 31
0.0
  0
LINE
  5
1A5
330
25
100
AcDbEntity
  8
1
  6
Continuous
 62
     0
100
AcDbLine
 10
11124.94154140561
 20
67.558836310443
 30
0.0
 11
11124.98471950542
 21
67.252263735433
 31
0.0
  0
LINE
  5
1A4
330
25
100
AcDbEntity
  8
1
  6
Continuous
 62
     0
100
AcDbLine
 10
11138.82330542094
 20
85.684397086147
 30
0.0
 11
11125.4817972163
 21
80.981077063295
 31
0.0
  0
LINE
  5
1A3
330
25
100
AcDbEntity
  8
1
  6
Continuous
 62
     0
100
AcDbLine
 10
11159.15507975462
 20
74.827650223266
 30
0.0
 11
11159.06464923395
 21
75.123747188778
 31
0.0
  0
LINE
  5
1A2
330
25
100
AcDbEntity
  8
1
  6
Continuous
 62
     0
100
AcDbLine
 10
11152.9025271301
 20
87.060106530957
 30
0.0
 11
11138.82330542094
 21
85.684397086147
 31
0.0
  0
LINE
  5
1A1
330
25
100
AcDbEntity
  8
1
  6
Continuous
 62
     0
100
AcDbLine
 10
11124.98471950542
 20
67.252263735433
 30
0.0
 11
11159.15507975462
 21
74.827650223266
 31
0.0
  0
LINE
  5
1A0
330
25
100
AcDbEntity
  8
1
  6
Continuous
 62
     0
100
AcDbLine
 10
11561.75986043251
 20
74.827650223266
 30
0.0
 11
11595.93022068171
 21
67.252263735433
 31
0.0
  0
LINE
  5
19F
330
25
100
AcDbEntity
  8
1
  6
Continuous
 62
     0
100
AcDbLine
 10
11582.09163476618
 20
85.684397086147
 30
0.0
 11
11568.01241305703
 21
87.060106530957
 31
0.0
  0
LINE
  5
19E
330
25
100
AcDbEntity
  8
1
  6
Continuous
 62
     0
100
AcDbLine
 10
11561.85029095317
 20
75.123747188778
 30
0.0
 11
11561.75986043251
 21
74.827650223266
 31
0.0
  0
LINE
  5
19D
330
25
100
AcDbEntity
  8
1
  6
Continuous
 62
     0
100
AcDbLine
 10
11595.43314297083
 20
80.981077063295
 30
0.0
 11
11582.09163476618
 21
85.684397086147
 31
0.0
  0
LINE
  5
19C
330
25
100
AcDbEntity
  8
1
  6
Continuous
 62
     0
100
AcDbLine
 10
11595.93022068171
 20
67.252263735433
 30
0.0
 11
11595.97339878152
 21
67.558836310443
 31
0.0
  0
LINE
  5
19B
330
25
100
AcDbEntity
  8
1
  6
Continuous
 62
     0
100
AcDbLine
 10
11595.97339878152
 20
67.558836310443
 30
0.0
 11
11597.40639101892
 21
77.73334890185
 31
0.0
  0
LINE
  5
19A
330
25
100
AcDbEntity
  8
1
  6
Continuous
 62
     0
100
AcDbLine
 10
11564.85149375508
 20
84.95059586813
 30
0.0
 11
11561.85029095317
 21
75.123747188778
 31
0.0
  0
LINE
  5
199
330
25
100
AcDbEntity
  8
1
  6
Continuous
 62
     0
100
AcDbLine
 10
11568.74092669779
 20
86.595618778784
 30
0.0
 11
11593.46241057582
 21
81.114997750414
 31
0.0
  0
LINE
  5
192
330
25
100
AcDbEntity
  8
1
  6
Continuous
 62
     0
100
AcDbLine
 10
10851.45747009356
 20
-2381.042714204664
 30
0.0
 11
10851.45747009356
 21
-2098.592714204664
 31
0.0
  0
LINE
  5
191
330
25
100
AcDbEntity
  8
1
  6
Continuous
 62
     0
100
AcDbLine
 10
10851.45747009356
 20
-128.042714204664
 30
0.0
 11
10851.45747009356
 21
-2009.492714204664
 31
0.0
  0
LINE
  5
190
330
25
100
AcDbEntity
  8
1
  6
Continuous
 62
     0
100
AcDbLine
 10
11869.45747009356
 20
-2381.042714204664
 30
0.0
 11
11869.45747009356
 21
-948.592714204663
 31
0.0
  0
LINE
  5
18F
330
25
100
AcDbEntity
  8
1
  6
Continuous
 62
     0
100
AcDbLine
 10
11869.45747009356
 20
-128.042714204664
 30
0.0
 11
11869.45747009356
 21
-859.492714204663
 31
0.0
  0
LINE
  5
18D
330
25
100
AcDbEntity
  8
1
  6
Continuous
 62
     0
100
AcDbLine
 10
11337.45747009356
 20
-640.942714204663
 30
0.0
 11
11337.45747009356
 21
-683.365363935473
 31
0.0
  0
LINE
  5
18C
330
25
100
AcDbEntity
  8
1
  6
Continuous
 62
     0
100
AcDbLine
 10
11339.45747009356
 20
-640.942714204663
 30
0.0
 11
11339.45747009356
 21
-682.942714204663
 31
0.0
  0
LINE
  5
18B
330
25
100
AcDbEntity
  8
1
  6
Continuous
 62
     0
100
AcDbLine
 10
11352.12413676023
 20
-640.942714204663
 30
0.0
 11
11352.12413676023
 21
-682.942714204663
 31
0.0
  0
LINE
  5
18A
330
25
100
AcDbEntity
  8
1
  6
Continuous
 62
     0
100
AcDbLine
 10
11354.12413676023
 20
-640.942714204663
 30
0.0
 11
11354.12413676023
 21
-682.942714204663
 31
0.0
  0
LINE
  5
189
330
25
100
AcDbEntity
  8
1
  6
Continuous
 62
     0
100
AcDbLine
 10
11366.7908034269
 20
-640.942714204663
 30
0.0
 11
11366.7908034269
 21
-682.942714204663
 31
0.0
  0
LINE
  5
188
330
25
100
AcDbEntity
  8
1
  6
Continuous
 62
     0
100
AcDbLine
 10
11368.7908034269
 20
-640.942714204663
 30
0.0
 11
11368.7908034269
 21
-682.942714204663
 31
0.0
  0
LINE
  5
187
330
25
100
AcDbEntity
  8
1
  6
Continuous
 62
     0
100
AcDbLine
 10
11381.45747009356
 20
-640.942714204663
 30
0.0
 11
11381.45747009356
 21
-682.942714204663
 31
0.0
  0
LINE
  5
186
330
25
100
AcDbEntity
  8
1
  6
Continuous
 62
     0
100
AcDbLine
 10
11383.45747009356
 20
-640.942714204663
 30
0.0
 11
11383.45747009356
 21
-683.365363935473
 31
0.0
  0
LINE
  5
185
330
25
100
AcDbEntity
  8
1
  6
Continuous
 62
     0
100
AcDbLine
 10
11316.70747009356
 20
-799.442714204663
 30
0.0
 11
11316.70747009356
 21
-802.942714204663
 31
0.0
  0
LINE
  5
184
330
25
100
AcDbEntity
  8
1
  6
Continuous
 62
     0
100
AcDbLine
 10
11404.20747009356
 20
-799.442714204663
 30
0.0
 11
11404.20747009356
 21
-802.942714204663
 31
0.0
  0
LINE
  5
183
330
25
100
AcDbEntity
  8
1
  6
Continuous
 62
     0
100
AcDbLine
 10
11322.50986313732
 20
-822.555962858714
 30
0.0
 11
11327.50986313732
 21
-825.442714204663
 31
0.0
  0
LINE
  5
182
330
25
100
AcDbEntity
  8
1
  6
Continuous
 62
     0
100
AcDbLine
 10
11398.75986313732
 20
-822.555962858714
 30
0.0
 11
11393.75986313732
 21
-825.442714204663
 31
0.0
  0
LINE
  5
181
330
25
100
AcDbEntity
  8
1
  6
Continuous
 62
     0
100
AcDbLine
 10
11327.50986313732
 20
-825.442714204663
 30
0.0
 11
11393.75986313732
 21
-825.442714204663
 31
0.0
  0
LINE
  5
180
330
25
100
AcDbEntity
  8
1
  6
Continuous
 62
     0
100
AcDbLine
 10
11386.88486313732
 20
-825.442714204663
 30
0.0
 11
11334.38486313732
 21
-825.442714204663
 31
0.0
  0
LINE
  5
17F
330
25
100
AcDbEntity
  8
1
  6
Continuous
 62
     0
100
AcDbLine
 10
11415.45747009356
 20
-735.083959212634
 30
0.0
 11
11415.45747009356
 21
-792.442714204663
 31
0.0
  0
LINE
  5
17E
330
25
100
AcDbEntity
  8
1
  6
Continuous
 62
     0
100
AcDbLine
 10
11341.39497009356
 20
-822.555962858714
 30
0.0
 11
11341.39497009356
 21
-806.692714204663
 31
0.0
  0
LINE
  5
17D
330
25
100
AcDbEntity
  8
1
  6
Continuous
 62
     0
100
AcDbLine
 10
11379.51997009356
 20
-822.555962858714
 30
0.0
 11
11379.51997009356
 21
-806.692714204663
 31
0.0
  0
LINE
  5
17C
330
25
100
AcDbEntity
  8
1
  6
Continuous
 62
     0
100
AcDbLine
 10
11322.33247009356
 20
-822.555962858714
 30
0.0
 11
11327.33247009356
 21
-825.442714204663
 31
0.0
  0
LINE
  5
17B
330
25
100
AcDbEntity
  8
1
  6
Continuous
 62
     0
100
AcDbLine
 10
11398.58247009356
 20
-822.555962858714
 30
0.0
 11
11393.58247009356
 21
-825.442714204663
 31
0.0
  0
LINE
  5
17A
330
25
100
AcDbEntity
  8
1
  6
Continuous
 62
     0
100
AcDbLine
 10
11398.58247009356
 20
-822.555962858714
 30
0.0
 11
11398.58247009356
 21
-806.692714204663
 31
0.0
  0
LINE
  5
179
330
25
100
AcDbEntity
  8
1
  6
Continuous
 62
     0
100
AcDbLine
 10
11327.33247009356
 20
-825.442714204663
 30
0.0
 11
11393.58247009356
 21
-825.442714204663
 31
0.0
  0
LINE
  5
178
330
25
100
AcDbEntity
  8
1
  6
Continuous
 62
     0
100
AcDbLine
 10
11404.20747009356
 20
-799.442714204663
 30
0.0
 11
11313.45747009356
 21
-799.442714204663
 31
0.0
  0
LINE
  5
177
330
25
100
AcDbEntity
  8
1
  6
Continuous
 62
     0
100
AcDbLine
 10
11400.45747009356
 20
-806.692714204663
 30
0.0
 11
11320.45747009356
 21
-806.692714204663
 31
0.0
  0
LINE
  5
176
330
25
100
AcDbEntity
  8
1
  6
Continuous
 62
     0
100
AcDbLine
 10
11322.33247009356
 20
-806.692714204663
 30
0.0
 11
11322.33247009356
 21
-822.555962858714
 31
0.0
  0
LINE
  5
175
330
25
100
AcDbEntity
  8
1
  6
Continuous
 62
     0
100
AcDbLine
 10
11398.58247009356
 20
-806.692714204663
 30
0.0
 11
11322.33247009356
 21
-806.692714204663
 31
0.0
  0
LINE
  5
174
330
25
100
AcDbEntity
  8
1
  6
Continuous
 62
     0
100
AcDbLine
 10
11404.20747009356
 20
-799.442714204663
 30
0.0
 11
11316.70747009356
 21
-799.442714204663
 31
0.0
  0
LINE
  5
173
330
25
100
AcDbEntity
  8
1
  6
Continuous
 62
     0
100
AcDbLine
 10
11386.70747009356
 20
-825.442714204663
 30
0.0
 11
11334.20747009356
 21
-825.442714204663
 31
0.0
  0
LINE
  5
172
330
25
100
AcDbEntity
  8
1
  6
Continuous
 62
     0
100
AcDbLine
 10
11394.95747009356
 20
-728.942714204663
 30
0.0
 11
11403.45747009356
 21
-728.942714204663
 31
0.0
  0
LINE
  5
171
330
25
100
AcDbEntity
  8
1
  6
Continuous
 62
     0
100
AcDbLine
 10
11408.45747009356
 20
-733.942714204663
 30
0.0
 11
11408.45747009356
 21
-734.942714204663
 31
0.0
  0
LINE
  5
170
330
25
100
AcDbEntity
  8
1
  6
Continuous
 62
     0
100
AcDbLine
 10
11409.45747009356
 20
-735.942714204663
 30
0.0
 11
11414.45747009356
 21
-735.942714204663
 31
0.0
  0
LINE
  5
16F
330
25
100
AcDbEntity
  8
1
  6
Continuous
 62
     0
100
AcDbLine
 10
11415.45747009356
 20
-734.442714204663
 30
0.0
 11
11415.45747009356
 21
-734.942714204663
 31
0.0
  0
LINE
  5
16E
330
25
100
AcDbEntity
  8
1
  6
Continuous
 62
     0
100
AcDbLine
 10
11420.45747009356
 20
-734.442714204663
 30
0.0
 11
11415.45747009356
 21
-734.442714204663
 31
0.0
  0
LINE
  5
16D
330
25
100
AcDbEntity
  8
1
  6
Continuous
 62
     0
100
AcDbLine
 10
11420.45747009356
 20
-792.442714204663
 30
0.0
 11
11420.45747009356
 21
-734.442714204663
 31
0.0
  0
LINE
  5
16C
330
25
100
AcDbEntity
  8
1
  6
Continuous
 62
     0
100
AcDbLine
 10
11415.45747009356
 20
-792.442714204663
 30
0.0
 11
11420.45747009356
 21
-792.442714204663
 31
0.0
  0
LINE
  5
16B
330
25
100
AcDbEntity
  8
1
  6
Continuous
 62
     0
100
AcDbLine
 10
11415.45747009356
 20
-792.442714204663
 30
0.0
 11
11415.45747009356
 21
-791.942714204663
 31
0.0
  0
LINE
  5
16A
330
25
100
AcDbEntity
  8
1
  6
Continuous
 62
     0
100
AcDbLine
 10
11409.45747009356
 20
-790.942714204663
 30
0.0
 11
11414.45747009356
 21
-790.942714204663
 31
0.0
  0
LINE
  5
169
330
25
100
AcDbEntity
  8
1
  6
Continuous
 62
     0
100
AcDbLine
 10
11408.45747009356
 20
-792.442714204663
 30
0.0
 11
11408.45747009356
 21
-791.942714204663
 31
0.0
  0
LINE
  5
168
330
25
100
AcDbEntity
  8
1
  6
Continuous
 62
     0
100
AcDbLine
 10
11333.95747009356
 20
-728.942714204662
 30
0.0
 11
11325.45747009356
 21
-728.942714204662
 31
0.0
  0
LINE
  5
167
330
25
100
AcDbEntity
  8
1
  6
Continuous
 62
     0
100
AcDbLine
 10
11382.45747009356
 20
-683.942714204663
 30
0.0
 11
11338.45747009356
 21
-683.942714204663
 31
0.0
  0
LINE
  5
166
330
25
100
AcDbEntity
  8
1
  6
Continuous
 62
     0
100
AcDbLine
 10
11382.45747009356
 20
-639.942714204663
 30
0.0
 11
11380.45747009356
 21
-639.942714204663
 31
0.0
  0
LINE
  5
165
330
25
100
AcDbEntity
  8
1
  6
Continuous
 62
     0
100
AcDbLine
 10
11380.45747009356
 20
-639.942714204663
 30
0.0
 11
11340.45747009356
 21
-639.942714204663
 31
0.0
  0
LINE
  5
164
330
25
100
AcDbEntity
  8
1
  6
Continuous
 62
     0
100
AcDbLine
 10
11338.45747009356
 20
-639.942714204663
 30
0.0
 11
11340.45747009356
 21
-639.942714204663
 31
0.0
  0
LINE
  5
163
330
25
100
AcDbEntity
  8
1
  6
Continuous
 62
     0
100
AcDbLine
 10
11383.45747009356
 20
-639.942714204663
 30
0.0
 11
11382.45747009356
 21
-639.942714204663
 31
0.0
  0
LINE
  5
162
330
25
100
AcDbEntity
  8
1
  6
Continuous
 62
     0
100
AcDbLine
 10
11337.45747009356
 20
-639.942714204663
 30
0.0
 11
11338.45747009356
 21
-639.942714204663
 31
0.0
  0
LINE
  5
161
330
25
100
AcDbEntity
  8
1
  6
Continuous
 62
     0
100
AcDbLine
 10
11385.45747009356
 20
-710.192714204662
 30
0.0
 11
11385.45747009356
 21
-641.942714204663
 31
0.0
  0
LINE
  5
160
330
25
100
AcDbEntity
  8
1
  6
Continuous
 62
     0
100
AcDbLine
 10
11335.45747009356
 20
-710.192714204662
 30
0.0
 11
11335.45747009356
 21
-641.942714204663
 31
0.0
  0
LINE
  5
15F
330
25
100
AcDbEntity
  8
1
  6
Continuous
 62
     0
100
AcDbLine
 10
11340.45747009356
 20
-635.942714204663
 30
0.0
 11
11340.45747009356
 21
-637.942714204663
 31
0.0
  0
LINE
  5
15E
330
25
100
AcDbEntity
  8
1
  6
Continuous
 62
     0
100
AcDbLine
 10
11341.45747009356
 20
-634.942714204663
 30
0.0
 11
11379.45747009356
 21
-634.942714204663
 31
0.0
  0
LINE
  5
15D
330
25
100
AcDbEntity
  8
1
  6
Continuous
 62
     0
100
AcDbLine
 10
11380.45747009356
 20
-635.942714204663
 30
0.0
 11
11380.45747009356
 21
-637.942714204663
 31
0.0
  0
LINE
  5
15C
330
25
100
AcDbEntity
  8
1
  6
Continuous
 62
     0
100
AcDbLine
 10
11351.20747009356
 20
-628.674765012232
 30
0.0
 11
11351.20747009356
 21
-634.942714204663
 31
0.0
  0
LINE
  5
15B
330
25
100
AcDbEntity
  8
1
  6
Continuous
 62
     0
100
AcDbLine
 10
11369.70747009356
 20
-628.674765012232
 30
0.0
 11
11369.70747009356
 21
-634.942714204663
 31
0.0
  0
LINE
  5
15A
330
25
100
AcDbEntity
  8
1
  6
Continuous
 62
     0
100
AcDbLine
 10
11345.45747009356
 20
-618.442714204663
 30
0.0
 11
11345.45747009356
 21
-626.942714204663
 31
0.0
  0
LINE
  5
159
330
25
100
AcDbEntity
  8
1
  6
Continuous
 62
     0
100
AcDbLine
 10
11375.45747009356
 20
-618.442714204663
 30
0.0
 11
11375.45747009356
 21
-626.953013079315
 31
0.0
  0
LINE
  5
158
330
25
100
AcDbEntity
  8
1
  6
Continuous
 62
     0
100
AcDbLine
 10
11344.95747009356
 20
-626.942714204663
 30
0.0
 11
11375.95747009356
 21
-626.942714204663
 31
0.0
  0
LINE
  5
157
330
25
100
AcDbEntity
  8
1
  6
Continuous
 62
     0
100
AcDbLine
 10
11341.95747009356
 20
-628.674765012232
 30
0.0
 11
11344.95747009356
 21
-626.942714204663
 31
0.0
  0
LINE
  5
156
330
25
100
AcDbEntity
  8
1
  6
Continuous
 62
     0
100
AcDbLine
 10
11341.95747009356
 20
-634.942714204663
 30
0.0
 11
11341.95747009356
 21
-628.674765012232
 31
0.0
  0
LINE
  5
155
330
25
100
AcDbEntity
  8
1
  6
Continuous
 62
     0
100
AcDbLine
 10
11378.95747009356
 20
-634.942714204663
 30
0.0
 11
11341.95747009356
 21
-634.942714204663
 31
0.0
  0
LINE
  5
154
330
25
100
AcDbEntity
  8
1
  6
Continuous
 62
     0
100
AcDbLine
 10
11378.95747009356
 20
-628.674765012232
 30
0.0
 11
11378.95747009356
 21
-634.942714204663
 31
0.0
  0
LINE
  5
153
330
25
100
AcDbEntity
  8
1
  6
Continuous
 62
     0
100
AcDbLine
 10
11375.95747009356
 20
-626.942714204663
 30
0.0
 11
11378.95747009356
 21
-628.674765012232
 31
0.0
  0
LINE
  5
151
330
25
100
AcDbEntity
  8
1
  6
Continuous
 62
     0
100
AcDbLine
 10
10747.45802647149
 20
-1333.691441063081
 30
0.0
 11
10730.38040147149
 21
-1333.691441063081
 31
0.0
  0
LINE
  5
14F
330
25
100
AcDbEntity
  8
1
  6
Continuous
 62
     0
100
AcDbLine
 10
10732.91921397149
 20
-1342.691441063081
 30
0.0
 11
10732.91921397149
 21
-1333.691441063081
 31
0.0
  0
LINE
  5
14E
330
25
100
AcDbEntity
  8
1
  6
Continuous
 62
     0
100
AcDbLine
 10
10744.91921397149
 20
-1342.691441063081
 30
0.0
 11
10732.91921397149
 21
-1342.691441063081
 31
0.0
  0
LINE
  5
14D
330
25
100
AcDbEntity
  8
1
  6
Continuous
 62
     0
100
AcDbLine
 10
10744.91921397149
 20
-1333.691441063081
 30
0.0
 11
10744.91921397149
 21
-1342.691441063081
 31
0.0
  0
LINE
  5
14C
330
25
100
AcDbEntity
  8
1
  6
Continuous
 62
     0
100
AcDbLine
 10
10747.25021397149
 20
-1327.041441063081
 30
0.0
 11
10747.45802647149
 21
-1333.691441063081
 31
0.0
  0
LINE
  5
14B
330
25
100
AcDbEntity
  8
1
  6
Continuous
 62
     0
100
AcDbLine
 10
10730.58821397149
 20
-1327.041441063081
 30
0.0
 11
10730.38040147149
 21
-1333.691441063081
 31
0.0
  0
LINE
  5
14A
330
25
100
AcDbEntity
  8
1
  6
Continuous
 62
     0
100
AcDbLine
 10
10740.84537780965
 20
-1231.189124777799
 30
0.0
 11
10738.91921397149
 21
-1230.031768781652
 31
0.0
  0
LINE
  5
149
330
25
100
AcDbEntity
  8
1
  6
Continuous
 62
     0
100
AcDbLine
 10
10738.91921397149
 20
-1230.031768781652
 30
0.0
 11
10740.88459558446
 21
-1231.121197599278
 31
0.0
  0
LINE
  5
148
330
25
100
AcDbEntity
  8
1
  6
Continuous
 62
     0
100
AcDbLine
 10
10736.95383235853
 20
-1231.121197599278
 30
0.0
 11
10738.91921397149
 21
-1230.031768781652
 31
0.0
  0
LINE
  5
147
330
25
100
AcDbEntity
  8
1
  6
Continuous
 62
     0
100
AcDbLine
 10
10738.91921397149
 20
-1230.031768781652
 30
0.0
 11
10736.99305013333
 21
-1231.189124777799
 31
0.0
  0
LINE
  5
145
330
25
100
AcDbEntity
  8
1
  6
Continuous
 62
     0
100
AcDbLine
 10
10738.91921397149
 20
-1230.031768781652
 30
0.0
 11
10738.87999619669
 21
-1227.784983967883
 31
0.0
  0
LINE
  5
144
330
25
100
AcDbEntity
  8
1
  6
Continuous
 62
     0
100
AcDbLine
 10
10738.9584317463
 20
-1227.784983967883
 30
0.0
 11
10738.91921397149
 21
-1230.031768781652
 31
0.0
  0
LINE
  5
141
330
25
100
AcDbEntity
  8
1
  6
Continuous
 62
     0
100
AcDbLine
 10
10737.60032295878
 20
-1220.755631282385
 30
0.0
 11
10717.73560159739
 21
-1238.427503322801
 31
0.0
  0
LINE
  5
140
330
25
100
AcDbEntity
  8
1
  6
Continuous
 62
     0
100
AcDbLine
 10
10735.55757003536
 20
-1218.712878358957
 30
0.0
 11
10717.53156708545
 21
-1238.223468810861
 31
0.0
  0
LINE
  5
13F
330
25
100
AcDbEntity
  8
1
  6
Continuous
 62
     0
100
AcDbLine
 10
10759.13921415064
 20
-1237.614804943951
 30
0.0
 11
10763.28062486767
 21
-1241.756215660983
 31
0.0
  0
LINE
  5
13E
330
25
100
AcDbEntity
  8
1
  6
Continuous
 62
     0
100
AcDbLine
 10
10718.52523269117
 20
-1237.433837717082
 30
0.0
 11
10714.38461217359
 21
-1241.574458234658
 31
0.0
  0
LINE
  5
13D
330
25
100
AcDbEntity
  8
1
  6
Continuous
 62
     0
100
AcDbLine
 10
10736.21921397149
 20
-1178.40585235963
 30
0.0
 11
10736.21921397149
 21
-1177.115440689178
 31
0.0
  0
LINE
  5
13C
330
25
100
AcDbEntity
  8
1
  6
Continuous
 62
     0
100
AcDbLine
 10
10736.21921397149
 20
-1177.115440689178
 30
0.0
 11
10741.61921397149
 21
-1177.115440689178
 31
0.0
  0
LINE
  5
13B
330
25
100
AcDbEntity
  8
1
  6
Continuous
 62
     0
100
AcDbLine
 10
10741.61921397149
 20
-1177.115440689178
 30
0.0
 11
10741.61921397149
 21
-1178.412013952509
 31
0.0
  0
LINE
  5
13A
330
25
100
AcDbEntity
  8
1
  6
Continuous
 62
     0
100
AcDbLine
 10
10705.38696933896
 20
-1239.871529264999
 30
0.0
 11
10702.68696933895
 21
-1235.194992084564
 31
0.0
  0
LINE
  5
139
330
25
100
AcDbEntity
  8
1
  6
Continuous
 62
     0
100
AcDbLine
 10
10775.1075870129
 20
-1235.169662809613
 30
0.0
 11
10772.4075870129
 21
-1239.846199990049
 31
0.0
  0
LINE
  5
138
330
25
100
AcDbEntity
  8
1
  6
Continuous
 62
     0
100
AcDbLine
 10
10705.38696933896
 20
-1239.871529264999
 30
0.0
 11
10706.52122809934
 21
-1239.21666466436
 31
0.0
  0
LINE
  5
137
330
25
100
AcDbEntity
  8
1
  6
Continuous
 62
     0
100
AcDbLine
 10
10775.1075870129
 20
-1235.169662809613
 30
0.0
 11
10773.98135668255
 21
-1234.519433425219
 31
0.0
  0
LINE
  5
136
330
25
100
AcDbEntity
  8
1
  6
Continuous
 62
     0
100
AcDbLine
 10
10702.68696933895
 20
-1235.194992084564
 30
0.0
 11
10703.81501575541
 21
-1234.543714182368
 31
0.0
  0
LINE
  5
135
330
25
100
AcDbEntity
  8
1
  6
Continuous
 62
     0
100
AcDbLine
 10
10772.4075870129
 20
-1239.846199990049
 30
0.0
 11
10771.28472162899
 21
-1239.197913358384
 31
0.0
  0
LINE
  5
132
330
25
100
AcDbEntity
  8
1
  6
Continuous
 62
     0
100
AcDbLine
 10
10729.91134264414
 20
-1257.393987346247
 30
0.0
 11
10731.91921397149
 21
-1257.393987346247
 31
0.0
  0
LINE
  5
131
330
25
100
AcDbEntity
  8
1
  6
Continuous
 62
     0
100
AcDbLine
 10
10729.91921397149
 20
-1255.362466937469
 30
0.0
 11
10729.91921397149
 21
-1257.393987346247
 31
0.0
  0
LINE
  5
130
330
25
100
AcDbEntity
  8
1
  6
Continuous
 62
     0
100
AcDbLine
 10
10747.91921397149
 20
-1255.362466937469
 30
0.0
 11
10747.91921397149
 21
-1257.393987346247
 31
0.0
  0
LINE
  5
12F
330
25
100
AcDbEntity
  8
1
  6
Continuous
 62
     0
100
AcDbLine
 10
10745.91921397149
 20
-1257.393987346247
 30
0.0
 11
10747.91921397149
 21
-1257.393987346247
 31
0.0
  0
LINE
  5
12E
330
25
100
AcDbEntity
  8
1
  6
Continuous
 62
     0
100
AcDbLine
 10
10731.91921397149
 20
-1257.393987346247
 30
0.0
 11
10731.91921397149
 21
-1269.393987346247
 31
0.0
  0
LINE
  5
12D
330
25
100
AcDbEntity
  8
1
  6
Continuous
 62
     0
100
AcDbLine
 10
10745.91921397149
 20
-1257.393987346247
 30
0.0
 11
10745.91921397149
 21
-1269.393987346247
 31
0.0
  0
LINE
  5
12C
330
25
100
AcDbEntity
  8
1
  6
Continuous
 62
     0
100
AcDbLine
 10
10747.61427647149
 20
-1269.393987346247
 30
0.0
 11
10747.56921397149
 21
-1270.835987346246
 31
0.0
  0
LINE
  5
12B
330
25
100
AcDbEntity
  8
1
  6
Continuous
 62
     0
100
AcDbLine
 10
10730.22415147149
 20
-1269.393987346247
 30
0.0
 11
10747.61427647149
 21
-1269.393987346247
 31
0.0
  0
LINE
  5
12A
330
25
100
AcDbEntity
  8
1
  6
Continuous
 62
     0
100
AcDbLine
 10
10730.22415147149
 20
-1269.393987346247
 30
0.0
 11
10730.26921397149
 21
-1270.835987346247
 31
0.0
  0
LINE
  5
129
330
25
100
AcDbEntity
  8
1
  6
Continuous
 62
     0
100
AcDbLine
 10
10730.38903897149
 20
-1274.670387346247
 30
0.0
 11
10738.91921397149
 21
-1274.670387346247
 31
0.0
  0
LINE
  5
128
330
25
100
AcDbEntity
  8
1
  6
Continuous
 62
     0
100
AcDbLine
 10
10731.32858897149
 20
-1277.343987346247
 30
0.0
 11
10738.91921397149
 21
-1277.343987346247
 31
0.0
  0
LINE
  5
127
330
25
100
AcDbEntity
  8
1
  6
Continuous
 62
     0
100
AcDbLine
 10
10747.25021397149
 20
-1281.043987346247
 30
0.0
 11
10747.44938897149
 21
-1274.670387346247
 31
0.0
  0
LINE
  5
126
330
25
100
AcDbEntity
  8
1
  6
Continuous
 62
     0
100
AcDbLine
 10
10746.39421397149
 20
-1281.043987346247
 30
0.0
 11
10746.50983897149
 21
-1277.343987346247
 31
0.0
  0
LINE
  5
125
330
25
100
AcDbEntity
  8
1
  6
Continuous
 62
     0
100
AcDbLine
 10
10731.44421397149
 20
-1281.043987346247
 30
0.0
 11
10731.32858897149
 21
-1277.343987346247
 31
0.0
  0
LINE
  5
124
330
25
100
AcDbEntity
  8
1
  6
Continuous
 62
     0
100
AcDbLine
 10
10730.58821397149
 20
-1281.043987346247
 30
0.0
 11
10730.38903897149
 21
-1274.670387346247
 31
0.0
  0
LINE
  5
123
330
25
100
AcDbEntity
  8
1
  6
Continuous
 62
     0
100
AcDbLine
 10
10731.32858897149
 20
-1277.343987346247
 30
0.0
 11
10730.38903897149
 21
-1274.670387346247
 31
0.0
  0
LINE
  5
122
330
25
100
AcDbEntity
  8
1
  6
Continuous
 62
     0
100
AcDbLine
 10
10730.38903897149
 20
-1274.670387346247
 30
0.0
 11
10730.26921397149
 21
-1270.835987346247
 31
0.0
  0
LINE
  5
121
330
25
100
AcDbEntity
  8
1
  6
Continuous
 62
     0
100
AcDbLine
 10
10747.44938897149
 20
-1274.670387346247
 30
0.0
 11
10747.56921397149
 21
-1270.835987346246
 31
0.0
  0
LINE
  5
120
330
25
100
AcDbEntity
  8
1
  6
Continuous
 62
     0
100
AcDbLine
 10
10747.44938897149
 20
-1274.670387346247
 30
0.0
 11
10746.50983897149
 21
-1277.343987346247
 31
0.0
  0
LINE
  5
11F
330
25
100
AcDbEntity
  8
1
  6
Continuous
 62
     0
100
AcDbLine
 10
10738.91921397149
 20
-1277.343987346247
 30
0.0
 11
10746.50983897149
 21
-1277.343987346247
 31
0.0
  0
LINE
  5
11E
330
25
100
AcDbEntity
  8
1
  6
Continuous
 62
     0
100
AcDbLine
 10
10738.91921397149
 20
-1274.670387346247
 30
0.0
 11
10747.44938897149
 21
-1274.670387346247
 31
0.0
  0
LINE
  5
11D
330
25
100
AcDbEntity
  8
1
  6
Continuous
 62
     0
100
AcDbLine
 10
10851.45747009356
 20
-1293.392714204664
 30
0.0
 11
10836.45747009356
 21
-1293.392714204664
 31
0.0
  0
LINE
  5
11C
330
25
100
AcDbEntity
  8
1
  6
Continuous
 62
     0
100
AcDbLine
 10
10851.45747009356
 20
-1314.692714204663
 30
0.0
 11
10836.45747009356
 21
-1314.692714204663
 31
0.0
  0
LINE
  5
11B
330
25
100
AcDbEntity
  8
1
  6
Continuous
 62
     0
100
AcDbLine
 10
10836.45747009356
 20
-1293.392714204664
 30
0.0
 11
10836.45747009356
 21
-1314.692714204663
 31
0.0
  0
LINE
  5
11A
330
25
100
AcDbEntity
  8
1
  6
Continuous
 62
     0
100
AcDbLine
 10
10777.21794082991
 20
-1312.373714204664
 30
0.0
 11
10770.81794082991
 21
-1312.692714204663
 31
0.0
  0
LINE
  5
119
330
25
100
AcDbEntity
  8
1
  6
Continuous
 62
     0
100
AcDbLine
 10
10761.91794082991
 20
-1295.711714204664
 30
0.0
 11
10768.31794082991
 21
-1295.392714204664
 31
0.0
  0
LINE
  5
118
330
25
100
AcDbEntity
  8
1
  6
Continuous
 62
     0
100
AcDbLine
 10
10768.31794082991
 20
-1312.692714204663
 30
0.0
 11
10761.91794082991
 21
-1312.373714204664
 31
0.0
  0
LINE
  5
117
330
25
100
AcDbEntity
  8
1
  6
Continuous
 62
     0
100
AcDbLine
 10
10770.81794082991
 20
-1295.392714204664
 30
0.0
 11
10777.21794082991
 21
-1295.711714204664
 31
0.0
  0
LINE
  5
116
330
25
100
AcDbEntity
  8
1
  6
Continuous
 62
     0
100
AcDbLine
 10
10770.81794082991
 20
-1295.392714204664
 30
0.0
 11
10768.31794082991
 21
-1295.392714204664
 31
0.0
  0
LINE
  5
115
330
25
100
AcDbEntity
  8
1
  6
Continuous
 62
     0
100
AcDbLine
 10
10768.31794082991
 20
-1312.692714204663
 30
0.0
 11
10770.81794082991
 21
-1312.692714204663
 31
0.0
  0
LINE
  5
114
330
25
100
AcDbEntity
  8
1
  6
Continuous
 62
     0
100
AcDbLine
 10
10770.81794082991
 20
-1312.692714204663
 30
0.0
 11
10770.81794082991
 21
-1295.392714204664
 31
0.0
  0
LINE
  5
113
330
25
100
AcDbEntity
  8
1
  6
Continuous
 62
     0
100
AcDbLine
 10
10768.31794082991
 20
-1295.392714204664
 30
0.0
 11
10768.31794082991
 21
-1312.692714204663
 31
0.0
  0
LINE
  5
112
330
25
100
AcDbEntity
  8
1
  6
Continuous
 62
     0
100
AcDbLine
 10
10827.55747009356
 20
-1295.392714204664
 30
0.0
 11
10827.55747009356
 21
-1312.692714204663
 31
0.0
  0
LINE
  5
111
330
25
100
AcDbEntity
  8
1
  6
Continuous
 62
     0
100
AcDbLine
 10
10830.05747009356
 20
-1312.692714204663
 30
0.0
 11
10830.05747009356
 21
-1295.392714204664
 31
0.0
  0
LINE
  5
110
330
25
100
AcDbEntity
  8
1
  6
Continuous
 62
     0
100
AcDbLine
 10
10827.55747009356
 20
-1312.692714204663
 30
0.0
 11
10830.05747009356
 21
-1312.692714204663
 31
0.0
  0
LINE
  5
10F
330
25
100
AcDbEntity
  8
1
  6
Continuous
 62
     0
100
AcDbLine
 10
10830.05747009356
 20
-1295.392714204664
 30
0.0
 11
10827.55747009356
 21
-1295.392714204664
 31
0.0
  0
LINE
  5
10E
330
25
100
AcDbEntity
  8
1
  6
Continuous
 62
     0
100
AcDbLine
 10
10830.05747009356
 20
-1295.392714204664
 30
0.0
 11
10836.45747009356
 21
-1295.711714204664
 31
0.0
  0
LINE
  5
10D
330
25
100
AcDbEntity
  8
1
  6
Continuous
 62
     0
100
AcDbLine
 10
10827.55747009356
 20
-1312.692714204663
 30
0.0
 11
10821.15747009356
 21
-1312.373714204664
 31
0.0
  0
LINE
  5
10C
330
25
100
AcDbEntity
  8
1
  6
Continuous
 62
     0
100
AcDbLine
 10
10821.15747009356
 20
-1295.711714204664
 30
0.0
 11
10827.55747009356
 21
-1295.392714204664
 31
0.0
  0
LINE
  5
10B
330
25
100
AcDbEntity
  8
1
  6
Continuous
 62
     0
100
AcDbLine
 10
10836.45747009356
 20
-1312.373714204664
 30
0.0
 11
10830.05747009356
 21
-1312.692714204663
 31
0.0
  0
LINE
  5
10A
330
25
100
AcDbEntity
  8
1
  6
Continuous
 62
     0
100
AcDbLine
 10
10813.70440448109
 20
-1298.480536378173
 30
0.0
 11
10811.76343342558
 21
-1298.480536378173
 31
0.0
  0
LINE
  5
109
330
25
100
AcDbEntity
  8
1
  6
Continuous
 62
     0
100
AcDbLine
 10
10813.70440448109
 20
-1309.604892031154
 30
0.0
 11
10807.46621481109
 21
-1309.604892031154
 31
0.0
  0
LINE
  5
108
330
25
100
AcDbEntity
  8
1
  6
Continuous
 62
     0
100
AcDbLine
 10
10784.46929935224
 20
-1298.480536378173
 30
0.0
 11
10790.90426993222
 21
-1298.480536378173
 31
0.0
  0
LINE
  5
107
330
25
100
AcDbEntity
  8
1
  6
Continuous
 62
     0
100
AcDbLine
 10
10784.46929935224
 20
-1309.604892031154
 30
0.0
 11
10790.90426993222
 21
-1309.604892031154
 31
0.0
  0
LINE
  5
106
330
25
100
AcDbEntity
  8
1
  6
Continuous
 62
     0
100
AcDbLine
 10
10807.71794082991
 20
-1295.542714204664
 30
0.0
 11
10810.21794082991
 21
-1295.542714204664
 31
0.0
  0
LINE
  5
105
330
25
100
AcDbEntity
  8
1
  6
Continuous
 62
     0
100
AcDbLine
 10
10807.71794082991
 20
-1298.707498308263
 30
0.0
 11
10807.71794082991
 21
-1295.542714204664
 31
0.0
  0
LINE
  5
104
330
25
100
AcDbEntity
  8
1
  6
Continuous
 62
     0
100
AcDbLine
 10
10813.85576300342
 20
-1297.980536378173
 30
0.0
 11
10820.2801186564
 21
-1297.980536378173
 31
0.0
  0
LINE
  5
103
330
25
100
AcDbEntity
  8
1
  6
Continuous
 62
     0
100
AcDbLine
 10
10813.85576300342
 20
-1310.104892031154
 30
0.0
 11
10820.2801186564
 21
-1310.104892031154
 31
0.0
  0
LINE
  5
102
330
25
100
AcDbEntity
  8
1
  6
Continuous
 62
     0
100
AcDbLine
 10
10784.31794082991
 20
-1316.167069857645
 30
0.0
 11
10778.15576300342
 21
-1316.167069857645
 31
0.0
  0
LINE
  5
101
330
25
100
AcDbEntity
  8
1
  6
Continuous
 62
     0
100
AcDbLine
 10
10812.91794082991
 20
-1314.542714204664
 30
0.0
 11
10785.25576300342
 21
-1314.542714204664
 31
0.0
  0
LINE
  5
100
330
25
100
AcDbEntity
  8
1
  6
Continuous
 62
     0
100
AcDbLine
 10
10784.31794082991
 20
-1291.918358551683
 30
0.0
 11
10778.15576300342
 21
-1291.918358551683
 31
0.0
  0
LINE
  5
FF
330
25
100
AcDbEntity
  8
1
  6
Continuous
 62
     0
100
AcDbLine
 10
10812.91794082991
 20
-1293.542714204664
 30
0.0
 11
10785.25576300342
 21
-1293.542714204664
 31
0.0
  0
LINE
  5
FE
330
25
100
AcDbEntity
  8
1
  6
Continuous
 62
     0
100
AcDbLine
 10
10784.31794082991
 20
-1291.918358551683
 30
0.0
 11
10785.25576300342
 21
-1293.542714204664
 31
0.0
  0
LINE
  5
FD
330
25
100
AcDbEntity
  8
1
  6
Continuous
 62
     0
100
AcDbLine
 10
10785.25576300342
 20
-1314.542714204664
 30
0.0
 11
10784.31794082991
 21
-1316.167069857645
 31
0.0
  0
LINE
  5
FC
330
25
100
AcDbEntity
  8
1
  6
Continuous
 62
     0
100
AcDbLine
 10
10813.85576300342
 20
-1316.167069857645
 30
0.0
 11
10812.91794082991
 21
-1314.542714204664
 31
0.0
  0
LINE
  5
FB
330
25
100
AcDbEntity
  8
1
  6
Continuous
 62
     0
100
AcDbLine
 10
10812.91794082991
 20
-1293.542714204664
 30
0.0
 11
10813.85576300342
 21
-1291.918358551683
 31
0.0
  0
LINE
  5
FA
330
25
100
AcDbEntity
  8
1
  6
Continuous
 62
     0
100
AcDbLine
 10
10796.98187285241
 20
-1306.042714204664
 30
0.0
 11
10801.45400880741
 21
-1306.042714204664
 31
0.0
  0
LINE
  5
F9
330
25
100
AcDbEntity
  8
1
  6
Continuous
 62
     0
100
AcDbLine
 10
10796.98187285241
 20
-1302.042714204664
 30
0.0
 11
10801.45400880741
 21
-1302.042714204664
 31
0.0
  0
LINE
  5
F8
330
25
100
AcDbEntity
  8
1
  6
Continuous
 62
     0
100
AcDbLine
 10
10805.46794082991
 20
-1304.042714204664
 30
0.0
 11
10807.71794082991
 21
-1304.042714204664
 31
0.0
  0
LINE
  5
F7
330
25
100
AcDbEntity
  8
1
  6
Continuous
 62
     0
100
AcDbLine
 10
10799.21794082991
 20
-1297.792714204664
 30
0.0
 11
10793.50179735308
 21
-1297.792714204664
 31
0.0
  0
LINE
  5
F6
330
25
100
AcDbEntity
  8
1
  6
Continuous
 62
     0
100
AcDbLine
 10
10799.21794082991
 20
-1298.269211512764
 30
0.0
 11
10794.21794082991
 21
-1301.155962858712
 31
0.0
  0
LINE
  5
F5
330
25
100
AcDbEntity
  8
1
  6
Continuous
 62
     0
100
AcDbLine
 10
10804.21794082991
 20
-1301.155962858712
 30
0.0
 11
10799.21794082991
 21
-1298.269211512764
 31
0.0
  0
LINE
  5
F4
330
25
100
AcDbEntity
  8
1
  6
Continuous
 62
     0
100
AcDbLine
 10
10804.21794082991
 20
-1306.929465550612
 30
0.0
 11
10804.21794082991
 21
-1301.155962858712
 31
0.0
  0
LINE
  5
F3
330
25
100
AcDbEntity
  8
1
  6
Continuous
 62
     0
100
AcDbLine
 10
10799.21794082991
 20
-1309.816216896564
 30
0.0
 11
10804.21794082991
 21
-1306.929465550612
 31
0.0
  0
LINE
  5
F2
330
25
100
AcDbEntity
  8
1
  6
Continuous
 62
     0
100
AcDbLine
 10
10794.21794082991
 20
-1306.929465550612
 30
0.0
 11
10799.21794082991
 21
-1309.816216896564
 31
0.0
  0
LINE
  5
F1
330
25
100
AcDbEntity
  8
1
  6
Continuous
 62
     0
100
AcDbLine
 10
10794.21794082991
 20
-1301.155962858712
 30
0.0
 11
10794.21794082991
 21
-1306.929465550612
 31
0.0
  0
LINE
  5
EE
330
25
100
AcDbEntity
  8
1
  6
Continuous
 62
     0
100
AcDbLine
 10
10779.21794082991
 20
-1308.392714204662
 30
0.0
 11
10788.49518465438
 21
-1308.392714204662
 31
0.0
  0
LINE
  5
ED
330
25
100
AcDbEntity
  8
1
  6
Continuous
 62
     0
100
AcDbLine
 10
10779.21794082991
 20
-1299.692714204662
 30
0.0
 11
10779.21794082991
 21
-1308.392714204662
 31
0.0
  0
LINE
  5
EC
330
25
100
AcDbEntity
  8
1
  6
Continuous
 62
     0
100
AcDbLine
 10
10779.21794082991
 20
-1299.692714204662
 30
0.0
 11
10788.49518465438
 21
-1299.692714204662
 31
0.0
  0
LINE
  5
EB
330
25
100
AcDbEntity
  8
1
  6
Continuous
 62
     0
100
AcDbLine
 10
10819.21794082991
 20
-1308.392714204662
 30
0.0
 11
10809.94069700545
 21
-1308.392714204662
 31
0.0
  0
LINE
  5
EA
330
25
100
AcDbEntity
  8
1
  6
Continuous
 62
     0
100
AcDbLine
 10
10819.21794082991
 20
-1299.692714204662
 30
0.0
 11
10819.21794082991
 21
-1308.392714204662
 31
0.0
  0
LINE
  5
E9
330
25
100
AcDbEntity
  8
1
  6
Continuous
 62
     0
100
AcDbLine
 10
10819.21794082991
 20
-1299.692714204662
 30
0.0
 11
10809.94069700545
 21
-1299.692714204662
 31
0.0
  0
LINE
  5
E8
330
25
100
AcDbEntity
  8
1
  6
Continuous
 62
     0
100
AcDbLine
 10
10820.2801186564
 20
-1291.918358551683
 30
0.0
 11
10813.85576300342
 21
-1291.918358551683
 31
0.0
  0
LINE
  5
E7
330
25
100
AcDbEntity
  8
1
  6
Continuous
 62
     0
100
AcDbLine
 10
10821.21794082991
 20
-1293.542714204664
 30
0.0
 11
10821.21794082991
 21
-1314.542714204664
 31
0.0
  0
LINE
  5
E6
330
25
100
AcDbEntity
  8
1
  6
Continuous
 62
     0
100
AcDbLine
 10
10820.2801186564
 20
-1316.167069857645
 30
0.0
 11
10813.85576300342
 21
-1316.167069857645
 31
0.0
  0
LINE
  5
E5
330
25
100
AcDbEntity
  8
1
  6
Continuous
 62
     0
100
AcDbLine
 10
10820.2801186564
 20
-1291.918358551683
 30
0.0
 11
10821.21794082991
 21
-1293.542714204664
 31
0.0
  0
LINE
  5
E4
330
25
100
AcDbEntity
  8
1
  6
Continuous
 62
     0
100
AcDbLine
 10
10821.21794082991
 20
-1314.542714204664
 30
0.0
 11
10820.2801186564
 21
-1316.167069857645
 31
0.0
  0
LINE
  5
E3
330
25
100
AcDbEntity
  8
1
  6
Continuous
 62
     0
100
AcDbLine
 10
10778.15576300342
 20
-1297.980536378173
 30
0.0
 11
10784.31794082991
 21
-1297.980536378173
 31
0.0
  0
LINE
  5
E2
330
25
100
AcDbEntity
  8
1
  6
Continuous
 62
     0
100
AcDbLine
 10
10778.15576300342
 20
-1310.104892031154
 30
0.0
 11
10784.31794082991
 21
-1310.104892031154
 31
0.0
  0
LINE
  5
E1
330
25
100
AcDbEntity
  8
1
  6
Continuous
 62
     0
100
AcDbLine
 10
10777.21794082991
 20
-1314.542714204664
 30
0.0
 11
10777.21794082991
 21
-1293.542714204664
 31
0.0
  0
LINE
  5
E0
330
25
100
AcDbEntity
  8
1
  6
Continuous
 62
     0
100
AcDbLine
 10
10777.21794082991
 20
-1293.542714204664
 30
0.0
 11
10778.15576300342
 21
-1291.918358551683
 31
0.0
  0
LINE
  5
DF
330
25
100
AcDbEntity
  8
1
  6
Continuous
 62
     0
100
AcDbLine
 10
10778.15576300342
 20
-1316.167069857645
 30
0.0
 11
10777.21794082991
 21
-1314.542714204664
 31
0.0
  0
LINE
  5
DE
330
25
100
AcDbEntity
  8
1
  6
Continuous
 62
     0
100
AcDbLine
 10
10750.41921397149
 20
-1327.041441063081
 30
0.0
 11
10738.91921397149
 21
-1327.041441063081
 31
0.0
  0
LINE
  5
DD
330
25
100
AcDbEntity
  8
1
  6
Continuous
 62
     0
100
AcDbLine
 10
10750.41921397149
 20
-1318.542714204664
 30
0.0
 11
10750.41921397149
 21
-1327.041441063081
 31
0.0
  0
LINE
  5
DC
330
25
100
AcDbEntity
  8
1
  6
Continuous
 62
     0
100
AcDbLine
 10
10753.41921397149
 20
-1315.542714204664
 30
0.0
 11
10761.91794082991
 21
-1315.542714204664
 31
0.0
  0
LINE
  5
DB
330
25
100
AcDbEntity
  8
1
  6
Continuous
 62
     0
100
AcDbLine
 10
10738.91921397149
 20
-1327.041441063081
 30
0.0
 11
10727.41921397149
 21
-1327.041441063081
 31
0.0
  0
LINE
  5
DA
330
25
100
AcDbEntity
  8
1
  6
Continuous
 62
     0
100
AcDbLine
 10
10761.91794082991
 20
-1304.042714204664
 30
0.0
 11
10761.91794082991
 21
-1315.542714204664
 31
0.0
  0
LINE
  5
D9
330
25
100
AcDbEntity
  8
1
  6
Continuous
 62
     0
100
AcDbLine
 10
10727.41921397149
 20
-1304.042714204664
 30
0.0
 11
10727.41921397149
 21
-1327.041441063081
 31
0.0
  0
LINE
  5
D8
330
25
100
AcDbEntity
  8
1
  6
Continuous
 62
     0
100
AcDbLine
 10
10727.41921397149
 20
-1281.043987346247
 30
0.0
 11
10727.41921397149
 21
-1304.042714204664
 31
0.0
  0
LINE
  5
D7
330
25
100
AcDbEntity
  8
1
  6
Continuous
 62
     0
100
AcDbLine
 10
10761.91794082991
 20
-1292.542714204664
 30
0.0
 11
10761.91794082991
 21
-1304.042714204664
 31
0.0
  0
LINE
  5
D6
330
25
100
AcDbEntity
  8
1
  6
Continuous
 62
     0
100
AcDbLine
 10
10727.41921397149
 20
-1281.043987346247
 30
0.0
 11
10738.91921397149
 21
-1281.043987346247
 31
0.0
  0
LINE
  5
D5
330
25
100
AcDbEntity
  8
1
  6
Continuous
 62
     0
100
AcDbLine
 10
10761.91794082991
 20
-1292.542714204664
 30
0.0
 11
10753.41921397149
 21
-1292.542714204664
 31
0.0
  0
LINE
  5
D4
330
25
100
AcDbEntity
  8
1
  6
Continuous
 62
     0
100
AcDbLine
 10
10750.41921397149
 20
-1281.043987346247
 30
0.0
 11
10750.41921397149
 21
-1289.542714204664
 31
0.0
  0
LINE
  5
D3
330
25
100
AcDbEntity
  8
1
  6
Continuous
 62
     0
100
AcDbLine
 10
10738.91921397149
 20
-1281.043987346247
 30
0.0
 11
10750.41921397149
 21
-1281.043987346247
 31
0.0
  0
LINE
  5
D1
330
25
100
AcDbEntity
  8
1
  6
Continuous
 62
     0
100
AcDbLine
 10
11951.45747009356
 20
-811.542714204664
 30
0.0
 11
11969.45747009356
 21
-811.542714204664
 31
0.0
  0
LINE
  5
D0
330
25
100
AcDbEntity
  8
1
  6
Continuous
 62
     0
100
AcDbLine
 10
11951.45747009356
 20
-996.542714204664
 30
0.0
 11
11951.45747009356
 21
-811.542714204664
 31
0.0
  0
LINE
  5
CF
330
25
100
AcDbEntity
  8
1
  6
Continuous
 62
     0
100
AcDbLine
 10
11969.45747009356
 20
-996.542714204664
 30
0.0
 11
11951.45747009356
 21
-996.542714204664
 31
0.0
  0
LINE
  5
CE
330
25
100
AcDbEntity
  8
1
  6
Continuous
 62
     0
100
AcDbLine
 10
11969.45747009356
 20
-811.542714204664
 30
0.0
 11
11969.45747009356
 21
-996.542714204664
 31
0.0
  0
LINE
  5
CD
330
25
100
AcDbEntity
  8
1
  6
Continuous
 62
     0
100
AcDbLine
 10
11869.45747009356
 20
-859.492714204663
 30
0.0
 11
11951.45747009356
 21
-859.492714204663
 31
0.0
  0
LINE
  5
CC
330
25
100
AcDbEntity
  8
1
  6
Continuous
 62
     0
100
AcDbLine
 10
11869.45747009356
 20
-948.592714204663
 30
0.0
 11
11951.45747009356
 21
-948.592714204663
 31
0.0
  0
LINE
  5
CB
330
25
100
AcDbEntity
  8
1
  6
Continuous
 62
     0
100
AcDbLine
 10
10769.45747009356
 20
-2098.592714204664
 30
0.0
 11
10851.45747009356
 21
-2098.592714204664
 31
0.0
  0
LINE
  5
CA
330
25
100
AcDbEntity
  8
1
  6
Continuous
 62
     0
100
AcDbLine
 10
10769.45747009356
 20
-2009.492714204664
 30
0.0
 11
10851.45747009356
 21
-2009.492714204664
 31
0.0
  0
LINE
  5
C9
330
25
100
AcDbEntity
  8
1
  6
Continuous
 62
     0
100
AcDbLine
 10
10751.45747009356
 20
-2146.542714204664
 30
0.0
 11
10751.45747009356
 21
-1961.542714204664
 31
0.0
  0
LINE
  5
C8
330
25
100
AcDbEntity
  8
1
  6
Continuous
 62
     0
100
AcDbLine
 10
10769.45747009356
 20
-2146.542714204664
 30
0.0
 11
10751.45747009356
 21
-2146.542714204664
 31
0.0
  0
LINE
  5
C7
330
25
100
AcDbEntity
  8
1
  6
Continuous
 62
     0
100
AcDbLine
 10
10769.45747009356
 20
-1961.542714204664
 30
0.0
 11
10769.45747009356
 21
-2146.542714204664
 31
0.0
  0
LINE
  5
C6
330
25
100
AcDbEntity
  8
1
  6
Continuous
 62
     0
100
AcDbLine
 10
10751.45747009356
 20
-1961.542714204664
 30
0.0
 11
10769.45747009356
 21
-1961.542714204664
 31
0.0
  0
LINE
  5
C3
330
25
100
AcDbEntity
  8
1
  6
Continuous
 62
     0
100
AcDbLine
 10
11260.45747009356
 20
-2695.042714204664
 30
0.0
 11
11260.45747009356
 21
-2895.042714204664
 31
0.0
  0
LINE
  5
C2
330
25
100
AcDbEntity
  8
1
  6
Continuous
 62
     0
100
AcDbLine
 10
11460.45747009356
 20
-2695.042714204664
 30
0.0
 11
11460.45747009356
 21
-2895.042714204664
 31
0.0
  0
LINE
  5
C1
330
25
100
AcDbEntity
  8
1
  6
Continuous
 62
     0
100
AcDbLine
 10
11372.95747009356
 20
-2650.222714204662
 30
0.0
 11
11374.55747009356
 21
-2650.222714204662
 31
0.0
  0
LINE
  5
C0
330
25
100
AcDbEntity
  8
1
  6
Continuous
 62
     0
100
AcDbLine
 10
11372.95747009356
 20
-2645.222714204662
 30
0.0
 11
11378.05747009356
 21
-2645.222714204662
 31
0.0
  0
LINE
  5
BF
330
25
100
AcDbEntity
  8
1
  6
Continuous
 62
     0
100
AcDbLine
 10
11378.05747009356
 20
-2645.222714204662
 30
0.0
 11
11378.05747009356
 21
-2646.322714204664
 31
0.0
  0
LINE
  5
BD
330
25
100
AcDbEntity
  8
1
  6
Continuous
 62
     0
100
AcDbLine
 10
11360.45747009356
 20
-2678.922502506454
 30
0.0
 11
11360.45747009356
 21
-2687.106259236201
 31
0.0
  0
LINE
  5
BC
330
25
100
AcDbEntity
  8
1
  6
Continuous
 62
     0
100
AcDbLine
 10
11360.45747009356
 20
-2632.839169173124
 30
0.0
 11
11360.45747009356
 21
-2641.022925902872
 31
0.0
  0
LINE
  5
BA
330
25
100
AcDbEntity
  8
1
  6
Continuous
 62
     0
100
AcDbLine
 10
11374.55747009356
 20
-2646.322714204664
 30
0.0
 11
11374.55747009356
 21
-2649.222714204663
 31
0.0
  0
LINE
  5
B9
330
25
100
AcDbEntity
  8
1
  6
Continuous
 62
     0
100
AcDbLine
 10
11374.55747009356
 20
-2671.622714204662
 30
0.0
 11
11374.55747009356
 21
-2649.222714204663
 31
0.0
  0
LINE
  5
B8
330
25
100
AcDbEntity
  8
1
  6
Continuous
 62
     0
100
AcDbLine
 10
11378.75747009356
 20
-2670.722714204663
 30
0.0
 11
11378.75747009356
 21
-2647.722714204663
 31
0.0
  0
LINE
  5
B7
330
25
100
AcDbEntity
  8
1
  6
Continuous
 62
     0
100
AcDbLine
 10
11391.45747009356
 20
-2629.222714204663
 30
0.0
 11
11391.45747009356
 21
-2647.636083978406
 31
0.0
  0
LINE
  5
B6
330
25
100
AcDbEntity
  8
1
  6
Continuous
 62
     0
100
AcDbLine
 10
11372.95747009356
 20
-2688.222714204661
 30
0.0
 11
11372.95747009356
 21
-2631.722714204663
 31
0.0
  0
LINE
  5
B5
330
25
100
AcDbEntity
  8
1
  6
Continuous
 62
     0
100
AcDbLine
 10
11347.95747009356
 20
-2631.722714204662
 30
0.0
 11
11372.95747009356
 21
-2631.722714204663
 31
0.0
  0
LINE
  5
B4
330
25
100
AcDbEntity
  8
1
  6
Continuous
 62
     0
100
AcDbLine
 10
11347.95747009356
 20
-2688.222714204662
 30
0.0
 11
11347.95747009356
 21
-2631.722714204662
 31
0.0
  0
LINE
  5
B3
330
25
100
AcDbEntity
  8
1
  6
Continuous
 62
     0
100
AcDbLine
 10
11372.95747009356
 20
-2688.222714204661
 30
0.0
 11
11347.95747009356
 21
-2688.222714204662
 31
0.0
  0
LINE
  5
B2
330
25
100
AcDbEntity
  8
1
  6
Continuous
 62
     0
100
AcDbLine
 10
11383.45747009356
 20
-2629.222714204663
 30
0.0
 11
11391.45747009356
 21
-2629.222714204663
 31
0.0
  0
LINE
  5
B1
330
25
100
AcDbEntity
  8
1
  6
Continuous
 62
     0
100
AcDbLine
 10
11378.75747009356
 20
-2647.722714204663
 30
0.0
 11
11383.45747009356
 21
-2629.222714204663
 31
0.0
  0
LINE
  5
B0
330
25
100
AcDbEntity
  8
1
  6
Continuous
 62
     0
100
AcDbLine
 10
11374.55747009356
 20
-2646.322714204664
 30
0.0
 11
11379.11314576924
 21
-2646.322714204664
 31
0.0
  0
LINE
  5
AF
330
25
100
AcDbEntity
  8
1
  6
Continuous
 62
     0
100
AcDbLine
 10
11374.55747009356
 20
-2646.822714204664
 30
0.0
 11
11378.98611874221
 21
-2646.822714204664
 31
0.0
  0
LINE
  5
AE
330
25
100
AcDbEntity
  8
1
  6
Continuous
 62
     0
100
AcDbLine
 10
11391.45747009356
 20
-2670.809344430921
 30
0.0
 11
11391.45747009356
 21
-2689.222714204663
 31
0.0
  0
LINE
  5
AD
330
25
100
AcDbEntity
  8
1
  6
Continuous
 62
     0
100
AcDbLine
 10
11383.45747009356
 20
-2689.222714204663
 30
0.0
 11
11391.45747009356
 21
-2689.222714204663
 31
0.0
  0
LINE
  5
AC
330
25
100
AcDbEntity
  8
1
  6
Continuous
 62
     0
100
AcDbLine
 10
11383.45747009356
 20
-2689.222714204663
 30
0.0
 11
11378.75747009356
 21
-2670.722714204663
 31
0.0
  0
LINE
  5
AB
330
25
100
AcDbEntity
  8
1
  6
Continuous
 62
     0
100
AcDbLine
 10
11378.98611874221
 20
-2671.622714204662
 30
0.0
 11
11374.55747009356
 21
-2671.622714204662
 31
0.0
  0
LINE
  5
AA
330
25
100
AcDbEntity
  8
1
  6
Continuous
 62
     0
100
AcDbLine
 10
11372.95747009356
 20
-2652.722714204663
 30
0.0
 11
11374.55747009356
 21
-2652.722714204663
 31
0.0
  0
LINE
  5
A9
330
25
100
AcDbEntity
  8
1
  6
Continuous
 62
     0
100
AcDbLine
 10
11372.95747009356
 20
-2665.722714204663
 30
0.0
 11
11374.55747009356
 21
-2665.722714204663
 31
0.0
  0
LINE
  5
A8
330
25
100
AcDbEntity
  8
1
  6
Continuous
 62
     0
100
AcDbLine
 10
11371.35747009356
 20
-2641.530215122876
 30
0.0
 11
11371.35747009356
 21
-2653.722714204662
 31
0.0
  0
LINE
  5
A7
330
25
100
AcDbEntity
  8
1
  6
Continuous
 62
     0
100
AcDbLine
 10
11371.35747009356
 20
-2678.415213286451
 30
0.0
 11
11371.35747009356
 21
-2664.222714204662
 31
0.0
  0
LINE
  5
A6
330
25
100
AcDbEntity
  8
1
  6
Continuous
 62
     0
100
AcDbLine
 10
11347.95747009356
 20
-2650.872714204662
 30
0.0
 11
11349.0912268233
 21
-2652.272714204663
 31
0.0
  0
LINE
  5
A5
330
25
100
AcDbEntity
  8
1
  6
Continuous
 62
     0
100
AcDbLine
 10
11347.95747009356
 20
-2664.672714204662
 30
0.0
 11
11349.0912268233
 21
-2663.272714204663
 31
0.0
  0
LINE
  5
A4
330
25
100
AcDbEntity
  8
1
  6
Continuous
 62
     0
100
AcDbLine
 10
11349.0912268233
 20
-2652.272714204663
 30
0.0
 11
11349.0912268233
 21
-2663.272714204663
 31
0.0
  0
LINE
  5
A3
330
25
100
AcDbEntity
  8
1
  6
Continuous
 62
     0
100
AcDbLine
 10
11371.35747009356
 20
-2650.872714204662
 30
0.0
 11
11370.35747009356
 21
-2652.272714204663
 31
0.0
  0
LINE
  5
A2
330
25
100
AcDbEntity
  8
1
  6
Continuous
 62
     0
100
AcDbLine
 10
11371.35747009356
 20
-2664.672714204662
 30
0.0
 11
11370.35747009356
 21
-2663.272714204663
 31
0.0
  0
LINE
  5
A1
330
25
100
AcDbEntity
  8
1
  6
Continuous
 62
     0
100
AcDbLine
 10
11349.0912268233
 20
-2652.272714204663
 30
0.0
 11
11370.35747009356
 21
-2652.272714204663
 31
0.0
  0
LINE
  5
A0
330
25
100
AcDbEntity
  8
1
  6
Continuous
 62
     0
100
AcDbLine
 10
11349.0912268233
 20
-2663.272714204663
 30
0.0
 11
11370.35747009356
 21
-2663.272714204663
 31
0.0
  0
LINE
  5
9F
330
25
100
AcDbEntity
  8
1
  6
Continuous
 62
     0
100
AcDbLine
 10
11371.30747009356
 20
-2621.382714204663
 30
0.0
 11
11371.30747009356
 21
-2624.382714204663
 31
0.0
  0
LINE
  5
9E
330
25
100
AcDbEntity
  8
1
  6
Continuous
 62
     0
100
AcDbLine
 10
11349.60747009356
 20
-2621.382714204663
 30
0.0
 11
11371.30747009356
 21
-2621.382714204663
 31
0.0
  0
LINE
  5
9D
330
25
100
AcDbEntity
  8
1
  6
Continuous
 62
     0
100
AcDbLine
 10
11371.30747009356
 20
-2624.382714204663
 30
0.0
 11
11349.60747009356
 21
-2624.382714204663
 31
0.0
  0
LINE
  5
9C
330
25
100
AcDbEntity
  8
1
  6
Continuous
 62
     0
100
AcDbLine
 10
11349.60747009356
 20
-2621.382714204663
 30
0.0
 11
11349.60747009356
 21
-2624.382714204663
 31
0.0
  0
LINE
  5
9B
330
25
100
AcDbEntity
  8
1
  6
Continuous
 62
     0
100
AcDbLine
 10
11349.60747009356
 20
-2621.382714204663
 30
0.0
 11
11349.97997009356
 21
-2614.042714204663
 31
0.0
  0
LINE
  5
9A
330
25
100
AcDbEntity
  8
1
  6
Continuous
 62
     0
100
AcDbLine
 10
11371.30747009356
 20
-2621.382714204663
 30
0.0
 11
11370.93497009356
 21
-2614.042714204663
 31
0.0
  0
LINE
  5
99
330
25
100
AcDbEntity
  8
1
  6
Continuous
 62
     0
100
AcDbLine
 10
11370.93497009356
 20
-2631.722714204663
 30
0.0
 11
11371.30747009356
 21
-2624.382714204663
 31
0.0
  0
LINE
  5
98
330
25
100
AcDbEntity
  8
1
  6
Continuous
 62
     0
100
AcDbLine
 10
11349.97997009356
 20
-2631.722714204663
 30
0.0
 11
11349.60747009356
 21
-2624.382714204663
 31
0.0
  0
LINE
  5
97
330
25
100
AcDbEntity
  8
1
  6
Continuous
 62
     0
100
AcDbLine
 10
11347.25747009356
 20
-2614.042714204663
 30
0.0
 11
11373.65747009356
 21
-2614.042714204663
 31
0.0
  0
LINE
  5
96
330
25
100
AcDbEntity
  8
1
  6
Continuous
 62
     0
100
AcDbLine
 10
11373.65747009356
 20
-2614.042714204663
 30
0.0
 11
11373.65747009356
 21
-2604.917742577933
 31
0.0
  0
LINE
  5
95
330
25
100
AcDbEntity
  8
1
  6
Continuous
 62
     0
100
AcDbLine
 10
11347.25747009356
 20
-2614.042714204663
 30
0.0
 11
11347.25747009356
 21
-2604.917742577933
 31
0.0
  0
LINE
  5
94
330
25
100
AcDbEntity
  8
1
  6
DOTTED
 62
     0
100
AcDbLine
 10
11373.65747009356
 20
-2604.917742577933
 30
0.0
 11
11373.65747009356
 21
-2603.946867567382
 31
0.0
  0
LINE
  5
93
330
25
100
AcDbEntity
  8
1
  6
DOTTED
 62
     0
100
AcDbLine
 10
11347.25747009356
 20
-2604.917742577933
 30
0.0
 11
11347.25747009356
 21
-2603.946867567382
 31
0.0
  0
LINE
  5
92
330
25
100
AcDbEntity
  8
1
  6
Continuous
 62
     0
100
AcDbLine
 10
10985.45747009356
 20
-2531.768928207453
 30
0.0
 11
11735.45747009356
 21
-2531.768928207453
 31
0.0
  0
LINE
  5
91
330
25
100
AcDbEntity
  8
1
  6
Continuous
 62
     0
100
AcDbLine
 10
10860.45747009356
 20
-2904.042714204664
 30
0.0
 11
10860.45747009356
 21
-2895.042714204664
 31
0.0
  0
LINE
  5
90
330
25
100
AcDbEntity
  8
1
  6
Continuous
 62
     0
100
AcDbLine
 10
11860.45747009356
 20
-2904.042714204664
 30
0.0
 11
10860.45747009356
 21
-2904.042714204664
 31
0.0
  0
LINE
  5
8F
330
25
100
AcDbEntity
  8
1
  6
Continuous
 62
     0
100
AcDbLine
 10
11860.45747009356
 20
-2895.042714204664
 30
0.0
 11
11860.45747009356
 21
-2904.042714204664
 31
0.0
  0
LINE
  5
8E
330
25
100
AcDbEntity
  8
1
  6
Continuous
 62
     0
100
AcDbLine
 10
10860.45747009356
 20
-2895.042714204664
 30
0.0
 11
11860.45747009356
 21
-2895.042714204664
 31
0.0
  0
LINE
  5
8D
330
25
100
AcDbEntity
  8
1
  6
Continuous
 62
     0
100
AcDbLine
 10
10851.45747009356
 20
-128.042714204664
 30
0.0
 11
11869.45747009356
 21
-128.042714204664
 31
0.0
  0
LINE
  5
8C
330
25
100
AcDbEntity
  8
1
  6
Continuous
 62
     0
100
AcDbLine
 10
11869.45747009356
 20
-2381.042714204664
 30
0.0
 11
10851.45747009356
 21
-2381.042714204664
 31
0.0
  0
LINE
  5
8B
330
25
100
AcDbEntity
  8
1
  6
Continuous
 62
     0
100
AcDbLine
 10
10851.45747009356
 20
-2381.042714204664
 30
0.0
 11
10851.45747009356
 21
-2402.261055960898
 31
0.0
  0
LINE
  5
89
330
25
100
AcDbEntity
  8
1
  6
Continuous
 62
     0
100
AcDbLine
 10
10912.88231700049
 20
-2499.337876756536
 30
0.0
 11
10912.01302564912
 21
-2498.911388430579
 31
0.0
  0
LINE
  5
88
330
25
100
AcDbEntity
  8
1
  6
Continuous
 62
     0
100
AcDbLine
 10
11869.45747009356
 20
-2401.268489034519
 30
0.0
 11
11869.45747009356
 21
-2381.042714204664
 31
0.0
  0
LINE
  5
87
330
25
100
AcDbEntity
  8
1
  6
Continuous
 62
     0
100
AcDbLine
 10
13841.25729965701
 20
-2499.337876756536
 30
0.0
 11
13840.38800830563
 21
-2498.911388430579
 31
0.0
  0
LINE
  5
86
330
25
100
AcDbEntity
  8
1
  6
Continuous
 62
     0
100
AcDbLine
 10
13779.83245275008
 20
-2381.042714204664
 30
0.0
 11
13779.83245275008
 21
-2402.261055960898
 31
0.0
  0
LINE
  5
85
330
25
100
AcDbEntity
  8
1
  6
Continuous
 62
     0
100
AcDbLine
 10
14797.83245275008
 20
-2401.268489034519
 30
0.0
 11
14797.83245275008
 21
-2381.042714204664
 31
0.0
  0
LINE
  5
84
330
25
100
AcDbEntity
  8
1
  6
Continuous
 62
     0
100
AcDbLine
 10
10851.45747009356
 20
-128.042714204664
 30
0.0
 11
10851.45747009356
 21
-107.81693937481
 31
0.0
  0
LINE
  5
83
330
25
100
AcDbEntity
  8
1
  6
Continuous
 62
     0
100
AcDbLine
 10
10912.73963448412
 20
-9.813904844336
 30
0.0
 11
10912.01302564912
 21
-10.17403997875
 31
0.0
  0
LINE
  5
82
330
25
100
AcDbEntity
  8
1
  6
Continuous
 62
     0
100
AcDbLine
 10
11869.45747009356
 20
-128.042714204664
 30
0.0
 11
11869.45747009356
 21
-107.81693937481
 31
0.0
  0
LINE
  5
81
330
25
100
AcDbEntity
  8
1
  6
Continuous
 62
     0
100
AcDbLine
 10
13841.11461714064
 20
-9.813904844336
 30
0.0
 11
13840.38800830563
 21
-10.17403997875
 31
0.0
  0
LINE
  5
80
330
25
100
AcDbEntity
  8
1
  6
Continuous
 62
     0
100
AcDbLine
 10
13779.83245275008
 20
-128.042714204664
 30
0.0
 11
13779.83245275008
 21
-107.81693937481
 31
0.0
  0
LINE
  5
7F
330
25
100
AcDbEntity
  8
1
  6
Continuous
 62
     0
100
AcDbLine
 10
14797.83245275008
 20
-128.042714204664
 30
0.0
 11
14797.83245275008
 21
-107.81693937481
 31
0.0
  0
LINE
  5
7E
330
25
100
AcDbEntity
  8
1
  6
Continuous
 62
     0
100
AcDbLine
 10
11721.87827746359
 20
-2695.042714204664
 30
0.0
 11
11721.87827746359
 21
-2895.042714204664
 31
0.0
  0
LINE
  5
7D
330
25
100
AcDbEntity
  8
1
  6
Continuous
 62
     0
100
AcDbLine
 10
11735.45747009356
 20
-2595.042714204664
 30
0.0
 11
11735.45747009356
 21
-2531.768928207453
 31
0.0
  0
LINE
  5
7C
330
25
100
AcDbEntity
  8
1
  6
Continuous
 62
     0
100
AcDbLine
 10
10985.45747009356
 20
-2531.768928207453
 30
0.0
 11
10985.45747009356
 21
-2595.042714204664
 31
0.0
  0
LINE
  5
7B
330
25
100
AcDbEntity
  8
1
  6
Continuous
 62
     0
100
AcDbLine
 10
10999.03666272354
 20
-2895.042714204664
 30
0.0
 11
10999.03666272354
 21
-2695.042714204664
 31
0.0
  0
LINE
  5
7A
330
25
100
AcDbEntity
  8
1
  6
Continuous
 62
     0
100
AcDbLine
 10
13913.83245275008
 20
-2531.768928207453
 30
0.0
 11
13913.83245275008
 21
-2595.042714204664
 31
0.0
  0
LINE
  5
79
330
25
100
AcDbEntity
  8
1
  6
Continuous
 62
     0
100
AcDbLine
 10
13927.41164538005
 20
-2895.042714204664
 30
0.0
 11
13927.41164538005
 21
-2695.042714204664
 31
0.0
  0
LINE
  5
78
330
25
100
AcDbEntity
  8
1
  6
Continuous
 62
     0
100
AcDbLine
 10
14663.83245275008
 20
-2595.042714204664
 30
0.0
 11
14663.83245275008
 21
-2531.768928207453
 31
0.0
  0
LINE
  5
77
330
25
100
AcDbEntity
  8
1
  6
Continuous
 62
     0
100
AcDbLine
 10
14663.83245275008
 20
-2595.042714204664
 30
0.0
 11
14663.83245275008
 21
-2531.768928207453
 31
0.0
  0
LINE
  5
76
330
25
100
AcDbEntity
  8
1
  6
Continuous
 62
     0
100
AcDbLine
 10
14650.2532601201
 20
-2695.042714204664
 30
0.0
 11
14650.2532601201
 21
-2895.042714204664
 31
0.0
  0
LINE
  5
56
330
25
100
AcDbEntity
  8
1
  6
Continuous
 62
     0
100
AcDbLine
 10
11369.37518461638
 20
-4413.860660676963
 30
0.0
 11
11369.37518461638
 21
-4416.860660676963
 31
0.0
  0
LINE
  5
55
330
25
100
AcDbEntity
  8
1
  6
Continuous
 62
     0
100
AcDbLine
 10
11370.37518461638
 20
-4416.860660676963
 30
0.0
 11
11370.37518461638
 21
-4420.860660676963
 31
0.0
  0
LINE
  5
54
330
25
100
AcDbEntity
  8
1
  6
Continuous
 62
     0
100
AcDbLine
 10
11370.51877815583
 20
-4420.860660676963
 30
0.0
 11
11370.51877815583
 21
-4429.788863907236
 31
0.0
  0
LINE
  5
53
330
25
100
AcDbEntity
  8
1
  6
Continuous
 62
     0
100
AcDbLine
 10
11370.51877815583
 20
-4429.788863907236
 30
0.0
 11
11372.37518461638
 21
-4430.860660676963
 31
0.0
  0
LINE
  5
52
330
25
100
AcDbEntity
  8
1
  6
Continuous
 62
     0
100
AcDbLine
 10
11348.53975557074
 20
-4430.860660676963
 30
0.0
 11
11350.3961620313
 21
-4429.788863907236
 31
0.0
  0
LINE
  5
51
330
25
100
AcDbEntity
  8
1
  6
Continuous
 62
     0
100
AcDbLine
 10
11350.3961620313
 20
-4429.788863907236
 30
0.0
 11
11350.3961620313
 21
-4420.860660676963
 31
0.0
  0
LINE
  5
50
330
25
100
AcDbEntity
  8
1
  6
Continuous
 62
     0
100
AcDbLine
 10
11350.53975557074
 20
-4420.860660676963
 30
0.0
 11
11350.53975557074
 21
-4416.860660676963
 31
0.0
  0
LINE
  5
4F
330
25
100
AcDbEntity
  8
1
  6
Continuous
 62
     0
100
AcDbLine
 10
11351.53975557074
 20
-4416.860660676963
 30
0.0
 11
11351.53975557074
 21
-4413.860660676963
 31
0.0
  0
LINE
  5
4E
330
25
100
AcDbEntity
  8
1
  6
Continuous
 62
     0
100
AcDbLine
 10
11369.37518461638
 20
-4413.860660676963
 30
0.0
 11
11369.37518461638
 21
-4416.860660676963
 31
0.0
  0
LINE
  5
4D
330
25
100
AcDbEntity
  8
1
  6
Continuous
 62
     0
100
AcDbLine
 10
11370.37518461638
 20
-4416.860660676963
 30
0.0
 11
11370.37518461638
 21
-4420.860660676963
 31
0.0
  0
LINE
  5
4C
330
25
100
AcDbEntity
  8
1
  6
Continuous
 62
     0
100
AcDbLine
 10
11370.51877815583
 20
-4420.860660676963
 30
0.0
 11
11370.51877815583
 21
-4429.788863907236
 31
0.0
  0
LINE
  5
4B
330
25
100
AcDbEntity
  8
1
  6
Continuous
 62
     0
100
AcDbLine
 10
11370.51877815583
 20
-4429.788863907236
 30
0.0
 11
11372.37518461638
 21
-4430.860660676963
 31
0.0
  0
LINE
  5
4A
330
25
100
AcDbEntity
  8
1
  6
Continuous
 62
     0
100
AcDbLine
 10
11348.53975557074
 20
-4430.860660676963
 30
0.0
 11
11350.3961620313
 21
-4429.788863907236
 31
0.0
  0
LINE
  5
49
330
25
100
AcDbEntity
  8
1
  6
Continuous
 62
     0
100
AcDbLine
 10
11350.3961620313
 20
-4429.788863907236
 30
0.0
 11
11350.3961620313
 21
-4420.860660676963
 31
0.0
  0
LINE
  5
48
330
25
100
AcDbEntity
  8
1
  6
Continuous
 62
     0
100
AcDbLine
 10
11350.53975557074
 20
-4420.860660676963
 30
0.0
 11
11350.53975557074
 21
-4416.860660676963
 31
0.0
  0
LINE
  5
47
330
25
100
AcDbEntity
  8
1
  6
Continuous
 62
     0
100
AcDbLine
 10
11351.53975557074
 20
-4416.860660676963
 30
0.0
 11
11351.53975557074
 21
-4413.860660676963
 31
0.0
  0
LINE
  5
46
330
25
100
AcDbEntity
  8
1
  6
Continuous
 62
     0
100
AcDbLine
 10
11360.45747009356
 20
-4430.860660676963
 30
0.0
 11
11373.95747009356
 21
-4430.860660676963
 31
0.0
  0
LINE
  5
45
330
25
100
AcDbEntity
  8
1
  6
Continuous
 62
     0
100
AcDbLine
 10
11369.37518461638
 20
-4413.860660676963
 30
0.0
 11
11369.37518461638
 21
-4416.860660676963
 31
0.0
  0
LINE
  5
44
330
25
100
AcDbEntity
  8
1
  6
Continuous
 62
     0
100
AcDbLine
 10
11370.37518461638
 20
-4416.860660676963
 30
0.0
 11
11370.37518461638
 21
-4420.860660676963
 31
0.0
  0
LINE
  5
43
330
25
100
AcDbEntity
  8
1
  6
Continuous
 62
     0
100
AcDbLine
 10
11370.51877815583
 20
-4420.860660676963
 30
0.0
 11
11370.51877815583
 21
-4429.788863907234
 31
0.0
  0
LINE
  5
42
330
25
100
AcDbEntity
  8
1
  6
Continuous
 62
     0
100
AcDbLine
 10
11370.51877815583
 20
-4429.788863907234
 30
0.0
 11
11372.37518461638
 21
-4430.860660676963
 31
0.0
  0
LINE
  5
41
330
25
100
AcDbEntity
  8
1
  6
Continuous
 62
     0
100
AcDbLine
 10
11348.53975557074
 20
-4430.860660676963
 30
0.0
 11
11350.3961620313
 21
-4429.788863907234
 31
0.0
  0
LINE
  5
40
330
25
100
AcDbEntity
  8
1
  6
Continuous
 62
     0
100
AcDbLine
 10
11350.3961620313
 20
-4429.788863907234
 30
0.0
 11
11350.3961620313
 21
-4420.860660676963
 31
0.0
  0
LINE
  5
3F
330
25
100
AcDbEntity
  8
1
  6
Continuous
 62
     0
100
AcDbLine
 10
11350.53975557074
 20
-4420.860660676963
 30
0.0
 11
11350.53975557074
 21
-4416.860660676963
 31
0.0
  0
LINE
  5
3E
330
25
100
AcDbEntity
  8
1
  6
Continuous
 62
     0
100
AcDbLine
 10
11351.53975557074
 20
-4416.860660676963
 30
0.0
 11
11351.53975557074
 21
-4413.860660676963
 31
0.0
  0
LINE
  5
3D
330
25
100
AcDbEntity
  8
1
  6
Continuous
 62
     0
100
AcDbLine
 10
11356.45747009356
 20
-4418.860660676963
 30
0.0
 11
11356.45747009356
 21
-4425.860660676963
 31
0.0
  0
LINE
  5
3C
330
25
100
AcDbEntity
  8
1
  6
Continuous
 62
     0
100
AcDbLine
 10
11364.45747009356
 20
-4425.860660676963
 30
0.0
 11
11364.45747009356
 21
-4418.860660676963
 31
0.0
  0
LINE
  5
3B
330
25
100
AcDbEntity
  8
1
  6
Continuous
 62
     0
100
AcDbLine
 10
11360.45747009356
 20
-4430.860660676963
 30
0.0
 11
11373.95747009356
 21
-4430.860660676963
 31
0.0
  0
LINE
  5
3A
330
25
100
AcDbEntity
  8
1
  6
Continuous
 62
     0
100
AcDbLine
 10
11355.88947900779
 20
-4427.860660676963
 30
0.0
 11
11350.3961620313
 21
-4427.860660676963
 31
0.0
  0
LINE
  5
39
330
25
100
AcDbEntity
  8
1
  6
Continuous
 62
     0
100
AcDbLine
 10
11362.45747009356
 20
-4427.860660676963
 30
0.0
 11
11358.45747009356
 21
-4427.860660676963
 31
0.0
  0
LINE
  5
38
330
25
100
AcDbEntity
  8
1
  6
Continuous
 62
     0
100
AcDbLine
 10
11356.45747009356
 20
-4418.860660676963
 30
0.0
 11
11356.45747009356
 21
-4425.860660676963
 31
0.0
  0
LINE
  5
37
330
25
100
AcDbEntity
  8
1
  6
Continuous
 62
     0
100
AcDbLine
 10
11364.45747009356
 20
-4425.860660676963
 30
0.0
 11
11364.45747009356
 21
-4418.860660676963
 31
0.0
  0
LINE
  5
36
330
25
100
AcDbEntity
  8
1
  6
Continuous
 62
     0
100
AcDbLine
 10
11370.37518461638
 20
-4418.860660676963
 30
0.0
 11
11350.53975557074
 21
-4418.860660676963
 31
0.0
  0
LINE
  5
35
330
25
100
AcDbEntity
  8
1
  6
Continuous
 62
     0
100
AcDbLine
 10
11370.51877815583
 20
-4427.860660676963
 30
0.0
 11
11365.02546117933
 21
-4427.860660676963
 31
0.0
  0
LINE
  5
34
330
25
100
AcDbEntity
  8
1
  6
Continuous
 62
     0
100
AcDbLine
 10
11355.88947900779
 20
-4427.860660676963
 30
0.0
 11
11350.3961620313
 21
-4427.860660676963
 31
0.0
  0
LINE
  5
33
330
25
100
AcDbEntity
  8
1
  6
Continuous
 62
     0
100
AcDbLine
 10
11370.51877815583
 20
-4427.860660676963
 30
0.0
 11
11365.02546117933
 21
-4427.860660676963
 31
0.0
  0
LINE
  5
32
330
25
100
AcDbEntity
  8
1
  6
Continuous
 62
     0
100
AcDbLine
 10
11356.45747009356
 20
-4418.860660676963
 30
0.0
 11
11356.45747009356
 21
-4425.860660676963
 31
0.0
  0
LINE
  5
31
330
25
100
AcDbEntity
  8
1
  6
Continuous
 62
     0
100
AcDbLine
 10
11364.45747009356
 20
-4425.860660676963
 30
0.0
 11
11364.45747009356
 21
-4418.860660676963
 31
0.0
  0
LINE
  5
30
330
25
100
AcDbEntity
  8
1
  6
Continuous
 62
     0
100
AcDbLine
 10
11362.45747009356
 20
-4427.860660676963
 30
0.0
 11
11358.45747009356
 21
-4427.860660676963
 31
0.0
  0
LINE
  5
2F
330
25
100
AcDbEntity
  8
1
  6
Continuous
 62
     0
100
AcDbLine
 10
11356.45747009356
 20
-4418.860660676963
 30
0.0
 11
11356.45747009356
 21
-4425.860660676963
 31
0.0
  0
LINE
  5
2E
330
25
100
AcDbEntity
  8
1
  6
Continuous
 62
     0
100
AcDbLine
 10
11364.45747009356
 20
-4425.860660676963
 30
0.0
 11
11364.45747009356
 21
-4418.860660676963
 31
0.0
  0
LINE
  5
2D
330
25
100
AcDbEntity
  8
1
  6
Continuous
 62
     0
100
AcDbLine
 10
11370.37518461638
 20
-4418.860660676963
 30
0.0
 11
11350.53975557074
 21
-4418.860660676963
 31
0.0
  0
LINE
  5
2C
330
25
100
AcDbEntity
  8
1
  6
Continuous
 62
     0
100
AcDbLine
 10
11346.95747009356
 20
-4430.860660676963
 30
0.0
 11
11360.45747009356
 21
-4430.860660676963
 31
0.0
  0
POINT
  5
2B
330
25
100
AcDbEntity
  8
1
 62
     0
100
AcDbPoint
 10
11586.14213538627
 20
141.378630086429
 30
0.0
  0
POINT
  5
2A
330
25
100
AcDbEntity
  8
1
 62
     0
100
AcDbPoint
 10
10699.79891752662
 20
-1217.383883986549
 30
0.0
  0
LINE
  5
ADF
330
25
100
AcDbEntity
  8
0
  6
Continuous
 62
     0
100
AcDbLine
 10
14797.83245275008
 20
-1023.098319226227
 30
0.0
 11
14797.83245275008
 21
-2102.042714204663
 31
0.0
  0
LINE
  5
AE0
330
25
100
AcDbEntity
  8
0
  6
Continuous
 62
     0
100
AcDbLine
 10
14797.83245275008
 20
-249.0427142046641
 30
0.0
 11
14797.83245275008
 21
-128.042714204664
 31
0.0
  0
LINE
  5
AE1
330
25
100
AcDbEntity
  8
0
  6
Continuous
 62
     0
100
AcDbLine
 10
14797.83245275008
 20
-1023.098319226227
 30
0.0
 11
14797.83245275008
 21
-407.0427142046624
 31
0.0
  0
LINE
  5
AE2
330
25
100
AcDbEntity
  8
0
  6
Continuous
 62
     0
100
AcDbLine
 10
14797.83245275008
 20
-2260.042714204663
 30
0.0
 11
14797.83245275008
 21
-2381.042714204664
 31
0.0
  0
ARC
  5
AE3
330
25
100
AcDbEntity
  8
1
  6
Continuous
 62
     0
100
AcDbCircle
 10
14823.64410758919
 20
-375.3760578299521
 30
0.0
 40
6.18836802561
100
AcDbArc
 50
325.7715041969295
 51
24.02067708100141
  0
ARC
  5
AE4
330
25
100
AcDbEntity
  8
1
  6
Continuous
 62
     0
100
AcDbCircle
 10
14823.64410758919
 20
-396.1943121432842
 30
0.0
 40
6.188368025618
100
AcDbArc
 50
335.9793229189962
 51
34.22849580305954
  0
ARC
  5
AE5
330
25
100
AcDbEntity
  8
1
  6
Continuous
 62
     0
100
AcDbCircle
 10
14806.9042495198
 20
-385.7851849866179
 30
0.0
 40
22.928203230275
100
AcDbArc
 50
342.4120462260054
 51
17.58795377399256
  0
ARC
  5
AE6
330
25
100
AcDbEntity
  8
1
  6
Continuous
 62
     0
100
AcDbCircle
 10
14806.9042495198
 20
-351.960428727481
 30
0.0
 40
22.928203230275
100
AcDbArc
 50
342.4120462260054
 51
17.58795377399391
  0
ARC
  5
AE7
330
25
100
AcDbEntity
  8
1
  6
Continuous
 62
     0
100
AcDbCircle
 10
14823.64410758919
 20
-362.3695558841459
 30
0.0
 40
6.188368025618
100
AcDbArc
 50
335.9793229189919
 51
34.22849580305866
  0
LINE
  5
AE8
330
25
100
AcDbEntity
  8
1
  6
Continuous
 62
     0
100
AcDbLine
 10
14828.76065598035
 20
-392.7133882168941
 30
0.0
 11
14819.83245275008
 21
-392.7133882168941
 31
0.0
  0
LINE
  5
AE9
330
25
100
AcDbEntity
  8
1
  6
Continuous
 62
     0
100
AcDbLine
 10
14815.83245275008
 20
-399.7851849866179
 30
0.0
 11
14819.83245275008
 21
-399.7851849866179
 31
0.0
  0
LINE
  5
AEA
330
25
100
AcDbEntity
  8
1
  6
Continuous
 62
     0
100
AcDbLine
 10
14819.83245275008
 20
-311.05320291212
 30
0.0
 11
14828.76065598035
 21
-311.05320291212
 31
0.0
  0
LINE
  5
AEB
330
25
100
AcDbEntity
  8
1
  6
Continuous
 62
     0
100
AcDbLine
 10
14819.83245275008
 20
-371.7851849866179
 30
0.0
 11
14815.83245275008
 21
-371.7851849866179
 31
0.0
  0
LINE
  5
AEC
330
25
100
AcDbEntity
  8
1
  6
Continuous
 62
     0
100
AcDbLine
 10
14819.83245275008
 20
-297.1967964515693
 30
0.0
 11
14828.76065598035
 21
-297.1967964515693
 31
0.0
  0
LINE
  5
AED
330
25
100
AcDbEntity
  8
1
  6
Continuous
 62
     0
100
AcDbLine
 10
14828.76065598035
 20
-371.9287785260681
 30
0.0
 11
14819.83245275008
 21
-371.9287785260681
 31
0.0
  0
LINE
  5
AEE
330
25
100
AcDbEntity
  8
1
  6
Continuous
 62
     0
100
AcDbLine
 10
14819.83245275008
 20
-302.0488092056539
 30
0.0
 11
14815.83245275008
 21
-303.1916663485122
 31
0.0
  0
LINE
  5
AEF
330
25
100
AcDbEntity
  8
1
  6
Continuous
 62
     0
100
AcDbLine
 10
14812.83245275008
 20
-319.1249996818442
 30
0.0
 11
14815.83245275008
 21
-319.1249996818442
 31
0.0
  0
LINE
  5
AF0
330
25
100
AcDbEntity
  8
1
  6
Continuous
 62
     0
100
AcDbLine
 10
14815.83245275008
 20
-319.1249996818442
 30
0.0
 11
14815.83245275008
 21
-289.1249996818442
 31
0.0
  0
LINE
  5
AF1
330
25
100
AcDbEntity
  8
1
  6
Continuous
 62
     0
100
AcDbLine
 10
14812.83245275008
 20
-289.1249996818442
 30
0.0
 11
14812.83245275008
 21
-319.1249996818442
 31
0.0
  0
LINE
  5
AF2
330
25
100
AcDbEntity
  8
1
  6
Continuous
 62
     0
100
AcDbLine
 10
14815.83245275008
 20
-336.960428727481
 30
0.0
 11
14812.83245275008
 21
-336.960428727481
 31
0.0
  0
LINE
  5
AF3
330
25
100
AcDbEntity
  8
1
  6
Continuous
 62
     0
100
AcDbLine
 10
14819.83245275008
 20
-317.9814061423963
 30
0.0
 11
14828.76065598035
 21
-317.9814061423963
 31
0.0
  0
LINE
  5
AF6
330
25
100
AcDbEntity
  8
1
  6
Continuous
 62
     0
100
AcDbLine
 10
14812.83245275008
 20
-255.3002434227069
 30
0.0
 11
14812.83245275008
 21
-285.3002434227069
 31
0.0
  0
LINE
  5
AF7
330
25
100
AcDbEntity
  8
1
  6
Continuous
 62
     0
100
AcDbLine
 10
14815.83245275008
 20
-255.3002434227069
 30
0.0
 11
14812.83245275008
 21
-255.3002434227069
 31
0.0
  0
LINE
  5
AF8
330
25
100
AcDbEntity
  8
1
  6
Continuous
 62
     0
100
AcDbLine
 10
14829.83245275008
 20
-397.7851849866179
 30
0.0
 11
14829.83245275008
 21
-373.7851849866179
 31
0.0
  0
LINE
  5
AF9
330
25
100
AcDbEntity
  8
1
  6
Continuous
 62
     0
100
AcDbLine
 10
14812.83245275008
 20
-400.7851849866179
 30
0.0
 11
14815.83245275008
 21
-400.7851849866179
 31
0.0
  0
ARC
  5
AFA
330
25
100
AcDbEntity
  8
1
  6
Continuous
 62
     0
100
AcDbCircle
 10
14823.64410758919
 20
-293.7158725251793
 30
0.0
 40
6.18836802561
100
AcDbArc
 50
325.77150419693
 51
24.02067708100286
  0
LINE
  5
AFB
330
25
100
AcDbEntity
  8
1
  6
Continuous
 62
     0
100
AcDbLine
 10
14819.83245275008
 20
-365.8168351880322
 30
0.0
 11
14828.76065598035
 21
-365.8168351880322
 31
0.0
  0
LINE
  5
AFC
330
25
100
AcDbEntity
  8
1
  6
Continuous
 62
     0
100
AcDbLine
 10
14815.83245275008
 20
-289.1249996818442
 30
0.0
 11
14812.83245275008
 21
-289.1249996818442
 31
0.0
  0
LINE
  5
AFD
330
25
100
AcDbEntity
  8
1
  6
Continuous
 62
     0
100
AcDbLine
 10
14829.83245275008
 20
-292.1249996818442
 30
0.0
 11
14828.76065598035
 21
-290.268593221293
 31
0.0
  0
LINE
  5
AFE
330
25
100
AcDbEntity
  8
1
  6
Continuous
 62
     0
100
AcDbLine
 10
14815.83245275008
 20
-285.3002434227069
 30
0.0
 11
14815.83245275008
 21
-255.3002434227069
 31
0.0
  0
ARC
  5
AFF
330
25
100
AcDbEntity
  8
1
  6
Continuous
 62
     0
100
AcDbCircle
 10
14806.9042495198
 20
-304.1249996818442
 30
0.0
 40
22.928203230275
100
AcDbArc
 50
342.4120462260059
 51
17.58795377399256
  0
ARC
  5
B00
330
25
100
AcDbEntity
  8
1
  6
Continuous
 62
     0
100
AcDbCircle
 10
14823.64410758919
 20
-280.7093705793732
 30
0.0
 40
6.188368025618
100
AcDbArc
 50
335.9793229189962
 51
34.22849580305954
  0
LINE
  5
B01
330
25
100
AcDbEntity
  8
1
  6
Continuous
 62
     0
100
AcDbLine
 10
14828.76065598035
 20
-399.641591447169
 30
0.0
 11
14829.83245275008
 21
-397.7851849866179
 31
0.0
  0
LINE
  5
B02
330
25
100
AcDbEntity
  8
1
  6
Continuous
 62
     0
100
AcDbLine
 10
14829.83245275008
 20
-373.7851849866179
 30
0.0
 11
14828.76065598035
 21
-371.9287785260681
 31
0.0
  0
LINE
  5
B03
330
25
100
AcDbEntity
  8
1
  6
Continuous
 62
     0
100
AcDbLine
 10
14819.83245275008
 20
-399.7851849866179
 30
0.0
 11
14819.83245275008
 21
-371.7851849866179
 31
0.0
  0
LINE
  5
B05
330
25
100
AcDbEntity
  8
1
  6
Continuous
 62
     0
100
AcDbLine
 10
14815.83245275008
 20
-366.960428727481
 30
0.0
 11
14815.83245275008
 21
-336.960428727481
 31
0.0
  0
LINE
  5
B06
330
25
100
AcDbEntity
  8
1
  6
Continuous
 62
     0
100
AcDbLine
 10
14819.83245275008
 20
-337.960428727481
 30
0.0
 11
14815.83245275008
 21
-337.960428727481
 31
0.0
  0
LINE
  5
B07
330
25
100
AcDbEntity
  8
1
  6
Continuous
 62
     0
100
AcDbLine
 10
14828.76065598035
 20
-358.8886319577573
 30
0.0
 11
14819.83245275008
 21
-358.8886319577573
 31
0.0
  0
LINE
  5
B08
330
25
100
AcDbEntity
  8
1
  6
Continuous
 62
     0
100
AcDbLine
 10
14828.76065598035
 20
-345.0322254972052
 30
0.0
 11
14819.83245275008
 21
-345.0322254972052
 31
0.0
  0
LINE
  5
B09
330
25
100
AcDbEntity
  8
1
  6
Continuous
 62
     0
100
AcDbLine
 10
14828.76065598035
 20
-338.1040222669303
 30
0.0
 11
14819.83245275008
 21
-338.1040222669303
 31
0.0
  0
LINE
  5
B0A
330
25
100
AcDbEntity
  8
1
  6
Continuous
 62
     0
100
AcDbLine
 10
14828.76065598035
 20
-365.8168351880322
 30
0.0
 11
14829.83245275008
 21
-363.960428727481
 31
0.0
  0
LINE
  5
B0B
330
25
100
AcDbEntity
  8
1
  6
Continuous
 62
     0
100
AcDbLine
 10
14819.83245275008
 20
-399.641591447169
 30
0.0
 11
14828.76065598035
 21
-399.641591447169
 31
0.0
  0
LINE
  5
B0C
330
25
100
AcDbEntity
  8
1
  6
Continuous
 62
     0
100
AcDbLine
 10
14815.83245275008
 20
-352.893762060814
 30
0.0
 11
14819.83245275008
 21
-354.0366192036722
 31
0.0
  0
LINE
  5
B0D
330
25
100
AcDbEntity
  8
1
  6
Continuous
 62
     0
100
AcDbLine
 10
14828.76065598035
 20
-378.856981756343
 30
0.0
 11
14819.83245275008
 21
-378.856981756343
 31
0.0
  0
LINE
  5
B0E
330
25
100
AcDbEntity
  8
1
  6
Continuous
 62
     0
100
AcDbLine
 10
14815.83245275008
 20
-383.7089945104281
 30
0.0
 11
14819.83245275008
 21
-384.8518516532849
 31
0.0
  0
LINE
  5
B0F
330
25
100
AcDbEntity
  8
1
  6
Continuous
 62
     0
100
AcDbLine
 10
14812.83245275008
 20
-366.960428727481
 30
0.0
 11
14815.83245275008
 21
-366.960428727481
 31
0.0
  0
LINE
  5
B10
330
25
100
AcDbEntity
  8
1
  6
Continuous
 62
     0
100
AcDbLine
 10
14829.83245275008
 20
-316.1249996818442
 30
0.0
 11
14829.83245275008
 21
-292.1249996818442
 31
0.0
  0
LINE
  5
B11
330
25
100
AcDbEntity
  8
1
  6
Continuous
 62
     0
100
AcDbLine
 10
14828.76065598035
 20
-290.268593221293
 30
0.0
 11
14819.83245275008
 21
-290.268593221293
 31
0.0
  0
ARC
  5
B12
330
25
100
AcDbEntity
  8
1
  6
Continuous
 62
     0
100
AcDbCircle
 10
14823.64410758919
 20
-314.53412683851
 30
0.0
 40
6.188368025618
100
AcDbArc
 50
335.9793229189962
 51
34.22849580305954
  0
ARC
  5
B13
330
25
100
AcDbEntity
  8
1
  6
Continuous
 62
     0
100
AcDbCircle
 10
15249.95489800557
 20
-328.0427142046633
 30
0.0
 40
458.972445255489
100
AcDbArc
 50
170.088686020987
 51
189.911313979013
  0
LINE
  5
B14
330
25
100
AcDbEntity
  8
1
  6
Continuous
 62
     0
100
AcDbLine
 10
14829.83245275008
 20
-339.960428727481
 30
0.0
 11
14828.76065598035
 21
-338.1040222669303
 31
0.0
  0
LINE
  5
B15
330
25
100
AcDbEntity
  8
1
  6
Continuous
 62
     0
100
AcDbLine
 10
14815.83245275008
 20
-400.7851849866179
 30
0.0
 11
14815.83245275008
 21
-370.7851849866179
 31
0.0
  0
LINE
  5
B16
330
25
100
AcDbEntity
  8
1
  6
Continuous
 62
     0
100
AcDbLine
 10
14812.83245275008
 20
-336.960428727481
 30
0.0
 11
14812.83245275008
 21
-366.960428727481
 31
0.0
  0
ARC
  5
B17
330
25
100
AcDbEntity
  8
1
  6
Continuous
 62
     0
100
AcDbCircle
 10
14806.9042495198
 20
-270.3002434227069
 30
0.0
 40
22.928203230275
100
AcDbArc
 50
342.4120462260054
 51
17.58795377399256
  0
LINE
  5
B18
330
25
100
AcDbEntity
  8
1
  6
Continuous
 62
     0
100
AcDbLine
 10
14815.83245275008
 20
-386.7185183199522
 30
0.0
 11
14819.83245275008
 21
-387.8613754628091
 31
0.0
  0
LINE
  5
B1A
330
25
100
AcDbEntity
  8
1
  6
Continuous
 62
     0
100
AcDbLine
 10
14819.83245275008
 20
-365.960428727481
 30
0.0
 11
14819.83245275008
 21
-337.960428727481
 31
0.0
  0
LINE
  5
B1B
330
25
100
AcDbEntity
  8
1
  6
Continuous
 62
     0
100
AcDbLine
 10
14828.76065598035
 20
-317.9814061423963
 30
0.0
 11
14829.83245275008
 21
-316.1249996818442
 31
0.0
  0
ARC
  5
B1C
330
25
100
AcDbEntity
  8
1
  6
Continuous
 62
     0
100
AcDbCircle
 10
14823.64410758919
 20
-259.8911162660411
 30
0.0
 40
6.18836802561
100
AcDbArc
 50
325.7715041969295
 51
24.02067708100141
  0
LINE
  5
B1D
330
25
100
AcDbEntity
  8
1
  6
Continuous
 62
     0
100
AcDbLine
 10
14815.83245275008
 20
-349.8842382512903
 30
0.0
 11
14819.83245275008
 21
-351.0270953941481
 31
0.0
  0
LINE
  5
B1E
330
25
100
AcDbEntity
  8
1
  6
Continuous
 62
     0
100
AcDbLine
 10
14812.83245275008
 20
-370.7851849866179
 30
0.0
 11
14812.83245275008
 21
-400.7851849866179
 31
0.0
  0
LINE
  5
B1F
330
25
100
AcDbEntity
  8
1
  6
Continuous
 62
     0
100
AcDbLine
 10
14815.83245275008
 20
-365.960428727481
 30
0.0
 11
14819.83245275008
 21
-365.960428727481
 31
0.0
  0
LINE
  5
B20
330
25
100
AcDbEntity
  8
1
  6
Continuous
 62
     0
100
AcDbLine
 10
14829.83245275008
 20
-363.960428727481
 30
0.0
 11
14829.83245275008
 21
-339.960428727481
 31
0.0
  0
LINE
  5
B21
330
25
100
AcDbEntity
  8
1
  6
Continuous
 62
     0
100
AcDbLine
 10
14815.83245275008
 20
-318.1249996818442
 30
0.0
 11
14819.83245275008
 21
-318.1249996818442
 31
0.0
  0
ARC
  5
B22
330
25
100
AcDbEntity
  8
1
  6
Continuous
 62
     0
100
AcDbCircle
 10
14823.64410758919
 20
-341.5513015708161
 30
0.0
 40
6.188368025609
100
AcDbArc
 50
325.771504196943
 51
24.02067708102269
  0
LINE
  5
B23
330
25
100
AcDbEntity
  8
1
  6
Continuous
 62
     0
100
AcDbLine
 10
14819.83245275008
 20
-290.1249996818442
 30
0.0
 11
14815.83245275008
 21
-290.1249996818442
 31
0.0
  0
LINE
  5
B24
330
25
100
AcDbEntity
  8
1
  6
Continuous
 62
     0
100
AcDbLine
 10
14815.83245275008
 20
-370.7851849866179
 30
0.0
 11
14812.83245275008
 21
-370.7851849866179
 31
0.0
  0
LINE
  5
B25
330
25
100
AcDbEntity
  8
1
  6
Continuous
 62
     0
100
AcDbLine
 10
14819.83245275008
 20
-318.1249996818442
 30
0.0
 11
14819.83245275008
 21
-290.1249996818442
 31
0.0
  0
LINE
  5
B26
330
25
100
AcDbEntity
  8
1
  6
Continuous
 62
     0
100
AcDbLine
 10
14819.83245275008
 20
-305.0583330151781
 30
0.0
 11
14815.83245275008
 21
-306.2011901580349
 31
0.0
  0
LINE
  5
B27
330
25
100
AcDbEntity
  8
1
  6
Continuous
 62
     0
100
AcDbLine
 10
14829.83245275008
 20
-258.3002434227069
 30
0.0
 11
14828.76065598035
 21
-256.4438369621571
 31
0.0
  0
LINE
  5
B28
330
25
100
AcDbEntity
  8
1
  6
Continuous
 62
     0
100
AcDbLine
 10
14828.76065598035
 20
-284.1566498832581
 30
0.0
 11
14829.83245275008
 21
-282.3002434227069
 31
0.0
  0
LINE
  5
B29
330
25
100
AcDbEntity
  8
1
  6
Continuous
 62
     0
100
AcDbLine
 10
14802.83245275008
 20
-249.0427142046633
 30
0.0
 11
14802.83245275008
 21
-407.0427142046633
 31
0.0
  0
LINE
  5
B2A
330
25
100
AcDbEntity
  8
1
  6
Continuous
 62
     0
100
AcDbLine
 10
14819.83245275008
 20
-277.2284466529832
 30
0.0
 11
14828.76065598035
 21
-277.2284466529832
 31
0.0
  0
LINE
  5
B2B
330
25
100
AcDbEntity
  8
1
  6
Continuous
 62
     0
100
AcDbLine
 10
14815.83245275008
 20
-284.3002434227069
 30
0.0
 11
14819.83245275008
 21
-284.3002434227069
 31
0.0
  0
LINE
  5
B2C
330
25
100
AcDbEntity
  8
1
  6
Continuous
 62
     0
100
AcDbLine
 10
14819.83245275008
 20
-284.1566498832581
 30
0.0
 11
14828.76065598035
 21
-284.1566498832581
 31
0.0
  0
LINE
  5
B2D
330
25
100
AcDbEntity
  8
1
  6
Continuous
 62
     0
100
AcDbLine
 10
14819.83245275008
 20
-271.2335767560412
 30
0.0
 11
14815.83245275008
 21
-272.3764338988981
 31
0.0
  0
LINE
  5
B2E
330
25
100
AcDbEntity
  8
1
  6
Continuous
 62
     0
100
AcDbLine
 10
14828.76065598035
 20
-256.4438369621571
 30
0.0
 11
14819.83245275008
 21
-256.4438369621571
 31
0.0
  0
LINE
  5
B2F
330
25
100
AcDbEntity
  8
1
  6
Continuous
 62
     0
100
AcDbLine
 10
14812.83245275008
 20
-249.0427142046633
 30
0.0
 11
14812.83245275008
 21
-407.0427142046633
 31
0.0
  0
LINE
  5
B30
330
25
100
AcDbEntity
  8
1
  6
Continuous
 62
     0
100
AcDbLine
 10
14812.83245275008
 20
-249.0427142046633
 30
0.0
 11
14797.83245275008
 21
-249.0427142046633
 31
0.0
  0
LINE
  5
B31
330
25
100
AcDbEntity
  8
1
  6
Continuous
 62
     0
100
AcDbLine
 10
14819.83245275008
 20
-268.2240529465171
 30
0.0
 11
14815.83245275008
 21
-269.366910089374
 31
0.0
  0
LINE
  5
B32
330
25
100
AcDbEntity
  8
1
  6
Continuous
 62
     0
100
AcDbLine
 10
14812.83245275008
 20
-285.3002434227069
 30
0.0
 11
14815.83245275008
 21
-285.3002434227069
 31
0.0
  0
LINE
  5
B33
330
25
100
AcDbEntity
  8
1
  6
Continuous
 62
     0
100
AcDbLine
 10
14819.83245275008
 20
-263.372040192432
 30
0.0
 11
14828.76065598035
 21
-263.372040192432
 31
0.0
  0
LINE
  5
B34
330
25
100
AcDbEntity
  8
1
  6
Continuous
 62
     0
100
AcDbLine
 10
14812.83245275008
 20
-407.0427142046633
 30
0.0
 11
14797.83245275008
 21
-407.0427142046633
 31
0.0
  0
LINE
  5
B35
330
25
100
AcDbEntity
  8
1
  6
Continuous
 62
     0
100
AcDbLine
 10
14819.83245275008
 20
-284.3002434227069
 30
0.0
 11
14819.83245275008
 21
-256.3002434227069
 31
0.0
  0
LINE
  5
B37
330
25
100
AcDbEntity
  8
1
  6
Continuous
 62
     0
100
AcDbLine
 10
14829.83245275008
 20
-282.3002434227069
 30
0.0
 11
14829.83245275008
 21
-258.3002434227069
 31
0.0
  0
LINE
  5
B38
330
25
100
AcDbEntity
  8
1
  6
Continuous
 62
     0
100
AcDbLine
 10
14819.83245275008
 20
-256.3002434227069
 30
0.0
 11
14815.83245275008
 21
-256.3002434227069
 31
0.0
  0
ENDBLK
  5
4F7
330
25
100
AcDbEntity
  8
0
100
AcDbBlockEnd
  0
ENDSEC
  0
SECTION
  2
ENTITIES
  0
TEXT
  5
4FA
330
A
100
AcDbEntity
  8
1
 62
     0
100
AcDbText
 10
16490.27712890613
 20
-4366.656868680892
 30
0.0
 40
52.5
  1
SAT-2000C-100
 41
0.9
  7
CONVERTER_1
100
AcDbText
  0
INSERT
  5
29
330
A
100
AcDbEntity
  8
0
100
AcDbBlockReference
  2
SAT2000C100__1
 10
0.0
 20
0.0
 30
0.0
  0
VIEWPORT
  5
19C0
330
19BC
100
AcDbEntity
 67
     1
  8
0
100
AcDbViewport
 10
0.0
 20
0.0
 30
0.0
 40
14.89303030303031
 41
7.140000000000001
 68
     1
 69
     1
 12
5.058878787878788
 22
3.733191919191918
 13
0.0
 23
0.0
 14
0.5
 24
0.5
 15
0.0
 25
0.0
 16
0.0
 26
0.0
 36
1.0
 17
0.0
 27
0.0
 37
0.0
 42
50.0
 43
0.0
 44
0.0
 45
7.140000000000001
 50
0.0
 51
0.0
 72
   100
 90
   557168
  1

281
     0
 71
     1
 74
     0
110
0.0
120
0.0
130
0.0
111
1.0
121
0.0
131
0.0
112
0.0
122
1.0
132
0.0
 79
     0
146
0.0
170
     0
 61
     5
348
529
292
     1
282
     1
141
0.0
142
0.0
 63
   256
361
19C4
  0
VIEWPORT
  5
19C1
102
{ACAD_XDICTIONARY
360
19C2
102
}
330
19BC
100
AcDbEntity
 67
     1
  8
0
100
AcDbViewport
 10
5.25
 20
3.5
 30
0.0
 40
8.4
 41
5.600000000000001
 68
     2
 69
     2
 12
13866.72552321638
 22
-2144.741015295267
 13
0.0
 23
0.0
 14
0.5
 24
0.5
 15
0.0
 25
0.0
 16
0.0
 26
0.0
 36
1.0
 17
0.0
 27
0.0
 37
0.0
 42
50.0
 43
0.0
 44
0.0
 45
4663.684076578659
 50
0.0
 51
0.0
 72
   100
 90
   557152
  1

281
     0
 71
     1
 74
     0
110
0.0
120
0.0
130
0.0
111
1.0
121
0.0
131
0.0
112
0.0
122
1.0
132
0.0
 79
     0
146
0.0
170
     0
 61
     5
348
529
292
     1
282
     1
141
0.0
142
0.0
 63
   256
  0
ENDSEC
  0
SECTION
  2
OBJECTS
  0
DICTIONARY
  5
19
330
0
100
AcDbDictionary
281
     1
  3
ACAD_DETAILVIEWSTYLE
350
B41
  3
ACAD_GROUP
350
1A
  3
ACAD_LAYOUT
350
521
  3
ACAD_MATERIAL
350
53D
  3
ACAD_MLEADERSTYLE
350
543
  3
ACAD_MLINESTYLE
350
1B
  3
ACAD_PLOTSETTINGS
350
4FC
  3
ACAD_PLOTSTYLENAME
350
4FD
  3
ACAD_SCALELIST
350
4FF
  3
ACAD_SECTIONVIEWSTYLE
350
B42
  3
ACAD_TABLESTYLE
350
541
  3
ACAD_VISUALSTYLE
350
524
  3
ACDB_RECOMPOSE_DATA
350
19CE
  3
AcDbVariableDictionary
350
B39
  3
APPDATA
350
545
  0
SUN
  5
19C8
330
15
100
AcDbSun
 90
        1
290
     0
 63
     7
421
 16777215
 40
1.0
291
     1
 91
  2455826
 92
 54000000
292
     0
 70
     2
 71
   256
280
     1
  0
SUN
  5
19C4
330
19C0
100
AcDbSun
 90
        1
290
     0
 63
     7
421
 16777215
 40
1.0
291
     1
 91
  2455826
 92
 54000000
292
     0
 70
     2
 71
   256
280
     1
  0
DICTIONARY
  5
19C2
330
19C1
100
AcDbDictionary
280
     1
281
     1
  3
ASDK_XREC_ANNOTATION_SCALE_INFO
360
19C3
  0
DICTIONARY
  5
B41
102
{ACAD_REACTORS
330
19
102
}
330
19
100
AcDbDictionary
281
     1
  0
DICTIONARY
  5
1A
102
{ACAD_REACTORS
330
19
102
}
330
19
100
AcDbDictionary
281
     1
  0
DICTIONARY
  5
521
102
{ACAD_REACTORS
330
19
102
}
330
19
100
AcDbDictionary
281
     1
  3
Model
350
522
  3
シート1
350
19BD
  0
DICTIONARY
  5
53D
102
{ACAD_REACTORS
330
19
102
}
330
19
100
AcDbDictionary
281
     1
  3
ByBlock
350
53F
  3
ByLayer
350
53E
  3
Global
350
540
  0
DICTIONARY
  5
543
102
{ACAD_REACTORS
330
19
102
}
330
19
100
AcDbDictionary
281
     1
  3
Standard
350
544
  0
DICTIONARY
  5
1B
102
{ACAD_REACTORS
330
19
102
}
330
19
100
AcDbDictionary
281
     1
  3
STANDARD
350
1C
  0
DICTIONARY
  5
4FC
102
{ACAD_REACTORS
330
19
102
}
330
19
100
AcDbDictionary
281
     1
  0
ACDBDICTIONARYWDFLT
  5
4FD
102
{ACAD_REACTORS
330
19
102
}
330
19
100
AcDbDictionary
281
     1
  3
Normal
350
4FE
100
AcDbDictionaryWithDefault
340
4FE
  0
DICTIONARY
  5
4FF
102
{ACAD_REACTORS
330
19
102
}
330
19
100
AcDbDictionary
281
     1
  3
A0
350
500
  3
A1
350
501
  3
A2
350
502
  3
A3
350
503
  3
A4
350
504
  3
A5
350
505
  3
A6
350
506
  3
A7
350
507
  3
A8
350
508
  3
A9
350
509
  3
B0
350
50A
  3
B1
350
50B
  3
B2
350
50C
  3
B3
350
50D
  3
B4
350
50E
  3
B5
350
50F
  3
B6
350
510
  3
B7
350
511
  3
B8
350
512
  3
B9
350
513
  3
C0
350
514
  3
C1
350
515
  3
C2
350
516
  3
C3
350
517
  3
C4
350
518
  3
C5
350
519
  3
C6
350
51A
  3
C7
350
51B
  3
C8
350
51C
  3
C9
350
51D
  3
D0
350
51E
  3
D1
350
51F
  3
D2
350
520
  0
DICTIONARY
  5
B42
102
{ACAD_REACTORS
330
19
102
}
330
19
100
AcDbDictionary
281
     1
  0
DICTIONARY
  5
541
102
{ACAD_REACTORS
330
19
102
}
330
19
100
AcDbDictionary
281
     1
  3
Standard
350
542
  0
DICTIONARY
  5
524
102
{ACAD_REACTORS
330
19
102
}
330
19
100
AcDbDictionary
281
     1
  3
2dWireframe
350
529
  3
Basic
350
52C
  3
Brighten
350
530
  3
ColorChange
350
534
  3
Conceptual
350
52E
  3
Dim
350
52F
  3
EdgeColorOff
350
537
  3
Facepattern
350
533
  3
Flat
350
525
  3
FlatWithEdges
350
526
  3
Gouraud
350
527
  3
GouraudWithEdges
350
528
  3
Hidden
350
52B
  3
JitterOff
350
535
  3
Linepattern
350
532
  3
OverhangOff
350
536
  3
Realistic
350
52D
  3
Shaded
350
53C
  3
Shaded with edges
350
53B
  3
Shades of Gray
350
538
  3
Sketchy
350
539
  3
Thicken
350
531
  3
Wireframe
350
52A
  3
X-Ray
350
53A
  0
XRECORD
  5
19CE
102
{ACAD_REACTORS
330
19
102
}
330
19
100
AcDbXrecord
280
     1
 90
        1
330
542
  0
DICTIONARY
  5
B39
102
{ACAD_REACTORS
330
19
102
}
330
19
100
AcDbDictionary
281
     1
  3
CANNOSCALE
350
B3A
  3
CMLEADERSTYLE
350
B3F
  3
CTABLESTYLE
350
B3E
  3
MSLTSCALE
350
B40
  0
DICTIONARY
  5
545
102
{ACAD_REACTORS
330
19
102
}
330
19
100
AcDbDictionary
281
     1
  0
XRECORD
  5
19C3
102
{ACAD_REACTORS
330
19C2
102
}
330
19C2
100
AcDbXrecord
280
     1
 90
        1
340
500
  0
LAYOUT
  5
522
102
{ACAD_REACTORS
330
521
102
}
330
521
100
AcDbPlotSettings
  1

  2
none_device
  4
Letter_(8.50_x_11.00_Inches)
  6

 40
6.35
 41
6.35
 42
6.35
 43
6.35
 44
215.9
 45
279.4
 46
0.0
 47
0.0
 48
0.0
 49
0.0
140
0.0
141
0.0
142
1.0
143
0.8722256190476192
 70
  1712
 72
     0
 73
     0
 74
     0
  7

 75
     0
 76
     0
 77
     2
 78
   300
147
1.146492350330064
148
-87.33095066012679
149
0.0000127000000131
100
AcDbLayout
  1
Model
 70
     1
 71
     0
 10
0.0
 20
0.0
 11
0.0
 21
0.0
 12
0.0
 22
0.0
 32
0.0
 14
10699.79891752662
 24
-4430.86068354169
 34
0.0
 15
17033.65212890613
 25
141.3786300864285
 35
0.0
146
0.0
 13
0.0
 23
0.0
 33
0.0
 16
1.0
 26
0.0
 36
0.0
 17
0.0
 27
1.0
 37
0.0
 76
     0
330
A
331
15
  0
LAYOUT
  5
19BD
102
{ACAD_REACTORS
330
521
102
}
330
521
100
AcDbPlotSettings
  1

  2
none_device
  4
ANSI_A_(11.00_x_8.50_Inches)
  6

 40
6.35
 41
19.05
 42
6.35
 43
19.05
 44
279.4
 45
215.9
 46
0.0
 47
0.0
 48
0.0
 49
0.0
140
0.0
141
0.0
142
1.0
143
1.0
 70
   688
 72
     0
 73
     0
 74
     5
  7

 75
    16
 76
     0
 77
     2
 78
   300
147
1.0
148
0.0
149
0.0
100
AcDbLayout
  1
シート1
 70
     1
 71
     1
 10
-0.25
 20
-0.7500000000000001
 11
10.75
 21
7.75
 12
0.0
 22
0.0
 32
0.0
 14
1.05
 24
0.6999999999999997
 34
0.0
 15
9.45
 25
6.300000000000001
 35
0.0
146
0.0
 13
0.0
 23
0.0
 33
0.0
 16
1.0
 26
0.0
 36
0.0
 17
0.0
 27
1.0
 37
0.0
 76
     0
330
19BC
331
19C0
  0
MATERIAL
  5
53F
102
{ACAD_REACTORS
330
53D
102
}
330
53D
100
AcDbMaterial
  1
ByBlock
 72
     1
 94
      127
  0
MATERIAL
  5
53E
102
{ACAD_REACTORS
330
53D
102
}
330
53D
100
AcDbMaterial
  1
ByLayer
 72
     1
 94
      127
  0
MATERIAL
  5
540
102
{ACAD_REACTORS
330
53D
102
}
330
53D
100
AcDbMaterial
  1
Global
 72
     1
 94
      127
  0
MLEADERSTYLE
  5
544
102
{ACAD_REACTORS
330
543
102
}
330
543
100
AcDbMLeaderStyle
179
     2
170
     2
171
     1
172
     0
 90
        2
 40
0.0
 41
0.0
173
     1
 91
-1056964608
340
11
 92
       -2
290
     1
 42
0.09
291
     1
 43
0.36
  3
Standard
341
0
 44
0.18
300

342
17
174
     1
178
     1
175
     1
176
     0
 93
-1056964608
 45
0.18
292
     0
297
     0
 46
0.18
343
0
 94
-1056964608
 47
1.0
 49
1.0
140
1.0
293
     1
141
0.0
294
     1
177
     0
142
1.0
295
     0
296
     0
143
0.125
271
     0
272
     9
273
     9
298
     0
  0
MLINESTYLE
  5
1C
102
{ACAD_REACTORS
330
1B
102
}
330
1B
100
AcDbMlineStyle
  2
STANDARD
 70
     0
  3

 62
     0
 51
90.0
 52
90.0
 71
     2
 49
0.5
 62
   256
  6
BYLAYER
 49
-0.5
 62
   256
  6
BYLAYER
  0
ACDBPLACEHOLDER
  5
4FE
102
{ACAD_REACTORS
330
4FD
102
}
330
4FD
  0
SCALE
  5
500
102
{ACAD_REACTORS
330
4FF
102
}
330
4FF
100
AcDbScale
 70
     0
300
1:1
140
1.0
141
1.0
290
     1
  0
SCALE
  5
501
102
{ACAD_REACTORS
330
4FF
102
}
330
4FF
100
AcDbScale
 70
     0
300
1:2
140
1.0
141
2.0
290
     0
  0
SCALE
  5
502
102
{ACAD_REACTORS
330
4FF
102
}
330
4FF
100
AcDbScale
 70
     0
300
1:4
140
1.0
141
4.0
290
     0
  0
SCALE
  5
503
102
{ACAD_REACTORS
330
4FF
102
}
330
4FF
100
AcDbScale
 70
     0
300
1:5
140
1.0
141
5.0
290
     0
  0
SCALE
  5
504
102
{ACAD_REACTORS
330
4FF
102
}
330
4FF
100
AcDbScale
 70
     0
300
1:8
140
1.0
141
8.0
290
     0
  0
SCALE
  5
505
102
{ACAD_REACTORS
330
4FF
102
}
330
4FF
100
AcDbScale
 70
     0
300
1:10
140
1.0
141
10.0
290
     0
  0
SCALE
  5
506
102
{ACAD_REACTORS
330
4FF
102
}
330
4FF
100
AcDbScale
 70
     0
300
1:16
140
1.0
141
16.0
290
     0
  0
SCALE
  5
507
102
{ACAD_REACTORS
330
4FF
102
}
330
4FF
100
AcDbScale
 70
     0
300
1:20
140
1.0
141
20.0
290
     0
  0
SCALE
  5
508
102
{ACAD_REACTORS
330
4FF
102
}
330
4FF
100
AcDbScale
 70
     0
300
1:30
140
1.0
141
30.0
290
     0
  0
SCALE
  5
509
102
{ACAD_REACTORS
330
4FF
102
}
330
4FF
100
AcDbScale
 70
     0
300
1:40
140
1.0
141
40.0
290
     0
  0
SCALE
  5
50A
102
{ACAD_REACTORS
330
4FF
102
}
330
4FF
100
AcDbScale
 70
     0
300
1:50
140
1.0
141
50.0
290
     0
  0
SCALE
  5
50B
102
{ACAD_REACTORS
330
4FF
102
}
330
4FF
100
AcDbScale
 70
     0
300
1:100
140
1.0
141
100.0
290
     0
  0
SCALE
  5
50C
102
{ACAD_REACTORS
330
4FF
102
}
330
4FF
100
AcDbScale
 70
     0
300
2:1
140
2.0
141
1.0
290
     0
  0
SCALE
  5
50D
102
{ACAD_REACTORS
330
4FF
102
}
330
4FF
100
AcDbScale
 70
     0
300
4:1
140
4.0
141
1.0
290
     0
  0
SCALE
  5
50E
102
{ACAD_REACTORS
330
4FF
102
}
330
4FF
100
AcDbScale
 70
     0
300
8:1
140
8.0
141
1.0
290
     0
  0
SCALE
  5
50F
102
{ACAD_REACTORS
330
4FF
102
}
330
4FF
100
AcDbScale
 70
     0
300
10:1
140
10.0
141
1.0
290
     0
  0
SCALE
  5
510
102
{ACAD_REACTORS
330
4FF
102
}
330
4FF
100
AcDbScale
 70
     0
300
100:1
140
100.0
141
1.0
290
     0
  0
SCALE
  5
511
102
{ACAD_REACTORS
330
4FF
102
}
330
4FF
100
AcDbScale
 70
     0
300
1/128" = 1'-0"
140
0.0078125
141
12.0
290
     0
  0
SCALE
  5
512
102
{ACAD_REACTORS
330
4FF
102
}
330
4FF
100
AcDbScale
 70
     0
300
1/64" = 1'-0"
140
0.015625
141
12.0
290
     0
  0
SCALE
  5
513
102
{ACAD_REACTORS
330
4FF
102
}
330
4FF
100
AcDbScale
 70
     0
300
1/32" = 1'-0"
140
0.03125
141
12.0
290
     0
  0
SCALE
  5
514
102
{ACAD_REACTORS
330
4FF
102
}
330
4FF
100
AcDbScale
 70
     0
300
1/16" = 1'-0"
140
0.0625
141
12.0
290
     0
  0
SCALE
  5
515
102
{ACAD_REACTORS
330
4FF
102
}
330
4FF
100
AcDbScale
 70
     0
300
3/32" = 1'-0"
140
0.09375
141
12.0
290
     0
  0
SCALE
  5
516
102
{ACAD_REACTORS
330
4FF
102
}
330
4FF
100
AcDbScale
 70
     0
300
1/8" = 1'-0"
140
0.125
141
12.0
290
     0
  0
SCALE
  5
517
102
{ACAD_REACTORS
330
4FF
102
}
330
4FF
100
AcDbScale
 70
     0
300
3/16" = 1'-0"
140
0.1875
141
12.0
290
     0
  0
SCALE
  5
518
102
{ACAD_REACTORS
330
4FF
102
}
330
4FF
100
AcDbScale
 70
     0
300
1/4" = 1'-0"
140
0.25
141
12.0
290
     0
  0
SCALE
  5
519
102
{ACAD_REACTORS
330
4FF
102
}
330
4FF
100
AcDbScale
 70
     0
300
3/8" = 1'-0"
140
0.375
141
12.0
290
     0
  0
SCALE
  5
51A
102
{ACAD_REACTORS
330
4FF
102
}
330
4FF
100
AcDbScale
 70
     0
300
1/2" = 1'-0"
140
0.5
141
12.0
290
     0
  0
SCALE
  5
51B
102
{ACAD_REACTORS
330
4FF
102
}
330
4FF
100
AcDbScale
 70
     0
300
3/4" = 1'-0"
140
0.75
141
12.0
290
     0
  0
SCALE
  5
51C
102
{ACAD_REACTORS
330
4FF
102
}
330
4FF
100
AcDbScale
 70
     0
300
1" = 1'-0"
140
1.0
141
12.0
290
     0
  0
SCALE
  5
51D
102
{ACAD_REACTORS
330
4FF
102
}
330
4FF
100
AcDbScale
 70
     0
300
1-1/2" = 1'-0"
140
1.5
141
12.0
290
     0
  0
SCALE
  5
51E
102
{ACAD_REACTORS
330
4FF
102
}
330
4FF
100
AcDbScale
 70
     0
300
3" = 1'-0"
140
3.0
141
12.0
290
     0
  0
SCALE
  5
51F
102
{ACAD_REACTORS
330
4FF
102
}
330
4FF
100
AcDbScale
 70
     0
300
6" = 1'-0"
140
6.0
141
12.0
290
     0
  0
SCALE
  5
520
102
{ACAD_REACTORS
330
4FF
102
}
330
4FF
100
AcDbScale
 70
     0
300
1'-0" = 1'-0"
140
12.0
141
12.0
290
     0
  0
TABLESTYLE
  5
542
102
{ACAD_REACTORS
330
541
102
}
102
{ACAD_XDICTIONARY
360
19CC
102
}
330
541
100
AcDbTableStyle
  3
Standard
 70
     0
 71
     0
 40
0.06
 41
0.06
280
     0
281
     0
  7
STANDARD
140
0.18
170
     2
 62
     0
 63
   257
283
     0
 90
        4
 91
        0
  1

274
    -2
284
     1
 64
     0
275
    -2
285
     1
 65
     0
276
    -2
286
     1
 66
     0
277
    -2
287
     1
 67
     0
278
    -2
288
     1
 68
     0
279
    -2
289
     1
 69
     0
  7
STANDARD
140
0.25
170
     5
 62
     0
 63
   257
283
     0
 90
        4
 91
        0
  1

274
    -2
284
     1
 64
     0
275
    -2
285
     1
 65
     0
276
    -2
286
     1
 66
     0
277
    -2
287
     1
 67
     0
278
    -2
288
     1
 68
     0
279
    -2
289
     1
 69
     0
  7
STANDARD
140
0.18
170
     5
 62
     0
 63
   257
283
     0
 90
        4
 91
        0
  1

274
    -2
284
     1
 64
     0
275
    -2
285
     1
 65
     0
276
    -2
286
     1
 66
     0
277
    -2
287
     1
 67
     0
278
    -2
288
     1
 68
     0
279
    -2
289
     1
 69
     0
  0
VISUALSTYLE
  5
529
102
{ACAD_REACTORS
330
524
102
}
330
524
100
AcDbVisualStyle
  2
2dWireframe
 70
     4
177
     3
291
     0
 70
    58
 90
        0
176
     1
 90
        2
176
     1
 90
        0
176
     1
 90
        0
176
     1
 40
0.6
176
     1
 40
30.0
176
     1
 62
     7
420
 16777215
176
     1
 90
        1
176
     1
 90
        4
176
     1
 62
     7
176
     1
 62
   257
176
     1
 90
        1
176
     1
 90
        1
176
     1
 40
1.0
176
     1
 90
        0
176
     1
 62
   257
176
     1
 40
1.0
176
     1
 90
        1
176
     1
 90
        6
176
     1
 90
        2
176
     1
 62
     7
176
     1
 90
        5
176
     1
 90
        0
176
     1
 90
        0
176
     1
290
     0
176
     1
 90
        1
176
     1
 40
0.0
176
     1
 90
        0
176
     1
290
     1
176
     1
290
     1
176
     1
290
     0
176
     1
290
     0
176
     1
290
     0
176
     1
290
     0
176
     1
290
     0
176
     1
290
     0
176
     1
290
     0
176
     1
 90
       50
176
     1
 40
0.0
176
     1
 40
1.0
176
     1
 90
        0
176
     1
 62
    18
420
        0
176
     1
 90
       50
176
     1
 90
        3
176
     1
 62
     5
420
      255
176
     1
290
     0
176
     1
 90
       50
176
     1
 90
       50
176
     1
 90
       50
176
     1
290
     0
176
     1
 90
       50
176
     1
 62
   256
176
     0
 40
1.0
176
     0
 90
        2
176
     1
  1
strokes_ogs.tif
176
     1
290
     0
176
     1
 40
1.0
176
     1
 40
1.0
176
     1
  0
VISUALSTYLE
  5
52C
102
{ACAD_REACTORS
330
524
102
}
330
524
100
AcDbVisualStyle
  2
Basic
 70
     7
177
     3
291
     1
 70
    58
 90
        1
176
     1
 90
        0
176
     1
 90
        1
176
     1
 90
        0
176
     1
 40
0.6
176
     1
 40
30.0
176
     1
 62
     7
420
 16777215
176
     1
 90
        0
176
     1
 90
        4
176
     1
 62
     7
176
     1
 62
   257
176
     1
 90
        1
176
     1
 90
        1
176
     1
 40
1.0
176
     1
 90
        8
176
     1
 62
     7
176
     1
 40
1.0
176
     1
 90
        1
176
     1
 90
        6
176
     1
 90
        2
176
     1
 62
     7
176
     1
 90
        5
176
     1
 90
        0
176
     1
 90
        0
176
     1
290
     0
176
     1
 90
        1
176
     1
 40
0.0
176
     1
 90
        0
176
     1
290
     0
176
     1
290
     1
176
     1
290
     1
176
     1
290
     0
176
     1
290
     0
176
     1
290
     0
176
     1
290
     0
176
     1
290
     0
176
     1
290
     0
176
     1
 90
       50
176
     1
 40
0.0
176
     1
 40
1.0
176
     1
 90
        0
176
     1
 62
    18
420
        0
176
     1
 90
       50
176
     1
 90
        3
176
     1
 62
     5
420
      255
176
     1
290
     0
176
     1
 90
       50
176
     1
 90
       50
176
     1
 90
       50
176
     1
290
     0
176
     1
 90
       50
176
     1
 62
   256
176
     0
 40
1.0
176
     0
 90
        2
176
     1
  1
strokes_ogs.tif
176
     1
290
     0
176
     1
 40
1.0
176
     1
 40
1.0
176
     1
  0
VISUALSTYLE
  5
530
102
{ACAD_REACTORS
330
524
102
}
330
524
100
AcDbVisualStyle
  2
Brighten
 70
    12
177
     3
291
     1
 70
    58
 90
        2
176
     1
 90
        2
176
     1
 90
        0
176
     1
 90
        0
176
     1
 40
0.6
176
     1
 40
30.0
176
     1
 62
     7
420
 16777215
176
     1
 90
        1
176
     1
 90
        4
176
     1
 62
     7
176
     1
 62
   257
176
     1
 90
        1
176
     1
 90
        1
176
     1
 40
1.0
176
     1
 90
        8
176
     1
 62
     7
176
     1
 40
1.0
176
     1
 90
        1
176
     1
 90
        6
176
     1
 90
        2
176
     1
 62
     7
176
     1
 90
        5
176
     1
 90
        0
176
     1
 90
        0
176
     1
290
     0
176
     1
 90
        1
176
     1
 40
50.0
176
     1
 90
        0
176
     1
290
     0
176
     1
290
     1
176
     1
290
     1
176
     1
290
     0
176
     1
290
     0
176
     1
290
     0
176
     1
290
     0
176
     1
290
     0
176
     1
290
     0
176
     1
 90
       50
176
     1
 40
0.0
176
     1
 40
1.0
176
     1
 90
        0
176
     1
 62
    18
420
        0
176
     1
 90
       50
176
     1
 90
        3
176
     1
 62
     5
420
      255
176
     1
290
     0
176
     1
 90
       50
176
     1
 90
       50
176
     1
 90
       50
176
     1
290
     0
176
     1
 90
       50
176
     1
 62
   256
176
     0
 40
1.0
176
     0
 90
        2
176
     1
  1
strokes_ogs.tif
176
     1
290
     0
176
     1
 40
1.0
176
     1
 40
1.0
176
     1
  0
VISUALSTYLE
  5
534
102
{ACAD_REACTORS
330
524
102
}
330
524
100
AcDbVisualStyle
  2
ColorChange
 70
    16
177
     3
291
     1
 70
    58
 90
        2
176
     1
 90
        2
176
     1
 90
        3
176
     1
 90
        0
176
     1
 40
0.6
176
     1
 40
30.0
176
     1
 62
     8
420
  8421504
176
     1
 90
        1
176
     1
 90
        4
176
     1
 62
     7
176
     1
 62
   257
176
     1
 90
        1
176
     1
 90
        1
176
     1
 40
1.0
176
     1
 90
        8
176
     1
 62
     8
420
  8421504
176
     1
 40
1.0
176
     1
 90
        1
176
     1
 90
        6
176
     1
 90
        2
176
     1
 62
     7
176
     1
 90
        5
176
     1
 90
        0
176
     1
 90
        0
176
     1
290
     0
176
     1
 90
        1
176
     1
 40
0.0
176
     1
 90
        0
176
     1
290
     0
176
     1
290
     1
176
     1
290
     1
176
     1
290
     0
176
     1
290
     0
176
     1
290
     0
176
     1
290
     0
176
     1
290
     0
176
     1
290
     0
176
     1
 90
       50
176
     1
 40
0.0
176
     1
 40
1.0
176
     1
 90
        0
176
     1
 62
    18
420
        0
176
     1
 90
       50
176
     1
 90
        3
176
     1
 62
     5
420
      255
176
     1
290
     0
176
     1
 90
       50
176
     1
 90
       50
176
     1
 90
       50
176
     1
290
     0
176
     1
 90
       50
176
     1
 62
   256
176
     0
 40
1.0
176
     0
 90
        2
176
     1
  1
strokes_ogs.tif
176
     1
290
     0
176
     1
 40
1.0
176
     1
 40
1.0
176
     1
  0
VISUALSTYLE
  5
52E
102
{ACAD_REACTORS
330
524
102
}
330
524
100
AcDbVisualStyle
  2
Conceptual
 70
     9
177
     3
291
     0
 70
    58
 90
        3
176
     1
 90
        2
176
     1
 90
        0
176
     1
 90
        0
176
     1
 40
0.6
176
     1
 40
30.0
176
     1
 62
     7
420
 16777215
176
     1
 90
        2
176
     1
 90
        2
176
     1
 62
     7
176
     1
 62
   257
176
     1
 90
        1
176
     1
 90
        1
176
     1
 40
179.0
176
     1
 90
        8
176
     1
 62
     7
176
     1
 40
1.0
176
     1
 90
        1
176
     1
 90
        6
176
     1
 90
        2
176
     1
 62
     7
176
     1
 90
        3
176
     1
 90
        0
176
     1
 90
        0
176
     1
290
     0
176
     1
 90
        1
176
     1
 40
0.0
176
     1
 90
        0
176
     1
290
     0
176
     1
290
     1
176
     1
290
     1
176
     1
290
     0
176
     1
290
     0
176
     1
290
     0
176
     1
290
     0
176
     1
290
     0
176
     1
290
     0
176
     1
 90
       50
176
     1
 40
0.0
176
     1
 40
1.0
176
     1
 90
        0
176
     1
 62
    18
420
        0
176
     1
 90
       50
176
     1
 90
        3
176
     1
 62
     5
420
      255
176
     1
290
     0
176
     1
 90
       50
176
     1
 90
       50
176
     1
 90
       50
176
     1
290
     0
176
     1
 90
       50
176
     1
 62
   256
176
     0
 40
1.0
176
     0
 90
        2
176
     1
  1
strokes_ogs.tif
176
     1
290
     0
176
     1
 40
1.0
176
     1
 40
1.0
176
     1
  0
VISUALSTYLE
  5
52F
102
{ACAD_REACTORS
330
524
102
}
330
524
100
AcDbVisualStyle
  2
Dim
 70
    11
177
     3
291
     1
 70
    58
 90
        2
176
     1
 90
        2
176
     1
 90
        0
176
     1
 90
        0
176
     1
 40
0.6
176
     1
 40
30.0
176
     1
 62
     7
420
 16777215
176
     1
 90
        1
176
     1
 90
        4
176
     1
 62
     7
176
     1
 62
   257
176
     1
 90
        1
176
     1
 90
        1
176
     1
 40
1.0
176
     1
 90
        8
176
     1
 62
     7
176
     1
 40
1.0
176
     1
 90
        1
176
     1
 90
        6
176
     1
 90
        2
176
     1
 62
     7
176
     1
 90
        5
176
     1
 90
        0
176
     1
 90
        0
176
     1
290
     0
176
     1
 90
        1
176
     1
 40
-50.0
176
     1
 90
        0
176
     1
290
     0
176
     1
290
     1
176
     1
290
     1
176
     1
290
     0
176
     1
290
     0
176
     1
290
     0
176
     1
290
     0
176
     1
290
     0
176
     1
290
     0
176
     1
 90
       50
176
     1
 40
0.0
176
     1
 40
1.0
176
     1
 90
        0
176
     1
 62
    18
420
        0
176
     1
 90
       50
176
     1
 90
        3
176
     1
 62
     5
420
      255
176
     1
290
     0
176
     1
 90
       50
176
     1
 90
       50
176
     1
 90
       50
176
     1
290
     0
176
     1
 90
       50
176
     1
 62
   256
176
     0
 40
1.0
176
     0
 90
        2
176
     1
  1
strokes_ogs.tif
176
     1
290
     0
176
     1
 40
1.0
176
     1
 40
1.0
176
     1
  0
VISUALSTYLE
  5
537
102
{ACAD_REACTORS
330
524
102
}
330
524
100
AcDbVisualStyle
  2
EdgeColorOff
 70
    22
177
     3
291
     1
 70
    58
 90
        2
176
     0
 90
        2
176
     0
 90
        0
176
     0
 90
        0
176
     0
 40
0.6
176
     0
 40
30.0
176
     0
 62
     7
420
 16777215
176
     0
 90
        1
176
     0
 90
        4
176
     0
 62
     7
176
     0
 62
   257
176
     0
 90
        1
176
     0
 90
        1
176
     0
 40
1.0
176
     0
 90
        8
176
     2
 62
     7
176
     0
 40
1.0
176
     0
 90
        1
176
     0
 90
        6
176
     0
 90
        2
176
     0
 62
     7
176
     0
 90
        5
176
     0
 90
        0
176
     0
 90
        0
176
     0
290
     0
176
     0
 90
        1
176
     0
 40
0.0
176
     0
 90
        0
176
     0
290
     0
176
     0
290
     1
176
     0
290
     1
176
     0
290
     0
176
     0
290
     0
176
     0
290
     0
176
     0
290
     0
176
     0
290
     0
176
     0
290
     0
176
     0
 90
       50
176
     0
 40
0.0
176
     0
 40
1.0
176
     0
 90
        0
176
     0
 62
    18
420
        0
176
     0
 90
       50
176
     0
 90
        3
176
     0
 62
     5
420
      255
176
     0
290
     0
176
     0
 90
       50
176
     0
 90
       50
176
     0
 90
       50
176
     0
290
     0
176
     0
 90
       50
176
     0
 62
   256
176
     0
 40
1.0
176
     0
 90
        2
176
     0
  1
strokes_ogs.tif
176
     0
290
     0
176
     0
 40
1.0
176
     0
 40
1.0
176
     0
  0
VISUALSTYLE
  5
533
102
{ACAD_REACTORS
330
524
102
}
330
524
100
AcDbVisualStyle
  2
Facepattern
 70
    15
177
     3
291
     1
 70
    58
 90
        2
176
     1
 90
        2
176
     1
 90
        0
176
     1
 90
        0
176
     1
 40
0.6
176
     1
 40
30.0
176
     1
 62
     7
420
 16777215
176
     1
 90
        1
176
     1
 90
        4
176
     1
 62
     7
176
     1
 62
   257
176
     1
 90
        1
176
     1
 90
        1
176
     1
 40
1.0
176
     1
 90
        8
176
     1
 62
     7
176
     1
 40
1.0
176
     1
 90
        1
176
     1
 90
        6
176
     1
 90
        2
176
     1
 62
     7
176
     1
 90
        5
176
     1
 90
        0
176
     1
 90
        0
176
     1
290
     0
176
     1
 90
        1
176
     1
 40
0.0
176
     1
 90
        0
176
     1
290
     0
176
     1
290
     1
176
     1
290
     1
176
     1
290
     0
176
     1
290
     0
176
     1
290
     0
176
     1
290
     0
176
     1
290
     0
176
     1
290
     0
176
     1
 90
       50
176
     1
 40
0.0
176
     1
 40
1.0
176
     1
 90
        0
176
     1
 62
    18
420
        0
176
     1
 90
       50
176
     1
 90
        3
176
     1
 62
     5
420
      255
176
     1
290
     0
176
     1
 90
       50
176
     1
 90
       50
176
     1
 90
       50
176
     1
290
     0
176
     1
 90
       50
176
     1
 62
   256
176
     0
 40
1.0
176
     0
 90
        2
176
     1
  1
strokes_ogs.tif
176
     1
290
     0
176
     1
 40
1.0
176
     1
 40
1.0
176
     1
  0
VISUALSTYLE
  5
525
102
{ACAD_REACTORS
330
524
102
}
330
524
100
AcDbVisualStyle
  2
Flat
 70
     0
177
     3
291
     1
 70
    58
 90
        2
176
     1
 90
        1
176
     1
 90
        1
176
     1
 90
        2
176
     1
 40
0.6
176
     1
 40
30.0
176
     1
 62
     7
420
 16777215
176
     1
 90
        0
176
     1
 90
        0
176
     1
 62
     7
176
     1
 62
   257
176
     1
 90
        1
176
     1
 90
        1
176
     1
 40
1.0
176
     1
 90
        8
176
     1
 62
     7
176
     1
 40
1.0
176
     1
 90
        1
176
     1
 90
        6
176
     1
 90
        2
176
     1
 62
     7
176
     1
 90
        5
176
     1
 90
        0
176
     1
 90
        0
176
     1
290
     0
176
     1
 90
       13
176
     1
 40
0.0
176
     1
 90
        0
176
     1
290
     0
176
     1
290
     1
176
     1
290
     1
176
     1
290
     0
176
     1
290
     0
176
     1
290
     0
176
     1
290
     0
176
     1
290
     0
176
     1
290
     0
176
     1
 90
       50
176
     1
 40
0.0
176
     1
 40
1.0
176
     1
 90
        0
176
     1
 62
    18
420
        0
176
     1
 90
       50
176
     1
 90
        3
176
     1
 62
     5
420
      255
176
     1
290
     0
176
     1
 90
       50
176
     1
 90
       50
176
     1
 90
       50
176
     1
290
     0
176
     1
 90
       50
176
     1
 62
   256
176
     0
 40
1.0
176
     0
 90
        2
176
     1
  1
strokes_ogs.tif
176
     1
290
     0
176
     1
 40
1.0
176
     1
 40
1.0
176
     1
  0
VISUALSTYLE
  5
526
102
{ACAD_REACTORS
330
524
102
}
330
524
100
AcDbVisualStyle
  2
FlatWithEdges
 70
     1
177
     3
291
     1
 70
    58
 90
        2
176
     1
 90
        1
176
     1
 90
        1
176
     1
 90
        2
176
     1
 40
0.6
176
     1
 40
30.0
176
     1
 62
     7
420
 16777215
176
     1
 90
        1
176
     1
 90
        0
176
     1
 62
     7
176
     1
 62
   257
176
     1
 90
        1
176
     1
 90
        1
176
     1
 40
1.0
176
     1
 90
        0
176
     1
 62
   257
176
     1
 40
1.0
176
     1
 90
        1
176
     1
 90
        6
176
     1
 90
        2
176
     1
 62
     7
176
     1
 90
        5
176
     1
 90
        0
176
     1
 90
        0
176
     1
290
     0
176
     1
 90
       13
176
     1
 40
0.0
176
     1
 90
        0
176
     1
290
     0
176
     1
290
     1
176
     1
290
     1
176
     1
290
     0
176
     1
290
     0
176
     1
290
     0
176
     1
290
     0
176
     1
290
     0
176
     1
290
     0
176
     1
 90
       50
176
     1
 40
0.0
176
     1
 40
1.0
176
     1
 90
        0
176
     1
 62
    18
420
        0
176
     1
 90
       50
176
     1
 90
        3
176
     1
 62
     5
420
      255
176
     1
290
     0
176
     1
 90
       50
176
     1
 90
       50
176
     1
 90
       50
176
     1
290
     0
176
     1
 90
       50
176
     1
 62
   256
176
     0
 40
1.0
176
     0
 90
        2
176
     1
  1
strokes_ogs.tif
176
     1
290
     0
176
     1
 40
1.0
176
     1
 40
1.0
176
     1
  0
VISUALSTYLE
  5
527
102
{ACAD_REACTORS
330
524
102
}
330
524
100
AcDbVisualStyle
  2
Gouraud
 70
     2
177
     3
291
     1
 70
    58
 90
        2
176
     1
 90
        2
176
     1
 90
        1
176
     1
 90
        2
176
     1
 40
0.6
176
     1
 40
30.0
176
     1
 62
     7
420
 16777215
176
     1
 90
        0
176
     1
 90
        0
176
     1
 62
     7
176
     1
 62
   257
176
     1
 90
        1
176
     1
 90
        1
176
     1
 40
1.0
176
     1
 90
        0
176
     1
 62
     7
176
     1
 40
1.0
176
     1
 90
        1
176
     1
 90
        6
176
     1
 90
        2
176
     1
 62
     7
176
     1
 90
        5
176
     1
 90
        0
176
     1
 90
        0
176
     1
290
     0
176
     1
 90
       13
176
     1
 40
0.0
176
     1
 90
        0
176
     1
290
     0
176
     1
290
     1
176
     1
290
     1
176
     1
290
     0
176
     1
290
     0
176
     1
290
     0
176
     1
290
     0
176
     1
290
     0
176
     1
290
     0
176
     1
 90
       50
176
     1
 40
0.0
176
     1
 40
1.0
176
     1
 90
        0
176
     1
 62
    18
420
        0
176
     1
 90
       50
176
     1
 90
        3
176
     1
 62
     5
420
      255
176
     1
290
     0
176
     1
 90
       50
176
     1
 90
       50
176
     1
 90
       50
176
     1
290
     0
176
     1
 90
       50
176
     1
 62
   256
176
     0
 40
1.0
176
     0
 90
        2
176
     1
  1
strokes_ogs.tif
176
     1
290
     0
176
     1
 40
1.0
176
     1
 40
1.0
176
     1
  0
VISUALSTYLE
  5
528
102
{ACAD_REACTORS
330
524
102
}
330
524
100
AcDbVisualStyle
  2
GouraudWithEdges
 70
     3
177
     3
291
     1
 70
    58
 90
        2
176
     1
 90
        2
176
     1
 90
        1
176
     1
 90
        2
176
     1
 40
0.6
176
     1
 40
30.0
176
     1
 62
     7
420
 16777215
176
     1
 90
        1
176
     1
 90
        0
176
     1
 62
     7
176
     1
 62
   257
176
     1
 90
        1
176
     1
 90
        1
176
     1
 40
1.0
176
     1
 90
        0
176
     1
 62
   257
176
     1
 40
1.0
176
     1
 90
        1
176
     1
 90
        6
176
     1
 90
        2
176
     1
 62
     7
176
     1
 90
        5
176
     1
 90
        0
176
     1
 90
        0
176
     1
290
     0
176
     1
 90
       13
176
     1
 40
0.0
176
     1
 90
        0
176
     1
290
     0
176
     1
290
     1
176
     1
290
     1
176
     1
290
     0
176
     1
290
     0
176
     1
290
     0
176
     1
290
     0
176
     1
290
     0
176
     1
290
     0
176
     1
 90
       50
176
     1
 40
0.0
176
     1
 40
1.0
176
     1
 90
        0
176
     1
 62
    18
420
        0
176
     1
 90
       50
176
     1
 90
        3
176
     1
 62
     5
420
      255
176
     1
290
     0
176
     1
 90
       50
176
     1
 90
       50
176
     1
 90
       50
176
     1
290
     0
176
     1
 90
       50
176
     1
 62
   256
176
     0
 40
1.0
176
     0
 90
        2
176
     1
  1
strokes_ogs.tif
176
     1
290
     0
176
     1
 40
1.0
176
     1
 40
1.0
176
     1
  0
VISUALSTYLE
  5
52B
102
{ACAD_REACTORS
330
524
102
}
330
524
100
AcDbVisualStyle
  2
Hidden
 70
     6
177
     3
291
     0
 70
    58
 90
        1
176
     1
 90
        2
176
     1
 90
        2
176
     1
 90
        0
176
     1
 40
0.6
176
     1
 40
30.0
176
     1
 62
     7
420
 16777215
176
     1
 90
        2
176
     1
 90
        2
176
     1
 62
     7
176
     1
 62
   257
176
     1
 90
        2
176
     1
 90
        1
176
     1
 40
40.0
176
     1
 90
        0
176
     1
 62
   257
176
     1
 40
1.0
176
     1
 90
        1
176
     1
 90
        6
176
     1
 90
        2
176
     1
 62
     7
176
     1
 90
        3
176
     1
 90
        0
176
     1
 90
        0
176
     1
290
     0
176
     1
 90
        1
176
     1
 40
0.0
176
     1
 90
        0
176
     1
290
     0
176
     1
290
     1
176
     1
290
     1
176
     1
290
     0
176
     1
290
     0
176
     1
290
     0
176
     1
290
     0
176
     1
290
     0
176
     1
290
     0
176
     1
 90
       50
176
     1
 40
0.0
176
     1
 40
1.0
176
     1
 90
        0
176
     1
 62
    18
420
        0
176
     1
 90
       50
176
     1
 90
        3
176
     1
 62
     5
420
      255
176
     1
290
     0
176
     1
 90
       50
176
     1
 90
       50
176
     1
 90
       50
176
     1
290
     0
176
     1
 90
       50
176
     1
 62
   256
176
     0
 40
1.0
176
     0
 90
        2
176
     1
  1
strokes_ogs.tif
176
     1
290
     0
176
     1
 40
1.0
176
     1
 40
1.0
176
     1
  0
VISUALSTYLE
  5
535
102
{ACAD_REACTORS
330
524
102
}
330
524
100
AcDbVisualStyle
  2
JitterOff
 70
    20
177
     3
291
     1
 70
    58
 90
        2
176
     0
 90
        2
176
     0
 90
        0
176
     0
 90
        0
176
     0
 40
0.6
176
     0
 40
30.0
176
     0
 62
     7
420
 16777215
176
     0
 90
        1
176
     0
 90
        4
176
     0
 62
     7
176
     0
 62
   257
176
     0
 90
        1
176
     0
 90
        1
176
     0
 40
1.0
176
     0
 90
       10
176
     2
 62
     7
176
     0
 40
1.0
176
     0
 90
        1
176
     0
 90
        6
176
     0
 90
        2
176
     0
 62
     7
176
     0
 90
        5
176
     0
 90
        0
176
     0
 90
        0
176
     0
290
     0
176
     0
 90
        1
176
     0
 40
0.0
176
     0
 90
        0
176
     0
290
     0
176
     0
290
     1
176
     0
290
     1
176
     0
290
     0
176
     0
290
     0
176
     0
290
     0
176
     0
290
     0
176
     0
290
     0
176
     0
290
     0
176
     0
 90
       50
176
     0
 40
0.0
176
     0
 40
1.0
176
     0
 90
        0
176
     0
 62
    18
420
        0
176
     0
 90
       50
176
     0
 90
        3
176
     0
 62
     5
420
      255
176
     0
290
     0
176
     0
 90
       50
176
     0
 90
       50
176
     0
 90
       50
176
     0
290
     0
176
     0
 90
       50
176
     0
 62
   256
176
     0
 40
1.0
176
     0
 90
        2
176
     0
  1
strokes_ogs.tif
176
     0
290
     0
176
     0
 40
1.0
176
     0
 40
1.0
176
     0
  0
VISUALSTYLE
  5
532
102
{ACAD_REACTORS
330
524
102
}
330
524
100
AcDbVisualStyle
  2
Linepattern
 70
    14
177
     3
291
     1
 70
    58
 90
        2
176
     1
 90
        2
176
     1
 90
        0
176
     1
 90
        0
176
     1
 40
0.6
176
     1
 40
30.0
176
     1
 62
     7
420
 16777215
176
     1
 90
        1
176
     1
 90
        4
176
     1
 62
     7
176
     1
 62
   257
176
     1
 90
        7
176
     1
 90
        7
176
     1
 40
1.0
176
     1
 90
        8
176
     1
 62
     7
176
     1
 40
1.0
176
     1
 90
        1
176
     1
 90
        6
176
     1
 90
        2
176
     1
 62
     7
176
     1
 90
        5
176
     1
 90
        0
176
     1
 90
        0
176
     1
290
     0
176
     1
 90
        1
176
     1
 40
0.0
176
     1
 90
        0
176
     1
290
     0
176
     1
290
     1
176
     1
290
     1
176
     1
290
     0
176
     1
290
     0
176
     1
290
     0
176
     1
290
     0
176
     1
290
     0
176
     1
290
     0
176
     1
 90
       50
176
     1
 40
0.0
176
     1
 40
1.0
176
     1
 90
        0
176
     1
 62
    18
420
        0
176
     1
 90
       50
176
     1
 90
        3
176
     1
 62
     5
420
      255
176
     1
290
     0
176
     1
 90
       50
176
     1
 90
       50
176
     1
 90
       50
176
     1
290
     0
176
     1
 90
       50
176
     1
 62
   256
176
     0
 40
1.0
176
     0
 90
        2
176
     1
  1
strokes_ogs.tif
176
     1
290
     0
176
     1
 40
1.0
176
     1
 40
1.0
176
     1
  0
VISUALSTYLE
  5
536
102
{ACAD_REACTORS
330
524
102
}
330
524
100
AcDbVisualStyle
  2
OverhangOff
 70
    21
177
     3
291
     1
 70
    58
 90
        2
176
     0
 90
        2
176
     0
 90
        0
176
     0
 90
        0
176
     0
 40
0.6
176
     0
 40
30.0
176
     0
 62
     7
420
 16777215
176
     0
 90
        1
176
     0
 90
        4
176
     0
 62
     7
176
     0
 62
   257
176
     0
 90
        1
176
     0
 90
        1
176
     0
 40
1.0
176
     0
 90
        9
176
     2
 62
     7
176
     0
 40
1.0
176
     0
 90
        1
176
     0
 90
        6
176
     0
 90
        2
176
     0
 62
     7
176
     0
 90
        5
176
     0
 90
        0
176
     0
 90
        0
176
     0
290
     0
176
     0
 90
        1
176
     0
 40
0.0
176
     0
 90
        0
176
     0
290
     0
176
     0
290
     1
176
     0
290
     1
176
     0
290
     0
176
     0
290
     0
176
     0
290
     0
176
     0
290
     0
176
     0
290
     0
176
     0
290
     0
176
     0
 90
       50
176
     0
 40
0.0
176
     0
 40
1.0
176
     0
 90
        0
176
     0
 62
    18
420
        0
176
     0
 90
       50
176
     0
 90
        3
176
     0
 62
     5
420
      255
176
     0
290
     0
176
     0
 90
       50
176
     0
 90
       50
176
     0
 90
       50
176
     0
290
     0
176
     0
 90
       50
176
     0
 62
   256
176
     0
 40
1.0
176
     0
 90
        2
176
     0
  1
strokes_ogs.tif
176
     0
290
     0
176
     0
 40
1.0
176
     0
 40
1.0
176
     0
  0
VISUALSTYLE
  5
52D
102
{ACAD_REACTORS
330
524
102
}
330
524
100
AcDbVisualStyle
  2
Realistic
 70
     8
177
     3
291
     0
 70
    58
 90
        2
176
     1
 90
        3
176
     1
 90
        0
176
     1
 90
        2
176
     1
 40
0.6
176
     1
 40
30.0
176
     1
 62
     7
420
 16777215
176
     1
 90
        0
176
     1
 90
        0
176
     1
 62
     7
176
     1
 62
   257
176
     1
 90
        1
176
     1
 90
        1
176
     1
 40
1.0
176
     1
 90
        8
176
     1
 62
   257
176
     1
 40
1.0
176
     1
 90
        1
176
     1
 90
        6
176
     1
 90
        2
176
     1
 62
     7
176
     1
 90
        3
176
     1
 90
        0
176
     1
 90
        0
176
     1
290
     0
176
     1
 90
       13
176
     1
 40
0.0
176
     1
 90
        0
176
     1
290
     0
176
     1
290
     1
176
     1
290
     1
176
     1
290
     0
176
     1
290
     0
176
     1
290
     0
176
     1
290
     0
176
     1
290
     0
176
     1
290
     0
176
     1
 90
       50
176
     1
 40
0.0
176
     1
 40
1.0
176
     1
 90
        0
176
     1
 62
    18
420
        0
176
     1
 90
       50
176
     1
 90
        3
176
     1
 62
     5
420
      255
176
     1
290
     0
176
     1
 90
       50
176
     1
 90
       50
176
     1
 90
       50
176
     1
290
     0
176
     1
 90
       50
176
     1
 62
   256
176
     0
 40
1.0
176
     0
 90
        2
176
     1
  1
strokes_ogs.tif
176
     1
290
     0
176
     1
 40
1.0
176
     1
 40
1.0
176
     1
  0
VISUALSTYLE
  5
53C
102
{ACAD_REACTORS
330
524
102
}
330
524
100
AcDbVisualStyle
  2
Shaded
 70
    27
177
     3
291
     0
 70
    58
 90
        2
176
     1
 90
        2
176
     1
 90
        1
176
     1
 90
        2
176
     1
 40
0.6
176
     1
 40
30.0
176
     1
 62
     7
420
 16777215
176
     1
 90
        0
176
     1
 90
        4
176
     1
 62
     7
176
     1
 62
   257
176
     1
 90
        1
176
     1
 90
        1
176
     1
 40
1.0
176
     1
 90
        8
176
     1
 62
   257
176
     1
 40
1.0
176
     1
 90
        1
176
     1
 90
        6
176
     1
 90
        2
176
     1
 62
     8
420
  7895160
176
     1
 90
        3
176
     1
 90
        0
176
     1
 90
        0
176
     1
290
     0
176
     1
 90
        5
176
     1
 40
0.0
176
     1
 90
        0
176
     1
290
     0
176
     1
290
     1
176
     1
290
     1
176
     1
290
     0
176
     1
290
     0
176
     1
290
     0
176
     1
290
     0
176
     1
290
     0
176
     1
290
     0
176
     1
 90
       50
176
     1
 40
0.0
176
     1
 40
1.0
176
     1
 90
        0
176
     1
 62
    18
420
        0
176
     1
 90
       50
176
     1
 90
        3
176
     1
 62
     5
420
      255
176
     1
290
     0
176
     1
 90
       50
176
     1
 90
       50
176
     1
 90
       50
176
     1
290
     0
176
     1
 90
       50
176
     1
 62
   256
176
     0
 40
1.0
176
     0
 90
        2
176
     1
  1
strokes_ogs.tif
176
     1
290
     0
176
     1
 40
1.0
176
     1
 40
1.0
176
     1
  0
VISUALSTYLE
  5
53B
102
{ACAD_REACTORS
330
524
102
}
330
524
100
AcDbVisualStyle
  2
Shaded with edges
 70
    26
177
     3
291
     0
 70
    58
 90
        2
176
     1
 90
        2
176
     1
 90
        1
176
     1
 90
        2
176
     1
 40
0.6
176
     1
 40
30.0
176
     1
 62
     7
420
 16777215
176
     1
 90
        1
176
     1
 90
       10
176
     1
 62
     7
176
     1
 62
   257
176
     1
 90
        2
176
     1
 90
        1
176
     1
 40
1.0
176
     1
 90
        8
176
     1
 62
   257
176
     1
 40
1.0
176
     1
 90
        1
176
     1
 90
        6
176
     1
 90
        2
176
     1
 62
     7
176
     1
 90
        3
176
     1
 90
        0
176
     1
 90
        0
176
     1
290
     0
176
     1
 90
        5
176
     1
 40
0.0
176
     1
 90
        0
176
     1
290
     0
176
     1
290
     1
176
     1
290
     1
176
     1
290
     0
176
     1
290
     0
176
     1
290
     0
176
     1
290
     0
176
     1
290
     0
176
     1
290
     0
176
     1
 90
       50
176
     1
 40
0.0
176
     1
 40
1.0
176
     1
 90
        0
176
     1
 62
    18
420
        0
176
     1
 90
       50
176
     1
 90
        3
176
     1
 62
     5
420
      255
176
     1
290
     0
176
     1
 90
       50
176
     1
 90
       50
176
     1
 90
       50
176
     1
290
     0
176
     1
 90
       50
176
     1
 62
   256
176
     0
 40
1.0
176
     0
 90
        2
176
     1
  1
strokes_ogs.tif
176
     1
290
     0
176
     1
 40
1.0
176
     1
 40
1.0
176
     1
  0
VISUALSTYLE
  5
538
102
{ACAD_REACTORS
330
524
102
}
330
524
100
AcDbVisualStyle
  2
Shades of Gray
 70
    23
177
     3
291
     0
 70
    58
 90
        2
176
     1
 90
        2
176
     1
 90
        3
176
     1
 90
        0
176
     1
 40
0.6
176
     1
 40
30.0
176
     1
 62
     7
420
 16777215
176
     1
 90
        2
176
     1
 90
        2
176
     1
 62
     7
176
     1
 62
     7
176
     1
 90
        1
176
     1
 90
        1
176
     1
 40
40.0
176
     1
 90
        8
176
     1
 62
     7
176
     1
 40
1.0
176
     1
 90
        1
176
     1
 90
        6
176
     1
 90
        2
176
     1
 62
     7
176
     1
 90
        3
176
     1
 90
        0
176
     1
 90
        0
176
     1
290
     0
176
     1
 90
        1
176
     1
 40
0.0
176
     1
 90
        0
176
     1
290
     0
176
     1
290
     1
176
     1
290
     1
176
     1
290
     0
176
     1
290
     0
176
     1
290
     0
176
     1
290
     0
176
     1
290
     0
176
     1
290
     0
176
     1
 90
       50
176
     1
 40
0.0
176
     1
 40
1.0
176
     1
 90
        0
176
     1
 62
    18
420
        0
176
     1
 90
       50
176
     1
 90
        3
176
     1
 62
     5
420
      255
176
     1
290
     0
176
     1
 90
       50
176
     1
 90
       50
176
     1
 90
       50
176
     1
290
     0
176
     1
 90
       50
176
     1
 62
   256
176
     0
 40
1.0
176
     0
 90
        2
176
     1
  1
strokes_ogs.tif
176
     1
290
     0
176
     1
 40
1.0
176
     1
 40
1.0
176
     1
  0
VISUALSTYLE
  5
539
102
{ACAD_REACTORS
330
524
102
}
330
524
100
AcDbVisualStyle
  2
Sketchy
 70
    24
177
     3
291
     0
 70
    58
 90
        1
176
     1
 90
        2
176
     1
 90
        2
176
     1
 90
        0
176
     1
 40
0.6
176
     1
 40
30.0
176
     1
 62
     7
420
 16777215
176
     1
 90
        2
176
     1
 90
        2
176
     1
 62
     7
176
     1
 62
     7
176
     1
 90
        1
176
     1
 90
        1
176
     1
 40
40.0
176
     1
 90
       11
176
     1
 62
     7
176
     1
 40
1.0
176
     1
 90
        1
176
     1
 90
        6
176
     1
 90
        2
176
     1
 62
     7
176
     1
 90
        6
176
     1
 90
        0
176
     1
 90
        0
176
     1
290
     0
176
     1
 90
        1
176
     1
 40
0.0
176
     1
 90
        0
176
     1
290
     0
176
     1
290
     1
176
     1
290
     1
176
     1
290
     0
176
     1
290
     0
176
     1
290
     0
176
     1
290
     0
176
     1
290
     0
176
     1
290
     0
176
     1
 90
       50
176
     1
 40
0.0
176
     1
 40
1.0
176
     1
 90
        0
176
     1
 62
    18
420
        0
176
     1
 90
       50
176
     1
 90
        3
176
     1
 62
     5
420
      255
176
     1
290
     0
176
     1
 90
       50
176
     1
 90
       50
176
     1
 90
       50
176
     1
290
     0
176
     1
 90
       50
176
     1
 62
   256
176
     0
 40
1.0
176
     0
 90
        2
176
     1
  1
strokes_ogs.tif
176
     1
290
     0
176
     1
 40
1.0
176
     1
 40
1.0
176
     1
  0
VISUALSTYLE
  5
531
102
{ACAD_REACTORS
330
524
102
}
330
524
100
AcDbVisualStyle
  2
Thicken
 70
    13
177
     3
291
     1
 70
    58
 90
        2
176
     1
 90
        2
176
     1
 90
        0
176
     1
 90
        0
176
     1
 40
0.6
176
     1
 40
30.0
176
     1
 62
     7
420
 16777215
176
     1
 90
        1
176
     1
 90
        4
176
     1
 62
     7
176
     1
 62
   257
176
     1
 90
        1
176
     1
 90
        1
176
     1
 40
1.0
176
     1
 90
       12
176
     1
 62
     7
176
     1
 40
1.0
176
     1
 90
        1
176
     1
 90
        6
176
     1
 90
        2
176
     1
 62
     7
176
     1
 90
        5
176
     1
 90
        0
176
     1
 90
        0
176
     1
290
     0
176
     1
 90
        1
176
     1
 40
0.0
176
     1
 90
        0
176
     1
290
     0
176
     1
290
     1
176
     1
290
     1
176
     1
290
     0
176
     1
290
     0
176
     1
290
     0
176
     1
290
     0
176
     1
290
     0
176
     1
290
     0
176
     1
 90
       50
176
     1
 40
0.0
176
     1
 40
1.0
176
     1
 90
        0
176
     1
 62
    18
420
        0
176
     1
 90
       50
176
     1
 90
        3
176
     1
 62
     5
420
      255
176
     1
290
     0
176
     1
 90
       50
176
     1
 90
       50
176
     1
 90
       50
176
     1
290
     0
176
     1
 90
       50
176
     1
 62
   256
176
     0
 40
1.0
176
     0
 90
        2
176
     1
  1
strokes_ogs.tif
176
     1
290
     0
176
     1
 40
1.0
176
     1
 40
1.0
176
     1
  0
VISUALSTYLE
  5
52A
102
{ACAD_REACTORS
330
524
102
}
330
524
100
AcDbVisualStyle
  2
Wireframe
 70
     5
177
     3
291
     0
 70
    58
 90
        0
176
     1
 90
        2
176
     1
 90
        0
176
     1
 90
        0
176
     1
 40
0.6
176
     1
 40
30.0
176
     1
 62
     7
420
 16777215
176
     1
 90
        1
176
     1
 90
        4
176
     1
 62
     7
176
     1
 62
   257
176
     1
 90
        1
176
     1
 90
        1
176
     1
 40
1.0
176
     1
 90
        0
176
     1
 62
   257
176
     1
 40
1.0
176
     1
 90
        1
176
     1
 90
        6
176
     1
 90
        2
176
     1
 62
     7
176
     1
 90
        3
176
     1
 90
        0
176
     1
 90
        0
176
     1
290
     0
176
     1
 90
        1
176
     1
 40
0.0
176
     1
 90
        0
176
     1
290
     0
176
     1
290
     1
176
     1
290
     1
176
     1
290
     0
176
     1
290
     0
176
     1
290
     0
176
     1
290
     0
176
     1
290
     0
176
     1
290
     0
176
     1
 90
       50
176
     1
 40
0.0
176
     1
 40
1.0
176
     1
 90
        0
176
     1
 62
    18
420
        0
176
     1
 90
       50
176
     1
 90
        3
176
     1
 62
     5
420
      255
176
     1
290
     0
176
     1
 90
       50
176
     1
 90
       50
176
     1
 90
       50
176
     1
290
     0
176
     1
 90
       50
176
     1
 62
   256
176
     0
 40
1.0
176
     0
 90
        2
176
     1
  1
strokes_ogs.tif
176
     1
290
     0
176
     1
 40
1.0
176
     1
 40
1.0
176
     1
  0
VISUALSTYLE
  5
53A
102
{ACAD_REACTORS
330
524
102
}
330
524
100
AcDbVisualStyle
  2
X-Ray
 70
    25
177
     3
291
     0
 70
    58
 90
        2
176
     1
 90
        2
176
     1
 90
        1
176
     1
 90
        1
176
     1
 40
0.5
176
     1
 40
30.0
176
     1
 62
     7
420
 16777215
176
     1
 90
        1
176
     1
 90
        0
176
     1
 62
     7
176
     1
 62
   257
176
     1
 90
        1
176
     1
 90
        1
176
     1
 40
1.0
176
     1
 90
        8
176
     1
 62
     7
176
     1
 40
1.0
176
     1
 90
        1
176
     1
 90
        6
176
     1
 90
        2
176
     1
 62
     7
176
     1
 90
        3
176
     1
 90
        0
176
     1
 90
        0
176
     1
290
     0
176
     1
 90
       13
176
     1
 40
0.0
176
     1
 90
        0
176
     1
290
     0
176
     1
290
     1
176
     1
290
     1
176
     1
290
     0
176
     1
290
     0
176
     1
290
     0
176
     1
290
     0
176
     1
290
     0
176
     1
290
     0
176
     1
 90
       50
176
     1
 40
0.0
176
     1
 40
1.0
176
     1
 90
        0
176
     1
 62
    18
420
        0
176
     1
 90
       50
176
     1
 90
        3
176
     1
 62
     5
420
      255
176
     1
290
     0
176
     1
 90
       50
176
     1
 90
       50
176
     1
 90
       50
176
     1
290
     0
176
     1
 90
       50
176
     1
 62
   256
176
     0
 40
1.0
176
     0
 90
        2
176
     1
  1
strokes_ogs.tif
176
     1
290
     0
176
     1
 40
1.0
176
     1
 40
1.0
176
     1
  0
DICTIONARYVAR
  5
B3A
102
{ACAD_REACTORS
330
B39
102
}
330
B39
100
DictionaryVariables
280
     0
  1
1:1
  0
DICTIONARYVAR
  5
B3F
102
{ACAD_REACTORS
330
B39
102
}
330
B39
100
DictionaryVariables
280
     0
  1
Standard
  0
DICTIONARYVAR
  5
B3E
102
{ACAD_REACTORS
330
B39
102
}
330
B39
100
DictionaryVariables
280
     0
  1
Standard
  0
DICTIONARYVAR
  5
B40
102
{ACAD_REACTORS
330
B39
102
}
330
B39
100
DictionaryVariables
280
     0
  1
0
  0
DICTIONARY
  5
19CC
330
542
100
AcDbDictionary
280
     1
281
     1
  3
ACAD_ROUNDTRIP_2008_TABLESTYLE_CELLSTYLEMAP
360
19CD
  0
CELLSTYLEMAP
  5
19CD
102
{ACAD_REACTORS
330
19CC
102
}
330
19CC
100
AcDbCellStyleMap
 90
        3
300
CELLSTYLE
  1
TABLEFORMAT_BEGIN
 90
        5
170
     1
 91
        0
 92
    32768
 62
   257
 93
        1
300
CONTENTFORMAT
  1
CONTENTFORMAT_BEGIN
 90
        0
 91
        0
 92
        4
 93
        0
300

 40
0.0
140
1.0
 94
        5
 62
     0
340
17
144
0.25
309
CONTENTFORMAT_END
171
     1
301
MARGIN
  1
CELLMARGIN_BEGIN
 40
0.06
 40
0.06
 40
0.06
 40
0.06
 40
0.06
 40
0.06
309
CELLMARGIN_END
 94
        6
 95
        1
302
GRIDFORMAT
  1
GRIDFORMAT_BEGIN
 90
        0
 91
        1
 62
     0
 92
       -2
340
11
 93
        0
 40
0.045
309
GRIDFORMAT_END
 95
        2
302
GRIDFORMAT
  1
GRIDFORMAT_BEGIN
 90
        0
 91
        1
 62
     0
 92
       -2
340
11
 93
        0
 40
0.045
309
GRIDFORMAT_END
 95
        4
302
GRIDFORMAT
  1
GRIDFORMAT_BEGIN
 90
        0
 91
        1
 62
     0
 92
       -2
340
11
 93
        0
 40
0.045
309
GRIDFORMAT_END
 95
        8
302
GRIDFORMAT
  1
GRIDFORMAT_BEGIN
 90
        0
 91
        1
 62
     0
 92
       -2
340
11
 93
        0
 40
0.045
309
GRIDFORMAT_END
 95
       16
302
GRIDFORMAT
  1
GRIDFORMAT_BEGIN
 90
        0
 91
        1
 62
     0
 92
       -2
340
11
 93
        0
 40
0.045
309
GRIDFORMAT_END
 95
       32
302
GRIDFORMAT
  1
GRIDFORMAT_BEGIN
 90
        0
 91
        1
 62
     0
 92
       -2
340
11
 93
        0
 40
0.045
309
GRIDFORMAT_END
309
TABLEFORMAT_END
  1
CELLSTYLE_BEGIN
 90
        1
 91
        1
300
_TITLE
309
CELLSTYLE_END
300
CELLSTYLE
  1
TABLEFORMAT_BEGIN
 90
        5
170
     1
 91
        0
 92
        0
 62
   257
 93
        1
300
CONTENTFORMAT
  1
CONTENTFORMAT_BEGIN
 90
        0
 91
        0
 92
        4
 93
        0
300

 40
0.0
140
1.0
 94
        5
 62
     0
340
17
144
0.18
309
CONTENTFORMAT_END
171
     1
301
MARGIN
  1
CELLMARGIN_BEGIN
 40
0.06
 40
0.06
 40
0.06
 40
0.06
 40
0.06
 40
0.06
309
CELLMARGIN_END
 94
        6
 95
        1
302
GRIDFORMAT
  1
GRIDFORMAT_BEGIN
 90
        0
 91
        1
 62
     0
 92
       -2
340
11
 93
        0
 40
0.045
309
GRIDFORMAT_END
 95
        2
302
GRIDFORMAT
  1
GRIDFORMAT_BEGIN
 90
        0
 91
        1
 62
     0
 92
       -2
340
11
 93
        0
 40
0.045
309
GRIDFORMAT_END
 95
        4
302
GRIDFORMAT
  1
GRIDFORMAT_BEGIN
 90
        0
 91
        1
 62
     0
 92
       -2
340
11
 93
        0
 40
0.045
309
GRIDFORMAT_END
 95
        8
302
GRIDFORMAT
  1
GRIDFORMAT_BEGIN
 90
        0
 91
        1
 62
     0
 92
       -2
340
11
 93
        0
 40
0.045
309
GRIDFORMAT_END
 95
       16
302
GRIDFORMAT
  1
GRIDFORMAT_BEGIN
 90
        0
 91
        1
 62
     0
 92
       -2
340
11
 93
        0
 40
0.045
309
GRIDFORMAT_END
 95
       32
302
GRIDFORMAT
  1
GRIDFORMAT_BEGIN
 90
        0
 91
        1
 62
     0
 92
       -2
340
11
 93
        0
 40
0.045
309
GRIDFORMAT_END
309
TABLEFORMAT_END
  1
CELLSTYLE_BEGIN
 90
        2
 91
        1
300
_HEADER
309
CELLSTYLE_END
300
CELLSTYLE
  1
TABLEFORMAT_BEGIN
 90
        5
170
     1
 91
        0
 92
        0
 62
   257
 93
        1
300
CONTENTFORMAT
  1
CONTENTFORMAT_BEGIN
 90
        0
 91
        0
 92
        4
 93
        0
300

 40
0.0
140
1.0
 94
        2
 62
     0
340
17
144
0.18
309
CONTENTFORMAT_END
171
     1
301
MARGIN
  1
CELLMARGIN_BEGIN
 40
0.06
 40
0.06
 40
0.06
 40
0.06
 40
0.06
 40
0.06
309
CELLMARGIN_END
 94
        6
 95
        1
302
GRIDFORMAT
  1
GRIDFORMAT_BEGIN
 90
        0
 91
        1
 62
     0
 92
       -2
340
11
 93
        0
 40
0.045
309
GRIDFORMAT_END
 95
        2
302
GRIDFORMAT
  1
GRIDFORMAT_BEGIN
 90
        0
 91
        1
 62
     0
 92
       -2
340
11
 93
        0
 40
0.045
309
GRIDFORMAT_END
 95
        4
302
GRIDFORMAT
  1
GRIDFORMAT_BEGIN
 90
        0
 91
        1
 62
     0
 92
       -2
340
11
 93
        0
 40
0.045
309
GRIDFORMAT_END
 95
        8
302
GRIDFORMAT
  1
GRIDFORMAT_BEGIN
 90
        0
 91
        1
 62
     0
 92
       -2
340
11
 93
        0
 40
0.045
309
GRIDFORMAT_END
 95
       16
302
GRIDFORMAT
  1
GRIDFORMAT_BEGIN
 90
        0
 91
        1
 62
     0
 92
       -2
340
11
 93
        0
 40
0.045
309
GRIDFORMAT_END
 95
       32
302
GRIDFORMAT
  1
GRIDFORMAT_BEGIN
 90
        0
 91
        1
 62
     0
 92
       -2
340
11
 93
        0
 40
0.045
309
GRIDFORMAT_END
309
TABLEFORMAT_END
  1
CELLSTYLE_BEGIN
 90
        3
 91
        2
300
_DATA
309
CELLSTYLE_END
  0
ENDSEC
  0
SECTION
  2
ACDSDATA
 70
     2
 71
     2
  0
ACDSSCHEMA
 90
        0
  1
AcDb_Thumbnail_Schema
  2
AcDbDs::ID
280
    10
 91
        8
  2
Thumbnail_Data
280
    15
 91
        0
101
ACDSRECORD
 95
        0
 90
        2
  2
AcDbDs::TreatedAsObjectData
280
     1
291
     1
101
ACDSRECORD
 95
        0
 90
        3
  2
AcDbDs::Legacy
280
     1
291
     1
101
ACDSRECORD
  1
AcDbDs::ID
 90
        4
  2
AcDs:Indexable
280
     1
291
     1
101
ACDSRECORD
  1
AcDbDs::ID
 90
        5
  2
AcDbDs::HandleAttribute
280
     7
282
     1
  0
ACDSSCHEMA
 90
        1
  1
AcDb3DSolid_ASM_Data
  2
AcDbDs::ID
280
    10
 91
        8
  2
ASM_Data
280
    15
 91
        0
101
ACDSRECORD
 95
        1
 90
        2
  2
AcDbDs::TreatedAsObjectData
280
     1
291
     1
101
ACDSRECORD
 95
        1
 90
        3
  2
AcDbDs::Legacy
280
     1
291
     1
101
ACDSRECORD
  1
AcDbDs::ID
 90
        4
  2
AcDs:Indexable
280
     1
291
     1
101
ACDSRECORD
  1
AcDbDs::ID
 90
        5
  2
AcDbDs::HandleAttribute
280
     7
282
     1
  0
ACDSSCHEMA
 90
        2
  1
AcDbDs::TreatedAsObjectDataSchema
  2
AcDbDs::TreatedAsObjectData
280
     1
 91
        0
  0
ACDSSCHEMA
 90
        3
  1
AcDbDs::LegacySchema
  2
AcDbDs::Legacy
280
     1
 91
        0
  0
ACDSSCHEMA
 90
        4
  1
AcDbDs::IndexedPropertySchema
  2
AcDs:Indexable
280
     1
 91
        0
  0
ACDSSCHEMA
 90
        5
  1
AcDbDs::HandleAttributeSchema
  2
AcDbDs::HandleAttribute
280
     7
 91
        1
284
     1
  0
ACDSRECORD
 90
        0
  2
AcDbDs::ID
280
    10
320
522
  2
Thumbnail_Data
280
    15
 94
     3241
310
89504E470D0A1A0A0000000D49484452000001000000006D08060000004E6FBF56000000097048597300000EC400000EC401952B0E1B00000C5B49444154789CEDDD5D6C53751F07F06FDFDF592D2BD94B43E9D6768C413A2403B68EACBDD994991963268B01634840A3092809D14BE385860BE38D2F244485A089097AA144
310
0C43C7AC63062C101D759DB36B641DD58D41A7B47B69E13C173C8F997B9E473A76FEFD77E7FC3EC93F21A3E777BE5DC897734E4F5B05000184105952F20EC08BCD66C39B6FBE89575E79E59E8FEDE8E8C0BBEFBE0BBFDFCF3E58116A6969412010E01D8330A0E61D80178BC582152B5640A95422180CFEE363D7AE5D0B9D4E
310
8792929202A5E363CD9A35A8ACAC8456ABFDDBCFDD6E375C2E17140AC5DF7E9EC964108BC570FDFAF542C62422524046A70046A311CDCDCDC866B3989898402C16C3F4F4745EDB6A341A545656C2E572C16834E2C2850B989898609C983DBBDD0EAFD70BAD568B783C8EB1B13164B3D9BCB635180CA8AEAE86DD6E8746A341
310
5F5F1F32990CE3C4444CB22800854281C6C646E47239442211A4D3E925CDD36834F07ABDF07ABDE8EEEE5EF23C1E4C2613366FDE8CF1F1710C0F0F636E6E6EC9F3EAEAEA60B7DB71EAD4290882E4FF59498620F5E5F7FB05AD56CB6CB646A3E1FE1C17B3140A85D0D2D2C264B646A311FC7E3FF7E7482BBF25F98B801A8D06
310
0A8562C9FFC3FD3F63636370381C4C66B362369B991DB564B359E47239180C0626F389B8247F1150AFD7A3AEAE0E1A8D86D93ED46A35E2F138B3F92C6CDAB409168B85C96C8FC78368349AF7F515C28FE40B0000C2E1302E5EBCC86CFEBD5E452846172F5E44381C66327B6A6A8AC95C223EC99F02103E542A15EF08240F54
310
004474369B0D1F7DF411EF18240F540044743E9F6FD95D18952B2A00C2C472BB282A5754004474BFFEFA2BD3575D8878A80088E8464646F0E4934FF28E41F240054098B873E70EEF08240F540084C818150021324605B080CFE7435B5B1BEF184C747575C1E974F28E418A0815C0028F3FFE389E78E209DE319878EDB5D7F0
310
F0C30FF38E418A882CDE0BB018A3A3A3989999815AAD462E97E31D47345AAD169F7FFE3952A914EF28A488D011C03C6AB51A2E970B994C06070F1EE41D4754EDEDED686D6DC5A38F3ECA3B0A29225400F328954A747777E39D77DE41797939EF38A2522A95E8E9E9C11F7FFCC13B0A29225400F364B359ECDFBF1FA74F9FC6
310
B163C716B5ADC3E140575717A3644B97CBE5F0E0830F42AD5EDC599FDBEDC681030770E0C001783C1E46E9082F5400F308828093274FA2AFAF2FEFCF0F282B2B4369692902814051DFFEFACD37DF60787818232323686F6FCF6B9BDADA5AB4B5B5C162B1C06AB562C78E1DD0E9748C939242A20258201E8FE3CB2FBFCCFB1F
310
7A4545054E9F3E8DF3E7CF334EB634A9540A478F1EC5CF3FFF8C3D7BF6E4B5CDEAD5AB515D5D8DAFBFFE1AFDFDFD989A9A42696929E3A4A490A80016B87AF52A4C2613666767F37AFCEFBFFF8ECECE4E6CD9B28571B2A58B46A30080B7DE7A2BAFC74722118C8D8DA1BEBE1E6EB71BAB56ADA2EF0090182A800562B118CE9C
310
3993F7E3C7C6C6303232825028C430953892C9244E9C3881AFBEFA2AAFC72712097CF1C517C8E572B05AAD78FBEDB7F32E46B23CD07D0022B97AF52A8E1F3FCE3B86E8A2D1E85F470E447AE808801019A3022044C62459002A950A353535F4C9B484DC83240BA0B3B313870F1FC6EEDDBB794721A4A849B2007EF9E51764B3
310
59FCF6DB6FBCA31052D4245900E17018894402CDCDCD78F5D55779C721A46849F6654093C98423478EC06432F18E4248D1926C01ECD8B1030060B158E0F57A39A721A43849F2148010921F2A0042648C0A801019A3022044C6A8000891312A0042648C0A801019A3022044C6A8000891312A0042648C0A801019A3022044C6
310
A800089131C9BE1BB0B5B5152A950A7D7D7DBCA31052B4245B00D96C16555555C8E57245FD955D84F024E95380A1A1219C397306D3D3D3BCA3105294245D00353535686D6DA502283083C180A79E7A8A770C9207C916C08D1B3770E1C2057CF7DD77C866B3BCE3C8CAD6AD5BB177EF5EDE31481E247B0DE0871F7E0070F723
310
C148E1C5E371DE11481E247B0440F8191F1F87CBE5E21D83E4810A80882E1289E085175EE01D83E4810A8030110E877947207990EC3580F9944A25944AEABAF958FE4EE877BD7C48BE006EDFBE8D4D9B36C1603030996F369B71E3C60D26B359F2F97CD0EBF54C667BBD5E0C0F0F33994DC425F902C86432181A1A42281462
310
32BFA1A1013FFDF41393D9ACCCCECE221289A0BFBF9FC97C954A85A9A92926B389B86471AC363030806DDBB689FE926063632352A914D2E9B4A873599B9B9BC3C4C4049A9A9A449D6B369BB17DFB760C0C0C883A97B0A30020F00E51082A950AF5F5F558B76E1D1289C49266391C0E241209F4F7F763767656A48485A7D56A
310
E1F7FBFF7A3E4BE17038303838881F7FFC117373732225248520C8690583C17FFC7BA3D128D8EDF625CD586EEB5ECFA7B4B454301A8DB2FA9DC865C9E214205FCDCDCD78E69967D0D3D383F6F676D9BF8B50A150A0A9A9096FBCF1069E7DF6596CDBB68D772422322A807F733A9DB876ED1A2E5FBE8CCACA4A8442216CDEBC
310
99772CAE9A9A9A70E9D225AC59B3062B57AEC4E0E020D6AF5FCF3B161191E45F05C857555515CE9E3D8BE9E9691C3C7810E9741A5AAD96772CAEB45A2D666666F0E28B2F22994CE2FAF5EBD8B06103EF58444454000B249349BCF7DE7BBC6314954B972EF18E4018A1530042648C0A80101993C5298052A98442A10070F77E
310
00954AF55F8FF95F3FCFF7B1B76FDF1639317BF3F38BFD3B11040177EEDC1139316141163702EDD9B307E5E5E5CCE61F3A746859DD10A4D56AF1F2CB2F339B9F4C2671E4C81166F389786451008490FF8DAE01102263540084C81815002132460540888C510110226354000B68B55AAC5CB992770C420A42163702E54BA552
310
61DFBE7D282929C1AD5BB770E8D021DE9108618A8E00E6512A95309BCD08854278E8A18778C7218439BA1168819E9E1E343636C26AB52EABBBFB08B91FB22F00854281B2B23274747440AFD7C366B3C162B1E0CA952BB0DBED3879F224A2D128DDDB4E2449D605100C06D1D2D282C1C1417CFBEDB7B876EDDADFFEDE6834A2
310
B9B9198D8D8D181F1FC7B163C790C96438A525840DEE1F4C58E865341A85E79E7B4EF0F97C796F53565626ECDDBB57F0783CDCF3D3A225E2E21EA0A0CBE3F1082FBDF492A0D3E9EE6BFB9D3B770A6D6D6DDC9F072D5A622C599D02545454A0A3A3039F7EFA29743ADDA23F0BBFA4A404369B0D15151530994CE8EEEE669494
310
90C290D5CB80BB77EFC6FBEFBF0FA7D3098FC7B3E8ED1D0E076A6B6B71EEDC39389D4E381C0E062909292CEE872185588F3CF288B07EFD7AD1E669341AE1F9E79F17140A05F7E7468BD6FD2E591C01A8D56AD4D5D5E1CA952BA2CDCC66B388C7E3F0F97CA2CD24A4D0645100C16010E7CE9D137DEEA953A7B07DFB76D1E712
310
5228922D009D4E07BD5E0F00D8B06103FAFAFA98EC47A55241AD5643A552C16C3633D90721AC48B6005A5A5A100804000056AB95D97E32990C8C4623AAAAAAB073E74E66FB21840549BE1BB0B2B212EBD6ADC3CCCC0C82C120D3AFAB8EC56208040258B16205D2E934B3FD10C282248F003C1E0F028100868686100A853030
310
30C06C5FA3A3A348A552387FFE3CB37D10C28A248F007A7B7BA1502850535303E0EE45C0CF3EFB8CC9BEFE5334AB57AF66329F1096245900C0DD2FA7181F1F47241241301864B69F743A8DB367CF42AFD7D337E7926547B205108D46FFFAF3E8E828CC66336EDDBA25FA7EF47A3DD2E934D2E9347A7B7B459F4F084B92BC06
310
B0507F7F3FDADBDB459F5B5E5E4E1F1A4296355914402412415D5D9DE8739F7EFA691C3D7A54F4B984148A2C0A00004E9C3881CECE4E0077EF0B58B56AD5A26798CD6654545400B8FBBFFFCD9B37313D3D2D6A4E420A4936053030300083C100B7DB8DDADA5A6CDCB871D133AAABABB165CB16188D46747575E1830F3E6090
310
9490C2E2FE8EA442AE7DFBF6096EB7FBBEB737994CC2EBAFBF7EDF1F28428B56912DEE010ABE76EDDA25F8FDFE456FE772B984FDFBF70B0F3CF000F7E7408B96184B569F08345F6B6B2B1A1A1AF0C9279F606868E81F1F6BB3D9B06BD72E4C4D4DE1E38F3FC6CCCC4C81521216B66EDD8AAAAA2AE8F57AFCF9E79F989C9C84
310
DFEF87C964422A95424343030E1F3E8C542A858D1B37A2A1A101C78F1F472814E21D5D7492BD0FE05EBABBBBD1DBDB8B8E8E0E3CF6D863C8643288C5620080542A05ABD58AB2B232389D4EC462317CF8E187989C9CE49C9A88219148C0E974221C0EE3E6CD9B98989880D16884D96C462A95C2E4E42452A914BEFFFE7B188D
310
46CCCECE22994CF28ECD846C8F0016522A95B87CF932D6AE5DFBD7CFEAEBEB313838C83115216C5101102263FF02609544F81F6B8B2C0000000049454E44AE426082
  0
ACDSRECORD
 90
        0
  2
AcDbDs::ID
280
    10
320
19BD
  2
Thumbnail_Data
280
    15
 94
     3943
310
89504E470D0A1A0A0000000D49484452000001000000007A080600000050BC8D75000000097048597300000EC400000EC401952B0E1B00000F1949444154789CEDDD5B4C9BE51F07F06F4B59590FD04239958330606C93435D60CE05A6C92E2098186560C42CBAC4C40B6362DC955E796F345E68A28B59346A62DC60512F66
310
361347CC986C1D5A04CA799C06B430565A5A8EA5FC2F96BD7FEA8015FA1E9E077E9F1BF36C6F9FFE303FBEEBDBF77D9E57F5EDB7DFAE8121C3C3C3F8E8A38F942E8310D9747575A1A5A5055AAD56F6F756CBFE8E841066500010B287510010B287510010B28769942E2012972F5F46565696302E2C2C447C7C3C0020140AA1
310
ADAD2DECF8FCFC7C98CD6661DCD6D6865028248C73737361B15884B1C3E1C0CACA8A30CECECE466A6AAA30EEE8E8C0E2E2A2303E78F02012121284B1D3E944201010C6797979484C4C14C6BDBDBDF0F97CC238272707C9C9C9C2B8BDBD1DCBCBCBC2382B2B0B696969C2B8B3B3130B0B0BC2D86AB52223234318777777C3EF
310
F70BE303070E2029294918F7F5F5C1EBF50AE3A79E7A0A292929C2787070100F1E3C10C6999999484F4F17C6C3C3C3989E9E16C6E9E9E9C8CCCC14C63D3D3D989B9B13C6C9C9C9C8C9C911C6FDFDFD989D9D15C6898989C8CBCB13C677EFDEC5CCCCCCA63FDFC8C808A6A6A684716A6A2AB2B3B385F1F8F83826262684B1C5
310
62416E6EEEA63F9FD96C467E7EFEA63F5F7C7C3C0A0B0B85F1D8D8185C2E9730D6EBF53872E488309E9898C0F8F8B8304E4A4AC281030784B1DBEDC6E8E8A8309E99994175753558A0E2E12A80DD6E477979B942151122AEFFF6335D05208428820280903D8C8B003874E890D22510221A96FA998B00301A8D4A9740886858
310
EA672E028010220D2E0220180C2A5D0221A261A99FB908807FFEF947E91208110D4BFDCC45001042A4410140C81E460140C81EC6C55A80A3478F463DC7BD7BF7D0D5D515768FFE76F87C3E68B5DA2D6FD70C0683B87FFF7ED87DFCBB493018C4F2F232743A9DD2A528C2E7F3E1D4A95351CF23463F8B858B00888989897A8E
310
B5B535949696EEE89733140AE1B3CF3E83D168C4DB6FBF8DC9C9C9B0C545C0C3052CDF7DF71D464747F1DE7BEF098B957683D9D959040201389D4EACACAC203F3F1F7ABD1E269349E9D26465B7DB4599478C7E160B1701A0A4F9F979F4F5F5616E6E0E494949B0DBED484F4F875A1D7EF6D4D6D6068D4603B55A8DFEFE7E14
310
1616C2603028547574FEBBFACD643241AFD743ABD5627575152A950A535353E8EFEF178EF9EF0A41C2072E02607272326C79AA1C1E2D51D5E97478FAE9A761B3D9B63CDE6AB5A2ACAC0CC0C34F0C3D3D3D0804028F2D2D65D5F2F232DADBDB013C5C8EBCD1EA4BABD5BAE9EB27262660B7DBA152A9505A5A8AD8D858C96AE5
310
9D12FDBC192E02E0DEBD7BB2FE0FEBEAEA82D168DCF11264B55A2DAC179F9C9C84C3E178628028C9E7F361686828AA25D756AB1556AB15A15008ADADAD282E2E66EA965796C8DDCF5BA1AB001B989F9F0FDB70221AE9E9E9301A8D611B52B0A6B7B717A5A5A5A2CCA556AB71E2C409F4F4F488321F9116179F00E4D6DDDD2D
310
EA7C2E970BCF3EFBACA8738AC9E57289F605D723EB77F021ECE22200767AE96EA70E1F3E2CEA0E44232323A2CD2585B4B434D1775C123B507613B9FB792B5C9C02ACDF3F8EF0C1EFF73F76A9943CC4523F731100843F8D8D8D686D6D55BA0CF20414004432FBF6ED53BA04F2045C04C0E0E0A0D225901D58BF553AF93F96FA
310
998B0060F9121AD95845450553F7BCB384A57EE62200087FF2F3F3E946200E500010B287711100EB1F0B4608EF58EA672E0280C5F5F5ABABAB78F7DD77C39E29C89360308873E7CE853D7390C883A57EE6220058343B3B8BE9E969F4F5F5295DCA8E8C8C8CE0DAB56B4C7D2145E44701B043DDDDDD50ABD5A2AF1B90CBF8F8
310
380A0A0A70E3C60DA54B210AE222003A3A3A942EE1315AAD163FFEF823F3F7F96FE6FEFDFBC8C9C9097B2C3691074BFDCC45002C2E2E2A5DC26386868650565686B9B9B9885FE3743AC376DA51525C5C1CBEFEFA6BA854AA888E5F5858C0C58B1771F1E2452C2D2D495CDDEEC6523F7311002C3A75EA14B2B3B3515F5F1FD1
310
F10E8703CDCDCDF07ABD12571699929212BCF4D24B5859598928942E5DBA04B7DB8D9E9E1E7CF1C517325448E44001B043C3C3C3B870E1023C1E4F44C7DB6C36A6B606B3582C78FFFDF7D1DCDC1CD12DBBD3D3D3387EFC388E1D3BB6AD4F3D846D5CEC07C0E22DA5478F1E454747079E7BEEB9888E77381C1818186066E3CC
310
B8B838582C169C3B772EA20078F485A1DFEF476E6EAE0C15EE5E2CF5331701C0D236CA8FA8542A949494447CBCCD664341410153DB85E7E6E622373737A2CD3B6A6A6AD0D2D202954AC5F4EE463C60A99FB90880DD82E77F39351A0D9E7FFE79A5CB2022E3E23B009FCFA77409848886A57EE622007A7B7B257F8F603088B5
310
B535C9DF871039FA39525C0480D47C3E1FEAEBEBF1CD37DF285D0A21B2A200C0C3F3DB6030888C8C0CA54B2144565C04C0564FE415834EA7C39B6FBE894F3EF904B5B5B5742A402425753F6F07175701B673B96DA7525252F0FDF7DF232E2E2EECA19784884D8E7E8E141701208793274F2A5D0221B2E3E2148010220D2E02
310
80951574848881A57EE62200C6C6C6942E8110D1B0D4CF5C040021441A140084EC615C04004BDB2813122D96FA998B0060691B6542A2C5523F731100841069500010B2877111002C6DA34C48B458EA672E0280A56D940989164BFDCC4500C8C1EBF5E2FCF9F34A974188AC2800D6F1FBFDB0DBEDB41C98EC195C04805CFBE9
310
EFDFBF1FC9C9C9B2BCD76EE7F7FB110A85942E83492C3D1F828B0090732B6DBD5E1FF1E3B2C8E61A1B1BF1D75F7F295D069358DA1A9E8B009083D168C4EBAFBF4E9F0044C4D2CE3764635C04C0EAEAAAE4EFA156AB613299247F9FBD2492270EED4572F473A4B80880BFFFFE5BE912C83655565632F5082C96B0D4CF5C0400
310
E14F5E5E1E8C46A3D2659027A03D0137D0DDDD2DEA7C2E978BE9E7E9B95CAE889E0FB81D535353A2CE47A44101B081C3870FA3BCBC5CB4F9464646449B4B0A696969A2FEBC00440F14220D2E4E019E79E61959DF4FA552897ABBE6F4F4342C168B68F389CD6AB562626242B4F9DC6E377DA1BA05B9FB792B5C7C02D068E42D
310
D366B3E1CE9D3B585B5B8BEABD83C120341A0D8A8B8BA156B39BB5191919181F1F87DD6E176ADE8947AF4D4D4D45414181C855EE1E72F7F356D8A984211A8D06C78F1F87DD6EDFF2A3F1937E599EF47A9664646420232363CB9A1FDDD9B75998F1F4F39287D8FD67691DA5B65136180C989B9B7BECCF17171761B7DB515151
310
819F7EFA69C36342A1D0AEBAA3707878189F7FFE393EFDF453D1BF24DD6B685BF06D526A1B6593C904AFD7FBD89F777474A0BCBC1C313131D0EBF51BFE42844221A63FF66F472010402010C0F8F838868686A0D168E0F178942E8B5B2C6D0B4EA70051387FFE3CD2D3D399DAE0410AFDFDFD3872E4083EFCF0432C2C2CC060
310
306062620266B359E9D248942800A250545404E0E102A2BDC06C36C36C36C3E7F3295D0A1109179F51131313952E8110D1B0D4CF5C04405E5E9ED22510221A96FA994E0136D0D4D484A9A92961D5564C4C4CD8DF2F2F2FE3CE9D3B9B8E01606D6D0DC16010B76EDD02009C3D7B16FBF7EF97B8F29D71381CC2DAFD8D7E9695
310
9515DCBC7953B8AA110A85100A8570FDFAF5B0E3D6BFB6B2B252384522ECA200D8C0E9D3A7952E4156369B0D369B4DE9328802B83805B87BF7AED22510221A96FA998B0098999951BA044244C3523F731100841069500010B2877111009999994A9740886858EA672EAE02A4A7A72B5DC263868686F0EBAFBF222B2B0BB5B5
310
B54A974338C2523F73F10980457FFCF107DE79E71D7CFCF1C74A9742C88E5100EC50595919CE9E3D8B0F3EF840E95208D9312E4E013A3A3A505C5CAC7419F0FBFDB87AF52AA6A6A6A056AB51515101B7DB8D2FBFFC1266B319555555B4428E3C112BFD0C7012004A3F4ED9EFF7E3F2E5CB0080EAEA6AA4A4A43C76CC83070F
310
70F5EA55040201D4D6D65210904D29DDCFEB7111004A1A1C1C444B4B0B6A6B6B613018363D2E313111AFBDF61A969797D1D4D484A2A22266529E90CDD077005B181818C0E0E020DE78E38D2D7FF9D7DBB76F1F1A1A1A303B3B8BD6D656892B24243A5C048012DB287B3C1EDCBE7D1B151515B870E1C2B65EDBD8D888BCBC3C
310
78BD5E0C0C0C485421E1154BDB827311004A6CA3DCD4D484BABA3AE8743ABCF5D65BDB7A6D5D5D1DAC562BAAAAAAF0FBEFBF0BBBE91202B0B52D3817012037A7D389FCFC7CECDBB72FEAB94E9C38819B376F8A501521E2E3220036DA765B4A376EDC404545852873959696E2DF7FFF15652EB23BC8DDCF5BE122007A7A7A24
310
7F8FD5D5558C8E8E0200B45AADA81FD3121212B0B2B2029FCF87858505D1E6257C92A39F23C54500C8C1EFF7E3D2A54BB0DBED080402A2CEADD56A71FDFA75FCF0C30F42C810C2020A003CBC89E7CC9933484D4D95E4D1567ABD1E369B0D858585A2CF4D4834B80800AD562BE9FC2693095F7DF515DC6EB7248FB50E040270
310
381CE8EDED157D6EC21FA9FB793BD8B91EB18592921249E757ABD5309BCD3874E810CACBCBE1743A459D7F696909C78E1D436A6A6AC4371491DD4BEA7EDE0E2E02400E3A9D0E2FBEF82200607E7E1E6B6B6BA23DDC33180CC26432C1643289321F2162E1E214406E696969A23DC1F5519810C2222E02C0ED76CBFA7E353535
310
B872E58A2873FDFCF3CF78F9E59745998BEC0E72F7F356B80800B92F9D69B55A141414A0B3B3134B4B4BDBBE93CFE170C0E3F160747414F1F1F1F4D19F8461E952301701A08493274FC2E974C2E3F16C7B6DBFC160402814427373336A6A6A24AA9090E851006CA1BEBE1E7FFEF9E7B6CFE1636363F1DB6FBFE1CC993350AB
310
E97F31611717570194DA4659A552E1D5575F457373336EDFBE8DD3A74FC368346E7AFCFCFC3C7EF9E517C4C7C7A3A1A1817EF91971EBD62DB8DD6E180C06646767C3ED76C3E3F1201008607A7A1A2FBCF002E6E7E73134348450288486860649EBA16DC1B749E96D941F35C8952B5730333383A4A424180C06D86C36747575
310
C1E7F3C1E572C162B1A0BABA9AB603638C5EAFC7C2C20262636391989888C1C14168B55A2C2E2E22363636ECBF3A9D4EF27A94EEE7F5B8080016E8743AD4D5D501003A3B3B51595929FC5D6363235E79E515A54A234F50545414F6A8F2AAAAAA0D8F6369A30EB9EC990050A954686F6FC7D8D89828F35DBB762D6C2CC52DC4
310
842D5EAF57E91244C745007476768625F84E6466663275EE45F62E31FA592C5C7C4B456BE8C96EC2523F731100841069500010B287711100070F1E54BA044244C3523F7311000909094A9740886858EA672E028010220D2E02801EAC41761396FA998B00686B6B53BA044244C3523FFF0F1EC90476A6CC5693000000004945
310
4E44AE426082
  0
ENDSEC
  0
EOF
