  0
SECTION
  2
HEADER
  9
$ACADVER
  1
AC1027
  9
$ACADMAINTVER
 70
   105
  9
$DWGCODEPAGE
  3
ANSI_932
  9
$REQUIREDVERSIONS
160
                 0
  9
$LASTSAVEDBY
  1
kurimoto
  9
$INSBASE
 10
0.0
 20
0.0
 30
0.0
  9
$EXTMIN
 10
10687.55932610333
 20
-4434.777429564525
 30
0.0
  9
$EXTMAX
 10
17049.40212890613
 20
146.2500303954293
 30
0.0
  9
$LIMMIN
 10
0.0
 20
0.0
  9
$LIMMAX
 10
0.0
 20
0.0
  9
$ORTHOMODE
 70
     0
  9
$REGENMODE
 70
     1
  9
$FILLMODE
 70
     1
  9
$QTEXTMODE
 70
     0
  9
$MIRRTEXT
 70
     1
  9
$LTSCALE
 40
1.0
  9
$ATTMODE
 70
     1
  9
$TEXTSIZE
 40
0.0
  9
$TRACEWID
 40
0.05
  9
$TEXTSTYLE
  7
STANDARD
  9
$CLAYER
  8
0
  9
$CELTYPE
  6
CONTINUOUS
  9
$CECOLOR
 62
   256
  9
$CELTSCALE
 40
1.0
  9
$DISPSILH
 70
     0
  9
$DIMSCALE
 40
1.0
  9
$DIMASZ
 40
0.18
  9
$DIMEXO
 40
0.0625
  9
$DIMDLI
 40
0.38
  9
$DIMRND
 40
0.0
  9
$DIMDLE
 40
0.0
  9
$DIMEXE
 40
0.18
  9
$DIMTP
 40
0.0
  9
$DIMTM
 40
0.0
  9
$DIMTXT
 40
0.18
  9
$DIMCEN
 40
0.09
  9
$DIMTSZ
 40
0.0
  9
$DIMTOL
 70
     0
  9
$DIMLIM
 70
     0
  9
$DIMTIH
 70
     1
  9
$DIMTOH
 70
     1
  9
$DIMSE1
 70
     0
  9
$DIMSE2
 70
     0
  9
$DIMTAD
 70
     0
  9
$DIMZIN
 70
     0
  9
$DIMBLK
  1

  9
$DIMASO
 70
     1
  9
$DIMSHO
 70
     1
  9
$DIMPOST
  1

  9
$DIMAPOST
  1

  9
$DIMALT
 70
     0
  9
$DIMALTD
 70
     2
  9
$DIMALTF
 40
25.4
  9
$DIMLFAC
 40
1.0
  9
$DIMTOFL
 70
     0
  9
$DIMTVP
 40
0.0
  9
$DIMTIX
 70
     0
  9
$DIMSOXD
 70
     0
  9
$DIMSAH
 70
     0
  9
$DIMBLK1
  1

  9
$DIMBLK2
  1

  9
$DIMSTYLE
  2
STANDARD
  9
$DIMCLRD
 70
     0
  9
$DIMCLRE
 70
     0
  9
$DIMCLRT
 70
     0
  9
$DIMTFAC
 40
1.0
  9
$DIMGAP
 40
0.09
  9
$DIMJUST
 70
     0
  9
$DIMSD1
 70
     0
  9
$DIMSD2
 70
     0
  9
$DIMTOLJ
 70
     1
  9
$DIMTZIN
 70
     0
  9
$DIMALTZ
 70
     0
  9
$DIMALTTZ
 70
     0
  9
$DIMUPT
 70
     0
  9
$DIMDEC
 70
     4
  9
$DIMTDEC
 70
     4
  9
$DIMALTU
 70
     2
  9
$DIMALTTD
 70
     2
  9
$DIMTXSTY
  7
STANDARD
  9
$DIMAUNIT
 70
     0
  9
$DIMADEC
 70
     0
  9
$DIMALTRND
 40
0.0
  9
$DIMAZIN
 70
     0
  9
$DIMDSEP
 70
    46
  9
$DIMATFIT
 70
     3
  9
$DIMFRAC
 70
     0
  9
$DIMLDRBLK
  1

  9
$DIMLUNIT
 70
     2
  9
$DIMLWD
 70
    -2
  9
$DIMLWE
 70
    -2
  9
$DIMTMOVE
 70
     2
  9
$DIMFXL
 40
1.0
  9
$DIMFXLON
 70
     0
  9
$DIMJOGANG
 40
0.7853981633974483
  9
$DIMTFILL
 70
     0
  9
$DIMTFILLCLR
 70
     0
  9
$DIMARCSYM
 70
     0
  9
$DIMLTYPE
  6

  9
$DIMLTEX1
  6

  9
$DIMLTEX2
  6

  9
$DIMTXTDIRECTION
 70
     0
  9
$LUNITS
 70
     2
  9
$LUPREC
 70
     4
  9
$SKETCHINC
 40
0.1
  9
$FILLETRAD
 40
0.0
  9
$AUNITS
 70
     0
  9
$AUPREC
 70
     0
  9
$MENU
  1
acad
  9
$ELEVATION
 40
0.0
  9
$PELEVATION
 40
0.0
  9
$THICKNESS
 40
0.0
  9
$LIMCHECK
 70
     0
  9
$CHAMFERA
 40
0.0
  9
$CHAMFERB
 40
0.0
  9
$CHAMFERC
 40
0.0
  9
$CHAMFERD
 40
0.0
  9
$SKPOLY
 70
     0
  9
$TDCREATE
 40
2447893.0
  9
$TDUCREATE
 40
2447892.625
  9
$TDUPDATE
 40
2458624.382692292
  9
$TDUUPDATE
 40
2458624.007692292
  9
$TDINDWG
 40
0.0991451852
  9
$TDUSRTIMER
 40
0.0000931481
  9
$USRTIMER
 70
     1
  9
$ANGBASE
 50
0.0
  9
$ANGDIR
 70
     0
  9
$PDMODE
 70
     0
  9
$PDSIZE
 40
0.0
  9
$PLINEWID
 40
0.0
  9
$SPLFRAME
 70
     0
  9
$SPLINETYPE
 70
     6
  9
$SPLINESEGS
 70
     8
  9
$HANDSEED
  5
1EC9
  9
$SURFTAB1
 70
     6
  9
$SURFTAB2
 70
     6
  9
$SURFTYPE
 70
     6
  9
$SURFU
 70
     6
  9
$SURFV
 70
     6
  9
$UCSBASE
  2

  9
$UCSNAME
  2

  9
$UCSORG
 10
0.0
 20
0.0
 30
0.0
  9
$UCSXDIR
 10
1.0
 20
0.0
 30
0.0
  9
$UCSYDIR
 10
0.0
 20
1.0
 30
0.0
  9
$UCSORTHOREF
  2

  9
$UCSORTHOVIEW
 70
     0
  9
$UCSORGTOP
 10
0.0
 20
0.0
 30
0.0
  9
$UCSORGBOTTOM
 10
0.0
 20
0.0
 30
0.0
  9
$UCSORGLEFT
 10
0.0
 20
0.0
 30
0.0
  9
$UCSORGRIGHT
 10
0.0
 20
0.0
 30
0.0
  9
$UCSORGFRONT
 10
0.0
 20
0.0
 30
0.0
  9
$UCSORGBACK
 10
0.0
 20
0.0
 30
0.0
  9
$PUCSBASE
  2

  9
$PUCSNAME
  2

  9
$PUCSORG
 10
0.0
 20
0.0
 30
0.0
  9
$PUCSXDIR
 10
1.0
 20
0.0
 30
0.0
  9
$PUCSYDIR
 10
0.0
 20
1.0
 30
0.0
  9
$PUCSORTHOREF
  2

  9
$PUCSORTHOVIEW
 70
     0
  9
$PUCSORGTOP
 10
0.0
 20
0.0
 30
0.0
  9
$PUCSORGBOTTOM
 10
0.0
 20
0.0
 30
0.0
  9
$PUCSORGLEFT
 10
0.0
 20
0.0
 30
0.0
  9
$PUCSORGRIGHT
 10
0.0
 20
0.0
 30
0.0
  9
$PUCSORGFRONT
 10
0.0
 20
0.0
 30
0.0
  9
$PUCSORGBACK
 10
0.0
 20
0.0
 30
0.0
  9
$USERI1
 70
     0
  9
$USERI2
 70
     0
  9
$USERI3
 70
     0
  9
$USERI4
 70
     0
  9
$USERI5
 70
     0
  9
$USERR1
 40
0.0
  9
$USERR2
 40
0.0
  9
$USERR3
 40
0.0
  9
$USERR4
 40
0.0
  9
$USERR5
 40
0.0
  9
$WORLDVIEW
 70
     1
  9
$SHADEDGE
 70
     3
  9
$SHADEDIF
 70
    70
  9
$TILEMODE
 70
     1
  9
$MAXACTVP
 70
    16
  9
$PINSBASE
 10
0.0
 20
0.0
 30
0.0
  9
$PLIMCHECK
 70
     0
  9
$PEXTMIN
 10
1.05
 20
0.6999999999999997
 30
0.0
  9
$PEXTMAX
 10
9.45
 20
6.300000000000001
 30
0.0
  9
$PLIMMIN
 10
-0.25
 20
-0.7500000000000001
  9
$PLIMMAX
 10
10.75
 20
7.75
  9
$UNITMODE
 70
     0
  9
$VISRETAIN
 70
     0
  9
$PLINEGEN
 70
     1
  9
$PSLTSCALE
 70
     1
  9
$TREEDEPTH
 70
  3020
  9
$CMLSTYLE
  2
STANDARD
  9
$CMLJUST
 70
     0
  9
$CMLSCALE
 40
1.0
  9
$PROXYGRAPHICS
 70
     0
  9
$MEASUREMENT
 70
     0
  9
$CELWEIGHT
370
    -1
  9
$ENDCAPS
280
     0
  9
$JOINSTYLE
280
     0
  9
$LWDISPLAY
290
     0
  9
$INSUNITS
 70
     0
  9
$HYPERLINKBASE
  1

  9
$STYLESHEET
  1

  9
$XEDIT
290
     1
  9
$CEPSNTYPE
380
     0
  9
$PSTYLEMODE
290
     1
  9
$FINGERPRINTGUID
  2
{6363BEDE-97B1-4017-B4D8-20B151CD8FF7}
  9
$VERSIONGUID
  2
{FAEB1C32-E019-11D5-929B-00C0DF256EC4}
  9
$EXTNAMES
290
     1
  9
$PSVPSCALE
 40
0.0
  9
$OLESTARTUP
290
     0
  9
$SORTENTS
280
   127
  9
$INDEXCTL
280
     0
  9
$HIDETEXT
280
     1
  9
$XCLIPFRAME
280
     2
  9
$HALOGAP
280
     0
  9
$OBSCOLOR
 70
   257
  9
$OBSLTYPE
280
     0
  9
$INTERSECTIONDISPLAY
280
     0
  9
$INTERSECTIONCOLOR
 70
   257
  9
$DIMASSOC
280
     2
  9
$PROJECTNAME
  1

  9
$CAMERADISPLAY
290
     0
  9
$LENSLENGTH
 40
50.0
  9
$CAMERAHEIGHT
 40
0.0
  9
$STEPSPERSEC
 40
2.0
  9
$STEPSIZE
 40
6.0
  9
$3DDWFPREC
 40
2.0
  9
$PSOLWIDTH
 40
0.25
  9
$PSOLHEIGHT
 40
4.0
  9
$LOFTANG1
 40
1.570796326794897
  9
$LOFTANG2
 40
1.570796326794897
  9
$LOFTMAG1
 40
0.0
  9
$LOFTMAG2
 40
0.0
  9
$LOFTPARAM
 70
     7
  9
$LOFTNORMALS
280
     1
  9
$LATITUDE
 40
37.795
  9
$LONGITUDE
 40
-122.394
  9
$NORTHDIRECTION
 40
0.0
  9
$TIMEZONE
 70
 -8000
  9
$LIGHTGLYPHDISPLAY
280
     1
  9
$TILEMODELIGHTSYNCH
280
     1
  9
$SOLIDHIST
280
     0
  9
$SHOWHIST
280
     1
  9
$DWFFRAME
280
     2
  9
$DGNFRAME
280
     2
  9
$REALWORLDSCALE
290
     1
  9
$INTERFERECOLOR
 62
   256
  9
$CSHADOW
280
     0
  9
$SHADOWPLANELOCATION
 40
0.0
  0
ENDSEC
  0
SECTION
  2
CLASSES
  0
CLASS
  1
LWPOLYLINE
  2
AcDbPolyline
  3
ObjectDBX Classes
 90
        0
 91
        1
280
     0
281
     1
  0
CLASS
  1
IMAGE
  2
AcDbRasterImage
  3
ISM
 90
      127
 91
        5
280
     0
281
     1
  0
CLASS
  1
OLE2FRAME
  2
AcDbOle2Frame
  3
ObjectDBX Classes
 90
        0
 91
        1
280
     0
281
     1
  0
CLASS
  1
HATCH
  2
AcDbHatch
  3
ObjectDBX Classes
 90
        0
 91
        1
280
     0
281
     1
  0
CLASS
  1
DICTIONARYVAR
  2
AcDbDictionaryVar
  3
ObjectDBX Classes
 90
        0
 91
        4
280
     0
281
     0
  0
CLASS
  1
RASTERVARIABLES
  2
AcDbRasterVariables
  3
ISM
 90
        0
 91
        4
280
     0
281
     0
  0
CLASS
  1
IMAGEDEF
  2
AcDbRasterImageDef
  3
ISM
 90
        0
 91
        4
280
     0
281
     0
  0
CLASS
  1
IMAGEDEF_REACTOR
  2
AcDbRasterImageDefReactor
  3
ISM
 90
        1
 91
        4
280
     0
281
     0
  0
CLASS
  1
IDBUFFER
  2
AcDbIdBuffer
  3
ObjectDBX Classes
 90
        0
 91
        4
280
     0
281
     0
  0
CLASS
  1
SPATIAL_FILTER
  2
AcDbSpatialFilter
  3
ObjectDBX Classes
 90
        0
 91
        4
280
     0
281
     0
  0
CLASS
  1
XRECORD
  2
AcDbXrecord
  3
ObjectDBX Classes
 90
        0
 91
        1
280
     0
281
     0
  0
CLASS
  1
SORTENTSTABLE
  2
AcDbSortentsTable
  3
ObjectDBX Classes
 90
        0
 91
        4
280
     0
281
     0
  0
CLASS
  1
LAYER_INDEX
  2
AcDbLayerIndex
  3
ObjectDBX Classes
 90
        0
 91
        4
280
     0
281
     0
  0
CLASS
  1
SPATIAL_INDEX
  2
AcDbSpatialIndex
  3
AutoCAD 2000
 90
        0
 91
        4
280
     0
281
     0
  0
CLASS
  1
OBJECT_PTR
  2
CAseDLPNTableRecord
  3
ASE-LPNTableRecord
 90
        1
 91
        4
280
     0
281
     0
  0
CLASS
  1
LAYOUT
  2
AcDbLayout
  3
ObjectDBX Classes
 90
        0
 91
        1
280
     0
281
     0
  0
CLASS
  1
PLOTSETTINGS
  2
AcDbPlotSettings
  3
ObjectDBX Classes
 90
        0
 91
        4
280
     0
281
     0
  0
CLASS
  1
ACDBDICTIONARYWDFLT
  2
AcDbDictionaryWithDefault
  3
ObjectDBX Classes
 90
        0
 91
        4
280
     0
281
     0
  0
CLASS
  1
ACDBPLACEHOLDER
  2
AcDbPlaceHolder
  3
ObjectDBX Classes
 90
        0
 91
        1
280
     0
281
     0
  0
CLASS
  1
VBA_PROJECT
  2
AcDbVbaProject
  3
ObjectDBX Classes
 90
        0
 91
        1
280
     0
281
     0
  0
CLASS
  1
WIPEOUT
  2
AcDbWipeout
  3
WipeOut|AutoCAD Express Tool|expresstools@autodesk.com
 90
      127
 91
        4
280
     0
281
     1
  0
CLASS
  1
WIPEOUTVARIABLES
  2
AcDbWipeoutVariables
  3
WipeOut|AutoCAD Express Tool|expresstools@autodesk.com
 90
        0
 91
        4
280
     0
281
     0
  0
CLASS
  1
RTEXT
  2
RText
  3
RText|AutoCAD Express Tool|expresstools@autodesk.com
 90
        0
 91
        4
280
     0
281
     1
  0
CLASS
  1
ARCALIGNEDTEXT
  2
AcDbArcAlignedText
  3
ATEXT|AutoCAD Express Tool|expresstools@autodesk.com
 90
        0
 91
        4
280
     0
281
     1
  0
CLASS
  1
SCALE
  2
AcDbScale
  3
ObjectDBX Classes
 90
     1153
 91
        4
280
     0
281
     0
  0
CLASS
  1
VISUALSTYLE
  2
AcDbVisualStyle
  3
ObjectDBX Classes
 90
     4095
 91
        4
280
     0
281
     0
  0
CLASS
  1
MATERIAL
  2
AcDbMaterial
  3
ObjectDBX Classes
 90
     1153
 91
        4
280
     0
281
     0
  0
CLASS
  1
TABLESTYLE
  2
AcDbTableStyle
  3
ObjectDBX Classes
 90
     4095
 91
        4
280
     0
281
     0
  0
CLASS
  1
MLEADERSTYLE
  2
AcDbMLeaderStyle
  3
ACDB_MLEADERSTYLE_CLASS
 90
     4095
 91
        4
280
     0
281
     0
  0
CLASS
  1
DIMASSOC
  2
AcDbDimAssoc
  3
"AcDbDimAssoc|Product Desc:     AcDim ARX App For Dimension|Company:          Autodesk, Inc.|WEB Address:      www.autodesk.com"
 90
        0
 91
        4
280
     0
281
     0
  0
CLASS
  1
CELLSTYLEMAP
  2
AcDbCellStyleMap
  3
ObjectDBX Classes
 90
     1152
 91
        4
280
     0
281
     0
  0
CLASS
  1
SUN
  2
AcDbSun
  3
SCENEOE
 90
     1153
 91
        4
280
     0
281
     0
  0
ENDSEC
  0
SECTION
  2
TABLES
  0
TABLE
  2
VPORT
  5
7
330
0
100
AcDbSymbolTable
 70
     1
  0
VPORT
  5
15
330
7
100
AcDbSymbolTableRecord
100
AcDbViewportTableRecord
  2
*ACTIVE
 70
     0
 10
0.0
 20
0.0
 11
1.0
 21
1.0
 12
13868.48072750473
 22
-2144.263688152184
 13
0.0
 23
0.0
 14
1.0
 24
1.0
 15
0.0
 25
0.0
 16
0.0
 26
0.0
 36
1.0
 17
0.0
 27
0.0
 37
0.0
 40
4672.647985837131
 41
2.085858585858586
 42
50.0
 43
0.0
 44
0.0
 50
0.0
 51
0.0
 71
    16
 72
   100
 73
     1
 74
     1
 75
     0
 76
     0
 77
     0
 78
     0
281
     0
 65
     1
110
0.0
120
0.0
130
0.0
111
1.0
121
0.0
131
0.0
112
0.0
122
1.0
132
0.0
 79
     0
146
0.0
348
528
 60
     3
 61
     5
292
     1
282
     1
141
0.0
142
0.0
 63
   256
361
10B7
  0
ENDTAB
  0
TABLE
  2
LTYPE
  5
4
330
0
100
AcDbSymbolTable
 70
     8
  0
LTYPE
  5
11
330
4
100
AcDbSymbolTableRecord
100
AcDbLinetypeTableRecord
  2
BYBLOCK
 70
     0
  3

 72
    65
 73
     0
 40
0.0
  0
LTYPE
  5
12
330
4
100
AcDbSymbolTableRecord
100
AcDbLinetypeTableRecord
  2
BYLAYER
 70
     0
  3

 72
    65
 73
     0
 40
0.0
  0
LTYPE
  5
13
330
4
100
AcDbSymbolTableRecord
100
AcDbLinetypeTableRecord
  2
CONTINUOUS
 70
     0
  3
Solid line
 72
    65
 73
     0
 40
0.0
  0
LTYPE
  5
1D
330
4
100
AcDbSymbolTableRecord
100
AcDbLinetypeTableRecord
  2
DASHED
 70
     0
  3
Dashed
 72
    65
 73
     2
 40
15.0
 49
12.0
 74
     0
 49
-3.0
 74
     0
  0
LTYPE
  5
1E
330
4
100
AcDbSymbolTableRecord
100
AcDbLinetypeTableRecord
  2
DOTTED
 70
     0
  3
Dotted
 72
    65
 73
     2
 40
3.5
 49
0.5
 74
     0
 49
-3.0
 74
     0
  0
LTYPE
  5
1F
330
4
100
AcDbSymbolTableRecord
100
AcDbLinetypeTableRecord
  2
DOT_CENTER
 70
     0
  3
Dot_Center
 72
    65
 73
     4
 40
2.0
 49
1.25
 74
     0
 49
-0.25
 74
     0
 49
0.25
 74
     0
 49
-0.25
 74
     0
  0
LTYPE
  5
20
330
4
100
AcDbSymbolTableRecord
100
AcDbLinetypeTableRecord
  2
LONG_DASHED
 70
     0
  3
Long_Dashed
 72
    65
 73
     2
 40
2.0
 49
1.5
 74
     0
 49
-0.5
 74
     0
  0
LTYPE
  5
21
330
4
100
AcDbSymbolTableRecord
100
AcDbLinetypeTableRecord
  2
DASH_CENTER
 70
     0
  3
Dash_Center
 72
    65
 73
     4
 40
36.0
 49
24.0
 74
     0
 49
-3.0
 74
     0
 49
6.0
 74
     0
 49
-3.0
 74
     0
  0
LTYPE
  5
22
330
4
100
AcDbSymbolTableRecord
100
AcDbLinetypeTableRecord
  2
PHANTOM
 70
     0
  3
Phantom
 72
    65
 73
     6
 40
2.5
 49
1.25
 74
     0
 49
-0.25
 74
     0
 49
0.25
 74
     0
 49
-0.25
 74
     0
 49
0.25
 74
     0
 49
-0.25
 74
     0
  0
LTYPE
  5
23
330
4
100
AcDbSymbolTableRecord
100
AcDbLinetypeTableRecord
  2
CENTER_DASH_DASH
 70
     0
  3
Center_Dash_Dash
 72
    65
 73
     6
 40
22.0
 49
12.0
 74
     0
 49
-3.0
 74
     0
 49
0.5
 74
     0
 49
-3.0
 74
     0
 49
0.5
 74
     0
 49
-3.0
 74
     0
  0
ENDTAB
  0
TABLE
  2
LAYER
  5
2
330
0
100
AcDbSymbolTable
 70
     3
  0
LAYER
  5
14
330
2
100
AcDbSymbolTableRecord
100
AcDbLayerTableRecord
  2
0
 70
     0
 62
     7
  6
CONTINUOUS
370
    -3
390
4FD
347
53F
348
0
  0
LAYER
  5
24
330
2
100
AcDbSymbolTableRecord
100
AcDbLayerTableRecord
  2
1
 70
     0
 62
     7
  6
CONTINUOUS
370
    -3
390
4FD
347
53F
348
0
  0
LAYER
  5
A7B
330
2
100
AcDbSymbolTableRecord
100
AcDbLayerTableRecord
  2
Defpoints
 70
     0
 62
     7
  6
CONTINUOUS
290
     0
370
    -3
390
4FD
347
53F
348
0
  0
ENDTAB
  0
TABLE
  2
STYLE
  5
3
330
0
100
AcDbSymbolTable
 70
     2
  0
STYLE
  5
17
330
3
100
AcDbSymbolTableRecord
100
AcDbTextStyleTableRecord
  2
STANDARD
 70
     0
 40
0.0
 41
1.0
 50
0.0
 71
     0
 42
0.0
  3
txt
  4

  0
STYLE
  5
4F8
330
3
100
AcDbSymbolTableRecord
100
AcDbTextStyleTableRecord
  2
CONVERTER_1
 70
     0
 40
0.0
 41
0.9
 50
0.0
 71
     0
 42
0.0
  3
txt.shx
  4

  0
ENDTAB
  0
TABLE
  2
VIEW
  5
5
330
0
100
AcDbSymbolTable
 70
     0
  0
ENDTAB
  0
TABLE
  2
UCS
  5
6
330
0
100
AcDbSymbolTable
 70
     0
  0
ENDTAB
  0
TABLE
  2
APPID
  5
8
330
0
100
AcDbSymbolTable
 70
     1
  0
APPID
  5
16
330
8
100
AcDbSymbolTableRecord
100
AcDbRegAppTableRecord
  2
ACAD
 70
     0
  0
ENDTAB
  0
TABLE
  2
DIMSTYLE
  5
9
330
0
100
AcDbSymbolTable
 70
     1
100
AcDbDimStyleTable
  0
DIMSTYLE
105
18
330
9
100
AcDbSymbolTableRecord
100
AcDbDimStyleTableRecord
  2
STANDARD
 70
     0
178
     0
289
     0
340
17
  0
ENDTAB
  0
TABLE
  2
BLOCK_RECORD
  5
1
330
0
100
AcDbSymbolTable
 70
     5
  0
BLOCK_RECORD
  5
A
330
1
100
AcDbSymbolTableRecord
100
AcDbBlockTableRecord
  2
*MODEL_SPACE
340
521
 70
     0
280
     1
281
     0
  0
BLOCK_RECORD
  5
1EBA
330
1
100
AcDbSymbolTableRecord
100
AcDbBlockTableRecord
  2
*Paper_Space
340
1EBB
 70
     0
280
     1
281
     0
  0
BLOCK_RECORD
  5
25
330
1
100
AcDbSymbolTableRecord
100
AcDbBlockTableRecord
  2
SAT2000C125__1
340
0
102
{BLKREFS
331
29
102
}
 70
     0
280
     1
281
     0
  0
BLOCK_RECORD
  5
A7F
330
1
100
AcDbSymbolTableRecord
100
AcDbBlockTableRecord
  2
*D1
340
0
 70
     0
280
     1
281
     0
  0
BLOCK_RECORD
  5
A8F
330
1
100
AcDbSymbolTableRecord
100
AcDbBlockTableRecord
  2
*D2
340
0
 70
     0
280
     1
281
     0
  0
BLOCK_RECORD
  5
A9F
330
1
100
AcDbSymbolTableRecord
100
AcDbBlockTableRecord
  2
*D3
340
0
 70
     0
280
     1
281
     0
  0
BLOCK_RECORD
  5
AAF
330
1
100
AcDbSymbolTableRecord
100
AcDbBlockTableRecord
  2
*D4
340
0
 70
     0
280
     1
281
     0
  0
ENDTAB
  0
ENDSEC
  0
SECTION
  2
BLOCKS
  0
BLOCK
  5
D
330
A
100
AcDbEntity
  8
0
100
AcDbBlockBegin
  2
*MODEL_SPACE
 70
     0
 10
0.0
 20
0.0
 30
0.0
  3
*MODEL_SPACE
  1

  0
ENDBLK
  5
E
330
A
100
AcDbEntity
  8
0
100
AcDbBlockEnd
  0
BLOCK
  5
1EBC
330
1EBA
100
AcDbEntity
 67
     1
  8
0
100
AcDbBlockBegin
  2
*Paper_Space
 70
     0
 10
0.0
 20
0.0
 30
0.0
  3
*Paper_Space
  1

  0
ENDBLK
  5
1EBD
330
1EBA
100
AcDbEntity
 67
     1
  8
0
100
AcDbBlockEnd
  0
BLOCK
  5
26
330
25
100
AcDbEntity
  8
0
100
AcDbBlockBegin
  2
SAT2000C125__1
 70
     0
 10
0.0
 20
0.0
 30
0.0
  3
SAT2000C125__1
  1

  0
ARC
  5
4F5
330
25
100
AcDbEntity
  8
1
  6
Continuous
 62
     0
100
AcDbCircle
 10
11379.21787867026
 20
-2671.726090453755
 30
0.0
 40
3.0
100
AcDbArc
 50
0.0
 51
38.09195710522228
  0
ARC
  5
4F4
330
25
100
AcDbEntity
  8
1
  6
Continuous
 62
     0
100
AcDbCircle
 10
11379.21787867026
 20
-2648.55283000124
 30
0.0
 40
3.000000000002
100
AcDbArc
 50
321.9080428947923
 51
0.0
  0
ARC
  5
4F3
330
25
100
AcDbEntity
  8
1
  6
Continuous
 62
     0
100
AcDbCircle
 10
10741.1796225482
 20
-1290.459460227498
 30
0.0
 40
3.0
100
AcDbArc
 50
180.0
 51
270.0
  0
ARC
  5
4F2
330
25
100
AcDbEntity
  8
1
  6
Continuous
 62
     0
100
AcDbCircle
 10
10741.1796225482
 20
-1319.459460227498
 30
0.0
 40
3.0
100
AcDbArc
 50
90.0
 51
180.0
  0
ARC
  5
4F1
330
25
100
AcDbEntity
  8
1
  6
Continuous
 62
     0
100
AcDbCircle
 10
10797.70110558215
 20
-1312.309460227497
 30
0.0
 40
3.0
100
AcDbArc
 50
90.0
 51
145.5709960491356
  0
ARC
  5
4F0
330
25
100
AcDbEntity
  8
1
  6
Continuous
 62
     0
100
AcDbCircle
 10
10797.70110558215
 20
-1297.609460227496
 30
0.0
 40
3.000000000001
100
AcDbArc
 50
214.4290039509449
 51
270.0
  0
ARC
  5
4EF
330
25
100
AcDbEntity
  8
1
  6
Continuous
 62
     0
100
AcDbCircle
 10
10776.25559323108
 20
-1297.609460227496
 30
0.0
 40
3.0
100
AcDbArc
 50
270.0
 51
325.5709960490694
  0
ARC
  5
4EE
330
25
100
AcDbEntity
  8
1
  6
Continuous
 62
     0
100
AcDbCircle
 10
10776.25559323108
 20
-1312.309460227497
 30
0.0
 40
2.999999999998
100
AcDbArc
 50
34.42900395086972
 51
90.0
  0
ARC
  5
4ED
330
25
100
AcDbEntity
  8
1
  6
Continuous
 62
     0
100
AcDbCircle
 10
10705.39895056374
 20
-1239.237274444055
 30
0.0
 40
0.144444444446
100
AcDbArc
 50
137.7821654181386
 51
312.2178345791799
  0
ARC
  5
4EC
330
25
100
AcDbEntity
  8
1
  6
Continuous
 62
     0
100
AcDbCircle
 10
11332.21787867026
 20
-636.859460227498
 30
0.0
 40
1.0
100
AcDbArc
 50
90.0
 51
180.0
  0
ARC
  5
4EB
330
25
100
AcDbEntity
  8
1
  6
Continuous
 62
     0
100
AcDbCircle
 10
11370.21787867026
 20
-636.859460227498
 30
0.0
 40
1.0
100
AcDbArc
 50
0.0
 51
90.0
  0
ARC
  5
4EA
330
25
100
AcDbEntity
  8
1
  6
Continuous
 62
     0
100
AcDbCircle
 10
11374.21787867026
 20
-642.859460227498
 30
0.0
 40
2.0
100
AcDbArc
 50
0.0
 51
90.0
  0
ARC
  5
4E9
330
25
100
AcDbEntity
  8
1
  6
Continuous
 62
     0
100
AcDbCircle
 10
11328.21787867026
 20
-642.859460227498
 30
0.0
 40
2.0
100
AcDbArc
 50
90.0
 51
180.0
  0
ARC
  5
4E8
330
25
100
AcDbEntity
  8
1
  6
Continuous
 62
     0
100
AcDbCircle
 10
11329.21787867026
 20
-638.859460227498
 30
0.0
 40
2.0
100
AcDbArc
 50
270.0
 51
0.0
  0
ARC
  5
4E7
330
25
100
AcDbEntity
  8
1
  6
Continuous
 62
     0
100
AcDbCircle
 10
11373.21787867026
 20
-638.859460227498
 30
0.0
 40
2.0
100
AcDbArc
 50
180.0
 51
270.0
  0
ARC
  5
4E6
330
25
100
AcDbEntity
  8
1
  6
Continuous
 62
     0
100
AcDbCircle
 10
11360.5512120036
 20
-683.859460227498
 30
0.0
 40
1.0
100
AcDbArc
 50
180.0
 51
270.0
  0
ARC
  5
4E5
330
25
100
AcDbEntity
  8
1
  6
Continuous
 62
     0
100
AcDbCircle
 10
11356.5512120036
 20
-683.859460227498
 30
0.0
 40
1.0
100
AcDbArc
 50
270.0
 51
0.0
  0
ARC
  5
4E4
330
25
100
AcDbEntity
  8
1
  6
Continuous
 62
     0
100
AcDbCircle
 10
11345.88454533693
 20
-683.859460227498
 30
0.0
 40
1.0
100
AcDbArc
 50
180.0
 51
270.0
  0
ARC
  5
4E3
330
25
100
AcDbEntity
  8
1
  6
Continuous
 62
     0
100
AcDbCircle
 10
11341.88454533693
 20
-683.859460227498
 30
0.0
 40
1.0
100
AcDbArc
 50
270.0
 51
0.0
  0
ARC
  5
4E2
330
25
100
AcDbEntity
  8
1
  6
Continuous
 62
     0
100
AcDbCircle
 10
11326.21787867026
 20
-684.282109958308
 30
0.0
 40
2.0
100
AcDbArc
 50
299.9999999999989
 51
0.0
  0
ARC
  5
4E1
330
25
100
AcDbEntity
  8
1
  6
Continuous
 62
     0
100
AcDbCircle
 10
11331.21787867026
 20
-683.859460227498
 30
0.0
 40
1.0
100
AcDbArc
 50
180.0
 51
270.0
  0
ARC
  5
4E0
330
25
100
AcDbEntity
  8
1
  6
Continuous
 62
     0
100
AcDbCircle
 10
11307.21787867026
 20
-734.859460227497
 30
0.0
 40
5.0
100
AcDbArc
 50
90.0
 51
180.0
  0
ARC
  5
4DF
330
25
100
AcDbEntity
  8
1
  6
Continuous
 62
     0
100
AcDbCircle
 10
11394.21787867027
 20
-734.859460227498
 30
0.0
 40
4.999999999991
100
AcDbArc
 50
0.0
 51
90.0
  0
ARC
  5
4DE
330
25
100
AcDbEntity
  8
1
  6
Continuous
 62
     0
100
AcDbCircle
 10
11400.21787867026
 20
-735.859460227498
 30
0.0
 40
1.0
100
AcDbArc
 50
180.0
 51
270.0
  0
ARC
  5
4DD
330
25
100
AcDbEntity
  8
1
  6
Continuous
 62
     0
100
AcDbCircle
 10
11405.21787867026
 20
-735.859460227498
 30
0.0
 40
1.0
100
AcDbArc
 50
270.0
 51
0.0
  0
ARC
  5
4DC
330
25
100
AcDbEntity
  8
1
  6
Continuous
 62
     0
100
AcDbCircle
 10
11400.21787867026
 20
-792.859460227498
 30
0.0
 40
1.0
100
AcDbArc
 50
90.0
 51
180.0
  0
ARC
  5
4DB
330
25
100
AcDbEntity
  8
1
  6
Continuous
 62
     0
100
AcDbCircle
 10
11405.21787867026
 20
-792.859460227498
 30
0.0
 40
1.0
100
AcDbArc
 50
0.0
 51
90.0
  0
ARC
  5
4DA
330
25
100
AcDbEntity
  8
1
  6
Continuous
 62
     0
100
AcDbCircle
 10
11391.21787867026
 20
-803.859460227498
 30
0.0
 40
3.75
100
AcDbArc
 50
270.0
 51
0.0
  0
ARC
  5
4D9
330
25
100
AcDbEntity
  8
1
  6
Continuous
 62
     0
100
AcDbCircle
 10
11311.21787867026
 20
-803.859460227498
 30
0.0
 40
3.75
100
AcDbArc
 50
180.0
 51
270.0
  0
ARC
  5
4D8
330
25
100
AcDbEntity
  8
1
  6
Continuous
 62
     0
100
AcDbCircle
 10
11549.11194630123
 20
81.455596858829
 30
0.0
 40
5.000000000001
100
AcDbArc
 50
343.0168848750509
 51
44.28261271661221
  0
ARC
  5
4D7
330
25
100
AcDbEntity
  8
1
  6
Continuous
 62
     0
100
AcDbCircle
 10
11592.96814356605
 20
71.732912001401
 30
0.0
 40
5.0
100
AcDbArc
 50
110.7173872833463
 51
171.9831151249423
  0
ARC
  5
4D6
330
25
100
AcDbEntity
  8
1
  6
Continuous
 62
     0
100
AcDbCircle
 10
11586.47931970831
 20
83.023143981673
 30
0.0
 40
2.999999999999
100
AcDbArc
 50
351.9831151249709
 51
70.58077130373094
  0
ARC
  5
4D5
330
25
100
AcDbEntity
  8
1
  6
Continuous
 62
     0
100
AcDbCircle
 10
11559.76427610636
 20
88.9457265605
 30
0.0
 40
3.0
100
AcDbArc
 50
84.41922869645666
 51
163.0168848750761
  0
ARC
  5
4D4
330
25
100
AcDbEntity
  8
1
  6
Continuous
 62
     0
100
AcDbCircle
 10
11142.67148123417
 20
88.9457265605
 30
0.0
 40
3.000000000003
100
AcDbArc
 50
16.98311512491478
 51
95.58077130353776
  0
ARC
  5
4D3
330
25
100
AcDbEntity
  8
1
  6
Continuous
 62
     0
100
AcDbCircle
 10
11115.95643763222
 20
83.023143981673
 30
0.0
 40
3.000000000001
100
AcDbArc
 50
109.4192286962925
 51
188.0168848750264
  0
ARC
  5
4D2
330
25
100
AcDbEntity
  8
1
  6
Continuous
 62
     0
100
AcDbCircle
 10
11109.46761377448
 20
71.732912001402
 30
0.0
 40
5.000000000005
100
AcDbArc
 50
8.01688487504265
 51
69.28261271665306
  0
ARC
  5
4D1
330
25
100
AcDbEntity
  8
1
  6
Continuous
 62
     0
100
AcDbCircle
 10
11153.3238110393
 20
81.45559685883
 30
0.0
 40
4.999999999998
100
AcDbArc
 50
135.7173872833899
 51
196.9831151249598
  0
ARC
  5
4D0
330
25
100
AcDbEntity
  8
1
  6
Continuous
 62
     0
100
AcDbCircle
 10
13703.85754383158
 20
-864.457915694927
 30
0.0
 40
6.0
100
AcDbArc
 50
180.0
 51
270.0
  0
ARC
  5
4CF
330
25
100
AcDbEntity
  8
1
  6
Continuous
 62
     0
100
AcDbCircle
 10
14266.75006178774
 20
-2652.673786969239
 30
0.0
 40
2.0
100
AcDbArc
 50
270.0
 51
328.8910774892695
  0
ARC
  5
4CE
330
25
100
AcDbEntity
  8
1
  6
Continuous
 62
     0
100
AcDbCircle
 10
14266.75006178774
 20
-2668.173786969239
 30
0.0
 40
1.999999999996
100
AcDbArc
 50
31.10892251044708
 51
90.0
  0
ARC
  5
4CD
330
25
100
AcDbEntity
  8
1
  6
Continuous
 62
     0
100
AcDbCircle
 10
14292.43566086582
 20
-2652.673786969239
 30
0.0
 40
2.000000000002
100
AcDbArc
 50
211.1089225107259
 51
270.0
  0
ARC
  5
4CC
330
25
100
AcDbEntity
  8
1
  6
Continuous
 62
     0
100
AcDbCircle
 10
14292.43566086582
 20
-2668.173786969239
 30
0.0
 40
2.0
100
AcDbArc
 50
90.0
 51
148.891077489551
  0
ARC
  5
4CB
330
25
100
AcDbEntity
  8
1
  6
Continuous
 62
     0
100
AcDbCircle
 10
14272.84286132678
 20
-2648.423786969238
 30
0.0
 40
2.0
100
AcDbArc
 50
90.0
 51
180.0
  0
ARC
  5
4CA
330
25
100
AcDbEntity
  8
1
  6
Continuous
 62
     0
100
AcDbCircle
 10
10690.71915181185
 20
-3871.777406699797
 30
0.0
 40
2.0
100
AcDbArc
 50
90.0
 51
180.0
  0
ARC
  5
4C9
330
25
100
AcDbEntity
  8
1
  6
Continuous
 62
     0
100
AcDbCircle
 10
10690.71915181185
 20
-3902.777406699797
 30
0.0
 40
2.0
100
AcDbArc
 50
180.0
 51
270.0
  0
ARC
  5
4C8
330
25
100
AcDbEntity
  8
1
  6
Continuous
 62
     0
100
AcDbCircle
 10
11377.61787867026
 20
-857.359460227498
 30
0.0
 40
1.400000000001
100
AcDbArc
 50
90.0
 51
180.0
  0
ARC
  5
4C7
330
25
100
AcDbEntity
  8
1
  6
Continuous
 62
     0
100
AcDbCircle
 10
11396.21787867026
 20
-874.211804114619
 30
0.0
 40
20.0
100
AcDbArc
 50
180.0
 51
214.3440629657061
  0
ARC
  5
4C6
330
25
100
AcDbEntity
  8
1
  6
Continuous
 62
     0
100
AcDbCircle
 10
11324.81787867027
 20
-857.359460227498
 30
0.0
 40
1.399999999991
100
AcDbArc
 50
0.0
 51
90.0
  0
ARC
  5
4C5
330
25
100
AcDbEntity
  8
1
  6
Continuous
 62
     0
100
AcDbCircle
 10
11306.21787867026
 20
-874.211804114619
 30
0.0
 40
20.000000000005
100
AcDbArc
 50
325.6559370343031
 51
0.0
  0
ARC
  5
4C4
330
25
100
AcDbEntity
  8
1
  6
Continuous
 62
     0
100
AcDbCircle
 10
11397.21787867026
 20
-798.359460227498
 30
0.0
 40
2.0
100
AcDbArc
 50
270.0
 51
0.0
  0
ARC
  5
4C3
330
25
100
AcDbEntity
  8
1
  6
Continuous
 62
     0
100
AcDbCircle
 10
11304.21787867026
 20
-798.359460227498
 30
0.0
 40
2.0
100
AcDbArc
 50
180.0
 51
270.0
  0
ARC
  5
4C2
330
25
100
AcDbEntity
  8
1
  6
Continuous
 62
     0
100
AcDbCircle
 10
13626.35286132678
 20
-798.359460227498
 30
0.0
 40
2.0
100
AcDbArc
 50
180.0
 51
270.0
  0
ARC
  5
4C1
330
25
100
AcDbEntity
  8
1
  6
Continuous
 62
     0
100
AcDbCircle
 10
13719.35286132678
 20
-798.359460227498
 30
0.0
 40
2.0
100
AcDbArc
 50
270.0
 51
0.0
  0
ARC
  5
4C0
330
25
100
AcDbEntity
  8
1
  6
Continuous
 62
     0
100
AcDbCircle
 10
13646.95286132678
 20
-857.359460227498
 30
0.0
 40
1.400000000001
100
AcDbArc
 50
0.0
 51
90.0
  0
ARC
  5
4BF
330
25
100
AcDbEntity
  8
1
  6
Continuous
 62
     0
100
AcDbCircle
 10
13633.35286132678
 20
-803.859460227498
 30
0.0
 40
3.75
100
AcDbArc
 50
180.0
 51
270.0
  0
ARC
  5
4BE
330
25
100
AcDbEntity
  8
1
  6
Continuous
 62
     0
100
AcDbCircle
 10
13713.35286132678
 20
-803.859460227498
 30
0.0
 40
3.75
100
AcDbArc
 50
270.0
 51
0.0
  0
ARC
  5
4BD
330
25
100
AcDbEntity
  8
1
  6
Continuous
 62
     0
100
AcDbCircle
 10
13699.35754383158
 20
-857.459460227497
 30
0.0
 40
1.5
100
AcDbArc
 50
90.0
 51
180.0
  0
ARC
  5
4BC
330
25
100
AcDbEntity
  8
1
  6
Continuous
 62
     0
100
AcDbCircle
 10
13626.35286132678
 20
-798.359460227498
 30
0.0
 40
2.0
100
AcDbArc
 50
180.0
 51
270.0
  0
ARC
  5
4BB
330
25
100
AcDbEntity
  8
1
  6
Continuous
 62
     0
100
AcDbCircle
 10
13719.35286132678
 20
-798.359460227498
 30
0.0
 40
2.0
100
AcDbArc
 50
270.0
 51
0.0
  0
ARC
  5
4BA
330
25
100
AcDbEntity
  8
1
  6
Continuous
 62
     0
100
AcDbCircle
 10
13633.35286132678
 20
-803.859460227498
 30
0.0
 40
3.75
100
AcDbArc
 50
180.0
 51
270.0
  0
ARC
  5
4B9
330
25
100
AcDbEntity
  8
1
  6
Continuous
 62
     0
100
AcDbCircle
 10
13713.35286132678
 20
-803.859460227498
 30
0.0
 40
3.75
100
AcDbArc
 50
270.0
 51
0.0
  0
ARC
  5
4B8
330
25
100
AcDbEntity
  8
1
  6
Continuous
 62
     0
100
AcDbCircle
 10
13716.35286132678
 20
-734.859460227498
 30
0.0
 40
5.0
100
AcDbArc
 50
0.0
 51
90.0
  0
ARC
  5
4B7
330
25
100
AcDbEntity
  8
1
  6
Continuous
 62
     0
100
AcDbCircle
 10
13629.35286132678
 20
-734.859460227497
 30
0.0
 40
5.0
100
AcDbArc
 50
90.0
 51
180.0
  0
ARC
  5
4B6
330
25
100
AcDbEntity
  8
1
  6
Continuous
 62
     0
100
AcDbCircle
 10
13653.35286132678
 20
-683.859460227498
 30
0.0
 40
1.0
100
AcDbArc
 50
180.0
 51
270.0
  0
ARC
  5
4B5
330
25
100
AcDbEntity
  8
1
  6
Continuous
 62
     0
100
AcDbCircle
 10
13648.35286132678
 20
-684.282109958308
 30
0.0
 40
2.0
100
AcDbArc
 50
299.9999999999989
 51
0.0
  0
ARC
  5
4B4
330
25
100
AcDbEntity
  8
1
  6
Continuous
 62
     0
100
AcDbCircle
 10
13664.01952799345
 20
-683.859460227498
 30
0.0
 40
1.0
100
AcDbArc
 50
270.0
 51
0.0
  0
ARC
  5
4B3
330
25
100
AcDbEntity
  8
1
  6
Continuous
 62
     0
100
AcDbCircle
 10
13668.01952799345
 20
-683.859460227498
 30
0.0
 40
1.0
100
AcDbArc
 50
180.0
 51
270.0
  0
ARC
  5
4B2
330
25
100
AcDbEntity
  8
1
  6
Continuous
 62
     0
100
AcDbCircle
 10
13678.68619466012
 20
-683.859460227498
 30
0.0
 40
1.0
100
AcDbArc
 50
270.0
 51
0.0
  0
ARC
  5
4B1
330
25
100
AcDbEntity
  8
1
  6
Continuous
 62
     0
100
AcDbCircle
 10
13682.68619466012
 20
-683.859460227498
 30
0.0
 40
1.0
100
AcDbArc
 50
180.0
 51
270.0
  0
ARC
  5
4B0
330
25
100
AcDbEntity
  8
1
  6
Continuous
 62
     0
100
AcDbCircle
 10
13695.35286132678
 20
-638.859460227498
 30
0.0
 40
2.0
100
AcDbArc
 50
180.0
 51
270.0
  0
ARC
  5
4AF
330
25
100
AcDbEntity
  8
1
  6
Continuous
 62
     0
100
AcDbCircle
 10
13651.35286132678
 20
-638.859460227498
 30
0.0
 40
2.0
100
AcDbArc
 50
270.0
 51
0.0
  0
ARC
  5
4AE
330
25
100
AcDbEntity
  8
1
  6
Continuous
 62
     0
100
AcDbCircle
 10
13650.35286132678
 20
-642.859460227498
 30
0.0
 40
2.0
100
AcDbArc
 50
90.0
 51
180.0
  0
ARC
  5
4AD
330
25
100
AcDbEntity
  8
1
  6
Continuous
 62
     0
100
AcDbCircle
 10
13696.35286132678
 20
-642.859460227498
 30
0.0
 40
2.0
100
AcDbArc
 50
0.0
 51
90.0
  0
ARC
  5
4AC
330
25
100
AcDbEntity
  8
1
  6
Continuous
 62
     0
100
AcDbCircle
 10
13692.35286132678
 20
-636.859460227498
 30
0.0
 40
1.0
100
AcDbArc
 50
0.0
 51
90.0
  0
ARC
  5
4AB
330
25
100
AcDbEntity
  8
1
  6
Continuous
 62
     0
100
AcDbCircle
 10
13654.35286132678
 20
-636.859460227498
 30
0.0
 40
1.0
100
AcDbArc
 50
90.0
 51
180.0
  0
ARC
  5
4AA
330
25
100
AcDbEntity
  8
1
  6
Continuous
 62
     0
100
AcDbCircle
 10
11405.21787867026
 20
-3313.077406699796
 30
0.0
 40
1.0
100
AcDbArc
 50
0.0
 51
90.0
  0
ARC
  5
4A9
330
25
100
AcDbEntity
  8
1
  6
Continuous
 62
     0
100
AcDbCircle
 10
11405.21787867026
 20
-3256.077406699796
 30
0.0
 40
1.0
100
AcDbArc
 50
270.0
 51
0.0
  0
ARC
  5
4A8
330
25
100
AcDbEntity
  8
1
  6
Continuous
 62
     0
100
AcDbCircle
 10
11396.11776731155
 20
-3322.077406699796
 30
0.0
 40
10.0
100
AcDbArc
 50
90.0
 51
140.1316584499704
  0
ARC
  5
4A7
330
25
100
AcDbEntity
  8
1
  6
Continuous
 62
     0
100
AcDbCircle
 10
11396.11776731155
 20
-3247.077406699796
 30
0.0
 40
9.999999999995
100
AcDbArc
 50
219.868341550027
 51
270.0
  0
ARC
  5
49E
330
25
100
AcDbEntity
  8
1
  6
Continuous
 62
     0
100
AcDbCircle
 10
11349.21787867027
 20
-4429.777406699797
 30
0.0
 40
2.0
100
AcDbArc
 50
180.0
 51
270.0
  0
ARC
  5
49D
330
25
100
AcDbEntity
  8
1
  6
Continuous
 62
     0
100
AcDbCircle
 10
11353.21787867027
 20
-4429.777406699797
 30
0.0
 40
2.0
100
AcDbArc
 50
270.0
 51
0.0
  0
ARC
  5
49C
330
25
100
AcDbEntity
  8
1
  6
Continuous
 62
     0
100
AcDbCircle
 10
11349.21787867027
 20
-4429.777406699797
 30
0.0
 40
2.0
100
AcDbArc
 50
180.0
 51
270.0
  0
ARC
  5
49B
330
25
100
AcDbEntity
  8
1
  6
Continuous
 62
     0
100
AcDbCircle
 10
11353.21787867027
 20
-4429.777406699797
 30
0.0
 40
2.0
100
AcDbArc
 50
270.0
 51
0.0
  0
ARC
  5
49A
330
25
100
AcDbEntity
  8
1
  6
Continuous
 62
     0
100
AcDbCircle
 10
11349.21787867027
 20
-4429.777406699797
 30
0.0
 40
2.0
100
AcDbArc
 50
180.0
 51
270.0
  0
ARC
  5
499
330
25
100
AcDbEntity
  8
1
  6
Continuous
 62
     0
100
AcDbCircle
 10
11353.21787867027
 20
-4429.777406699797
 30
0.0
 40
2.0
100
AcDbArc
 50
270.0
 51
0.0
  0
ARC
  5
498
330
25
100
AcDbEntity
  8
1
  6
Continuous
 62
     0
100
AcDbCircle
 10
11349.21787867027
 20
-4429.777406699797
 30
0.0
 40
2.0
100
AcDbArc
 50
180.0
 51
270.0
  0
ARC
  5
497
330
25
100
AcDbEntity
  8
1
  6
Continuous
 62
     0
100
AcDbCircle
 10
11353.21787867027
 20
-4429.777406699797
 30
0.0
 40
2.0
100
AcDbArc
 50
270.0
 51
0.0
  0
CIRCLE
  5
494
330
25
100
AcDbEntity
  8
1
  6
Continuous
 62
     0
100
AcDbCircle
 10
10786.97834940661
 20
-1304.959460227498
 30
0.0
 40
8.5
  0
CIRCLE
  5
493
330
25
100
AcDbEntity
  8
1
  6
Continuous
 62
     0
100
AcDbCircle
 10
10786.97834940661
 20
-1304.959460227498
 30
0.0
 40
5.0
  0
CIRCLE
  5
492
330
25
100
AcDbEntity
  8
1
  6
Continuous
 62
     0
100
AcDbCircle
 10
10786.97834940661
 20
-1304.959460227498
 30
0.0
 40
3.0
  0
CIRCLE
  5
491
330
25
100
AcDbEntity
  8
1
  6
Continuous
 62
     0
100
AcDbCircle
 10
10786.97834940661
 20
-1304.959460227498
 30
0.0
 40
6.25
  0
CIRCLE
  5
490
330
25
100
AcDbEntity
  8
1
  6
Continuous
 62
     0
100
AcDbCircle
 10
10726.68281206409
 20
-1218.314891989012
 30
0.0
 40
36.09209352415
  0
CIRCLE
  5
48F
330
25
100
AcDbEntity
  8
1
  6
Continuous
 62
     0
100
AcDbCircle
 10
10726.6796225482
 20
-1218.310733369081
 30
0.0
 40
2.888888888881
  0
CIRCLE
  5
48E
330
25
100
AcDbEntity
  8
1
  6
Continuous
 62
     0
100
AcDbCircle
 10
10710.78997787498
 20
-1235.735320743796
 30
0.0
 40
0.722222222219
  0
CIRCLE
  5
48D
330
25
100
AcDbEntity
  8
1
  6
Continuous
 62
     0
100
AcDbCircle
 10
10726.6796225482
 20
-1230.948514804487
 30
0.0
 40
2.247127062104
  0
CIRCLE
  5
47F
330
25
100
AcDbEntity
  8
1
  6
Continuous
 62
     0
100
AcDbCircle
 10
11578.46403677001
 20
110.081717537547
 30
0.0
 40
20.000000000001
  0
CIRCLE
  5
47E
330
25
100
AcDbEntity
  8
1
  6
Continuous
 62
     0
100
AcDbCircle
 10
11123.97172057052
 20
110.081717537547
 30
0.0
 40
20.0
  0
CIRCLE
  5
47D
330
25
100
AcDbEntity
  8
1
  6
Continuous
 62
     0
100
AcDbCircle
 10
14279.59286132678
 20
-2660.423786969239
 30
0.0
 40
11.1
  0
CIRCLE
  5
47C
330
25
100
AcDbEntity
  8
1
  6
Continuous
 62
     0
100
AcDbCircle
 10
14279.59286132678
 20
-2660.423786969239
 30
0.0
 40
6.0
  0
CIRCLE
  5
47B
330
25
100
AcDbEntity
  8
1
  6
Continuous
 62
     0
100
AcDbCircle
 10
14279.59286132678
 20
-2660.423786969239
 30
0.0
 40
7.5
  0
CIRCLE
  5
47A
330
25
100
AcDbEntity
  8
1
  6
Continuous
 62
     0
100
AcDbCircle
 10
14279.59286132678
 20
-2660.423786969239
 30
0.0
 40
3.600000000001
  0
CIRCLE
  5
479
330
25
100
AcDbEntity
  8
1
  6
Continuous
 62
     0
100
AcDbCircle
 10
11351.21787867026
 20
-3890.777406699796
 30
0.0
 40
500.0
  0
CIRCLE
  5
477
330
25
100
AcDbEntity
  8
1
  6
Continuous
 62
     0
100
AcDbCircle
 10
10727.71915181185
 20
-3890.777406699796
 30
0.0
 40
7.475000000001
  0
CIRCLE
  5
476
330
25
100
AcDbEntity
  8
1
  6
Continuous
 62
     0
100
AcDbCircle
 10
10727.71915181185
 20
-3890.777406699796
 30
0.0
 40
8.331000000001
  0
CIRCLE
  5
475
330
25
100
AcDbEntity
  8
1
  6
Continuous
 62
     0
100
AcDbCircle
 10
11651.73826067455
 20
-4191.297788704079
 30
0.0
 40
13.5
  0
CIRCLE
  5
474
330
25
100
AcDbEntity
  8
1
  6
Continuous
 62
     0
100
AcDbCircle
 10
11651.73826067455
 20
-3590.257024695514
 30
0.0
 40
13.5
  0
CIRCLE
  5
473
330
25
100
AcDbEntity
  8
1
  6
Continuous
 62
     0
100
AcDbCircle
 10
11050.69749666598
 20
-3590.257024695514
 30
0.0
 40
13.5
  0
CIRCLE
  5
472
330
25
100
AcDbEntity
  8
1
  6
Continuous
 62
     0
100
AcDbCircle
 10
11050.69749666598
 20
-4191.297788704079
 30
0.0
 40
13.5
  0
CIRCLE
  5
471
330
25
100
AcDbEntity
  8
1
  6
Continuous
 62
     0
100
AcDbCircle
 10
13673.35286132678
 20
-764.359460227498
 30
0.0
 40
22.422499999999
  0
CIRCLE
  5
470
330
25
100
AcDbEntity
  8
1
  6
Continuous
 62
     0
100
AcDbCircle
 10
13673.35286132678
 20
-764.359460227498
 30
0.0
 40
23.9015
  0
CIRCLE
  5
46F
330
25
100
AcDbEntity
  8
1
  6
Continuous
 62
     0
100
AcDbCircle
 10
13673.35286132678
 20
-764.359460227498
 30
0.0
 40
29.0
  0
CIRCLE
  5
464
330
25
100
AcDbEntity
  8
1
  6
Continuous
 62
     0
100
AcDbCircle
 10
14205.68249872588
 20
-935.574134816705
 30
0.0
 40
11.5
  0
CIRCLE
  5
463
330
25
100
AcDbEntity
  8
1
  6
Continuous
 62
     0
100
AcDbCircle
 10
14248.97818673758
 20
-978.869822828401
 30
0.0
 40
11.5
  0
CIRCLE
  5
462
330
25
100
AcDbEntity
  8
1
  6
Continuous
 62
     0
100
AcDbCircle
 10
14310.20753591599
 20
-978.869822828401
 30
0.0
 40
11.5
  0
CIRCLE
  5
461
330
25
100
AcDbEntity
  8
1
  6
Continuous
 62
     0
100
AcDbCircle
 10
14353.50322392768
 20
-935.574134816705
 30
0.0
 40
11.5
  0
CIRCLE
  5
460
330
25
100
AcDbEntity
  8
1
  6
Continuous
 62
     0
100
AcDbCircle
 10
14353.50322392768
 20
-874.34478563829
 30
0.0
 40
11.5
  0
CIRCLE
  5
45F
330
25
100
AcDbEntity
  8
1
  6
Continuous
 62
     0
100
AcDbCircle
 10
14310.20753591599
 20
-831.049097626595
 30
0.0
 40
11.5
  0
CIRCLE
  5
45E
330
25
100
AcDbEntity
  8
1
  6
Continuous
 62
     0
100
AcDbCircle
 10
14205.68249872588
 20
-874.34478563829
 30
0.0
 40
11.5
  0
CIRCLE
  5
45D
330
25
100
AcDbEntity
  8
1
  6
Continuous
 62
     0
100
AcDbCircle
 10
14248.97818673758
 20
-831.049097626595
 30
0.0
 40
11.5
  0
CIRCLE
  5
45B
330
25
100
AcDbEntity
  8
1
  6
Continuous
 62
     0
100
AcDbCircle
 10
14279.59286132678
 20
-904.959460227497
 30
0.0
 40
100.0
  0
CIRCLE
  5
45A
330
25
100
AcDbEntity
  8
1
  6
Continuous
 62
     0
100
AcDbCircle
 10
14279.59286132678
 20
-904.959460227497
 30
0.0
 40
40.0
  0
CIRCLE
  5
459
330
25
100
AcDbEntity
  8
1
  6
Continuous
 62
     0
100
AcDbCircle
 10
14279.59286132678
 20
-904.959460227497
 30
0.0
 40
45.0
  0
CIRCLE
  5
458
330
25
100
AcDbEntity
  8
1
  6
Continuous
 62
     0
100
AcDbCircle
 10
11351.21787867026
 20
-3890.777406699796
 30
0.0
 40
511.999999999994
  0
ARC
  5
457
330
25
100
AcDbEntity
  8
1
  6
Continuous
 62
     0
100
AcDbCircle
 10
14956.88288963609
 20
-2687.929977835237
 30
0.0
 40
315.971260282131
100
AcDbArc
 50
163.077829185707
 51
181.456160860873
  0
ARC
  5
456
330
25
100
AcDbEntity
  8
1
  6
Continuous
 62
     0
100
AcDbCircle
 10
14956.88288963609
 20
-2687.929977835237
 30
0.0
 40
315.971260282131
100
AcDbArc
 50
163.077829185707
 51
181.456160860873
  0
ARC
  5
455
330
25
100
AcDbEntity
  8
1
  6
Continuous
 62
     0
100
AcDbCircle
 10
13602.30283301748
 20
-2687.929977835237
 30
0.0
 40
315.971260282126
100
AcDbArc
 50
358.5438391391269
 51
16.92217081429293
  0
ARC
  5
454
330
25
100
AcDbEntity
  8
1
  6
Continuous
 62
     0
100
AcDbCircle
 10
13602.30283301748
 20
-2687.929977835237
 30
0.0
 40
315.971260282126
100
AcDbArc
 50
358.5438391391269
 51
16.92217081429293
  0
ARC
  5
453
330
25
100
AcDbEntity
  8
1
  6
Continuous
 62
     0
100
AcDbCircle
 10
10673.92785036096
 20
-2687.929977835237
 30
0.0
 40
315.971260282126
100
AcDbArc
 50
358.5438391391269
 51
16.92217081429293
  0
ARC
  5
452
330
25
100
AcDbEntity
  8
1
  6
Continuous
 62
     0
100
AcDbCircle
 10
12028.50790697957
 20
-2687.929977835237
 30
0.0
 40
315.971260282131
100
AcDbArc
 50
163.077829185707
 51
181.456160860873
  0
ARC
  5
44B
330
25
100
AcDbEntity
  8
1
  6
Continuous
 62
     0
100
AcDbCircle
 10
11351.21787867026
 20
-2695.959460227498
 30
0.0
 40
100.0
100
AcDbArc
 50
0.0
 51
180.0
  0
ARC
  5
44A
330
25
100
AcDbEntity
  8
1
  6
Continuous
 62
     0
100
AcDbCircle
 10
11351.21787867026
 20
-1595.959460227498
 30
0.0
 40
1009.0
100
AcDbArc
 50
267.744999329787
 51
272.255000670214
  0
ARC
  5
449
330
25
100
AcDbEntity
  8
1
  6
Continuous
 62
     0
100
AcDbCircle
 10
11375.36787867026
 20
-2659.889460227497
 30
0.0
 40
14.252192813739
100
AcDbArc
 50
158.3852210572138
 51
201.6147789427863
  0
ARC
  5
448
330
25
100
AcDbEntity
  8
1
  6
Continuous
 62
     0
100
AcDbCircle
 10
11393.99912867026
 20
-2660.139460227498
 30
0.0
 40
15.781249999999
100
AcDbArc
 50
141.9080428947563
 51
218.0919571052344
  0
ARC
  5
447
330
25
100
AcDbEntity
  8
1
  6
Continuous
 62
     0
100
AcDbCircle
 10
11344.96787867026
 20
-2671.087244582791
 30
0.0
 40
18.052215644706
100
AcDbArc
 50
249.7438419995784
 51
290.2561580004216
  0
ARC
  5
446
330
25
100
AcDbEntity
  8
1
  6
Continuous
 62
     0
100
AcDbCircle
 10
11357.46787867026
 20
-2671.087244582791
 30
0.0
 40
18.052215644707
100
AcDbArc
 50
249.7438419995794
 51
290.2561580004206
  0
ARC
  5
445
330
25
100
AcDbEntity
  8
1
  6
Continuous
 62
     0
100
AcDbCircle
 10
11344.96787867026
 20
-2650.691675872204
 30
0.0
 40
18.052215644708
100
AcDbArc
 50
69.74384199958037
 51
110.2561580004196
  0
ARC
  5
444
330
25
100
AcDbEntity
  8
1
  6
Continuous
 62
     0
100
AcDbCircle
 10
11357.46787867026
 20
-2650.691675872204
 30
0.0
 40
18.052215644707
100
AcDbArc
 50
69.74384199957936
 51
110.2561580004206
  0
ARC
  5
443
330
25
100
AcDbEntity
  8
1
  6
Continuous
 62
     0
100
AcDbCircle
 10
11357.46787867026
 20
-2625.003911249462
 30
0.0
 40
18.052215644708
100
AcDbArc
 50
249.7438419995804
 51
261.2376819319969
  0
ARC
  5
442
330
25
100
AcDbEntity
  8
1
  6
Continuous
 62
     0
100
AcDbCircle
 10
11344.96787867026
 20
-2625.003911249462
 30
0.0
 40
18.052215644707
100
AcDbArc
 50
249.7438419995794
 51
261.2376819319964
  0
ARC
  5
441
330
25
100
AcDbEntity
  8
1
  6
Continuous
 62
     0
100
AcDbCircle
 10
11357.46787867026
 20
-2696.775009205535
 30
0.0
 40
18.052215644708
100
AcDbArc
 50
69.74384199958037
 51
81.23768193199686
  0
ARC
  5
440
330
25
100
AcDbEntity
  8
1
  6
Continuous
 62
     0
100
AcDbCircle
 10
11344.96787867026
 20
-2696.775009205535
 30
0.0
 40
18.052215644709
100
AcDbArc
 50
69.74384199958187
 51
81.23768193199732
  0
ARC
  5
43F
330
25
100
AcDbEntity
  8
1
  6
Continuous
 62
     0
100
AcDbCircle
 10
11344.96787867026
 20
-2625.003911249462
 30
0.0
 40
18.052215644708
100
AcDbArc
 50
278.7623180680031
 51
290.2561580004195
  0
ARC
  5
43E
330
25
100
AcDbEntity
  8
1
  6
Continuous
 62
     0
100
AcDbCircle
 10
11357.46787867026
 20
-2696.775009205535
 30
0.0
 40
18.052215644708
100
AcDbArc
 50
98.76231806800313
 51
110.2561580004196
  0
ARC
  5
43D
330
25
100
AcDbEntity
  8
1
  6
Continuous
 62
     0
100
AcDbCircle
 10
11357.46787867026
 20
-2625.003911249462
 30
0.0
 40
18.052215644708
100
AcDbArc
 50
278.7623180680031
 51
290.2561580004195
  0
ARC
  5
43C
330
25
100
AcDbEntity
  8
1
  6
Continuous
 62
     0
100
AcDbCircle
 10
11344.96787867026
 20
-2696.775009205535
 30
0.0
 40
18.052215644708
100
AcDbArc
 50
98.76231806800313
 51
110.2561580004196
  0
ARC
  5
43B
330
25
100
AcDbEntity
  8
1
  6
Continuous
 62
     0
100
AcDbCircle
 10
10730.57961513812
 20
-2054.959460227498
 30
0.0
 40
117.417949238091
100
AcDbArc
 50
337.7026180772271
 51
22.29738192277216
  0
ARC
  5
43A
330
25
100
AcDbEntity
  8
1
  6
Continuous
 62
     0
100
AcDbCircle
 10
11971.85614220241
 20
-904.959460227497
 30
0.0
 40
117.417949238099
100
AcDbArc
 50
157.7026180772292
 51
202.2973819227708
  0
ARC
  5
439
330
25
100
AcDbEntity
  8
1
  6
Continuous
 62
     0
100
AcDbCircle
 10
10770.39315142239
 20
-1314.067446489577
 30
0.0
 40
5.414822022411
100
AcDbArc
 50
145.7715041969951
 51
204.020677081057
  0
ARC
  5
438
330
25
100
AcDbEntity
  8
1
  6
Continuous
 62
     0
100
AcDbCircle
 10
10785.04052723309
 20
-1304.959460227498
 30
0.0
 40
20.062177826479
100
AcDbArc
 50
162.4120462259981
 51
197.5879537740037
  0
ARC
  5
437
330
25
100
AcDbEntity
  8
1
  6
Continuous
 62
     0
100
AcDbCircle
 10
10770.39315142239
 20
-1295.851473965419
 30
0.0
 40
5.41482202241
100
AcDbArc
 50
155.9793229189418
 51
214.2284958030197
  0
ARC
  5
436
330
25
100
AcDbEntity
  8
1
  6
Continuous
 62
     0
100
AcDbCircle
 10
10803.56354739084
 20
-1314.067446489577
 30
0.0
 40
5.41482202241
100
AcDbArc
 50
335.9793229189374
 51
34.22849580299692
  0
ARC
  5
435
330
25
100
AcDbEntity
  8
1
  6
Continuous
 62
     0
100
AcDbCircle
 10
10788.91617158014
 20
-1304.959460227498
 30
0.0
 40
20.062177826479
100
AcDbArc
 50
342.4120462259963
 51
17.58795377400187
  0
ARC
  5
434
330
25
100
AcDbEntity
  8
1
  6
Continuous
 62
     0
100
AcDbCircle
 10
10803.56354739084
 20
-1295.851473965419
 30
0.0
 40
5.414822022411
100
AcDbArc
 50
325.771504196991
 51
24.02067708105039
  0
ARC
  5
433
330
25
100
AcDbEntity
  8
1
  6
Continuous
 62
     0
100
AcDbCircle
 10
10786.97834940661
 20
-1304.959460227498
 30
0.0
 40
9.999999999996
100
AcDbArc
 50
214.4290039507335
 51
325.5709960492999
  0
ARC
  5
432
330
25
100
AcDbEntity
  8
1
  6
Continuous
 62
     0
100
AcDbCircle
 10
10786.97834940661
 20
-1304.959460227498
 30
0.0
 40
10.000000000003
100
AcDbArc
 50
34.42900395069982
 51
145.5709960492659
  0
ARC
  5
431
330
25
100
AcDbEntity
  8
1
  6
Continuous
 62
     0
100
AcDbCircle
 10
10820.74052723309
 20
-1304.959460227498
 30
0.0
 40
20.062177826482
100
AcDbArc
 50
196.0959632100563
 51
197.5879537740053
  0
ARC
  5
430
330
25
100
AcDbEntity
  8
1
  6
Continuous
 62
     0
100
AcDbCircle
 10
10806.09315142239
 20
-1314.067446489577
 30
0.0
 40
5.414822022411
100
AcDbArc
 50
145.7715041969951
 51
204.0206770810504
  0
ARC
  5
42F
330
25
100
AcDbEntity
  8
1
  6
Continuous
 62
     0
100
AcDbCircle
 10
10806.09315142239
 20
-1295.851473965419
 30
0.0
 40
5.414822022411
100
AcDbArc
 50
155.979322918954
 51
214.2284958030089
  0
ARC
  5
42E
330
25
100
AcDbEntity
  8
1
  6
Continuous
 62
     0
100
AcDbCircle
 10
10752.95399375365
 20
-1304.959460227498
 30
0.0
 40
20.062177826472
100
AcDbArc
 50
16.09596321006308
 51
17.5879537740032
  0
ARC
  5
42D
330
25
100
AcDbEntity
  8
1
  6
Continuous
 62
     0
100
AcDbCircle
 10
10767.60136956435
 20
-1295.851473965419
 30
0.0
 40
5.414822022411
100
AcDbArc
 50
325.771504196991
 51
24.02067708105039
  0
ARC
  5
42C
330
25
100
AcDbEntity
  8
1
  6
Continuous
 62
     0
100
AcDbCircle
 10
10767.60136956435
 20
-1314.067446489577
 30
0.0
 40
5.41482202241
100
AcDbArc
 50
335.9793229189374
 51
34.22849580299692
  0
ARC
  5
42B
330
25
100
AcDbEntity
  8
1
  6
Continuous
 62
     0
100
AcDbCircle
 10
10792.88122746706
 20
-1300.970630660569
 30
0.0
 40
6.806710713919
100
AcDbArc
 50
3.041596008616065
 51
41.51019968793902
  0
ARC
  5
42A
330
25
100
AcDbEntity
  8
1
  6
Continuous
 62
     0
100
AcDbCircle
 10
10752.95399375365
 20
-1304.959460227498
 30
0.0
 40
20.062177826479
100
AcDbArc
 50
342.4120462259963
 51
343.9040367899358
  0
ARC
  5
429
330
25
100
AcDbEntity
  8
1
  6
Continuous
 62
     0
100
AcDbCircle
 10
10820.74052723309
 20
-1304.959460227498
 30
0.0
 40
20.062177826479
100
AcDbArc
 50
162.4120462259981
 51
163.9040367899439
  0
ARC
  5
428
330
25
100
AcDbEntity
  8
1
  6
Continuous
 62
     0
100
AcDbCircle
 10
10726.63517810375
 20
-1218.276646036244
 30
0.0
 40
39.044459324231
100
AcDbArc
 50
93.89990484408618
 51
206.1108297946168
  0
ARC
  5
427
330
25
100
AcDbEntity
  8
1
  6
Continuous
 62
     0
100
AcDbCircle
 10
10726.63517810375
 20
-1218.276646036244
 30
0.0
 40
39.044459324228
100
AcDbArc
 50
206.1108297946155
 51
214.0413943255929
  0
ARC
  5
426
330
25
100
AcDbEntity
  8
1
  6
Continuous
 62
     0
100
AcDbCircle
 10
10726.72406699264
 20
-1218.368681834905
 30
0.0
 40
38.955598656249
100
AcDbArc
 50
326.0668870753447
 51
334.0155658970755
  0
ARC
  5
425
330
25
100
AcDbEntity
  8
1
  6
Continuous
 62
     0
100
AcDbCircle
 10
10726.72406699264
 20
-1218.368681834905
 30
0.0
 40
38.955598656249
100
AcDbArc
 50
285.1113442230395
 51
326.0668870753447
  0
ARC
  5
424
330
25
100
AcDbEntity
  8
1
  6
Continuous
 62
     0
100
AcDbCircle
 10
10759.40705866788
 20
-1237.205927422666
 30
0.0
 40
3.637499999999
100
AcDbArc
 50
282.0750220507556
 51
17.92497794918222
  0
ARC
  5
423
330
25
100
AcDbEntity
  8
1
  6
Continuous
 62
     0
100
AcDbCircle
 10
10693.90831483738
 20
-1237.231256697615
 30
0.0
 40
3.637499999995
100
AcDbArc
 50
162.0750220508342
 51
257.9249779492309
  0
ARC
  5
422
330
25
100
AcDbEntity
  8
1
  6
Continuous
 62
     0
100
AcDbCircle
 10
10726.6796225482
 20
-1180.469686712013
 30
0.0
 40
3.637500000001
100
AcDbArc
 50
42.07502205084127
 51
137.9249779491534
  0
ARC
  5
421
330
25
100
AcDbEntity
  8
1
  6
Continuous
 62
     0
100
AcDbCircle
 10
10726.63517810375
 20
-1218.276646036244
 30
0.0
 40
39.044459324231
100
AcDbArc
 50
85.96934215078379
 51
93.89990484408618
  0
ARC
  5
420
330
25
100
AcDbEntity
  8
1
  6
Continuous
 62
     0
100
AcDbCircle
 10
10726.63517810375
 20
-1218.276646036244
 30
0.0
 40
39.044459324236
100
AcDbArc
 50
359.949978547832
 51
85.96934215078431
  0
ARC
  5
41F
330
25
100
AcDbEntity
  8
1
  6
Continuous
 62
     0
100
AcDbCircle
 10
10726.68231283672
 20
-1218.314241076168
 30
0.0
 40
28.591593842009
100
AcDbArc
 50
180.0
 51
224.4894078670359
  0
ARC
  5
41E
330
25
100
AcDbEntity
  8
1
  6
Continuous
 62
     0
100
AcDbCircle
 10
10726.68231283672
 20
-1218.314241076168
 30
0.0
 40
28.591593842013
100
AcDbArc
 50
315.0000000000047
 51
180.0
  0
ARC
  5
41D
330
25
100
AcDbEntity
  8
1
  6
Continuous
 62
     0
100
AcDbCircle
 10
10726.67849391556
 20
-1218.309749589069
 30
0.0
 40
32.087775151114
100
AcDbArc
 50
314.9991688162408
 51
179.9269078913199
  0
ARC
  5
41C
330
25
100
AcDbEntity
  8
1
  6
Continuous
 62
     0
100
AcDbCircle
 10
10726.6796225482
 20
-1218.310733369081
 30
0.0
 40
3.611111111112
100
AcDbArc
 50
74.69796828557985
 51
201.4218215217996
  0
ARC
  5
41B
330
25
100
AcDbEntity
  8
1
  6
Continuous
 62
     0
100
AcDbCircle
 10
10726.6796225482
 20
-1218.310733369081
 30
0.0
 40
3.611111111114
100
AcDbArc
 50
248.5781784780835
 51
0.0
  0
ARC
  5
41A
330
25
100
AcDbEntity
  8
1
  6
Continuous
 62
     0
100
AcDbCircle
 10
10726.6796225482
 20
-1218.310733369081
 30
0.0
 40
3.611111111111
100
AcDbArc
 50
0.0
 51
15.30203171438472
  0
ARC
  5
419
330
25
100
AcDbEntity
  8
1
  6
Continuous
 62
     0
100
AcDbCircle
 10
10726.72406699264
 20
-1218.368681834905
 30
0.0
 40
38.955598656251
100
AcDbArc
 50
334.0155658970755
 51
0.0852304639130497
  0
ARC
  5
418
330
25
100
AcDbEntity
  8
1
  6
Continuous
 62
     0
100
AcDbCircle
 10
10726.63517810375
 20
-1218.276646036244
 30
0.0
 40
39.044459324232
100
AcDbArc
 50
214.0413943255924
 51
254.9238647887205
  0
ARC
  5
417
330
25
100
AcDbEntity
  8
1
  6
Continuous
 62
     0
100
AcDbCircle
 10
10726.6796225482
 20
-1217.979599278659
 30
0.0
 40
39.342857142856
100
AcDbArc
 50
254.9738862408818
 51
285.026113759121
  0
ARC
  5
416
330
25
100
AcDbEntity
  8
1
  6
Continuous
 62
     0
100
AcDbCircle
 10
10726.67849391556
 20
-1218.309749589069
 30
0.0
 40
32.087775151124
100
AcDbArc
 50
179.92690789132
 51
224.5555346917845
  0
ARC
  5
415
330
25
100
AcDbEntity
  8
1
  6
Continuous
 62
     0
100
AcDbCircle
 10
10759.5645653221
 20
-1248.594345305746
 30
0.0
 40
42.897491299711
100
AcDbArc
 50
116.5823044191856
 51
133.2669116226958
  0
ARC
  5
414
330
25
100
AcDbEntity
  8
1
  6
Continuous
 62
     0
100
AcDbCircle
 10
10740.07772694556
 20
-1209.649990851049
 30
0.0
 40
0.650179290189
100
AcDbArc
 50
296.5823044189151
 51
30.13902348542327
  0
ARC
  5
413
330
25
100
AcDbEntity
  8
1
  6
Continuous
 62
     0
100
AcDbCircle
 10
10696.39601061153
 20
-1185.425790595175
 30
0.0
 40
42.897491299717
100
AcDbArc
 50
316.733088377308
 51
333.4176955808159
  0
ARC
  5
412
330
25
100
AcDbEntity
  8
1
  6
Continuous
 62
     0
100
AcDbCircle
 10
10735.34036506623
 20
-1204.912628971719
 30
0.0
 40
0.65017929019
100
AcDbArc
 50
59.86097651457227
 51
153.4176955807713
  0
ARC
  5
411
330
25
100
AcDbEntity
  8
1
  6
Continuous
 62
     0
100
AcDbCircle
 10
10728.78242568128
 20
-1216.207930235995
 30
0.0
 40
13.711205269321
100
AcDbArc
 50
30.1390234855694
 51
59.8609765144122
  0
ARC
  5
410
330
25
100
AcDbEntity
  8
1
  6
Continuous
 62
     0
100
AcDbCircle
 10
11351.21787867026
 20
-653.425251835049
 30
0.0
 40
25.565791607551
100
AcDbArc
 50
68.78850558533539
 51
111.2114944146646
  0
ARC
  5
40F
330
25
100
AcDbEntity
  8
1
  6
Continuous
 62
     0
100
AcDbCircle
 10
11366.71787867026
 20
-640.001858076391
 30
0.0
 40
12.142397848893
100
AcDbArc
 50
90.0
 51
120.9790988616308
  0
ARC
  5
40E
330
25
100
AcDbEntity
  8
1
  6
Continuous
 62
     0
100
AcDbCircle
 10
11335.71787867026
 20
-640.001858076391
 30
0.0
 40
12.142397848893
100
AcDbArc
 50
59.0209011383692
 51
90.0
  0
ARC
  5
40D
330
25
100
AcDbEntity
  8
1
  6
Continuous
 62
     0
100
AcDbCircle
 10
11351.21787867026
 20
-619.359460227498
 30
0.0
 40
15.0
100
AcDbArc
 50
0.0
 51
180.0
  0
ARC
  5
40C
330
25
100
AcDbEntity
  8
1
  6
Continuous
 62
     0
100
AcDbCircle
 10
11373.21787867026
 20
-641.859460227498
 30
0.0
 40
1.0
100
AcDbArc
 50
0.0
 51
180.0
  0
ARC
  5
40B
330
25
100
AcDbEntity
  8
1
  6
Continuous
 62
     0
100
AcDbCircle
 10
11358.5512120036
 20
-641.859460227498
 30
0.0
 40
1.0
100
AcDbArc
 50
0.0
 51
180.0
  0
ARC
  5
40A
330
25
100
AcDbEntity
  8
1
  6
Continuous
 62
     0
100
AcDbCircle
 10
11343.88454533693
 20
-641.859460227498
 30
0.0
 40
1.0
100
AcDbArc
 50
0.0
 51
180.0
  0
ARC
  5
409
330
25
100
AcDbEntity
  8
1
  6
Continuous
 62
     0
100
AcDbCircle
 10
11329.21787867026
 20
-641.859460227498
 30
0.0
 40
1.0
100
AcDbArc
 50
0.0
 51
180.0
  0
ARC
  5
408
330
25
100
AcDbEntity
  8
1
  6
Continuous
 62
     0
100
AcDbCircle
 10
11351.21787867026
 20
-761.977011752142
 30
0.0
 40
64.382448475355
100
AcDbArc
 50
252.7775550278671
 51
287.2224449721328
  0
ARC
  5
407
330
25
100
AcDbEntity
  8
1
  6
Continuous
 62
     0
100
AcDbCircle
 10
11318.09287867026
 20
-790.664103252502
 30
0.0
 40
35.695356974996
100
AcDbArc
 50
270.0
 51
293.2010528959336
  0
ARC
  5
406
330
25
100
AcDbEntity
  8
1
  6
Continuous
 62
     0
100
AcDbCircle
 10
11384.34287867026
 20
-790.664103252502
 30
0.0
 40
35.695356974995
100
AcDbArc
 50
246.7989471040658
 51
270.0
  0
ARC
  5
405
330
25
100
AcDbEntity
  8
1
  6
Continuous
 62
     0
100
AcDbCircle
 10
11351.39527171403
 20
-761.977011752142
 30
0.0
 40
64.382448475355
100
AcDbArc
 50
252.7775550278671
 51
287.2224449721328
  0
ARC
  5
404
330
25
100
AcDbEntity
  8
1
  6
Continuous
 62
     0
100
AcDbCircle
 10
11318.27027171403
 20
-790.664103252502
 30
0.0
 40
35.695356974996
100
AcDbArc
 50
270.0
 51
293.2010528959336
  0
ARC
  5
403
330
25
100
AcDbEntity
  8
1
  6
Continuous
 62
     0
100
AcDbCircle
 10
11384.52027171403
 20
-790.664103252502
 30
0.0
 40
35.695356974995
100
AcDbArc
 50
246.7989471040658
 51
270.0
  0
ARC
  5
402
330
25
100
AcDbEntity
  8
1
  6
Continuous
 62
     0
100
AcDbCircle
 10
11351.21787867026
 20
-904.959460227499
 30
0.0
 40
36.001544532569
100
AcDbArc
 50
135.814292148299
 51
270.0
  0
ARC
  5
401
330
25
100
AcDbEntity
  8
1
  6
Continuous
 62
     0
100
AcDbCircle
 10
11351.21787867026
 20
-904.959460227499
 30
0.0
 40
34.501544532565
100
AcDbArc
 50
145.0616359452946
 51
270.0
  0
ARC
  5
400
330
25
100
AcDbEntity
  8
1
  6
Continuous
 62
     0
100
AcDbCircle
 10
11351.21787867026
 20
-904.959460227499
 30
0.0
 40
34.501544532572
100
AcDbArc
 50
270.0
 51
34.34406296570281
  0
ARC
  5
3FF
330
25
100
AcDbEntity
  8
1
  6
Continuous
 62
     0
100
AcDbCircle
 10
11578.46403677001
 20
110.081717537547
 30
0.0
 40
36.000000000001
100
AcDbArc
 50
290.7173872833735
 51
224.28261271663
  0
ARC
  5
3FE
330
25
100
AcDbEntity
  8
1
  6
Continuous
 62
     0
100
AcDbCircle
 10
11123.97172057052
 20
110.081717537547
 30
0.0
 40
36.0
100
AcDbArc
 50
315.7173872833712
 51
249.2826127166228
  0
ARC
  5
3FD
330
25
100
AcDbEntity
  8
1
  6
Continuous
 62
     0
100
AcDbCircle
 10
14279.59286132678
 20
-2695.959460227498
 30
0.0
 40
100.0
100
AcDbArc
 50
0.0
 51
180.0
  0
ARC
  5
3FC
330
25
100
AcDbEntity
  8
1
  6
Continuous
 62
     0
100
AcDbCircle
 10
14279.59286132678
 20
131.44022746203
 30
0.0
 40
8.0
100
AcDbArc
 50
0.0
 51
180.0
  0
ARC
  5
3FB
330
25
100
AcDbEntity
  8
1
  6
Continuous
 62
     0
100
AcDbCircle
 10
14263.35003046217
 20
70.242090706516
 30
0.0
 40
1.262772106959
100
AcDbArc
 50
185.3993945289037
 51
225.2224209085689
  0
ARC
  5
3FA
330
25
100
AcDbEntity
  8
1
  6
Continuous
 62
     0
100
AcDbCircle
 10
14266.61300696665
 20
74.35045133482
 30
0.0
 40
6.503072230992
100
AcDbArc
 50
230.3175756927378
 51
252.5514760121199
  0
ARC
  5
3F9
330
25
100
AcDbEntity
  8
1
  6
Continuous
 62
     0
100
AcDbCircle
 10
14278.07219606267
 20
116.243228605463
 30
0.0
 40
49.930849596588
100
AcDbArc
 50
254.421762442638
 51
271.7443733295157
  0
ARC
  5
3F8
330
25
100
AcDbEntity
  8
1
  6
Continuous
 62
     0
100
AcDbCircle
 10
14281.11352659089
 20
116.243228605463
 30
0.0
 40
49.93084959659
100
AcDbArc
 50
268.2556266704823
 51
285.5782375573722
  0
ARC
  5
3F7
330
25
100
AcDbEntity
  8
1
  6
Continuous
 62
     0
100
AcDbCircle
 10
14292.57271568691
 20
74.35045133482
 30
0.0
 40
6.503072230996
100
AcDbArc
 50
287.448523987953
 51
309.6824243073176
  0
ARC
  5
3F6
330
25
100
AcDbEntity
  8
1
  6
Continuous
 62
     0
100
AcDbCircle
 10
14295.8356921914
 20
70.242090706516
 30
0.0
 40
1.262772106956
100
AcDbArc
 50
314.7775790914456
 51
354.6006054710525
  0
ARC
  5
3F5
330
25
100
AcDbEntity
  8
1
  6
Continuous
 62
     0
100
AcDbCircle
 10
14264.46123743433
 20
81.937948996012
 30
0.0
 40
0.867981349404
100
AcDbArc
 50
145.7178948446116
 51
213.554741414284
  0
ARC
  5
3F4
330
25
100
AcDbEntity
  8
1
  6
Continuous
 62
     0
100
AcDbCircle
 10
14265.51978058939
 20
81.278965904086
 30
0.0
 40
2.114445598487
100
AcDbArc
 50
121.8595672973003
 51
147.1201234933894
  0
ARC
  5
3F3
330
25
100
AcDbEntity
  8
1
  6
Continuous
 62
     0
100
AcDbCircle
 10
14268.89554441882
 20
75.807919061835
 30
0.0
 40
8.543133604493
100
AcDbArc
 50
107.7707762055248
 51
121.7210992554454
  0
ARC
  5
3F2
330
25
100
AcDbEntity
  8
1
  6
Continuous
 62
     0
100
AcDbCircle
 10
14275.12122974377
 20
55.234459698846
 30
0.0
 40
30.037119456798
100
AcDbArc
 50
96.74593474799131
 51
107.1020109014689
  0
ARC
  5
3F1
330
25
100
AcDbEntity
  8
1
  6
Continuous
 62
     0
100
AcDbCircle
 10
14275.12122974377
 20
108.640088864173
 30
0.0
 40
30.037119456795
100
AcDbArc
 50
252.8979890985294
 51
263.254065252008
  0
ARC
  5
3F0
330
25
100
AcDbEntity
  8
1
  6
Continuous
 62
     0
100
AcDbCircle
 10
14268.89554441882
 20
88.066629501184
 30
0.0
 40
8.543133604493
100
AcDbArc
 50
238.2789007445544
 51
252.2292237944752
  0
ARC
  5
3EF
330
25
100
AcDbEntity
  8
1
  6
Continuous
 62
     0
100
AcDbCircle
 10
14265.51978058939
 20
82.595582658934
 30
0.0
 40
2.114445598486
100
AcDbArc
 50
212.8798765066351
 51
238.1404327026842
  0
ARC
  5
3EE
330
25
100
AcDbEntity
  8
1
  6
Continuous
 62
     0
100
AcDbCircle
 10
14264.46123743433
 20
81.936599567009
 30
0.0
 40
0.867981349403
100
AcDbArc
 50
146.4452585858161
 51
214.2821051554506
  0
ARC
  5
3ED
330
25
100
AcDbEntity
  8
1
  6
Continuous
 62
     0
100
AcDbCircle
 10
14294.72448521923
 20
81.936599567009
 30
0.0
 40
0.867981349412
100
AcDbArc
 50
325.7178948449242
 51
33.55474141395759
  0
ARC
  5
3EC
330
25
100
AcDbEntity
  8
1
  6
Continuous
 62
     0
100
AcDbCircle
 10
14293.66594206418
 20
82.595582658934
 30
0.0
 40
2.114445598487
100
AcDbArc
 50
301.8595672973003
 51
327.1201234933894
  0
ARC
  5
3EB
330
25
100
AcDbEntity
  8
1
  6
Continuous
 62
     0
100
AcDbCircle
 10
14290.29017823475
 20
88.066629501184
 30
0.0
 40
8.54313360449
100
AcDbArc
 50
287.770776205467
 51
301.7210992554439
  0
ARC
  5
3EA
330
25
100
AcDbEntity
  8
1
  6
Continuous
 62
     0
100
AcDbCircle
 10
14284.06449290979
 20
108.640088864173
 30
0.0
 40
30.037119456796
100
AcDbArc
 50
276.7459347479917
 51
287.1020109014701
  0
ARC
  5
3E9
330
25
100
AcDbEntity
  8
1
  6
Continuous
 62
     0
100
AcDbCircle
 10
14284.06449290979
 20
55.234459698846
 30
0.0
 40
30.037119456797
100
AcDbArc
 50
72.89798909853056
 51
83.25406525200847
  0
ARC
  5
3E8
330
25
100
AcDbEntity
  8
1
  6
Continuous
 62
     0
100
AcDbCircle
 10
14290.29017823475
 20
75.807919061835
 30
0.0
 40
8.543133604494
100
AcDbArc
 50
58.27890074455848
 51
72.22922379452869
  0
ARC
  5
3E7
330
25
100
AcDbEntity
  8
1
  6
Continuous
 62
     0
100
AcDbCircle
 10
14293.66594206418
 20
81.278965904086
 30
0.0
 40
2.114445598486
100
AcDbArc
 50
32.87987650663509
 51
58.14043270268422
  0
ARC
  5
3E6
330
25
100
AcDbEntity
  8
1
  6
Continuous
 62
     0
100
AcDbCircle
 10
14294.72448521923
 20
81.937948996012
 30
0.0
 40
0.86798134941
100
AcDbArc
 50
326.4452585859847
 51
34.28210515508606
  0
ARC
  5
3E4
330
25
100
AcDbEntity
  8
1
  6
Continuous
 62
     0
100
AcDbCircle
 10
13710.96803779204
 20
-949.87644626017
 30
0.0
 40
10.4154415001
100
AcDbArc
 50
58.86850943390994
 51
90.0
  0
ARC
  5
3E3
330
25
100
AcDbEntity
  8
1
  6
Continuous
 62
     0
100
AcDbCircle
 10
13710.96803779204
 20
-860.042474194828
 30
0.0
 40
10.415441500098
100
AcDbArc
 50
270.0
 51
301.1314905660965
  0
ARC
  5
3E2
330
25
100
AcDbEntity
  8
1
  6
Continuous
 62
     0
100
AcDbCircle
 10
15243.71530658227
 20
-2172.166568024275
 30
0.0
 40
458.972445255489
100
AcDbArc
 50
170.088686020987
 51
189.911313979013
  0
ARC
  5
3E1
330
25
100
AcDbEntity
  8
1
  6
Continuous
 62
     0
100
AcDbCircle
 10
14817.4045161659
 20
-2124.833224398985
 30
0.0
 40
6.188368025609
100
AcDbArc
 50
335.9793229189668
 51
34.2284958030539
  0
ARC
  5
3E0
330
25
100
AcDbEntity
  8
1
  6
Continuous
 62
     0
100
AcDbCircle
 10
14817.4045161659
 20
-2104.014970085654
 30
0.0
 40
6.188368025611
100
AcDbArc
 50
325.7715041969452
 51
24.02067708103025
  0
ARC
  5
3DF
330
25
100
AcDbEntity
  8
1
  6
Continuous
 62
     0
100
AcDbCircle
 10
14800.66465809651
 20
-2114.42409724232
 30
0.0
 40
22.928203230275
100
AcDbArc
 50
342.4120462260074
 51
17.58795377399472
  0
ARC
  5
3DE
330
25
100
AcDbEntity
  8
1
  6
Continuous
 62
     0
100
AcDbCircle
 10
14800.66465809651
 20
-2148.248853501456
 30
0.0
 40
22.928203230276
100
AcDbArc
 50
342.412046226002
 51
17.58795377399472
  0
ARC
  5
3DD
330
25
100
AcDbEntity
  8
1
  6
Continuous
 62
     0
100
AcDbCircle
 10
14817.4045161659
 20
-2137.839726344791
 30
0.0
 40
6.188368025611
100
AcDbArc
 50
325.7715041969452
 51
24.02067708103025
  0
ARC
  5
3DC
330
25
100
AcDbEntity
  8
1
  6
Continuous
 62
     0
100
AcDbCircle
 10
14817.4045161659
 20
-2158.657980658122
 30
0.0
 40
6.18836802561
100
AcDbArc
 50
335.979322918959
 51
34.22849580304443
  0
ARC
  5
3DB
330
25
100
AcDbEntity
  8
1
  6
Continuous
 62
     0
100
AcDbCircle
 10
14817.4045161659
 20
-2185.675155390428
 30
0.0
 40
6.188368025611
100
AcDbArc
 50
325.7715041969486
 51
24.02067708103794
  0
ARC
  5
3DA
330
25
100
AcDbEntity
  8
1
  6
Continuous
 62
     0
100
AcDbCircle
 10
14817.4045161659
 20
-2206.493409703759
 30
0.0
 40
6.188368025609
100
AcDbArc
 50
335.9793229189668
 51
34.2284958030539
  0
ARC
  5
3D9
330
25
100
AcDbEntity
  8
1
  6
Continuous
 62
     0
100
AcDbCircle
 10
14800.66465809651
 20
-2196.084282547093
 30
0.0
 40
22.928203230275
100
AcDbArc
 50
342.4120462260054
 51
17.58795377399581
  0
ARC
  5
3D8
330
25
100
AcDbEntity
  8
1
  6
Continuous
 62
     0
100
AcDbCircle
 10
14800.66465809651
 20
-2229.909038806231
 30
0.0
 40
22.928203230275
100
AcDbArc
 50
342.4120462260074
 51
17.58795377399472
  0
ARC
  5
3D7
330
25
100
AcDbEntity
  8
1
  6
Continuous
 62
     0
100
AcDbCircle
 10
14817.4045161659
 20
-2240.318165962896
 30
0.0
 40
6.188368025609
100
AcDbArc
 50
335.9793229189668
 51
34.2284958030539
  0
ARC
  5
3D6
330
25
100
AcDbEntity
  8
1
  6
Continuous
 62
     0
100
AcDbCircle
 10
14817.4045161659
 20
-2219.499911649565
 30
0.0
 40
6.188368025611
100
AcDbArc
 50
325.7715041969452
 51
24.02067708103025
  0
ARC
  5
3D5
330
25
100
AcDbEntity
  8
1
  6
Continuous
 62
     0
100
AcDbCircle
 10
14279.59286132679
 20
-2705.268893683524
 30
0.0
 40
25.760231957407
100
AcDbArc
 50
73.73049650736318
 51
106.2695034926579
  0
ARC
  5
3D4
330
25
100
AcDbEntity
  8
1
  6
Continuous
 62
     0
100
AcDbCircle
 10
14279.59286132679
 20
-2665.540241937682
 30
0.0
 40
23.883545031557
100
AcDbArc
 50
252.4120462259984
 51
287.5879537739833
  0
ARC
  5
3D3
330
25
100
AcDbEntity
  8
1
  6
Continuous
 62
     0
100
AcDbCircle
 10
14279.59286132679
 20
-2621.43185250945
 30
0.0
 40
21.615815918789
100
AcDbArc
 50
250.4961455205208
 51
289.5038544794538
  0
ARC
  5
3D2
330
25
100
AcDbEntity
  8
1
  6
Continuous
 62
     0
100
AcDbCircle
 10
14279.59286132679
 20
-2656.807332000817
 30
0.0
 40
23.883545031577
100
AcDbArc
 50
72.41204622603664
 51
107.5879537739817
  0
ARC
  5
3D1
330
25
100
AcDbEntity
  8
1
  6
Continuous
 62
     0
100
AcDbCircle
 10
14290.43570211498
 20
-2685.869979845161
 30
0.0
 40
6.446216693345
100
AcDbArc
 50
65.97932291895343
 51
79.65879036155869
  0
ARC
  5
3D0
330
25
100
AcDbEntity
  8
1
  6
Continuous
 62
     0
100
AcDbCircle
 10
14268.7500205386
 20
-2685.869979845162
 30
0.0
 40
6.446216693338
100
AcDbArc
 50
55.7715041970436
 51
82.48708424444106
  0
ARC
  5
3CF
330
25
100
AcDbEntity
  8
1
  6
Continuous
 62
     0
100
AcDbCircle
 10
14290.43570211498
 20
-2636.477594093319
 30
0.0
 40
6.446216693343
100
AcDbArc
 50
235.7715041969566
 51
262.4870842442675
  0
ARC
  5
3CE
330
25
100
AcDbEntity
  8
1
  6
Continuous
 62
     0
100
AcDbCircle
 10
14268.7500205386
 20
-2636.477594093318
 30
0.0
 40
6.44621669335
100
AcDbArc
 50
245.9793229188665
 51
259.6587903613693
  0
ARC
  5
3CD
330
25
100
AcDbEntity
  8
1
  6
Continuous
 62
     0
100
AcDbCircle
 10
14290.43570211498
 20
-2682.977594093317
 30
0.0
 40
6.446216693342
100
AcDbArc
 50
235.7715041969498
 51
294.0206770810417
  0
ARC
  5
3CC
330
25
100
AcDbEntity
  8
1
  6
Continuous
 62
     0
100
AcDbCircle
 10
14279.59286132678
 20
-2665.540241937699
 30
0.0
 40
23.88354503154
100
AcDbArc
 50
283.9309004841509
 51
287.5879537740146
  0
ARC
  5
3CB
330
25
100
AcDbEntity
  8
1
  6
Continuous
 62
     0
100
AcDbCircle
 10
14268.7500205386
 20
-2682.977594093316
 30
0.0
 40
6.44621669335
100
AcDbArc
 50
245.9793229188665
 51
304.2284958029621
  0
ARC
  5
3CA
330
25
100
AcDbEntity
  8
1
  6
Continuous
 62
     0
100
AcDbCircle
 10
14290.43570211498
 20
-2639.369979845159
 30
0.0
 40
6.446216693345
100
AcDbArc
 50
65.97932291895343
 51
124.22849580305
  0
ARC
  5
3C9
330
25
100
AcDbEntity
  8
1
  6
Continuous
 62
     0
100
AcDbCircle
 10
14279.59286132678
 20
-2656.807332000778
 30
0.0
 40
23.88354503154
100
AcDbArc
 50
103.9309004841509
 51
107.5879537739917
  0
ARC
  5
3C8
330
25
100
AcDbEntity
  8
1
  6
Continuous
 62
     0
100
AcDbCircle
 10
14268.7500205386
 20
-2639.36997984516
 30
0.0
 40
6.446216693337
100
AcDbArc
 50
55.77150419703906
 51
114.020677081132
  0
ARC
  5
3C7
330
25
100
AcDbEntity
  8
1
  6
Continuous
 62
     0
100
AcDbCircle
 10
14279.59286132678
 20
-2619.040241937701
 30
0.0
 40
23.883545031539
100
AcDbArc
 50
283.9309004841517
 51
287.5879537740151
  0
ARC
  5
3C6
330
25
100
AcDbEntity
  8
1
  6
Continuous
 62
     0
100
AcDbCircle
 10
14268.7500205386
 20
-2636.477594093318
 30
0.0
 40
6.446216693344
100
AcDbArc
 50
277.5129157555521
 51
304.2284958029581
  0
ARC
  5
3C5
330
25
100
AcDbEntity
  8
1
  6
Continuous
 62
     0
100
AcDbCircle
 10
14290.43570211498
 20
-2636.477594093319
 30
0.0
 40
6.446216693345
100
AcDbArc
 50
280.3412096384413
 51
294.0206770810466
  0
ARC
  5
3C4
330
25
100
AcDbEntity
  8
1
  6
Continuous
 62
     0
100
AcDbCircle
 10
14279.59286132678
 20
-2703.307332000779
 30
0.0
 40
23.883545031539
100
AcDbArc
 50
103.9309004841516
 51
107.5879537739924
  0
ARC
  5
3C3
330
25
100
AcDbEntity
  8
1
  6
Continuous
 62
     0
100
AcDbCircle
 10
14268.7500205386
 20
-2685.869979845162
 30
0.0
 40
6.44621669335
100
AcDbArc
 50
100.3412096386141
 51
114.0206770811335
  0
ARC
  5
3C2
330
25
100
AcDbEntity
  8
1
  6
Continuous
 62
     0
100
AcDbCircle
 10
14290.43570211498
 20
-2685.869979845161
 30
0.0
 40
6.446216693344
100
AcDbArc
 50
97.51291575573156
 51
124.2284958030366
  0
ARC
  5
3C1
330
25
100
AcDbEntity
  8
1
  6
Continuous
 62
     0
100
AcDbCircle
 10
14279.59286132678
 20
-2619.040241937701
 30
0.0
 40
23.88354503154
100
AcDbArc
 50
252.4120462260083
 51
256.0690995158491
  0
ARC
  5
3C0
330
25
100
AcDbEntity
  8
1
  6
Continuous
 62
     0
100
AcDbCircle
 10
14279.59286132678
 20
-2703.307332000779
 30
0.0
 40
23.883545031542
100
AcDbArc
 50
72.41204622598717
 51
76.06909951585018
  0
ARC
  5
3BF
330
25
100
AcDbEntity
  8
1
  6
Continuous
 62
     0
100
AcDbCircle
 10
14279.59286132678
 20
-2656.807332000778
 30
0.0
 40
23.883545031543
100
AcDbArc
 50
72.41204622598782
 51
76.0690995158507
  0
ARC
  5
3BE
330
25
100
AcDbEntity
  8
1
  6
Continuous
 62
     0
100
AcDbCircle
 10
14279.59286132678
 20
-2665.540241937699
 30
0.0
 40
23.883545031538
100
AcDbArc
 50
252.412046226007
 51
256.0690995158478
  0
ARC
  5
3BD
330
25
100
AcDbEntity
  8
1
  6
Continuous
 62
     0
100
AcDbCircle
 10
14279.59286132678
 20
-2660.423786969239
 30
0.0
 40
12.999999999997
100
AcDbArc
 50
31.1089225105044
 51
148.8910774894973
  0
ARC
  5
3BC
330
25
100
AcDbEntity
  8
1
  6
Continuous
 62
     0
100
AcDbCircle
 10
14279.59286132678
 20
-2660.423786969239
 30
0.0
 40
13.000000000004
100
AcDbArc
 50
211.1089225105414
 51
328.8910774894568
  0
ARC
  5
3BB
330
25
100
AcDbEntity
  8
1
  6
Continuous
 62
     0
100
AcDbCircle
 10
14279.59286132678
 20
-1595.959460227498
 30
0.0
 40
1009.0
100
AcDbArc
 50
267.744999329787
 51
272.255000670214
  0
ARC
  5
3BA
330
25
100
AcDbEntity
  8
1
  6
Continuous
 62
     0
100
AcDbCircle
 10
11303.88453504498
 20
-4428.589061538913
 30
0.0
 40
6.188368025608
100
AcDbArc
 50
235.7715041969414
 51
294.0206770810328
  0
ARC
  5
3B9
330
25
100
AcDbEntity
  8
1
  6
Continuous
 62
     0
100
AcDbCircle
 10
11283.06628073164
 20
-4428.589061538913
 30
0.0
 40
6.188368025611
100
AcDbArc
 50
245.9793229189774
 51
304.2284958030818
  0
ARC
  5
3B8
330
25
100
AcDbEntity
  8
1
  6
Continuous
 62
     0
100
AcDbCircle
 10
11293.47540788831
 20
-4411.849203469521
 30
0.0
 40
22.928203230276
100
AcDbArc
 50
252.4120462259947
 51
287.5879537740051
  0
ARC
  5
3B7
330
25
100
AcDbEntity
  8
1
  6
Continuous
 62
     0
100
AcDbCircle
 10
11327.30016414745
 20
-4411.849203469521
 30
0.0
 40
22.928203230276
100
AcDbArc
 50
252.4120462259947
 51
287.5879537739859
  0
ARC
  5
3B6
330
25
100
AcDbEntity
  8
1
  6
Continuous
 62
     0
100
AcDbCircle
 10
11316.89103699078
 20
-4428.589061538913
 30
0.0
 40
6.188368025612
100
AcDbArc
 50
245.9793229189621
 51
304.2284958030535
  0
ARC
  5
3B5
330
25
100
AcDbEntity
  8
1
  6
Continuous
 62
     0
100
AcDbCircle
 10
11337.70929130411
 20
-4428.589061538913
 30
0.0
 40
6.188368025609
100
AcDbArc
 50
235.7715041969274
 51
294.0206770810294
  0
ARC
  5
3B4
330
25
100
AcDbEntity
  8
1
  6
Continuous
 62
     0
100
AcDbCircle
 10
11364.72646603642
 20
-4428.589061538913
 30
0.0
 40
6.188368025611
100
AcDbArc
 50
245.9793229189774
 51
304.2284958030818
  0
ARC
  5
3B3
330
25
100
AcDbEntity
  8
1
  6
Continuous
 62
     0
100
AcDbCircle
 10
11385.54472034975
 20
-4428.589061538913
 30
0.0
 40
6.188368025609
100
AcDbArc
 50
235.7715041969274
 51
294.0206770810294
  0
ARC
  5
3B2
330
25
100
AcDbEntity
  8
1
  6
Continuous
 62
     0
100
AcDbCircle
 10
11375.13559319308
 20
-4411.849203469521
 30
0.0
 40
22.928203230272
100
AcDbArc
 50
252.4120462260208
 51
287.5879537740036
  0
ARC
  5
3B1
330
25
100
AcDbEntity
  8
1
  6
Continuous
 62
     0
100
AcDbCircle
 10
11408.96034945222
 20
-4411.849203469521
 30
0.0
 40
22.928203230272
100
AcDbArc
 50
252.4120462260208
 51
287.5879537740036
  0
ARC
  5
3B0
330
25
100
AcDbEntity
  8
1
  6
Continuous
 62
     0
100
AcDbCircle
 10
11419.36947660889
 20
-4428.589061538913
 30
0.0
 40
6.188368025609
100
AcDbArc
 50
235.7715041969274
 51
294.0206770810294
  0
ARC
  5
3AF
330
25
100
AcDbEntity
  8
1
  6
Continuous
 62
     0
100
AcDbCircle
 10
11398.55122229556
 20
-4428.589061538913
 30
0.0
 40
6.188368025611
100
AcDbArc
 50
245.9793229189774
 51
304.2284958030818
  0
ARC
  5
3AE
330
25
100
AcDbEntity
  8
1
  6
Continuous
 62
     0
100
AcDbCircle
 10
10727.71915181185
 20
-3890.777406699796
 30
0.0
 40
11.5
100
AcDbArc
 50
90.0
 51
270.0
  0
ARC
  5
3AD
330
25
100
AcDbEntity
  8
1
  6
Continuous
 62
     0
100
AcDbCircle
 10
11396.13486470294
 20
-3322.152583165056
 30
0.0
 40
10.415441500101
100
AcDbArc
 50
180.0
 51
211.1314905660837
  0
ARC
  5
3AC
330
25
100
AcDbEntity
  8
1
  6
Continuous
 62
     0
100
AcDbCircle
 10
11306.3008926376
 20
-3322.152583165056
 30
0.0
 40
10.415441500099
100
AcDbArc
 50
328.8685094339133
 51
0.0
  0
ARC
  5
3AB
330
25
100
AcDbEntity
  8
1
  6
Continuous
 62
     0
100
AcDbCircle
 10
11351.24654757412
 20
-3292.185162217145
 30
0.0
 40
34.787361012421
100
AcDbArc
 50
7.710008218938991
 51
173.029145890944
  0
ARC
  5
3AA
330
25
100
AcDbEntity
  8
1
  6
Continuous
 62
     0
100
AcDbCircle
 10
11351.21787867026
 20
-904.959460227499
 30
0.0
 40
36.001544532572
100
AcDbArc
 50
270.0
 51
44.18570785168916
  0
ARC
  5
3A9
330
25
100
AcDbEntity
  8
1
  6
Continuous
 62
     0
100
AcDbCircle
 10
11384.52027171403
 20
-746.804817202493
 30
0.0
 40
35.695356974996
100
AcDbArc
 50
90.0
 51
113.2010528959335
  0
ARC
  5
3A8
330
25
100
AcDbEntity
  8
1
  6
Continuous
 62
     0
100
AcDbCircle
 10
11318.27027171403
 20
-746.804817202493
 30
0.0
 40
35.695356974995
100
AcDbArc
 50
66.79894710406575
 51
90.0
  0
ARC
  5
3A7
330
25
100
AcDbEntity
  8
1
  6
Continuous
 62
     0
100
AcDbCircle
 10
11351.39527171403
 20
-775.491908702854
 30
0.0
 40
64.382448475356
100
AcDbArc
 50
72.77755502786738
 51
107.2224449721326
  0
ARC
  5
3A6
330
25
100
AcDbEntity
  8
1
  6
Continuous
 62
     0
100
AcDbCircle
 10
11384.34287867026
 20
-746.804817202493
 30
0.0
 40
35.695356974996
100
AcDbArc
 50
90.0
 51
113.2010528959335
  0
ARC
  5
3A5
330
25
100
AcDbEntity
  8
1
  6
Continuous
 62
     0
100
AcDbCircle
 10
11318.09287867026
 20
-746.804817202493
 30
0.0
 40
35.695356974995
100
AcDbArc
 50
66.79894710406575
 51
90.0
  0
ARC
  5
3A4
330
25
100
AcDbEntity
  8
1
  6
Continuous
 62
     0
100
AcDbCircle
 10
11351.21787867026
 20
-775.491908702854
 30
0.0
 40
64.382448475356
100
AcDbArc
 50
72.77755502786738
 51
107.2224449721326
  0
ARC
  5
3A3
330
25
100
AcDbEntity
  8
1
  6
Continuous
 62
     0
100
AcDbCircle
 10
13706.65525437055
 20
-790.664103252502
 30
0.0
 40
35.695356974995
100
AcDbArc
 50
246.7989471040658
 51
270.0
  0
ARC
  5
3A2
330
25
100
AcDbEntity
  8
1
  6
Continuous
 62
     0
100
AcDbCircle
 10
13640.40525437055
 20
-790.664103252502
 30
0.0
 40
35.695356974996
100
AcDbArc
 50
270.0
 51
293.2010528959336
  0
ARC
  5
3A1
330
25
100
AcDbEntity
  8
1
  6
Continuous
 62
     0
100
AcDbCircle
 10
13673.53025437055
 20
-761.977011752142
 30
0.0
 40
64.382448475355
100
AcDbArc
 50
252.7775550278671
 51
287.2224449721328
  0
ARC
  5
3A0
330
25
100
AcDbEntity
  8
1
  6
Continuous
 62
     0
100
AcDbCircle
 10
13706.47786132678
 20
-790.664103252502
 30
0.0
 40
35.695356974995
100
AcDbArc
 50
246.7989471040658
 51
270.0
  0
ARC
  5
39F
330
25
100
AcDbEntity
  8
1
  6
Continuous
 62
     0
100
AcDbCircle
 10
13640.22786132678
 20
-790.664103252502
 30
0.0
 40
35.695356974996
100
AcDbArc
 50
270.0
 51
293.2010528959336
  0
ARC
  5
39E
330
25
100
AcDbEntity
  8
1
  6
Continuous
 62
     0
100
AcDbCircle
 10
13673.35286132678
 20
-761.977011752142
 30
0.0
 40
64.382448475355
100
AcDbArc
 50
252.7775550278671
 51
287.2224449721328
  0
ARC
  5
39D
330
25
100
AcDbEntity
  8
1
  6
Continuous
 62
     0
100
AcDbCircle
 10
13698.32692678328
 20
-889.584646120172
 30
0.0
 40
50.031165077226
100
AcDbArc
 50
177.262366877252
 51
265.4915850997199
  0
ARC
  5
39C
330
25
100
AcDbEntity
  8
1
  6
Continuous
 62
     0
100
AcDbCircle
 10
13673.35286132678
 20
-775.491908702854
 30
0.0
 40
64.382448475356
100
AcDbArc
 50
72.77755502786738
 51
107.2224449721326
  0
ARC
  5
39B
330
25
100
AcDbEntity
  8
1
  6
Continuous
 62
     0
100
AcDbCircle
 10
13640.22786132678
 20
-746.804817202493
 30
0.0
 40
35.695356974995
100
AcDbArc
 50
66.79894710406575
 51
90.0
  0
ARC
  5
39A
330
25
100
AcDbEntity
  8
1
  6
Continuous
 62
     0
100
AcDbCircle
 10
13706.47786132678
 20
-746.804817202493
 30
0.0
 40
35.695356974996
100
AcDbArc
 50
90.0
 51
113.2010528959335
  0
ARC
  5
399
330
25
100
AcDbEntity
  8
1
  6
Continuous
 62
     0
100
AcDbCircle
 10
13673.53025437055
 20
-775.491908702854
 30
0.0
 40
64.382448475356
100
AcDbArc
 50
72.77755502786738
 51
107.2224449721326
  0
ARC
  5
398
330
25
100
AcDbEntity
  8
1
  6
Continuous
 62
     0
100
AcDbCircle
 10
13640.40525437055
 20
-746.804817202493
 30
0.0
 40
35.695356974995
100
AcDbArc
 50
66.79894710406575
 51
90.0
  0
ARC
  5
397
330
25
100
AcDbEntity
  8
1
  6
Continuous
 62
     0
100
AcDbCircle
 10
13706.65525437055
 20
-746.804817202493
 30
0.0
 40
35.695356974996
100
AcDbArc
 50
90.0
 51
113.2010528959335
  0
ARC
  5
396
330
25
100
AcDbEntity
  8
1
  6
Continuous
 62
     0
100
AcDbCircle
 10
13651.35286132678
 20
-641.859460227498
 30
0.0
 40
1.0
100
AcDbArc
 50
0.0
 51
180.0
  0
ARC
  5
395
330
25
100
AcDbEntity
  8
1
  6
Continuous
 62
     0
100
AcDbCircle
 10
13666.01952799345
 20
-641.859460227498
 30
0.0
 40
1.0
100
AcDbArc
 50
0.0
 51
180.0
  0
ARC
  5
394
330
25
100
AcDbEntity
  8
1
  6
Continuous
 62
     0
100
AcDbCircle
 10
13680.68619466012
 20
-641.859460227498
 30
0.0
 40
1.0
100
AcDbArc
 50
0.0
 51
180.0
  0
ARC
  5
393
330
25
100
AcDbEntity
  8
1
  6
Continuous
 62
     0
100
AcDbCircle
 10
13695.35286132678
 20
-641.859460227498
 30
0.0
 40
1.0
100
AcDbArc
 50
0.0
 51
180.0
  0
ARC
  5
392
330
25
100
AcDbEntity
  8
1
  6
Continuous
 62
     0
100
AcDbCircle
 10
13673.35286132678
 20
-619.359460227498
 30
0.0
 40
15.0
100
AcDbArc
 50
0.0
 51
180.0
  0
ARC
  5
391
330
25
100
AcDbEntity
  8
1
  6
Continuous
 62
     0
100
AcDbCircle
 10
13657.85286132678
 20
-640.001858076391
 30
0.0
 40
12.142397848893
100
AcDbArc
 50
59.0209011383692
 51
90.0
  0
ARC
  5
390
330
25
100
AcDbEntity
  8
1
  6
Continuous
 62
     0
100
AcDbCircle
 10
13688.85286132678
 20
-640.001858076391
 30
0.0
 40
12.142397848893
100
AcDbArc
 50
90.0
 51
120.9790988616308
  0
ARC
  5
38F
330
25
100
AcDbEntity
  8
1
  6
Continuous
 62
     0
100
AcDbCircle
 10
13673.35286132678
 20
-653.425251835049
 30
0.0
 40
25.565791607551
100
AcDbArc
 50
68.78850558533539
 51
111.2114944146646
  0
ARC
  5
38E
330
25
100
AcDbEntity
  8
1
  6
Continuous
 62
     0
100
AcDbCircle
 10
11351.21787867026
 20
-3284.577406699796
 30
0.0
 40
48.500000000003
100
AcDbArc
 50
325.4579924503849
 51
224.6533408052439
  0
ARC
  5
38D
330
25
100
AcDbEntity
  8
1
  6
Continuous
 62
     0
100
AcDbCircle
 10
11351.21787867026
 20
-3284.577406699796
 30
0.0
 40
48.500000000006
100
AcDbArc
 50
315.3466591947735
 51
320.1316584499962
  0
ARC
  5
38C
330
25
100
AcDbEntity
  8
1
  6
Continuous
 62
     0
100
AcDbCircle
 10
11344.67915643359
 20
-3279.926115784797
 30
0.0
 40
56.523480904113
100
AcDbArc
 50
321.2635209313379
 51
325.3325057419397
  0
ARC
  5
38B
330
25
100
AcDbEntity
  8
1
  6
Continuous
 62
     0
100
AcDbCircle
 10
10951.54953067275
 20
-2402.085971521498
 30
0.0
 40
112.331695860331
100
AcDbArc
 50
180.050630254985
 51
241.1236227810192
  0
ARC
  5
389
330
25
100
AcDbEntity
  8
1
  6
Continuous
 62
     0
100
AcDbCircle
 10
11334.10858945273
 20
-1641.263587817504
 30
0.0
 40
963.847738119247
100
AcDbArc
 50
243.05144525218
 51
248.2032867664739
  0
ARC
  5
388
330
25
100
AcDbEntity
  8
1
  6
Continuous
 62
     0
100
AcDbCircle
 10
11750.88622666778
 20
-2402.085971521498
 30
0.0
 40
112.331695860327
100
AcDbArc
 50
298.8763772189808
 51
359.949369745015
  0
ARC
  5
387
330
25
100
AcDbEntity
  8
1
  6
Continuous
 62
     0
100
AcDbCircle
 10
11368.3271678878
 20
-1641.263587817504
 30
0.0
 40
963.847738119245
100
AcDbArc
 50
291.7967132335251
 51
296.94855474782
  0
ARC
  5
385
330
25
100
AcDbEntity
  8
1
  6
Continuous
 62
     0
100
AcDbCircle
 10
10951.21787867026
 20
-105.733685397643
 30
0.0
 40
111.999999999997
100
AcDbArc
 50
116.3877999612394
 51
180.0
  0
ARC
  5
384
330
25
100
AcDbEntity
  8
1
  6
Continuous
 62
     0
100
AcDbCircle
 10
11751.21787867026
 20
-105.733685397643
 30
0.0
 40
112.0
100
AcDbArc
 50
0.0
 51
63.61220003875619
  0
ARC
  5
383
330
25
100
AcDbEntity
  8
1
  6
Continuous
 62
     0
100
AcDbCircle
 10
11351.21787867026
 20
-911.959460227504
 30
0.0
 40
1012.000000000006
100
AcDbArc
 50
63.61220003875697
 51
116.387799961242
  0
ARC
  5
382
330
25
100
AcDbEntity
  8
1
  6
Continuous
 62
     0
100
AcDbCircle
 10
14262.48357210925
 20
-1641.263587817504
 30
0.0
 40
963.847738119247
100
AcDbArc
 50
243.05144525218
 51
248.2032867664739
  0
ARC
  5
381
330
25
100
AcDbEntity
  8
1
  6
Continuous
 62
     0
100
AcDbCircle
 10
13879.92451332927
 20
-2402.085971521498
 30
0.0
 40
112.331695860331
100
AcDbArc
 50
180.050630254985
 51
241.1236227810192
  0
ARC
  5
37E
330
25
100
AcDbEntity
  8
1
  6
Continuous
 62
     0
100
AcDbCircle
 10
14296.70215054432
 20
-1641.263587817504
 30
0.0
 40
963.847738119245
100
AcDbArc
 50
291.7967132335251
 51
296.9485547478199
  0
ARC
  5
37D
330
25
100
AcDbEntity
  8
1
  6
Continuous
 62
     0
100
AcDbCircle
 10
14679.2612093243
 20
-2402.085971521498
 30
0.0
 40
112.331695860327
100
AcDbArc
 50
298.8763772189808
 51
359.949369745015
  0
LINE
  5
370
330
25
100
AcDbEntity
  8
1
  6
Continuous
 62
     0
100
AcDbLine
 10
14641.01366869681
 20
-2695.959460227499
 30
0.0
 11
14641.01366869681
 21
-2895.959460227499
 31
0.0
  0
LINE
  5
36F
330
25
100
AcDbEntity
  8
1
  6
Continuous
 62
     0
100
AcDbLine
 10
14654.59286132678
 20
-2595.959460227499
 30
0.0
 11
14654.59286132678
 21
-2532.685674230288
 31
0.0
  0
LINE
  5
36E
330
25
100
AcDbEntity
  8
1
  6
Continuous
 62
     0
100
AcDbLine
 10
14654.59286132678
 20
-2595.959460227499
 30
0.0
 11
14654.59286132678
 21
-2532.685674230288
 31
0.0
  0
LINE
  5
36D
330
25
100
AcDbEntity
  8
1
  6
Continuous
 62
     0
100
AcDbLine
 10
13918.17205395676
 20
-2895.959460227499
 30
0.0
 11
13918.17205395676
 21
-2695.959460227499
 31
0.0
  0
LINE
  5
36C
330
25
100
AcDbEntity
  8
1
  6
Continuous
 62
     0
100
AcDbLine
 10
13904.59286132678
 20
-2532.685674230288
 30
0.0
 11
13904.59286132678
 21
-2595.959460227499
 31
0.0
  0
LINE
  5
36B
330
25
100
AcDbEntity
  8
1
  6
Continuous
 62
     0
100
AcDbLine
 10
10989.79707130024
 20
-2895.959460227499
 30
0.0
 11
10989.79707130024
 21
-2695.959460227499
 31
0.0
  0
LINE
  5
36A
330
25
100
AcDbEntity
  8
1
  6
Continuous
 62
     0
100
AcDbLine
 10
11726.21787867026
 20
-2595.959460227499
 30
0.0
 11
11726.21787867026
 21
-2534.959460227498
 31
0.0
  0
LINE
  5
369
330
25
100
AcDbEntity
  8
1
  6
Continuous
 62
     0
100
AcDbLine
 10
11712.63868604029
 20
-2695.959460227499
 30
0.0
 11
11712.63868604029
 21
-2895.959460227499
 31
0.0
  0
LINE
  5
367
330
25
100
AcDbEntity
  8
1
  6
Continuous
 62
     0
100
AcDbLine
 10
13767.59286132678
 20
-128.959460227497
 30
0.0
 11
13767.59286132678
 21
-108.733685397645
 31
0.0
  0
LINE
  5
365
330
25
100
AcDbEntity
  8
1
  6
Continuous
 62
     0
100
AcDbLine
 10
11863.21787867026
 20
-2402.185235057354
 30
0.0
 11
11863.21787867026
 21
-2381.959460227498
 31
0.0
  0
LINE
  5
364
330
25
100
AcDbEntity
  8
1
  6
Continuous
 62
     0
100
AcDbLine
 10
11863.21787867026
 20
-2373.959460227498
 30
0.0
 11
10842.21787867026
 21
-2373.959460227498
 31
0.0
  0
LINE
  5
363
330
25
100
AcDbEntity
  8
1
  6
Continuous
 62
     0
100
AcDbLine
 10
10839.21787867026
 20
-130.959460227497
 30
0.0
 11
11860.21787867026
 21
-130.959460227497
 31
0.0
  0
LINE
  5
362
330
25
100
AcDbEntity
  8
1
  6
Continuous
 62
     0
100
AcDbLine
 10
10851.21787867026
 20
-2895.959460227499
 30
0.0
 11
11851.21787867026
 21
-2895.959460227499
 31
0.0
  0
LINE
  5
361
330
25
100
AcDbEntity
  8
1
  6
Continuous
 62
     0
100
AcDbLine
 10
11851.21787867026
 20
-2895.959460227499
 30
0.0
 11
11851.21787867026
 21
-2904.959460227498
 31
0.0
  0
LINE
  5
360
330
25
100
AcDbEntity
  8
1
  6
Continuous
 62
     0
100
AcDbLine
 10
11851.21787867026
 20
-2904.959460227498
 30
0.0
 11
10851.21787867026
 21
-2904.959460227498
 31
0.0
  0
LINE
  5
35F
330
25
100
AcDbEntity
  8
1
  6
Continuous
 62
     0
100
AcDbLine
 10
10851.21787867026
 20
-2904.959460227498
 30
0.0
 11
10851.21787867026
 21
-2895.959460227499
 31
0.0
  0
LINE
  5
35E
330
25
100
AcDbEntity
  8
1
  6
Continuous
 62
     0
100
AcDbLine
 10
10976.21787867026
 20
-2534.959460227498
 30
0.0
 11
11726.21787867026
 21
-2534.959460227498
 31
0.0
  0
LINE
  5
35D
330
25
100
AcDbEntity
  8
1
  6
DOTTED
 62
     0
100
AcDbLine
 10
11338.01787867027
 20
-2605.834488600767
 30
0.0
 11
11338.01787867027
 21
-2604.863613590216
 31
0.0
  0
LINE
  5
35C
330
25
100
AcDbEntity
  8
1
  6
DOTTED
 62
     0
100
AcDbLine
 10
11364.41787867027
 20
-2605.834488600767
 30
0.0
 11
11364.41787867027
 21
-2604.863613590216
 31
0.0
  0
LINE
  5
35B
330
25
100
AcDbEntity
  8
1
  6
Continuous
 62
     0
100
AcDbLine
 10
11338.01787867027
 20
-2614.959460227497
 30
0.0
 11
11338.01787867027
 21
-2605.834488600767
 31
0.0
  0
LINE
  5
35A
330
25
100
AcDbEntity
  8
1
  6
Continuous
 62
     0
100
AcDbLine
 10
11364.41787867027
 20
-2614.959460227497
 30
0.0
 11
11364.41787867027
 21
-2605.834488600767
 31
0.0
  0
LINE
  5
359
330
25
100
AcDbEntity
  8
1
  6
Continuous
 62
     0
100
AcDbLine
 10
11338.01787867027
 20
-2614.959460227497
 30
0.0
 11
11364.41787867027
 21
-2614.959460227497
 31
0.0
  0
LINE
  5
358
330
25
100
AcDbEntity
  8
1
  6
Continuous
 62
     0
100
AcDbLine
 10
11340.74037867027
 20
-2632.639460227498
 30
0.0
 11
11340.36787867026
 21
-2625.299460227498
 31
0.0
  0
LINE
  5
357
330
25
100
AcDbEntity
  8
1
  6
Continuous
 62
     0
100
AcDbLine
 10
11361.69537867027
 20
-2632.639460227498
 30
0.0
 11
11362.06787867027
 21
-2625.299460227498
 31
0.0
  0
LINE
  5
356
330
25
100
AcDbEntity
  8
1
  6
Continuous
 62
     0
100
AcDbLine
 10
11362.06787867027
 20
-2622.299460227498
 30
0.0
 11
11361.69537867027
 21
-2614.959460227497
 31
0.0
  0
LINE
  5
355
330
25
100
AcDbEntity
  8
1
  6
Continuous
 62
     0
100
AcDbLine
 10
11340.36787867026
 20
-2622.299460227498
 30
0.0
 11
11340.74037867027
 21
-2614.959460227497
 31
0.0
  0
LINE
  5
354
330
25
100
AcDbEntity
  8
1
  6
Continuous
 62
     0
100
AcDbLine
 10
11340.36787867026
 20
-2622.299460227498
 30
0.0
 11
11340.36787867026
 21
-2625.299460227498
 31
0.0
  0
LINE
  5
353
330
25
100
AcDbEntity
  8
1
  6
Continuous
 62
     0
100
AcDbLine
 10
11362.06787867027
 20
-2625.299460227498
 30
0.0
 11
11340.36787867026
 21
-2625.299460227498
 31
0.0
  0
LINE
  5
352
330
25
100
AcDbEntity
  8
1
  6
Continuous
 62
     0
100
AcDbLine
 10
11340.36787867026
 20
-2622.299460227498
 30
0.0
 11
11362.06787867027
 21
-2622.299460227498
 31
0.0
  0
LINE
  5
351
330
25
100
AcDbEntity
  8
1
  6
Continuous
 62
     0
100
AcDbLine
 10
11362.06787867027
 20
-2622.299460227498
 30
0.0
 11
11362.06787867027
 21
-2625.299460227498
 31
0.0
  0
LINE
  5
350
330
25
100
AcDbEntity
  8
1
  6
Continuous
 62
     0
100
AcDbLine
 10
11339.8516354
 20
-2664.189460227498
 30
0.0
 11
11361.11787867026
 21
-2664.189460227498
 31
0.0
  0
LINE
  5
34F
330
25
100
AcDbEntity
  8
1
  6
Continuous
 62
     0
100
AcDbLine
 10
11339.8516354
 20
-2653.189460227498
 30
0.0
 11
11361.11787867026
 21
-2653.189460227498
 31
0.0
  0
LINE
  5
34E
330
25
100
AcDbEntity
  8
1
  6
Continuous
 62
     0
100
AcDbLine
 10
11362.11787867026
 20
-2665.589460227497
 30
0.0
 11
11361.11787867026
 21
-2664.189460227498
 31
0.0
  0
LINE
  5
34D
330
25
100
AcDbEntity
  8
1
  6
Continuous
 62
     0
100
AcDbLine
 10
11362.11787867026
 20
-2651.789460227496
 30
0.0
 11
11361.11787867026
 21
-2653.189460227498
 31
0.0
  0
LINE
  5
34C
330
25
100
AcDbEntity
  8
1
  6
Continuous
 62
     0
100
AcDbLine
 10
11339.8516354
 20
-2653.189460227498
 30
0.0
 11
11339.8516354
 21
-2664.189460227498
 31
0.0
  0
LINE
  5
34B
330
25
100
AcDbEntity
  8
1
  6
Continuous
 62
     0
100
AcDbLine
 10
11338.71787867026
 20
-2665.589460227497
 30
0.0
 11
11339.8516354
 21
-2664.189460227498
 31
0.0
  0
LINE
  5
34A
330
25
100
AcDbEntity
  8
1
  6
Continuous
 62
     0
100
AcDbLine
 10
11338.71787867026
 20
-2651.789460227496
 30
0.0
 11
11339.8516354
 21
-2653.189460227498
 31
0.0
  0
LINE
  5
349
330
25
100
AcDbEntity
  8
1
  6
Continuous
 62
     0
100
AcDbLine
 10
11362.11787867026
 20
-2679.331959309286
 30
0.0
 11
11362.11787867026
 21
-2665.139460227497
 31
0.0
  0
LINE
  5
348
330
25
100
AcDbEntity
  8
1
  6
Continuous
 62
     0
100
AcDbLine
 10
11362.11787867026
 20
-2642.446961145711
 30
0.0
 11
11362.11787867026
 21
-2654.639460227497
 31
0.0
  0
LINE
  5
347
330
25
100
AcDbEntity
  8
1
  6
Continuous
 62
     0
100
AcDbLine
 10
11363.71787867026
 20
-2666.639460227498
 30
0.0
 11
11365.31787867026
 21
-2666.639460227498
 31
0.0
  0
LINE
  5
346
330
25
100
AcDbEntity
  8
1
  6
Continuous
 62
     0
100
AcDbLine
 10
11363.71787867026
 20
-2653.639460227498
 30
0.0
 11
11365.31787867026
 21
-2653.639460227498
 31
0.0
  0
LINE
  5
345
330
25
100
AcDbEntity
  8
1
  6
Continuous
 62
     0
100
AcDbLine
 10
11369.74652731891
 20
-2672.539460227496
 30
0.0
 11
11365.31787867026
 21
-2672.539460227496
 31
0.0
  0
LINE
  5
344
330
25
100
AcDbEntity
  8
1
  6
Continuous
 62
     0
100
AcDbLine
 10
11374.21787867026
 20
-2690.139460227498
 30
0.0
 11
11369.51787867026
 21
-2671.639460227498
 31
0.0
  0
LINE
  5
343
330
25
100
AcDbEntity
  8
1
  6
Continuous
 62
     0
100
AcDbLine
 10
11374.21787867026
 20
-2690.139460227498
 30
0.0
 11
11382.21787867026
 21
-2690.139460227498
 31
0.0
  0
LINE
  5
342
330
25
100
AcDbEntity
  8
1
  6
Continuous
 62
     0
100
AcDbLine
 10
11382.21787867026
 20
-2671.726090453755
 30
0.0
 11
11382.21787867026
 21
-2690.139460227498
 31
0.0
  0
LINE
  5
341
330
25
100
AcDbEntity
  8
1
  6
Continuous
 62
     0
100
AcDbLine
 10
11365.31787867026
 20
-2647.739460227498
 30
0.0
 11
11369.74652731891
 21
-2647.739460227498
 31
0.0
  0
LINE
  5
340
330
25
100
AcDbEntity
  8
1
  6
Continuous
 62
     0
100
AcDbLine
 10
11365.31787867026
 20
-2647.239460227498
 30
0.0
 11
11369.87355434594
 21
-2647.239460227498
 31
0.0
  0
LINE
  5
33F
330
25
100
AcDbEntity
  8
1
  6
Continuous
 62
     0
100
AcDbLine
 10
11369.51787867026
 20
-2648.639460227498
 30
0.0
 11
11374.21787867026
 21
-2630.139460227498
 31
0.0
  0
LINE
  5
33E
330
25
100
AcDbEntity
  8
1
  6
Continuous
 62
     0
100
AcDbLine
 10
11374.21787867026
 20
-2630.139460227498
 30
0.0
 11
11382.21787867026
 21
-2630.139460227498
 31
0.0
  0
LINE
  5
33D
330
25
100
AcDbEntity
  8
1
  6
Continuous
 62
     0
100
AcDbLine
 10
11363.71787867026
 20
-2689.139460227496
 30
0.0
 11
11338.71787867026
 21
-2689.139460227497
 31
0.0
  0
LINE
  5
33C
330
25
100
AcDbEntity
  8
1
  6
Continuous
 62
     0
100
AcDbLine
 10
11338.71787867026
 20
-2689.139460227497
 30
0.0
 11
11338.71787867026
 21
-2632.639460227497
 31
0.0
  0
LINE
  5
33B
330
25
100
AcDbEntity
  8
1
  6
Continuous
 62
     0
100
AcDbLine
 10
11338.71787867026
 20
-2632.639460227497
 30
0.0
 11
11363.71787867026
 21
-2632.639460227498
 31
0.0
  0
LINE
  5
33A
330
25
100
AcDbEntity
  8
1
  6
Continuous
 62
     0
100
AcDbLine
 10
11363.71787867026
 20
-2689.139460227496
 30
0.0
 11
11363.71787867026
 21
-2632.639460227498
 31
0.0
  0
LINE
  5
339
330
25
100
AcDbEntity
  8
1
  6
Continuous
 62
     0
100
AcDbLine
 10
11382.21787867026
 20
-2630.139460227498
 30
0.0
 11
11382.21787867026
 21
-2648.55283000124
 31
0.0
  0
LINE
  5
338
330
25
100
AcDbEntity
  8
1
  6
Continuous
 62
     0
100
AcDbLine
 10
11369.51787867026
 20
-2671.639460227498
 30
0.0
 11
11369.51787867026
 21
-2648.639460227498
 31
0.0
  0
LINE
  5
337
330
25
100
AcDbEntity
  8
1
  6
Continuous
 62
     0
100
AcDbLine
 10
11365.31787867026
 20
-2672.539460227496
 30
0.0
 11
11365.31787867026
 21
-2650.139460227498
 31
0.0
  0
LINE
  5
336
330
25
100
AcDbEntity
  8
1
  6
Continuous
 62
     0
100
AcDbLine
 10
11365.31787867026
 20
-2647.239460227498
 30
0.0
 11
11365.31787867026
 21
-2650.139460227498
 31
0.0
  0
LINE
  5
334
330
25
100
AcDbEntity
  8
1
  6
Continuous
 62
     0
100
AcDbLine
 10
11351.21787867026
 20
-2633.755915195959
 30
0.0
 11
11351.21787867026
 21
-2641.939671925707
 31
0.0
  0
LINE
  5
333
330
25
100
AcDbEntity
  8
1
  6
Continuous
 62
     0
100
AcDbLine
 10
11351.21787867026
 20
-2679.839248529289
 30
0.0
 11
11351.21787867026
 21
-2688.023005259035
 31
0.0
  0
LINE
  5
331
330
25
100
AcDbEntity
  8
1
  6
Continuous
 62
     0
100
AcDbLine
 10
11368.81787867026
 20
-2646.139460227497
 30
0.0
 11
11368.81787867026
 21
-2647.239460227498
 31
0.0
  0
LINE
  5
330
330
25
100
AcDbEntity
  8
1
  6
Continuous
 62
     0
100
AcDbLine
 10
11363.71787867026
 20
-2646.139460227497
 30
0.0
 11
11368.81787867026
 21
-2646.139460227497
 31
0.0
  0
LINE
  5
32F
330
25
100
AcDbEntity
  8
1
  6
Continuous
 62
     0
100
AcDbLine
 10
11363.71787867026
 20
-2651.139460227497
 30
0.0
 11
11365.31787867026
 21
-2651.139460227497
 31
0.0
  0
LINE
  5
32E
330
25
100
AcDbEntity
  8
1
  6
Continuous
 62
     0
100
AcDbLine
 10
11451.21787867026
 20
-2695.959460227498
 30
0.0
 11
11451.21787867026
 21
-2895.959460227499
 31
0.0
  0
LINE
  5
32D
330
25
100
AcDbEntity
  8
1
  6
Continuous
 62
     0
100
AcDbLine
 10
11251.21787867026
 20
-2695.959460227498
 30
0.0
 11
11251.21787867026
 21
-2895.959460227499
 31
0.0
  0
LINE
  5
32A
330
25
100
AcDbEntity
  8
1
  6
Continuous
 62
     0
100
AcDbLine
 10
11863.21787867026
 20
-949.509460227498
 30
0.0
 11
11943.21787867026
 21
-949.509460227498
 31
0.0
  0
LINE
  5
329
330
25
100
AcDbEntity
  8
1
  6
Continuous
 62
     0
100
AcDbLine
 10
11863.21787867026
 20
-860.409460227498
 30
0.0
 11
11943.21787867026
 21
-860.409460227498
 31
0.0
  0
LINE
  5
328
330
25
100
AcDbEntity
  8
1
  6
Continuous
 62
     0
100
AcDbLine
 10
11963.21787867026
 20
-812.459460227497
 30
0.0
 11
11963.21787867026
 21
-997.459460227497
 31
0.0
  0
LINE
  5
326
330
25
100
AcDbEntity
  8
1
  6
Continuous
 62
     0
100
AcDbLine
 10
10726.6796225482
 20
-1281.960733369081
 30
0.0
 11
10738.1796225482
 21
-1281.960733369081
 31
0.0
  0
LINE
  5
325
330
25
100
AcDbEntity
  8
1
  6
Continuous
 62
     0
100
AcDbLine
 10
10738.1796225482
 20
-1281.960733369081
 30
0.0
 11
10738.1796225482
 21
-1290.459460227498
 31
0.0
  0
LINE
  5
324
330
25
100
AcDbEntity
  8
1
  6
Continuous
 62
     0
100
AcDbLine
 10
10749.67834940661
 20
-1293.459460227498
 30
0.0
 11
10741.1796225482
 21
-1293.459460227498
 31
0.0
  0
LINE
  5
323
330
25
100
AcDbEntity
  8
1
  6
Continuous
 62
     0
100
AcDbLine
 10
10715.1796225482
 20
-1281.960733369081
 30
0.0
 11
10726.6796225482
 21
-1281.960733369081
 31
0.0
  0
LINE
  5
322
330
25
100
AcDbEntity
  8
1
  6
Continuous
 62
     0
100
AcDbLine
 10
10749.67834940661
 20
-1293.459460227498
 30
0.0
 11
10749.67834940661
 21
-1304.959460227498
 31
0.0
  0
LINE
  5
321
330
25
100
AcDbEntity
  8
1
  6
Continuous
 62
     0
100
AcDbLine
 10
10715.1796225482
 20
-1281.960733369081
 30
0.0
 11
10715.1796225482
 21
-1304.959460227498
 31
0.0
  0
LINE
  5
320
330
25
100
AcDbEntity
  8
1
  6
Continuous
 62
     0
100
AcDbLine
 10
10715.1796225482
 20
-1304.959460227498
 30
0.0
 11
10715.1796225482
 21
-1327.958187085916
 31
0.0
  0
LINE
  5
31F
330
25
100
AcDbEntity
  8
1
  6
Continuous
 62
     0
100
AcDbLine
 10
10749.67834940661
 20
-1304.959460227498
 30
0.0
 11
10749.67834940661
 21
-1316.459460227498
 31
0.0
  0
LINE
  5
31E
330
25
100
AcDbEntity
  8
1
  6
Continuous
 62
     0
100
AcDbLine
 10
10726.6796225482
 20
-1327.958187085916
 30
0.0
 11
10715.1796225482
 21
-1327.958187085916
 31
0.0
  0
LINE
  5
31D
330
25
100
AcDbEntity
  8
1
  6
Continuous
 62
     0
100
AcDbLine
 10
10741.1796225482
 20
-1316.459460227498
 30
0.0
 11
10749.67834940661
 21
-1316.459460227498
 31
0.0
  0
LINE
  5
31C
330
25
100
AcDbEntity
  8
1
  6
Continuous
 62
     0
100
AcDbLine
 10
10738.1796225482
 20
-1319.459460227498
 30
0.0
 11
10738.1796225482
 21
-1327.958187085916
 31
0.0
  0
LINE
  5
31B
330
25
100
AcDbEntity
  8
1
  6
Continuous
 62
     0
100
AcDbLine
 10
10738.1796225482
 20
-1327.958187085916
 30
0.0
 11
10726.6796225482
 21
-1327.958187085916
 31
0.0
  0
LINE
  5
31A
330
25
100
AcDbEntity
  8
1
  6
Continuous
 62
     0
100
AcDbLine
 10
10765.91617158012
 20
-1317.083815880479
 30
0.0
 11
10764.97834940661
 21
-1315.459460227498
 31
0.0
  0
LINE
  5
319
330
25
100
AcDbEntity
  8
1
  6
Continuous
 62
     0
100
AcDbLine
 10
10764.97834940661
 20
-1294.459460227498
 30
0.0
 11
10765.91617158012
 21
-1292.835104574518
 31
0.0
  0
LINE
  5
318
330
25
100
AcDbEntity
  8
1
  6
Continuous
 62
     0
100
AcDbLine
 10
10764.97834940661
 20
-1315.459460227498
 30
0.0
 11
10764.97834940661
 21
-1294.459460227498
 31
0.0
  0
LINE
  5
317
330
25
100
AcDbEntity
  8
1
  6
Continuous
 62
     0
100
AcDbLine
 10
10765.91617158012
 20
-1311.021638053989
 30
0.0
 11
10772.07834940662
 21
-1311.021638053989
 31
0.0
  0
LINE
  5
316
330
25
100
AcDbEntity
  8
1
  6
Continuous
 62
     0
100
AcDbLine
 10
10765.91617158012
 20
-1298.897282401008
 30
0.0
 11
10772.07834940662
 21
-1298.897282401008
 31
0.0
  0
LINE
  5
315
330
25
100
AcDbEntity
  8
1
  6
Continuous
 62
     0
100
AcDbLine
 10
10808.97834940661
 20
-1315.459460227498
 30
0.0
 11
10808.04052723311
 21
-1317.083815880479
 31
0.0
  0
LINE
  5
314
330
25
100
AcDbEntity
  8
1
  6
Continuous
 62
     0
100
AcDbLine
 10
10808.04052723311
 20
-1292.835104574518
 30
0.0
 11
10808.97834940661
 21
-1294.459460227498
 31
0.0
  0
LINE
  5
313
330
25
100
AcDbEntity
  8
1
  6
Continuous
 62
     0
100
AcDbLine
 10
10808.04052723311
 20
-1317.083815880479
 30
0.0
 11
10801.61617158012
 21
-1317.083815880479
 31
0.0
  0
LINE
  5
312
330
25
100
AcDbEntity
  8
1
  6
Continuous
 62
     0
100
AcDbLine
 10
10808.97834940661
 20
-1294.459460227498
 30
0.0
 11
10808.97834940661
 21
-1315.459460227498
 31
0.0
  0
LINE
  5
311
330
25
100
AcDbEntity
  8
1
  6
Continuous
 62
     0
100
AcDbLine
 10
10808.04052723311
 20
-1292.835104574518
 30
0.0
 11
10801.61617158012
 21
-1292.835104574518
 31
0.0
  0
LINE
  5
310
330
25
100
AcDbEntity
  8
1
  6
Continuous
 62
     0
100
AcDbLine
 10
10806.97834940661
 20
-1300.609460227496
 30
0.0
 11
10797.70110558215
 21
-1300.609460227496
 31
0.0
  0
LINE
  5
30F
330
25
100
AcDbEntity
  8
1
  6
Continuous
 62
     0
100
AcDbLine
 10
10806.97834940661
 20
-1300.609460227496
 30
0.0
 11
10806.97834940661
 21
-1309.309460227497
 31
0.0
  0
LINE
  5
30E
330
25
100
AcDbEntity
  8
1
  6
Continuous
 62
     0
100
AcDbLine
 10
10806.97834940661
 20
-1309.309460227497
 30
0.0
 11
10797.70110558215
 21
-1309.309460227497
 31
0.0
  0
LINE
  5
30D
330
25
100
AcDbEntity
  8
1
  6
Continuous
 62
     0
100
AcDbLine
 10
10766.97834940661
 20
-1300.609460227496
 30
0.0
 11
10776.25559323108
 21
-1300.609460227496
 31
0.0
  0
LINE
  5
30C
330
25
100
AcDbEntity
  8
1
  6
Continuous
 62
     0
100
AcDbLine
 10
10766.97834940661
 20
-1300.609460227496
 30
0.0
 11
10766.97834940661
 21
-1309.309460227497
 31
0.0
  0
LINE
  5
30B
330
25
100
AcDbEntity
  8
1
  6
Continuous
 62
     0
100
AcDbLine
 10
10766.97834940661
 20
-1309.309460227497
 30
0.0
 11
10776.25559323108
 21
-1309.309460227497
 31
0.0
  0
LINE
  5
308
330
25
100
AcDbEntity
  8
1
  6
Continuous
 62
     0
100
AcDbLine
 10
10781.97834940661
 20
-1302.072708881547
 30
0.0
 11
10781.97834940661
 21
-1307.846211573447
 31
0.0
  0
LINE
  5
307
330
25
100
AcDbEntity
  8
1
  6
Continuous
 62
     0
100
AcDbLine
 10
10781.97834940661
 20
-1307.846211573447
 30
0.0
 11
10786.97834940661
 21
-1310.732962919398
 31
0.0
  0
LINE
  5
306
330
25
100
AcDbEntity
  8
1
  6
Continuous
 62
     0
100
AcDbLine
 10
10786.97834940661
 20
-1310.732962919398
 30
0.0
 11
10791.97834940661
 21
-1307.846211573447
 31
0.0
  0
LINE
  5
305
330
25
100
AcDbEntity
  8
1
  6
Continuous
 62
     0
100
AcDbLine
 10
10791.97834940661
 20
-1307.846211573447
 30
0.0
 11
10791.97834940661
 21
-1302.072708881547
 31
0.0
  0
LINE
  5
304
330
25
100
AcDbEntity
  8
1
  6
Continuous
 62
     0
100
AcDbLine
 10
10791.97834940661
 20
-1302.072708881547
 30
0.0
 11
10786.97834940661
 21
-1299.185957535598
 31
0.0
  0
LINE
  5
303
330
25
100
AcDbEntity
  8
1
  6
Continuous
 62
     0
100
AcDbLine
 10
10786.97834940661
 20
-1299.185957535598
 30
0.0
 11
10781.97834940661
 21
-1302.072708881547
 31
0.0
  0
LINE
  5
302
330
25
100
AcDbEntity
  8
1
  6
Continuous
 62
     0
100
AcDbLine
 10
10786.97834940661
 20
-1298.709460227498
 30
0.0
 11
10781.26220592978
 21
-1298.709460227498
 31
0.0
  0
LINE
  5
301
330
25
100
AcDbEntity
  8
1
  6
Continuous
 62
     0
100
AcDbLine
 10
10793.22834940661
 20
-1304.959460227498
 30
0.0
 11
10795.47834940661
 21
-1304.959460227498
 31
0.0
  0
LINE
  5
300
330
25
100
AcDbEntity
  8
1
  6
Continuous
 62
     0
100
AcDbLine
 10
10784.74228142912
 20
-1302.959460227498
 30
0.0
 11
10789.21441738412
 21
-1302.959460227498
 31
0.0
  0
LINE
  5
2FF
330
25
100
AcDbEntity
  8
1
  6
Continuous
 62
     0
100
AcDbLine
 10
10784.74228142912
 20
-1306.959460227498
 30
0.0
 11
10789.21441738412
 21
-1306.959460227498
 31
0.0
  0
LINE
  5
2FE
330
25
100
AcDbEntity
  8
1
  6
Continuous
 62
     0
100
AcDbLine
 10
10800.67834940661
 20
-1294.459460227498
 30
0.0
 11
10801.61617158012
 21
-1292.835104574518
 31
0.0
  0
LINE
  5
2FD
330
25
100
AcDbEntity
  8
1
  6
Continuous
 62
     0
100
AcDbLine
 10
10801.61617158012
 20
-1317.083815880479
 30
0.0
 11
10800.67834940661
 21
-1315.459460227498
 31
0.0
  0
LINE
  5
2FC
330
25
100
AcDbEntity
  8
1
  6
Continuous
 62
     0
100
AcDbLine
 10
10773.01617158012
 20
-1315.459460227498
 30
0.0
 11
10772.07834940662
 21
-1317.083815880479
 31
0.0
  0
LINE
  5
2FB
330
25
100
AcDbEntity
  8
1
  6
Continuous
 62
     0
100
AcDbLine
 10
10772.07834940662
 20
-1292.835104574518
 30
0.0
 11
10773.01617158012
 21
-1294.459460227498
 31
0.0
  0
LINE
  5
2FA
330
25
100
AcDbEntity
  8
1
  6
Continuous
 62
     0
100
AcDbLine
 10
10800.67834940661
 20
-1294.459460227498
 30
0.0
 11
10773.01617158012
 21
-1294.459460227498
 31
0.0
  0
LINE
  5
2F9
330
25
100
AcDbEntity
  8
1
  6
Continuous
 62
     0
100
AcDbLine
 10
10772.07834940662
 20
-1292.835104574518
 30
0.0
 11
10765.91617158012
 21
-1292.835104574518
 31
0.0
  0
LINE
  5
2F8
330
25
100
AcDbEntity
  8
1
  6
Continuous
 62
     0
100
AcDbLine
 10
10800.67834940661
 20
-1315.459460227498
 30
0.0
 11
10773.01617158012
 21
-1315.459460227498
 31
0.0
  0
LINE
  5
2F7
330
25
100
AcDbEntity
  8
1
  6
Continuous
 62
     0
100
AcDbLine
 10
10772.07834940662
 20
-1317.083815880479
 30
0.0
 11
10765.91617158012
 21
-1317.083815880479
 31
0.0
  0
LINE
  5
2F6
330
25
100
AcDbEntity
  8
1
  6
Continuous
 62
     0
100
AcDbLine
 10
10801.61617158012
 20
-1311.021638053989
 30
0.0
 11
10808.04052723311
 21
-1311.021638053989
 31
0.0
  0
LINE
  5
2F5
330
25
100
AcDbEntity
  8
1
  6
Continuous
 62
     0
100
AcDbLine
 10
10801.61617158012
 20
-1298.897282401008
 30
0.0
 11
10808.04052723311
 21
-1298.897282401008
 31
0.0
  0
LINE
  5
2F4
330
25
100
AcDbEntity
  8
1
  6
Continuous
 62
     0
100
AcDbLine
 10
10795.47834940661
 20
-1299.624244331098
 30
0.0
 11
10795.47834940661
 21
-1296.459460227498
 31
0.0
  0
LINE
  5
2F3
330
25
100
AcDbEntity
  8
1
  6
Continuous
 62
     0
100
AcDbLine
 10
10795.47834940661
 20
-1296.459460227498
 30
0.0
 11
10797.97834940661
 21
-1296.459460227498
 31
0.0
  0
LINE
  5
2F2
330
25
100
AcDbEntity
  8
1
  6
Continuous
 62
     0
100
AcDbLine
 10
10772.22970792894
 20
-1310.521638053989
 30
0.0
 11
10778.66467850892
 21
-1310.521638053989
 31
0.0
  0
LINE
  5
2F1
330
25
100
AcDbEntity
  8
1
  6
Continuous
 62
     0
100
AcDbLine
 10
10772.22970792894
 20
-1299.397282401008
 30
0.0
 11
10778.66467850892
 21
-1299.397282401008
 31
0.0
  0
LINE
  5
2F0
330
25
100
AcDbEntity
  8
1
  6
Continuous
 62
     0
100
AcDbLine
 10
10801.46481305779
 20
-1310.521638053989
 30
0.0
 11
10795.2266233878
 21
-1310.521638053989
 31
0.0
  0
LINE
  5
2EF
330
25
100
AcDbEntity
  8
1
  6
Continuous
 62
     0
100
AcDbLine
 10
10801.46481305779
 20
-1299.397282401008
 30
0.0
 11
10799.52384200229
 21
-1299.397282401008
 31
0.0
  0
LINE
  5
2EE
330
25
100
AcDbEntity
  8
1
  6
Continuous
 62
     0
100
AcDbLine
 10
10824.21787867026
 20
-1313.290460227498
 30
0.0
 11
10817.81787867027
 21
-1313.609460227498
 31
0.0
  0
LINE
  5
2ED
330
25
100
AcDbEntity
  8
1
  6
Continuous
 62
     0
100
AcDbLine
 10
10808.91787867027
 20
-1296.628460227498
 30
0.0
 11
10815.31787867027
 21
-1296.309460227499
 31
0.0
  0
LINE
  5
2EC
330
25
100
AcDbEntity
  8
1
  6
Continuous
 62
     0
100
AcDbLine
 10
10815.31787867027
 20
-1313.609460227498
 30
0.0
 11
10808.91787867027
 21
-1313.290460227498
 31
0.0
  0
LINE
  5
2EB
330
25
100
AcDbEntity
  8
1
  6
Continuous
 62
     0
100
AcDbLine
 10
10817.81787867027
 20
-1296.309460227499
 30
0.0
 11
10824.21787867026
 21
-1296.628460227498
 31
0.0
  0
LINE
  5
2EA
330
25
100
AcDbEntity
  8
1
  6
Continuous
 62
     0
100
AcDbLine
 10
10817.81787867027
 20
-1296.309460227499
 30
0.0
 11
10815.31787867027
 21
-1296.309460227499
 31
0.0
  0
LINE
  5
2E9
330
25
100
AcDbEntity
  8
1
  6
Continuous
 62
     0
100
AcDbLine
 10
10815.31787867027
 20
-1313.609460227498
 30
0.0
 11
10817.81787867027
 21
-1313.609460227498
 31
0.0
  0
LINE
  5
2E8
330
25
100
AcDbEntity
  8
1
  6
Continuous
 62
     0
100
AcDbLine
 10
10817.81787867027
 20
-1313.609460227498
 30
0.0
 11
10817.81787867027
 21
-1296.309460227499
 31
0.0
  0
LINE
  5
2E7
330
25
100
AcDbEntity
  8
1
  6
Continuous
 62
     0
100
AcDbLine
 10
10815.31787867027
 20
-1296.309460227499
 30
0.0
 11
10815.31787867027
 21
-1313.609460227498
 31
0.0
  0
LINE
  5
2E6
330
25
100
AcDbEntity
  8
1
  6
Continuous
 62
     0
100
AcDbLine
 10
10756.07834940662
 20
-1296.309460227499
 30
0.0
 11
10756.07834940662
 21
-1313.609460227498
 31
0.0
  0
LINE
  5
2E5
330
25
100
AcDbEntity
  8
1
  6
Continuous
 62
     0
100
AcDbLine
 10
10758.57834940662
 20
-1313.609460227498
 30
0.0
 11
10758.57834940662
 21
-1296.309460227499
 31
0.0
  0
LINE
  5
2E4
330
25
100
AcDbEntity
  8
1
  6
Continuous
 62
     0
100
AcDbLine
 10
10756.07834940662
 20
-1313.609460227498
 30
0.0
 11
10758.57834940662
 21
-1313.609460227498
 31
0.0
  0
LINE
  5
2E3
330
25
100
AcDbEntity
  8
1
  6
Continuous
 62
     0
100
AcDbLine
 10
10758.57834940662
 20
-1296.309460227499
 30
0.0
 11
10756.07834940662
 21
-1296.309460227499
 31
0.0
  0
LINE
  5
2E2
330
25
100
AcDbEntity
  8
1
  6
Continuous
 62
     0
100
AcDbLine
 10
10758.57834940662
 20
-1296.309460227499
 30
0.0
 11
10764.97834940661
 21
-1296.628460227498
 31
0.0
  0
LINE
  5
2E1
330
25
100
AcDbEntity
  8
1
  6
Continuous
 62
     0
100
AcDbLine
 10
10756.07834940662
 20
-1313.609460227498
 30
0.0
 11
10749.67834940661
 21
-1313.290460227498
 31
0.0
  0
LINE
  5
2E0
330
25
100
AcDbEntity
  8
1
  6
Continuous
 62
     0
100
AcDbLine
 10
10749.67834940661
 20
-1296.628460227498
 30
0.0
 11
10756.07834940662
 21
-1296.309460227499
 31
0.0
  0
LINE
  5
2DF
330
25
100
AcDbEntity
  8
1
  6
Continuous
 62
     0
100
AcDbLine
 10
10764.97834940661
 20
-1313.290460227498
 30
0.0
 11
10758.57834940662
 21
-1313.609460227498
 31
0.0
  0
LINE
  5
2DE
330
25
100
AcDbEntity
  8
1
  6
Continuous
 62
     0
100
AcDbLine
 10
10824.21787867026
 20
-1294.309460227499
 30
0.0
 11
10824.21787867026
 21
-1315.609460227498
 31
0.0
  0
LINE
  5
2DD
330
25
100
AcDbEntity
  8
1
  6
Continuous
 62
     0
100
AcDbLine
 10
10839.21787867026
 20
-1315.609460227498
 30
0.0
 11
10824.21787867026
 21
-1315.609460227498
 31
0.0
  0
LINE
  5
2DC
330
25
100
AcDbEntity
  8
1
  6
Continuous
 62
     0
100
AcDbLine
 10
10839.21787867026
 20
-1294.309460227499
 30
0.0
 11
10824.21787867026
 21
-1294.309460227499
 31
0.0
  0
LINE
  5
2DB
330
25
100
AcDbEntity
  8
1
  6
Continuous
 62
     0
100
AcDbLine
 10
10726.6796225482
 20
-1275.587133369081
 30
0.0
 11
10735.2097975482
 21
-1275.587133369081
 31
0.0
  0
LINE
  5
2DA
330
25
100
AcDbEntity
  8
1
  6
Continuous
 62
     0
100
AcDbLine
 10
10726.6796225482
 20
-1278.260733369081
 30
0.0
 11
10734.2702475482
 21
-1278.260733369081
 31
0.0
  0
LINE
  5
2D9
330
25
100
AcDbEntity
  8
1
  6
Continuous
 62
     0
100
AcDbLine
 10
10735.2097975482
 20
-1275.587133369081
 30
0.0
 11
10734.2702475482
 21
-1278.260733369081
 31
0.0
  0
LINE
  5
2D8
330
25
100
AcDbEntity
  8
1
  6
Continuous
 62
     0
100
AcDbLine
 10
10735.2097975482
 20
-1275.587133369081
 30
0.0
 11
10735.3296225482
 21
-1271.752733369081
 31
0.0
  0
LINE
  5
2D7
330
25
100
AcDbEntity
  8
1
  6
Continuous
 62
     0
100
AcDbLine
 10
10718.1494475482
 20
-1275.587133369081
 30
0.0
 11
10718.0296225482
 21
-1271.752733369081
 31
0.0
  0
LINE
  5
2D6
330
25
100
AcDbEntity
  8
1
  6
Continuous
 62
     0
100
AcDbLine
 10
10719.0889975482
 20
-1278.260733369081
 30
0.0
 11
10718.1494475482
 21
-1275.587133369081
 31
0.0
  0
LINE
  5
2D5
330
25
100
AcDbEntity
  8
1
  6
Continuous
 62
     0
100
AcDbLine
 10
10718.3486225482
 20
-1281.960733369081
 30
0.0
 11
10718.1494475482
 21
-1275.587133369081
 31
0.0
  0
LINE
  5
2D4
330
25
100
AcDbEntity
  8
1
  6
Continuous
 62
     0
100
AcDbLine
 10
10719.2046225482
 20
-1281.960733369081
 30
0.0
 11
10719.0889975482
 21
-1278.260733369081
 31
0.0
  0
LINE
  5
2D3
330
25
100
AcDbEntity
  8
1
  6
Continuous
 62
     0
100
AcDbLine
 10
10734.1546225482
 20
-1281.960733369081
 30
0.0
 11
10734.2702475482
 21
-1278.260733369081
 31
0.0
  0
LINE
  5
2D2
330
25
100
AcDbEntity
  8
1
  6
Continuous
 62
     0
100
AcDbLine
 10
10735.0106225482
 20
-1281.960733369081
 30
0.0
 11
10735.2097975482
 21
-1275.587133369081
 31
0.0
  0
LINE
  5
2D1
330
25
100
AcDbEntity
  8
1
  6
Continuous
 62
     0
100
AcDbLine
 10
10719.0889975482
 20
-1278.260733369081
 30
0.0
 11
10726.6796225482
 21
-1278.260733369081
 31
0.0
  0
LINE
  5
2D0
330
25
100
AcDbEntity
  8
1
  6
Continuous
 62
     0
100
AcDbLine
 10
10718.1494475482
 20
-1275.587133369081
 30
0.0
 11
10726.6796225482
 21
-1275.587133369081
 31
0.0
  0
LINE
  5
2CF
330
25
100
AcDbEntity
  8
1
  6
Continuous
 62
     0
100
AcDbLine
 10
10717.9845600482
 20
-1270.310733369081
 30
0.0
 11
10718.0296225482
 21
-1271.752733369081
 31
0.0
  0
LINE
  5
2CE
330
25
100
AcDbEntity
  8
1
  6
Continuous
 62
     0
100
AcDbLine
 10
10717.9845600482
 20
-1270.310733369081
 30
0.0
 11
10735.3746850482
 21
-1270.310733369081
 31
0.0
  0
LINE
  5
2CD
330
25
100
AcDbEntity
  8
1
  6
Continuous
 62
     0
100
AcDbLine
 10
10735.3746850482
 20
-1270.310733369081
 30
0.0
 11
10735.3296225482
 21
-1271.752733369081
 31
0.0
  0
LINE
  5
2CC
330
25
100
AcDbEntity
  8
1
  6
Continuous
 62
     0
100
AcDbLine
 10
10733.6796225482
 20
-1258.310733369081
 30
0.0
 11
10733.6796225482
 21
-1270.310733369081
 31
0.0
  0
LINE
  5
2CB
330
25
100
AcDbEntity
  8
1
  6
Continuous
 62
     0
100
AcDbLine
 10
10719.6796225482
 20
-1258.310733369081
 30
0.0
 11
10719.6796225482
 21
-1270.310733369081
 31
0.0
  0
LINE
  5
2CA
330
25
100
AcDbEntity
  8
1
  6
Continuous
 62
     0
100
AcDbLine
 10
10733.6796225482
 20
-1258.310733369081
 30
0.0
 11
10735.6796225482
 21
-1258.310733369081
 31
0.0
  0
LINE
  5
2C9
330
25
100
AcDbEntity
  8
1
  6
Continuous
 62
     0
100
AcDbLine
 10
10735.6796225482
 20
-1256.279212960303
 30
0.0
 11
10735.6796225482
 21
-1258.310733369081
 31
0.0
  0
LINE
  5
2C8
330
25
100
AcDbEntity
  8
1
  6
Continuous
 62
     0
100
AcDbLine
 10
10717.6796225482
 20
-1256.279212960303
 30
0.0
 11
10717.6796225482
 21
-1258.310733369081
 31
0.0
  0
LINE
  5
2C7
330
25
100
AcDbEntity
  8
1
  6
Continuous
 62
     0
100
AcDbLine
 10
10717.67175122084
 20
-1258.310733369081
 30
0.0
 11
10719.6796225482
 21
-1258.310733369081
 31
0.0
  0
LINE
  5
2C4
330
25
100
AcDbEntity
  8
1
  6
Continuous
 62
     0
100
AcDbLine
 10
10760.1679955896
 20
-1240.762946012884
 30
0.0
 11
10759.04513020569
 21
-1240.114659381218
 31
0.0
  0
LINE
  5
2C3
330
25
100
AcDbEntity
  8
1
  6
Continuous
 62
     0
100
AcDbLine
 10
10690.44737791566
 20
-1236.111738107398
 30
0.0
 11
10691.57542433211
 21
-1235.460460205202
 31
0.0
  0
LINE
  5
2C2
330
25
100
AcDbEntity
  8
1
  6
Continuous
 62
     0
100
AcDbLine
 10
10762.8679955896
 20
-1236.086408832448
 30
0.0
 11
10761.74176525926
 21
-1235.436179448054
 31
0.0
  0
LINE
  5
2C1
330
25
100
AcDbEntity
  8
1
  6
Continuous
 62
     0
100
AcDbLine
 10
10693.14737791566
 20
-1240.788275287833
 30
0.0
 11
10694.28163667604
 21
-1240.133410687195
 31
0.0
  0
LINE
  5
2C0
330
25
100
AcDbEntity
  8
1
  6
Continuous
 62
     0
100
AcDbLine
 10
10762.8679955896
 20
-1236.086408832448
 30
0.0
 11
10760.1679955896
 21
-1240.762946012884
 31
0.0
  0
LINE
  5
2BF
330
25
100
AcDbEntity
  8
1
  6
Continuous
 62
     0
100
AcDbLine
 10
10693.14737791566
 20
-1240.788275287833
 30
0.0
 11
10690.44737791566
 21
-1236.111738107398
 31
0.0
  0
LINE
  5
2BE
330
25
100
AcDbEntity
  8
1
  6
Continuous
 62
     0
100
AcDbLine
 10
10729.3796225482
 20
-1178.032186712013
 30
0.0
 11
10729.3796225482
 21
-1179.328759975344
 31
0.0
  0
LINE
  5
2BD
330
25
100
AcDbEntity
  8
1
  6
Continuous
 62
     0
100
AcDbLine
 10
10723.9796225482
 20
-1178.032186712013
 30
0.0
 11
10729.3796225482
 21
-1178.032186712013
 31
0.0
  0
LINE
  5
2BC
330
25
100
AcDbEntity
  8
1
  6
Continuous
 62
     0
100
AcDbLine
 10
10723.9796225482
 20
-1179.322598382465
 30
0.0
 11
10723.9796225482
 21
-1178.032186712013
 31
0.0
  0
LINE
  5
2BB
330
25
100
AcDbEntity
  8
1
  6
Continuous
 62
     0
100
AcDbLine
 10
10706.28564126787
 20
-1238.350583739916
 30
0.0
 11
10702.1450207503
 21
-1242.491204257492
 31
0.0
  0
LINE
  5
2BA
330
25
100
AcDbEntity
  8
1
  6
Continuous
 62
     0
100
AcDbLine
 10
10746.89962272734
 20
-1238.531550966785
 30
0.0
 11
10751.04103344437
 21
-1242.672961683817
 31
0.0
  0
LINE
  5
2B9
330
25
100
AcDbEntity
  8
1
  6
Continuous
 62
     0
100
AcDbLine
 10
10723.31797861206
 20
-1219.629624381792
 30
0.0
 11
10705.29197566216
 21
-1239.140214833696
 31
0.0
  0
LINE
  5
2B8
330
25
100
AcDbEntity
  8
1
  6
Continuous
 62
     0
100
AcDbLine
 10
10725.36073153548
 20
-1221.67237730522
 30
0.0
 11
10705.49601017409
 21
-1239.344249345635
 31
0.0
  0
LINE
  5
2B5
330
25
100
AcDbEntity
  8
1
  6
Continuous
 62
     0
100
AcDbLine
 10
10726.718840323
 20
-1228.701729990718
 30
0.0
 11
10726.6796225482
 21
-1230.948514804487
 31
0.0
  0
LINE
  5
2B4
330
25
100
AcDbEntity
  8
1
  6
Continuous
 62
     0
100
AcDbLine
 10
10726.6796225482
 20
-1230.948514804487
 30
0.0
 11
10726.64040477339
 21
-1228.701729990718
 31
0.0
  0
LINE
  5
2B2
330
25
100
AcDbEntity
  8
1
  6
Continuous
 62
     0
100
AcDbLine
 10
10726.6796225482
 20
-1230.948514804487
 30
0.0
 11
10724.75345871004
 21
-1232.105870800633
 31
0.0
  0
LINE
  5
2B1
330
25
100
AcDbEntity
  8
1
  6
Continuous
 62
     0
100
AcDbLine
 10
10724.71424093523
 20
-1232.037943622113
 30
0.0
 11
10726.6796225482
 21
-1230.948514804487
 31
0.0
  0
LINE
  5
2B0
330
25
100
AcDbEntity
  8
1
  6
Continuous
 62
     0
100
AcDbLine
 10
10726.6796225482
 20
-1230.948514804487
 30
0.0
 11
10728.64500416116
 21
-1232.037943622113
 31
0.0
  0
LINE
  5
2AF
330
25
100
AcDbEntity
  8
1
  6
Continuous
 62
     0
100
AcDbLine
 10
10728.60578638636
 20
-1232.105870800633
 30
0.0
 11
10726.6796225482
 21
-1230.948514804487
 31
0.0
  0
LINE
  5
2AE
330
25
100
AcDbEntity
  8
1
  6
Continuous
 62
     0
100
AcDbLine
 10
10718.3486225482
 20
-1327.958187085916
 30
0.0
 11
10718.1408100482
 21
-1334.608187085915
 31
0.0
  0
LINE
  5
2AD
330
25
100
AcDbEntity
  8
1
  6
Continuous
 62
     0
100
AcDbLine
 10
10735.0106225482
 20
-1327.958187085916
 30
0.0
 11
10735.2184350482
 21
-1334.608187085915
 31
0.0
  0
LINE
  5
2AC
330
25
100
AcDbEntity
  8
1
  6
Continuous
 62
     0
100
AcDbLine
 10
10732.6796225482
 20
-1334.608187085915
 30
0.0
 11
10732.6796225482
 21
-1343.608187085915
 31
0.0
  0
LINE
  5
2AB
330
25
100
AcDbEntity
  8
1
  6
Continuous
 62
     0
100
AcDbLine
 10
10732.6796225482
 20
-1343.608187085915
 30
0.0
 11
10720.6796225482
 21
-1343.608187085915
 31
0.0
  0
LINE
  5
2AA
330
25
100
AcDbEntity
  8
1
  6
Continuous
 62
     0
100
AcDbLine
 10
10720.6796225482
 20
-1343.608187085915
 30
0.0
 11
10720.6796225482
 21
-1334.608187085915
 31
0.0
  0
LINE
  5
2A8
330
25
100
AcDbEntity
  8
1
  6
Continuous
 62
     0
100
AcDbLine
 10
10735.2184350482
 20
-1334.608187085915
 30
0.0
 11
10718.1408100482
 21
-1334.608187085915
 31
0.0
  0
LINE
  5
2A6
330
25
100
AcDbEntity
  8
1
  6
Continuous
 62
     0
100
AcDbLine
 10
11366.71787867026
 20
-627.859460227498
 30
0.0
 11
11369.71787867026
 21
-629.591511035067
 31
0.0
  0
LINE
  5
2A5
330
25
100
AcDbEntity
  8
1
  6
Continuous
 62
     0
100
AcDbLine
 10
11369.71787867026
 20
-629.591511035067
 30
0.0
 11
11369.71787867026
 21
-635.859460227498
 31
0.0
  0
LINE
  5
2A4
330
25
100
AcDbEntity
  8
1
  6
Continuous
 62
     0
100
AcDbLine
 10
11369.71787867026
 20
-635.859460227498
 30
0.0
 11
11332.71787867026
 21
-635.859460227498
 31
0.0
  0
LINE
  5
2A3
330
25
100
AcDbEntity
  8
1
  6
Continuous
 62
     0
100
AcDbLine
 10
11332.71787867026
 20
-635.859460227498
 30
0.0
 11
11332.71787867026
 21
-629.591511035067
 31
0.0
  0
LINE
  5
2A2
330
25
100
AcDbEntity
  8
1
  6
Continuous
 62
     0
100
AcDbLine
 10
11332.71787867026
 20
-629.591511035067
 30
0.0
 11
11335.71787867026
 21
-627.859460227498
 31
0.0
  0
LINE
  5
2A1
330
25
100
AcDbEntity
  8
1
  6
Continuous
 62
     0
100
AcDbLine
 10
11335.71787867026
 20
-627.859460227498
 30
0.0
 11
11366.71787867026
 21
-627.859460227498
 31
0.0
  0
LINE
  5
2A0
330
25
100
AcDbEntity
  8
1
  6
Continuous
 62
     0
100
AcDbLine
 10
11366.21787867026
 20
-619.359460227498
 30
0.0
 11
11366.21787867026
 21
-627.869759102148
 31
0.0
  0
LINE
  5
29F
330
25
100
AcDbEntity
  8
1
  6
Continuous
 62
     0
100
AcDbLine
 10
11336.21787867026
 20
-619.359460227498
 30
0.0
 11
11336.21787867026
 21
-627.859460227498
 31
0.0
  0
LINE
  5
29E
330
25
100
AcDbEntity
  8
1
  6
Continuous
 62
     0
100
AcDbLine
 10
11360.46787867026
 20
-629.591511035067
 30
0.0
 11
11360.46787867026
 21
-635.859460227498
 31
0.0
  0
LINE
  5
29D
330
25
100
AcDbEntity
  8
1
  6
Continuous
 62
     0
100
AcDbLine
 10
11341.96787867026
 20
-629.591511035067
 30
0.0
 11
11341.96787867026
 21
-635.859460227498
 31
0.0
  0
LINE
  5
29C
330
25
100
AcDbEntity
  8
1
  6
Continuous
 62
     0
100
AcDbLine
 10
11371.21787867026
 20
-636.859460227498
 30
0.0
 11
11371.21787867026
 21
-638.859460227498
 31
0.0
  0
LINE
  5
29B
330
25
100
AcDbEntity
  8
1
  6
Continuous
 62
     0
100
AcDbLine
 10
11332.21787867026
 20
-635.859460227498
 30
0.0
 11
11370.21787867026
 21
-635.859460227498
 31
0.0
  0
LINE
  5
29A
330
25
100
AcDbEntity
  8
1
  6
Continuous
 62
     0
100
AcDbLine
 10
11331.21787867026
 20
-636.859460227498
 30
0.0
 11
11331.21787867026
 21
-638.859460227498
 31
0.0
  0
LINE
  5
299
330
25
100
AcDbEntity
  8
1
  6
Continuous
 62
     0
100
AcDbLine
 10
11326.21787867026
 20
-711.109460227497
 30
0.0
 11
11326.21787867026
 21
-642.859460227498
 31
0.0
  0
LINE
  5
298
330
25
100
AcDbEntity
  8
1
  6
Continuous
 62
     0
100
AcDbLine
 10
11376.21787867026
 20
-711.109460227497
 30
0.0
 11
11376.21787867026
 21
-642.859460227498
 31
0.0
  0
LINE
  5
297
330
25
100
AcDbEntity
  8
1
  6
Continuous
 62
     0
100
AcDbLine
 10
11328.21787867026
 20
-640.859460227498
 30
0.0
 11
11329.21787867026
 21
-640.859460227498
 31
0.0
  0
LINE
  5
296
330
25
100
AcDbEntity
  8
1
  6
Continuous
 62
     0
100
AcDbLine
 10
11374.21787867026
 20
-640.859460227498
 30
0.0
 11
11373.21787867026
 21
-640.859460227498
 31
0.0
  0
LINE
  5
295
330
25
100
AcDbEntity
  8
1
  6
Continuous
 62
     0
100
AcDbLine
 10
11329.21787867026
 20
-640.859460227498
 30
0.0
 11
11331.21787867026
 21
-640.859460227498
 31
0.0
  0
LINE
  5
294
330
25
100
AcDbEntity
  8
1
  6
Continuous
 62
     0
100
AcDbLine
 10
11371.21787867026
 20
-640.859460227498
 30
0.0
 11
11331.21787867026
 21
-640.859460227498
 31
0.0
  0
LINE
  5
293
330
25
100
AcDbEntity
  8
1
  6
Continuous
 62
     0
100
AcDbLine
 10
11373.21787867026
 20
-640.859460227498
 30
0.0
 11
11371.21787867026
 21
-640.859460227498
 31
0.0
  0
LINE
  5
292
330
25
100
AcDbEntity
  8
1
  6
Continuous
 62
     0
100
AcDbLine
 10
11373.21787867026
 20
-684.859460227498
 30
0.0
 11
11329.21787867026
 21
-684.859460227498
 31
0.0
  0
LINE
  5
291
330
25
100
AcDbEntity
  8
1
  6
Continuous
 62
     0
100
AcDbLine
 10
11324.71787867026
 20
-729.859460227497
 30
0.0
 11
11316.21787867026
 21
-729.859460227497
 31
0.0
  0
LINE
  5
290
330
25
100
AcDbEntity
  8
1
  6
Continuous
 62
     0
100
AcDbLine
 10
11399.21787867026
 20
-793.359460227498
 30
0.0
 11
11399.21787867026
 21
-792.859460227498
 31
0.0
  0
LINE
  5
28F
330
25
100
AcDbEntity
  8
1
  6
Continuous
 62
     0
100
AcDbLine
 10
11400.21787867026
 20
-791.859460227498
 30
0.0
 11
11405.21787867026
 21
-791.859460227498
 31
0.0
  0
LINE
  5
28E
330
25
100
AcDbEntity
  8
1
  6
Continuous
 62
     0
100
AcDbLine
 10
11406.21787867026
 20
-793.359460227498
 30
0.0
 11
11406.21787867026
 21
-792.859460227498
 31
0.0
  0
LINE
  5
28D
330
25
100
AcDbEntity
  8
1
  6
Continuous
 62
     0
100
AcDbLine
 10
11406.21787867026
 20
-793.359460227498
 30
0.0
 11
11411.21787867026
 21
-793.359460227498
 31
0.0
  0
LINE
  5
28C
330
25
100
AcDbEntity
  8
1
  6
Continuous
 62
     0
100
AcDbLine
 10
11411.21787867026
 20
-793.359460227498
 30
0.0
 11
11411.21787867026
 21
-735.359460227498
 31
0.0
  0
LINE
  5
28B
330
25
100
AcDbEntity
  8
1
  6
Continuous
 62
     0
100
AcDbLine
 10
11411.21787867026
 20
-735.359460227498
 30
0.0
 11
11406.21787867026
 21
-735.359460227498
 31
0.0
  0
LINE
  5
28A
330
25
100
AcDbEntity
  8
1
  6
Continuous
 62
     0
100
AcDbLine
 10
11406.21787867026
 20
-735.359460227498
 30
0.0
 11
11406.21787867026
 21
-735.859460227498
 31
0.0
  0
LINE
  5
289
330
25
100
AcDbEntity
  8
1
  6
Continuous
 62
     0
100
AcDbLine
 10
11400.21787867026
 20
-736.859460227498
 30
0.0
 11
11405.21787867026
 21
-736.859460227498
 31
0.0
  0
LINE
  5
288
330
25
100
AcDbEntity
  8
1
  6
Continuous
 62
     0
100
AcDbLine
 10
11399.21787867026
 20
-734.859460227498
 30
0.0
 11
11399.21787867026
 21
-735.859460227498
 31
0.0
  0
LINE
  5
287
330
25
100
AcDbEntity
  8
1
  6
Continuous
 62
     0
100
AcDbLine
 10
11385.71787867027
 20
-729.859460227498
 30
0.0
 11
11394.21787867027
 21
-729.859460227498
 31
0.0
  0
LINE
  5
286
330
25
100
AcDbEntity
  8
1
  6
Continuous
 62
     0
100
AcDbLine
 10
11377.46787867026
 20
-826.359460227498
 30
0.0
 11
11324.96787867026
 21
-826.359460227498
 31
0.0
  0
LINE
  5
285
330
25
100
AcDbEntity
  8
1
  6
Continuous
 62
     0
100
AcDbLine
 10
11394.96787867026
 20
-800.359460227498
 30
0.0
 11
11307.46787867026
 21
-800.359460227498
 31
0.0
  0
LINE
  5
284
330
25
100
AcDbEntity
  8
1
  6
Continuous
 62
     0
100
AcDbLine
 10
11389.34287867026
 20
-807.609460227498
 30
0.0
 11
11313.09287867026
 21
-807.609460227498
 31
0.0
  0
LINE
  5
283
330
25
100
AcDbEntity
  8
1
  6
Continuous
 62
     0
100
AcDbLine
 10
11313.09287867026
 20
-807.609460227498
 30
0.0
 11
11313.09287867026
 21
-823.472708881549
 31
0.0
  0
LINE
  5
282
330
25
100
AcDbEntity
  8
1
  6
Continuous
 62
     0
100
AcDbLine
 10
11391.21787867026
 20
-807.609460227498
 30
0.0
 11
11311.21787867026
 21
-807.609460227498
 31
0.0
  0
LINE
  5
281
330
25
100
AcDbEntity
  8
1
  6
Continuous
 62
     0
100
AcDbLine
 10
11394.96787867026
 20
-800.359460227498
 30
0.0
 11
11304.21787867026
 21
-800.359460227498
 31
0.0
  0
LINE
  5
280
330
25
100
AcDbEntity
  8
1
  6
Continuous
 62
     0
100
AcDbLine
 10
11318.09287867026
 20
-826.359460227498
 30
0.0
 11
11384.34287867026
 21
-826.359460227498
 31
0.0
  0
LINE
  5
27F
330
25
100
AcDbEntity
  8
1
  6
Continuous
 62
     0
100
AcDbLine
 10
11389.34287867026
 20
-823.472708881549
 30
0.0
 11
11389.34287867026
 21
-807.609460227498
 31
0.0
  0
LINE
  5
27E
330
25
100
AcDbEntity
  8
1
  6
Continuous
 62
     0
100
AcDbLine
 10
11389.34287867026
 20
-823.472708881549
 30
0.0
 11
11384.34287867026
 21
-826.359460227498
 31
0.0
  0
LINE
  5
27D
330
25
100
AcDbEntity
  8
1
  6
Continuous
 62
     0
100
AcDbLine
 10
11313.09287867026
 20
-823.472708881549
 30
0.0
 11
11318.09287867026
 21
-826.359460227498
 31
0.0
  0
LINE
  5
27C
330
25
100
AcDbEntity
  8
1
  6
Continuous
 62
     0
100
AcDbLine
 10
11370.28037867026
 20
-823.472708881549
 30
0.0
 11
11370.28037867026
 21
-807.609460227498
 31
0.0
  0
LINE
  5
27B
330
25
100
AcDbEntity
  8
1
  6
Continuous
 62
     0
100
AcDbLine
 10
11332.15537867026
 20
-823.472708881549
 30
0.0
 11
11332.15537867026
 21
-807.609460227498
 31
0.0
  0
LINE
  5
27A
330
25
100
AcDbEntity
  8
1
  6
Continuous
 62
     0
100
AcDbLine
 10
11406.21787867026
 20
-736.000705235469
 30
0.0
 11
11406.21787867026
 21
-793.359460227498
 31
0.0
  0
LINE
  5
279
330
25
100
AcDbEntity
  8
1
  6
Continuous
 62
     0
100
AcDbLine
 10
11377.64527171403
 20
-826.359460227498
 30
0.0
 11
11325.14527171403
 21
-826.359460227498
 31
0.0
  0
LINE
  5
278
330
25
100
AcDbEntity
  8
1
  6
Continuous
 62
     0
100
AcDbLine
 10
11318.27027171403
 20
-826.359460227498
 30
0.0
 11
11384.52027171403
 21
-826.359460227498
 31
0.0
  0
LINE
  5
277
330
25
100
AcDbEntity
  8
1
  6
Continuous
 62
     0
100
AcDbLine
 10
11389.52027171403
 20
-823.472708881549
 30
0.0
 11
11384.52027171403
 21
-826.359460227498
 31
0.0
  0
LINE
  5
276
330
25
100
AcDbEntity
  8
1
  6
Continuous
 62
     0
100
AcDbLine
 10
11313.27027171403
 20
-823.472708881549
 30
0.0
 11
11318.27027171403
 21
-826.359460227498
 31
0.0
  0
LINE
  5
275
330
25
100
AcDbEntity
  8
1
  6
Continuous
 62
     0
100
AcDbLine
 10
11394.96787867026
 20
-800.359460227498
 30
0.0
 11
11394.96787867026
 21
-803.859460227498
 31
0.0
  0
LINE
  5
274
330
25
100
AcDbEntity
  8
1
  6
Continuous
 62
     0
100
AcDbLine
 10
11307.46787867026
 20
-800.359460227498
 30
0.0
 11
11307.46787867026
 21
-803.859460227498
 31
0.0
  0
LINE
  5
273
330
25
100
AcDbEntity
  8
1
  6
Continuous
 62
     0
100
AcDbLine
 10
11374.21787867026
 20
-641.859460227498
 30
0.0
 11
11374.21787867026
 21
-684.282109958308
 31
0.0
  0
LINE
  5
272
330
25
100
AcDbEntity
  8
1
  6
Continuous
 62
     0
100
AcDbLine
 10
11372.21787867026
 20
-641.859460227498
 30
0.0
 11
11372.21787867026
 21
-683.859460227498
 31
0.0
  0
LINE
  5
271
330
25
100
AcDbEntity
  8
1
  6
Continuous
 62
     0
100
AcDbLine
 10
11359.5512120036
 20
-641.859460227498
 30
0.0
 11
11359.5512120036
 21
-683.859460227498
 31
0.0
  0
LINE
  5
270
330
25
100
AcDbEntity
  8
1
  6
Continuous
 62
     0
100
AcDbLine
 10
11357.5512120036
 20
-641.859460227498
 30
0.0
 11
11357.5512120036
 21
-683.859460227498
 31
0.0
  0
LINE
  5
26F
330
25
100
AcDbEntity
  8
1
  6
Continuous
 62
     0
100
AcDbLine
 10
11344.88454533693
 20
-641.859460227498
 30
0.0
 11
11344.88454533693
 21
-683.859460227498
 31
0.0
  0
LINE
  5
26E
330
25
100
AcDbEntity
  8
1
  6
Continuous
 62
     0
100
AcDbLine
 10
11342.88454533693
 20
-641.859460227498
 30
0.0
 11
11342.88454533693
 21
-683.859460227498
 31
0.0
  0
LINE
  5
26D
330
25
100
AcDbEntity
  8
1
  6
Continuous
 62
     0
100
AcDbLine
 10
11330.21787867026
 20
-641.859460227498
 30
0.0
 11
11330.21787867026
 21
-683.859460227498
 31
0.0
  0
LINE
  5
26C
330
25
100
AcDbEntity
  8
1
  6
Continuous
 62
     0
100
AcDbLine
 10
11328.21787867026
 20
-641.859460227498
 30
0.0
 11
11328.21787867026
 21
-684.282109958308
 31
0.0
  0
LINE
  5
26A
330
25
100
AcDbEntity
  8
1
  6
Continuous
 62
     0
100
AcDbLine
 10
11863.21787867026
 20
-128.959460227497
 30
0.0
 11
11863.21787867026
 21
-860.409460227498
 31
0.0
  0
LINE
  5
269
330
25
100
AcDbEntity
  8
1
  6
Continuous
 62
     0
100
AcDbLine
 10
11863.21787867026
 20
-2381.959460227498
 30
0.0
 11
11863.21787867026
 21
-949.509460227498
 31
0.0
  0
LINE
  5
268
330
25
100
AcDbEntity
  8
1
  6
Continuous
 62
     0
100
AcDbLine
 10
10839.21787867026
 20
-128.959460227497
 30
0.0
 11
10839.21787867026
 21
-2010.409460227498
 31
0.0
  0
LINE
  5
267
330
25
100
AcDbEntity
  8
1
  6
Continuous
 62
     0
100
AcDbLine
 10
10839.21787867026
 20
-2402.185235057354
 30
0.0
 11
10839.21787867026
 21
-2099.509460227499
 31
0.0
  0
LINE
  5
262
330
25
100
AcDbEntity
  8
1
  6
Continuous
 62
     0
100
AcDbLine
 10
11560.78453642286
 20
91.467019087784
 30
0.0
 11
11585.50602030088
 21
85.986398059413
 31
0.0
  0
LINE
  5
261
330
25
100
AcDbEntity
  8
1
  6
Continuous
 62
     0
100
AcDbLine
 10
11556.89510348015
 20
89.82199617713
 30
0.0
 11
11553.89390067824
 21
79.995147497777
 31
0.0
  0
LINE
  5
260
330
25
100
AcDbEntity
  8
1
  6
Continuous
 62
     0
100
AcDbLine
 10
11588.01700850658
 20
72.430236619443
 30
0.0
 11
11589.45000074399
 21
82.604749210849
 31
0.0
  0
LINE
  5
25F
330
25
100
AcDbEntity
  8
1
  6
Continuous
 62
     0
100
AcDbLine
 10
11587.97383040677
 20
72.123664044432
 30
0.0
 11
11588.01700850658
 21
72.430236619443
 31
0.0
  0
LINE
  5
25E
330
25
100
AcDbEntity
  8
1
  6
Continuous
 62
     0
100
AcDbLine
 10
11587.47675269589
 20
85.852477372295
 30
0.0
 11
11574.13524449125
 21
90.555797395147
 31
0.0
  0
LINE
  5
25D
330
25
100
AcDbEntity
  8
1
  6
Continuous
 62
     0
100
AcDbLine
 10
11553.89390067824
 20
79.995147497777
 30
0.0
 11
11553.80347015758
 21
79.699050532265
 31
0.0
  0
LINE
  5
25C
330
25
100
AcDbEntity
  8
1
  6
Continuous
 62
     0
100
AcDbLine
 10
11574.13524449125
 20
90.555797395147
 30
0.0
 11
11560.05602278209
 21
91.931506839957
 31
0.0
  0
LINE
  5
25B
330
25
100
AcDbEntity
  8
1
  6
Continuous
 62
     0
100
AcDbLine
 10
11553.80347015758
 20
79.699050532265
 30
0.0
 11
11587.97383040677
 21
72.123664044432
 31
0.0
  0
LINE
  5
25A
330
25
100
AcDbEntity
  8
1
  6
Continuous
 62
     0
100
AcDbLine
 10
11114.46192693376
 20
72.123664044432
 30
0.0
 11
11148.63228718295
 21
79.699050532265
 31
0.0
  0
LINE
  5
259
330
25
100
AcDbEntity
  8
1
  6
Continuous
 62
     0
100
AcDbLine
 10
11142.37973455844
 20
91.931506839958
 30
0.0
 11
11128.30051284928
 21
90.555797395148
 31
0.0
  0
LINE
  5
258
330
25
100
AcDbEntity
  8
1
  6
Continuous
 62
     0
100
AcDbLine
 10
11148.63228718295
 20
79.699050532265
 30
0.0
 11
11148.54185666229
 21
79.995147497778
 31
0.0
  0
LINE
  5
257
330
25
100
AcDbEntity
  8
1
  6
Continuous
 62
     0
100
AcDbLine
 10
11128.30051284928
 20
90.555797395148
 30
0.0
 11
11114.95900464464
 21
85.852477372295
 31
0.0
  0
LINE
  5
256
330
25
100
AcDbEntity
  8
1
  6
Continuous
 62
     0
100
AcDbLine
 10
11114.41874883395
 20
72.430236619443
 30
0.0
 11
11114.46192693376
 21
72.123664044432
 31
0.0
  0
LINE
  5
255
330
25
100
AcDbEntity
  8
1
  6
Continuous
 62
     0
100
AcDbLine
 10
11112.98575659654
 20
82.604749210849
 30
0.0
 11
11114.41874883395
 21
72.430236619443
 31
0.0
  0
LINE
  5
254
330
25
100
AcDbEntity
  8
1
  6
Continuous
 62
     0
100
AcDbLine
 10
11148.54185666229
 20
79.995147497778
 30
0.0
 11
11145.54065386038
 21
89.82199617713
 31
0.0
  0
LINE
  5
253
330
25
100
AcDbEntity
  8
1
  6
Continuous
 62
     0
100
AcDbLine
 10
11116.92973703965
 20
85.986398059413
 30
0.0
 11
11141.65122091767
 21
91.467019087784
 31
0.0
  0
LINE
  5
250
330
25
100
AcDbEntity
  8
1
  6
Continuous
 62
     0
100
AcDbLine
 10
13767.59286132678
 20
-128.959460227497
 30
0.0
 11
13767.59286132678
 21
-2099.509460227499
 31
0.0
  0
LINE
  5
24C
330
25
100
AcDbEntity
  8
1
  6
Continuous
 62
     0
100
AcDbLine
 10
14179.59286132678
 20
-2695.959460227498
 30
0.0
 11
14179.59286132678
 21
-2895.959460227499
 31
0.0
  0
LINE
  5
24B
330
25
100
AcDbEntity
  8
1
  6
Continuous
 62
     0
100
AcDbLine
 10
14379.59286132678
 20
-2695.959460227498
 30
0.0
 11
14379.59286132678
 21
-2895.959460227499
 31
0.0
  0
LINE
  5
24A
330
25
100
AcDbEntity
  8
1
  6
Continuous
 62
     0
100
AcDbLine
 10
13779.59286132678
 20
-2904.959460227498
 30
0.0
 11
13779.59286132678
 21
-2895.959460227499
 31
0.0
  0
LINE
  5
249
330
25
100
AcDbEntity
  8
1
  6
Continuous
 62
     0
100
AcDbLine
 10
14779.59286132678
 20
-2904.959460227498
 30
0.0
 11
13779.59286132678
 21
-2904.959460227498
 31
0.0
  0
LINE
  5
248
330
25
100
AcDbEntity
  8
1
  6
Continuous
 62
     0
100
AcDbLine
 10
14779.59286132678
 20
-2895.959460227499
 30
0.0
 11
14779.59286132678
 21
-2904.959460227498
 31
0.0
  0
LINE
  5
247
330
25
100
AcDbEntity
  8
1
  6
Continuous
 62
     0
100
AcDbLine
 10
13779.59286132678
 20
-2895.959460227499
 30
0.0
 11
14779.59286132678
 21
-2895.959460227499
 31
0.0
  0
LINE
  5
244
330
25
100
AcDbEntity
  8
1
  6
Continuous
 62
     0
100
AcDbLine
 10
14287.59286132678
 20
131.44022746203
 30
0.0
 11
14287.59286132678
 21
70.123204200432
 31
0.0
  0
LINE
  5
243
330
25
100
AcDbEntity
  8
1
  6
Continuous
 62
     0
100
AcDbLine
 10
14271.59286132678
 20
131.44022746203
 30
0.0
 11
14271.59286132678
 21
70.123204200432
 31
0.0
  0
LINE
  5
242
330
25
100
AcDbEntity
  8
1
  6
Continuous
 62
     0
100
AcDbLine
 10
14263.59286132678
 20
81.93721396636
 30
0.0
 11
14262.09286132678
 21
70.123266638508
 31
0.0
  0
LINE
  5
241
330
25
100
AcDbEntity
  8
1
  6
Continuous
 62
     0
100
AcDbLine
 10
14295.59286132678
 20
81.937213965726
 30
0.0
 11
14297.09286132678
 21
70.123266639142
 31
0.0
  0
LINE
  5
240
330
25
100
AcDbEntity
  8
1
  6
Continuous
 62
     0
100
AcDbLine
 10
13747.59286132678
 20
-938.109460227499
 30
0.0
 11
13747.59286132678
 21
-871.809460227498
 31
0.0
  0
LINE
  5
23F
330
25
100
AcDbEntity
  8
1
  6
Continuous
 62
     0
100
AcDbLine
 10
13767.59286132678
 20
-938.109460227499
 30
0.0
 11
13747.59286132678
 21
-938.109460227499
 31
0.0
  0
LINE
  5
23E
330
25
100
AcDbEntity
  8
1
  6
Continuous
 62
     0
100
AcDbLine
 10
13767.59286132678
 20
-871.809460227498
 30
0.0
 11
13747.59286132678
 21
-871.809460227498
 31
0.0
  0
LINE
  5
23C
330
25
100
AcDbEntity
  8
1
  6
Continuous
 62
     0
100
AcDbLine
 10
13736.47286132678
 20
-874.709460227499
 30
0.0
 11
13736.47286132678
 21
-935.209460227499
 31
0.0
  0
LINE
  5
23B
330
25
100
AcDbEntity
  8
1
  6
Continuous
 62
     0
100
AcDbLine
 10
13732.47286132678
 20
-935.209460227499
 30
0.0
 11
13732.47286132678
 21
-874.709460227499
 31
0.0
  0
LINE
  5
23A
330
25
100
AcDbEntity
  8
1
  6
Continuous
 62
     0
100
AcDbLine
 10
13732.47286132678
 20
-935.209460227499
 30
0.0
 11
13736.47286132678
 21
-935.209460227499
 31
0.0
  0
LINE
  5
239
330
25
100
AcDbEntity
  8
1
  6
Continuous
 62
     0
100
AcDbLine
 10
13736.47286132678
 20
-874.709460227499
 30
0.0
 11
13732.47286132678
 21
-874.709460227499
 31
0.0
  0
LINE
  5
238
330
25
100
AcDbEntity
  8
1
  6
Continuous
 62
     0
100
AcDbLine
 10
13736.47286132678
 20
-935.209460227499
 30
0.0
 11
13747.59286132678
 21
-934.766460227499
 31
0.0
  0
LINE
  5
237
330
25
100
AcDbEntity
  8
1
  6
Continuous
 62
     0
100
AcDbLine
 10
13736.47286132678
 20
-874.709460227499
 30
0.0
 11
13747.59286132678
 21
-875.152460227499
 31
0.0
  0
LINE
  5
236
330
25
100
AcDbEntity
  8
1
  6
Continuous
 62
     0
100
AcDbLine
 10
13732.47286132678
 20
-935.209460227499
 30
0.0
 11
13721.35286132678
 21
-934.766460227499
 31
0.0
  0
LINE
  5
235
330
25
100
AcDbEntity
  8
1
  6
Continuous
 62
     0
100
AcDbLine
 10
13721.35286132678
 20
-875.152460227499
 30
0.0
 11
13732.47286132678
 21
-874.709460227499
 31
0.0
  0
LINE
  5
234
330
25
100
AcDbEntity
  8
1
  6
Continuous
 62
     0
100
AcDbLine
 10
13697.85754383158
 20
-857.459460227497
 30
0.0
 11
13697.85754383158
 21
-864.457915694927
 31
0.0
  0
LINE
  5
233
330
25
100
AcDbEntity
  8
1
  6
Continuous
 62
     0
100
AcDbLine
 10
13710.96803779204
 20
-939.461004760071
 30
0.0
 11
13694.39420154384
 21
-939.461004760071
 31
0.0
  0
LINE
  5
232
330
25
100
AcDbEntity
  8
1
  6
Continuous
 62
     0
100
AcDbLine
 10
13721.35286132678
 20
-940.961004760071
 30
0.0
 11
13721.35286132678
 21
-904.959460227499
 31
0.0
  0
LINE
  5
231
330
25
100
AcDbEntity
  8
1
  6
Continuous
 62
     0
100
AcDbLine
 10
13716.35286132678
 20
-940.961004760071
 30
0.0
 11
13721.35286132678
 21
-940.961004760071
 31
0.0
  0
LINE
  5
230
330
25
100
AcDbEntity
  8
1
  6
Continuous
 62
     0
100
AcDbLine
 10
13716.35286132678
 20
-868.957915694927
 30
0.0
 11
13721.35286132678
 21
-868.957915694927
 31
0.0
  0
LINE
  5
22F
330
25
100
AcDbEntity
  8
1
  6
Continuous
 62
     0
100
AcDbLine
 10
13716.35286132678
 20
-939.461004760071
 30
0.0
 11
13716.35286132678
 21
-870.457915694927
 31
0.0
  0
LINE
  5
22E
330
25
100
AcDbEntity
  8
1
  6
Continuous
 62
     0
100
AcDbLine
 10
13716.35286132678
 20
-870.457915694927
 30
0.0
 11
13716.35286132678
 21
-868.957915694927
 31
0.0
  0
LINE
  5
22D
330
25
100
AcDbEntity
  8
1
  6
Continuous
 62
     0
100
AcDbLine
 10
13716.35286132678
 20
-939.461004760071
 30
0.0
 11
13716.35286132678
 21
-940.961004760071
 31
0.0
  0
LINE
  5
22C
330
25
100
AcDbEntity
  8
1
  6
Continuous
 62
     0
100
AcDbLine
 10
13721.35286132678
 20
-904.959460227499
 30
0.0
 11
13721.35286132678
 21
-868.957915694927
 31
0.0
  0
LINE
  5
22B
330
25
100
AcDbEntity
  8
1
  6
Continuous
 62
     0
100
AcDbLine
 10
13710.96803779204
 20
-870.457915694927
 30
0.0
 11
13703.85754383158
 21
-870.457915694927
 31
0.0
  0
LINE
  5
22A
330
25
100
AcDbEntity
  8
1
  6
Continuous
 62
     0
100
AcDbLine
 10
14796.59286132678
 20
-2093.166568024275
 30
0.0
 11
14796.59286132678
 21
-2251.166568024275
 31
0.0
  0
LINE
  5
229
330
25
100
AcDbEntity
  8
1
  6
Continuous
 62
     0
100
AcDbLine
 10
14806.59286132678
 20
-2093.166568024275
 30
0.0
 11
14806.59286132678
 21
-2251.166568024275
 31
0.0
  0
LINE
  5
227
330
25
100
AcDbEntity
  8
1
  6
Continuous
 62
     0
100
AcDbLine
 10
14806.59286132678
 20
-2251.166568024275
 30
0.0
 11
14791.59286132678
 21
-2251.166568024275
 31
0.0
  0
LINE
  5
226
330
25
100
AcDbEntity
  8
1
  6
Continuous
 62
     0
100
AcDbLine
 10
14806.59286132678
 20
-2093.166568024275
 30
0.0
 11
14791.59286132678
 21
-2093.166568024275
 31
0.0
  0
LINE
  5
225
330
25
100
AcDbEntity
  8
1
  6
Continuous
 62
     0
100
AcDbLine
 10
14823.59286132678
 20
-2102.42409724232
 30
0.0
 11
14822.52106455706
 21
-2100.567690781769
 31
0.0
  0
LINE
  5
224
330
25
100
AcDbEntity
  8
1
  6
Continuous
 62
     0
100
AcDbLine
 10
14822.52106455706
 20
-2128.28050370287
 30
0.0
 11
14823.59286132678
 21
-2126.42409724232
 31
0.0
  0
LINE
  5
223
330
25
100
AcDbEntity
  8
1
  6
Continuous
 62
     0
100
AcDbLine
 10
14813.59286132678
 20
-2128.28050370287
 30
0.0
 11
14822.52106455706
 21
-2128.28050370287
 31
0.0
  0
LINE
  5
222
330
25
100
AcDbEntity
  8
1
  6
Continuous
 62
     0
100
AcDbLine
 10
14823.59286132678
 20
-2126.42409724232
 30
0.0
 11
14823.59286132678
 21
-2102.42409724232
 31
0.0
  0
LINE
  5
221
330
25
100
AcDbEntity
  8
1
  6
Continuous
 62
     0
100
AcDbLine
 10
14822.52106455706
 20
-2100.567690781769
 30
0.0
 11
14813.59286132678
 21
-2100.567690781769
 31
0.0
  0
LINE
  5
220
330
25
100
AcDbEntity
  8
1
  6
Continuous
 62
     0
100
AcDbLine
 10
14813.59286132678
 20
-2121.352300472595
 30
0.0
 11
14822.52106455706
 21
-2121.352300472595
 31
0.0
  0
LINE
  5
21F
330
25
100
AcDbEntity
  8
1
  6
Continuous
 62
     0
100
AcDbLine
 10
14813.59286132678
 20
-2107.495894012044
 30
0.0
 11
14822.52106455706
 21
-2107.495894012044
 31
0.0
  0
LINE
  5
21E
330
25
100
AcDbEntity
  8
1
  6
Continuous
 62
     0
100
AcDbLine
 10
14809.59286132678
 20
-2128.42409724232
 30
0.0
 11
14813.59286132678
 21
-2128.42409724232
 31
0.0
  0
LINE
  5
21D
330
25
100
AcDbEntity
  8
1
  6
Continuous
 62
     0
100
AcDbLine
 10
14813.59286132678
 20
-2128.42409724232
 30
0.0
 11
14813.59286132678
 21
-2100.42409724232
 31
0.0
  0
LINE
  5
21C
330
25
100
AcDbEntity
  8
1
  6
Continuous
 62
     0
100
AcDbLine
 10
14813.59286132678
 20
-2100.42409724232
 30
0.0
 11
14809.59286132678
 21
-2100.42409724232
 31
0.0
  0
LINE
  5
21B
330
25
100
AcDbEntity
  8
1
  6
Continuous
 62
     0
100
AcDbLine
 10
14813.59286132678
 20
-2115.357430575653
 30
0.0
 11
14809.59286132678
 21
-2116.50028771851
 31
0.0
  0
LINE
  5
21A
330
25
100
AcDbEntity
  8
1
  6
Continuous
 62
     0
100
AcDbLine
 10
14813.59286132678
 20
-2112.347906766129
 30
0.0
 11
14809.59286132678
 21
-2113.490763908986
 31
0.0
  0
LINE
  5
219
330
25
100
AcDbEntity
  8
1
  6
Continuous
 62
     0
100
AcDbLine
 10
14806.59286132678
 20
-2129.42409724232
 30
0.0
 11
14809.59286132678
 21
-2129.42409724232
 31
0.0
  0
LINE
  5
218
330
25
100
AcDbEntity
  8
1
  6
Continuous
 62
     0
100
AcDbLine
 10
14809.59286132678
 20
-2129.42409724232
 30
0.0
 11
14809.59286132678
 21
-2099.42409724232
 31
0.0
  0
LINE
  5
217
330
25
100
AcDbEntity
  8
1
  6
Continuous
 62
     0
100
AcDbLine
 10
14809.59286132678
 20
-2099.42409724232
 30
0.0
 11
14806.59286132678
 21
-2099.42409724232
 31
0.0
  0
LINE
  5
216
330
25
100
AcDbEntity
  8
1
  6
Continuous
 62
     0
100
AcDbLine
 10
14806.59286132678
 20
-2099.42409724232
 30
0.0
 11
14806.59286132678
 21
-2129.42409724232
 31
0.0
  0
LINE
  5
213
330
25
100
AcDbEntity
  8
1
  6
Continuous
 62
     0
100
AcDbLine
 10
14806.59286132678
 20
-2133.248853501456
 30
0.0
 11
14806.59286132678
 21
-2163.248853501456
 31
0.0
  0
LINE
  5
212
330
25
100
AcDbEntity
  8
1
  6
Continuous
 62
     0
100
AcDbLine
 10
14809.59286132678
 20
-2133.248853501456
 30
0.0
 11
14806.59286132678
 21
-2133.248853501456
 31
0.0
  0
LINE
  5
211
330
25
100
AcDbEntity
  8
1
  6
Continuous
 62
     0
100
AcDbLine
 10
14809.59286132678
 20
-2163.248853501456
 30
0.0
 11
14809.59286132678
 21
-2133.248853501456
 31
0.0
  0
LINE
  5
210
330
25
100
AcDbEntity
  8
1
  6
Continuous
 62
     0
100
AcDbLine
 10
14806.59286132678
 20
-2163.248853501456
 30
0.0
 11
14809.59286132678
 21
-2163.248853501456
 31
0.0
  0
LINE
  5
20F
330
25
100
AcDbEntity
  8
1
  6
Continuous
 62
     0
100
AcDbLine
 10
14813.59286132678
 20
-2146.172663025266
 30
0.0
 11
14809.59286132678
 21
-2147.315520168124
 31
0.0
  0
LINE
  5
20E
330
25
100
AcDbEntity
  8
1
  6
Continuous
 62
     0
100
AcDbLine
 10
14813.59286132678
 20
-2149.18218683479
 30
0.0
 11
14809.59286132678
 21
-2150.325043977648
 31
0.0
  0
LINE
  5
20D
330
25
100
AcDbEntity
  8
1
  6
Continuous
 62
     0
100
AcDbLine
 10
14813.59286132678
 20
-2134.248853501456
 30
0.0
 11
14809.59286132678
 21
-2134.248853501456
 31
0.0
  0
LINE
  5
20C
330
25
100
AcDbEntity
  8
1
  6
Continuous
 62
     0
100
AcDbLine
 10
14813.59286132678
 20
-2162.248853501456
 30
0.0
 11
14813.59286132678
 21
-2134.248853501456
 31
0.0
  0
LINE
  5
20B
330
25
100
AcDbEntity
  8
1
  6
Continuous
 62
     0
100
AcDbLine
 10
14809.59286132678
 20
-2162.248853501456
 30
0.0
 11
14813.59286132678
 21
-2162.248853501456
 31
0.0
  0
LINE
  5
20A
330
25
100
AcDbEntity
  8
1
  6
Continuous
 62
     0
100
AcDbLine
 10
14813.59286132678
 20
-2141.320650271181
 30
0.0
 11
14822.52106455706
 21
-2141.320650271181
 31
0.0
  0
LINE
  5
209
330
25
100
AcDbEntity
  8
1
  6
Continuous
 62
     0
100
AcDbLine
 10
14813.59286132678
 20
-2155.177056731733
 30
0.0
 11
14822.52106455706
 21
-2155.177056731733
 31
0.0
  0
LINE
  5
208
330
25
100
AcDbEntity
  8
1
  6
Continuous
 62
     0
100
AcDbLine
 10
14822.52106455706
 20
-2134.392447040906
 30
0.0
 11
14813.59286132678
 21
-2134.392447040906
 31
0.0
  0
LINE
  5
207
330
25
100
AcDbEntity
  8
1
  6
Continuous
 62
     0
100
AcDbLine
 10
14823.59286132678
 20
-2160.248853501456
 30
0.0
 11
14823.59286132678
 21
-2136.248853501456
 31
0.0
  0
LINE
  5
206
330
25
100
AcDbEntity
  8
1
  6
Continuous
 62
     0
100
AcDbLine
 10
14813.59286132678
 20
-2162.105259962008
 30
0.0
 11
14822.52106455706
 21
-2162.105259962008
 31
0.0
  0
LINE
  5
205
330
25
100
AcDbEntity
  8
1
  6
Continuous
 62
     0
100
AcDbLine
 10
14822.52106455706
 20
-2162.105259962008
 30
0.0
 11
14823.59286132678
 21
-2160.248853501456
 31
0.0
  0
LINE
  5
204
330
25
100
AcDbEntity
  8
1
  6
Continuous
 62
     0
100
AcDbLine
 10
14823.59286132678
 20
-2136.248853501456
 30
0.0
 11
14822.52106455706
 21
-2134.392447040906
 31
0.0
  0
LINE
  5
203
330
25
100
AcDbEntity
  8
1
  6
Continuous
 62
     0
100
AcDbLine
 10
14822.52106455706
 20
-2209.940689007644
 30
0.0
 11
14823.59286132678
 21
-2208.084282547093
 31
0.0
  0
LINE
  5
202
330
25
100
AcDbEntity
  8
1
  6
Continuous
 62
     0
100
AcDbLine
 10
14823.59286132678
 20
-2184.084282547093
 30
0.0
 11
14822.52106455706
 21
-2182.227876086542
 31
0.0
  0
LINE
  5
201
330
25
100
AcDbEntity
  8
1
  6
Continuous
 62
     0
100
AcDbLine
 10
14822.52106455706
 20
-2182.227876086542
 30
0.0
 11
14813.59286132678
 21
-2182.227876086542
 31
0.0
  0
LINE
  5
200
330
25
100
AcDbEntity
  8
1
  6
Continuous
 62
     0
100
AcDbLine
 10
14823.59286132678
 20
-2208.084282547093
 30
0.0
 11
14823.59286132678
 21
-2184.084282547093
 31
0.0
  0
LINE
  5
1FF
330
25
100
AcDbEntity
  8
1
  6
Continuous
 62
     0
100
AcDbLine
 10
14813.59286132678
 20
-2209.940689007644
 30
0.0
 11
14822.52106455706
 21
-2209.940689007644
 31
0.0
  0
LINE
  5
1FE
330
25
100
AcDbEntity
  8
1
  6
Continuous
 62
     0
100
AcDbLine
 10
14822.52106455706
 20
-2189.156079316817
 30
0.0
 11
14813.59286132678
 21
-2189.156079316817
 31
0.0
  0
LINE
  5
1FD
330
25
100
AcDbEntity
  8
1
  6
Continuous
 62
     0
100
AcDbLine
 10
14822.52106455706
 20
-2203.012485777369
 30
0.0
 11
14813.59286132678
 21
-2203.012485777369
 31
0.0
  0
LINE
  5
1FC
330
25
100
AcDbEntity
  8
1
  6
Continuous
 62
     0
100
AcDbLine
 10
14813.59286132678
 20
-2182.084282547093
 30
0.0
 11
14809.59286132678
 21
-2182.084282547093
 31
0.0
  0
LINE
  5
1FB
330
25
100
AcDbEntity
  8
1
  6
Continuous
 62
     0
100
AcDbLine
 10
14813.59286132678
 20
-2210.084282547093
 30
0.0
 11
14813.59286132678
 21
-2182.084282547093
 31
0.0
  0
LINE
  5
1FA
330
25
100
AcDbEntity
  8
1
  6
Continuous
 62
     0
100
AcDbLine
 10
14809.59286132678
 20
-2210.084282547093
 30
0.0
 11
14813.59286132678
 21
-2210.084282547093
 31
0.0
  0
LINE
  5
1F9
330
25
100
AcDbEntity
  8
1
  6
Continuous
 62
     0
100
AcDbLine
 10
14809.59286132678
 20
-2194.008092070902
 30
0.0
 11
14813.59286132678
 21
-2195.15094921376
 31
0.0
  0
LINE
  5
1F8
330
25
100
AcDbEntity
  8
1
  6
Continuous
 62
     0
100
AcDbLine
 10
14809.59286132678
 20
-2197.017615880426
 30
0.0
 11
14813.59286132678
 21
-2198.160473023284
 31
0.0
  0
LINE
  5
1F7
330
25
100
AcDbEntity
  8
1
  6
Continuous
 62
     0
100
AcDbLine
 10
14809.59286132678
 20
-2181.084282547093
 30
0.0
 11
14806.59286132678
 21
-2181.084282547093
 31
0.0
  0
LINE
  5
1F6
330
25
100
AcDbEntity
  8
1
  6
Continuous
 62
     0
100
AcDbLine
 10
14809.59286132678
 20
-2211.084282547093
 30
0.0
 11
14809.59286132678
 21
-2181.084282547093
 31
0.0
  0
LINE
  5
1F5
330
25
100
AcDbEntity
  8
1
  6
Continuous
 62
     0
100
AcDbLine
 10
14806.59286132678
 20
-2211.084282547093
 30
0.0
 11
14809.59286132678
 21
-2211.084282547093
 31
0.0
  0
LINE
  5
1F4
330
25
100
AcDbEntity
  8
1
  6
Continuous
 62
     0
100
AcDbLine
 10
14806.59286132678
 20
-2181.084282547093
 30
0.0
 11
14806.59286132678
 21
-2211.084282547093
 31
0.0
  0
LINE
  5
1F1
330
25
100
AcDbEntity
  8
1
  6
Continuous
 62
     0
100
AcDbLine
 10
14806.59286132678
 20
-2214.909038806231
 30
0.0
 11
14806.59286132678
 21
-2244.909038806231
 31
0.0
  0
LINE
  5
1F0
330
25
100
AcDbEntity
  8
1
  6
Continuous
 62
     0
100
AcDbLine
 10
14806.59286132678
 20
-2244.909038806231
 30
0.0
 11
14809.59286132678
 21
-2244.909038806231
 31
0.0
  0
LINE
  5
1EF
330
25
100
AcDbEntity
  8
1
  6
Continuous
 62
     0
100
AcDbLine
 10
14809.59286132678
 20
-2244.909038806231
 30
0.0
 11
14809.59286132678
 21
-2214.909038806231
 31
0.0
  0
LINE
  5
1EE
330
25
100
AcDbEntity
  8
1
  6
Continuous
 62
     0
100
AcDbLine
 10
14809.59286132678
 20
-2214.909038806231
 30
0.0
 11
14806.59286132678
 21
-2214.909038806231
 31
0.0
  0
LINE
  5
1ED
330
25
100
AcDbEntity
  8
1
  6
Continuous
 62
     0
100
AcDbLine
 10
14809.59286132678
 20
-2230.842372139564
 30
0.0
 11
14813.59286132678
 21
-2231.985229282421
 31
0.0
  0
LINE
  5
1EC
330
25
100
AcDbEntity
  8
1
  6
Continuous
 62
     0
100
AcDbLine
 10
14809.59286132678
 20
-2227.83284833004
 30
0.0
 11
14813.59286132678
 21
-2228.975705472897
 31
0.0
  0
LINE
  5
1EB
330
25
100
AcDbEntity
  8
1
  6
Continuous
 62
     0
100
AcDbLine
 10
14809.59286132678
 20
-2243.909038806231
 30
0.0
 11
14813.59286132678
 21
-2243.909038806231
 31
0.0
  0
LINE
  5
1EA
330
25
100
AcDbEntity
  8
1
  6
Continuous
 62
     0
100
AcDbLine
 10
14813.59286132678
 20
-2243.909038806231
 30
0.0
 11
14813.59286132678
 21
-2215.909038806231
 31
0.0
  0
LINE
  5
1E9
330
25
100
AcDbEntity
  8
1
  6
Continuous
 62
     0
100
AcDbLine
 10
14813.59286132678
 20
-2215.909038806231
 30
0.0
 11
14809.59286132678
 21
-2215.909038806231
 31
0.0
  0
LINE
  5
1E8
330
25
100
AcDbEntity
  8
1
  6
Continuous
 62
     0
100
AcDbLine
 10
14822.52106455706
 20
-2236.837242036506
 30
0.0
 11
14813.59286132678
 21
-2236.837242036506
 31
0.0
  0
LINE
  5
1E7
330
25
100
AcDbEntity
  8
1
  6
Continuous
 62
     0
100
AcDbLine
 10
14822.52106455706
 20
-2222.980835575955
 30
0.0
 11
14813.59286132678
 21
-2222.980835575955
 31
0.0
  0
LINE
  5
1E6
330
25
100
AcDbEntity
  8
1
  6
Continuous
 62
     0
100
AcDbLine
 10
14813.59286132678
 20
-2243.765445266781
 30
0.0
 11
14822.52106455706
 21
-2243.765445266781
 31
0.0
  0
LINE
  5
1E5
330
25
100
AcDbEntity
  8
1
  6
Continuous
 62
     0
100
AcDbLine
 10
14823.59286132678
 20
-2241.909038806231
 30
0.0
 11
14823.59286132678
 21
-2217.909038806231
 31
0.0
  0
LINE
  5
1E4
330
25
100
AcDbEntity
  8
1
  6
Continuous
 62
     0
100
AcDbLine
 10
14822.52106455706
 20
-2216.05263234568
 30
0.0
 11
14813.59286132678
 21
-2216.05263234568
 31
0.0
  0
LINE
  5
1E3
330
25
100
AcDbEntity
  8
1
  6
Continuous
 62
     0
100
AcDbLine
 10
14823.59286132678
 20
-2217.909038806231
 30
0.0
 11
14822.52106455706
 21
-2216.05263234568
 31
0.0
  0
LINE
  5
1E2
330
25
100
AcDbEntity
  8
1
  6
Continuous
 62
     0
100
AcDbLine
 10
14822.52106455706
 20
-2243.765445266781
 30
0.0
 11
14823.59286132678
 21
-2241.909038806231
 31
0.0
  0
LINE
  5
1E1
330
25
100
AcDbEntity
  8
1
  6
Continuous
 62
     0
100
AcDbLine
 10
14266.39286132678
 20
-2615.243786969239
 30
0.0
 11
14292.79286132678
 21
-2615.243786969239
 31
0.0
  0
LINE
  5
1E0
330
25
100
AcDbEntity
  8
1
  6
Continuous
 62
     0
100
AcDbLine
 10
14292.79286132678
 20
-2615.243786969239
 30
0.0
 11
14292.79286132678
 21
-2606.118815342508
 31
0.0
  0
LINE
  5
1DF
330
25
100
AcDbEntity
  8
1
  6
Continuous
 62
     0
100
AcDbLine
 10
14266.39286132678
 20
-2615.243786969239
 30
0.0
 11
14266.39286132678
 21
-2606.118815342508
 31
0.0
  0
LINE
  5
1DE
330
25
100
AcDbEntity
  8
1
  6
DOTTED
 62
     0
100
AcDbLine
 10
14292.79286132678
 20
-2606.118815342508
 30
0.0
 11
14292.79286132678
 21
-2605.147940331957
 31
0.0
  0
LINE
  5
1DD
330
25
100
AcDbEntity
  8
1
  6
DOTTED
 62
     0
100
AcDbLine
 10
14266.39286132678
 20
-2606.118815342508
 30
0.0
 11
14266.39286132678
 21
-2605.147940331957
 31
0.0
  0
LINE
  5
1DA
330
25
100
AcDbEntity
  8
1
  6
Continuous
 62
     0
100
AcDbLine
 10
14267.09286132678
 20
-2632.923786969238
 30
0.0
 11
14292.09286132678
 21
-2632.923786969239
 31
0.0
  0
LINE
  5
1D9
330
25
100
AcDbEntity
  8
1
  6
Continuous
 62
     0
100
AcDbLine
 10
14290.44286132678
 20
-2622.583786969239
 30
0.0
 11
14290.44286132678
 21
-2625.583786969239
 31
0.0
  0
LINE
  5
1D8
330
25
100
AcDbEntity
  8
1
  6
Continuous
 62
     0
100
AcDbLine
 10
14268.74286132678
 20
-2622.583786969239
 30
0.0
 11
14290.44286132678
 21
-2622.583786969239
 31
0.0
  0
LINE
  5
1D7
330
25
100
AcDbEntity
  8
1
  6
Continuous
 62
     0
100
AcDbLine
 10
14290.44286132678
 20
-2625.583786969239
 30
0.0
 11
14268.74286132678
 21
-2625.583786969239
 31
0.0
  0
LINE
  5
1D6
330
25
100
AcDbEntity
  8
1
  6
Continuous
 62
     0
100
AcDbLine
 10
14268.74286132678
 20
-2622.583786969239
 30
0.0
 11
14268.74286132678
 21
-2625.583786969239
 31
0.0
  0
LINE
  5
1D5
330
25
100
AcDbEntity
  8
1
  6
Continuous
 62
     0
100
AcDbLine
 10
14268.74286132678
 20
-2622.583786969239
 30
0.0
 11
14269.11536132678
 21
-2615.243786969239
 31
0.0
  0
LINE
  5
1D4
330
25
100
AcDbEntity
  8
1
  6
Continuous
 62
     0
100
AcDbLine
 10
14290.44286132678
 20
-2622.583786969239
 30
0.0
 11
14290.07036132678
 21
-2615.243786969239
 31
0.0
  0
LINE
  5
1D3
330
25
100
AcDbEntity
  8
1
  6
Continuous
 62
     0
100
AcDbLine
 10
14290.07036132678
 20
-2632.923786969239
 30
0.0
 11
14290.44286132678
 21
-2625.583786969239
 31
0.0
  0
LINE
  5
1D2
330
25
100
AcDbEntity
  8
1
  6
Continuous
 62
     0
100
AcDbLine
 10
14269.11536132678
 20
-2632.923786969239
 30
0.0
 11
14268.74286132678
 21
-2625.583786969239
 31
0.0
  0
LINE
  5
1D1
330
25
100
AcDbEntity
  8
1
  6
Continuous
 62
     0
100
AcDbLine
 10
14266.39286132678
 20
-2615.243786969239
 30
0.0
 11
14292.79286132678
 21
-2615.243786969239
 31
0.0
  0
LINE
  5
1D0
330
25
100
AcDbEntity
  8
1
  6
Continuous
 62
     0
100
AcDbLine
 10
14294.02661805653
 20
-2688.307332000774
 30
0.0
 11
14292.09286132678
 21
-2689.423786969238
 31
0.0
  0
LINE
  5
1CF
330
25
100
AcDbEntity
  8
1
  6
Continuous
 62
     0
100
AcDbLine
 10
14267.09286132678
 20
-2689.423786969238
 30
0.0
 11
14265.15910459704
 21
-2688.307332000774
 31
0.0
  0
LINE
  5
1CE
330
25
100
AcDbEntity
  8
1
  6
Continuous
 62
     0
100
AcDbLine
 10
14294.02661805653
 20
-2688.307332000774
 30
0.0
 11
14294.02661805653
 21
-2680.540241937703
 31
0.0
  0
LINE
  5
1CD
330
25
100
AcDbEntity
  8
1
  6
Continuous
 62
     0
100
AcDbLine
 10
14292.09286132678
 20
-2689.423786969238
 30
0.0
 11
14285.34286132678
 21
-2689.423786969238
 31
0.0
  0
LINE
  5
1CC
330
25
100
AcDbEntity
  8
1
  6
Continuous
 62
     0
100
AcDbLine
 10
14265.15910459704
 20
-2688.307332000774
 30
0.0
 11
14265.15910459704
 21
-2680.540241937703
 31
0.0
  0
LINE
  5
1CB
330
25
100
AcDbEntity
  8
1
  6
Continuous
 62
     0
100
AcDbLine
 10
14286.80973969166
 20
-2688.307332000774
 30
0.0
 11
14286.80973969166
 21
-2671.236588024779
 31
0.0
  0
LINE
  5
1CA
330
25
100
AcDbEntity
  8
1
  6
Continuous
 62
     0
100
AcDbLine
 10
14272.37598296191
 20
-2688.307332000774
 30
0.0
 11
14272.37598296191
 21
-2671.236588024779
 31
0.0
  0
LINE
  5
1C9
330
25
100
AcDbEntity
  8
1
  6
Continuous
 62
     0
100
AcDbLine
 10
14292.09286132678
 20
-2632.923786969239
 30
0.0
 11
14294.02661805653
 21
-2634.040241937701
 31
0.0
  0
LINE
  5
1C8
330
25
100
AcDbEntity
  8
1
  6
Continuous
 62
     0
100
AcDbLine
 10
14265.15910459704
 20
-2634.040241937701
 30
0.0
 11
14267.09286132678
 21
-2632.923786969238
 31
0.0
  0
LINE
  5
1C7
330
25
100
AcDbEntity
  8
1
  6
Continuous
 62
     0
100
AcDbLine
 10
14294.02661805653
 20
-2634.040241937701
 30
0.0
 11
14294.02661805653
 21
-2641.807332000778
 31
0.0
  0
LINE
  5
1C6
330
25
100
AcDbEntity
  8
1
  6
Continuous
 62
     0
100
AcDbLine
 10
14267.09286132678
 20
-2632.923786969238
 30
0.0
 11
14285.93902664938
 21
-2632.923786969238
 31
0.0
  0
LINE
  5
1C5
330
25
100
AcDbEntity
  8
1
  6
Continuous
 62
     0
100
AcDbLine
 10
14265.15910459704
 20
-2634.040241937701
 30
0.0
 11
14265.15910459704
 21
-2641.807332000778
 31
0.0
  0
LINE
  5
1C4
330
25
100
AcDbEntity
  8
1
  6
Continuous
 62
     0
100
AcDbLine
 10
14286.80973969166
 20
-2634.040241937701
 30
0.0
 11
14286.80973969166
 21
-2649.6109859137
 31
0.0
  0
LINE
  5
1C3
330
25
100
AcDbEntity
  8
1
  6
Continuous
 62
     0
100
AcDbLine
 10
14272.37598296191
 20
-2634.040241937701
 30
0.0
 11
14272.37598296191
 21
-2646.479044160427
 31
0.0
  0
LINE
  5
1C2
330
25
100
AcDbEntity
  8
1
  6
Continuous
 62
     0
100
AcDbLine
 10
14294.02661805653
 20
-2641.807332000778
 30
0.0
 11
14292.22661805653
 21
-2642.846562485318
 31
0.0
  0
LINE
  5
1C1
330
25
100
AcDbEntity
  8
1
  6
Continuous
 62
     0
100
AcDbLine
 10
14266.95910459704
 20
-2642.846562485314
 30
0.0
 11
14265.15910459704
 21
-2641.807332000778
 31
0.0
  0
LINE
  5
1C0
330
25
100
AcDbEntity
  8
1
  6
Continuous
 62
     0
100
AcDbLine
 10
14265.15910459704
 20
-2680.540241937703
 30
0.0
 11
14266.95910459704
 21
-2679.501011453163
 31
0.0
  0
LINE
  5
1BF
330
25
100
AcDbEntity
  8
1
  6
Continuous
 62
     0
100
AcDbLine
 10
14292.22661805653
 20
-2679.501011453163
 30
0.0
 11
14294.02661805653
 21
-2680.540241937703
 31
0.0
  0
LINE
  5
1BE
330
25
100
AcDbEntity
  8
1
  6
Continuous
 62
     0
100
AcDbLine
 10
14266.95910459704
 20
-2642.846562485314
 30
0.0
 11
14266.95910459704
 21
-2652.073786969238
 31
0.0
  0
LINE
  5
1BD
330
25
100
AcDbEntity
  8
1
  6
Continuous
 62
     0
100
AcDbLine
 10
14292.22661805653
 20
-2679.501011453163
 30
0.0
 11
14292.22661805653
 21
-2665.873786969238
 31
0.0
  0
LINE
  5
1BC
330
25
100
AcDbEntity
  8
1
  6
Continuous
 62
     0
100
AcDbLine
 10
14266.95910459704
 20
-2652.073786969238
 30
0.0
 11
14268.09286132678
 21
-2653.473786969239
 31
0.0
  0
LINE
  5
1BB
330
25
100
AcDbEntity
  8
1
  6
Continuous
 62
     0
100
AcDbLine
 10
14266.95910459704
 20
-2665.873786969238
 30
0.0
 11
14267.50293506071
 21
-2665.202247273665
 31
0.0
  0
LINE
  5
1BA
330
25
100
AcDbEntity
  8
1
  6
Continuous
 62
     0
100
AcDbLine
 10
14291.09286132678
 20
-2653.473786969239
 30
0.0
 11
14292.22661805653
 21
-2652.073786969238
 31
0.0
  0
LINE
  5
1B9
330
25
100
AcDbEntity
  8
1
  6
Continuous
 62
     0
100
AcDbLine
 10
14292.22661805653
 20
-2652.073786969238
 30
0.0
 11
14292.22661805653
 21
-2642.846562485318
 31
0.0
  0
LINE
  5
1B8
330
25
100
AcDbEntity
  8
1
  6
Continuous
 62
     0
100
AcDbLine
 10
14266.95910459704
 20
-2665.873786969238
 30
0.0
 11
14266.95910459704
 21
-2679.501011453163
 31
0.0
  0
LINE
  5
1B7
330
25
100
AcDbEntity
  8
1
  6
Continuous
 62
     0
100
AcDbLine
 10
14309.59286132678
 20
-2654.673786969239
 30
0.0
 11
14309.59286132678
 21
-2666.173786969239
 31
0.0
  0
LINE
  5
1B6
330
25
100
AcDbEntity
  8
1
  6
Continuous
 62
     0
100
AcDbLine
 10
14249.59286132678
 20
-2654.673786969239
 30
0.0
 11
14249.59286132678
 21
-2666.173786969239
 31
0.0
  0
LINE
  5
1B5
330
25
100
AcDbEntity
  8
1
  6
Continuous
 62
     0
100
AcDbLine
 10
14291.68278759285
 20
-2665.202247273669
 30
0.0
 11
14292.22661805653
 21
-2665.873786969238
 31
0.0
  0
LINE
  5
1B4
330
25
100
AcDbEntity
  8
1
  6
Continuous
 62
     0
100
AcDbLine
 10
14291.09286132678
 20
-2654.361609142748
 30
0.0
 11
14291.09286132678
 21
-2653.473786969239
 31
0.0
  0
LINE
  5
1B3
330
25
100
AcDbEntity
  8
1
  6
Continuous
 62
     0
100
AcDbLine
 10
14290.57910272228
 20
-2653.473786969239
 30
0.0
 11
14291.09286132678
 21
-2653.473786969239
 31
0.0
  0
LINE
  5
1B2
330
25
100
AcDbEntity
  8
1
  6
Continuous
 62
     0
100
AcDbLine
 10
14268.09286132678
 20
-2654.361609142748
 30
0.0
 11
14268.09286132678
 21
-2653.473786969239
 31
0.0
  0
LINE
  5
1B1
330
25
100
AcDbEntity
  8
1
  6
Continuous
 62
     0
100
AcDbLine
 10
14309.59286132678
 20
-2654.673786969239
 30
0.0
 11
14292.43566086582
 21
-2654.673786969239
 31
0.0
  0
LINE
  5
1B0
330
25
100
AcDbEntity
  8
1
  6
Continuous
 62
     0
100
AcDbLine
 10
14309.59286132678
 20
-2666.173786969239
 30
0.0
 11
14292.43566086582
 21
-2666.173786969239
 31
0.0
  0
LINE
  5
1AF
330
25
100
AcDbEntity
  8
1
  6
Continuous
 62
     0
100
AcDbLine
 10
14266.75006178774
 20
-2666.173786969239
 30
0.0
 11
14249.59286132678
 21
-2666.173786969239
 31
0.0
  0
LINE
  5
1AE
330
25
100
AcDbEntity
  8
1
  6
Continuous
 62
     0
100
AcDbLine
 10
14249.59286132678
 20
-2654.673786969239
 30
0.0
 11
14266.75006178774
 21
-2654.673786969239
 31
0.0
  0
LINE
  5
1AD
330
25
100
AcDbEntity
  8
1
  6
Continuous
 62
     0
100
AcDbLine
 10
14268.09286132678
 20
-2653.473786969239
 30
0.0
 11
14268.6073239381
 21
-2653.473786969239
 31
0.0
  0
LINE
  5
1AC
330
25
100
AcDbEntity
  8
1
  6
Continuous
 62
     0
100
AcDbLine
 10
14285.34286132678
 20
-2632.923786969238
 30
0.0
 11
14292.09286132678
 21
-2632.923786969239
 31
0.0
  0
LINE
  5
1AB
330
25
100
AcDbEntity
  8
1
  6
Continuous
 62
     0
100
AcDbLine
 10
14286.35180564739
 20
-2689.423786969238
 30
0.0
 11
14267.09286132678
 21
-2689.423786969238
 31
0.0
  0
LINE
  5
1AA
330
25
100
AcDbEntity
  8
1
  6
Continuous
 62
     0
100
AcDbLine
 10
14276.12875971165
 20
-2666.423786969239
 30
0.0
 11
14283.05696294192
 21
-2666.423786969239
 31
0.0
  0
LINE
  5
1A9
330
25
100
AcDbEntity
  8
1
  6
Continuous
 62
     0
100
AcDbLine
 10
14283.05696294192
 20
-2666.423786969239
 30
0.0
 11
14286.52106455706
 21
-2660.423786969239
 31
0.0
  0
LINE
  5
1A8
330
25
100
AcDbEntity
  8
1
  6
Continuous
 62
     0
100
AcDbLine
 10
14286.52106455706
 20
-2660.423786969239
 30
0.0
 11
14283.05696294192
 21
-2654.423786969239
 31
0.0
  0
LINE
  5
1A7
330
25
100
AcDbEntity
  8
1
  6
Continuous
 62
     0
100
AcDbLine
 10
14283.05696294192
 20
-2654.423786969239
 30
0.0
 11
14276.12875971165
 21
-2654.423786969239
 31
0.0
  0
LINE
  5
1A6
330
25
100
AcDbEntity
  8
1
  6
Continuous
 62
     0
100
AcDbLine
 10
14276.12875971165
 20
-2654.423786969239
 30
0.0
 11
14272.66465809651
 21
-2660.423786969239
 31
0.0
  0
LINE
  5
1A5
330
25
100
AcDbEntity
  8
1
  6
Continuous
 62
     0
100
AcDbLine
 10
14272.66465809651
 20
-2660.423786969239
 30
0.0
 11
14276.12875971165
 21
-2666.423786969239
 31
0.0
  0
LINE
  5
1A2
330
25
100
AcDbEntity
  8
1
  6
Continuous
 62
     0
100
AcDbLine
 10
14272.84286132678
 20
-2646.423786969238
 30
0.0
 11
14273.84286132678
 21
-2646.423786969238
 31
0.0
  0
LINE
  5
1A1
330
25
100
AcDbEntity
  8
1
  6
Continuous
 62
     0
100
AcDbLine
 10
14270.84286132678
 20
-2648.423786969238
 30
0.0
 11
14270.84286132678
 21
-2650.809344707724
 31
0.0
  0
LINE
  5
1A0
330
25
100
AcDbEntity
  8
1
  6
Continuous
 62
     0
100
AcDbLine
 10
14279.59286132678
 20
-2652.923786969239
 30
0.0
 11
14271.37110146309
 21
-2652.923786969239
 31
0.0
  0
LINE
  5
19F
330
25
100
AcDbEntity
  8
1
  6
Continuous
 62
     0
100
AcDbLine
 10
14287.09286132678
 20
-2660.423786969239
 30
0.0
 11
14290.69286132678
 21
-2660.423786969239
 31
0.0
  0
LINE
  5
19E
330
25
100
AcDbEntity
  8
1
  6
Continuous
 62
     0
100
AcDbLine
 10
14277.09286132678
 20
-2663.014153738637
 30
0.0
 11
14277.09286132678
 21
-2657.833420199842
 31
0.0
  0
LINE
  5
19D
330
25
100
AcDbEntity
  8
1
  6
Continuous
 62
     0
100
AcDbLine
 10
14282.09286132678
 20
-2663.014153738637
 30
0.0
 11
14282.09286132678
 21
-2657.833420199842
 31
0.0
  0
LINE
  5
19C
330
25
100
AcDbEntity
  8
1
  6
Continuous
 62
     0
100
AcDbLine
 10
14266.39286132678
 20
-2614.959460227497
 30
0.0
 11
14292.79286132678
 21
-2614.959460227497
 31
0.0
  0
LINE
  5
19B
330
25
100
AcDbEntity
  8
1
  6
Continuous
 62
     0
100
AcDbLine
 10
14292.79286132678
 20
-2614.959460227497
 30
0.0
 11
14292.79286132678
 21
-2605.834488600767
 31
0.0
  0
LINE
  5
19A
330
25
100
AcDbEntity
  8
1
  6
Continuous
 62
     0
100
AcDbLine
 10
14266.39286132678
 20
-2614.959460227497
 30
0.0
 11
14266.39286132678
 21
-2605.834488600767
 31
0.0
  0
LINE
  5
199
330
25
100
AcDbEntity
  8
1
  6
DOTTED
 62
     0
100
AcDbLine
 10
14292.79286132678
 20
-2605.834488600767
 30
0.0
 11
14292.79286132678
 21
-2604.863613590216
 31
0.0
  0
LINE
  5
198
330
25
100
AcDbEntity
  8
1
  6
DOTTED
 62
     0
100
AcDbLine
 10
14266.39286132678
 20
-2605.834488600767
 30
0.0
 11
14266.39286132678
 21
-2604.863613590216
 31
0.0
  0
LINE
  5
196
330
25
100
AcDbEntity
  8
1
  6
Continuous
 62
     0
100
AcDbLine
 10
11963.21787867026
 20
-3798.277406699796
 30
0.0
 11
11963.21787867026
 21
-3983.277406699796
 31
0.0
  0
LINE
  5
195
330
25
100
AcDbEntity
  8
1
  6
Continuous
 62
     0
100
AcDbLine
 10
10760.21787867026
 20
-3935.327406699796
 30
0.0
 11
10841.15974717935
 21
-3935.327406699797
 31
0.0
  0
LINE
  5
194
330
25
100
AcDbEntity
  8
1
  6
Continuous
 62
     0
100
AcDbLine
 10
10759.21787867026
 20
-3846.227406699796
 30
0.0
 11
10841.15974717935
 21
-3846.227406699796
 31
0.0
  0
LINE
  5
193
330
25
100
AcDbEntity
  8
1
  6
Continuous
 62
     0
100
AcDbLine
 10
10739.21787867026
 20
-3983.277406699796
 30
0.0
 11
10739.21787867026
 21
-3798.277406699796
 31
0.0
  0
LINE
  5
190
330
25
100
AcDbEntity
  8
1
  6
Continuous
 62
     0
100
AcDbLine
 10
11430.21787867026
 20
-4407.777406699797
 30
0.0
 11
11272.21787867026
 21
-4407.777406699797
 31
0.0
  0
LINE
  5
18F
330
25
100
AcDbEntity
  8
1
  6
Continuous
 62
     0
100
AcDbLine
 10
11430.21787867026
 20
-4417.777406699797
 30
0.0
 11
11272.21787867026
 21
-4417.777406699797
 31
0.0
  0
LINE
  5
18D
330
25
100
AcDbEntity
  8
1
  6
Continuous
 62
     0
100
AcDbLine
 10
11430.21787867026
 20
-4395.907027057709
 30
0.0
 11
11430.21787867026
 21
-4417.777406699797
 31
0.0
  0
LINE
  5
18C
330
25
100
AcDbEntity
  8
1
  6
Continuous
 62
     0
100
AcDbLine
 10
11272.21787867026
 20
-4395.913843602322
 30
0.0
 11
11272.21787867026
 21
-4417.777406699797
 31
0.0
  0
LINE
  5
18B
330
25
100
AcDbEntity
  8
1
  6
Continuous
 62
     0
100
AcDbLine
 10
11279.61900142776
 20
-4433.705609930071
 30
0.0
 11
11281.47540788831
 21
-4434.777406699797
 31
0.0
  0
LINE
  5
18A
330
25
100
AcDbEntity
  8
1
  6
Continuous
 62
     0
100
AcDbLine
 10
11305.47540788831
 20
-4434.777406699797
 30
0.0
 11
11307.33181434886
 21
-4433.705609930071
 31
0.0
  0
LINE
  5
189
330
25
100
AcDbEntity
  8
1
  6
Continuous
 62
     0
100
AcDbLine
 10
11307.33181434886
 20
-4433.705609930071
 30
0.0
 11
11307.33181434886
 21
-4424.777406699797
 31
0.0
  0
LINE
  5
188
330
25
100
AcDbEntity
  8
1
  6
Continuous
 62
     0
100
AcDbLine
 10
11281.47540788831
 20
-4434.777406699797
 30
0.0
 11
11305.47540788831
 21
-4434.777406699797
 31
0.0
  0
LINE
  5
187
330
25
100
AcDbEntity
  8
1
  6
Continuous
 62
     0
100
AcDbLine
 10
11279.61900142776
 20
-4424.777406699797
 30
0.0
 11
11279.61900142776
 21
-4433.705609930071
 31
0.0
  0
LINE
  5
186
330
25
100
AcDbEntity
  8
1
  6
Continuous
 62
     0
100
AcDbLine
 10
11300.40361111859
 20
-4433.705609930071
 30
0.0
 11
11300.40361111859
 21
-4424.777406699797
 31
0.0
  0
LINE
  5
185
330
25
100
AcDbEntity
  8
1
  6
Continuous
 62
     0
100
AcDbLine
 10
11286.54720465803
 20
-4433.705609930071
 30
0.0
 11
11286.54720465803
 21
-4424.777406699797
 31
0.0
  0
LINE
  5
184
330
25
100
AcDbEntity
  8
1
  6
Continuous
 62
     0
100
AcDbLine
 10
11307.47540788831
 20
-4424.777406699797
 30
0.0
 11
11307.47540788831
 21
-4420.777406699797
 31
0.0
  0
LINE
  5
183
330
25
100
AcDbEntity
  8
1
  6
Continuous
 62
     0
100
AcDbLine
 10
11279.47540788831
 20
-4424.777406699797
 30
0.0
 11
11307.47540788831
 21
-4424.777406699797
 31
0.0
  0
LINE
  5
182
330
25
100
AcDbEntity
  8
1
  6
Continuous
 62
     0
100
AcDbLine
 10
11279.47540788831
 20
-4420.777406699797
 30
0.0
 11
11279.47540788831
 21
-4424.777406699797
 31
0.0
  0
LINE
  5
181
330
25
100
AcDbEntity
  8
1
  6
Continuous
 62
     0
100
AcDbLine
 10
11295.5515983645
 20
-4420.777406699797
 30
0.0
 11
11294.40874122164
 21
-4424.777406699797
 31
0.0
  0
LINE
  5
180
330
25
100
AcDbEntity
  8
1
  6
Continuous
 62
     0
100
AcDbLine
 10
11292.54207455498
 20
-4420.777406699797
 30
0.0
 11
11291.39921741212
 21
-4424.777406699797
 31
0.0
  0
LINE
  5
17F
330
25
100
AcDbEntity
  8
1
  6
Continuous
 62
     0
100
AcDbLine
 10
11308.47540788831
 20
-4420.777406699797
 30
0.0
 11
11308.47540788831
 21
-4417.777406699797
 31
0.0
  0
LINE
  5
17E
330
25
100
AcDbEntity
  8
1
  6
Continuous
 62
     0
100
AcDbLine
 10
11278.47540788831
 20
-4420.777406699797
 30
0.0
 11
11308.47540788831
 21
-4420.777406699797
 31
0.0
  0
LINE
  5
17D
330
25
100
AcDbEntity
  8
1
  6
Continuous
 62
     0
100
AcDbLine
 10
11278.47540788831
 20
-4417.777406699797
 30
0.0
 11
11278.47540788831
 21
-4420.777406699797
 31
0.0
  0
LINE
  5
17C
330
25
100
AcDbEntity
  8
1
  6
Continuous
 62
     0
100
AcDbLine
 10
11308.47540788831
 20
-4417.777406699797
 30
0.0
 11
11278.47540788831
 21
-4417.777406699797
 31
0.0
  0
LINE
  5
179
330
25
100
AcDbEntity
  8
1
  6
Continuous
 62
     0
100
AcDbLine
 10
11342.30016414745
 20
-4417.777406699797
 30
0.0
 11
11312.30016414745
 21
-4417.777406699797
 31
0.0
  0
LINE
  5
178
330
25
100
AcDbEntity
  8
1
  6
Continuous
 62
     0
100
AcDbLine
 10
11312.30016414745
 20
-4417.777406699797
 30
0.0
 11
11312.30016414745
 21
-4420.777406699797
 31
0.0
  0
LINE
  5
177
330
25
100
AcDbEntity
  8
1
  6
Continuous
 62
     0
100
AcDbLine
 10
11312.30016414745
 20
-4420.777406699797
 30
0.0
 11
11342.30016414745
 21
-4420.777406699797
 31
0.0
  0
LINE
  5
176
330
25
100
AcDbEntity
  8
1
  6
Continuous
 62
     0
100
AcDbLine
 10
11342.30016414745
 20
-4420.777406699797
 30
0.0
 11
11342.30016414745
 21
-4417.777406699797
 31
0.0
  0
LINE
  5
175
330
25
100
AcDbEntity
  8
1
  6
Continuous
 62
     0
100
AcDbLine
 10
11326.36683081411
 20
-4420.777406699797
 30
0.0
 11
11325.22397367126
 21
-4424.777406699797
 31
0.0
  0
LINE
  5
174
330
25
100
AcDbEntity
  8
1
  6
Continuous
 62
     0
100
AcDbLine
 10
11329.37635462364
 20
-4420.777406699797
 30
0.0
 11
11328.23349748078
 21
-4424.777406699797
 31
0.0
  0
LINE
  5
173
330
25
100
AcDbEntity
  8
1
  6
Continuous
 62
     0
100
AcDbLine
 10
11313.30016414745
 20
-4420.777406699797
 30
0.0
 11
11313.30016414745
 21
-4424.777406699797
 31
0.0
  0
LINE
  5
172
330
25
100
AcDbEntity
  8
1
  6
Continuous
 62
     0
100
AcDbLine
 10
11313.30016414745
 20
-4424.777406699797
 30
0.0
 11
11341.30016414745
 21
-4424.777406699797
 31
0.0
  0
LINE
  5
171
330
25
100
AcDbEntity
  8
1
  6
Continuous
 62
     0
100
AcDbLine
 10
11341.30016414745
 20
-4424.777406699797
 30
0.0
 11
11341.30016414745
 21
-4420.777406699797
 31
0.0
  0
LINE
  5
170
330
25
100
AcDbEntity
  8
1
  6
Continuous
 62
     0
100
AcDbLine
 10
11320.37196091717
 20
-4433.705609930071
 30
0.0
 11
11320.37196091717
 21
-4424.777406699797
 31
0.0
  0
LINE
  5
16F
330
25
100
AcDbEntity
  8
1
  6
Continuous
 62
     0
100
AcDbLine
 10
11334.22836737772
 20
-4433.705609930071
 30
0.0
 11
11334.22836737772
 21
-4424.777406699797
 31
0.0
  0
LINE
  5
16E
330
25
100
AcDbEntity
  8
1
  6
Continuous
 62
     0
100
AcDbLine
 10
11313.4437576869
 20
-4424.777406699797
 30
0.0
 11
11313.4437576869
 21
-4433.705609930071
 31
0.0
  0
LINE
  5
16D
330
25
100
AcDbEntity
  8
1
  6
Continuous
 62
     0
100
AcDbLine
 10
11315.30016414745
 20
-4434.777406699797
 30
0.0
 11
11339.30016414745
 21
-4434.777406699797
 31
0.0
  0
LINE
  5
16C
330
25
100
AcDbEntity
  8
1
  6
Continuous
 62
     0
100
AcDbLine
 10
11341.156570608
 20
-4433.705609930071
 30
0.0
 11
11341.156570608
 21
-4424.777406699797
 31
0.0
  0
LINE
  5
16B
330
25
100
AcDbEntity
  8
1
  6
Continuous
 62
     0
100
AcDbLine
 10
11339.30016414745
 20
-4434.777406699797
 30
0.0
 11
11341.156570608
 21
-4433.705609930071
 31
0.0
  0
LINE
  5
16A
330
25
100
AcDbEntity
  8
1
  6
Continuous
 62
     0
100
AcDbLine
 10
11313.4437576869
 20
-4433.705609930071
 30
0.0
 11
11315.30016414745
 21
-4434.777406699797
 31
0.0
  0
LINE
  5
169
330
25
100
AcDbEntity
  8
1
  6
Continuous
 62
     0
100
AcDbLine
 10
11387.13559319308
 20
-4434.777406699797
 30
0.0
 11
11388.99199965363
 21
-4433.705609930071
 31
0.0
  0
LINE
  5
168
330
25
100
AcDbEntity
  8
1
  6
Continuous
 62
     0
100
AcDbLine
 10
11361.27918673253
 20
-4433.705609930071
 30
0.0
 11
11363.13559319308
 21
-4434.777406699797
 31
0.0
  0
LINE
  5
167
330
25
100
AcDbEntity
  8
1
  6
Continuous
 62
     0
100
AcDbLine
 10
11361.27918673253
 20
-4424.777406699797
 30
0.0
 11
11361.27918673253
 21
-4433.705609930071
 31
0.0
  0
LINE
  5
166
330
25
100
AcDbEntity
  8
1
  6
Continuous
 62
     0
100
AcDbLine
 10
11363.13559319308
 20
-4434.777406699797
 30
0.0
 11
11387.13559319308
 21
-4434.777406699797
 31
0.0
  0
LINE
  5
165
330
25
100
AcDbEntity
  8
1
  6
Continuous
 62
     0
100
AcDbLine
 10
11388.99199965363
 20
-4433.705609930071
 30
0.0
 11
11388.99199965363
 21
-4424.777406699797
 31
0.0
  0
LINE
  5
164
330
25
100
AcDbEntity
  8
1
  6
Continuous
 62
     0
100
AcDbLine
 10
11368.20738996281
 20
-4424.777406699797
 30
0.0
 11
11368.20738996281
 21
-4433.705609930071
 31
0.0
  0
LINE
  5
163
330
25
100
AcDbEntity
  8
1
  6
Continuous
 62
     0
100
AcDbLine
 10
11382.06379642336
 20
-4424.777406699797
 30
0.0
 11
11382.06379642336
 21
-4433.705609930071
 31
0.0
  0
LINE
  5
162
330
25
100
AcDbEntity
  8
1
  6
Continuous
 62
     0
100
AcDbLine
 10
11361.13559319308
 20
-4420.777406699797
 30
0.0
 11
11361.13559319308
 21
-4424.777406699797
 31
0.0
  0
LINE
  5
161
330
25
100
AcDbEntity
  8
1
  6
Continuous
 62
     0
100
AcDbLine
 10
11361.13559319308
 20
-4424.777406699797
 30
0.0
 11
11389.13559319308
 21
-4424.777406699797
 31
0.0
  0
LINE
  5
160
330
25
100
AcDbEntity
  8
1
  6
Continuous
 62
     0
100
AcDbLine
 10
11389.13559319308
 20
-4424.777406699797
 30
0.0
 11
11389.13559319308
 21
-4420.777406699797
 31
0.0
  0
LINE
  5
15F
330
25
100
AcDbEntity
  8
1
  6
Continuous
 62
     0
100
AcDbLine
 10
11374.20225985975
 20
-4424.777406699797
 30
0.0
 11
11373.05940271689
 21
-4420.777406699797
 31
0.0
  0
LINE
  5
15E
330
25
100
AcDbEntity
  8
1
  6
Continuous
 62
     0
100
AcDbLine
 10
11377.21178366927
 20
-4424.777406699797
 30
0.0
 11
11376.06892652642
 21
-4420.777406699797
 31
0.0
  0
LINE
  5
15D
330
25
100
AcDbEntity
  8
1
  6
Continuous
 62
     0
100
AcDbLine
 10
11360.13559319308
 20
-4417.777406699797
 30
0.0
 11
11360.13559319308
 21
-4420.777406699797
 31
0.0
  0
LINE
  5
15C
330
25
100
AcDbEntity
  8
1
  6
Continuous
 62
     0
100
AcDbLine
 10
11360.13559319308
 20
-4420.777406699797
 30
0.0
 11
11390.13559319308
 21
-4420.777406699797
 31
0.0
  0
LINE
  5
15B
330
25
100
AcDbEntity
  8
1
  6
Continuous
 62
     0
100
AcDbLine
 10
11390.13559319308
 20
-4420.777406699797
 30
0.0
 11
11390.13559319308
 21
-4417.777406699797
 31
0.0
  0
LINE
  5
15A
330
25
100
AcDbEntity
  8
1
  6
Continuous
 62
     0
100
AcDbLine
 10
11390.13559319308
 20
-4417.777406699797
 30
0.0
 11
11360.13559319308
 21
-4417.777406699797
 31
0.0
  0
LINE
  5
157
330
25
100
AcDbEntity
  8
1
  6
Continuous
 62
     0
100
AcDbLine
 10
11423.96034945222
 20
-4417.777406699797
 30
0.0
 11
11393.96034945222
 21
-4417.777406699797
 31
0.0
  0
LINE
  5
156
330
25
100
AcDbEntity
  8
1
  6
Continuous
 62
     0
100
AcDbLine
 10
11423.96034945222
 20
-4420.777406699797
 30
0.0
 11
11423.96034945222
 21
-4417.777406699797
 31
0.0
  0
LINE
  5
155
330
25
100
AcDbEntity
  8
1
  6
Continuous
 62
     0
100
AcDbLine
 10
11393.96034945222
 20
-4420.777406699797
 30
0.0
 11
11423.96034945222
 21
-4420.777406699797
 31
0.0
  0
LINE
  5
154
330
25
100
AcDbEntity
  8
1
  6
Continuous
 62
     0
100
AcDbLine
 10
11393.96034945222
 20
-4417.777406699797
 30
0.0
 11
11393.96034945222
 21
-4420.777406699797
 31
0.0
  0
LINE
  5
153
330
25
100
AcDbEntity
  8
1
  6
Continuous
 62
     0
100
AcDbLine
 10
11411.03653992841
 20
-4424.777406699797
 30
0.0
 11
11409.89368278555
 21
-4420.777406699797
 31
0.0
  0
LINE
  5
152
330
25
100
AcDbEntity
  8
1
  6
Continuous
 62
     0
100
AcDbLine
 10
11408.02701611889
 20
-4424.777406699797
 30
0.0
 11
11406.88415897603
 21
-4420.777406699797
 31
0.0
  0
LINE
  5
151
330
25
100
AcDbEntity
  8
1
  6
Continuous
 62
     0
100
AcDbLine
 10
11422.96034945222
 20
-4424.777406699797
 30
0.0
 11
11422.96034945222
 21
-4420.777406699797
 31
0.0
  0
LINE
  5
150
330
25
100
AcDbEntity
  8
1
  6
Continuous
 62
     0
100
AcDbLine
 10
11394.96034945222
 20
-4424.777406699797
 30
0.0
 11
11422.96034945222
 21
-4424.777406699797
 31
0.0
  0
LINE
  5
14F
330
25
100
AcDbEntity
  8
1
  6
Continuous
 62
     0
100
AcDbLine
 10
11394.96034945222
 20
-4420.777406699797
 30
0.0
 11
11394.96034945222
 21
-4424.777406699797
 31
0.0
  0
LINE
  5
14E
330
25
100
AcDbEntity
  8
1
  6
Continuous
 62
     0
100
AcDbLine
 10
11415.8885526825
 20
-4424.777406699797
 30
0.0
 11
11415.8885526825
 21
-4433.705609930071
 31
0.0
  0
LINE
  5
14D
330
25
100
AcDbEntity
  8
1
  6
Continuous
 62
     0
100
AcDbLine
 10
11402.03214622195
 20
-4424.777406699797
 30
0.0
 11
11402.03214622195
 21
-4433.705609930071
 31
0.0
  0
LINE
  5
14C
330
25
100
AcDbEntity
  8
1
  6
Continuous
 62
     0
100
AcDbLine
 10
11422.81675591277
 20
-4433.705609930071
 30
0.0
 11
11422.81675591277
 21
-4424.777406699797
 31
0.0
  0
LINE
  5
14B
330
25
100
AcDbEntity
  8
1
  6
Continuous
 62
     0
100
AcDbLine
 10
11396.96034945222
 20
-4434.777406699797
 30
0.0
 11
11420.96034945222
 21
-4434.777406699797
 31
0.0
  0
LINE
  5
14A
330
25
100
AcDbEntity
  8
1
  6
Continuous
 62
     0
100
AcDbLine
 10
11395.10394299167
 20
-4424.777406699797
 30
0.0
 11
11395.10394299167
 21
-4433.705609930071
 31
0.0
  0
LINE
  5
149
330
25
100
AcDbEntity
  8
1
  6
Continuous
 62
     0
100
AcDbLine
 10
11395.10394299167
 20
-4433.705609930071
 30
0.0
 11
11396.96034945222
 21
-4434.777406699797
 31
0.0
  0
LINE
  5
148
330
25
100
AcDbEntity
  8
1
  6
Continuous
 62
     0
100
AcDbLine
 10
11420.96034945222
 20
-4434.777406699797
 30
0.0
 11
11422.81675591277
 21
-4433.705609930071
 31
0.0
  0
LINE
  5
147
330
25
100
AcDbEntity
  8
1
  6
Continuous
 62
     0
100
AcDbLine
 10
10739.21787867027
 20
-3879.277406699796
 30
0.0
 11
10727.71915181185
 21
-3879.277406699796
 31
0.0
  0
LINE
  5
145
330
25
100
AcDbEntity
  8
1
  6
Continuous
 62
     0
100
AcDbLine
 10
10721.71915181185
 20
-3896.777406699796
 30
0.0
 11
10721.71915181185
 21
-3884.777406699796
 31
0.0
  0
LINE
  5
144
330
25
100
AcDbEntity
  8
1
  6
Continuous
 62
     0
100
AcDbLine
 10
10733.71915181185
 20
-3896.777406699796
 30
0.0
 11
10721.71915181185
 21
-3896.777406699796
 31
0.0
  0
LINE
  5
143
330
25
100
AcDbEntity
  8
1
  6
Continuous
 62
     0
100
AcDbLine
 10
10733.71915181185
 20
-3884.777406699796
 30
0.0
 11
10733.71915181185
 21
-3896.777406699796
 31
0.0
  0
LINE
  5
142
330
25
100
AcDbEntity
  8
1
  6
Continuous
 62
     0
100
AcDbLine
 10
10721.71915181185
 20
-3884.777406699796
 30
0.0
 11
10733.71915181185
 21
-3884.777406699796
 31
0.0
  0
LINE
  5
141
330
25
100
AcDbEntity
  8
1
  6
Continuous
 62
     0
100
AcDbLine
 10
10733.71915181185
 20
-3884.777406699796
 30
0.0
 11
10721.71915181185
 21
-3896.777406699796
 31
0.0
  0
LINE
  5
140
330
25
100
AcDbEntity
  8
1
  6
Continuous
 62
     0
100
AcDbLine
 10
10721.71915181185
 20
-3884.777406699796
 30
0.0
 11
10733.71915181185
 21
-3896.777406699796
 31
0.0
  0
LINE
  5
13D
330
25
100
AcDbEntity
  8
1
  6
Continuous
 62
     0
100
AcDbLine
 10
10688.71915181185
 20
-3902.777406699797
 30
0.0
 11
10688.71915181185
 21
-3871.777406699797
 31
0.0
  0
LINE
  5
13C
330
25
100
AcDbEntity
  8
1
  6
Continuous
 62
     0
100
AcDbLine
 10
10739.21787867027
 20
-3904.777406699797
 30
0.0
 11
10690.71915181185
 21
-3904.777406699797
 31
0.0
  0
LINE
  5
13B
330
25
100
AcDbEntity
  8
1
  6
Continuous
 62
     0
100
AcDbLine
 10
10716.40745414876
 20
-3890.777406699796
 30
0.0
 11
10688.71915181185
 21
-3890.777406699796
 31
0.0
  0
LINE
  5
13A
330
25
100
AcDbEntity
  8
1
  6
Continuous
 62
     0
100
AcDbLine
 10
11318.06787867027
 20
-3358.777406699796
 30
0.0
 11
11384.36787867026
 21
-3358.777406699796
 31
0.0
  0
LINE
  5
139
330
25
100
AcDbEntity
  8
1
  6
Continuous
 62
     0
100
AcDbLine
 10
11384.36787867026
 20
-3358.777406699796
 30
0.0
 11
11384.36787867026
 21
-3378.777406699796
 31
0.0
  0
LINE
  5
138
330
25
100
AcDbEntity
  8
1
  6
Continuous
 62
     0
100
AcDbLine
 10
11318.06787867027
 20
-3358.777406699796
 30
0.0
 11
11318.06787867027
 21
-3378.777406699796
 31
0.0
  0
LINE
  5
137
330
25
100
AcDbEntity
  8
1
  6
Continuous
 62
     0
100
AcDbLine
 10
11318.06787867027
 20
-3358.777406699796
 30
0.0
 11
11384.36787867026
 21
-3358.777406699796
 31
0.0
  0
LINE
  5
136
330
25
100
AcDbEntity
  8
1
  6
Continuous
 62
     0
100
AcDbLine
 10
11381.46787867026
 20
-3347.657406699797
 30
0.0
 11
11320.96787867026
 21
-3347.657406699797
 31
0.0
  0
LINE
  5
135
330
25
100
AcDbEntity
  8
1
  6
Continuous
 62
     0
100
AcDbLine
 10
11320.96787867026
 20
-3343.657406699797
 30
0.0
 11
11381.46787867026
 21
-3343.657406699797
 31
0.0
  0
LINE
  5
134
330
25
100
AcDbEntity
  8
1
  6
Continuous
 62
     0
100
AcDbLine
 10
11381.46787867026
 20
-3347.657406699797
 30
0.0
 11
11381.46787867026
 21
-3343.657406699797
 31
0.0
  0
LINE
  5
133
330
25
100
AcDbEntity
  8
1
  6
Continuous
 62
     0
100
AcDbLine
 10
11320.96787867026
 20
-3343.657406699797
 30
0.0
 11
11320.96787867026
 21
-3347.657406699797
 31
0.0
  0
LINE
  5
132
330
25
100
AcDbEntity
  8
1
  6
Continuous
 62
     0
100
AcDbLine
 10
11381.02487867027
 20
-3358.777406699796
 30
0.0
 11
11381.46787867026
 21
-3347.657406699797
 31
0.0
  0
LINE
  5
131
330
25
100
AcDbEntity
  8
1
  6
Continuous
 62
     0
100
AcDbLine
 10
11321.41087867027
 20
-3358.777406699796
 30
0.0
 11
11320.96787867026
 21
-3347.657406699797
 31
0.0
  0
LINE
  5
130
330
25
100
AcDbEntity
  8
1
  6
Continuous
 62
     0
100
AcDbLine
 10
11381.02487867027
 20
-3332.537406699797
 30
0.0
 11
11381.46787867026
 21
-3343.657406699797
 31
0.0
  0
LINE
  5
12F
330
25
100
AcDbEntity
  8
1
  6
Continuous
 62
     0
100
AcDbLine
 10
11320.96787867026
 20
-3343.657406699797
 30
0.0
 11
11321.41087867027
 21
-3332.537406699797
 31
0.0
  0
LINE
  5
12E
330
25
100
AcDbEntity
  8
1
  6
Continuous
 62
     0
100
AcDbLine
 10
11316.7163341377
 20
-3322.152583165056
 30
0.0
 11
11316.7163341377
 21
-3313.042089204594
 31
0.0
  0
LINE
  5
12D
330
25
100
AcDbEntity
  8
1
  6
Continuous
 62
     0
100
AcDbLine
 10
11351.21787867026
 20
-3332.537406699797
 30
0.0
 11
11387.21942320284
 21
-3332.537406699797
 31
0.0
  0
LINE
  5
12C
330
25
100
AcDbEntity
  8
1
  6
Continuous
 62
     0
100
AcDbLine
 10
11387.21942320284
 20
-3332.537406699797
 30
0.0
 11
11387.21942320284
 21
-3327.537406699797
 31
0.0
  0
LINE
  5
12B
330
25
100
AcDbEntity
  8
1
  6
Continuous
 62
     0
100
AcDbLine
 10
11315.2163341377
 20
-3332.537406699797
 30
0.0
 11
11315.2163341377
 21
-3327.537406699797
 31
0.0
  0
LINE
  5
12A
330
25
100
AcDbEntity
  8
1
  6
Continuous
 62
     0
100
AcDbLine
 10
11316.7163341377
 20
-3327.537406699797
 30
0.0
 11
11385.71942320284
 21
-3327.537406699797
 31
0.0
  0
LINE
  5
129
330
25
100
AcDbEntity
  8
1
  6
Continuous
 62
     0
100
AcDbLine
 10
11315.2163341377
 20
-3327.537406699797
 30
0.0
 11
11316.7163341377
 21
-3327.537406699797
 31
0.0
  0
LINE
  5
128
330
25
100
AcDbEntity
  8
1
  6
Continuous
 62
     0
100
AcDbLine
 10
11387.21942320284
 20
-3327.537406699797
 30
0.0
 11
11385.71942320284
 21
-3327.537406699797
 31
0.0
  0
LINE
  5
127
330
25
100
AcDbEntity
  8
1
  6
Continuous
 62
     0
100
AcDbLine
 10
11315.2163341377
 20
-3332.537406699797
 30
0.0
 11
11351.21787867026
 21
-3332.537406699797
 31
0.0
  0
LINE
  5
126
330
25
100
AcDbEntity
  8
1
  6
Continuous
 62
     0
100
AcDbLine
 10
11385.71942320284
 20
-3322.152583165056
 30
0.0
 11
11385.71942320284
 21
-3315.042089204594
 31
0.0
  0
LINE
  5
125
330
25
100
AcDbEntity
  8
1
  6
Continuous
 62
     0
100
AcDbLine
 10
11385.71942320284
 20
-3287.518114746279
 30
0.0
 11
11385.71942320284
 21
-3322.152583165056
 31
0.0
  0
LINE
  5
124
330
25
100
AcDbEntity
  8
1
  6
Continuous
 62
     0
100
AcDbLine
 10
11316.7163341377
 20
-3322.152583165056
 30
0.0
 11
11316.7163341377
 21
-3287.963214059816
 31
0.0
  0
LINE
  5
122
330
25
100
AcDbEntity
  8
1
  6
Continuous
 62
     0
100
AcDbLine
 10
11351.21787867026
 20
-3252.435492264787
 30
0.0
 11
11364.02543402723
 21
-3259.829937797791
 31
0.0
  0
LINE
  5
121
330
25
100
AcDbEntity
  8
1
  6
Continuous
 62
     0
100
AcDbLine
 10
11338.4103233133
 20
-3259.829937797791
 30
0.0
 11
11351.21787867026
 21
-3252.435492264787
 31
0.0
  0
LINE
  5
120
330
25
100
AcDbEntity
  8
1
  6
Continuous
 62
     0
100
AcDbLine
 10
10727.71915181185
 20
-3902.277406699796
 30
0.0
 11
10739.21787867027
 21
-3902.277406699796
 31
0.0
  0
LINE
  5
11F
330
25
100
AcDbEntity
  8
1
  6
Continuous
 62
     0
100
AcDbLine
 10
10690.71915181185
 20
-3869.777406699797
 30
0.0
 11
10739.21787867027
 21
-3869.777406699797
 31
0.0
  0
LINE
  5
11B
330
25
100
AcDbEntity
  8
1
  6
Continuous
 62
     0
100
AcDbLine
 10
11324.71787867026
 20
-850.959460227497
 30
0.0
 11
11377.71787867026
 21
-850.959460227497
 31
0.0
  0
LINE
  5
11A
330
25
100
AcDbEntity
  8
1
  6
Continuous
 62
     0
100
AcDbLine
 10
11377.71787867026
 20
-850.959460227497
 30
0.0
 11
11377.71787867026
 21
-855.959460227497
 31
0.0
  0
LINE
  5
119
330
25
100
AcDbEntity
  8
1
  6
Continuous
 62
     0
100
AcDbLine
 10
11377.71787867026
 20
-855.959460227497
 30
0.0
 11
11377.61787867026
 21
-855.959460227497
 31
0.0
  0
LINE
  5
118
330
25
100
AcDbEntity
  8
1
  6
Continuous
 62
     0
100
AcDbLine
 10
11324.71787867026
 20
-855.959460227497
 30
0.0
 11
11324.71787867026
 21
-850.959460227497
 31
0.0
  0
LINE
  5
117
330
25
100
AcDbEntity
  8
1
  6
Continuous
 62
     0
100
AcDbLine
 10
11376.21787867026
 20
-857.359460227498
 30
0.0
 11
11376.21787867026
 21
-874.211804114619
 31
0.0
  0
LINE
  5
116
330
25
100
AcDbEntity
  8
1
  6
Continuous
 62
     0
100
AcDbLine
 10
11377.71787867026
 20
-855.959460227497
 30
0.0
 11
11324.71787867026
 21
-855.959460227497
 31
0.0
  0
LINE
  5
115
330
25
100
AcDbEntity
  8
1
  6
Continuous
 62
     0
100
AcDbLine
 10
11324.81787867027
 20
-855.959460227497
 30
0.0
 11
11324.71787867026
 21
-855.959460227497
 31
0.0
  0
LINE
  5
114
330
25
100
AcDbEntity
  8
1
  6
Continuous
 62
     0
100
AcDbLine
 10
11326.21787867026
 20
-874.211804114619
 30
0.0
 11
11326.21787867026
 21
-857.359460227498
 31
0.0
  0
LINE
  5
113
330
25
100
AcDbEntity
  8
1
  6
Continuous
 62
     0
100
AcDbLine
 10
11372.17287867026
 20
-826.359460227498
 30
0.0
 11
11372.56787867027
 21
-837.109460227498
 31
0.0
  0
LINE
  5
112
330
25
100
AcDbEntity
  8
1
  6
Continuous
 62
     0
100
AcDbLine
 10
11330.26287867026
 20
-850.959460227497
 30
0.0
 11
11329.86787867026
 21
-840.209460227497
 31
0.0
  0
LINE
  5
111
330
25
100
AcDbEntity
  8
1
  6
Continuous
 62
     0
100
AcDbLine
 10
11372.17287867026
 20
-850.959460227497
 30
0.0
 11
11372.56787867027
 21
-840.209460227497
 31
0.0
  0
LINE
  5
110
330
25
100
AcDbEntity
  8
1
  6
Continuous
 62
     0
100
AcDbLine
 10
11329.86787867026
 20
-837.109460227498
 30
0.0
 11
11330.26287867026
 21
-826.359460227498
 31
0.0
  0
LINE
  5
10F
330
25
100
AcDbEntity
  8
1
  6
Continuous
 62
     0
100
AcDbLine
 10
11372.56787867027
 20
-840.209460227497
 30
0.0
 11
11372.56787867027
 21
-837.109460227498
 31
0.0
  0
LINE
  5
10E
330
25
100
AcDbEntity
  8
1
  6
Continuous
 62
     0
100
AcDbLine
 10
11329.86787867026
 20
-837.109460227498
 30
0.0
 11
11329.86787867026
 21
-840.209460227497
 31
0.0
  0
LINE
  5
10D
330
25
100
AcDbEntity
  8
1
  6
Continuous
 62
     0
100
AcDbLine
 10
11372.56787867027
 20
-837.109460227498
 30
0.0
 11
11329.86787867026
 21
-837.109460227498
 31
0.0
  0
LINE
  5
10C
330
25
100
AcDbEntity
  8
1
  6
Continuous
 62
     0
100
AcDbLine
 10
11372.56787867027
 20
-840.209460227497
 30
0.0
 11
11329.86787867026
 21
-840.209460227497
 31
0.0
  0
LINE
  5
10B
330
25
100
AcDbEntity
  8
1
  6
Continuous
 62
     0
100
AcDbLine
 10
11385.71787867027
 20
-729.859460227498
 30
0.0
 11
11307.21787867026
 21
-729.859460227497
 31
0.0
  0
LINE
  5
10A
330
25
100
AcDbEntity
  8
1
  6
Continuous
 62
     0
100
AcDbLine
 10
11302.21787867026
 20
-734.859460227497
 30
0.0
 11
11302.21787867026
 21
-798.359460227498
 31
0.0
  0
LINE
  5
109
330
25
100
AcDbEntity
  8
1
  6
Continuous
 62
     0
100
AcDbLine
 10
11399.21787867026
 20
-793.359460227498
 30
0.0
 11
11399.21787867026
 21
-798.359460227498
 31
0.0
  0
LINE
  5
108
330
25
100
AcDbEntity
  8
1
  6
Continuous
 62
     0
100
AcDbLine
 10
11397.21787867026
 20
-800.359460227498
 30
0.0
 11
11307.46787867026
 21
-800.359460227498
 31
0.0
  0
LINE
  5
107
330
25
100
AcDbEntity
  8
1
  6
Continuous
 62
     0
100
AcDbLine
 10
11318.27027171403
 20
-711.109460227497
 30
0.0
 11
11313.27027171403
 21
-713.996211573446
 31
0.0
  0
LINE
  5
106
330
25
100
AcDbEntity
  8
1
  6
Continuous
 62
     0
100
AcDbLine
 10
11384.52027171403
 20
-711.109460227497
 30
0.0
 11
11389.52027171403
 21
-713.996211573446
 31
0.0
  0
LINE
  5
105
330
25
100
AcDbEntity
  8
1
  6
Continuous
 62
     0
100
AcDbLine
 10
11384.52027171403
 20
-711.109460227497
 30
0.0
 11
11318.27027171403
 21
-711.109460227497
 31
0.0
  0
LINE
  5
104
330
25
100
AcDbEntity
  8
1
  6
Continuous
 62
     0
100
AcDbLine
 10
11325.14527171403
 20
-711.109460227497
 30
0.0
 11
11377.64527171403
 21
-711.109460227497
 31
0.0
  0
LINE
  5
103
330
25
100
AcDbEntity
  8
1
  6
Continuous
 62
     0
100
AcDbLine
 10
11332.15537867026
 20
-729.859460227497
 30
0.0
 11
11332.15537867026
 21
-713.996211573446
 31
0.0
  0
LINE
  5
102
330
25
100
AcDbEntity
  8
1
  6
Continuous
 62
     0
100
AcDbLine
 10
11370.28037867026
 20
-729.859460227497
 30
0.0
 11
11370.28037867026
 21
-713.996211573446
 31
0.0
  0
LINE
  5
101
330
25
100
AcDbEntity
  8
1
  6
Continuous
 62
     0
100
AcDbLine
 10
11318.09287867026
 20
-711.109460227497
 30
0.0
 11
11313.09287867026
 21
-713.996211573446
 31
0.0
  0
LINE
  5
100
330
25
100
AcDbEntity
  8
1
  6
Continuous
 62
     0
100
AcDbLine
 10
11384.34287867026
 20
-711.109460227497
 30
0.0
 11
11389.34287867026
 21
-713.996211573446
 31
0.0
  0
LINE
  5
FF
330
25
100
AcDbEntity
  8
1
  6
Continuous
 62
     0
100
AcDbLine
 10
11389.34287867026
 20
-729.859460227497
 30
0.0
 11
11389.34287867026
 21
-713.996211573446
 31
0.0
  0
LINE
  5
FE
330
25
100
AcDbEntity
  8
1
  6
Continuous
 62
     0
100
AcDbLine
 10
11384.34287867026
 20
-711.109460227497
 30
0.0
 11
11318.09287867026
 21
-711.109460227497
 31
0.0
  0
LINE
  5
FD
330
25
100
AcDbEntity
  8
1
  6
Continuous
 62
     0
100
AcDbLine
 10
11313.09287867026
 20
-713.996211573446
 30
0.0
 11
11313.09287867026
 21
-729.859460227497
 31
0.0
  0
LINE
  5
FC
330
25
100
AcDbEntity
  8
1
  6
Continuous
 62
     0
100
AcDbLine
 10
11313.09287867026
 20
-729.859460227497
 30
0.0
 11
11389.34287867026
 21
-729.859460227497
 31
0.0
  0
LINE
  5
FB
330
25
100
AcDbEntity
  8
1
  6
Continuous
 62
     0
100
AcDbLine
 10
11324.96787867026
 20
-711.109460227497
 30
0.0
 11
11377.46787867026
 21
-711.109460227497
 31
0.0
  0
LINE
  5
FA
330
25
100
AcDbEntity
  8
1
  6
Continuous
 62
     0
100
AcDbLine
 10
13719.35286132678
 20
-800.359460227498
 30
0.0
 11
13629.60286132678
 21
-800.359460227498
 31
0.0
  0
LINE
  5
F9
330
25
100
AcDbEntity
  8
1
  6
Continuous
 62
     0
100
AcDbLine
 10
13694.70286132678
 20
-840.209460227497
 30
0.0
 11
13652.00286132678
 21
-840.209460227497
 31
0.0
  0
LINE
  5
F8
330
25
100
AcDbEntity
  8
1
  6
Continuous
 62
     0
100
AcDbLine
 10
13694.70286132678
 20
-837.109460227498
 30
0.0
 11
13652.00286132678
 21
-837.109460227498
 31
0.0
  0
LINE
  5
F7
330
25
100
AcDbEntity
  8
1
  6
Continuous
 62
     0
100
AcDbLine
 10
13652.00286132678
 20
-837.109460227498
 30
0.0
 11
13652.00286132678
 21
-840.209460227497
 31
0.0
  0
LINE
  5
F6
330
25
100
AcDbEntity
  8
1
  6
Continuous
 62
     0
100
AcDbLine
 10
13694.70286132678
 20
-840.209460227497
 30
0.0
 11
13694.70286132678
 21
-837.109460227498
 31
0.0
  0
LINE
  5
F5
330
25
100
AcDbEntity
  8
1
  6
Continuous
 62
     0
100
AcDbLine
 10
13652.00286132678
 20
-837.109460227498
 30
0.0
 11
13652.39786132678
 21
-826.359460227498
 31
0.0
  0
LINE
  5
F4
330
25
100
AcDbEntity
  8
1
  6
Continuous
 62
     0
100
AcDbLine
 10
13694.30786132678
 20
-850.959460227497
 30
0.0
 11
13694.70286132678
 21
-840.209460227497
 31
0.0
  0
LINE
  5
F3
330
25
100
AcDbEntity
  8
1
  6
Continuous
 62
     0
100
AcDbLine
 10
13652.39786132678
 20
-850.959460227497
 30
0.0
 11
13652.00286132678
 21
-840.209460227497
 31
0.0
  0
LINE
  5
F2
330
25
100
AcDbEntity
  8
1
  6
Continuous
 62
     0
100
AcDbLine
 10
13694.30786132678
 20
-826.359460227498
 30
0.0
 11
13694.70286132678
 21
-837.109460227498
 31
0.0
  0
LINE
  5
F1
330
25
100
AcDbEntity
  8
1
  6
Continuous
 62
     0
100
AcDbLine
 10
13648.35286132678
 20
-887.195030934806
 30
0.0
 11
13648.35286132678
 21
-857.359460227498
 31
0.0
  0
LINE
  5
F0
330
25
100
AcDbEntity
  8
1
  6
Continuous
 62
     0
100
AcDbLine
 10
13646.95286132678
 20
-855.959460227497
 30
0.0
 11
13646.85286132678
 21
-855.959460227497
 31
0.0
  0
LINE
  5
EF
330
25
100
AcDbEntity
  8
1
  6
Continuous
 62
     0
100
AcDbLine
 10
13699.85286132678
 20
-855.959460227497
 30
0.0
 11
13699.35754383158
 21
-855.959460227497
 31
0.0
  0
LINE
  5
EE
330
25
100
AcDbEntity
  8
1
  6
Continuous
 62
     0
100
AcDbLine
 10
13646.85286132678
 20
-855.959460227497
 30
0.0
 11
13646.85286132678
 21
-850.959460227497
 31
0.0
  0
LINE
  5
ED
330
25
100
AcDbEntity
  8
1
  6
Continuous
 62
     0
100
AcDbLine
 10
13699.85286132678
 20
-855.959460227497
 30
0.0
 11
13699.75286132678
 21
-855.959460227497
 31
0.0
  0
LINE
  5
EC
330
25
100
AcDbEntity
  8
1
  6
Continuous
 62
     0
100
AcDbLine
 10
13699.85286132678
 20
-850.959460227497
 30
0.0
 11
13699.85286132678
 21
-855.959460227497
 31
0.0
  0
LINE
  5
EB
330
25
100
AcDbEntity
  8
1
  6
Continuous
 62
     0
100
AcDbLine
 10
13646.85286132678
 20
-850.959460227497
 30
0.0
 11
13699.85286132678
 21
-850.959460227497
 31
0.0
  0
LINE
  5
EA
330
25
100
AcDbEntity
  8
1
  6
Continuous
 62
     0
100
AcDbLine
 10
13629.60286132678
 20
-800.359460227498
 30
0.0
 11
13629.60286132678
 21
-803.859460227498
 31
0.0
  0
LINE
  5
E9
330
25
100
AcDbEntity
  8
1
  6
Continuous
 62
     0
100
AcDbLine
 10
13717.10286132678
 20
-800.359460227498
 30
0.0
 11
13717.10286132678
 21
-803.859460227498
 31
0.0
  0
LINE
  5
E8
330
25
100
AcDbEntity
  8
1
  6
Continuous
 62
     0
100
AcDbLine
 10
13635.40525437055
 20
-823.472708881549
 30
0.0
 11
13640.40525437055
 21
-826.359460227498
 31
0.0
  0
LINE
  5
E7
330
25
100
AcDbEntity
  8
1
  6
Continuous
 62
     0
100
AcDbLine
 10
13711.65525437055
 20
-823.472708881549
 30
0.0
 11
13706.65525437055
 21
-826.359460227498
 31
0.0
  0
LINE
  5
E6
330
25
100
AcDbEntity
  8
1
  6
Continuous
 62
     0
100
AcDbLine
 10
13640.40525437055
 20
-826.359460227498
 30
0.0
 11
13706.65525437055
 21
-826.359460227498
 31
0.0
  0
LINE
  5
E5
330
25
100
AcDbEntity
  8
1
  6
Continuous
 62
     0
100
AcDbLine
 10
13699.78025437055
 20
-826.359460227498
 30
0.0
 11
13647.28025437055
 21
-826.359460227498
 31
0.0
  0
LINE
  5
E4
330
25
100
AcDbEntity
  8
1
  6
Continuous
 62
     0
100
AcDbLine
 10
13654.29036132678
 20
-823.472708881549
 30
0.0
 11
13654.29036132678
 21
-807.609460227498
 31
0.0
  0
LINE
  5
E3
330
25
100
AcDbEntity
  8
1
  6
Continuous
 62
     0
100
AcDbLine
 10
13692.41536132678
 20
-823.472708881549
 30
0.0
 11
13692.41536132678
 21
-807.609460227498
 31
0.0
  0
LINE
  5
E2
330
25
100
AcDbEntity
  8
1
  6
Continuous
 62
     0
100
AcDbLine
 10
13635.22786132678
 20
-823.472708881549
 30
0.0
 11
13640.22786132678
 21
-826.359460227498
 31
0.0
  0
LINE
  5
E1
330
25
100
AcDbEntity
  8
1
  6
Continuous
 62
     0
100
AcDbLine
 10
13711.47786132678
 20
-823.472708881549
 30
0.0
 11
13706.47786132678
 21
-826.359460227498
 31
0.0
  0
LINE
  5
E0
330
25
100
AcDbEntity
  8
1
  6
Continuous
 62
     0
100
AcDbLine
 10
13711.47786132678
 20
-823.472708881549
 30
0.0
 11
13711.47786132678
 21
-807.609460227498
 31
0.0
  0
LINE
  5
DF
330
25
100
AcDbEntity
  8
1
  6
Continuous
 62
     0
100
AcDbLine
 10
13640.22786132678
 20
-826.359460227498
 30
0.0
 11
13706.47786132678
 21
-826.359460227498
 31
0.0
  0
LINE
  5
DE
330
25
100
AcDbEntity
  8
1
  6
Continuous
 62
     0
100
AcDbLine
 10
13717.10286132678
 20
-800.359460227498
 30
0.0
 11
13626.35286132678
 21
-800.359460227498
 31
0.0
  0
LINE
  5
DD
330
25
100
AcDbEntity
  8
1
  6
Continuous
 62
     0
100
AcDbLine
 10
13713.35286132678
 20
-807.609460227498
 30
0.0
 11
13633.35286132678
 21
-807.609460227498
 31
0.0
  0
LINE
  5
DC
330
25
100
AcDbEntity
  8
1
  6
Continuous
 62
     0
100
AcDbLine
 10
13635.22786132678
 20
-807.609460227498
 30
0.0
 11
13635.22786132678
 21
-823.472708881549
 31
0.0
  0
LINE
  5
DB
330
25
100
AcDbEntity
  8
1
  6
Continuous
 62
     0
100
AcDbLine
 10
13711.47786132678
 20
-807.609460227498
 30
0.0
 11
13635.22786132678
 21
-807.609460227498
 31
0.0
  0
LINE
  5
DA
330
25
100
AcDbEntity
  8
1
  6
Continuous
 62
     0
100
AcDbLine
 10
13717.10286132678
 20
-800.359460227498
 30
0.0
 11
13629.60286132678
 21
-800.359460227498
 31
0.0
  0
LINE
  5
D9
330
25
100
AcDbEntity
  8
1
  6
Continuous
 62
     0
100
AcDbLine
 10
13699.60286132678
 20
-826.359460227498
 30
0.0
 11
13647.10286132678
 21
-826.359460227498
 31
0.0
  0
LINE
  5
D8
330
25
100
AcDbEntity
  8
1
  6
Continuous
 62
     0
100
AcDbLine
 10
13697.85754383158
 20
-855.959460227497
 30
0.0
 11
13646.85286132678
 21
-855.959460227497
 31
0.0
  0
LINE
  5
D7
330
25
100
AcDbEntity
  8
1
  6
Continuous
 62
     0
100
AcDbLine
 10
13647.10286132678
 20
-711.109460227497
 30
0.0
 11
13699.60286132678
 21
-711.109460227497
 31
0.0
  0
LINE
  5
D6
330
25
100
AcDbEntity
  8
1
  6
Continuous
 62
     0
100
AcDbLine
 10
13635.22786132678
 20
-729.859460227497
 30
0.0
 11
13711.47786132678
 21
-729.859460227497
 31
0.0
  0
LINE
  5
D5
330
25
100
AcDbEntity
  8
1
  6
Continuous
 62
     0
100
AcDbLine
 10
13635.22786132678
 20
-713.996211573446
 30
0.0
 11
13635.22786132678
 21
-729.859460227497
 31
0.0
  0
LINE
  5
D4
330
25
100
AcDbEntity
  8
1
  6
Continuous
 62
     0
100
AcDbLine
 10
13706.47786132678
 20
-711.109460227497
 30
0.0
 11
13640.22786132678
 21
-711.109460227497
 31
0.0
  0
LINE
  5
D3
330
25
100
AcDbEntity
  8
1
  6
Continuous
 62
     0
100
AcDbLine
 10
13711.47786132678
 20
-729.859460227497
 30
0.0
 11
13711.47786132678
 21
-713.996211573446
 31
0.0
  0
LINE
  5
D2
330
25
100
AcDbEntity
  8
1
  6
Continuous
 62
     0
100
AcDbLine
 10
13706.47786132678
 20
-711.109460227497
 30
0.0
 11
13711.47786132678
 21
-713.996211573446
 31
0.0
  0
LINE
  5
D1
330
25
100
AcDbEntity
  8
1
  6
Continuous
 62
     0
100
AcDbLine
 10
13640.22786132678
 20
-711.109460227497
 30
0.0
 11
13635.22786132678
 21
-713.996211573446
 31
0.0
  0
LINE
  5
D0
330
25
100
AcDbEntity
  8
1
  6
Continuous
 62
     0
100
AcDbLine
 10
13692.41536132678
 20
-729.859460227497
 30
0.0
 11
13692.41536132678
 21
-713.996211573446
 31
0.0
  0
LINE
  5
CF
330
25
100
AcDbEntity
  8
1
  6
Continuous
 62
     0
100
AcDbLine
 10
13654.29036132678
 20
-729.859460227497
 30
0.0
 11
13654.29036132678
 21
-713.996211573446
 31
0.0
  0
LINE
  5
CE
330
25
100
AcDbEntity
  8
1
  6
Continuous
 62
     0
100
AcDbLine
 10
13647.28025437055
 20
-711.109460227497
 30
0.0
 11
13699.78025437055
 21
-711.109460227497
 31
0.0
  0
LINE
  5
CD
330
25
100
AcDbEntity
  8
1
  6
Continuous
 62
     0
100
AcDbLine
 10
13706.65525437055
 20
-711.109460227497
 30
0.0
 11
13640.40525437055
 21
-711.109460227497
 31
0.0
  0
LINE
  5
CC
330
25
100
AcDbEntity
  8
1
  6
Continuous
 62
     0
100
AcDbLine
 10
13706.65525437055
 20
-711.109460227497
 30
0.0
 11
13711.65525437055
 21
-713.996211573446
 31
0.0
  0
LINE
  5
CB
330
25
100
AcDbEntity
  8
1
  6
Continuous
 62
     0
100
AcDbLine
 10
13640.40525437055
 20
-711.109460227497
 30
0.0
 11
13635.40525437055
 21
-713.996211573446
 31
0.0
  0
LINE
  5
CA
330
25
100
AcDbEntity
  8
1
  6
Continuous
 62
     0
100
AcDbLine
 10
13719.35286132678
 20
-800.359460227498
 30
0.0
 11
13629.60286132678
 21
-800.359460227498
 31
0.0
  0
LINE
  5
C9
330
25
100
AcDbEntity
  8
1
  6
Continuous
 62
     0
100
AcDbLine
 10
13721.35286132678
 20
-734.859460227498
 30
0.0
 11
13721.35286132678
 21
-798.359460227498
 31
0.0
  0
LINE
  5
C8
330
25
100
AcDbEntity
  8
1
  6
Continuous
 62
     0
100
AcDbLine
 10
13624.35286132678
 20
-734.859460227497
 30
0.0
 11
13624.35286132678
 21
-798.359460227498
 31
0.0
  0
LINE
  5
C7
330
25
100
AcDbEntity
  8
1
  6
Continuous
 62
     0
100
AcDbLine
 10
13707.85286132678
 20
-729.859460227498
 30
0.0
 11
13629.35286132678
 21
-729.859460227497
 31
0.0
  0
LINE
  5
C6
330
25
100
AcDbEntity
  8
1
  6
Continuous
 62
     0
100
AcDbLine
 10
13650.35286132678
 20
-641.859460227498
 30
0.0
 11
13650.35286132678
 21
-684.282109958308
 31
0.0
  0
LINE
  5
C5
330
25
100
AcDbEntity
  8
1
  6
Continuous
 62
     0
100
AcDbLine
 10
13652.35286132678
 20
-641.859460227498
 30
0.0
 11
13652.35286132678
 21
-683.859460227498
 31
0.0
  0
LINE
  5
C4
330
25
100
AcDbEntity
  8
1
  6
Continuous
 62
     0
100
AcDbLine
 10
13665.01952799345
 20
-641.859460227498
 30
0.0
 11
13665.01952799345
 21
-683.859460227498
 31
0.0
  0
LINE
  5
C3
330
25
100
AcDbEntity
  8
1
  6
Continuous
 62
     0
100
AcDbLine
 10
13667.01952799345
 20
-641.859460227498
 30
0.0
 11
13667.01952799345
 21
-683.859460227498
 31
0.0
  0
LINE
  5
C2
330
25
100
AcDbEntity
  8
1
  6
Continuous
 62
     0
100
AcDbLine
 10
13679.68619466012
 20
-641.859460227498
 30
0.0
 11
13679.68619466012
 21
-683.859460227498
 31
0.0
  0
LINE
  5
C1
330
25
100
AcDbEntity
  8
1
  6
Continuous
 62
     0
100
AcDbLine
 10
13681.68619466012
 20
-641.859460227498
 30
0.0
 11
13681.68619466012
 21
-683.859460227498
 31
0.0
  0
LINE
  5
C0
330
25
100
AcDbEntity
  8
1
  6
Continuous
 62
     0
100
AcDbLine
 10
13694.35286132678
 20
-641.859460227498
 30
0.0
 11
13694.35286132678
 21
-683.859460227498
 31
0.0
  0
LINE
  5
BF
330
25
100
AcDbEntity
  8
1
  6
Continuous
 62
     0
100
AcDbLine
 10
13696.35286132678
 20
-641.859460227498
 30
0.0
 11
13696.35286132678
 21
-684.282109958308
 31
0.0
  0
LINE
  5
BE
330
25
100
AcDbEntity
  8
1
  6
Continuous
 62
     0
100
AcDbLine
 10
13629.60286132678
 20
-800.359460227498
 30
0.0
 11
13629.60286132678
 21
-803.859460227498
 31
0.0
  0
LINE
  5
BD
330
25
100
AcDbEntity
  8
1
  6
Continuous
 62
     0
100
AcDbLine
 10
13717.10286132678
 20
-800.359460227498
 30
0.0
 11
13717.10286132678
 21
-803.859460227498
 31
0.0
  0
LINE
  5
BC
330
25
100
AcDbEntity
  8
1
  6
Continuous
 62
     0
100
AcDbLine
 10
13717.10286132678
 20
-800.359460227498
 30
0.0
 11
13626.35286132678
 21
-800.359460227498
 31
0.0
  0
LINE
  5
BB
330
25
100
AcDbEntity
  8
1
  6
Continuous
 62
     0
100
AcDbLine
 10
13713.35286132678
 20
-807.609460227498
 30
0.0
 11
13633.35286132678
 21
-807.609460227498
 31
0.0
  0
LINE
  5
BA
330
25
100
AcDbEntity
  8
1
  6
Continuous
 62
     0
100
AcDbLine
 10
13711.47786132678
 20
-807.609460227498
 30
0.0
 11
13635.22786132678
 21
-807.609460227498
 31
0.0
  0
LINE
  5
B9
330
25
100
AcDbEntity
  8
1
  6
Continuous
 62
     0
100
AcDbLine
 10
13717.10286132678
 20
-800.359460227498
 30
0.0
 11
13629.60286132678
 21
-800.359460227498
 31
0.0
  0
LINE
  5
B8
330
25
100
AcDbEntity
  8
1
  6
Continuous
 62
     0
100
AcDbLine
 10
13707.85286132678
 20
-729.859460227498
 30
0.0
 11
13716.35286132678
 21
-729.859460227498
 31
0.0
  0
LINE
  5
B7
330
25
100
AcDbEntity
  8
1
  6
Continuous
 62
     0
100
AcDbLine
 10
13721.35286132678
 20
-734.859460227498
 30
0.0
 11
13721.35286132678
 21
-735.859460227498
 31
0.0
  0
LINE
  5
B6
330
25
100
AcDbEntity
  8
1
  6
Continuous
 62
     0
100
AcDbLine
 10
13646.85286132678
 20
-729.859460227497
 30
0.0
 11
13638.35286132678
 21
-729.859460227497
 31
0.0
  0
LINE
  5
B5
330
25
100
AcDbEntity
  8
1
  6
Continuous
 62
     0
100
AcDbLine
 10
13695.35286132678
 20
-684.859460227498
 30
0.0
 11
13651.35286132678
 21
-684.859460227498
 31
0.0
  0
LINE
  5
B4
330
25
100
AcDbEntity
  8
1
  6
Continuous
 62
     0
100
AcDbLine
 10
13695.35286132678
 20
-640.859460227498
 30
0.0
 11
13693.35286132678
 21
-640.859460227498
 31
0.0
  0
LINE
  5
B3
330
25
100
AcDbEntity
  8
1
  6
Continuous
 62
     0
100
AcDbLine
 10
13693.35286132678
 20
-640.859460227498
 30
0.0
 11
13653.35286132678
 21
-640.859460227498
 31
0.0
  0
LINE
  5
B2
330
25
100
AcDbEntity
  8
1
  6
Continuous
 62
     0
100
AcDbLine
 10
13651.35286132678
 20
-640.859460227498
 30
0.0
 11
13653.35286132678
 21
-640.859460227498
 31
0.0
  0
LINE
  5
B1
330
25
100
AcDbEntity
  8
1
  6
Continuous
 62
     0
100
AcDbLine
 10
13696.35286132678
 20
-640.859460227498
 30
0.0
 11
13695.35286132678
 21
-640.859460227498
 31
0.0
  0
LINE
  5
B0
330
25
100
AcDbEntity
  8
1
  6
Continuous
 62
     0
100
AcDbLine
 10
13650.35286132678
 20
-640.859460227498
 30
0.0
 11
13651.35286132678
 21
-640.859460227498
 31
0.0
  0
LINE
  5
AF
330
25
100
AcDbEntity
  8
1
  6
Continuous
 62
     0
100
AcDbLine
 10
13698.35286132678
 20
-711.109460227497
 30
0.0
 11
13698.35286132678
 21
-642.859460227498
 31
0.0
  0
LINE
  5
AE
330
25
100
AcDbEntity
  8
1
  6
Continuous
 62
     0
100
AcDbLine
 10
13648.35286132678
 20
-711.109460227497
 30
0.0
 11
13648.35286132678
 21
-642.859460227498
 31
0.0
  0
LINE
  5
AD
330
25
100
AcDbEntity
  8
1
  6
Continuous
 62
     0
100
AcDbLine
 10
13653.35286132678
 20
-636.859460227498
 30
0.0
 11
13653.35286132678
 21
-638.859460227498
 31
0.0
  0
LINE
  5
AC
330
25
100
AcDbEntity
  8
1
  6
Continuous
 62
     0
100
AcDbLine
 10
13654.35286132678
 20
-635.859460227498
 30
0.0
 11
13692.35286132678
 21
-635.859460227498
 31
0.0
  0
LINE
  5
AB
330
25
100
AcDbEntity
  8
1
  6
Continuous
 62
     0
100
AcDbLine
 10
13693.35286132678
 20
-636.859460227498
 30
0.0
 11
13693.35286132678
 21
-638.859460227498
 31
0.0
  0
LINE
  5
AA
330
25
100
AcDbEntity
  8
1
  6
Continuous
 62
     0
100
AcDbLine
 10
13664.10286132678
 20
-629.591511035067
 30
0.0
 11
13664.10286132678
 21
-635.859460227498
 31
0.0
  0
LINE
  5
A9
330
25
100
AcDbEntity
  8
1
  6
Continuous
 62
     0
100
AcDbLine
 10
13682.60286132678
 20
-629.591511035067
 30
0.0
 11
13682.60286132678
 21
-635.859460227498
 31
0.0
  0
LINE
  5
A8
330
25
100
AcDbEntity
  8
1
  6
Continuous
 62
     0
100
AcDbLine
 10
13658.35286132678
 20
-619.359460227498
 30
0.0
 11
13658.35286132678
 21
-627.859460227498
 31
0.0
  0
LINE
  5
A7
330
25
100
AcDbEntity
  8
1
  6
Continuous
 62
     0
100
AcDbLine
 10
13688.35286132678
 20
-619.359460227498
 30
0.0
 11
13688.35286132678
 21
-627.869759102148
 31
0.0
  0
LINE
  5
A6
330
25
100
AcDbEntity
  8
1
  6
Continuous
 62
     0
100
AcDbLine
 10
13657.85286132678
 20
-627.859460227498
 30
0.0
 11
13688.85286132678
 21
-627.859460227498
 31
0.0
  0
LINE
  5
A5
330
25
100
AcDbEntity
  8
1
  6
Continuous
 62
     0
100
AcDbLine
 10
13654.85286132678
 20
-629.591511035067
 30
0.0
 11
13657.85286132678
 21
-627.859460227498
 31
0.0
  0
LINE
  5
A4
330
25
100
AcDbEntity
  8
1
  6
Continuous
 62
     0
100
AcDbLine
 10
13654.85286132678
 20
-635.859460227498
 30
0.0
 11
13654.85286132678
 21
-629.591511035067
 31
0.0
  0
LINE
  5
A3
330
25
100
AcDbEntity
  8
1
  6
Continuous
 62
     0
100
AcDbLine
 10
13691.85286132678
 20
-635.859460227498
 30
0.0
 11
13654.85286132678
 21
-635.859460227498
 31
0.0
  0
LINE
  5
A2
330
25
100
AcDbEntity
  8
1
  6
Continuous
 62
     0
100
AcDbLine
 10
13691.85286132678
 20
-629.591511035067
 30
0.0
 11
13691.85286132678
 21
-635.859460227498
 31
0.0
  0
LINE
  5
A1
330
25
100
AcDbEntity
  8
1
  6
Continuous
 62
     0
100
AcDbLine
 10
13688.85286132678
 20
-627.859460227498
 30
0.0
 11
13691.85286132678
 21
-629.591511035067
 31
0.0
  0
LINE
  5
9D
330
25
100
AcDbEntity
  8
1
  6
Continuous
 62
     0
100
AcDbLine
 10
11406.21787867026
 20
-3256.218651707767
 30
0.0
 11
11406.21787867026
 21
-3313.577406699796
 31
0.0
  0
LINE
  5
9C
330
25
100
AcDbEntity
  8
1
  6
Continuous
 62
     0
100
AcDbLine
 10
11406.21787867026
 20
-3255.577406699796
 30
0.0
 11
11406.21787867026
 21
-3256.077406699796
 31
0.0
  0
LINE
  5
9B
330
25
100
AcDbEntity
  8
1
  6
Continuous
 62
     0
100
AcDbLine
 10
11411.21787867026
 20
-3255.577406699796
 30
0.0
 11
11406.21787867026
 21
-3255.577406699796
 31
0.0
  0
LINE
  5
9A
330
25
100
AcDbEntity
  8
1
  6
Continuous
 62
     0
100
AcDbLine
 10
11411.21787867026
 20
-3313.577406699796
 30
0.0
 11
11411.21787867026
 21
-3255.577406699796
 31
0.0
  0
LINE
  5
99
330
25
100
AcDbEntity
  8
1
  6
Continuous
 62
     0
100
AcDbLine
 10
11406.21787867026
 20
-3313.577406699796
 30
0.0
 11
11411.21787867026
 21
-3313.577406699796
 31
0.0
  0
LINE
  5
98
330
25
100
AcDbEntity
  8
1
  6
Continuous
 62
     0
100
AcDbLine
 10
11406.21787867026
 20
-3313.577406699796
 30
0.0
 11
11406.21787867026
 21
-3313.077406699796
 31
0.0
  0
LINE
  5
97
330
25
100
AcDbEntity
  8
1
  6
Continuous
 62
     0
100
AcDbLine
 10
11396.11776731155
 20
-3312.077406699796
 30
0.0
 11
11405.21787867026
 21
-3312.077406699796
 31
0.0
  0
LINE
  5
96
330
25
100
AcDbEntity
  8
1
  6
Continuous
 62
     0
100
AcDbLine
 10
11405.21787867026
 20
-3257.077406699796
 30
0.0
 11
11396.11776731155
 21
-3257.077406699796
 31
0.0
  0
LINE
  5
95
330
25
100
AcDbEntity
  8
1
  6
Continuous
 62
     0
100
AcDbLine
 10
10842.21787867026
 20
-2373.959460227498
 30
0.0
 11
10839.21787867026
 21
-2373.959460227498
 31
0.0
  0
LINE
  5
94
330
25
100
AcDbEntity
  8
1
  6
Continuous
 62
     0
100
AcDbLine
 10
10976.21787867026
 20
-2534.959460227498
 30
0.0
 11
10976.21787867026
 21
-2595.959460227499
 31
0.0
  0
LINE
  5
93
330
25
100
AcDbEntity
  8
1
  6
Continuous
 62
     0
100
AcDbLine
 10
11863.21787867026
 20
-2099.509460227499
 30
0.0
 11
11863.21787867026
 21
-2402.185235057354
 31
0.0
  0
LINE
  5
92
330
25
100
AcDbEntity
  8
1
  6
Continuous
 62
     0
100
AcDbLine
 10
10839.21787867026
 20
-130.959460227497
 30
0.0
 11
10839.21787867026
 21
-105.230799700636
 31
0.0
  0
LINE
  5
91
330
25
100
AcDbEntity
  8
1
  6
Continuous
 62
     0
100
AcDbLine
 10
11863.21787867026
 20
-105.230799700636
 30
0.0
 11
11863.21787867026
 21
-130.959460227497
 31
0.0
  0
LINE
  5
90
330
25
100
AcDbEntity
  8
1
  6
Continuous
 62
     0
100
AcDbLine
 10
10739.21787867026
 20
-1954.959460227498
 30
0.0
 11
10759.21787867026
 21
-1954.959460227498
 31
0.0
  0
LINE
  5
8F
330
25
100
AcDbEntity
  8
1
  6
Continuous
 62
     0
100
AcDbLine
 10
10759.21787867026
 20
-1954.959460227498
 30
0.0
 11
10759.21787867026
 21
-2154.959460227498
 31
0.0
  0
LINE
  5
8E
330
25
100
AcDbEntity
  8
1
  6
Continuous
 62
     0
100
AcDbLine
 10
10759.21787867026
 20
-2154.959460227498
 30
0.0
 11
10739.21787867026
 21
-2154.959460227498
 31
0.0
  0
LINE
  5
8D
330
25
100
AcDbEntity
  8
1
  6
Continuous
 62
     0
100
AcDbLine
 10
10739.21787867026
 20
-2154.959460227498
 30
0.0
 11
10739.21787867026
 21
-1954.959460227498
 31
0.0
  0
LINE
  5
8C
330
25
100
AcDbEntity
  8
1
  6
Continuous
 62
     0
100
AcDbLine
 10
10759.21787867026
 20
-2010.409460227498
 30
0.0
 11
10839.21787867026
 21
-2010.409460227498
 31
0.0
  0
LINE
  5
8B
330
25
100
AcDbEntity
  8
1
  6
Continuous
 62
     0
100
AcDbLine
 10
10759.21787867026
 20
-2099.509460227499
 30
0.0
 11
10839.21787867026
 21
-2099.509460227499
 31
0.0
  0
LINE
  5
8A
330
25
100
AcDbEntity
  8
1
  6
Continuous
 62
     0
100
AcDbLine
 10
11943.21787867026
 20
-804.959460227497
 30
0.0
 11
11963.21787867026
 21
-804.959460227497
 31
0.0
  0
LINE
  5
89
330
25
100
AcDbEntity
  8
1
  6
Continuous
 62
     0
100
AcDbLine
 10
11963.21787867026
 20
-804.959460227497
 30
0.0
 11
11963.21787867026
 21
-1004.959460227497
 31
0.0
  0
LINE
  5
88
330
25
100
AcDbEntity
  8
1
  6
Continuous
 62
     0
100
AcDbLine
 10
11963.21787867026
 20
-1004.959460227497
 30
0.0
 11
11943.21787867026
 21
-1004.959460227497
 31
0.0
  0
LINE
  5
87
330
25
100
AcDbEntity
  8
1
  6
Continuous
 62
     0
100
AcDbLine
 10
11943.21787867026
 20
-1004.959460227497
 30
0.0
 11
11943.21787867026
 21
-804.959460227497
 31
0.0
  0
LINE
  5
85
330
25
100
AcDbEntity
  8
1
  6
Continuous
 62
     0
100
AcDbLine
 10
13770.59286132678
 20
-2373.959460227498
 30
0.0
 11
13767.59286132678
 21
-2373.959460227498
 31
0.0
  0
LINE
  5
84
330
25
100
AcDbEntity
  8
1
  6
Continuous
 62
     0
100
AcDbLine
 10
13904.59286132678
 20
-2534.959460227498
 30
0.0
 11
14654.59286132678
 21
-2534.959460227498
 31
0.0
  0
LINE
  5
83
330
25
100
AcDbEntity
  8
1
  6
Continuous
 62
     0
100
AcDbLine
 10
14791.59286132678
 20
-2402.185235057354
 30
0.0
 11
14791.59286132678
 21
-2381.959460227498
 31
0.0
  0
LINE
  5
82
330
25
100
AcDbEntity
  8
1
  6
Continuous
 62
     0
100
AcDbLine
 10
14654.59286132678
 20
-2595.959460227499
 30
0.0
 11
14654.59286132678
 21
-2534.959460227498
 31
0.0
  0
LINE
  5
81
330
25
100
AcDbEntity
  8
1
  6
Continuous
 62
     0
100
AcDbLine
 10
13767.59286132678
 20
-2402.185235057354
 30
0.0
 11
13767.59286132678
 21
-2067.860984694045
 31
0.0
  0
LINE
  5
78
330
25
100
AcDbEntity
  8
1
  6
Continuous
 62
     0
100
AcDbLine
 10
11963.21787867026
 20
-3790.777406699797
 30
0.0
 11
11943.21787867026
 21
-3790.777406699797
 31
0.0
  0
LINE
  5
77
330
25
100
AcDbEntity
  8
1
  6
Continuous
 62
     0
100
AcDbLine
 10
11943.21787867026
 20
-3790.777406699797
 30
0.0
 11
11943.21787867026
 21
-3990.777406699797
 31
0.0
  0
LINE
  5
76
330
25
100
AcDbEntity
  8
1
  6
Continuous
 62
     0
100
AcDbLine
 10
11943.21787867026
 20
-3990.777406699797
 30
0.0
 11
11963.21787867026
 21
-3990.777406699797
 31
0.0
  0
LINE
  5
75
330
25
100
AcDbEntity
  8
1
  6
Continuous
 62
     0
100
AcDbLine
 10
11963.21787867026
 20
-3990.777406699797
 30
0.0
 11
11963.21787867026
 21
-3790.777406699797
 31
0.0
  0
LINE
  5
74
330
25
100
AcDbEntity
  8
1
  6
Continuous
 62
     0
100
AcDbLine
 10
10739.21787867026
 20
-3790.777406699797
 30
0.0
 11
10759.21787867026
 21
-3790.777406699797
 31
0.0
  0
LINE
  5
73
330
25
100
AcDbEntity
  8
1
  6
Continuous
 62
     0
100
AcDbLine
 10
10759.21787867026
 20
-3790.777406699797
 30
0.0
 11
10759.21787867026
 21
-3990.777406699797
 31
0.0
  0
LINE
  5
72
330
25
100
AcDbEntity
  8
1
  6
Continuous
 62
     0
100
AcDbLine
 10
10759.21787867026
 20
-3990.777406699797
 30
0.0
 11
10739.21787867026
 21
-3990.777406699797
 31
0.0
  0
LINE
  5
71
330
25
100
AcDbEntity
  8
1
  6
Continuous
 62
     0
100
AcDbLine
 10
10739.21787867026
 20
-3990.777406699797
 30
0.0
 11
10739.21787867026
 21
-3790.777406699797
 31
0.0
  0
LINE
  5
70
330
25
100
AcDbEntity
  8
1
  6
Continuous
 62
     0
100
AcDbLine
 10
10760.21787867026
 20
-3935.327406699796
 30
0.0
 11
10759.21787867026
 21
-3935.327406699796
 31
0.0
  0
LINE
  5
6F
330
25
100
AcDbEntity
  8
1
  6
Continuous
 62
     0
100
AcDbLine
 10
11861.27601016118
 20
-3846.227406699796
 30
0.0
 11
11943.21787867026
 21
-3846.227406699796
 31
0.0
  0
LINE
  5
6E
330
25
100
AcDbEntity
  8
1
  6
Continuous
 62
     0
100
AcDbLine
 10
11861.27601016118
 20
-3935.327406699796
 30
0.0
 11
11942.21787867026
 21
-3935.327406699796
 31
0.0
  0
LINE
  5
6D
330
25
100
AcDbEntity
  8
1
  6
Continuous
 62
     0
100
AcDbLine
 10
11942.21787867026
 20
-3935.327406699796
 30
0.0
 11
11943.21787867026
 21
-3935.327406699796
 31
0.0
  0
LINE
  5
47
330
25
100
AcDbEntity
  8
1
  6
Continuous
 62
     0
100
AcDbLine
 10
11351.21787867027
 20
-4434.777406699797
 30
0.0
 11
11364.71787867027
 21
-4434.777406699797
 31
0.0
  0
LINE
  5
3E
330
25
100
AcDbEntity
  8
1
  6
Continuous
 62
     0
100
AcDbLine
 10
11347.21787867027
 20
-4422.777406699797
 30
0.0
 11
11347.21787867027
 21
-4429.777406699797
 31
0.0
  0
LINE
  5
3D
330
25
100
AcDbEntity
  8
1
  6
Continuous
 62
     0
100
AcDbLine
 10
11355.21787867027
 20
-4429.777406699797
 30
0.0
 11
11355.21787867027
 21
-4422.777406699797
 31
0.0
  0
LINE
  5
3B
330
25
100
AcDbEntity
  8
1
  6
Continuous
 62
     0
100
AcDbLine
 10
11346.64988758449
 20
-4431.777406699797
 30
0.0
 11
11341.156570608
 21
-4431.777406699797
 31
0.0
  0
LINE
  5
3A
330
25
100
AcDbEntity
  8
1
  6
Continuous
 62
     0
100
AcDbLine
 10
11353.21787867027
 20
-4431.777406699797
 30
0.0
 11
11349.21787867027
 21
-4431.777406699797
 31
0.0
  0
LINE
  5
39
330
25
100
AcDbEntity
  8
1
  6
Continuous
 62
     0
100
AcDbLine
 10
11347.21787867027
 20
-4422.777406699797
 30
0.0
 11
11347.21787867027
 21
-4429.777406699797
 31
0.0
  0
LINE
  5
38
330
25
100
AcDbEntity
  8
1
  6
Continuous
 62
     0
100
AcDbLine
 10
11355.21787867027
 20
-4429.777406699797
 30
0.0
 11
11355.21787867027
 21
-4422.777406699797
 31
0.0
  0
LINE
  5
37
330
25
100
AcDbEntity
  8
1
  6
Continuous
 62
     0
100
AcDbLine
 10
11361.13559319308
 20
-4422.777406699797
 30
0.0
 11
11341.30016414745
 21
-4422.777406699797
 31
0.0
  0
LINE
  5
36
330
25
100
AcDbEntity
  8
1
  6
Continuous
 62
     0
100
AcDbLine
 10
11361.27918673253
 20
-4431.777406699797
 30
0.0
 11
11355.78586975604
 21
-4431.777406699797
 31
0.0
  0
LINE
  5
33
330
25
100
AcDbEntity
  8
1
  6
Continuous
 62
     0
100
AcDbLine
 10
11347.21787867027
 20
-4422.777406699797
 30
0.0
 11
11347.21787867027
 21
-4429.777406699797
 31
0.0
  0
LINE
  5
32
330
25
100
AcDbEntity
  8
1
  6
Continuous
 62
     0
100
AcDbLine
 10
11355.21787867027
 20
-4429.777406699797
 30
0.0
 11
11355.21787867027
 21
-4422.777406699797
 31
0.0
  0
LINE
  5
31
330
25
100
AcDbEntity
  8
1
  6
Continuous
 62
     0
100
AcDbLine
 10
11353.21787867027
 20
-4431.777406699797
 30
0.0
 11
11349.21787867027
 21
-4431.777406699797
 31
0.0
  0
LINE
  5
30
330
25
100
AcDbEntity
  8
1
  6
Continuous
 62
     0
100
AcDbLine
 10
11347.21787867027
 20
-4422.777406699797
 30
0.0
 11
11347.21787867027
 21
-4429.777406699797
 31
0.0
  0
LINE
  5
2F
330
25
100
AcDbEntity
  8
1
  6
Continuous
 62
     0
100
AcDbLine
 10
11355.21787867027
 20
-4429.777406699797
 30
0.0
 11
11355.21787867027
 21
-4422.777406699797
 31
0.0
  0
LINE
  5
2D
330
25
100
AcDbEntity
  8
1
  6
Continuous
 62
     0
100
AcDbLine
 10
11337.71787867027
 20
-4434.777406699797
 30
0.0
 11
11351.21787867027
 21
-4434.777406699797
 31
0.0
  0
LINE
  5
2C
330
25
100
AcDbEntity
  8
1
  6
Continuous
 62
     0
100
AcDbLine
 10
14791.59286132678
 20
-2373.959460227498
 30
0.0
 11
13770.59286132678
 21
-2373.959460227498
 31
0.0
  0
POINT
  5
2B
330
25
100
AcDbEntity
  8
1
 62
     0
100
AcDbPoint
 10
10687.55932610333
 20
-1218.300630009384
 30
0.0
  0
POINT
  5
2A
330
25
100
AcDbEntity
  8
1
 62
     0
100
AcDbPoint
 10
11578.18574511133
 20
146.250030395429
 30
0.0
  0
LINE
  5
B21
330
25
100
AcDbEntity
  8
0
  6
Continuous
 62
     0
100
AcDbLine
 10
11860.21787867026
 20
-130.959460227497
 30
0.0
 11
11863.21787867026
 21
-130.959460227497
 31
0.0
  0
LINE
  5
B22
330
25
100
AcDbEntity
  8
1
  6
Continuous
 62
     0
100
AcDbLine
 10
13767.59287867026
 20
-130.9594602274963
 30
0.0
 11
14788.59287867026
 21
-130.9594602274963
 31
0.0
  0
ARC
  5
B23
330
25
100
AcDbEntity
  8
1
  6
Continuous
 62
     0
100
AcDbCircle
 10
13879.59287867026
 20
-105.7336853976423
 30
0.0
 40
111.999999999997
100
AcDbArc
 50
116.3877999612394
 51
180.0
  0
ARC
  5
B24
330
25
100
AcDbEntity
  8
1
  6
Continuous
 62
     0
100
AcDbCircle
 10
14679.59287867026
 20
-105.7336853976423
 30
0.0
 40
112.0
100
AcDbArc
 50
0.0
 51
63.6122000387562
  0
ARC
  5
B25
330
25
100
AcDbEntity
  8
1
  6
Continuous
 62
     0
100
AcDbCircle
 10
14279.59287867026
 20
-911.9594602275033
 30
0.0
 40
1012.000000000006
100
AcDbArc
 50
63.61220003875697
 51
89.54706520098732
  0
LINE
  5
B26
330
25
100
AcDbEntity
  8
1
  6
Continuous
 62
     0
100
AcDbLine
 10
13767.59287867026
 20
-130.9594602274963
 30
0.0
 11
13767.59287867026
 21
-105.2307997006353
 31
0.0
  0
LINE
  5
B27
330
25
100
AcDbEntity
  8
1
  6
Continuous
 62
     0
100
AcDbLine
 10
14791.59287867026
 20
-105.2307997006353
 30
0.0
 11
14791.59287867026
 21
-130.9594602274963
 31
0.0
  0
LINE
  5
B28
330
25
100
AcDbEntity
  8
0
  6
Continuous
 62
     0
100
AcDbLine
 10
14791.59286132678
 20
-398.166568024275
 30
0.0
 11
14791.59286132678
 21
-1024.015065249061
 31
0.0
  0
LINE
  5
B29
330
25
100
AcDbEntity
  8
0
  6
Continuous
 62
     0
100
AcDbLine
 10
14787.88989095504
 20
-130.9594602274963
 30
0.0
 11
14791.59287867026
 21
-130.9594602274963
 31
0.0
  0
LINE
  5
B2A
330
25
100
AcDbEntity
  8
0
  6
Continuous
 62
     0
100
AcDbLine
 10
14791.59286132678
 20
-240.1665680242757
 30
0.0
 11
14791.59287867026
 21
-130.9594602274963
 31
0.0
  0
LINE
  5
B37
330
25
100
AcDbEntity
  8
1
  6
Continuous
 62
     0
100
AcDbLine
 10
14809.59286132678
 20
-309.2488535014559
 30
0.0
 11
14813.59286132678
 21
-309.2488535014559
 31
0.0
  0
LINE
  5
B38
330
25
100
AcDbEntity
  8
1
  6
Continuous
 62
     0
100
AcDbLine
 10
14813.59286132678
 20
-309.2488535014559
 30
0.0
 11
14813.59286132678
 21
-281.2488535014559
 31
0.0
  0
LINE
  5
B39
330
25
100
AcDbEntity
  8
1
  6
Continuous
 62
     0
100
AcDbLine
 10
14813.59286132678
 20
-302.177056731733
 30
0.0
 11
14822.52106455706
 21
-302.177056731733
 31
0.0
  0
LINE
  5
B3A
330
25
100
AcDbEntity
  8
1
  6
Continuous
 62
     0
100
AcDbLine
 10
14809.59286132678
 20
-310.2488535014559
 30
0.0
 11
14809.59286132678
 21
-280.2488535014559
 31
0.0
  0
LINE
  5
B3B
330
25
100
AcDbEntity
  8
1
  6
Continuous
 62
     0
100
AcDbLine
 10
14806.59286132678
 20
-310.2488535014559
 30
0.0
 11
14809.59286132678
 21
-310.2488535014559
 31
0.0
  0
LINE
  5
B3C
330
25
100
AcDbEntity
  8
1
  6
Continuous
 62
     0
100
AcDbLine
 10
14813.59286132678
 20
-281.2488535014559
 30
0.0
 11
14809.59286132678
 21
-281.2488535014559
 31
0.0
  0
LINE
  5
B3D
330
25
100
AcDbEntity
  8
1
  6
Continuous
 62
     0
100
AcDbLine
 10
14822.52106455706
 20
-281.3924470409061
 30
0.0
 11
14813.59286132678
 21
-281.3924470409061
 31
0.0
  0
LINE
  5
B3E
330
25
100
AcDbEntity
  8
1
  6
Continuous
 62
     0
100
AcDbLine
 10
14822.52106455706
 20
-309.1052599620079
 30
0.0
 11
14823.59286132678
 21
-307.2488535014559
 31
0.0
  0
LINE
  5
B3F
330
25
100
AcDbEntity
  8
1
  6
Continuous
 62
     0
100
AcDbLine
 10
14823.59286132678
 20
-283.2488535014559
 30
0.0
 11
14822.52106455706
 21
-281.3924470409061
 31
0.0
  0
LINE
  5
B40
330
25
100
AcDbEntity
  8
1
  6
Continuous
 62
     0
100
AcDbLine
 10
14823.59286132678
 20
-331.0842825470932
 30
0.0
 11
14822.52106455706
 21
-329.227876086542
 31
0.0
  0
LINE
  5
B41
330
25
100
AcDbEntity
  8
1
  6
Continuous
 62
     0
100
AcDbLine
 10
14823.59286132678
 20
-355.0842825470932
 30
0.0
 11
14823.59286132678
 21
-331.0842825470932
 31
0.0
  0
LINE
  5
B42
330
25
100
AcDbEntity
  8
1
  6
Continuous
 62
     0
100
AcDbLine
 10
14813.59286132678
 20
-293.172663025266
 30
0.0
 11
14809.59286132678
 21
-294.3155201681238
 31
0.0
  0
LINE
  5
B43
330
25
100
AcDbEntity
  8
1
  6
Continuous
 62
     0
100
AcDbLine
 10
14823.59286132678
 20
-307.2488535014559
 30
0.0
 11
14823.59286132678
 21
-283.2488535014559
 31
0.0
  0
LINE
  5
B44
330
25
100
AcDbEntity
  8
1
  6
Continuous
 62
     0
100
AcDbLine
 10
14813.59286132678
 20
-296.1821868347902
 30
0.0
 11
14809.59286132678
 21
-297.325043977648
 31
0.0
  0
LINE
  5
B45
330
25
100
AcDbEntity
  8
1
  6
Continuous
 62
     0
100
AcDbLine
 10
14813.59286132678
 20
-288.320650271181
 30
0.0
 11
14822.52106455706
 21
-288.320650271181
 31
0.0
  0
LINE
  5
B46
330
25
100
AcDbEntity
  8
1
  6
Continuous
 62
     0
100
AcDbLine
 10
14822.52106455706
 20
-329.227876086542
 30
0.0
 11
14813.59286132678
 21
-329.227876086542
 31
0.0
  0
LINE
  5
B47
330
25
100
AcDbEntity
  8
1
  6
Continuous
 62
     0
100
AcDbLine
 10
14813.59286132678
 20
-356.9406890076439
 30
0.0
 11
14822.52106455706
 21
-356.9406890076439
 31
0.0
  0
LINE
  5
B48
330
25
100
AcDbEntity
  8
1
  6
Continuous
 62
     0
100
AcDbLine
 10
14822.52106455706
 20
-336.1560793168169
 30
0.0
 11
14813.59286132678
 21
-336.1560793168169
 31
0.0
  0
LINE
  5
B49
330
25
100
AcDbEntity
  8
1
  6
Continuous
 62
     0
100
AcDbLine
 10
14813.59286132678
 20
-357.0842825470932
 30
0.0
 11
14813.59286132678
 21
-329.0842825470932
 31
0.0
  0
LINE
  5
B4A
330
25
100
AcDbEntity
  8
1
  6
Continuous
 62
     0
100
AcDbLine
 10
14809.59286132678
 20
-357.0842825470932
 30
0.0
 11
14813.59286132678
 21
-357.0842825470932
 31
0.0
  0
LINE
  5
B4B
330
25
100
AcDbEntity
  8
1
  6
Continuous
 62
     0
100
AcDbLine
 10
14809.59286132678
 20
-341.008092070902
 30
0.0
 11
14813.59286132678
 21
-342.1509492137602
 31
0.0
  0
LINE
  5
B4C
330
25
100
AcDbEntity
  8
1
  6
Continuous
 62
     0
100
AcDbLine
 10
14809.59286132678
 20
-344.0176158804261
 30
0.0
 11
14813.59286132678
 21
-345.1604730232839
 31
0.0
  0
LINE
  5
B4D
330
25
100
AcDbEntity
  8
1
  6
Continuous
 62
     0
100
AcDbLine
 10
14822.52106455706
 20
-356.9406890076439
 30
0.0
 11
14823.59286132678
 21
-355.0842825470932
 31
0.0
  0
LINE
  5
B4E
330
25
100
AcDbEntity
  8
1
  6
Continuous
 62
     0
100
AcDbLine
 10
14822.52106455706
 20
-350.012485777369
 30
0.0
 11
14813.59286132678
 21
-350.012485777369
 31
0.0
  0
LINE
  5
B4F
330
25
100
AcDbEntity
  8
1
  6
Continuous
 62
     0
100
AcDbLine
 10
14813.59286132678
 20
-329.0842825470932
 30
0.0
 11
14809.59286132678
 21
-329.0842825470932
 31
0.0
  0
LINE
  5
B50
330
25
100
AcDbEntity
  8
1
  6
Continuous
 62
     0
100
AcDbLine
 10
14813.59286132678
 20
-309.1052599620079
 30
0.0
 11
14822.52106455706
 21
-309.1052599620079
 31
0.0
  0
LINE
  5
B51
330
25
100
AcDbEntity
  8
1
  6
Continuous
 62
     0
100
AcDbLine
 10
14809.59286132678
 20
-328.0842825470932
 30
0.0
 11
14806.59286132678
 21
-328.0842825470932
 31
0.0
  0
LINE
  5
B53
330
25
100
AcDbEntity
  8
1
  6
Continuous
 62
     0
100
AcDbLine
 10
14809.59286132678
 20
-358.0842825470932
 30
0.0
 11
14809.59286132678
 21
-328.0842825470932
 31
0.0
  0
LINE
  5
B54
330
25
100
AcDbEntity
  8
1
  6
Continuous
 62
     0
100
AcDbLine
 10
14806.59286132678
 20
-358.0842825470932
 30
0.0
 11
14809.59286132678
 21
-358.0842825470932
 31
0.0
  0
LINE
  5
B55
330
25
100
AcDbEntity
  8
1
  6
Continuous
 62
     0
100
AcDbLine
 10
14806.59286132678
 20
-328.0842825470932
 30
0.0
 11
14806.59286132678
 21
-358.0842825470932
 31
0.0
  0
LINE
  5
B57
330
25
100
AcDbEntity
  8
1
  6
Continuous
 62
     0
100
AcDbLine
 10
14806.59286132678
 20
-361.9090388062309
 30
0.0
 11
14806.59286132678
 21
-391.9090388062309
 31
0.0
  0
LINE
  5
B58
330
25
100
AcDbEntity
  8
1
  6
Continuous
 62
     0
100
AcDbLine
 10
14809.59286132678
 20
-391.9090388062309
 30
0.0
 11
14809.59286132678
 21
-361.9090388062309
 31
0.0
  0
LINE
  5
B59
330
25
100
AcDbEntity
  8
1
  6
Continuous
 62
     0
100
AcDbLine
 10
14813.59286132678
 20
-362.9090388062309
 30
0.0
 11
14809.59286132678
 21
-362.9090388062309
 31
0.0
  0
LINE
  5
B5A
330
25
100
AcDbEntity
  8
1
  6
Continuous
 62
     0
100
AcDbLine
 10
14822.52106455706
 20
-369.9808355759551
 30
0.0
 11
14813.59286132678
 21
-369.9808355759551
 31
0.0
  0
LINE
  5
B5B
330
25
100
AcDbEntity
  8
1
  6
Continuous
 62
     0
100
AcDbLine
 10
14809.59286132678
 20
-390.9090388062309
 30
0.0
 11
14813.59286132678
 21
-390.9090388062309
 31
0.0
  0
LINE
  5
B5C
330
25
100
AcDbEntity
  8
1
  6
Continuous
 62
     0
100
AcDbLine
 10
14813.59286132678
 20
-390.7654452667812
 30
0.0
 11
14822.52106455706
 21
-390.7654452667812
 31
0.0
  0
LINE
  5
B5D
330
25
100
AcDbEntity
  8
1
  6
Continuous
 62
     0
100
AcDbLine
 10
14813.59286132678
 20
-390.9090388062309
 30
0.0
 11
14813.59286132678
 21
-362.9090388062309
 31
0.0
  0
LINE
  5
B5E
330
25
100
AcDbEntity
  8
1
  6
Continuous
 62
     0
100
AcDbLine
 10
14823.59286132678
 20
-388.9090388062309
 30
0.0
 11
14823.59286132678
 21
-364.9090388062309
 31
0.0
  0
LINE
  5
B5F
330
25
100
AcDbEntity
  8
1
  6
Continuous
 62
     0
100
AcDbLine
 10
14822.52106455706
 20
-363.0526323456802
 30
0.0
 11
14813.59286132678
 21
-363.0526323456802
 31
0.0
  0
LINE
  5
B60
330
25
100
AcDbEntity
  8
1
  6
Continuous
 62
     0
100
AcDbLine
 10
14822.52106455706
 20
-390.7654452667812
 30
0.0
 11
14823.59286132678
 21
-388.9090388062309
 31
0.0
  0
LINE
  5
B61
330
25
100
AcDbEntity
  8
1
  6
Continuous
 62
     0
100
AcDbLine
 10
14806.59286132678
 20
-391.9090388062309
 30
0.0
 11
14809.59286132678
 21
-391.9090388062309
 31
0.0
  0
LINE
  5
B62
330
25
100
AcDbEntity
  8
1
  6
Continuous
 62
     0
100
AcDbLine
 10
14809.59286132678
 20
-374.8328483300402
 30
0.0
 11
14813.59286132678
 21
-375.9757054728971
 31
0.0
  0
LINE
  5
B63
330
25
100
AcDbEntity
  8
1
  6
Continuous
 62
     0
100
AcDbLine
 10
14809.59286132678
 20
-377.8423721395638
 30
0.0
 11
14813.59286132678
 21
-378.9852292824212
 31
0.0
  0
LINE
  5
B64
330
25
100
AcDbEntity
  8
1
  6
Continuous
 62
     0
100
AcDbLine
 10
14823.59286132678
 20
-364.9090388062309
 30
0.0
 11
14822.52106455706
 21
-363.0526323456802
 31
0.0
  0
LINE
  5
B65
330
25
100
AcDbEntity
  8
1
  6
Continuous
 62
     0
100
AcDbLine
 10
14809.59286132678
 20
-361.9090388062309
 30
0.0
 11
14806.59286132678
 21
-361.9090388062309
 31
0.0
  0
LINE
  5
B66
330
25
100
AcDbEntity
  8
1
  6
Continuous
 62
     0
100
AcDbLine
 10
14822.52106455706
 20
-383.8372420365058
 30
0.0
 11
14813.59286132678
 21
-383.8372420365058
 31
0.0
  0
ARC
  5
B67
330
25
100
AcDbEntity
  8
1
  6
Continuous
 62
     0
100
AcDbCircle
 10
15243.71530658227
 20
-319.166568024275
 30
0.0
 40
458.972445255489
100
AcDbArc
 50
170.088686020987
 51
189.911313979013
  0
ARC
  5
B68
330
25
100
AcDbEntity
  8
1
  6
Continuous
 62
     0
100
AcDbCircle
 10
14817.4045161659
 20
-251.0149700856541
 30
0.0
 40
6.188368025611
100
AcDbArc
 50
325.7715041969462
 51
24.02067708102809
  0
ARC
  5
B69
330
25
100
AcDbEntity
  8
1
  6
Continuous
 62
     0
100
AcDbCircle
 10
14800.66465809651
 20
-261.4240972423199
 30
0.0
 40
22.928203230275
100
AcDbArc
 50
342.4120462260074
 51
17.58795377399385
  0
ARC
  5
B6A
330
25
100
AcDbEntity
  8
1
  6
Continuous
 62
     0
100
AcDbCircle
 10
14800.66465809651
 20
-295.2488535014559
 30
0.0
 40
22.928203230276
100
AcDbArc
 50
342.4120462260013
 51
17.58795377399676
  0
ARC
  5
B6B
330
25
100
AcDbEntity
  8
1
  6
Continuous
 62
     0
100
AcDbCircle
 10
14817.4045161659
 20
-271.8332243989848
 30
0.0
 40
6.188368025609
100
AcDbArc
 50
335.9793229189706
 51
34.22849580305609
  0
LINE
  5
B6C
330
25
100
AcDbEntity
  8
0
  6
Continuous
 62
     0
100
AcDbLine
 10
14791.59286132678
 20
-2381.959460227498
 30
0.0
 11
14791.59286132678
 21
-2251.166568024275
 31
0.0
  0
LINE
  5
B6D
330
25
100
AcDbEntity
  8
0
  6
Continuous
 62
     0
100
AcDbLine
 10
14791.59286132678
 20
-2093.166568024276
 30
0.0
 11
14791.59286132678
 21
-1024.015065249061
 31
0.0
  0
ARC
  5
B6E
330
25
100
AcDbEntity
  8
1
  6
Continuous
 62
     0
100
AcDbCircle
 10
14817.4045161659
 20
-284.839726344791
 30
0.0
 40
6.188368025611
100
AcDbArc
 50
325.7715041969461
 51
24.02067708102785
  0
ARC
  5
B6F
330
25
100
AcDbEntity
  8
1
  6
Continuous
 62
     0
100
AcDbCircle
 10
14817.4045161659
 20
-305.6579806581221
 30
0.0
 40
6.18836802561
100
AcDbArc
 50
335.9793229189557
 51
34.22849580304052
  0
ARC
  5
B70
330
25
100
AcDbEntity
  8
1
  6
Continuous
 62
     0
100
AcDbCircle
 10
14817.4045161659
 20
-332.6751553904278
 30
0.0
 40
6.188368025611
100
AcDbArc
 50
325.7715041969469
 51
24.02067708103121
  0
LINE
  5
B72
330
25
100
AcDbEntity
  8
1
  6
Continuous
 62
     0
100
AcDbLine
 10
14806.59286132678
 20
-280.2488535014559
 30
0.0
 11
14806.59286132678
 21
-310.2488535014559
 31
0.0
  0
LINE
  5
B73
330
25
100
AcDbEntity
  8
1
  6
Continuous
 62
     0
100
AcDbLine
 10
14809.59286132678
 20
-280.2488535014559
 30
0.0
 11
14806.59286132678
 21
-280.2488535014559
 31
0.0
  0
ARC
  5
B75
330
25
100
AcDbEntity
  8
1
  6
Continuous
 62
     0
100
AcDbCircle
 10
14817.4045161659
 20
-387.3181659628958
 30
0.0
 40
6.188368025609
100
AcDbArc
 50
335.9793229189706
 51
34.22849580305609
  0
LINE
  5
B76
330
25
100
AcDbEntity
  8
1
  6
Continuous
 62
     0
100
AcDbLine
 10
14806.59286132678
 20
-240.166568024275
 30
0.0
 11
14806.59286132678
 21
-398.166568024275
 31
0.0
  0
LINE
  5
B77
330
25
100
AcDbEntity
  8
1
  6
Continuous
 62
     0
100
AcDbLine
 10
14823.59286132678
 20
-273.4240972423199
 30
0.0
 11
14823.59286132678
 21
-249.4240972423199
 31
0.0
  0
LINE
  5
B78
330
25
100
AcDbEntity
  8
1
  6
Continuous
 62
     0
100
AcDbLine
 10
14822.52106455706
 20
-247.5676907817692
 30
0.0
 11
14813.59286132678
 21
-247.5676907817692
 31
0.0
  0
LINE
  5
B79
330
25
100
AcDbEntity
  8
1
  6
Continuous
 62
     0
100
AcDbLine
 10
14796.59286132678
 20
-240.166568024275
 30
0.0
 11
14796.59286132678
 21
-398.166568024275
 31
0.0
  0
ARC
  5
B7A
330
25
100
AcDbEntity
  8
1
  6
Continuous
 62
     0
100
AcDbCircle
 10
14800.66465809651
 20
-343.0842825470932
 30
0.0
 40
22.928203230275
100
AcDbArc
 50
342.4120462260059
 51
17.58795377399445
  0
LINE
  5
B7B
330
25
100
AcDbEntity
  8
1
  6
Continuous
 62
     0
100
AcDbLine
 10
14806.59286132678
 20
-240.166568024275
 30
0.0
 11
14791.59286132678
 21
-240.166568024275
 31
0.0
  0
LINE
  5
B7C
330
25
100
AcDbEntity
  8
1
  6
Continuous
 62
     0
100
AcDbLine
 10
14813.59286132678
 20
-254.4958940120441
 30
0.0
 11
14822.52106455706
 21
-254.4958940120441
 31
0.0
  0
LINE
  5
B7D
330
25
100
AcDbEntity
  8
1
  6
Continuous
 62
     0
100
AcDbLine
 10
14809.59286132678
 20
-275.4240972423199
 30
0.0
 11
14813.59286132678
 21
-275.4240972423199
 31
0.0
  0
ARC
  5
B7E
330
25
100
AcDbEntity
  8
1
  6
Continuous
 62
     0
100
AcDbCircle
 10
14800.66465809651
 20
-376.9090388062309
 30
0.0
 40
22.928203230275
100
AcDbArc
 50
342.4120462260074
 51
17.58795377399391
  0
ARC
  5
B7F
330
25
100
AcDbEntity
  8
1
  6
Continuous
 62
     0
100
AcDbCircle
 10
14817.4045161659
 20
-366.4999116495651
 30
0.0
 40
6.188368025611
100
AcDbArc
 50
325.7715041969461
 51
24.02067708102785
  0
LINE
  5
B80
330
25
100
AcDbEntity
  8
1
  6
Continuous
 62
     0
100
AcDbLine
 10
14813.59286132678
 20
-268.3523004725948
 30
0.0
 11
14822.52106455706
 21
-268.3523004725948
 31
0.0
  0
LINE
  5
B81
330
25
100
AcDbEntity
  8
1
  6
Continuous
 62
     0
100
AcDbLine
 10
14813.59286132678
 20
-275.4240972423199
 30
0.0
 11
14813.59286132678
 21
-247.4240972423199
 31
0.0
  0
LINE
  5
B82
330
25
100
AcDbEntity
  8
1
  6
Continuous
 62
     0
100
AcDbLine
 10
14813.59286132678
 20
-247.4240972423199
 30
0.0
 11
14809.59286132678
 21
-247.4240972423199
 31
0.0
  0
LINE
  5
B83
330
25
100
AcDbEntity
  8
1
  6
Continuous
 62
     0
100
AcDbLine
 10
14822.52106455706
 20
-275.2805037028702
 30
0.0
 11
14823.59286132678
 21
-273.4240972423199
 31
0.0
  0
LINE
  5
B84
330
25
100
AcDbEntity
  8
1
  6
Continuous
 62
     0
100
AcDbLine
 10
14813.59286132678
 20
-275.2805037028702
 30
0.0
 11
14822.52106455706
 21
-275.2805037028702
 31
0.0
  0
LINE
  5
B85
330
25
100
AcDbEntity
  8
1
  6
Continuous
 62
     0
100
AcDbLine
 10
14813.59286132678
 20
-262.3574305756529
 30
0.0
 11
14809.59286132678
 21
-263.5002877185102
 31
0.0
  0
LINE
  5
B86
330
25
100
AcDbEntity
  8
1
  6
Continuous
 62
     0
100
AcDbLine
 10
14813.59286132678
 20
-259.3479067661292
 30
0.0
 11
14809.59286132678
 21
-260.4907639089861
 31
0.0
  0
LINE
  5
B87
330
25
100
AcDbEntity
  8
1
  6
Continuous
 62
     0
100
AcDbLine
 10
14806.59286132678
 20
-276.4240972423199
 30
0.0
 11
14809.59286132678
 21
-276.4240972423199
 31
0.0
  0
LINE
  5
B88
330
25
100
AcDbEntity
  8
1
  6
Continuous
 62
     0
100
AcDbLine
 10
14806.59286132678
 20
-398.166568024275
 30
0.0
 11
14791.59286132678
 21
-398.166568024275
 31
0.0
  0
ARC
  5
B89
330
25
100
AcDbEntity
  8
1
  6
Continuous
 62
     0
100
AcDbCircle
 10
14817.4045161659
 20
-353.493409703759
 30
0.0
 40
6.188368025609
100
AcDbArc
 50
335.9793229189706
 51
34.22849580305609
  0
LINE
  5
B8A
330
25
100
AcDbEntity
  8
1
  6
Continuous
 62
     0
100
AcDbLine
 10
14809.59286132678
 20
-276.4240972423199
 30
0.0
 11
14809.59286132678
 21
-246.4240972423199
 31
0.0
  0
LINE
  5
B8B
330
25
100
AcDbEntity
  8
1
  6
Continuous
 62
     0
100
AcDbLine
 10
14809.59286132678
 20
-246.4240972423199
 30
0.0
 11
14806.59286132678
 21
-246.4240972423199
 31
0.0
  0
LINE
  5
B8C
330
25
100
AcDbEntity
  8
1
  6
Continuous
 62
     0
100
AcDbLine
 10
14823.59286132678
 20
-249.4240972423199
 30
0.0
 11
14822.52106455706
 21
-247.5676907817692
 31
0.0
  0
LINE
  5
B8E
330
25
100
AcDbEntity
  8
1
  6
Continuous
 62
     0
100
AcDbLine
 10
14806.59286132678
 20
-246.4240972423199
 30
0.0
 11
14806.59286132678
 21
-276.4240972423199
 31
0.0
  0
ARC
  5
1A16
330
25
100
AcDbEntity
  8
1
  6
Continuous
 62
     0
100
AcDbCircle
 10
14279.59287867026
 20
-911.9594602275033
 30
0.0
 40
1012.000000000006
100
AcDbArc
 50
90.45180542802959
 51
116.387799961242
  0
ENDBLK
  5
4F6
330
25
100
AcDbEntity
  8
0
100
AcDbBlockEnd
  0
BLOCK
  5
A80
330
A7F
100
AcDbEntity
  8
0
100
AcDbBlockBegin
  2
*D1
 70
     1
 10
0.0
 20
0.0
 30
0.0
  3
*D1
  1

  0
LINE
  5
A82
330
A7F
100
AcDbEntity
  8
0
  6
Continuous
 62
     0
370
    -2
100
AcDbLine
 10
10839.21787867026
 20
-2010.346960227498
 30
0.0
 11
10839.21787867026
 21
-1370.020657060794
 31
0.0
  0
LINE
  5
A83
330
A7F
100
AcDbEntity
  8
0
  6
Continuous
 62
     0
370
    -2
100
AcDbLine
 10
11863.21787867026
 20
-860.471960227498
 30
0.0
 11
11863.21787867026
 21
-1370.380657060794
 31
0.0
  0
LINE
  5
A84
330
A7F
100
AcDbEntity
  8
0
  6
Continuous
 62
     0
370
    -2
100
AcDbLine
 10
10839.39787867026
 20
-1370.200657060794
 30
0.0
 11
11350.51287867026
 21
-1370.200657060794
 31
0.0
  0
LINE
  5
A85
330
A7F
100
AcDbEntity
  8
0
  6
Continuous
 62
     0
370
    -2
100
AcDbLine
 10
11863.03787867026
 20
-1370.200657060794
 30
0.0
 11
11351.92287867026
 21
-1370.200657060794
 31
0.0
  0
SOLID
  5
A86
330
A7F
100
AcDbEntity
  8
0
 62
     0
100
AcDbTrace
 10
10839.39787867026
 20
-1370.170657060794
 30
0.0
 11
10839.39787867026
 21
-1370.230657060794
 31
0.0
 12
10839.21787867026
 22
-1370.200657060794
 32
0.0
 13
10839.21787867026
 23
-1370.200657060794
 33
0.0
  0
SOLID
  5
A87
330
A7F
100
AcDbEntity
  8
0
 62
     0
100
AcDbTrace
 10
11863.03787867026
 20
-1370.230657060794
 30
0.0
 11
11863.03787867026
 21
-1370.170657060794
 31
0.0
 12
11863.21787867026
 22
-1370.200657060794
 32
0.0
 13
11863.21787867026
 23
-1370.200657060794
 33
0.0
  0
MTEXT
  5
A88
330
A7F
100
AcDbEntity
  8
0
  6
Continuous
 62
     0
100
AcDbMText
 10
11351.21787867026
 20
-1370.200657060794
 30
0.0
 40
0.18
 41
0.0
 46
0.0
 71
     5
 72
     1
  1
\A1;1024.0000
 73
     1
 44
1.0
  0
POINT
  5
A89
330
A7F
100
AcDbEntity
  8
Defpoints
 62
     0
100
AcDbPoint
 10
10839.21787867026
 20
-2010.409460227498
 30
0.0
  0
POINT
  5
A8A
330
A7F
100
AcDbEntity
  8
Defpoints
 62
     0
100
AcDbPoint
 10
11863.21787867026
 20
-860.409460227498
 30
0.0
  0
POINT
  5
A8B
330
A7F
100
AcDbEntity
  8
Defpoints
 62
     0
100
AcDbPoint
 10
11863.21787867026
 20
-1370.200657060794
 30
0.0
  0
ENDBLK
  5
A81
330
A7F
100
AcDbEntity
  8
0
100
AcDbBlockEnd
  0
BLOCK
  5
A90
330
A8F
100
AcDbEntity
  8
0
100
AcDbBlockBegin
  2
*D2
 70
     1
 10
0.0
 20
0.0
 30
0.0
  3
*D2
  1

  0
LINE
  5
A92
330
A8F
100
AcDbEntity
  8
0
  6
Continuous
 62
     0
370
    -2
100
AcDbLine
 10
13767.59286132678
 20
-2099.446960227499
 30
0.0
 11
13767.59286132678
 21
-1724.090935279496
 31
0.0
  0
LINE
  5
A93
330
A8F
100
AcDbEntity
  8
0
  6
Continuous
 62
     0
370
    -2
100
AcDbLine
 10
14791.59286132678
 20
-2093.104068024276
 30
0.0
 11
14791.59286132678
 21
-1724.090935279496
 31
0.0
  0
LINE
  5
A94
330
A8F
100
AcDbEntity
  8
0
  6
Continuous
 62
     0
370
    -2
100
AcDbLine
 10
13767.77286132678
 20
-1724.270935279496
 30
0.0
 11
14278.88786132678
 21
-1724.270935279496
 31
0.0
  0
LINE
  5
A95
330
A8F
100
AcDbEntity
  8
0
  6
Continuous
 62
     0
370
    -2
100
AcDbLine
 10
14791.41286132678
 20
-1724.270935279496
 30
0.0
 11
14280.29786132678
 21
-1724.270935279496
 31
0.0
  0
SOLID
  5
A96
330
A8F
100
AcDbEntity
  8
0
 62
     0
100
AcDbTrace
 10
13767.77286132678
 20
-1724.240935279496
 30
0.0
 11
13767.77286132678
 21
-1724.300935279496
 31
0.0
 12
13767.59286132678
 22
-1724.270935279496
 32
0.0
 13
13767.59286132678
 23
-1724.270935279496
 33
0.0
  0
SOLID
  5
A97
330
A8F
100
AcDbEntity
  8
0
 62
     0
100
AcDbTrace
 10
14791.41286132678
 20
-1724.300935279496
 30
0.0
 11
14791.41286132678
 21
-1724.240935279496
 31
0.0
 12
14791.59286132678
 22
-1724.270935279496
 32
0.0
 13
14791.59286132678
 23
-1724.270935279496
 33
0.0
  0
MTEXT
  5
A98
330
A8F
100
AcDbEntity
  8
0
  6
Continuous
 62
     0
100
AcDbMText
 10
14279.59286132678
 20
-1724.270935279496
 30
0.0
 40
0.18
 41
0.0
 46
0.0
 71
     5
 72
     1
  1
\A1;1024.0000
 73
     1
 44
1.0
  0
POINT
  5
A99
330
A8F
100
AcDbEntity
  8
Defpoints
 62
     0
100
AcDbPoint
 10
13767.59286132678
 20
-2099.509460227499
 30
0.0
  0
POINT
  5
A9A
330
A8F
100
AcDbEntity
  8
Defpoints
 62
     0
100
AcDbPoint
 10
14791.59286132678
 20
-2093.166568024276
 30
0.0
  0
POINT
  5
A9B
330
A8F
100
AcDbEntity
  8
Defpoints
 62
     0
100
AcDbPoint
 10
14791.59286132678
 20
-1724.270935279496
 30
0.0
  0
ENDBLK
  5
A91
330
A8F
100
AcDbEntity
  8
0
100
AcDbBlockEnd
  0
BLOCK
  5
AA0
330
A9F
100
AcDbEntity
  8
0
100
AcDbBlockBegin
  2
*D3
 70
     1
 10
0.0
 20
0.0
 30
0.0
  3
*D3
  1

  0
LINE
  5
AA2
330
A9F
100
AcDbEntity
  8
0
  6
Continuous
 62
     0
370
    -2
100
AcDbLine
 10
13770.59286132678
 20
-129.021960227497
 30
0.0
 11
13770.59286132678
 21
-144.2233039664535
 31
0.0
  0
LINE
  5
AA3
330
A9F
100
AcDbEntity
  8
0
  6
Continuous
 62
     0
370
    -2
100
AcDbLine
 10
14788.59286132678
 20
-129.021960227497
 30
0.0
 11
14788.59286132678
 21
-144.2233039664535
 31
0.0
  0
LINE
  5
AA4
330
A9F
100
AcDbEntity
  8
0
  6
Continuous
 62
     0
370
    -2
100
AcDbLine
 10
13770.77286132678
 20
-144.0433039664535
 30
0.0
 11
14278.91786132678
 21
-144.0433039664535
 31
0.0
  0
LINE
  5
AA5
330
A9F
100
AcDbEntity
  8
0
  6
Continuous
 62
     0
370
    -2
100
AcDbLine
 10
14788.41286132678
 20
-144.0433039664535
 30
0.0
 11
14280.26786132678
 21
-144.0433039664535
 31
0.0
  0
SOLID
  5
AA6
330
A9F
100
AcDbEntity
  8
0
 62
     0
100
AcDbTrace
 10
13770.77286132678
 20
-144.0133039664535
 30
0.0
 11
13770.77286132678
 21
-144.0733039664535
 31
0.0
 12
13770.59286132678
 22
-144.0433039664535
 32
0.0
 13
13770.59286132678
 23
-144.0433039664535
 33
0.0
  0
SOLID
  5
AA7
330
A9F
100
AcDbEntity
  8
0
 62
     0
100
AcDbTrace
 10
14788.41286132678
 20
-144.0733039664535
 30
0.0
 11
14788.41286132678
 21
-144.0133039664535
 31
0.0
 12
14788.59286132678
 22
-144.0433039664535
 32
0.0
 13
14788.59286132678
 23
-144.0433039664535
 33
0.0
  0
MTEXT
  5
AA8
330
A9F
100
AcDbEntity
  8
0
  6
Continuous
 62
     0
100
AcDbMText
 10
14279.59286132678
 20
-144.0433039664535
 30
0.0
 40
0.18
 41
0.0
 46
0.0
 71
     5
 72
     1
  1
\A1;1018.0000
 73
     1
 44
1.0
  0
POINT
  5
AA9
330
A9F
100
AcDbEntity
  8
Defpoints
 62
     0
100
AcDbPoint
 10
13770.59286132678
 20
-128.959460227497
 30
0.0
  0
POINT
  5
AAA
330
A9F
100
AcDbEntity
  8
Defpoints
 62
     0
100
AcDbPoint
 10
14788.59286132678
 20
-128.959460227497
 30
0.0
  0
POINT
  5
AAB
330
A9F
100
AcDbEntity
  8
Defpoints
 62
     0
100
AcDbPoint
 10
14788.59286132678
 20
-144.0433039664535
 30
0.0
  0
ENDBLK
  5
AA1
330
A9F
100
AcDbEntity
  8
0
100
AcDbBlockEnd
  0
BLOCK
  5
AB0
330
AAF
100
AcDbEntity
  8
0
100
AcDbBlockBegin
  2
*D4
 70
     1
 10
0.0
 20
0.0
 30
0.0
  3
*D4
  1

  0
LINE
  5
AB2
330
AAF
100
AcDbEntity
  8
0
  6
Continuous
 62
     0
370
    -2
100
AcDbLine
 10
11351.21787867026
 20
244.551032473231
 30
0.0
 11
11351.21787867026
 21
190.4296389428727
 31
0.0
  0
LINE
  5
AB3
330
AAF
100
AcDbEntity
  8
0
  6
Continuous
 62
     0
370
    -2
100
AcDbLine
 10
14279.59286132678
 20
244.551032473231
 30
0.0
 11
14279.59286132678
 21
190.4296389428727
 31
0.0
  0
LINE
  5
AB4
330
AAF
100
AcDbEntity
  8
0
  6
Continuous
 62
     0
370
    -2
100
AcDbLine
 10
11351.39787867026
 20
190.6096389428727
 30
0.0
 11
12814.61036999852
 21
190.6096389428727
 31
0.0
  0
LINE
  5
AB5
330
AAF
100
AcDbEntity
  8
0
  6
Continuous
 62
     0
370
    -2
100
AcDbLine
 10
14279.41286132678
 20
190.6096389428727
 30
0.0
 11
12816.20036999852
 21
190.6096389428727
 31
0.0
  0
SOLID
  5
AB6
330
AAF
100
AcDbEntity
  8
0
 62
     0
100
AcDbTrace
 10
11351.39787867026
 20
190.6396389428727
 30
0.0
 11
11351.39787867026
 21
190.5796389428727
 31
0.0
 12
11351.21787867026
 22
190.6096389428727
 32
0.0
 13
11351.21787867026
 23
190.6096389428727
 33
0.0
  0
SOLID
  5
AB7
330
AAF
100
AcDbEntity
  8
0
 62
     0
100
AcDbTrace
 10
14279.41286132678
 20
190.5796389428727
 30
0.0
 11
14279.41286132678
 21
190.6396389428727
 31
0.0
 12
14279.59286132678
 22
190.6096389428727
 32
0.0
 13
14279.59286132678
 23
190.6096389428727
 33
0.0
  0
MTEXT
  5
AB8
330
AAF
100
AcDbEntity
  8
0
  6
Continuous
 62
     0
100
AcDbMText
 10
12815.40536999852
 20
190.6096389428727
 30
0.0
 40
0.18
 41
0.0
 46
0.0
 71
     5
 72
     1
  1
\A1;2928.3750
 73
     1
 44
1.0
  0
POINT
  5
AB9
330
AAF
100
AcDbEntity
  8
Defpoints
 62
     0
100
AcDbPoint
 10
11351.21787867026
 20
244.613532473231
 30
0.0
  0
POINT
  5
ABA
330
AAF
100
AcDbEntity
  8
Defpoints
 62
     0
100
AcDbPoint
 10
14279.59286132678
 20
244.613532473231
 30
0.0
  0
POINT
  5
ABB
330
AAF
100
AcDbEntity
  8
Defpoints
 62
     0
100
AcDbPoint
 10
14279.59286132678
 20
190.6096389428727
 30
0.0
  0
ENDBLK
  5
AB1
330
AAF
100
AcDbEntity
  8
0
100
AcDbBlockEnd
  0
ENDSEC
  0
SECTION
  2
ENTITIES
  0
TEXT
  5
4F9
330
A
100
AcDbEntity
  8
1
 62
     0
100
AcDbText
 10
16490.27712890613
 20
-4366.656868680892
 30
0.0
 40
52.5
  1
SAT-2000C-125
 41
0.9
  7
CONVERTER_1
100
AcDbText
  0
INSERT
  5
29
330
A
100
AcDbEntity
  8
0
100
AcDbBlockReference
  2
SAT2000C125__1
 10
0.0
 20
0.0
 30
0.0
  0
VIEWPORT
  5
1EBE
330
1EBA
100
AcDbEntity
 67
     1
  8
0
100
AcDbViewport
 10
5.25
 20
3.5
 30
0.0
 40
11.55
 41
8.925
 68
     1
 69
     1
 12
5.25
 22
3.5
 13
0.0
 23
0.0
 14
0.5
 24
0.5
 15
0.0
 25
0.0
 16
0.0
 26
0.0
 36
1.0
 17
0.0
 27
0.0
 37
0.0
 42
50.0
 43
0.0
 44
0.0
 45
8.925
 50
0.0
 51
0.0
 72
   100
 90
   557152
  1

281
     0
 71
     1
 74
     0
110
0.0
120
0.0
130
0.0
111
1.0
121
0.0
131
0.0
112
0.0
122
1.0
132
0.0
 79
     0
146
0.0
170
     0
 61
     5
348
528
292
     1
282
     1
141
0.0
142
0.0
 63
   256
361
1EC2
  0
VIEWPORT
  5
1EBF
102
{ACAD_XDICTIONARY
360
1EC0
102
}
330
1EBA
100
AcDbEntity
 67
     1
  8
0
100
AcDbViewport
 10
5.25
 20
3.5
 30
0.0
 40
8.4
 41
5.600000000000001
 68
     2
 69
     2
 12
13868.48072750473
 22
-2144.263688152184
 13
0.0
 23
0.0
 14
0.5
 24
0.5
 15
0.0
 25
0.0
 16
0.0
 26
0.0
 36
1.0
 17
0.0
 27
0.0
 37
0.0
 42
50.0
 43
0.0
 44
0.0
 45
4672.647985837131
 50
0.0
 51
0.0
 72
   100
 90
   557152
  1

281
     0
 71
     1
 74
     0
110
0.0
120
0.0
130
0.0
111
1.0
121
0.0
131
0.0
112
0.0
122
1.0
132
0.0
 79
     0
146
0.0
170
     0
 61
     5
348
528
292
     1
282
     1
141
0.0
142
0.0
 63
   256
  0
ENDSEC
  0
SECTION
  2
OBJECTS
  0
DICTIONARY
  5
19
330
0
100
AcDbDictionary
281
     1
  3
ACAD_DETAILVIEWSTYLE
350
B97
  3
ACAD_GROUP
350
1A
  3
ACAD_LAYOUT
350
520
  3
ACAD_MATERIAL
350
53C
  3
ACAD_MLEADERSTYLE
350
542
  3
ACAD_MLINESTYLE
350
1B
  3
ACAD_PLOTSETTINGS
350
4FB
  3
ACAD_PLOTSTYLENAME
350
4FC
  3
ACAD_SCALELIST
350
4FE
  3
ACAD_SECTIONVIEWSTYLE
350
B98
  3
ACAD_TABLESTYLE
350
540
  3
ACAD_VISUALSTYLE
350
523
  3
ACDB_RECOMPOSE_DATA
350
1EC8
  3
AcDbVariableDictionary
350
B8F
  3
APPDATA
350
544
  0
SUN
  5
10B7
330
15
100
AcDbSun
 90
        1
290
     0
 63
     7
421
 16777215
 40
1.0
291
     1
 91
  2455826
 92
 54000000
292
     0
 70
     2
 71
   256
280
     1
  0
SUN
  5
1EC2
330
1EBE
100
AcDbSun
 90
        1
290
     0
 63
     7
421
 16777215
 40
1.0
291
     1
 91
  2455826
 92
 54000000
292
     0
 70
     2
 71
   256
280
     1
  0
DICTIONARY
  5
1EC0
330
1EBF
100
AcDbDictionary
280
     1
281
     1
  3
ASDK_XREC_ANNOTATION_SCALE_INFO
360
1EC1
  0
DICTIONARY
  5
B97
102
{ACAD_REACTORS
330
19
102
}
330
19
100
AcDbDictionary
281
     1
  0
DICTIONARY
  5
1A
102
{ACAD_REACTORS
330
19
102
}
330
19
100
AcDbDictionary
281
     1
  0
DICTIONARY
  5
520
102
{ACAD_REACTORS
330
19
102
}
330
19
100
AcDbDictionary
281
     1
  3
Model
350
521
  3
シート1
350
1EBB
  0
DICTIONARY
  5
53C
102
{ACAD_REACTORS
330
19
102
}
330
19
100
AcDbDictionary
281
     1
  3
ByBlock
350
53E
  3
ByLayer
350
53D
  3
Global
350
53F
  0
DICTIONARY
  5
542
102
{ACAD_REACTORS
330
19
102
}
330
19
100
AcDbDictionary
281
     1
  3
Standard
350
543
  0
DICTIONARY
  5
1B
102
{ACAD_REACTORS
330
19
102
}
330
19
100
AcDbDictionary
281
     1
  3
STANDARD
350
1C
  0
DICTIONARY
  5
4FB
102
{ACAD_REACTORS
330
19
102
}
330
19
100
AcDbDictionary
281
     1
  0
ACDBDICTIONARYWDFLT
  5
4FC
102
{ACAD_REACTORS
330
19
102
}
330
19
100
AcDbDictionary
281
     1
  3
Normal
350
4FD
100
AcDbDictionaryWithDefault
340
4FD
  0
DICTIONARY
  5
4FE
102
{ACAD_REACTORS
330
19
102
}
330
19
100
AcDbDictionary
281
     1
  3
A0
350
4FF
  3
A1
350
500
  3
A2
350
501
  3
A3
350
502
  3
A4
350
503
  3
A5
350
504
  3
A6
350
505
  3
A7
350
506
  3
A8
350
507
  3
A9
350
508
  3
B0
350
509
  3
B1
350
50A
  3
B2
350
50B
  3
B3
350
50C
  3
B4
350
50D
  3
B5
350
50E
  3
B6
350
50F
  3
B7
350
510
  3
B8
350
511
  3
B9
350
512
  3
C0
350
513
  3
C1
350
514
  3
C2
350
515
  3
C3
350
516
  3
C4
350
517
  3
C5
350
518
  3
C6
350
519
  3
C7
350
51A
  3
C8
350
51B
  3
C9
350
51C
  3
D0
350
51D
  3
D1
350
51E
  3
D2
350
51F
  0
DICTIONARY
  5
B98
102
{ACAD_REACTORS
330
19
102
}
330
19
100
AcDbDictionary
281
     1
  0
DICTIONARY
  5
540
102
{ACAD_REACTORS
330
19
102
}
330
19
100
AcDbDictionary
281
     1
  3
Standard
350
541
  0
DICTIONARY
  5
523
102
{ACAD_REACTORS
330
19
102
}
330
19
100
AcDbDictionary
281
     1
  3
2dWireframe
350
528
  3
Basic
350
52B
  3
Brighten
350
52F
  3
ColorChange
350
533
  3
Conceptual
350
52D
  3
Dim
350
52E
  3
EdgeColorOff
350
536
  3
Facepattern
350
532
  3
Flat
350
524
  3
FlatWithEdges
350
525
  3
Gouraud
350
526
  3
GouraudWithEdges
350
527
  3
Hidden
350
52A
  3
JitterOff
350
534
  3
Linepattern
350
531
  3
OverhangOff
350
535
  3
Realistic
350
52C
  3
Shaded
350
53B
  3
Shaded with edges
350
53A
  3
Shades of Gray
350
537
  3
Sketchy
350
538
  3
Thicken
350
530
  3
Wireframe
350
529
  3
X-Ray
350
539
  0
XRECORD
  5
1EC8
102
{ACAD_REACTORS
330
19
102
}
330
19
100
AcDbXrecord
280
     1
 90
        1
330
541
  0
DICTIONARY
  5
B8F
102
{ACAD_REACTORS
330
19
102
}
330
19
100
AcDbDictionary
281
     1
  3
CANNOSCALE
350
B90
  3
CMLEADERSTYLE
350
B95
  3
CTABLESTYLE
350
B94
  3
MSLTSCALE
350
B96
  0
DICTIONARY
  5
544
102
{ACAD_REACTORS
330
19
102
}
330
19
100
AcDbDictionary
281
     1
  0
XRECORD
  5
1EC1
102
{ACAD_REACTORS
330
1EC0
102
}
330
1EC0
100
AcDbXrecord
280
     1
 90
        1
340
4FF
  0
LAYOUT
  5
521
102
{ACAD_REACTORS
330
520
102
}
330
520
100
AcDbPlotSettings
  1

  2
none_device
  4
Letter_(8.50_x_11.00_Inches)
  6

 40
6.35
 41
6.35
 42
6.35
 43
6.35
 44
215.9
 45
279.4
 46
0.0
 47
0.0
 48
0.0
 49
0.0
140
0.0
141
0.0
142
1.0
143
0.8722256190476192
 70
  1712
 72
     0
 73
     0
 74
     0
  7

 75
     0
 76
     0
 77
     2
 78
   300
147
1.146492350330064
148
-87.33095066012679
149
0.0000127000000131
100
AcDbLayout
  1
Model
 70
     1
 71
     0
 10
0.0
 20
0.0
 11
0.0
 21
0.0
 12
0.0
 22
0.0
 32
0.0
 14
10687.55932610333
 24
-4434.777429564525
 34
0.0
 15
17049.40212890613
 25
146.2500303954293
 35
0.0
146
0.0
 13
0.0
 23
0.0
 33
0.0
 16
1.0
 26
0.0
 36
0.0
 17
0.0
 27
1.0
 37
0.0
 76
     0
330
A
331
15
  0
LAYOUT
  5
1EBB
102
{ACAD_REACTORS
330
520
102
}
330
520
100
AcDbPlotSettings
  1

  2
none_device
  4
ANSI_A_(11.00_x_8.50_Inches)
  6

 40
6.35
 41
19.05
 42
6.35
 43
19.05
 44
279.4
 45
215.9
 46
0.0
 47
0.0
 48
0.0
 49
0.0
140
0.0
141
0.0
142
1.0
143
1.0
 70
   688
 72
     0
 73
     0
 74
     5
  7

 75
    16
 76
     0
 77
     2
 78
   300
147
1.0
148
0.0
149
0.0
100
AcDbLayout
  1
シート1
 70
     1
 71
     1
 10
0.0
 20
0.0
 11
0.0
 21
0.0
 12
0.0
 22
0.0
 32
0.0
 14
1.05
 24
0.6999999999999997
 34
0.0
 15
9.45
 25
6.300000000000001
 35
0.0
146
0.0
 13
0.0
 23
0.0
 33
0.0
 16
1.0
 26
0.0
 36
0.0
 17
0.0
 27
1.0
 37
0.0
 76
     0
330
1EBA
331
1EBE
  0
MATERIAL
  5
53E
102
{ACAD_REACTORS
330
53C
102
}
330
53C
100
AcDbMaterial
  1
ByBlock
 72
     1
 94
      127
  0
MATERIAL
  5
53D
102
{ACAD_REACTORS
330
53C
102
}
330
53C
100
AcDbMaterial
  1
ByLayer
 72
     1
 94
      127
  0
MATERIAL
  5
53F
102
{ACAD_REACTORS
330
53C
102
}
330
53C
100
AcDbMaterial
  1
Global
 72
     1
 94
      127
  0
MLEADERSTYLE
  5
543
102
{ACAD_REACTORS
330
542
102
}
330
542
100
AcDbMLeaderStyle
179
     2
170
     2
171
     1
172
     0
 90
        2
 40
0.0
 41
0.0
173
     1
 91
-1056964608
340
11
 92
       -2
290
     1
 42
0.09
291
     1
 43
0.36
  3
Standard
341
0
 44
0.18
300

342
17
174
     1
178
     1
175
     1
176
     0
 93
-1056964608
 45
0.18
292
     0
297
     0
 46
0.18
343
0
 94
-1056964608
 47
1.0
 49
1.0
140
1.0
293
     1
141
0.0
294
     1
177
     0
142
1.0
295
     0
296
     0
143
0.125
271
     0
272
     9
273
     9
298
     0
  0
MLINESTYLE
  5
1C
102
{ACAD_REACTORS
330
1B
102
}
330
1B
100
AcDbMlineStyle
  2
STANDARD
 70
     0
  3

 62
     0
 51
90.0
 52
90.0
 71
     2
 49
0.5
 62
   256
  6
BYLAYER
 49
-0.5
 62
   256
  6
BYLAYER
  0
ACDBPLACEHOLDER
  5
4FD
102
{ACAD_REACTORS
330
4FC
102
}
330
4FC
  0
SCALE
  5
4FF
102
{ACAD_REACTORS
330
4FE
102
}
330
4FE
100
AcDbScale
 70
     0
300
1:1
140
1.0
141
1.0
290
     1
  0
SCALE
  5
500
102
{ACAD_REACTORS
330
4FE
102
}
330
4FE
100
AcDbScale
 70
     0
300
1:2
140
1.0
141
2.0
290
     0
  0
SCALE
  5
501
102
{ACAD_REACTORS
330
4FE
102
}
330
4FE
100
AcDbScale
 70
     0
300
1:4
140
1.0
141
4.0
290
     0
  0
SCALE
  5
502
102
{ACAD_REACTORS
330
4FE
102
}
330
4FE
100
AcDbScale
 70
     0
300
1:5
140
1.0
141
5.0
290
     0
  0
SCALE
  5
503
102
{ACAD_REACTORS
330
4FE
102
}
330
4FE
100
AcDbScale
 70
     0
300
1:8
140
1.0
141
8.0
290
     0
  0
SCALE
  5
504
102
{ACAD_REACTORS
330
4FE
102
}
330
4FE
100
AcDbScale
 70
     0
300
1:10
140
1.0
141
10.0
290
     0
  0
SCALE
  5
505
102
{ACAD_REACTORS
330
4FE
102
}
330
4FE
100
AcDbScale
 70
     0
300
1:16
140
1.0
141
16.0
290
     0
  0
SCALE
  5
506
102
{ACAD_REACTORS
330
4FE
102
}
330
4FE
100
AcDbScale
 70
     0
300
1:20
140
1.0
141
20.0
290
     0
  0
SCALE
  5
507
102
{ACAD_REACTORS
330
4FE
102
}
330
4FE
100
AcDbScale
 70
     0
300
1:30
140
1.0
141
30.0
290
     0
  0
SCALE
  5
508
102
{ACAD_REACTORS
330
4FE
102
}
330
4FE
100
AcDbScale
 70
     0
300
1:40
140
1.0
141
40.0
290
     0
  0
SCALE
  5
509
102
{ACAD_REACTORS
330
4FE
102
}
330
4FE
100
AcDbScale
 70
     0
300
1:50
140
1.0
141
50.0
290
     0
  0
SCALE
  5
50A
102
{ACAD_REACTORS
330
4FE
102
}
330
4FE
100
AcDbScale
 70
     0
300
1:100
140
1.0
141
100.0
290
     0
  0
SCALE
  5
50B
102
{ACAD_REACTORS
330
4FE
102
}
330
4FE
100
AcDbScale
 70
     0
300
2:1
140
2.0
141
1.0
290
     0
  0
SCALE
  5
50C
102
{ACAD_REACTORS
330
4FE
102
}
330
4FE
100
AcDbScale
 70
     0
300
4:1
140
4.0
141
1.0
290
     0
  0
SCALE
  5
50D
102
{ACAD_REACTORS
330
4FE
102
}
330
4FE
100
AcDbScale
 70
     0
300
8:1
140
8.0
141
1.0
290
     0
  0
SCALE
  5
50E
102
{ACAD_REACTORS
330
4FE
102
}
330
4FE
100
AcDbScale
 70
     0
300
10:1
140
10.0
141
1.0
290
     0
  0
SCALE
  5
50F
102
{ACAD_REACTORS
330
4FE
102
}
330
4FE
100
AcDbScale
 70
     0
300
100:1
140
100.0
141
1.0
290
     0
  0
SCALE
  5
510
102
{ACAD_REACTORS
330
4FE
102
}
330
4FE
100
AcDbScale
 70
     0
300
1/128" = 1'-0"
140
0.0078125
141
12.0
290
     0
  0
SCALE
  5
511
102
{ACAD_REACTORS
330
4FE
102
}
330
4FE
100
AcDbScale
 70
     0
300
1/64" = 1'-0"
140
0.015625
141
12.0
290
     0
  0
SCALE
  5
512
102
{ACAD_REACTORS
330
4FE
102
}
330
4FE
100
AcDbScale
 70
     0
300
1/32" = 1'-0"
140
0.03125
141
12.0
290
     0
  0
SCALE
  5
513
102
{ACAD_REACTORS
330
4FE
102
}
330
4FE
100
AcDbScale
 70
     0
300
1/16" = 1'-0"
140
0.0625
141
12.0
290
     0
  0
SCALE
  5
514
102
{ACAD_REACTORS
330
4FE
102
}
330
4FE
100
AcDbScale
 70
     0
300
3/32" = 1'-0"
140
0.09375
141
12.0
290
     0
  0
SCALE
  5
515
102
{ACAD_REACTORS
330
4FE
102
}
330
4FE
100
AcDbScale
 70
     0
300
1/8" = 1'-0"
140
0.125
141
12.0
290
     0
  0
SCALE
  5
516
102
{ACAD_REACTORS
330
4FE
102
}
330
4FE
100
AcDbScale
 70
     0
300
3/16" = 1'-0"
140
0.1875
141
12.0
290
     0
  0
SCALE
  5
517
102
{ACAD_REACTORS
330
4FE
102
}
330
4FE
100
AcDbScale
 70
     0
300
1/4" = 1'-0"
140
0.25
141
12.0
290
     0
  0
SCALE
  5
518
102
{ACAD_REACTORS
330
4FE
102
}
330
4FE
100
AcDbScale
 70
     0
300
3/8" = 1'-0"
140
0.375
141
12.0
290
     0
  0
SCALE
  5
519
102
{ACAD_REACTORS
330
4FE
102
}
330
4FE
100
AcDbScale
 70
     0
300
1/2" = 1'-0"
140
0.5
141
12.0
290
     0
  0
SCALE
  5
51A
102
{ACAD_REACTORS
330
4FE
102
}
330
4FE
100
AcDbScale
 70
     0
300
3/4" = 1'-0"
140
0.75
141
12.0
290
     0
  0
SCALE
  5
51B
102
{ACAD_REACTORS
330
4FE
102
}
330
4FE
100
AcDbScale
 70
     0
300
1" = 1'-0"
140
1.0
141
12.0
290
     0
  0
SCALE
  5
51C
102
{ACAD_REACTORS
330
4FE
102
}
330
4FE
100
AcDbScale
 70
     0
300
1-1/2" = 1'-0"
140
1.5
141
12.0
290
     0
  0
SCALE
  5
51D
102
{ACAD_REACTORS
330
4FE
102
}
330
4FE
100
AcDbScale
 70
     0
300
3" = 1'-0"
140
3.0
141
12.0
290
     0
  0
SCALE
  5
51E
102
{ACAD_REACTORS
330
4FE
102
}
330
4FE
100
AcDbScale
 70
     0
300
6" = 1'-0"
140
6.0
141
12.0
290
     0
  0
SCALE
  5
51F
102
{ACAD_REACTORS
330
4FE
102
}
330
4FE
100
AcDbScale
 70
     0
300
1'-0" = 1'-0"
140
12.0
141
12.0
290
     0
  0
TABLESTYLE
  5
541
102
{ACAD_REACTORS
330
540
102
}
102
{ACAD_XDICTIONARY
360
1EC6
102
}
330
540
100
AcDbTableStyle
  3
Standard
 70
     0
 71
     0
 40
0.06
 41
0.06
280
     0
281
     0
  7
STANDARD
140
0.18
170
     2
 62
     0
 63
   257
283
     0
 90
        4
 91
        0
  1

274
    -2
284
     1
 64
     0
275
    -2
285
     1
 65
     0
276
    -2
286
     1
 66
     0
277
    -2
287
     1
 67
     0
278
    -2
288
     1
 68
     0
279
    -2
289
     1
 69
     0
  7
STANDARD
140
0.25
170
     5
 62
     0
 63
   257
283
     0
 90
        4
 91
        0
  1

274
    -2
284
     1
 64
     0
275
    -2
285
     1
 65
     0
276
    -2
286
     1
 66
     0
277
    -2
287
     1
 67
     0
278
    -2
288
     1
 68
     0
279
    -2
289
     1
 69
     0
  7
STANDARD
140
0.18
170
     5
 62
     0
 63
   257
283
     0
 90
        4
 91
        0
  1

274
    -2
284
     1
 64
     0
275
    -2
285
     1
 65
     0
276
    -2
286
     1
 66
     0
277
    -2
287
     1
 67
     0
278
    -2
288
     1
 68
     0
279
    -2
289
     1
 69
     0
  0
VISUALSTYLE
  5
528
102
{ACAD_REACTORS
330
523
102
}
330
523
100
AcDbVisualStyle
  2
2dWireframe
 70
     4
177
     3
291
     0
 70
    58
 90
        0
176
     1
 90
        2
176
     1
 90
        0
176
     1
 90
        0
176
     1
 40
0.6
176
     1
 40
30.0
176
     1
 62
     7
420
 16777215
176
     1
 90
        1
176
     1
 90
        4
176
     1
 62
     7
176
     1
 62
   257
176
     1
 90
        1
176
     1
 90
        1
176
     1
 40
1.0
176
     1
 90
        0
176
     1
 62
   257
176
     1
 40
1.0
176
     1
 90
        1
176
     1
 90
        6
176
     1
 90
        2
176
     1
 62
     7
176
     1
 90
        5
176
     1
 90
        0
176
     1
 90
        0
176
     1
290
     0
176
     1
 90
        1
176
     1
 40
0.0
176
     1
 90
        0
176
     1
290
     1
176
     1
290
     1
176
     1
290
     0
176
     1
290
     0
176
     1
290
     0
176
     1
290
     0
176
     1
290
     0
176
     1
290
     0
176
     1
290
     0
176
     1
 90
       50
176
     1
 40
0.0
176
     1
 40
1.0
176
     1
 90
        0
176
     1
 62
    18
420
        0
176
     1
 90
       50
176
     1
 90
        3
176
     1
 62
     5
420
      255
176
     1
290
     0
176
     1
 90
       50
176
     1
 90
       50
176
     1
 90
       50
176
     1
290
     0
176
     1
 90
       50
176
     1
 62
   256
176
     0
 40
1.0
176
     0
 90
        2
176
     1
  1
strokes_ogs.tif
176
     1
290
     0
176
     1
 40
1.0
176
     1
 40
1.0
176
     1
  0
VISUALSTYLE
  5
52B
102
{ACAD_REACTORS
330
523
102
}
330
523
100
AcDbVisualStyle
  2
Basic
 70
     7
177
     3
291
     1
 70
    58
 90
        1
176
     1
 90
        0
176
     1
 90
        1
176
     1
 90
        0
176
     1
 40
0.6
176
     1
 40
30.0
176
     1
 62
     7
420
 16777215
176
     1
 90
        0
176
     1
 90
        4
176
     1
 62
     7
176
     1
 62
   257
176
     1
 90
        1
176
     1
 90
        1
176
     1
 40
1.0
176
     1
 90
        8
176
     1
 62
     7
176
     1
 40
1.0
176
     1
 90
        1
176
     1
 90
        6
176
     1
 90
        2
176
     1
 62
     7
176
     1
 90
        5
176
     1
 90
        0
176
     1
 90
        0
176
     1
290
     0
176
     1
 90
        1
176
     1
 40
0.0
176
     1
 90
        0
176
     1
290
     0
176
     1
290
     1
176
     1
290
     1
176
     1
290
     0
176
     1
290
     0
176
     1
290
     0
176
     1
290
     0
176
     1
290
     0
176
     1
290
     0
176
     1
 90
       50
176
     1
 40
0.0
176
     1
 40
1.0
176
     1
 90
        0
176
     1
 62
    18
420
        0
176
     1
 90
       50
176
     1
 90
        3
176
     1
 62
     5
420
      255
176
     1
290
     0
176
     1
 90
       50
176
     1
 90
       50
176
     1
 90
       50
176
     1
290
     0
176
     1
 90
       50
176
     1
 62
   256
176
     0
 40
1.0
176
     0
 90
        2
176
     1
  1
strokes_ogs.tif
176
     1
290
     0
176
     1
 40
1.0
176
     1
 40
1.0
176
     1
  0
VISUALSTYLE
  5
52F
102
{ACAD_REACTORS
330
523
102
}
330
523
100
AcDbVisualStyle
  2
Brighten
 70
    12
177
     3
291
     1
 70
    58
 90
        2
176
     1
 90
        2
176
     1
 90
        0
176
     1
 90
        0
176
     1
 40
0.6
176
     1
 40
30.0
176
     1
 62
     7
420
 16777215
176
     1
 90
        1
176
     1
 90
        4
176
     1
 62
     7
176
     1
 62
   257
176
     1
 90
        1
176
     1
 90
        1
176
     1
 40
1.0
176
     1
 90
        8
176
     1
 62
     7
176
     1
 40
1.0
176
     1
 90
        1
176
     1
 90
        6
176
     1
 90
        2
176
     1
 62
     7
176
     1
 90
        5
176
     1
 90
        0
176
     1
 90
        0
176
     1
290
     0
176
     1
 90
        1
176
     1
 40
50.0
176
     1
 90
        0
176
     1
290
     0
176
     1
290
     1
176
     1
290
     1
176
     1
290
     0
176
     1
290
     0
176
     1
290
     0
176
     1
290
     0
176
     1
290
     0
176
     1
290
     0
176
     1
 90
       50
176
     1
 40
0.0
176
     1
 40
1.0
176
     1
 90
        0
176
     1
 62
    18
420
        0
176
     1
 90
       50
176
     1
 90
        3
176
     1
 62
     5
420
      255
176
     1
290
     0
176
     1
 90
       50
176
     1
 90
       50
176
     1
 90
       50
176
     1
290
     0
176
     1
 90
       50
176
     1
 62
   256
176
     0
 40
1.0
176
     0
 90
        2
176
     1
  1
strokes_ogs.tif
176
     1
290
     0
176
     1
 40
1.0
176
     1
 40
1.0
176
     1
  0
VISUALSTYLE
  5
533
102
{ACAD_REACTORS
330
523
102
}
330
523
100
AcDbVisualStyle
  2
ColorChange
 70
    16
177
     3
291
     1
 70
    58
 90
        2
176
     1
 90
        2
176
     1
 90
        3
176
     1
 90
        0
176
     1
 40
0.6
176
     1
 40
30.0
176
     1
 62
     8
420
  8421504
176
     1
 90
        1
176
     1
 90
        4
176
     1
 62
     7
176
     1
 62
   257
176
     1
 90
        1
176
     1
 90
        1
176
     1
 40
1.0
176
     1
 90
        8
176
     1
 62
     8
420
  8421504
176
     1
 40
1.0
176
     1
 90
        1
176
     1
 90
        6
176
     1
 90
        2
176
     1
 62
     7
176
     1
 90
        5
176
     1
 90
        0
176
     1
 90
        0
176
     1
290
     0
176
     1
 90
        1
176
     1
 40
0.0
176
     1
 90
        0
176
     1
290
     0
176
     1
290
     1
176
     1
290
     1
176
     1
290
     0
176
     1
290
     0
176
     1
290
     0
176
     1
290
     0
176
     1
290
     0
176
     1
290
     0
176
     1
 90
       50
176
     1
 40
0.0
176
     1
 40
1.0
176
     1
 90
        0
176
     1
 62
    18
420
        0
176
     1
 90
       50
176
     1
 90
        3
176
     1
 62
     5
420
      255
176
     1
290
     0
176
     1
 90
       50
176
     1
 90
       50
176
     1
 90
       50
176
     1
290
     0
176
     1
 90
       50
176
     1
 62
   256
176
     0
 40
1.0
176
     0
 90
        2
176
     1
  1
strokes_ogs.tif
176
     1
290
     0
176
     1
 40
1.0
176
     1
 40
1.0
176
     1
  0
VISUALSTYLE
  5
52D
102
{ACAD_REACTORS
330
523
102
}
330
523
100
AcDbVisualStyle
  2
Conceptual
 70
     9
177
     3
291
     0
 70
    58
 90
        3
176
     1
 90
        2
176
     1
 90
        0
176
     1
 90
        0
176
     1
 40
0.6
176
     1
 40
30.0
176
     1
 62
     7
420
 16777215
176
     1
 90
        2
176
     1
 90
        2
176
     1
 62
     7
176
     1
 62
   257
176
     1
 90
        1
176
     1
 90
        1
176
     1
 40
179.0
176
     1
 90
        8
176
     1
 62
     7
176
     1
 40
1.0
176
     1
 90
        1
176
     1
 90
        6
176
     1
 90
        2
176
     1
 62
     7
176
     1
 90
        3
176
     1
 90
        0
176
     1
 90
        0
176
     1
290
     0
176
     1
 90
        1
176
     1
 40
0.0
176
     1
 90
        0
176
     1
290
     0
176
     1
290
     1
176
     1
290
     1
176
     1
290
     0
176
     1
290
     0
176
     1
290
     0
176
     1
290
     0
176
     1
290
     0
176
     1
290
     0
176
     1
 90
       50
176
     1
 40
0.0
176
     1
 40
1.0
176
     1
 90
        0
176
     1
 62
    18
420
        0
176
     1
 90
       50
176
     1
 90
        3
176
     1
 62
     5
420
      255
176
     1
290
     0
176
     1
 90
       50
176
     1
 90
       50
176
     1
 90
       50
176
     1
290
     0
176
     1
 90
       50
176
     1
 62
   256
176
     0
 40
1.0
176
     0
 90
        2
176
     1
  1
strokes_ogs.tif
176
     1
290
     0
176
     1
 40
1.0
176
     1
 40
1.0
176
     1
  0
VISUALSTYLE
  5
52E
102
{ACAD_REACTORS
330
523
102
}
330
523
100
AcDbVisualStyle
  2
Dim
 70
    11
177
     3
291
     1
 70
    58
 90
        2
176
     1
 90
        2
176
     1
 90
        0
176
     1
 90
        0
176
     1
 40
0.6
176
     1
 40
30.0
176
     1
 62
     7
420
 16777215
176
     1
 90
        1
176
     1
 90
        4
176
     1
 62
     7
176
     1
 62
   257
176
     1
 90
        1
176
     1
 90
        1
176
     1
 40
1.0
176
     1
 90
        8
176
     1
 62
     7
176
     1
 40
1.0
176
     1
 90
        1
176
     1
 90
        6
176
     1
 90
        2
176
     1
 62
     7
176
     1
 90
        5
176
     1
 90
        0
176
     1
 90
        0
176
     1
290
     0
176
     1
 90
        1
176
     1
 40
-50.0
176
     1
 90
        0
176
     1
290
     0
176
     1
290
     1
176
     1
290
     1
176
     1
290
     0
176
     1
290
     0
176
     1
290
     0
176
     1
290
     0
176
     1
290
     0
176
     1
290
     0
176
     1
 90
       50
176
     1
 40
0.0
176
     1
 40
1.0
176
     1
 90
        0
176
     1
 62
    18
420
        0
176
     1
 90
       50
176
     1
 90
        3
176
     1
 62
     5
420
      255
176
     1
290
     0
176
     1
 90
       50
176
     1
 90
       50
176
     1
 90
       50
176
     1
290
     0
176
     1
 90
       50
176
     1
 62
   256
176
     0
 40
1.0
176
     0
 90
        2
176
     1
  1
strokes_ogs.tif
176
     1
290
     0
176
     1
 40
1.0
176
     1
 40
1.0
176
     1
  0
VISUALSTYLE
  5
536
102
{ACAD_REACTORS
330
523
102
}
330
523
100
AcDbVisualStyle
  2
EdgeColorOff
 70
    22
177
     3
291
     1
 70
    58
 90
        2
176
     0
 90
        2
176
     0
 90
        0
176
     0
 90
        0
176
     0
 40
0.6
176
     0
 40
30.0
176
     0
 62
     7
420
 16777215
176
     0
 90
        1
176
     0
 90
        4
176
     0
 62
     7
176
     0
 62
   257
176
     0
 90
        1
176
     0
 90
        1
176
     0
 40
1.0
176
     0
 90
        8
176
     2
 62
     7
176
     0
 40
1.0
176
     0
 90
        1
176
     0
 90
        6
176
     0
 90
        2
176
     0
 62
     7
176
     0
 90
        5
176
     0
 90
        0
176
     0
 90
        0
176
     0
290
     0
176
     0
 90
        1
176
     0
 40
0.0
176
     0
 90
        0
176
     0
290
     0
176
     0
290
     1
176
     0
290
     1
176
     0
290
     0
176
     0
290
     0
176
     0
290
     0
176
     0
290
     0
176
     0
290
     0
176
     0
290
     0
176
     0
 90
       50
176
     0
 40
0.0
176
     0
 40
1.0
176
     0
 90
        0
176
     0
 62
    18
420
        0
176
     0
 90
       50
176
     0
 90
        3
176
     0
 62
     5
420
      255
176
     0
290
     0
176
     0
 90
       50
176
     0
 90
       50
176
     0
 90
       50
176
     0
290
     0
176
     0
 90
       50
176
     0
 62
   256
176
     0
 40
1.0
176
     0
 90
        2
176
     0
  1
strokes_ogs.tif
176
     0
290
     0
176
     0
 40
1.0
176
     0
 40
1.0
176
     0
  0
VISUALSTYLE
  5
532
102
{ACAD_REACTORS
330
523
102
}
330
523
100
AcDbVisualStyle
  2
Facepattern
 70
    15
177
     3
291
     1
 70
    58
 90
        2
176
     1
 90
        2
176
     1
 90
        0
176
     1
 90
        0
176
     1
 40
0.6
176
     1
 40
30.0
176
     1
 62
     7
420
 16777215
176
     1
 90
        1
176
     1
 90
        4
176
     1
 62
     7
176
     1
 62
   257
176
     1
 90
        1
176
     1
 90
        1
176
     1
 40
1.0
176
     1
 90
        8
176
     1
 62
     7
176
     1
 40
1.0
176
     1
 90
        1
176
     1
 90
        6
176
     1
 90
        2
176
     1
 62
     7
176
     1
 90
        5
176
     1
 90
        0
176
     1
 90
        0
176
     1
290
     0
176
     1
 90
        1
176
     1
 40
0.0
176
     1
 90
        0
176
     1
290
     0
176
     1
290
     1
176
     1
290
     1
176
     1
290
     0
176
     1
290
     0
176
     1
290
     0
176
     1
290
     0
176
     1
290
     0
176
     1
290
     0
176
     1
 90
       50
176
     1
 40
0.0
176
     1
 40
1.0
176
     1
 90
        0
176
     1
 62
    18
420
        0
176
     1
 90
       50
176
     1
 90
        3
176
     1
 62
     5
420
      255
176
     1
290
     0
176
     1
 90
       50
176
     1
 90
       50
176
     1
 90
       50
176
     1
290
     0
176
     1
 90
       50
176
     1
 62
   256
176
     0
 40
1.0
176
     0
 90
        2
176
     1
  1
strokes_ogs.tif
176
     1
290
     0
176
     1
 40
1.0
176
     1
 40
1.0
176
     1
  0
VISUALSTYLE
  5
524
102
{ACAD_REACTORS
330
523
102
}
330
523
100
AcDbVisualStyle
  2
Flat
 70
     0
177
     3
291
     1
 70
    58
 90
        2
176
     1
 90
        1
176
     1
 90
        1
176
     1
 90
        2
176
     1
 40
0.6
176
     1
 40
30.0
176
     1
 62
     7
420
 16777215
176
     1
 90
        0
176
     1
 90
        0
176
     1
 62
     7
176
     1
 62
   257
176
     1
 90
        1
176
     1
 90
        1
176
     1
 40
1.0
176
     1
 90
        8
176
     1
 62
     7
176
     1
 40
1.0
176
     1
 90
        1
176
     1
 90
        6
176
     1
 90
        2
176
     1
 62
     7
176
     1
 90
        5
176
     1
 90
        0
176
     1
 90
        0
176
     1
290
     0
176
     1
 90
       13
176
     1
 40
0.0
176
     1
 90
        0
176
     1
290
     0
176
     1
290
     1
176
     1
290
     1
176
     1
290
     0
176
     1
290
     0
176
     1
290
     0
176
     1
290
     0
176
     1
290
     0
176
     1
290
     0
176
     1
 90
       50
176
     1
 40
0.0
176
     1
 40
1.0
176
     1
 90
        0
176
     1
 62
    18
420
        0
176
     1
 90
       50
176
     1
 90
        3
176
     1
 62
     5
420
      255
176
     1
290
     0
176
     1
 90
       50
176
     1
 90
       50
176
     1
 90
       50
176
     1
290
     0
176
     1
 90
       50
176
     1
 62
   256
176
     0
 40
1.0
176
     0
 90
        2
176
     1
  1
strokes_ogs.tif
176
     1
290
     0
176
     1
 40
1.0
176
     1
 40
1.0
176
     1
  0
VISUALSTYLE
  5
525
102
{ACAD_REACTORS
330
523
102
}
330
523
100
AcDbVisualStyle
  2
FlatWithEdges
 70
     1
177
     3
291
     1
 70
    58
 90
        2
176
     1
 90
        1
176
     1
 90
        1
176
     1
 90
        2
176
     1
 40
0.6
176
     1
 40
30.0
176
     1
 62
     7
420
 16777215
176
     1
 90
        1
176
     1
 90
        0
176
     1
 62
     7
176
     1
 62
   257
176
     1
 90
        1
176
     1
 90
        1
176
     1
 40
1.0
176
     1
 90
        0
176
     1
 62
   257
176
     1
 40
1.0
176
     1
 90
        1
176
     1
 90
        6
176
     1
 90
        2
176
     1
 62
     7
176
     1
 90
        5
176
     1
 90
        0
176
     1
 90
        0
176
     1
290
     0
176
     1
 90
       13
176
     1
 40
0.0
176
     1
 90
        0
176
     1
290
     0
176
     1
290
     1
176
     1
290
     1
176
     1
290
     0
176
     1
290
     0
176
     1
290
     0
176
     1
290
     0
176
     1
290
     0
176
     1
290
     0
176
     1
 90
       50
176
     1
 40
0.0
176
     1
 40
1.0
176
     1
 90
        0
176
     1
 62
    18
420
        0
176
     1
 90
       50
176
     1
 90
        3
176
     1
 62
     5
420
      255
176
     1
290
     0
176
     1
 90
       50
176
     1
 90
       50
176
     1
 90
       50
176
     1
290
     0
176
     1
 90
       50
176
     1
 62
   256
176
     0
 40
1.0
176
     0
 90
        2
176
     1
  1
strokes_ogs.tif
176
     1
290
     0
176
     1
 40
1.0
176
     1
 40
1.0
176
     1
  0
VISUALSTYLE
  5
526
102
{ACAD_REACTORS
330
523
102
}
330
523
100
AcDbVisualStyle
  2
Gouraud
 70
     2
177
     3
291
     1
 70
    58
 90
        2
176
     1
 90
        2
176
     1
 90
        1
176
     1
 90
        2
176
     1
 40
0.6
176
     1
 40
30.0
176
     1
 62
     7
420
 16777215
176
     1
 90
        0
176
     1
 90
        0
176
     1
 62
     7
176
     1
 62
   257
176
     1
 90
        1
176
     1
 90
        1
176
     1
 40
1.0
176
     1
 90
        0
176
     1
 62
     7
176
     1
 40
1.0
176
     1
 90
        1
176
     1
 90
        6
176
     1
 90
        2
176
     1
 62
     7
176
     1
 90
        5
176
     1
 90
        0
176
     1
 90
        0
176
     1
290
     0
176
     1
 90
       13
176
     1
 40
0.0
176
     1
 90
        0
176
     1
290
     0
176
     1
290
     1
176
     1
290
     1
176
     1
290
     0
176
     1
290
     0
176
     1
290
     0
176
     1
290
     0
176
     1
290
     0
176
     1
290
     0
176
     1
 90
       50
176
     1
 40
0.0
176
     1
 40
1.0
176
     1
 90
        0
176
     1
 62
    18
420
        0
176
     1
 90
       50
176
     1
 90
        3
176
     1
 62
     5
420
      255
176
     1
290
     0
176
     1
 90
       50
176
     1
 90
       50
176
     1
 90
       50
176
     1
290
     0
176
     1
 90
       50
176
     1
 62
   256
176
     0
 40
1.0
176
     0
 90
        2
176
     1
  1
strokes_ogs.tif
176
     1
290
     0
176
     1
 40
1.0
176
     1
 40
1.0
176
     1
  0
VISUALSTYLE
  5
527
102
{ACAD_REACTORS
330
523
102
}
330
523
100
AcDbVisualStyle
  2
GouraudWithEdges
 70
     3
177
     3
291
     1
 70
    58
 90
        2
176
     1
 90
        2
176
     1
 90
        1
176
     1
 90
        2
176
     1
 40
0.6
176
     1
 40
30.0
176
     1
 62
     7
420
 16777215
176
     1
 90
        1
176
     1
 90
        0
176
     1
 62
     7
176
     1
 62
   257
176
     1
 90
        1
176
     1
 90
        1
176
     1
 40
1.0
176
     1
 90
        0
176
     1
 62
   257
176
     1
 40
1.0
176
     1
 90
        1
176
     1
 90
        6
176
     1
 90
        2
176
     1
 62
     7
176
     1
 90
        5
176
     1
 90
        0
176
     1
 90
        0
176
     1
290
     0
176
     1
 90
       13
176
     1
 40
0.0
176
     1
 90
        0
176
     1
290
     0
176
     1
290
     1
176
     1
290
     1
176
     1
290
     0
176
     1
290
     0
176
     1
290
     0
176
     1
290
     0
176
     1
290
     0
176
     1
290
     0
176
     1
 90
       50
176
     1
 40
0.0
176
     1
 40
1.0
176
     1
 90
        0
176
     1
 62
    18
420
        0
176
     1
 90
       50
176
     1
 90
        3
176
     1
 62
     5
420
      255
176
     1
290
     0
176
     1
 90
       50
176
     1
 90
       50
176
     1
 90
       50
176
     1
290
     0
176
     1
 90
       50
176
     1
 62
   256
176
     0
 40
1.0
176
     0
 90
        2
176
     1
  1
strokes_ogs.tif
176
     1
290
     0
176
     1
 40
1.0
176
     1
 40
1.0
176
     1
  0
VISUALSTYLE
  5
52A
102
{ACAD_REACTORS
330
523
102
}
330
523
100
AcDbVisualStyle
  2
Hidden
 70
     6
177
     3
291
     0
 70
    58
 90
        1
176
     1
 90
        2
176
     1
 90
        2
176
     1
 90
        0
176
     1
 40
0.6
176
     1
 40
30.0
176
     1
 62
     7
420
 16777215
176
     1
 90
        2
176
     1
 90
        2
176
     1
 62
     7
176
     1
 62
   257
176
     1
 90
        2
176
     1
 90
        1
176
     1
 40
40.0
176
     1
 90
        0
176
     1
 62
   257
176
     1
 40
1.0
176
     1
 90
        1
176
     1
 90
        6
176
     1
 90
        2
176
     1
 62
     7
176
     1
 90
        3
176
     1
 90
        0
176
     1
 90
        0
176
     1
290
     0
176
     1
 90
        1
176
     1
 40
0.0
176
     1
 90
        0
176
     1
290
     0
176
     1
290
     1
176
     1
290
     1
176
     1
290
     0
176
     1
290
     0
176
     1
290
     0
176
     1
290
     0
176
     1
290
     0
176
     1
290
     0
176
     1
 90
       50
176
     1
 40
0.0
176
     1
 40
1.0
176
     1
 90
        0
176
     1
 62
    18
420
        0
176
     1
 90
       50
176
     1
 90
        3
176
     1
 62
     5
420
      255
176
     1
290
     0
176
     1
 90
       50
176
     1
 90
       50
176
     1
 90
       50
176
     1
290
     0
176
     1
 90
       50
176
     1
 62
   256
176
     0
 40
1.0
176
     0
 90
        2
176
     1
  1
strokes_ogs.tif
176
     1
290
     0
176
     1
 40
1.0
176
     1
 40
1.0
176
     1
  0
VISUALSTYLE
  5
534
102
{ACAD_REACTORS
330
523
102
}
330
523
100
AcDbVisualStyle
  2
JitterOff
 70
    20
177
     3
291
     1
 70
    58
 90
        2
176
     0
 90
        2
176
     0
 90
        0
176
     0
 90
        0
176
     0
 40
0.6
176
     0
 40
30.0
176
     0
 62
     7
420
 16777215
176
     0
 90
        1
176
     0
 90
        4
176
     0
 62
     7
176
     0
 62
   257
176
     0
 90
        1
176
     0
 90
        1
176
     0
 40
1.0
176
     0
 90
       10
176
     2
 62
     7
176
     0
 40
1.0
176
     0
 90
        1
176
     0
 90
        6
176
     0
 90
        2
176
     0
 62
     7
176
     0
 90
        5
176
     0
 90
        0
176
     0
 90
        0
176
     0
290
     0
176
     0
 90
        1
176
     0
 40
0.0
176
     0
 90
        0
176
     0
290
     0
176
     0
290
     1
176
     0
290
     1
176
     0
290
     0
176
     0
290
     0
176
     0
290
     0
176
     0
290
     0
176
     0
290
     0
176
     0
290
     0
176
     0
 90
       50
176
     0
 40
0.0
176
     0
 40
1.0
176
     0
 90
        0
176
     0
 62
    18
420
        0
176
     0
 90
       50
176
     0
 90
        3
176
     0
 62
     5
420
      255
176
     0
290
     0
176
     0
 90
       50
176
     0
 90
       50
176
     0
 90
       50
176
     0
290
     0
176
     0
 90
       50
176
     0
 62
   256
176
     0
 40
1.0
176
     0
 90
        2
176
     0
  1
strokes_ogs.tif
176
     0
290
     0
176
     0
 40
1.0
176
     0
 40
1.0
176
     0
  0
VISUALSTYLE
  5
531
102
{ACAD_REACTORS
330
523
102
}
330
523
100
AcDbVisualStyle
  2
Linepattern
 70
    14
177
     3
291
     1
 70
    58
 90
        2
176
     1
 90
        2
176
     1
 90
        0
176
     1
 90
        0
176
     1
 40
0.6
176
     1
 40
30.0
176
     1
 62
     7
420
 16777215
176
     1
 90
        1
176
     1
 90
        4
176
     1
 62
     7
176
     1
 62
   257
176
     1
 90
        7
176
     1
 90
        7
176
     1
 40
1.0
176
     1
 90
        8
176
     1
 62
     7
176
     1
 40
1.0
176
     1
 90
        1
176
     1
 90
        6
176
     1
 90
        2
176
     1
 62
     7
176
     1
 90
        5
176
     1
 90
        0
176
     1
 90
        0
176
     1
290
     0
176
     1
 90
        1
176
     1
 40
0.0
176
     1
 90
        0
176
     1
290
     0
176
     1
290
     1
176
     1
290
     1
176
     1
290
     0
176
     1
290
     0
176
     1
290
     0
176
     1
290
     0
176
     1
290
     0
176
     1
290
     0
176
     1
 90
       50
176
     1
 40
0.0
176
     1
 40
1.0
176
     1
 90
        0
176
     1
 62
    18
420
        0
176
     1
 90
       50
176
     1
 90
        3
176
     1
 62
     5
420
      255
176
     1
290
     0
176
     1
 90
       50
176
     1
 90
       50
176
     1
 90
       50
176
     1
290
     0
176
     1
 90
       50
176
     1
 62
   256
176
     0
 40
1.0
176
     0
 90
        2
176
     1
  1
strokes_ogs.tif
176
     1
290
     0
176
     1
 40
1.0
176
     1
 40
1.0
176
     1
  0
VISUALSTYLE
  5
535
102
{ACAD_REACTORS
330
523
102
}
330
523
100
AcDbVisualStyle
  2
OverhangOff
 70
    21
177
     3
291
     1
 70
    58
 90
        2
176
     0
 90
        2
176
     0
 90
        0
176
     0
 90
        0
176
     0
 40
0.6
176
     0
 40
30.0
176
     0
 62
     7
420
 16777215
176
     0
 90
        1
176
     0
 90
        4
176
     0
 62
     7
176
     0
 62
   257
176
     0
 90
        1
176
     0
 90
        1
176
     0
 40
1.0
176
     0
 90
        9
176
     2
 62
     7
176
     0
 40
1.0
176
     0
 90
        1
176
     0
 90
        6
176
     0
 90
        2
176
     0
 62
     7
176
     0
 90
        5
176
     0
 90
        0
176
     0
 90
        0
176
     0
290
     0
176
     0
 90
        1
176
     0
 40
0.0
176
     0
 90
        0
176
     0
290
     0
176
     0
290
     1
176
     0
290
     1
176
     0
290
     0
176
     0
290
     0
176
     0
290
     0
176
     0
290
     0
176
     0
290
     0
176
     0
290
     0
176
     0
 90
       50
176
     0
 40
0.0
176
     0
 40
1.0
176
     0
 90
        0
176
     0
 62
    18
420
        0
176
     0
 90
       50
176
     0
 90
        3
176
     0
 62
     5
420
      255
176
     0
290
     0
176
     0
 90
       50
176
     0
 90
       50
176
     0
 90
       50
176
     0
290
     0
176
     0
 90
       50
176
     0
 62
   256
176
     0
 40
1.0
176
     0
 90
        2
176
     0
  1
strokes_ogs.tif
176
     0
290
     0
176
     0
 40
1.0
176
     0
 40
1.0
176
     0
  0
VISUALSTYLE
  5
52C
102
{ACAD_REACTORS
330
523
102
}
330
523
100
AcDbVisualStyle
  2
Realistic
 70
     8
177
     3
291
     0
 70
    58
 90
        2
176
     1
 90
        3
176
     1
 90
        0
176
     1
 90
        2
176
     1
 40
0.6
176
     1
 40
30.0
176
     1
 62
     7
420
 16777215
176
     1
 90
        0
176
     1
 90
        0
176
     1
 62
     7
176
     1
 62
   257
176
     1
 90
        1
176
     1
 90
        1
176
     1
 40
1.0
176
     1
 90
        8
176
     1
 62
   257
176
     1
 40
1.0
176
     1
 90
        1
176
     1
 90
        6
176
     1
 90
        2
176
     1
 62
     7
176
     1
 90
        3
176
     1
 90
        0
176
     1
 90
        0
176
     1
290
     0
176
     1
 90
       13
176
     1
 40
0.0
176
     1
 90
        0
176
     1
290
     0
176
     1
290
     1
176
     1
290
     1
176
     1
290
     0
176
     1
290
     0
176
     1
290
     0
176
     1
290
     0
176
     1
290
     0
176
     1
290
     0
176
     1
 90
       50
176
     1
 40
0.0
176
     1
 40
1.0
176
     1
 90
        0
176
     1
 62
    18
420
        0
176
     1
 90
       50
176
     1
 90
        3
176
     1
 62
     5
420
      255
176
     1
290
     0
176
     1
 90
       50
176
     1
 90
       50
176
     1
 90
       50
176
     1
290
     0
176
     1
 90
       50
176
     1
 62
   256
176
     0
 40
1.0
176
     0
 90
        2
176
     1
  1
strokes_ogs.tif
176
     1
290
     0
176
     1
 40
1.0
176
     1
 40
1.0
176
     1
  0
VISUALSTYLE
  5
53B
102
{ACAD_REACTORS
330
523
102
}
330
523
100
AcDbVisualStyle
  2
Shaded
 70
    27
177
     3
291
     0
 70
    58
 90
        2
176
     1
 90
        2
176
     1
 90
        1
176
     1
 90
        2
176
     1
 40
0.6
176
     1
 40
30.0
176
     1
 62
     7
420
 16777215
176
     1
 90
        0
176
     1
 90
        4
176
     1
 62
     7
176
     1
 62
   257
176
     1
 90
        1
176
     1
 90
        1
176
     1
 40
1.0
176
     1
 90
        8
176
     1
 62
   257
176
     1
 40
1.0
176
     1
 90
        1
176
     1
 90
        6
176
     1
 90
        2
176
     1
 62
     8
420
  7895160
176
     1
 90
        3
176
     1
 90
        0
176
     1
 90
        0
176
     1
290
     0
176
     1
 90
        5
176
     1
 40
0.0
176
     1
 90
        0
176
     1
290
     0
176
     1
290
     1
176
     1
290
     1
176
     1
290
     0
176
     1
290
     0
176
     1
290
     0
176
     1
290
     0
176
     1
290
     0
176
     1
290
     0
176
     1
 90
       50
176
     1
 40
0.0
176
     1
 40
1.0
176
     1
 90
        0
176
     1
 62
    18
420
        0
176
     1
 90
       50
176
     1
 90
        3
176
     1
 62
     5
420
      255
176
     1
290
     0
176
     1
 90
       50
176
     1
 90
       50
176
     1
 90
       50
176
     1
290
     0
176
     1
 90
       50
176
     1
 62
   256
176
     0
 40
1.0
176
     0
 90
        2
176
     1
  1
strokes_ogs.tif
176
     1
290
     0
176
     1
 40
1.0
176
     1
 40
1.0
176
     1
  0
VISUALSTYLE
  5
53A
102
{ACAD_REACTORS
330
523
102
}
330
523
100
AcDbVisualStyle
  2
Shaded with edges
 70
    26
177
     3
291
     0
 70
    58
 90
        2
176
     1
 90
        2
176
     1
 90
        1
176
     1
 90
        2
176
     1
 40
0.6
176
     1
 40
30.0
176
     1
 62
     7
420
 16777215
176
     1
 90
        1
176
     1
 90
       10
176
     1
 62
     7
176
     1
 62
   257
176
     1
 90
        2
176
     1
 90
        1
176
     1
 40
1.0
176
     1
 90
        8
176
     1
 62
   257
176
     1
 40
1.0
176
     1
 90
        1
176
     1
 90
        6
176
     1
 90
        2
176
     1
 62
     7
176
     1
 90
        3
176
     1
 90
        0
176
     1
 90
        0
176
     1
290
     0
176
     1
 90
        5
176
     1
 40
0.0
176
     1
 90
        0
176
     1
290
     0
176
     1
290
     1
176
     1
290
     1
176
     1
290
     0
176
     1
290
     0
176
     1
290
     0
176
     1
290
     0
176
     1
290
     0
176
     1
290
     0
176
     1
 90
       50
176
     1
 40
0.0
176
     1
 40
1.0
176
     1
 90
        0
176
     1
 62
    18
420
        0
176
     1
 90
       50
176
     1
 90
        3
176
     1
 62
     5
420
      255
176
     1
290
     0
176
     1
 90
       50
176
     1
 90
       50
176
     1
 90
       50
176
     1
290
     0
176
     1
 90
       50
176
     1
 62
   256
176
     0
 40
1.0
176
     0
 90
        2
176
     1
  1
strokes_ogs.tif
176
     1
290
     0
176
     1
 40
1.0
176
     1
 40
1.0
176
     1
  0
VISUALSTYLE
  5
537
102
{ACAD_REACTORS
330
523
102
}
330
523
100
AcDbVisualStyle
  2
Shades of Gray
 70
    23
177
     3
291
     0
 70
    58
 90
        2
176
     1
 90
        2
176
     1
 90
        3
176
     1
 90
        0
176
     1
 40
0.6
176
     1
 40
30.0
176
     1
 62
     7
420
 16777215
176
     1
 90
        2
176
     1
 90
        2
176
     1
 62
     7
176
     1
 62
     7
176
     1
 90
        1
176
     1
 90
        1
176
     1
 40
40.0
176
     1
 90
        8
176
     1
 62
     7
176
     1
 40
1.0
176
     1
 90
        1
176
     1
 90
        6
176
     1
 90
        2
176
     1
 62
     7
176
     1
 90
        3
176
     1
 90
        0
176
     1
 90
        0
176
     1
290
     0
176
     1
 90
        1
176
     1
 40
0.0
176
     1
 90
        0
176
     1
290
     0
176
     1
290
     1
176
     1
290
     1
176
     1
290
     0
176
     1
290
     0
176
     1
290
     0
176
     1
290
     0
176
     1
290
     0
176
     1
290
     0
176
     1
 90
       50
176
     1
 40
0.0
176
     1
 40
1.0
176
     1
 90
        0
176
     1
 62
    18
420
        0
176
     1
 90
       50
176
     1
 90
        3
176
     1
 62
     5
420
      255
176
     1
290
     0
176
     1
 90
       50
176
     1
 90
       50
176
     1
 90
       50
176
     1
290
     0
176
     1
 90
       50
176
     1
 62
   256
176
     0
 40
1.0
176
     0
 90
        2
176
     1
  1
strokes_ogs.tif
176
     1
290
     0
176
     1
 40
1.0
176
     1
 40
1.0
176
     1
  0
VISUALSTYLE
  5
538
102
{ACAD_REACTORS
330
523
102
}
330
523
100
AcDbVisualStyle
  2
Sketchy
 70
    24
177
     3
291
     0
 70
    58
 90
        1
176
     1
 90
        2
176
     1
 90
        2
176
     1
 90
        0
176
     1
 40
0.6
176
     1
 40
30.0
176
     1
 62
     7
420
 16777215
176
     1
 90
        2
176
     1
 90
        2
176
     1
 62
     7
176
     1
 62
     7
176
     1
 90
        1
176
     1
 90
        1
176
     1
 40
40.0
176
     1
 90
       11
176
     1
 62
     7
176
     1
 40
1.0
176
     1
 90
        1
176
     1
 90
        6
176
     1
 90
        2
176
     1
 62
     7
176
     1
 90
        6
176
     1
 90
        0
176
     1
 90
        0
176
     1
290
     0
176
     1
 90
        1
176
     1
 40
0.0
176
     1
 90
        0
176
     1
290
     0
176
     1
290
     1
176
     1
290
     1
176
     1
290
     0
176
     1
290
     0
176
     1
290
     0
176
     1
290
     0
176
     1
290
     0
176
     1
290
     0
176
     1
 90
       50
176
     1
 40
0.0
176
     1
 40
1.0
176
     1
 90
        0
176
     1
 62
    18
420
        0
176
     1
 90
       50
176
     1
 90
        3
176
     1
 62
     5
420
      255
176
     1
290
     0
176
     1
 90
       50
176
     1
 90
       50
176
     1
 90
       50
176
     1
290
     0
176
     1
 90
       50
176
     1
 62
   256
176
     0
 40
1.0
176
     0
 90
        2
176
     1
  1
strokes_ogs.tif
176
     1
290
     0
176
     1
 40
1.0
176
     1
 40
1.0
176
     1
  0
VISUALSTYLE
  5
530
102
{ACAD_REACTORS
330
523
102
}
330
523
100
AcDbVisualStyle
  2
Thicken
 70
    13
177
     3
291
     1
 70
    58
 90
        2
176
     1
 90
        2
176
     1
 90
        0
176
     1
 90
        0
176
     1
 40
0.6
176
     1
 40
30.0
176
     1
 62
     7
420
 16777215
176
     1
 90
        1
176
     1
 90
        4
176
     1
 62
     7
176
     1
 62
   257
176
     1
 90
        1
176
     1
 90
        1
176
     1
 40
1.0
176
     1
 90
       12
176
     1
 62
     7
176
     1
 40
1.0
176
     1
 90
        1
176
     1
 90
        6
176
     1
 90
        2
176
     1
 62
     7
176
     1
 90
        5
176
     1
 90
        0
176
     1
 90
        0
176
     1
290
     0
176
     1
 90
        1
176
     1
 40
0.0
176
     1
 90
        0
176
     1
290
     0
176
     1
290
     1
176
     1
290
     1
176
     1
290
     0
176
     1
290
     0
176
     1
290
     0
176
     1
290
     0
176
     1
290
     0
176
     1
290
     0
176
     1
 90
       50
176
     1
 40
0.0
176
     1
 40
1.0
176
     1
 90
        0
176
     1
 62
    18
420
        0
176
     1
 90
       50
176
     1
 90
        3
176
     1
 62
     5
420
      255
176
     1
290
     0
176
     1
 90
       50
176
     1
 90
       50
176
     1
 90
       50
176
     1
290
     0
176
     1
 90
       50
176
     1
 62
   256
176
     0
 40
1.0
176
     0
 90
        2
176
     1
  1
strokes_ogs.tif
176
     1
290
     0
176
     1
 40
1.0
176
     1
 40
1.0
176
     1
  0
VISUALSTYLE
  5
529
102
{ACAD_REACTORS
330
523
102
}
330
523
100
AcDbVisualStyle
  2
Wireframe
 70
     5
177
     3
291
     0
 70
    58
 90
        0
176
     1
 90
        2
176
     1
 90
        0
176
     1
 90
        0
176
     1
 40
0.6
176
     1
 40
30.0
176
     1
 62
     7
420
 16777215
176
     1
 90
        1
176
     1
 90
        4
176
     1
 62
     7
176
     1
 62
   257
176
     1
 90
        1
176
     1
 90
        1
176
     1
 40
1.0
176
     1
 90
        0
176
     1
 62
   257
176
     1
 40
1.0
176
     1
 90
        1
176
     1
 90
        6
176
     1
 90
        2
176
     1
 62
     7
176
     1
 90
        3
176
     1
 90
        0
176
     1
 90
        0
176
     1
290
     0
176
     1
 90
        1
176
     1
 40
0.0
176
     1
 90
        0
176
     1
290
     0
176
     1
290
     1
176
     1
290
     1
176
     1
290
     0
176
     1
290
     0
176
     1
290
     0
176
     1
290
     0
176
     1
290
     0
176
     1
290
     0
176
     1
 90
       50
176
     1
 40
0.0
176
     1
 40
1.0
176
     1
 90
        0
176
     1
 62
    18
420
        0
176
     1
 90
       50
176
     1
 90
        3
176
     1
 62
     5
420
      255
176
     1
290
     0
176
     1
 90
       50
176
     1
 90
       50
176
     1
 90
       50
176
     1
290
     0
176
     1
 90
       50
176
     1
 62
   256
176
     0
 40
1.0
176
     0
 90
        2
176
     1
  1
strokes_ogs.tif
176
     1
290
     0
176
     1
 40
1.0
176
     1
 40
1.0
176
     1
  0
VISUALSTYLE
  5
539
102
{ACAD_REACTORS
330
523
102
}
330
523
100
AcDbVisualStyle
  2
X-Ray
 70
    25
177
     3
291
     0
 70
    58
 90
        2
176
     1
 90
        2
176
     1
 90
        1
176
     1
 90
        1
176
     1
 40
0.5
176
     1
 40
30.0
176
     1
 62
     7
420
 16777215
176
     1
 90
        1
176
     1
 90
        0
176
     1
 62
     7
176
     1
 62
   257
176
     1
 90
        1
176
     1
 90
        1
176
     1
 40
1.0
176
     1
 90
        8
176
     1
 62
     7
176
     1
 40
1.0
176
     1
 90
        1
176
     1
 90
        6
176
     1
 90
        2
176
     1
 62
     7
176
     1
 90
        3
176
     1
 90
        0
176
     1
 90
        0
176
     1
290
     0
176
     1
 90
       13
176
     1
 40
0.0
176
     1
 90
        0
176
     1
290
     0
176
     1
290
     1
176
     1
290
     1
176
     1
290
     0
176
     1
290
     0
176
     1
290
     0
176
     1
290
     0
176
     1
290
     0
176
     1
290
     0
176
     1
 90
       50
176
     1
 40
0.0
176
     1
 40
1.0
176
     1
 90
        0
176
     1
 62
    18
420
        0
176
     1
 90
       50
176
     1
 90
        3
176
     1
 62
     5
420
      255
176
     1
290
     0
176
     1
 90
       50
176
     1
 90
       50
176
     1
 90
       50
176
     1
290
     0
176
     1
 90
       50
176
     1
 62
   256
176
     0
 40
1.0
176
     0
 90
        2
176
     1
  1
strokes_ogs.tif
176
     1
290
     0
176
     1
 40
1.0
176
     1
 40
1.0
176
     1
  0
DICTIONARYVAR
  5
B90
102
{ACAD_REACTORS
330
B8F
102
}
330
B8F
100
DictionaryVariables
280
     0
  1
1:1
  0
DICTIONARYVAR
  5
B95
102
{ACAD_REACTORS
330
B8F
102
}
330
B8F
100
DictionaryVariables
280
     0
  1
Standard
  0
DICTIONARYVAR
  5
B94
102
{ACAD_REACTORS
330
B8F
102
}
330
B8F
100
DictionaryVariables
280
     0
  1
Standard
  0
DICTIONARYVAR
  5
B96
102
{ACAD_REACTORS
330
B8F
102
}
330
B8F
100
DictionaryVariables
280
     0
  1
0
  0
DICTIONARY
  5
1EC6
330
541
100
AcDbDictionary
280
     1
281
     1
  3
ACAD_ROUNDTRIP_2008_TABLESTYLE_CELLSTYLEMAP
360
1EC7
  0
CELLSTYLEMAP
  5
1EC7
102
{ACAD_REACTORS
330
1EC6
102
}
330
1EC6
100
AcDbCellStyleMap
 90
        3
300
CELLSTYLE
  1
TABLEFORMAT_BEGIN
 90
        5
170
     1
 91
        0
 92
    32768
 62
   257
 93
        1
300
CONTENTFORMAT
  1
CONTENTFORMAT_BEGIN
 90
        0
 91
        0
 92
        4
 93
        0
300

 40
0.0
140
1.0
 94
        5
 62
     0
340
17
144
0.25
309
CONTENTFORMAT_END
171
     1
301
MARGIN
  1
CELLMARGIN_BEGIN
 40
0.06
 40
0.06
 40
0.06
 40
0.06
 40
0.06
 40
0.06
309
CELLMARGIN_END
 94
        6
 95
        1
302
GRIDFORMAT
  1
GRIDFORMAT_BEGIN
 90
        0
 91
        1
 62
     0
 92
       -2
340
11
 93
        0
 40
0.045
309
GRIDFORMAT_END
 95
        2
302
GRIDFORMAT
  1
GRIDFORMAT_BEGIN
 90
        0
 91
        1
 62
     0
 92
       -2
340
11
 93
        0
 40
0.045
309
GRIDFORMAT_END
 95
        4
302
GRIDFORMAT
  1
GRIDFORMAT_BEGIN
 90
        0
 91
        1
 62
     0
 92
       -2
340
11
 93
        0
 40
0.045
309
GRIDFORMAT_END
 95
        8
302
GRIDFORMAT
  1
GRIDFORMAT_BEGIN
 90
        0
 91
        1
 62
     0
 92
       -2
340
11
 93
        0
 40
0.045
309
GRIDFORMAT_END
 95
       16
302
GRIDFORMAT
  1
GRIDFORMAT_BEGIN
 90
        0
 91
        1
 62
     0
 92
       -2
340
11
 93
        0
 40
0.045
309
GRIDFORMAT_END
 95
       32
302
GRIDFORMAT
  1
GRIDFORMAT_BEGIN
 90
        0
 91
        1
 62
     0
 92
       -2
340
11
 93
        0
 40
0.045
309
GRIDFORMAT_END
309
TABLEFORMAT_END
  1
CELLSTYLE_BEGIN
 90
        1
 91
        1
300
_TITLE
309
CELLSTYLE_END
300
CELLSTYLE
  1
TABLEFORMAT_BEGIN
 90
        5
170
     1
 91
        0
 92
        0
 62
   257
 93
        1
300
CONTENTFORMAT
  1
CONTENTFORMAT_BEGIN
 90
        0
 91
        0
 92
        4
 93
        0
300

 40
0.0
140
1.0
 94
        5
 62
     0
340
17
144
0.18
309
CONTENTFORMAT_END
171
     1
301
MARGIN
  1
CELLMARGIN_BEGIN
 40
0.06
 40
0.06
 40
0.06
 40
0.06
 40
0.06
 40
0.06
309
CELLMARGIN_END
 94
        6
 95
        1
302
GRIDFORMAT
  1
GRIDFORMAT_BEGIN
 90
        0
 91
        1
 62
     0
 92
       -2
340
11
 93
        0
 40
0.045
309
GRIDFORMAT_END
 95
        2
302
GRIDFORMAT
  1
GRIDFORMAT_BEGIN
 90
        0
 91
        1
 62
     0
 92
       -2
340
11
 93
        0
 40
0.045
309
GRIDFORMAT_END
 95
        4
302
GRIDFORMAT
  1
GRIDFORMAT_BEGIN
 90
        0
 91
        1
 62
     0
 92
       -2
340
11
 93
        0
 40
0.045
309
GRIDFORMAT_END
 95
        8
302
GRIDFORMAT
  1
GRIDFORMAT_BEGIN
 90
        0
 91
        1
 62
     0
 92
       -2
340
11
 93
        0
 40
0.045
309
GRIDFORMAT_END
 95
       16
302
GRIDFORMAT
  1
GRIDFORMAT_BEGIN
 90
        0
 91
        1
 62
     0
 92
       -2
340
11
 93
        0
 40
0.045
309
GRIDFORMAT_END
 95
       32
302
GRIDFORMAT
  1
GRIDFORMAT_BEGIN
 90
        0
 91
        1
 62
     0
 92
       -2
340
11
 93
        0
 40
0.045
309
GRIDFORMAT_END
309
TABLEFORMAT_END
  1
CELLSTYLE_BEGIN
 90
        2
 91
        1
300
_HEADER
309
CELLSTYLE_END
300
CELLSTYLE
  1
TABLEFORMAT_BEGIN
 90
        5
170
     1
 91
        0
 92
        0
 62
   257
 93
        1
300
CONTENTFORMAT
  1
CONTENTFORMAT_BEGIN
 90
        0
 91
        0
 92
        4
 93
        0
300

 40
0.0
140
1.0
 94
        2
 62
     0
340
17
144
0.18
309
CONTENTFORMAT_END
171
     1
301
MARGIN
  1
CELLMARGIN_BEGIN
 40
0.06
 40
0.06
 40
0.06
 40
0.06
 40
0.06
 40
0.06
309
CELLMARGIN_END
 94
        6
 95
        1
302
GRIDFORMAT
  1
GRIDFORMAT_BEGIN
 90
        0
 91
        1
 62
     0
 92
       -2
340
11
 93
        0
 40
0.045
309
GRIDFORMAT_END
 95
        2
302
GRIDFORMAT
  1
GRIDFORMAT_BEGIN
 90
        0
 91
        1
 62
     0
 92
       -2
340
11
 93
        0
 40
0.045
309
GRIDFORMAT_END
 95
        4
302
GRIDFORMAT
  1
GRIDFORMAT_BEGIN
 90
        0
 91
        1
 62
     0
 92
       -2
340
11
 93
        0
 40
0.045
309
GRIDFORMAT_END
 95
        8
302
GRIDFORMAT
  1
GRIDFORMAT_BEGIN
 90
        0
 91
        1
 62
     0
 92
       -2
340
11
 93
        0
 40
0.045
309
GRIDFORMAT_END
 95
       16
302
GRIDFORMAT
  1
GRIDFORMAT_BEGIN
 90
        0
 91
        1
 62
     0
 92
       -2
340
11
 93
        0
 40
0.045
309
GRIDFORMAT_END
 95
       32
302
GRIDFORMAT
  1
GRIDFORMAT_BEGIN
 90
        0
 91
        1
 62
     0
 92
       -2
340
11
 93
        0
 40
0.045
309
GRIDFORMAT_END
309
TABLEFORMAT_END
  1
CELLSTYLE_BEGIN
 90
        3
 91
        2
300
_DATA
309
CELLSTYLE_END
  0
ENDSEC
  0
SECTION
  2
ACDSDATA
 70
     2
 71
     2
  0
ACDSSCHEMA
 90
        0
  1
AcDb_Thumbnail_Schema
  2
AcDbDs::ID
280
    10
 91
        8
  2
Thumbnail_Data
280
    15
 91
        0
101
ACDSRECORD
 95
        0
 90
        2
  2
AcDbDs::TreatedAsObjectData
280
     1
291
     1
101
ACDSRECORD
 95
        0
 90
        3
  2
AcDbDs::Legacy
280
     1
291
     1
101
ACDSRECORD
  1
AcDbDs::ID
 90
        4
  2
AcDs:Indexable
280
     1
291
     1
101
ACDSRECORD
  1
AcDbDs::ID
 90
        5
  2
AcDbDs::HandleAttribute
280
     7
282
     1
  0
ACDSSCHEMA
 90
        1
  1
AcDb3DSolid_ASM_Data
  2
AcDbDs::ID
280
    10
 91
        8
  2
ASM_Data
280
    15
 91
        0
101
ACDSRECORD
 95
        1
 90
        2
  2
AcDbDs::TreatedAsObjectData
280
     1
291
     1
101
ACDSRECORD
 95
        1
 90
        3
  2
AcDbDs::Legacy
280
     1
291
     1
101
ACDSRECORD
  1
AcDbDs::ID
 90
        4
  2
AcDs:Indexable
280
     1
291
     1
101
ACDSRECORD
  1
AcDbDs::ID
 90
        5
  2
AcDbDs::HandleAttribute
280
     7
282
     1
  0
ACDSSCHEMA
 90
        2
  1
AcDbDs::TreatedAsObjectDataSchema
  2
AcDbDs::TreatedAsObjectData
280
     1
 91
        0
  0
ACDSSCHEMA
 90
        3
  1
AcDbDs::LegacySchema
  2
AcDbDs::Legacy
280
     1
 91
        0
  0
ACDSSCHEMA
 90
        4
  1
AcDbDs::IndexedPropertySchema
  2
AcDs:Indexable
280
     1
 91
        0
  0
ACDSSCHEMA
 90
        5
  1
AcDbDs::HandleAttributeSchema
  2
AcDbDs::HandleAttribute
280
     7
 91
        1
284
     1
  0
ACDSRECORD
 90
        0
  2
AcDbDs::ID
280
    10
320
521
  2
Thumbnail_Data
280
    15
 94
     4153
310
89504E470D0A1A0A0000000D49484452000001000000007D08060000004DB9BDCD000000097048597300000EC400000EC401952B0E1B00000FEB49444154789CEDDDC94F1B69FA07F06F9597729577C06016831D306B4C689200A1C9D2C32151A7A5D648AD44ADC9A53BA7FC19739B5B4B7399DF7172985114756B0ED148DD
310
EA8C3A995643A0271AC68484B0847D31091863628CB79A4326FC1265C36057D9F53E1FA91462AAEA796CE0EBAAD7B5700064104298C4ABDD8052CACBCBF1E5975FE2C2850BFB9A9FE7795CF9E20ABEFEEA6BF03C332F53D64E9F3EAD760BE410F46A37A0148BC582743A0DAFD78B4020F0C1F90D0603CA6BCBF1ECD93388A2
310
88E7CF9F2BD065E1124511A5A5A5703A9DAF3D7EF1E245C4E371C4E3F1BDC762B1189696965E7B8C14260E1ADF05902409F5F5F50000BBDD8E274F9E607979F983CB711C079FCF078FC7838D8D0DC8B28C070F1EE4BBDD8252515181F2F27200C0CECE0ED6D7D7110E875F9BE7D34F3FC5DDBB775F0B484992505555055114
310
0100D16814B3B3B38AF54DF64FB301E0F57A61B55A118BC5303D3D9D9375060201C8B28CB5B535ACADADE5649D85C66834C2EBF54210048442A19C3C4FABD50AAFD78B542A85C5C54544A3D11C744A72417301603018D0DCDC8CD9D9D9BCFCA2711C07BFDF0F499230323292F3F5ABC9E974A2BCBC1C333333482412395FBF
310
5EAF47737333C2E13096969672BE7E7230B296A64020A0481DA3D128373535A9FE7C7335190C06B9B9B959915A757575B2DD6E57FD39D3045953C3DB46A3312FEF5C6F93482420088222B594E0F3F9303333A348ADB9B939D4D6D62A528BBC9FA63E05E0791E478E1C81D16854A49EDBED46301854A456BE499284C6C646C5
310
EA592C16C56A9177D3540000C0D4D41426272715A9C5719C22759490C964303A3AAA58BDF6F676C56A9177D3D42E0021243BCC078028F2E8EDB5A3A7C7A6762B4C3972A40476BBE636408B0ED301208A3CAE5C71A3B6D6848F3EB2E2B7BF75A9DD1213388EC3952B5D686991D46E85794C0780DF2F81E739DCB811C2DFFEF6
310
145D5D36D061FFCA88C52A1189A4D46E83794C6F836D6E26A1D301274FDA505AAAC7FA7A12B2AC76576C90249E76010A00D33F81F9F95DFCFBDFDB686E96E070E871F3E61A0580026459C6F4F4126D011400A6030000060723181C8CA8DD0673FEF297EFF1E8514CED3698477BBC84308C02801086510010C2300A00421846
310
0100E0FCF912260F4AA9AB33D1C14F8CA30000D0D565434B8B59ED3614575D2DA0B7D70E49A25F0356D14F1E40389C4232C9DE01001C07ACACEC82E7B5735623C90EF301D0DB6B473A2DA3A1414475B5762EF0F121060387B3679D703A0D3871C2AA763B4425CC1F08148BA5F1A73FBDB83E5D4787054B4BBB2A77A40C41E0
310
B1BABA8BF1F1181DFDC830E603C06ED7E3DAB56AA45232EEDC097F7881B7282929812008585959C97177F923CB32FC7E09C78FDBF0C30FEB38C86D0FEAEBEB61B55A914AA598BB64BA5630BF0B303212455F9F03D5D502262777B25E9EE779783C1EB85CC5359AFEFC7906737371381C7A8C8C6C67BD7C5353134E9C3881B5
310
B535747676A2A3A3230F5D927C633E00E2F10C6EDC086168682BEB654D26135A5A5A5053539387CEF2EF3FFFD9C637DFCCA3BBDB86DE5EDFBE9713451157AF5E453018445F5F1F96979771F6EC59343434E4B15B920FCC0780CB65C4C040042B2BD9EFFBC7E3718C8D8D616161210F9DE5DFC64612C1E0366A6A04582CFB3F
310
21CAE572E1FAF5EB282D2DC5CD9B37E176BBF1EDB7DF4292D83B96A2D8311F008B8BBB7038F4585DCDFE72E2A22822100814ED25AE1F3F8EC1EB15313CBC85B9B9FD7F14B8B6B6860B172E20140AE1F3CF3FC7D8D818CE9D3B4737FB2842CC0700004C4FEF1C2800767676303A3A8AF9F9F93C74A58C8989187EF92582C78F
310
D7F7BD4C3C1EC7F5EBD771F9F265CCCECEE2B3CF3EC3CF3FFF8CF5F5FDAF83140ED5EF4E92ABC96432C97EBF5FB17AEDEDED3200D96AB5CA656565AA3FFF5C3C976CA7F2F27245EBD194DB89F98F0173211A8D327BC34BADDE249515B40B4008C32800086158D10740575717BABBBBD56E8390A254D46300924942DFC93E58
310
4A8D989B9BC3E6E6A6DA2D1152548A3A0012A904B676B72047D3F4C74FC801147500A452290C0D7D87A3472D6869D1C36834616343EDAE08291E453F060024208A29343599E1F7D3A1A88464A3A8B70000606E2E8E85855D6C6EA6603299E0F178D46E8990A251F401B0B59556BB05428A9606760108210745014008C32800
310
0861180500210CA300208461140084308C02801086510010C2300A00421846014008C328000861180500210CA30020846114008430AC6003E0D8B1633879F2242E5CB8009BCDF6DE79FBFBFB218AA2429D11A21D0519001D1D1D48A552482693301A8D686D6D852008EF9CDF62B1A0B4B4140E8743C12E09297E05170046A3
310
119F7CF2094A4B4BB1B1B101511451515181A3478FBE7739B3D90C411060301814EA9490E2577001C0711CD6D7D7E17038B0B4B4848D8D0DACACAC2093C9BC77B9A5A5252C2C2C80E70BEE291152B00AEEAF25994C221A8D62626202DDDDDD301A8DB0582C1FBC036F5B5B1B3A3B3BB1BBBB9B55BDEE6E1B7EF7BB0A5CBB56
310
0D8FE7DDBB1924B7BEFAAA09ADAD66B5DB605EC105402693C1AD5BB7E0F178208A221C0E071E3F7EFCDE5B4FEBF57A3C78F0000F1E3CC8AA96C723E0A38FAC989EDEC1FC7C1C5F7C510E8E3BEC33201FC2711C3C9E2AD86C3AB55B615E415E1434954AE1C71F7FDCF7FCDF7DF71D00C064326555C7E93420939171EFDE162A
310
2A8CE8EB7380E30059CE6A35E40062310191484AED3698579001A094A9A9184E9DB2E1D2A572949418F0AF7F6DE103430D2447246917763BD3BF7E0581E99F402C96C15FFF1A427BBB058B8BBBB8772FA2764B4C906519376E8C627C3CA6762BCC633A0000201A4DE3975FE80F5F691313CFB0B949BB006A2BB84140428872
310
34B705D0D0D090F560E041B9DD6E048341456AE51BCFF30804028AD5339BE923C042A0B900989A9AC2E4E4A422B5380D7D6698C964303A3AAA58BDF6F676C56A9177D3D42E403C1E57ECDD1F783198A5152B2B2B70BBDD8AD4723A9DD8A0FBB817044D050000442291BCDF2198E77934363662626222AF7594F4F4E953454E
310
A8120401151515585C5CCC6B1DB23F1C00EDBC8DFD8FD3E9444D4D0D52A9DC8F32BF3CD7606A6A2AEBC38E8B81C7E381C3E1C8CB6BA7D7EBB1BBBBABA9E02C769A0C80973A3B3BF7BE8EC562989F9F472291C86A1D2E970BA5A5A51004017EBF1FB76EDDC2F3E7CF73DD6AC1397BF62CA2D12800201C0E63616121EB75783C
310
1ED8ED76D86C36489284EFBFFF3ED76D9243D2DC20E0AB52A9D4DE28BD2449A8ADAD7DE3746183C180CA4A0191C873241226ECECECBCF6FD67CF9E616262028944025B5B5B48A7D38AF5AFA67038BCF7DA399D4EB4B4B4BC318FC16080DF6FC6CCCC169249FE8DAD86C5C545CCCECE4296651AF42B509A0E80D5D555545454
310
20140A21168B617C7CFCB5EF5755556177771767CF4A90650E7FFFBB80502884ADADADB7AE4F10044D6EF67F48381C46381C7EEDB1C6C6464C4F4FE2DA352F7EFFFB65D8ED1E8C8D8DA9D4213928CD0D02BE2A1C0EC3E974BEF3FB656565585F5FC7C6460A757502262727E1F57ADF393FCFF39A1AF93F288BC5826432098F
310
8787D9AC434949064F9E3C41434383DAAD912C697A0BE07DCC6633B6B7B70100FFFC6718232351953B2A1E3E9F6FEF98813FFC610EE3E3CF9148C8902449E5CE48B6980D008EE3F6DECD6766E22A77535C5E3D002A18DC56B11372589ADE052084BC1F0500210CA3002084619A3B10E8FCF9F3282B2B03F062D4DE6AB52212
310
79F37C7F83C1004110F606025F723A9D6F7CE4F5AEEF8D8D8D6164642487DDAB47AFD7E3F2E5CB7BFFCFE67538C832B76FDF4628143A64D7E4B03417008490FDA35D00421846014008C328000861180500210CA300208461140084308C02801086311F001C07040266F87CCA5D4C949042C1FC8140C78F5B21083C6C361DE2
310
F10CEEDCD954BB254214C3FC1640599901C1E036D6D753D0E9B4739D7F42F683F900989888E18F7F3C818B173DF8C73FDE7E1C3B215AC5E40541388E435959197C3E1F5CAE124C4C1C83D1C8A3ABCB0C5996F1F0E14326AEFC4B08536300168B055D5D5D70BBDD78FAF429666767118FC7B1B0B0009EE7515F5F0F8EE3D0DA
310
DA0A4992303535855F7FFD95AE0348348B890030180CE8EBEB83CD66C3F0F030565656F6B59CDFEF476767271E3D7AA4999B8012F22ACD07802449E8EFEFC7FDFBF7B1BCBC9CF5F23CCFA3ADAD0D168B0583838379E89010F5683A001C0E077A7A7A70F7EEDD376EF891AD23478EA0A9A9093FFCF00332994C8E3A24445D9A
310
FD1440AFD7E3CC9933B873E70E5C2ED7A16E7A595D5D8D4824826030883367CEE4B04B42D4A5D900E8EFEFC7C0C000E2F1F8DEFDE90EEAE5F24B4B4B78FAF4293A3A3A72D82921EA92B536F9FD7EB9ABAB2B2FEBE6384EBE74E992ACD7EB557F9E34D174D849935B001D1D1D79BB58A72CCB181A1A424F4F4F5ED64F889234
310
1700E5E5E5D8DCDCCCFA36E0D9989B9B7BEF3D040929169A0B80D6D6563C7CF830EF75666666280448D1D344009C3B770E26D38BD379ABAAAA0EF4797FB6E6E6E65057570700F07ABD686A6ACA7B4D42724D1301F072945E14C5D76EFA994F8B8B8BF0F97C104511656565100421EF3509C9B5A20E00A3D188DFFCE614DC6E
310
3BDC6E377C3E1FE271E5EEF46BB15850555585929212C56A12924B457D36A04EA7C3B163C7A0D325F0E4C913A45229B4B4B428563F1C0E637A7A1A66B359B19A84E452516F01ECECECE09B6FFE0F9393EB686B6B43737333743A9D62F55D2E170281006A6B6B15AB49482E15F516C04B8220606C6C0CDBDBDB387AF4A82235
310
753A1D565757313A3ABAD70321C546130170F3E6CDBDAFD3E934789ECFFB093B6D6D6D181B1B0380BD1020A4D814F52EC0DB048341B4B7B7E7BD4E2010A03F7C52F4341700E3E3E3791F081445F1D0A717135208341700E9741ACBCBCBA8A9A9C95B8D8F3FFE18030303795B3F214AD15C0000C0E0E0204E9D3AB5F7FFBABA
310
BA435D0FA0A6A6066565650080929212180C06ACAEAE1EBA4F42D4A6C900482412B87FFFFE5E08545656C26AB51E787D959595A8ACAC842008387DFA346EDFBE9DAB56095195A62F0976ECD83188A2887BF7EE1D7A5D46A311FDFDFD181A1AC2C6C6460EBA23447D9A0E0000686F6F87D56AC5C0C0C081CF11309BCDE8EDED
310
453018442814CA718784A847F30100BC1803E8EEEEC6F0F030666767B35AF6F8F1E3F0783CF8E9A79F108944F2D320290AA2C8A3ABCB86482485EDED34B6B7D3585F4FA2B3D38A783C83645286C5A2432623637E3E8E482485C646091CC74192780C0F6FA1D0AE27CB4400002F2E12DADDDD8DEAEA6A4C4C4C607A7A1AD168
310
F4ADF3BA5C2EB4B6B6A2B2B212232323181F1F57B85B52882489474F8F1D4EA71EA9948C818108EAEB4554560A309978C46269A4D332E27119939331582C3A9C3EEDC0E6660A76BB1E7FFEF30A76770B2B01980980970C0603FC7E3F1A1A1A505929C06CB6607E7E1E66B319A5A566ACADF10885D6F0E8D1232C2F2FD325C0
310
C96B449147322983E3B0F7AF24BD784C96F1BFE9FFBF96241D0019E934108F17DEEF127301F0AAD3A71DB87AB50AC0510061004BF8FAEB8705B7994648BE301D0084B0EEBF4194E6A93BAAA6B60000000049454E44AE426082
  0
ACDSRECORD
 90
        0
  2
AcDbDs::ID
280
    10
320
1EBB
  2
Thumbnail_Data
280
    15
 94
     4045
310
89504E470D0A1A0A0000000D49484452000001000000007A080600000050BC8D75000000097048597300000EC400000EC401952B0E1B00000F7F49444154789CEDDD4B4C5CF51707F0EF3C78BF6660A0E555DEE1614BC142291830A9B15AD4D6D46A5898347163BA336A625CB8332E5C74671A6B549AB851174A638D29BAD0
310
366D2845062CA52D0C50060A0C30C37B8679F15F10EE7F288FD2997BE73773E67C5674E0F7BB67E899C3BD33BF7B7EAAD6D6D63530C622925A74008C3171B4A20390DBFCFC3C5C2E97E83018412A950A696969A2C39015B902603018F0F2CB2F8B0E831174FBF66DCCCCCC880E4356E40A40424202D2D3D34587C1084A4949
310
215700F83D00C622181700C622181700C622181700C622181700C622181700C622181700C622181700C62218B98540BE7A7B7BB1BABA2AFDBBA4A4043A9D0E00D0D7D78795951500804EA74349490900C062B1E0D1A347D298C3870F233A3A1A00D0D9D9293D9E959585ECEC6C00C0C8C808A6A7A701005AAD16D5D5D50080
310
959515F4F5F549638A8A8A909A9A0A00E8EFEFC7D2D2120020393919A5A5A50000BBDD8EBB77EF4A630E1D3A84D8D8D82D63F6EFDF8FDCDC5C00C0ECEC2C86868600001A8D06CF3FFFBC34BEABAB0B5EAF1700505858282D65359BCD989C9C0400242525A1ACAC0C00E07038F0DF7FFF49E30F1E3C88B8B83800C083070FB0
310
B0B00000D8B76F1F0E1C380000B05AAD30994C0000B55A8D23478E48E3BBBBBBE176BB0100191919C8CBCB03008C8D8D61626202C0FA12DB9A9A1A00C0EAEA2A7A7B7BA5F1F9F9F9D2C2AE870F1F627E7E1EC0FA82AF8A8A0A0080CD66C3E0E0A034A6A2A2020909090000A3D1282D0D4F4F4F477E7E3E00607C7C1C8F1F3F
310
96C6D4D4D440A552C1E572C168344A8FBBDD6ED4D7D7832A15B5BB01753A1D4E9F3E0D60FD055B5B5B2B382216CE7C73E8C68D1B52A1A3822F01188B60A40BC0C6292A63FEA29E43A40BC0BE7DFB4487C0C21CF51C225D001863BB235D000606064487C0C21CF51C225D00E6E6E64487C0C21CF51C225D001863BB23BD1028
310
90CE40D7AF5F9716E0B0F0E67038D0D8D8E8D758EADDA54817808D555FFE888D8D7DA64544D7AE5D434949090A0A0AB67C6F7A7A1A5D5D5D78F5D557FD8E27D8FAFBFB515E5E2E3A0C59F8AEE07C5681E45038205D0082657E7E1E1D1D1DB0582CDBF68CEBEBEBC3F0F0308E1C3912927F5156565630343404BBDD2E3D76F9
310
F2659C397306494949D263BECB9F190DA40B80D96C96D6CBCBCDE3F1A0BBBB1B6B6B6B484949C1A79F7E0AAD76FB5F676D6D2D5C2E17C6C6C630323282B8B8383CF7DC7350A9548AC4B6571BF703C4C5C5A1A8A8485AF30F00D5D5D55B9ECFF8F8383A3B3BE172B950595989C4C4C460871C744AE65028205D0026272715FB
310
CFEBE9E9415959D99E5F0451515128282840414101EC763B8C46A374D39008434343888F8FDFF13267BB62969D9D8DECEC6C389D4EF4F6F6E2F0E1C3888A8A523A54A194CCA15040BA0028657171114EA7134EA71356ABD5AF391C0E07969797A5BBD682CD6C36E3D0A1437EC79F9F9F8FEEEE6E1C3D7A54E6C85830912E00
310
BED7AF725A585880D7EBF5FBC5B331C7DA9AB81B31575656028A1F009C4EA74CD1842EA5722854902E001BF7B82B213F3F1F5959597E8F17FDE231180C282E2EF67BFCDADA1A464747658C2834299943A180170231BFB85C2E7CFCF1C7A2C36001225D00A86DE3C4828F7A0E912E00C3C3C3A243204BABD5E2ADB7DE121D86
310
E2A8E710E902C094A356AB71E2C409D161B000912E003B2DCC616CAFA8E710E9022072A1CD83070F841D7B3713131352975EF67422732818481700511C0E074E9E3C293A8C6D9D3F7F1EFFFEFBAFE8305888205D00969797851C776060008585851819191172FC9DB8DD6EA854AA908B2B9489CAA160215D00EEDDBB27E4B8
310
0E87037FFEF927FAFBFB851C7F276EB71B5AAD56D8EF251C51FF5D912E00A2A8542A545656EEE926920B172E0421A2751A8D069393934FBD25D96834E2C2850BF8E69B6FA49D78184D5C001490979787CF3FFF1C7ABD7EC79F713A9DB87BF76E50DF658E8A8AC2175F7C81AEAEAE5D17B8B4B6B6223333132E970B1D1D1D41
310
8B8F051FE90250555525E4B87ABD1E898989BBF6948F8A8A92F6AC0BA6A2A222343737EF5A78E2E3E3313E3E0EBBDD1EF16DD144E550B090FE9053D4BDEA5AAD16C78F1FDFF567542A15AAABAB835E04B2B2B270F6ECD95DDB647DF8E187B879F326A2A3A3D1D4D414C4E8420FF57E07A40B80C7E38146A3111DC6AE9E5628
310
4430180C3875EA94E830424238E45020485F02F0E7DD2C50D47388740190DBB56BD7F0FEFBEFF34A3A460617806710171787D8D858F2EBC359E4205D00E4EEE6D2D8D8888181017CF4D147B2CECB4217F58E40A4FF9429D1CFED975F7E21DF2482FD1FF59E80A4CF0094101313233A04C66443BA00F4F4F4880E818539EA39
310
44BA0088EEBCCBC21FF51C225D001863BB235D00F2F2F24487C0C21CF51C225D003232324487C0C21CF51C225D001863BB235D0042B531270B1FD473887401585858907DCEC5C545D9E764A14B891C0A25A40B8012BEFAEA2BF4F6F6C2EBF58A0E85B180912E00BB75E4F1577272324E9E3C89898909D9E766A147891C0A25
310
A40BC0810307649F73757515EDEDED484848907DEE70E276BB71F1E245D161284E891C0A25A46F065242434303727272A052A944872294D7EBC5C0C080E8305880489F01CCCECECA3E675D5D9DEC738623B55A8DE4E464D161284E891C0A25A40BC0D0D090E810C8D26AB5F8ECB3CF4487A138EA39C497007EEAE9E9C1F8F8
310
B8DFE3878787855E5F9ACDE680E7585D5D9521122612E902A054EBAEA4A424141616A2B4B4D4EF39E2E3E385BE8F909B9B8BDADA5ABFC77B3C1E188D4619230A4DD4DBBF91BE04506A6BE7E4E464CCCDCD616969C9AFF1369B0D76BB5DE827097ABD1EC3C3C37E8DF5783CB87DFB360E1E3C287354A187FAF6E0B4CB9B82EA
310
EAEAD0DFDF8FA1A1A167BA61C462B120353515C78E1D5330BAA72B2E2EC6BD7BF770F5EAD5678ADF6EB7636D6D0DC78E1DE3EE4804902E00CBCBCB8AFE952D2F2FC7D2D2D296536993C9841F7EF801E7CE9D437E7EFEA6EF7576760674EA2DA78A8A0A2C2F2F6F89C766B3E1FBEFBF475959199A9B9B377DCF643241A7D345
310
CC8B5FE91C128DF4258088AD9DAD562BD6D6D6F0D34F3F616C6C0C232323418F2150838383E8E8E8407272F296EB7CABD58AB4B4344191051F6F0FCE9E89C96442717131FEFEFB6F545555617A7A5A74487EF9F2CB2F51535323640353163CA42F014432180CA2430808F54E386C1DE93300EA5B3B33E551CF21D267004A6E
310
ED7CF9F265ACACACC066B3E1CE9D3BD2E37BFDB75EAF474B4B8B62F13DCDCD9B37D1D3D3B3253E6073CCBB3D9FB7DF7E3BECCF749E86B7070F635EAF176AB5322739E7CE9D5364DE6069686840434383E830429E9239140AE83E33005D5D5DA24360618E7A0E912E008CB1DD7101602C82912E0081DCAC13A8B1B13161C766
310
F2119943C140FA4D40510D2B6EDDBA853B77EEC0E3F1E0830F3E1012039307F5A627A4CF0044898F8F477B7B3BF97E722CFC912E00BDBDBD413DDEFDFBF771E9D225FCF3CF3FC8CBCBC3FDFBF771F1E245747575711BF13015EC1C0A36D29700C1EA58333C3C8C3FFEF803A5A5A578EFBDF7B63491E8E8E8C0A54B97F0D24B
310
2FA1A4A4242831317950EF7A44BA000443474707AC562BCE9F3FBFE3CFD4D5D5A1AEAE0EEDEDEDB0582C78E18517821821633B237D09A0F40D2D838383989B9BDBF3FDE26EB71B2A952A225A695141FDA628D20540C9AD9D3D1E0FFEFAEB2FBCF2CA2B7B3EADAFAAAA427D7D3D6EDDBAC5EF098409DE1E9C6DEBD75F7FC59B
310
6FBE0900C8CCCCDCD398CCCC4CA8542A9C3A750A57AE5C51323CC6F684740178F8F0A1EC73CECFCF0300A6A6A6FCDE372E3B3B1B8F1F3FDE341F0B4D4AE45028215D009478717DFBEDB7B05AAD019FC2474747C362B1E0BBEFBE932932A604EA059A7401905B5B5B1B4C2613CC6673C0F7C1474545616A6A8A7CDF7916DA48
310
1700B9DFC0397AF428B2B2B2E0743A31353515F07C369B0D6B6B6B3244C694C26F028631B93FC2C9CCCCC4891327505B5B1B70A798E5E565343535A1BEBE5EA6E89812F86340B6C9460FFDE8E868389D4ED9E6634C04D205408E0D3077F2DA6BAFE1EAD5AB7E8DBD72E50ADE78E30D9923624A5032874201E902303939A9D8
310
DC999999703A9D989999C16FBFFDB6A7313FFEF82366676761B7DB919B9BAB586C4C3E4AE65028205D009476F6EC59B4B5B5ED799FBFE6E666FCFEFBEF3873E68CC29131B637A43F8352BA998346A3C1BBEFBE8BB6B636E4E4E4A0BEBE7EDB2DBFBD5E2FAE5FBF0EB3D98C969616F2ADA69562341AA1D168101313039BCD86
310
D5D55578BD5E646464C0E572C16C36A3B8B818656565B21D937A4310D2052018ED9C626262F0CE3BEFC06834E2EBAFBF865AAD467979B9F4FDA1A121D8ED76343535E1C5175F543C1ECAC6C6C6101F1F0F83C100B3D98C8989092C2D2DE1F8F1E3585C5C84CD66C3E4E4A4AC05805B82B13DA9AAAA42555515DC6E375A5A5A
310
303A3A8AB4B434FCFCF3CF484C4C141D1E09AFBFFEBAF4756565A5C048E8205D00A6A7A7919E9EEED75887C381CECE4EBFC67EF2C927D2D7FDFDFD7ECDC1E4E37038FC1E1B480E8503D205606464C4EFFFBCC6C64699A361E128901C0A07FC290063118C7401E077DB59A0A8E710E902407D6B67A63CEA3944BA0030C67647
310
BA002C2D2D890E818539EA3944BA00F047702C50D473887401608CED8EF43A000018181890BECECCCC9456E58D8E8E4ABBBE242424202B2B0BC07A0F388BC5228DC9CFCF97DE09F69D2B35351569696900008BC522F58ED36834282C2C04B0BEABCCE8E8E8B6C7379BCDD20295F8F8786467676F3BC6F7F8BE63F47ABDD496
310
6C616141EA50A456AB515454248D1F1C1C94BA0EEDDFBF1F49494900D617B8CCCDCD0100E2E2E29093930300703A9D78F4E891343E2F2F0FD1D1D100D697E2DAED7600804EA7933E1F5F5C5C94EE9A53A954282E2E96C69B4C26A97F624A4A8AD46167666606369B4DFAB98DD6EA2E970B232323D2E319191948494901008C
310
8F8F63656505C0FA12EC8DBD17979696303131218DC9CDCD456C6C2C80F5A5D81E8F07C0FABAFE8D46AEB3B3B3B05AADD298E2E262A8542AB8DD6E0C0F0F4B8F07B288281C902E00D5D5D59BAEE1626262A4AFF57ABD9418BE1FF5C4C6C66E5AF8A1D168A4AF7D1FDF483000484C4C945E24BE370369B5DA4D63367E06587F
310
016D1CDFB72FE09363D4EAFF9FA4E9F57AB8DDEE2DCFC537E6276F464A4F4F970A80EF98C4C444E979FB1E5FA3D1ECF8FC753A9D54C07CE78A8989D971B18CC160908EEFFBFC131212B6ED87F8E4F17D7FCF292929D2262CBE713D797CDF790D068354809E3CBEEF1C1BD46AF5A6B9A86FF0AA6A6D6D25D5944EA7D3E1F4E9
310
D3A2C36004DDB871032693497418B2E2F700188B605C00188B605C00188B605C00188B605C00188B605C00188B605C00188B605C00188B60E41602F92EE3654C4E2E974B5AB24D05B9A5C0D47773654C4E7C09C05804FB1F1E4315E2B94E37D20000000049454E44AE426082
  0
ENDSEC
  0
EOF
