  0
SECTION
  2
HEADER
  9
$ACADVER
  1
AC1027
  9
$ACADMAINTVER
 70
   105
  9
$DWGCODEPAGE
  3
ANSI_932
  9
$REQUIREDVERSIONS
160
                 0
  9
$LASTSAVEDBY
  1
kurimoto
  9
$INSBASE
 10
0.0
 20
0.0
 30
0.0
  9
$EXTMIN
 10
10516.39335183313
 20
-4366.656868680892
 30
0.0
  9
$EXTMAX
 10
17052.02712890613
 20
213.0700078236505
 30
0.0
  9
$LIMMIN
 10
0.0
 20
0.0
  9
$LIMMAX
 10
0.0
 20
0.0
  9
$ORTHOMODE
 70
     0
  9
$REGENMODE
 70
     1
  9
$FILLMODE
 70
     1
  9
$QTEXTMODE
 70
     0
  9
$MIRRTEXT
 70
     1
  9
$LTSCALE
 40
1.0
  9
$ATTMODE
 70
     1
  9
$TEXTSIZE
 40
0.0
  9
$TRACEWID
 40
0.05
  9
$TEXTSTYLE
  7
STANDARD
  9
$CLAYER
  8
0
  9
$CELTYPE
  6
CONTINUOUS
  9
$CECOLOR
 62
   256
  9
$CELTSCALE
 40
1.0
  9
$DISPSILH
 70
     0
  9
$DIMSCALE
 40
1.0
  9
$DIMASZ
 40
0.18
  9
$DIMEXO
 40
0.0625
  9
$DIMDLI
 40
0.38
  9
$DIMRND
 40
0.0
  9
$DIMDLE
 40
0.0
  9
$DIMEXE
 40
0.18
  9
$DIMTP
 40
0.0
  9
$DIMTM
 40
0.0
  9
$DIMTXT
 40
0.18
  9
$DIMCEN
 40
0.09
  9
$DIMTSZ
 40
0.0
  9
$DIMTOL
 70
     0
  9
$DIMLIM
 70
     0
  9
$DIMTIH
 70
     1
  9
$DIMTOH
 70
     1
  9
$DIMSE1
 70
     0
  9
$DIMSE2
 70
     0
  9
$DIMTAD
 70
     0
  9
$DIMZIN
 70
     0
  9
$DIMBLK
  1

  9
$DIMASO
 70
     1
  9
$DIMSHO
 70
     1
  9
$DIMPOST
  1

  9
$DIMAPOST
  1

  9
$DIMALT
 70
     0
  9
$DIMALTD
 70
     2
  9
$DIMALTF
 40
25.4
  9
$DIMLFAC
 40
1.0
  9
$DIMTOFL
 70
     0
  9
$DIMTVP
 40
0.0
  9
$DIMTIX
 70
     0
  9
$DIMSOXD
 70
     0
  9
$DIMSAH
 70
     0
  9
$DIMBLK1
  1

  9
$DIMBLK2
  1

  9
$DIMSTYLE
  2
STANDARD
  9
$DIMCLRD
 70
     0
  9
$DIMCLRE
 70
     0
  9
$DIMCLRT
 70
     0
  9
$DIMTFAC
 40
1.0
  9
$DIMGAP
 40
0.09
  9
$DIMJUST
 70
     0
  9
$DIMSD1
 70
     0
  9
$DIMSD2
 70
     0
  9
$DIMTOLJ
 70
     1
  9
$DIMTZIN
 70
     0
  9
$DIMALTZ
 70
     0
  9
$DIMALTTZ
 70
     0
  9
$DIMUPT
 70
     0
  9
$DIMDEC
 70
     4
  9
$DIMTDEC
 70
     4
  9
$DIMALTU
 70
     2
  9
$DIMALTTD
 70
     2
  9
$DIMTXSTY
  7
STANDARD
  9
$DIMAUNIT
 70
     0
  9
$DIMADEC
 70
     0
  9
$DIMALTRND
 40
0.0
  9
$DIMAZIN
 70
     0
  9
$DIMDSEP
 70
    46
  9
$DIMATFIT
 70
     3
  9
$DIMFRAC
 70
     0
  9
$DIMLDRBLK
  1

  9
$DIMLUNIT
 70
     2
  9
$DIMLWD
 70
    -2
  9
$DIMLWE
 70
    -2
  9
$DIMTMOVE
 70
     2
  9
$DIMFXL
 40
1.0
  9
$DIMFXLON
 70
     0
  9
$DIMJOGANG
 40
0.7853981633974483
  9
$DIMTFILL
 70
     0
  9
$DIMTFILLCLR
 70
     0
  9
$DIMARCSYM
 70
     0
  9
$DIMLTYPE
  6

  9
$DIMLTEX1
  6

  9
$DIMLTEX2
  6

  9
$DIMTXTDIRECTION
 70
     0
  9
$LUNITS
 70
     2
  9
$LUPREC
 70
     4
  9
$SKETCHINC
 40
0.1
  9
$FILLETRAD
 40
0.0
  9
$AUNITS
 70
     0
  9
$AUPREC
 70
     0
  9
$MENU
  1
acad
  9
$ELEVATION
 40
0.0
  9
$PELEVATION
 40
0.0
  9
$THICKNESS
 40
0.0
  9
$LIMCHECK
 70
     0
  9
$CHAMFERA
 40
0.0
  9
$CHAMFERB
 40
0.0
  9
$CHAMFERC
 40
0.0
  9
$CHAMFERD
 40
0.0
  9
$SKPOLY
 70
     0
  9
$TDCREATE
 40
2447893.0
  9
$TDUCREATE
 40
2447892.625
  9
$TDUPDATE
 40
2458624.382220428
  9
$TDUUPDATE
 40
2458624.007220428
  9
$TDINDWG
 40
0.0135648958
  9
$TDUSRTIMER
 40
0.0000649537
  9
$USRTIMER
 70
     1
  9
$ANGBASE
 50
0.0
  9
$ANGDIR
 70
     0
  9
$PDMODE
 70
     0
  9
$PDSIZE
 40
0.0
  9
$PLINEWID
 40
0.0
  9
$SPLFRAME
 70
     0
  9
$SPLINETYPE
 70
     6
  9
$SPLINESEGS
 70
     8
  9
$HANDSEED
  5
21D5
  9
$SURFTAB1
 70
     6
  9
$SURFTAB2
 70
     6
  9
$SURFTYPE
 70
     6
  9
$SURFU
 70
     6
  9
$SURFV
 70
     6
  9
$UCSBASE
  2

  9
$UCSNAME
  2

  9
$UCSORG
 10
0.0
 20
0.0
 30
0.0
  9
$UCSXDIR
 10
1.0
 20
0.0
 30
0.0
  9
$UCSYDIR
 10
0.0
 20
1.0
 30
0.0
  9
$UCSORTHOREF
  2

  9
$UCSORTHOVIEW
 70
     0
  9
$UCSORGTOP
 10
0.0
 20
0.0
 30
0.0
  9
$UCSORGBOTTOM
 10
0.0
 20
0.0
 30
0.0
  9
$UCSORGLEFT
 10
0.0
 20
0.0
 30
0.0
  9
$UCSORGRIGHT
 10
0.0
 20
0.0
 30
0.0
  9
$UCSORGFRONT
 10
0.0
 20
0.0
 30
0.0
  9
$UCSORGBACK
 10
0.0
 20
0.0
 30
0.0
  9
$PUCSBASE
  2

  9
$PUCSNAME
  2

  9
$PUCSORG
 10
0.0
 20
0.0
 30
0.0
  9
$PUCSXDIR
 10
1.0
 20
0.0
 30
0.0
  9
$PUCSYDIR
 10
0.0
 20
1.0
 30
0.0
  9
$PUCSORTHOREF
  2

  9
$PUCSORTHOVIEW
 70
     0
  9
$PUCSORGTOP
 10
0.0
 20
0.0
 30
0.0
  9
$PUCSORGBOTTOM
 10
0.0
 20
0.0
 30
0.0
  9
$PUCSORGLEFT
 10
0.0
 20
0.0
 30
0.0
  9
$PUCSORGRIGHT
 10
0.0
 20
0.0
 30
0.0
  9
$PUCSORGFRONT
 10
0.0
 20
0.0
 30
0.0
  9
$PUCSORGBACK
 10
0.0
 20
0.0
 30
0.0
  9
$USERI1
 70
     0
  9
$USERI2
 70
     0
  9
$USERI3
 70
     0
  9
$USERI4
 70
     0
  9
$USERI5
 70
     0
  9
$USERR1
 40
0.0
  9
$USERR2
 40
0.0
  9
$USERR3
 40
0.0
  9
$USERR4
 40
0.0
  9
$USERR5
 40
0.0
  9
$WORLDVIEW
 70
     1
  9
$SHADEDGE
 70
     3
  9
$SHADEDIF
 70
    70
  9
$TILEMODE
 70
     1
  9
$MAXACTVP
 70
    16
  9
$PINSBASE
 10
0.0
 20
0.0
 30
0.0
  9
$PLIMCHECK
 70
     0
  9
$PEXTMIN
 10
1.05
 20
0.6999999999999997
 30
0.0
  9
$PEXTMAX
 10
9.45
 20
6.300000000000001
 30
0.0
  9
$PLIMMIN
 10
-0.25
 20
-0.7500000000000001
  9
$PLIMMAX
 10
10.75
 20
7.75
  9
$UNITMODE
 70
     0
  9
$VISRETAIN
 70
     0
  9
$PLINEGEN
 70
     1
  9
$PSLTSCALE
 70
     1
  9
$TREEDEPTH
 70
  3020
  9
$CMLSTYLE
  2
STANDARD
  9
$CMLJUST
 70
     0
  9
$CMLSCALE
 40
1.0
  9
$PROXYGRAPHICS
 70
     0
  9
$MEASUREMENT
 70
     0
  9
$CELWEIGHT
370
    -1
  9
$ENDCAPS
280
     0
  9
$JOINSTYLE
280
     0
  9
$LWDISPLAY
290
     0
  9
$INSUNITS
 70
     0
  9
$HYPERLINKBASE
  1

  9
$STYLESHEET
  1

  9
$XEDIT
290
     1
  9
$CEPSNTYPE
380
     0
  9
$PSTYLEMODE
290
     1
  9
$FINGERPRINTGUID
  2
{E289D0B2-3322-4C0E-91F8-C9976123A5C1}
  9
$VERSIONGUID
  2
{FAEB1C32-E019-11D5-929B-00C0DF256EC4}
  9
$EXTNAMES
290
     1
  9
$PSVPSCALE
 40
0.0
  9
$OLESTARTUP
290
     0
  9
$SORTENTS
280
   127
  9
$INDEXCTL
280
     0
  9
$HIDETEXT
280
     1
  9
$XCLIPFRAME
280
     2
  9
$HALOGAP
280
     0
  9
$OBSCOLOR
 70
   257
  9
$OBSLTYPE
280
     0
  9
$INTERSECTIONDISPLAY
280
     0
  9
$INTERSECTIONCOLOR
 70
   257
  9
$DIMASSOC
280
     2
  9
$PROJECTNAME
  1

  9
$CAMERADISPLAY
290
     0
  9
$LENSLENGTH
 40
50.0
  9
$CAMERAHEIGHT
 40
0.0
  9
$STEPSPERSEC
 40
2.0
  9
$STEPSIZE
 40
6.0
  9
$3DDWFPREC
 40
2.0
  9
$PSOLWIDTH
 40
0.25
  9
$PSOLHEIGHT
 40
4.0
  9
$LOFTANG1
 40
1.570796326794897
  9
$LOFTANG2
 40
1.570796326794897
  9
$LOFTMAG1
 40
0.0
  9
$LOFTMAG2
 40
0.0
  9
$LOFTPARAM
 70
     7
  9
$LOFTNORMALS
280
     1
  9
$LATITUDE
 40
37.795
  9
$LONGITUDE
 40
-122.394
  9
$NORTHDIRECTION
 40
0.0
  9
$TIMEZONE
 70
 -8000
  9
$LIGHTGLYPHDISPLAY
280
     1
  9
$TILEMODELIGHTSYNCH
280
     1
  9
$SOLIDHIST
280
     0
  9
$SHOWHIST
280
     1
  9
$DWFFRAME
280
     2
  9
$DGNFRAME
280
     2
  9
$REALWORLDSCALE
290
     1
  9
$INTERFERECOLOR
 62
   256
  9
$CSHADOW
280
     0
  9
$SHADOWPLANELOCATION
 40
0.0
  0
ENDSEC
  0
SECTION
  2
CLASSES
  0
CLASS
  1
LWPOLYLINE
  2
AcDbPolyline
  3
ObjectDBX Classes
 90
        0
 91
        1
280
     0
281
     1
  0
CLASS
  1
IMAGE
  2
AcDbRasterImage
  3
ISM
 90
      127
 91
        5
280
     0
281
     1
  0
CLASS
  1
OLE2FRAME
  2
AcDbOle2Frame
  3
ObjectDBX Classes
 90
        0
 91
        1
280
     0
281
     1
  0
CLASS
  1
HATCH
  2
AcDbHatch
  3
ObjectDBX Classes
 90
        0
 91
        1
280
     0
281
     1
  0
CLASS
  1
DICTIONARYVAR
  2
AcDbDictionaryVar
  3
ObjectDBX Classes
 90
        0
 91
        4
280
     0
281
     0
  0
CLASS
  1
RASTERVARIABLES
  2
AcDbRasterVariables
  3
ISM
 90
        0
 91
        4
280
     0
281
     0
  0
CLASS
  1
IMAGEDEF
  2
AcDbRasterImageDef
  3
ISM
 90
        0
 91
        4
280
     0
281
     0
  0
CLASS
  1
IMAGEDEF_REACTOR
  2
AcDbRasterImageDefReactor
  3
ISM
 90
        1
 91
        4
280
     0
281
     0
  0
CLASS
  1
IDBUFFER
  2
AcDbIdBuffer
  3
ObjectDBX Classes
 90
        0
 91
        4
280
     0
281
     0
  0
CLASS
  1
SPATIAL_FILTER
  2
AcDbSpatialFilter
  3
ObjectDBX Classes
 90
        0
 91
        4
280
     0
281
     0
  0
CLASS
  1
XRECORD
  2
AcDbXrecord
  3
ObjectDBX Classes
 90
        0
 91
        1
280
     0
281
     0
  0
CLASS
  1
SORTENTSTABLE
  2
AcDbSortentsTable
  3
ObjectDBX Classes
 90
        0
 91
        4
280
     0
281
     0
  0
CLASS
  1
LAYER_INDEX
  2
AcDbLayerIndex
  3
ObjectDBX Classes
 90
        0
 91
        4
280
     0
281
     0
  0
CLASS
  1
SPATIAL_INDEX
  2
AcDbSpatialIndex
  3
AutoCAD 2000
 90
        0
 91
        4
280
     0
281
     0
  0
CLASS
  1
OBJECT_PTR
  2
CAseDLPNTableRecord
  3
ASE-LPNTableRecord
 90
        1
 91
        4
280
     0
281
     0
  0
CLASS
  1
LAYOUT
  2
AcDbLayout
  3
ObjectDBX Classes
 90
        0
 91
        1
280
     0
281
     0
  0
CLASS
  1
PLOTSETTINGS
  2
AcDbPlotSettings
  3
ObjectDBX Classes
 90
        0
 91
        4
280
     0
281
     0
  0
CLASS
  1
ACDBDICTIONARYWDFLT
  2
AcDbDictionaryWithDefault
  3
ObjectDBX Classes
 90
        0
 91
        4
280
     0
281
     0
  0
CLASS
  1
ACDBPLACEHOLDER
  2
AcDbPlaceHolder
  3
ObjectDBX Classes
 90
        0
 91
        1
280
     0
281
     0
  0
CLASS
  1
VBA_PROJECT
  2
AcDbVbaProject
  3
ObjectDBX Classes
 90
        0
 91
        1
280
     0
281
     0
  0
CLASS
  1
WIPEOUT
  2
AcDbWipeout
  3
WipeOut|AutoCAD Express Tool|expresstools@autodesk.com
 90
      127
 91
        4
280
     0
281
     1
  0
CLASS
  1
WIPEOUTVARIABLES
  2
AcDbWipeoutVariables
  3
WipeOut|AutoCAD Express Tool|expresstools@autodesk.com
 90
        0
 91
        4
280
     0
281
     0
  0
CLASS
  1
RTEXT
  2
RText
  3
RText|AutoCAD Express Tool|expresstools@autodesk.com
 90
        0
 91
        4
280
     0
281
     1
  0
CLASS
  1
ARCALIGNEDTEXT
  2
AcDbArcAlignedText
  3
ATEXT|AutoCAD Express Tool|expresstools@autodesk.com
 90
        0
 91
        4
280
     0
281
     1
  0
CLASS
  1
SCALE
  2
AcDbScale
  3
ObjectDBX Classes
 90
     1153
 91
        4
280
     0
281
     0
  0
CLASS
  1
VISUALSTYLE
  2
AcDbVisualStyle
  3
ObjectDBX Classes
 90
     4095
 91
        4
280
     0
281
     0
  0
CLASS
  1
MATERIAL
  2
AcDbMaterial
  3
ObjectDBX Classes
 90
     1153
 91
        4
280
     0
281
     0
  0
CLASS
  1
TABLESTYLE
  2
AcDbTableStyle
  3
ObjectDBX Classes
 90
     4095
 91
        4
280
     0
281
     0
  0
CLASS
  1
MLEADERSTYLE
  2
AcDbMLeaderStyle
  3
ACDB_MLEADERSTYLE_CLASS
 90
     4095
 91
        4
280
     0
281
     0
  0
CLASS
  1
DIMASSOC
  2
AcDbDimAssoc
  3
"AcDbDimAssoc|Product Desc:     AcDim ARX App For Dimension|Company:          Autodesk, Inc.|WEB Address:      www.autodesk.com"
 90
        0
 91
        4
280
     0
281
     0
  0
CLASS
  1
SUN
  2
AcDbSun
  3
SCENEOE
 90
     1153
 91
        4
280
     0
281
     0
  0
CLASS
  1
CELLSTYLEMAP
  2
AcDbCellStyleMap
  3
ObjectDBX Classes
 90
     1152
 91
        4
280
     0
281
     0
  0
ENDSEC
  0
SECTION
  2
TABLES
  0
TABLE
  2
VPORT
  5
7
330
0
100
AcDbSymbolTable
 70
     1
  0
VPORT
  5
15
330
7
100
AcDbSymbolTableRecord
100
AcDbViewportTableRecord
  2
*ACTIVE
 70
     0
 10
0.0
 20
0.0
 11
1.0
 21
1.0
 12
13547.79608932751
 22
-2059.060319111622
 13
0.0
 23
0.0
 14
1.0
 24
1.0
 15
0.0
 25
0.0
 16
0.0
 26
0.0
 36
1.0
 17
0.0
 27
0.0
 37
0.0
 40
4847.615229703615
 41
2.038379530916844
 42
50.0
 43
0.0
 44
0.0
 50
0.0
 51
0.0
 71
    16
 72
   100
 73
     1
 74
     1
 75
     0
 76
     0
 77
     0
 78
     0
281
     0
 65
     1
110
0.0
120
0.0
130
0.0
111
1.0
121
0.0
131
0.0
112
0.0
122
1.0
132
0.0
 79
     0
146
0.0
348
5AD
 60
     3
 61
     5
292
     1
282
     1
141
0.0
142
0.0
 63
   256
361
C7D
  0
ENDTAB
  0
TABLE
  2
LTYPE
  5
4
330
0
100
AcDbSymbolTable
 70
     8
  0
LTYPE
  5
11
330
4
100
AcDbSymbolTableRecord
100
AcDbLinetypeTableRecord
  2
BYBLOCK
 70
     0
  3

 72
    65
 73
     0
 40
0.0
  0
LTYPE
  5
12
330
4
100
AcDbSymbolTableRecord
100
AcDbLinetypeTableRecord
  2
BYLAYER
 70
     0
  3

 72
    65
 73
     0
 40
0.0
  0
LTYPE
  5
13
330
4
100
AcDbSymbolTableRecord
100
AcDbLinetypeTableRecord
  2
CONTINUOUS
 70
     0
  3
Solid line
 72
    65
 73
     0
 40
0.0
  0
LTYPE
  5
1D
330
4
100
AcDbSymbolTableRecord
100
AcDbLinetypeTableRecord
  2
DASHED
 70
     0
  3
Dashed
 72
    65
 73
     2
 40
15.0
 49
12.0
 74
     0
 49
-3.0
 74
     0
  0
LTYPE
  5
1E
330
4
100
AcDbSymbolTableRecord
100
AcDbLinetypeTableRecord
  2
DOTTED
 70
     0
  3
Dotted
 72
    65
 73
     2
 40
3.5
 49
0.5
 74
     0
 49
-3.0
 74
     0
  0
LTYPE
  5
1F
330
4
100
AcDbSymbolTableRecord
100
AcDbLinetypeTableRecord
  2
DOT_CENTER
 70
     0
  3
Dot_Center
 72
    65
 73
     4
 40
2.0
 49
1.25
 74
     0
 49
-0.25
 74
     0
 49
0.25
 74
     0
 49
-0.25
 74
     0
  0
LTYPE
  5
20
330
4
100
AcDbSymbolTableRecord
100
AcDbLinetypeTableRecord
  2
LONG_DASHED
 70
     0
  3
Long_Dashed
 72
    65
 73
     2
 40
2.0
 49
1.5
 74
     0
 49
-0.5
 74
     0
  0
LTYPE
  5
21
330
4
100
AcDbSymbolTableRecord
100
AcDbLinetypeTableRecord
  2
DASH_CENTER
 70
     0
  3
Dash_Center
 72
    65
 73
     4
 40
36.0
 49
24.0
 74
     0
 49
-3.0
 74
     0
 49
6.0
 74
     0
 49
-3.0
 74
     0
  0
LTYPE
  5
22
330
4
100
AcDbSymbolTableRecord
100
AcDbLinetypeTableRecord
  2
PHANTOM
 70
     0
  3
Phantom
 72
    65
 73
     6
 40
2.5
 49
1.25
 74
     0
 49
-0.25
 74
     0
 49
0.25
 74
     0
 49
-0.25
 74
     0
 49
0.25
 74
     0
 49
-0.25
 74
     0
  0
LTYPE
  5
23
330
4
100
AcDbSymbolTableRecord
100
AcDbLinetypeTableRecord
  2
CENTER_DASH_DASH
 70
     0
  3
Center_Dash_Dash
 72
    65
 73
     6
 40
22.0
 49
12.0
 74
     0
 49
-3.0
 74
     0
 49
0.5
 74
     0
 49
-3.0
 74
     0
 49
0.5
 74
     0
 49
-3.0
 74
     0
  0
ENDTAB
  0
TABLE
  2
LAYER
  5
2
330
0
100
AcDbSymbolTable
 70
     3
  0
LAYER
  5
14
330
2
100
AcDbSymbolTableRecord
100
AcDbLayerTableRecord
  2
0
 70
     0
 62
     7
  6
CONTINUOUS
370
    -3
390
582
347
5C4
348
0
  0
LAYER
  5
24
330
2
100
AcDbSymbolTableRecord
100
AcDbLayerTableRecord
  2
1
 70
     0
 62
     7
  6
CONTINUOUS
370
    -3
390
582
347
5C4
348
0
  0
LAYER
  5
B21
330
2
100
AcDbSymbolTableRecord
100
AcDbLayerTableRecord
  2
Defpoints
 70
     0
 62
     7
  6
CONTINUOUS
290
     0
370
    -3
390
582
347
5C4
348
0
  0
ENDTAB
  0
TABLE
  2
STYLE
  5
3
330
0
100
AcDbSymbolTable
 70
     1
  0
STYLE
  5
17
330
3
100
AcDbSymbolTableRecord
100
AcDbTextStyleTableRecord
  2
STANDARD
 70
     0
 40
0.0
 41
1.0
 50
0.0
 71
     0
 42
0.0
  3
txt
  4

  0
ENDTAB
  0
TABLE
  2
VIEW
  5
5
330
0
100
AcDbSymbolTable
 70
     0
  0
ENDTAB
  0
TABLE
  2
UCS
  5
6
330
0
100
AcDbSymbolTable
 70
     0
  0
ENDTAB
  0
TABLE
  2
APPID
  5
8
330
0
100
AcDbSymbolTable
 70
     1
  0
APPID
  5
16
330
8
100
AcDbSymbolTableRecord
100
AcDbRegAppTableRecord
  2
ACAD
 70
     0
  0
ENDTAB
  0
TABLE
  2
DIMSTYLE
  5
9
330
0
100
AcDbSymbolTable
 70
     1
100
AcDbDimStyleTable
  0
DIMSTYLE
105
18
330
9
100
AcDbSymbolTableRecord
100
AcDbDimStyleTableRecord
  2
STANDARD
 70
     0
178
     0
289
     0
340
17
  0
ENDTAB
  0
TABLE
  2
BLOCK_RECORD
  5
1
330
0
100
AcDbSymbolTable
 70
     1
  0
BLOCK_RECORD
  5
A
330
1
100
AcDbSymbolTableRecord
100
AcDbBlockTableRecord
  2
*MODEL_SPACE
340
5A6
 70
     0
280
     1
281
     0
  0
BLOCK_RECORD
  5
21C6
330
1
100
AcDbSymbolTableRecord
100
AcDbBlockTableRecord
  2
*Paper_Space
340
21C7
 70
     0
280
     1
281
     0
  0
BLOCK_RECORD
  5
25
330
1
100
AcDbSymbolTableRecord
100
AcDbBlockTableRecord
  2
SAT2000C85__1
340
0
102
{BLKREFS
331
29
102
}
 70
     0
280
     1
281
     0
  0
ENDTAB
  0
ENDSEC
  0
SECTION
  2
BLOCKS
  0
BLOCK
  5
D
330
A
100
AcDbEntity
  8
0
100
AcDbBlockBegin
  2
*MODEL_SPACE
 70
     0
 10
0.0
 20
0.0
 30
0.0
  3
*MODEL_SPACE
  1

  0
ENDBLK
  5
E
330
A
100
AcDbEntity
  8
0
100
AcDbBlockEnd
  0
BLOCK
  5
21C8
330
21C6
100
AcDbEntity
 67
     1
  8
0
100
AcDbBlockBegin
  2
*Paper_Space
 70
     0
 10
0.0
 20
0.0
 30
0.0
  3
*Paper_Space
  1

  0
ENDBLK
  5
21C9
330
21C6
100
AcDbEntity
 67
     1
  8
0
100
AcDbBlockEnd
  0
BLOCK
  5
26
330
25
100
AcDbEntity
  8
0
100
AcDbBlockBegin
  2
SAT2000C85__1
 70
     0
 10
0.0
 20
0.0
 30
0.0
  3
SAT2000C85__1
  1

  0
ARC
  5
57C
330
25
100
AcDbEntity
  8
1
  6
Continuous
 62
     0
100
AcDbCircle
 10
11221.95179304136
 20
-3177.46928293974
 30
0.0
 40
10.000000000002
100
AcDbArc
 50
219.8683415499956
 51
270.0
  0
ARC
  5
57B
330
25
100
AcDbEntity
  8
1
  6
Continuous
 62
     0
100
AcDbCircle
 10
11221.95179304136
 20
-3252.46928293974
 30
0.0
 40
10.0
100
AcDbArc
 50
90.0
 51
140.1316584500038
  0
ARC
  5
57A
330
25
100
AcDbEntity
  8
1
  6
Continuous
 62
     0
100
AcDbCircle
 10
11231.05190440007
 20
-3186.46928293974
 30
0.0
 40
1.0
100
AcDbArc
 50
270.0
 51
0.0
  0
ARC
  5
579
330
25
100
AcDbEntity
  8
1
  6
Continuous
 62
     0
100
AcDbCircle
 10
11231.05190440007
 20
-3243.46928293974
 30
0.0
 40
1.0
100
AcDbArc
 50
0.0
 51
90.0
  0
ARC
  5
578
330
25
100
AcDbEntity
  8
1
  6
Continuous
 62
     0
100
AcDbCircle
 10
10519.55317754166
 20
-3830.169282939741
 30
0.0
 40
2.0
100
AcDbArc
 50
180.0
 51
270.0
  0
ARC
  5
577
330
25
100
AcDbEntity
  8
1
  6
Continuous
 62
     0
100
AcDbCircle
 10
10519.55317754166
 20
-3799.169282939741
 30
0.0
 40
2.0
100
AcDbArc
 50
90.0
 51
180.0
  0
ARC
  5
576
330
25
100
AcDbEntity
  8
1
  6
Continuous
 62
     0
100
AcDbCircle
 10
14098.67688705659
 20
-2575.815663209182
 30
0.0
 40
2.0
100
AcDbArc
 50
90.0
 51
180.0
  0
ARC
  5
575
330
25
100
AcDbEntity
  8
1
  6
Continuous
 62
     0
100
AcDbCircle
 10
14118.26968659563
 20
-2595.565663209183
 30
0.0
 40
2.0
100
AcDbArc
 50
90.0
 51
148.891077489551
  0
ARC
  5
574
330
25
100
AcDbEntity
  8
1
  6
Continuous
 62
     0
100
AcDbCircle
 10
14118.26968659563
 20
-2580.065663209183
 30
0.0
 40
2.000000000001
100
AcDbArc
 50
211.1089225107036
 51
270.0
  0
ARC
  5
573
330
25
100
AcDbEntity
  8
1
  6
Continuous
 62
     0
100
AcDbCircle
 10
14092.58408751755
 20
-2595.565663209183
 30
0.0
 40
1.999999999995
100
AcDbArc
 50
31.10892251049632
 51
90.0
  0
ARC
  5
572
330
25
100
AcDbEntity
  8
1
  6
Continuous
 62
     0
100
AcDbCircle
 10
14092.58408751755
 20
-2580.065663209183
 30
0.0
 40
2.0
100
AcDbArc
 50
270.0
 51
328.8910774892583
  0
ARC
  5
571
330
25
100
AcDbEntity
  8
1
  6
Continuous
 62
     0
100
AcDbCircle
 10
10980.44103791748
 20
148.275574287051
 30
0.0
 40
5.000000000007
100
AcDbArc
 50
135.7173872834647
 51
196.9831151249265
  0
ARC
  5
570
330
25
100
AcDbEntity
  8
1
  6
Continuous
 62
     0
100
AcDbCircle
 10
10936.58484065265
 20
138.552889429623
 30
0.0
 40
5.000000000005
100
AcDbArc
 50
8.016884875042487
 51
69.28261271654148
  0
ARC
  5
56F
330
25
100
AcDbEntity
  8
1
  6
Continuous
 62
     0
100
AcDbCircle
 10
10943.07366451039
 20
149.843121409895
 30
0.0
 40
3.0
100
AcDbArc
 50
109.4192286962992
 51
188.0168848750208
  0
ARC
  5
56E
330
25
100
AcDbEntity
  8
1
  6
Continuous
 62
     0
100
AcDbCircle
 10
10969.78870811234
 20
155.765703988721
 30
0.0
 40
3.000000000003
100
AcDbArc
 50
16.98311512491581
 51
95.58077130357267
  0
ARC
  5
56D
330
25
100
AcDbEntity
  8
1
  6
Continuous
 62
     0
100
AcDbCircle
 10
11384.3151006878
 20
155.765703988721
 30
0.0
 40
3.000000000001
100
AcDbArc
 50
84.41922869624909
 51
163.0168848750224
  0
ARC
  5
56C
330
25
100
AcDbEntity
  8
1
  6
Continuous
 62
     0
100
AcDbCircle
 10
11411.03014428975
 20
149.843121409895
 30
0.0
 40
2.999999999999
100
AcDbArc
 50
351.9831151249707
 51
70.58077130354647
  0
ARC
  5
56B
330
25
100
AcDbEntity
  8
1
  6
Continuous
 62
     0
100
AcDbCircle
 10
11417.51896814749
 20
138.552889429623
 30
0.0
 40
4.999999999999
100
AcDbArc
 50
110.7173872833507
 51
171.9831151249417
  0
ARC
  5
56A
330
25
100
AcDbEntity
  8
1
  6
Continuous
 62
     0
100
AcDbCircle
 10
11373.66277088267
 20
148.275574287051
 30
0.0
 40
5.0
100
AcDbArc
 50
343.0168848750395
 51
44.28261271662956
  0
ARC
  5
569
330
25
100
AcDbEntity
  8
1
  6
Continuous
 62
     0
100
AcDbCircle
 10
10534.23297629354
 20
-1166.629150684
 30
0.0
 40
0.144444444446
100
AcDbArc
 50
137.782165418005
 51
312.2178345821163
  0
ARC
  5
568
330
25
100
AcDbEntity
  8
1
  6
Continuous
 62
     0
100
AcDbCircle
 10
10605.08961896089
 20
-1239.701336467441
 30
0.0
 40
2.999999999998
100
AcDbArc
 50
34.42900395086972
 51
90.0
  0
ARC
  5
567
330
25
100
AcDbEntity
  8
1
  6
Continuous
 62
     0
100
AcDbCircle
 10
10605.08961896089
 20
-1225.001336467441
 30
0.0
 40
3.0
100
AcDbArc
 50
270.0
 51
325.5709960490802
  0
ARC
  5
566
330
25
100
AcDbEntity
  8
1
  6
Continuous
 62
     0
100
AcDbCircle
 10
10626.53513131196
 20
-1225.001336467441
 30
0.0
 40
3.000000000009
100
AcDbArc
 50
214.429003950802
 51
270.0
  0
ARC
  5
565
330
25
100
AcDbEntity
  8
1
  6
Continuous
 62
     0
100
AcDbCircle
 10
10626.53513131196
 20
-1239.701336467441
 30
0.0
 40
3.0
100
AcDbArc
 50
90.0
 51
145.5709960492537
  0
ARC
  5
564
330
25
100
AcDbEntity
  8
1
  6
Continuous
 62
     0
100
AcDbCircle
 10
10570.01364827801
 20
-1246.851336467443
 30
0.0
 40
3.0
100
AcDbArc
 50
90.0
 51
180.0
  0
ARC
  5
563
330
25
100
AcDbEntity
  8
1
  6
Continuous
 62
     0
100
AcDbCircle
 10
10570.01364827801
 20
-1217.851336467443
 30
0.0
 40
3.0
100
AcDbArc
 50
180.0
 51
270.0
  0
ARC
  5
562
330
25
100
AcDbEntity
  8
1
  6
Continuous
 62
     0
100
AcDbCircle
 10
11205.05190440007
 20
-2575.944706241185
 30
0.0
 40
3.000000000001
100
AcDbArc
 50
321.9080428948128
 51
0.0
  0
ARC
  5
561
330
25
100
AcDbEntity
  8
1
  6
Continuous
 62
     0
100
AcDbCircle
 10
11205.05190440007
 20
-2599.1179666937
 30
0.0
 40
3.0
100
AcDbArc
 50
0.0
 51
38.09195710522228
  0
ARC
  5
560
330
25
100
AcDbEntity
  8
1
  6
Continuous
 62
     0
100
AcDbCircle
 10
11227.55190440007
 20
-792.224048406982
 30
0.0
 40
30.0
100
AcDbArc
 50
180.0
 51
218.4706455406041
  0
ARC
  5
55F
330
25
100
AcDbEntity
  8
1
  6
Continuous
 62
     0
100
AcDbCircle
 10
11126.55190440007
 20
-792.224048406982
 30
0.0
 40
30.000000000005
100
AcDbArc
 50
321.5293544594064
 51
0.0
  0
ARC
  5
55E
330
25
100
AcDbEntity
  8
1
  6
Continuous
 62
     0
100
AcDbCircle
 10
11145.05190440007
 20
-742.131336467442
 30
0.0
 40
3.0
100
AcDbArc
 50
180.0
 51
270.0
  0
ARC
  5
55D
330
25
100
AcDbEntity
  8
1
  6
Continuous
 62
     0
100
AcDbCircle
 10
11209.05190440007
 20
-742.131336467442
 30
0.0
 40
3.0
100
AcDbArc
 50
270.0
 51
0.0
  0
ARC
  5
55C
330
25
100
AcDbEntity
  8
1
  6
Continuous
 62
     0
100
AcDbCircle
 10
11223.05190440007
 20
-733.631336467442
 30
0.0
 40
1.0
100
AcDbArc
 50
0.0
 51
90.0
  0
ARC
  5
55B
330
25
100
AcDbEntity
  8
1
  6
Continuous
 62
     0
100
AcDbCircle
 10
11218.05190440007
 20
-733.631336467442
 30
0.0
 40
1.0
100
AcDbArc
 50
90.0
 51
180.0
  0
ARC
  5
55A
330
25
100
AcDbEntity
  8
1
  6
Continuous
 62
     0
100
AcDbCircle
 10
11223.05190440007
 20
-676.631336467442
 30
0.0
 40
1.0
100
AcDbArc
 50
270.0
 51
0.0
  0
ARC
  5
559
330
25
100
AcDbEntity
  8
1
  6
Continuous
 62
     0
100
AcDbCircle
 10
11218.05190440007
 20
-676.631336467442
 30
0.0
 40
1.0
100
AcDbArc
 50
180.0
 51
270.0
  0
ARC
  5
558
330
25
100
AcDbEntity
  8
1
  6
Continuous
 62
     0
100
AcDbCircle
 10
11142.05190440007
 20
-729.131336467442
 30
0.0
 40
5.0
100
AcDbArc
 50
180.0
 51
270.0
  0
ARC
  5
557
330
25
100
AcDbEntity
  8
1
  6
Continuous
 62
     0
100
AcDbCircle
 10
11212.05190440007
 20
-675.631336467442
 30
0.0
 40
5.0
100
AcDbArc
 50
0.0
 51
90.0
  0
ARC
  5
556
330
25
100
AcDbEntity
  8
1
  6
Continuous
 62
     0
100
AcDbCircle
 10
11142.05190440007
 20
-675.631336467442
 30
0.0
 40
5.0
100
AcDbArc
 50
90.0
 51
180.0
  0
ARC
  5
555
330
25
100
AcDbEntity
  8
1
  6
Continuous
 62
     0
100
AcDbCircle
 10
11157.05190440007
 20
-659.631336467442
 30
0.0
 40
1.0
100
AcDbArc
 50
180.0
 51
270.0
  0
ARC
  5
554
330
25
100
AcDbEntity
  8
1
  6
Continuous
 62
     0
100
AcDbCircle
 10
11152.05190440007
 20
-660.053986198252
 30
0.0
 40
2.000000000001
100
AcDbArc
 50
299.9999999999842
 51
0.0
  0
ARC
  5
553
330
25
100
AcDbEntity
  8
1
  6
Continuous
 62
     0
100
AcDbCircle
 10
11167.71857106674
 20
-659.631336467442
 30
0.0
 40
1.0
100
AcDbArc
 50
270.0
 51
0.0
  0
ARC
  5
552
330
25
100
AcDbEntity
  8
1
  6
Continuous
 62
     0
100
AcDbCircle
 10
11171.71857106674
 20
-659.631336467442
 30
0.0
 40
1.0
100
AcDbArc
 50
180.0
 51
270.0
  0
ARC
  5
551
330
25
100
AcDbEntity
  8
1
  6
Continuous
 62
     0
100
AcDbCircle
 10
11182.38523773341
 20
-659.631336467442
 30
0.0
 40
1.0
100
AcDbArc
 50
270.0
 51
0.0
  0
ARC
  5
550
330
25
100
AcDbEntity
  8
1
  6
Continuous
 62
     0
100
AcDbCircle
 10
11186.38523773341
 20
-659.631336467442
 30
0.0
 40
1.0
100
AcDbArc
 50
180.0
 51
270.0
  0
ARC
  5
54F
330
25
100
AcDbEntity
  8
1
  6
Continuous
 62
     0
100
AcDbCircle
 10
11197.05190440007
 20
-659.631336467442
 30
0.0
 40
1.0
100
AcDbArc
 50
270.0
 51
0.0
  0
ARC
  5
54E
330
25
100
AcDbEntity
  8
1
  6
Continuous
 62
     0
100
AcDbCircle
 10
11202.05190440007
 20
-660.053986198252
 30
0.0
 40
2.0
100
AcDbArc
 50
180.0
 51
240.0000000000011
  0
ARC
  5
54D
330
25
100
AcDbEntity
  8
1
  6
Continuous
 62
     0
100
AcDbCircle
 10
11199.05190440007
 20
-614.631336467442
 30
0.0
 40
2.0
100
AcDbArc
 50
180.0
 51
270.0
  0
ARC
  5
54C
330
25
100
AcDbEntity
  8
1
  6
Continuous
 62
     0
100
AcDbCircle
 10
11155.05190440007
 20
-614.631336467442
 30
0.0
 40
2.0
100
AcDbArc
 50
270.0
 51
0.0
  0
ARC
  5
54B
330
25
100
AcDbEntity
  8
1
  6
Continuous
 62
     0
100
AcDbCircle
 10
11154.05190440007
 20
-618.631336467442
 30
0.0
 40
2.0
100
AcDbArc
 50
90.0
 51
180.0
  0
ARC
  5
54A
330
25
100
AcDbEntity
  8
1
  6
Continuous
 62
     0
100
AcDbCircle
 10
11200.05190440007
 20
-618.631336467442
 30
0.0
 40
2.0
100
AcDbArc
 50
0.0
 51
90.0
  0
ARC
  5
549
330
25
100
AcDbEntity
  8
1
  6
Continuous
 62
     0
100
AcDbCircle
 10
11196.05190440007
 20
-612.631336467442
 30
0.0
 40
1.0
100
AcDbArc
 50
0.0
 51
90.0
  0
ARC
  5
548
330
25
100
AcDbEntity
  8
1
  6
Continuous
 62
     0
100
AcDbCircle
 10
11158.05190440007
 20
-612.631336467442
 30
0.0
 40
1.0
100
AcDbArc
 50
90.0
 51
180.0
  0
ARC
  5
547
330
25
100
AcDbEntity
  8
1
  6
Continuous
 62
     0
100
AcDbCircle
 10
13532.69156956139
 20
-791.849791934871
 30
0.0
 40
6.0
100
AcDbArc
 50
180.0
 51
270.0
  0
ARC
  5
546
330
25
100
AcDbEntity
  8
1
  6
Continuous
 62
     0
100
AcDbCircle
 10
13530.69156956139
 20
-821.852881000014
 30
0.0
 40
45.0
100
AcDbArc
 50
180.000000000002
 51
270.0
  0
ARC
  5
545
330
25
100
AcDbEntity
  8
1
  6
Continuous
 62
     0
100
AcDbCircle
 10
13487.3334839964
 20
-612.630665128859
 30
0.0
 40
1.0
100
AcDbArc
 50
90.0
 51
180.0
  0
ARC
  5
544
330
25
100
AcDbEntity
  8
1
  6
Continuous
 62
     0
100
AcDbCircle
 10
13525.3334839964
 20
-612.630665128859
 30
0.0
 40
1.0
100
AcDbArc
 50
0.0
 51
90.0
  0
ARC
  5
543
330
25
100
AcDbEntity
  8
1
  6
Continuous
 62
     0
100
AcDbCircle
 10
13529.3334839964
 20
-618.630665128859
 30
0.0
 40
2.0
100
AcDbArc
 50
0.0
 51
90.0
  0
ARC
  5
542
330
25
100
AcDbEntity
  8
1
  6
Continuous
 62
     0
100
AcDbCircle
 10
13483.3334839964
 20
-618.630665128859
 30
0.0
 40
2.0
100
AcDbArc
 50
90.0
 51
180.0
  0
ARC
  5
541
330
25
100
AcDbEntity
  8
1
  6
Continuous
 62
     0
100
AcDbCircle
 10
13484.3334839964
 20
-614.630665128859
 30
0.0
 40
2.0
100
AcDbArc
 50
270.0
 51
0.0
  0
ARC
  5
540
330
25
100
AcDbEntity
  8
1
  6
Continuous
 62
     0
100
AcDbCircle
 10
13528.3334839964
 20
-614.630665128859
 30
0.0
 40
2.0
100
AcDbArc
 50
180.0
 51
270.0
  0
ARC
  5
53F
330
25
100
AcDbEntity
  8
1
  6
Continuous
 62
     0
100
AcDbCircle
 10
13531.3334839964
 20
-660.053986198252
 30
0.0
 40
2.0
100
AcDbArc
 50
180.0
 51
240.0000000000011
  0
ARC
  5
53E
330
25
100
AcDbEntity
  8
1
  6
Continuous
 62
     0
100
AcDbCircle
 10
13526.3334839964
 20
-659.631336467442
 30
0.0
 40
1.0
100
AcDbArc
 50
270.0
 51
0.0
  0
ARC
  5
53D
330
25
100
AcDbEntity
  8
1
  6
Continuous
 62
     0
100
AcDbCircle
 10
13515.66681732973
 20
-659.631336467442
 30
0.0
 40
1.0
100
AcDbArc
 50
180.0
 51
270.0
  0
ARC
  5
53C
330
25
100
AcDbEntity
  8
1
  6
Continuous
 62
     0
100
AcDbCircle
 10
13511.66681732973
 20
-659.631336467442
 30
0.0
 40
1.0
100
AcDbArc
 50
270.0
 51
0.0
  0
ARC
  5
53B
330
25
100
AcDbEntity
  8
1
  6
Continuous
 62
     0
100
AcDbCircle
 10
13501.00015066306
 20
-659.631336467442
 30
0.0
 40
1.0
100
AcDbArc
 50
180.0
 51
270.0
  0
ARC
  5
53A
330
25
100
AcDbEntity
  8
1
  6
Continuous
 62
     0
100
AcDbCircle
 10
13497.00015066306
 20
-659.631336467442
 30
0.0
 40
1.0
100
AcDbArc
 50
270.0
 51
0.0
  0
ARC
  5
539
330
25
100
AcDbEntity
  8
1
  6
Continuous
 62
     0
100
AcDbCircle
 10
13481.3334839964
 20
-660.053986198252
 30
0.0
 40
2.000000000001
100
AcDbArc
 50
299.9999999999842
 51
0.0
  0
ARC
  5
538
330
25
100
AcDbEntity
  8
1
  6
Continuous
 62
     0
100
AcDbCircle
 10
13486.3334839964
 20
-659.631336467442
 30
0.0
 40
1.0
100
AcDbArc
 50
180.0
 51
270.0
  0
ARC
  5
537
330
25
100
AcDbEntity
  8
1
  6
Continuous
 62
     0
100
AcDbCircle
 10
13471.3334839964
 20
-675.631336467442
 30
0.0
 40
5.0
100
AcDbArc
 50
90.0
 51
180.0
  0
ARC
  5
536
330
25
100
AcDbEntity
  8
1
  6
Continuous
 62
     0
100
AcDbCircle
 10
13541.3334839964
 20
-675.631336467442
 30
0.0
 40
5.0
100
AcDbArc
 50
0.0
 51
90.0
  0
ARC
  5
535
330
25
100
AcDbEntity
  8
1
  6
Continuous
 62
     0
100
AcDbCircle
 10
13471.3334839964
 20
-729.131336467442
 30
0.0
 40
5.0
100
AcDbArc
 50
180.0
 51
270.0
  0
ARC
  5
534
330
25
100
AcDbEntity
  8
1
  6
Continuous
 62
     0
100
AcDbCircle
 10
13538.3334839964
 20
-742.131336467442
 30
0.0
 40
3.0
100
AcDbArc
 50
270.0
 51
0.0
  0
ARC
  5
533
330
25
100
AcDbEntity
  8
1
  6
Continuous
 62
     0
100
AcDbCircle
 10
13474.3334839964
 20
-742.131336467442
 30
0.0
 40
3.0
100
AcDbArc
 50
180.0
 51
270.0
  0
ARC
  5
532
330
25
100
AcDbEntity
  8
1
  6
Continuous
 62
     0
100
AcDbCircle
 10
13541.3334839964
 20
-729.131336467442
 30
0.0
 40
5.0
100
AcDbArc
 50
270.0
 51
0.0
  0
ARC
  5
529
330
25
100
AcDbEntity
  8
1
  6
Continuous
 62
     0
100
AcDbCircle
 10
11175.05190440007
 20
-4354.169282939742
 30
0.0
 40
2.0
100
AcDbArc
 50
180.0
 51
270.0
  0
ARC
  5
528
330
25
100
AcDbEntity
  8
1
  6
Continuous
 62
     0
100
AcDbCircle
 10
11179.05190440007
 20
-4354.169282939742
 30
0.0
 40
2.0
100
AcDbArc
 50
270.0
 51
0.0
  0
ARC
  5
527
330
25
100
AcDbEntity
  8
1
  6
Continuous
 62
     0
100
AcDbCircle
 10
11175.05190440007
 20
-4354.169282939742
 30
0.0
 40
2.0
100
AcDbArc
 50
180.0
 51
270.0
  0
ARC
  5
526
330
25
100
AcDbEntity
  8
1
  6
Continuous
 62
     0
100
AcDbCircle
 10
11179.05190440007
 20
-4354.169282939742
 30
0.0
 40
2.0
100
AcDbArc
 50
270.0
 51
0.0
  0
ARC
  5
525
330
25
100
AcDbEntity
  8
1
  6
Continuous
 62
     0
100
AcDbCircle
 10
11175.05190440007
 20
-4354.169282939742
 30
0.0
 40
2.0
100
AcDbArc
 50
180.0
 51
270.0
  0
ARC
  5
524
330
25
100
AcDbEntity
  8
1
  6
Continuous
 62
     0
100
AcDbCircle
 10
11179.05190440007
 20
-4354.169282939742
 30
0.0
 40
2.0
100
AcDbArc
 50
270.0
 51
0.0
  0
ARC
  5
523
330
25
100
AcDbEntity
  8
1
  6
Continuous
 62
     0
100
AcDbCircle
 10
11175.05190440007
 20
-4354.169282939742
 30
0.0
 40
2.0
100
AcDbArc
 50
180.0
 51
270.0
  0
ARC
  5
522
330
25
100
AcDbEntity
  8
1
  6
Continuous
 62
     0
100
AcDbCircle
 10
11179.05190440007
 20
-4354.169282939742
 30
0.0
 40
2.0
100
AcDbArc
 50
270.0
 51
0.0
  0
CIRCLE
  5
521
330
25
100
AcDbEntity
  8
1
  6
Continuous
 62
     0
100
AcDbCircle
 10
10876.53152239579
 20
-4118.689664944023
 30
0.0
 40
13.5
  0
CIRCLE
  5
520
330
25
100
AcDbEntity
  8
1
  6
Continuous
 62
     0
100
AcDbCircle
 10
10876.53152239579
 20
-3517.648900935458
 30
0.0
 40
13.5
  0
CIRCLE
  5
51F
330
25
100
AcDbEntity
  8
1
  6
Continuous
 62
     0
100
AcDbCircle
 10
11477.57228640436
 20
-3517.648900935458
 30
0.0
 40
13.5
  0
CIRCLE
  5
51E
330
25
100
AcDbEntity
  8
1
  6
Continuous
 62
     0
100
AcDbCircle
 10
11477.57228640436
 20
-4118.689664944023
 30
0.0
 40
13.5
  0
CIRCLE
  5
51D
330
25
100
AcDbEntity
  8
1
  6
Continuous
 62
     0
100
AcDbCircle
 10
10556.55317754166
 20
-3818.16928293974
 30
0.0
 40
8.331000000001
  0
CIRCLE
  5
51C
330
25
100
AcDbEntity
  8
1
  6
Continuous
 62
     0
100
AcDbCircle
 10
10556.55317754166
 20
-3818.16928293974
 30
0.0
 40
7.475000000001
  0
CIRCLE
  5
51A
330
25
100
AcDbEntity
  8
1
  6
Continuous
 62
     0
100
AcDbCircle
 10
11177.05190440007
 20
-3818.16928293974
 30
0.0
 40
500.0
  0
CIRCLE
  5
519
330
25
100
AcDbEntity
  8
1
  6
Continuous
 62
     0
100
AcDbCircle
 10
11177.05190440007
 20
-3818.16928293974
 30
0.0
 40
509.0
  0
CIRCLE
  5
518
330
25
100
AcDbEntity
  8
1
  6
Continuous
 62
     0
100
AcDbCircle
 10
14076.72562962921
 20
-901.642301405789
 30
0.0
 40
9.5
  0
CIRCLE
  5
517
330
25
100
AcDbEntity
  8
1
  6
Continuous
 62
     0
100
AcDbCircle
 10
14036.13592211824
 20
-861.052593894824
 30
0.0
 40
9.5
  0
CIRCLE
  5
516
330
25
100
AcDbEntity
  8
1
  6
Continuous
 62
     0
100
AcDbCircle
 10
14036.13592211824
 20
-803.650079040061
 30
0.0
 40
9.5
  0
CIRCLE
  5
515
330
25
100
AcDbEntity
  8
1
  6
Continuous
 62
     0
100
AcDbCircle
 10
14076.72562962921
 20
-763.060371529096
 30
0.0
 40
9.5
  0
CIRCLE
  5
514
330
25
100
AcDbEntity
  8
1
  6
Continuous
 62
     0
100
AcDbCircle
 10
14134.12814448397
 20
-901.642301405789
 30
0.0
 40
9.5
  0
CIRCLE
  5
513
330
25
100
AcDbEntity
  8
1
  6
Continuous
 62
     0
100
AcDbCircle
 10
14174.71785199494
 20
-861.052593894824
 30
0.0
 40
9.5
  0
CIRCLE
  5
512
330
25
100
AcDbEntity
  8
1
  6
Continuous
 62
     0
100
AcDbCircle
 10
14174.71785199494
 20
-803.650079040061
 30
0.0
 40
9.5
  0
CIRCLE
  5
511
330
25
100
AcDbEntity
  8
1
  6
Continuous
 62
     0
100
AcDbCircle
 10
14134.12814448397
 20
-763.060371529096
 30
0.0
 40
9.5
  0
CIRCLE
  5
510
330
25
100
AcDbEntity
  8
1
  6
Continuous
 62
     0
100
AcDbCircle
 10
14105.42688705659
 20
-832.351336467443
 30
0.0
 40
40.0
  0
CIRCLE
  5
50F
330
25
100
AcDbEntity
  8
1
  6
Continuous
 62
     0
100
AcDbCircle
 10
14105.42688705659
 20
-832.351336467443
 30
0.0
 40
45.0
  0
CIRCLE
  5
50D
330
25
100
AcDbEntity
  8
1
  6
Continuous
 62
     0
100
AcDbCircle
 10
14105.42688705659
 20
-832.351336467443
 30
0.0
 40
92.5
  0
CIRCLE
  5
50C
330
25
100
AcDbEntity
  8
1
  6
Continuous
 62
     0
100
AcDbCircle
 10
14105.42688705659
 20
-2587.815663209183
 30
0.0
 40
3.600000000001
  0
CIRCLE
  5
50B
330
25
100
AcDbEntity
  8
1
  6
Continuous
 62
     0
100
AcDbCircle
 10
14105.42688705659
 20
-2587.815663209183
 30
0.0
 40
7.5
  0
CIRCLE
  5
50A
330
25
100
AcDbEntity
  8
1
  6
Continuous
 62
     0
100
AcDbCircle
 10
14105.42688705659
 20
-2587.815663209183
 30
0.0
 40
6.0
  0
CIRCLE
  5
509
330
25
100
AcDbEntity
  8
1
  6
Continuous
 62
     0
100
AcDbCircle
 10
14105.42688705659
 20
-2587.815663209183
 30
0.0
 40
11.100000000001
  0
CIRCLE
  5
508
330
25
100
AcDbEntity
  8
1
  6
Continuous
 62
     0
100
AcDbCircle
 10
10951.08894744869
 20
176.901694965768
 30
0.0
 40
20.000000000003
  0
CIRCLE
  5
507
330
25
100
AcDbEntity
  8
1
  6
Continuous
 62
     0
100
AcDbCircle
 10
11403.01486135145
 20
176.901694965768
 30
0.0
 40
20.000000000001
  0
CIRCLE
  5
4F9
330
25
100
AcDbEntity
  8
1
  6
Continuous
 62
     0
100
AcDbCircle
 10
10555.51364827801
 20
-1158.340391044431
 30
0.0
 40
2.247127062102
  0
CIRCLE
  5
4F8
330
25
100
AcDbEntity
  8
1
  6
Continuous
 62
     0
100
AcDbCircle
 10
10539.62400360479
 20
-1163.12719698374
 30
0.0
 40
0.722222222219
  0
CIRCLE
  5
4F7
330
25
100
AcDbEntity
  8
1
  6
Continuous
 62
     0
100
AcDbCircle
 10
10555.51364827801
 20
-1145.702609609026
 30
0.0
 40
2.88888888888
  0
CIRCLE
  5
4F6
330
25
100
AcDbEntity
  8
1
  6
Continuous
 62
     0
100
AcDbCircle
 10
10555.51683779389
 20
-1145.706768228956
 30
0.0
 40
36.09209352415
  0
CIRCLE
  5
4F5
330
25
100
AcDbEntity
  8
1
  6
Continuous
 62
     0
100
AcDbCircle
 10
10615.81237513642
 20
-1232.351336467443
 30
0.0
 40
6.25
  0
CIRCLE
  5
4F4
330
25
100
AcDbEntity
  8
1
  6
Continuous
 62
     0
100
AcDbCircle
 10
10615.81237513642
 20
-1232.351336467443
 30
0.0
 40
3.0
  0
CIRCLE
  5
4F3
330
25
100
AcDbEntity
  8
1
  6
Continuous
 62
     0
100
AcDbCircle
 10
10615.81237513642
 20
-1232.351336467443
 30
0.0
 40
5.0
  0
CIRCLE
  5
4F2
330
25
100
AcDbEntity
  8
1
  6
Continuous
 62
     0
100
AcDbCircle
 10
10615.81237513642
 20
-1232.351336467443
 30
0.0
 40
8.5
  0
CIRCLE
  5
4F1
330
25
100
AcDbEntity
  8
1
  6
Continuous
 62
     0
100
AcDbCircle
 10
13506.19156956139
 20
-705.131336467442
 30
0.0
 40
29.0
  0
CIRCLE
  5
4F0
330
25
100
AcDbEntity
  8
1
  6
Continuous
 62
     0
100
AcDbCircle
 10
13506.19156956139
 20
-705.131336467442
 30
0.0
 40
21.0
  0
CIRCLE
  5
4EF
330
25
100
AcDbEntity
  8
1
  6
Continuous
 62
     0
100
AcDbCircle
 10
13506.19156956139
 20
-705.131336467442
 30
0.0
 40
19.5
  0
ARC
  5
4E2
330
25
100
AcDbEntity
  8
1
  6
Continuous
 62
     0
100
AcDbCircle
 10
11170.5131821634
 20
-3210.317992024741
 30
0.0
 40
56.523480904112
100
AcDbArc
 50
321.263520931339
 51
325.3325057419391
  0
ARC
  5
4E1
330
25
100
AcDbEntity
  8
1
  6
Continuous
 62
     0
100
AcDbCircle
 10
11177.05190440007
 20
-3214.96928293974
 30
0.0
 40
48.499999999999
100
AcDbArc
 50
315.3466591947663
 51
320.1316584499892
  0
ARC
  5
4E0
330
25
100
AcDbEntity
  8
1
  6
Continuous
 62
     0
100
AcDbCircle
 10
11177.05190440007
 20
-3214.96928293974
 30
0.0
 40
48.500000000003
100
AcDbArc
 50
325.4579924503849
 51
224.6533408052352
  0
ARC
  5
4DF
330
25
100
AcDbEntity
  8
1
  6
Continuous
 62
     0
100
AcDbCircle
 10
11177.08057330393
 20
-3222.577038457089
 30
0.0
 40
34.787361012411
100
AcDbArc
 50
7.710008218942145
 51
173.0291458909451
  0
ARC
  5
4DE
330
25
100
AcDbEntity
  8
1
  6
Continuous
 62
     0
100
AcDbCircle
 10
11132.1349183674
 20
-3252.544459405001
 30
0.0
 40
10.415441500101
100
AcDbArc
 50
328.8685094339184
 51
0.0
  0
ARC
  5
4DD
330
25
100
AcDbEntity
  8
1
  6
Continuous
 62
     0
100
AcDbCircle
 10
11221.96889043274
 20
-3252.544459405001
 30
0.0
 40
10.415441500099
100
AcDbArc
 50
180.0
 51
211.1314905660846
  0
ARC
  5
4DC
330
25
100
AcDbEntity
  8
1
  6
Continuous
 62
     0
100
AcDbCircle
 10
10556.55317754166
 20
-3818.16928293974
 30
0.0
 40
11.5
100
AcDbArc
 50
90.0
 51
270.0
  0
ARC
  5
4DB
330
25
100
AcDbEntity
  8
1
  6
Continuous
 62
     0
100
AcDbCircle
 10
11224.38524802536
 20
-4352.980937778857
 30
0.0
 40
6.188368025612
100
AcDbArc
 50
245.9793229189621
 51
304.2284958030535
  0
ARC
  5
4DA
330
25
100
AcDbEntity
  8
1
  6
Continuous
 62
     0
100
AcDbCircle
 10
11245.20350233869
 20
-4352.980937778857
 30
0.0
 40
6.188368025609
100
AcDbArc
 50
235.7715041969274
 51
294.0206770810294
  0
ARC
  5
4D9
330
25
100
AcDbEntity
  8
1
  6
Continuous
 62
     0
100
AcDbCircle
 10
11234.79437518203
 20
-4336.241079709465
 30
0.0
 40
22.928203230276
100
AcDbArc
 50
252.4120462259947
 51
287.5879537739859
  0
ARC
  5
4D8
330
25
100
AcDbEntity
  8
1
  6
Continuous
 62
     0
100
AcDbCircle
 10
11200.96961892289
 20
-4336.241079709465
 30
0.0
 40
22.928203230276
100
AcDbArc
 50
252.4120462259947
 51
287.5879537740051
  0
ARC
  5
4D7
330
25
100
AcDbEntity
  8
1
  6
Continuous
 62
     0
100
AcDbCircle
 10
11211.37874607956
 20
-4352.980937778857
 30
0.0
 40
6.188368025608
100
AcDbArc
 50
235.7715041969414
 51
294.0206770810328
  0
ARC
  5
4D6
330
25
100
AcDbEntity
  8
1
  6
Continuous
 62
     0
100
AcDbCircle
 10
11190.56049176623
 20
-4352.980937778857
 30
0.0
 40
6.188368025615
100
AcDbArc
 50
245.979322918904
 51
304.2284958029974
  0
ARC
  5
4D5
330
25
100
AcDbEntity
  8
1
  6
Continuous
 62
     0
100
AcDbCircle
 10
11163.54331703392
 20
-4352.980937778857
 30
0.0
 40
6.188368025609
100
AcDbArc
 50
235.7715041969274
 51
294.0206770810294
  0
ARC
  5
4D4
330
25
100
AcDbEntity
  8
1
  6
Continuous
 62
     0
100
AcDbCircle
 10
11142.72506272059
 20
-4352.980937778857
 30
0.0
 40
6.188368025611
100
AcDbArc
 50
245.9793229189774
 51
304.2284958030818
  0
ARC
  5
4D3
330
25
100
AcDbEntity
  8
1
  6
Continuous
 62
     0
100
AcDbCircle
 10
11153.13418987725
 20
-4336.241079709465
 30
0.0
 40
22.928203230272
100
AcDbArc
 50
252.4120462260208
 51
287.5879537740036
  0
ARC
  5
4D2
330
25
100
AcDbEntity
  8
1
  6
Continuous
 62
     0
100
AcDbCircle
 10
11119.30943361812
 20
-4336.241079709465
 30
0.0
 40
22.928203230276
100
AcDbArc
 50
252.4120462259947
 51
287.5879537739808
  0
ARC
  5
4D1
330
25
100
AcDbEntity
  8
1
  6
Continuous
 62
     0
100
AcDbCircle
 10
11108.90030646145
 20
-4352.980937778857
 30
0.0
 40
6.188368025611
100
AcDbArc
 50
245.9793229189774
 51
304.2284958030818
  0
ARC
  5
4D0
330
25
100
AcDbEntity
  8
1
  6
Continuous
 62
     0
100
AcDbCircle
 10
11129.71856077478
 20
-4352.980937778857
 30
0.0
 40
6.188368025609
100
AcDbArc
 50
235.7715041969274
 51
294.0206770810294
  0
ARC
  5
4CF
330
25
100
AcDbEntity
  8
1
  6
Continuous
 62
     0
100
AcDbCircle
 10
14105.42688705659
 20
-1523.351336467443
 30
0.0
 40
1009.0
100
AcDbArc
 50
267.744999329787
 51
272.255000670214
  0
ARC
  5
4CE
330
25
100
AcDbEntity
  8
1
  6
Continuous
 62
     0
100
AcDbCircle
 10
14105.42688705659
 20
-2587.815663209183
 30
0.0
 40
13.000000000004
100
AcDbArc
 50
211.1089225105397
 51
328.8910774894568
  0
ARC
  5
4CD
330
25
100
AcDbEntity
  8
1
  6
Continuous
 62
     0
100
AcDbCircle
 10
14105.42688705659
 20
-2587.815663209183
 30
0.0
 40
12.999999999997
100
AcDbArc
 50
31.1089225105044
 51
148.8910774894973
  0
ARC
  5
4CC
330
25
100
AcDbEntity
  8
1
  6
Continuous
 62
     0
100
AcDbCircle
 10
14105.42688705659
 20
-2592.932118177643
 30
0.0
 40
23.883545031539
100
AcDbArc
 50
252.4120462260076
 51
256.0690995158483
  0
ARC
  5
4CB
330
25
100
AcDbEntity
  8
1
  6
Continuous
 62
     0
100
AcDbCircle
 10
14105.42688705659
 20
-2584.199208240722
 30
0.0
 40
23.883545031543
100
AcDbArc
 50
72.41204622598782
 51
76.0690995158507
  0
ARC
  5
4CA
330
25
100
AcDbEntity
  8
1
  6
Continuous
 62
     0
100
AcDbCircle
 10
14105.42688705659
 20
-2630.699208240723
 30
0.0
 40
23.88354503154
100
AcDbArc
 50
72.41204622598552
 51
76.06909951584912
  0
ARC
  5
4C9
330
25
100
AcDbEntity
  8
1
  6
Continuous
 62
     0
100
AcDbCircle
 10
14105.42688705659
 20
-2546.432118177645
 30
0.0
 40
23.88354503154
100
AcDbArc
 50
252.4120462260083
 51
256.0690995158491
  0
ARC
  5
4C8
330
25
100
AcDbEntity
  8
1
  6
Continuous
 62
     0
100
AcDbCircle
 10
14116.26972784479
 20
-2613.261856085105
 30
0.0
 40
6.446216693343
100
AcDbArc
 50
97.51291575573262
 51
124.2284958030434
  0
ARC
  5
4C7
330
25
100
AcDbEntity
  8
1
  6
Continuous
 62
     0
100
AcDbCircle
 10
14094.5840462684
 20
-2613.261856085106
 30
0.0
 40
6.446216693348
100
AcDbArc
 50
100.3412096385187
 51
114.020677081035
  0
ARC
  5
4C6
330
25
100
AcDbEntity
  8
1
  6
Continuous
 62
     0
100
AcDbCircle
 10
14105.42688705659
 20
-2630.699208240723
 30
0.0
 40
23.883545031539
100
AcDbArc
 50
103.9309004841516
 51
107.5879537739924
  0
ARC
  5
4C5
330
25
100
AcDbEntity
  8
1
  6
Continuous
 62
     0
100
AcDbCircle
 10
14116.26972784479
 20
-2563.869470333263
 30
0.0
 40
6.446216693345
100
AcDbArc
 50
280.3412096384413
 51
294.0206770810466
  0
ARC
  5
4C4
330
25
100
AcDbEntity
  8
1
  6
Continuous
 62
     0
100
AcDbCircle
 10
14094.5840462684
 20
-2563.869470333262
 30
0.0
 40
6.446216693346
100
AcDbArc
 50
277.5129157556477
 51
304.2284958030431
  0
ARC
  5
4C3
330
25
100
AcDbEntity
  8
1
  6
Continuous
 62
     0
100
AcDbCircle
 10
14105.42688705659
 20
-2546.432118177645
 30
0.0
 40
23.883545031539
100
AcDbArc
 50
283.9309004841517
 51
287.5879537740151
  0
ARC
  5
4C2
330
25
100
AcDbEntity
  8
1
  6
Continuous
 62
     0
100
AcDbCircle
 10
14094.5840462684
 20
-2566.761856085104
 30
0.0
 40
6.446216693343
100
AcDbArc
 50
55.77150419695658
 51
114.0206770810367
  0
ARC
  5
4C1
330
25
100
AcDbEntity
  8
1
  6
Continuous
 62
     0
100
AcDbCircle
 10
14105.42688705659
 20
-2584.199208240722
 30
0.0
 40
23.88354503154
100
AcDbArc
 50
103.9309004841509
 51
107.5879537739917
  0
ARC
  5
4C0
330
25
100
AcDbEntity
  8
1
  6
Continuous
 62
     0
100
AcDbCircle
 10
14116.26972784479
 20
-2566.761856085103
 30
0.0
 40
6.446216693345
100
AcDbArc
 50
65.97932291895343
 51
124.22849580305
  0
ARC
  5
4BF
330
25
100
AcDbEntity
  8
1
  6
Continuous
 62
     0
100
AcDbCircle
 10
14094.5840462684
 20
-2610.36947033326
 30
0.0
 40
6.446216693346
100
AcDbArc
 50
245.9793229189567
 51
304.2284958030431
  0
ARC
  5
4BE
330
25
100
AcDbEntity
  8
1
  6
Continuous
 62
     0
100
AcDbCircle
 10
14105.42688705659
 20
-2592.932118177643
 30
0.0
 40
23.88354503154
100
AcDbArc
 50
283.9309004841509
 51
287.5879537740146
  0
ARC
  5
4BD
330
25
100
AcDbEntity
  8
1
  6
Continuous
 62
     0
100
AcDbCircle
 10
14116.26972784479
 20
-2610.369470333261
 30
0.0
 40
6.446216693343
100
AcDbArc
 50
235.7715041969566
 51
294.0206770810368
  0
ARC
  5
4BC
330
25
100
AcDbEntity
  8
1
  6
Continuous
 62
     0
100
AcDbCircle
 10
14094.5840462684
 20
-2563.869470333262
 30
0.0
 40
6.446216693346
100
AcDbArc
 50
245.9793229189567
 51
259.6587903614784
  0
ARC
  5
4BB
330
25
100
AcDbEntity
  8
1
  6
Continuous
 62
     0
100
AcDbCircle
 10
14116.26972784479
 20
-2563.869470333263
 30
0.0
 40
6.446216693343
100
AcDbArc
 50
235.7715041969566
 51
262.4870842442675
  0
ARC
  5
4BA
330
25
100
AcDbEntity
  8
1
  6
Continuous
 62
     0
100
AcDbCircle
 10
14094.5840462684
 20
-2613.261856085106
 30
0.0
 40
6.446216693343
100
AcDbArc
 50
55.77150419695658
 51
82.48708424434913
  0
ARC
  5
4B9
330
25
100
AcDbEntity
  8
1
  6
Continuous
 62
     0
100
AcDbCircle
 10
14116.26972784479
 20
-2613.261856085105
 30
0.0
 40
6.446216693345
100
AcDbArc
 50
65.97932291895343
 51
79.65879036155869
  0
ARC
  5
4B8
330
25
100
AcDbEntity
  8
1
  6
Continuous
 62
     0
100
AcDbCircle
 10
14105.4268870566
 20
-2584.199208240761
 30
0.0
 40
23.883545031577
100
AcDbArc
 50
72.41204622603664
 51
107.5879537739817
  0
ARC
  5
4B7
330
25
100
AcDbEntity
  8
1
  6
Continuous
 62
     0
100
AcDbCircle
 10
14105.4268870566
 20
-2548.823728749395
 30
0.0
 40
21.615815918789
100
AcDbArc
 50
250.4961455205208
 51
289.5038544794586
  0
ARC
  5
4B6
330
25
100
AcDbEntity
  8
1
  6
Continuous
 62
     0
100
AcDbCircle
 10
14105.4268870566
 20
-2592.932118177626
 30
0.0
 40
23.883545031558
100
AcDbArc
 50
252.4120462259993
 51
287.5879537739779
  0
ARC
  5
4B5
330
25
100
AcDbEntity
  8
1
  6
Continuous
 62
     0
100
AcDbCircle
 10
14105.4268870566
 20
-2632.660769923468
 30
0.0
 40
25.760231957406
100
AcDbArc
 50
73.73049650736264
 51
106.2695034926585
  0
ARC
  5
4B4
330
25
100
AcDbEntity
  8
1
  6
Continuous
 62
     0
100
AcDbCircle
 10
14640.23854189571
 20
-2156.684680092731
 30
0.0
 40
6.188368025612
100
AcDbArc
 50
325.7715041969347
 51
24.02067708101571
  0
ARC
  5
4B3
330
25
100
AcDbEntity
  8
1
  6
Continuous
 62
     0
100
AcDbCircle
 10
14640.23854189571
 20
-2177.502934406063
 30
0.0
 40
6.188368025609
100
AcDbArc
 50
335.9793229189706
 51
34.2284958030539
  0
ARC
  5
4B2
330
25
100
AcDbEntity
  8
1
  6
Continuous
 62
     0
100
AcDbCircle
 10
14623.49868382631
 20
-2167.093807249397
 30
0.0
 40
22.928203230284
100
AcDbArc
 50
342.4120462260132
 51
17.58795377398678
  0
ARC
  5
4B1
330
25
100
AcDbEntity
  8
1
  6
Continuous
 62
     0
100
AcDbCircle
 10
14623.49868382631
 20
-2133.269050990259
 30
0.0
 40
22.928203230284
100
AcDbArc
 50
342.4120462260088
 51
17.58795377398461
  0
ARC
  5
4B0
330
25
100
AcDbEntity
  8
1
  6
Continuous
 62
     0
100
AcDbCircle
 10
14640.23854189571
 20
-2143.678178146924
 30
0.0
 40
6.18836802561
100
AcDbArc
 50
335.9793229189552
 51
34.22849580304443
  0
ARC
  5
4AF
330
25
100
AcDbEntity
  8
1
  6
Continuous
 62
     0
100
AcDbCircle
 10
14640.23854189571
 20
-2122.859923833595
 30
0.0
 40
6.188368025611
100
AcDbArc
 50
325.7715041969486
 51
24.02067708103794
  0
ARC
  5
4AE
330
25
100
AcDbEntity
  8
1
  6
Continuous
 62
     0
100
AcDbCircle
 10
14640.23854189571
 20
-2095.842749101289
 30
0.0
 40
6.188368025609
100
AcDbArc
 50
335.9793229189706
 51
34.2284958030539
  0
ARC
  5
4AD
330
25
100
AcDbEntity
  8
1
  6
Continuous
 62
     0
100
AcDbCircle
 10
14640.23854189571
 20
-2075.024494787958
 30
0.0
 40
6.188368025611
100
AcDbArc
 50
325.7715041969486
 51
24.02067708103025
  0
ARC
  5
4AC
330
25
100
AcDbEntity
  8
1
  6
Continuous
 62
     0
100
AcDbCircle
 10
14623.49868382631
 20
-2085.433621944623
 30
0.0
 40
22.928203230284
100
AcDbArc
 50
342.4120462260132
 51
17.58795377398678
  0
ARC
  5
4AB
330
25
100
AcDbEntity
  8
1
  6
Continuous
 62
     0
100
AcDbCircle
 10
14623.49868382631
 20
-2051.608865685486
 30
0.0
 40
22.928203230284
100
AcDbArc
 50
342.4120462260132
 51
17.58795377398678
  0
ARC
  5
4AA
330
25
100
AcDbEntity
  8
1
  6
Continuous
 62
     0
100
AcDbCircle
 10
14640.23854189571
 20
-2041.19973852882
 30
0.0
 40
6.188368025612
100
AcDbArc
 50
325.7715041969347
 51
24.02067708101378
  0
ARC
  5
4A9
330
25
100
AcDbEntity
  8
1
  6
Continuous
 62
     0
100
AcDbCircle
 10
14640.23854189571
 20
-2062.017992842152
 30
0.0
 40
6.188368025609
100
AcDbArc
 50
335.9793229189706
 51
34.2284958030539
  0
ARC
  5
4A8
330
25
100
AcDbEntity
  8
1
  6
Continuous
 62
     0
100
AcDbCircle
 10
15066.54933231208
 20
-2109.351336467442
 30
0.0
 40
458.97244525549
100
AcDbArc
 50
170.0886860209871
 51
189.9113139790129
  0
ARC
  5
4A7
330
25
100
AcDbEntity
  8
1
  6
Continuous
 62
     0
100
AcDbCircle
 10
14105.42688705659
 20
-842.351336467443
 30
0.0
 40
1008.999999999997
100
AcDbArc
 50
63.61220003875699
 51
89.545717503817
  0
ARC
  5
4A6
330
25
100
AcDbEntity
  8
1
  6
Continuous
 62
     0
100
AcDbCircle
 10
14120.55851094904
 20
154.546072756069
 30
0.0
 40
0.867981349412
100
AcDbArc
 50
326.4452585860275
 51
34.28210515505098
  0
ARC
  5
4A5
330
25
100
AcDbEntity
  8
1
  6
Continuous
 62
     0
100
AcDbCircle
 10
14119.49996779399
 20
153.887089664142
 30
0.0
 40
2.114445598486
100
AcDbArc
 50
32.87987650663409
 51
58.14043270291448
  0
ARC
  5
4A4
330
25
100
AcDbEntity
  8
1
  6
Continuous
 62
     0
100
AcDbCircle
 10
14116.12420396455
 20
148.416042821891
 30
0.0
 40
8.543133604495
100
AcDbArc
 50
58.2789007445482
 51
72.22922379446668
  0
ARC
  5
4A3
330
25
100
AcDbEntity
  8
1
  6
Continuous
 62
     0
100
AcDbCircle
 10
14109.8985186396
 20
127.842583458902
 30
0.0
 40
30.037119456797
100
AcDbArc
 50
72.89798909853056
 51
83.25406525200847
  0
ARC
  5
4A2
330
25
100
AcDbEntity
  8
1
  6
Continuous
 62
     0
100
AcDbCircle
 10
14109.8985186396
 20
181.248212624229
 30
0.0
 40
30.037119456797
100
AcDbArc
 50
276.7459347479916
 51
287.1020109014694
  0
ARC
  5
4A1
330
25
100
AcDbEntity
  8
1
  6
Continuous
 62
     0
100
AcDbCircle
 10
14116.12420396455
 20
160.67475326124
 30
0.0
 40
8.543133604494
100
AcDbArc
 50
287.7707762055354
 51
301.7210992554558
  0
ARC
  5
4A0
330
25
100
AcDbEntity
  8
1
  6
Continuous
 62
     0
100
AcDbCircle
 10
14119.49996779399
 20
155.20370641899
 30
0.0
 40
2.114445598482
100
AcDbArc
 50
301.859567297094
 51
327.1201234933577
  0
ARC
  5
49F
330
25
100
AcDbEntity
  8
1
  6
Continuous
 62
     0
100
AcDbCircle
 10
14120.55851094904
 20
154.544723327063
 30
0.0
 40
0.867981349411
100
AcDbArc
 50
325.7178948449986
 51
33.5547414138974
  0
ARC
  5
49E
330
25
100
AcDbEntity
  8
1
  6
Continuous
 62
     0
100
AcDbCircle
 10
14090.29526316414
 20
154.544723327063
 30
0.0
 40
0.867981349402
100
AcDbArc
 50
146.4452585856997
 51
214.2821051549913
  0
ARC
  5
49D
330
25
100
AcDbEntity
  8
1
  6
Continuous
 62
     0
100
AcDbCircle
 10
14091.35380631919
 20
155.20370641899
 30
0.0
 40
2.114445598486
100
AcDbArc
 50
212.879876506636
 51
238.1404327029145
  0
ARC
  5
49C
330
25
100
AcDbEntity
  8
1
  6
Continuous
 62
     0
100
AcDbCircle
 10
14094.72957014863
 20
160.67475326124
 30
0.0
 40
8.543133604493
100
AcDbArc
 50
238.2789007445544
 51
252.2292237944753
  0
ARC
  5
49B
330
25
100
AcDbEntity
  8
1
  6
Continuous
 62
     0
100
AcDbCircle
 10
14100.95525547358
 20
181.248212624229
 30
0.0
 40
30.037119456797
100
AcDbArc
 50
252.8979890985306
 51
263.2540652520084
  0
ARC
  5
49A
330
25
100
AcDbEntity
  8
1
  6
Continuous
 62
     0
100
AcDbCircle
 10
14100.95525547358
 20
127.842583458902
 30
0.0
 40
30.037119456797
100
AcDbArc
 50
96.74593474799156
 51
107.1020109014695
  0
ARC
  5
499
330
25
100
AcDbEntity
  8
1
  6
Continuous
 62
     0
100
AcDbCircle
 10
14094.72957014863
 20
148.416042821891
 30
0.0
 40
8.543133604493
100
AcDbArc
 50
107.7707762055247
 51
121.7210992554453
  0
ARC
  5
498
330
25
100
AcDbEntity
  8
1
  6
Continuous
 62
     0
100
AcDbCircle
 10
14091.35380631919
 20
153.887089664142
 30
0.0
 40
2.114445598482
100
AcDbArc
 50
121.8595672970941
 51
147.1201234933583
  0
ARC
  5
497
330
25
100
AcDbEntity
  8
1
  6
Continuous
 62
     0
100
AcDbCircle
 10
14090.29526316414
 20
154.546072756069
 30
0.0
 40
0.867981349411
100
AcDbArc
 50
145.7178948450002
 51
213.5547414143381
  0
ARC
  5
496
330
25
100
AcDbEntity
  8
1
  6
Continuous
 62
     0
100
AcDbCircle
 10
14121.6697179212
 20
142.850214466572
 30
0.0
 40
1.262772106962
100
AcDbArc
 50
314.7775790917526
 51
354.6006054710455
  0
ARC
  5
495
330
25
100
AcDbEntity
  8
1
  6
Continuous
 62
     0
100
AcDbCircle
 10
14118.40674141672
 20
146.958575094876
 30
0.0
 40
6.503072230994
100
AcDbArc
 50
287.4485239878746
 51
309.6824243073115
  0
ARC
  5
494
330
25
100
AcDbEntity
  8
1
  6
Continuous
 62
     0
100
AcDbCircle
 10
14106.9475523207
 20
188.851352365519
 30
0.0
 40
49.93084959659
100
AcDbArc
 50
268.2556266704823
 51
285.5782375573614
  0
ARC
  5
493
330
25
100
AcDbEntity
  8
1
  6
Continuous
 62
     0
100
AcDbCircle
 10
14103.90622179248
 20
188.851352365519
 30
0.0
 40
49.930849596589
100
AcDbArc
 50
254.4217624426383
 51
271.7443733295177
  0
ARC
  5
492
330
25
100
AcDbEntity
  8
1
  6
Continuous
 62
     0
100
AcDbCircle
 10
14092.44703269646
 20
146.958575094876
 30
0.0
 40
6.503072230999
100
AcDbArc
 50
230.3175756926842
 51
252.5514760121225
  0
ARC
  5
491
330
25
100
AcDbEntity
  8
1
  6
Continuous
 62
     0
100
AcDbCircle
 10
14089.18405619198
 20
142.850214466572
 30
0.0
 40
1.262772106959
100
AcDbArc
 50
185.3993945289442
 51
225.2224209082342
  0
ARC
  5
490
330
25
100
AcDbEntity
  8
1
  6
Continuous
 62
     0
100
AcDbCircle
 10
14105.42688705659
 20
204.048351222086
 30
0.0
 40
8.0
100
AcDbArc
 50
0.0
 51
180.0
  0
ARC
  5
48F
330
25
100
AcDbEntity
  8
1
  6
Continuous
 62
     0
100
AcDbCircle
 10
14105.42688705659
 20
-2623.351336467443
 30
0.0
 40
100.0
100
AcDbArc
 50
0.0
 51
180.0
  0
ARC
  5
48C
330
25
100
AcDbEntity
  8
1
  6
Continuous
 62
     0
100
AcDbCircle
 10
10951.08894744869
 20
176.901694965768
 30
0.0
 40
35.999999999999
100
AcDbArc
 50
315.7173872833726
 51
249.2826127166407
  0
ARC
  5
48B
330
25
100
AcDbEntity
  8
1
  6
Continuous
 62
     0
100
AcDbCircle
 10
11403.01486135145
 20
176.901694965768
 30
0.0
 40
36.000000000001
100
AcDbArc
 50
290.7173872833735
 51
224.2826127166267
  0
ARC
  5
48A
330
25
100
AcDbEntity
  8
1
  6
Continuous
 62
     0
100
AcDbCircle
 10
10557.61645141109
 20
-1143.59980647594
 30
0.0
 40
13.711205269314
100
AcDbArc
 50
30.13902348559342
 51
59.86097651441295
  0
ARC
  5
489
330
25
100
AcDbEntity
  8
1
  6
Continuous
 62
     0
100
AcDbCircle
 10
10564.17439079604
 20
-1132.304505211663
 30
0.0
 40
0.650179290189
100
AcDbArc
 50
59.86097651471089
 51
153.4176955808967
  0
ARC
  5
488
330
25
100
AcDbEntity
  8
1
  6
Continuous
 62
     0
100
AcDbCircle
 10
10525.23003634134
 20
-1112.81766683512
 30
0.0
 40
42.89749129971
100
AcDbArc
 50
316.7330883773004
 51
333.4176955808176
  0
ARC
  5
487
330
25
100
AcDbEntity
  8
1
  6
Continuous
 62
     0
100
AcDbCircle
 10
10568.91175267537
 20
-1137.041867090993
 30
0.0
 40
0.650179290188
100
AcDbArc
 50
296.5823044187807
 51
30.13902348591346
  0
ARC
  5
486
330
25
100
AcDbEntity
  8
1
  6
Continuous
 62
     0
100
AcDbCircle
 10
10588.39859105191
 20
-1175.986221545691
 30
0.0
 40
42.897491299712
100
AcDbArc
 50
116.5823044191848
 51
133.266911622695
  0
ARC
  5
485
330
25
100
AcDbEntity
  8
1
  6
Continuous
 62
     0
100
AcDbCircle
 10
10555.51251964536
 20
-1145.701625829013
 30
0.0
 40
32.087775151113
100
AcDbArc
 50
179.9269078913219
 51
224.5555346917875
  0
ARC
  5
484
330
25
100
AcDbEntity
  8
1
  6
Continuous
 62
     0
100
AcDbCircle
 10
10555.51364827801
 20
-1145.371475518603
 30
0.0
 40
39.342857142856
100
AcDbArc
 50
254.973886240879
 51
285.0261137591073
  0
ARC
  5
483
330
25
100
AcDbEntity
  8
1
  6
Continuous
 62
     0
100
AcDbCircle
 10
10555.46920383356
 20
-1145.668522276188
 30
0.0
 40
39.044459324232
100
AcDbArc
 50
214.0413943255924
 51
254.9238647887205
  0
ARC
  5
482
330
25
100
AcDbEntity
  8
1
  6
Continuous
 62
     0
100
AcDbCircle
 10
10555.55809272245
 20
-1145.76055807485
 30
0.0
 40
38.955598656252
100
AcDbArc
 50
334.0155658970785
 51
0.0852304639130457
  0
ARC
  5
481
330
25
100
AcDbEntity
  8
1
  6
Continuous
 62
     0
100
AcDbCircle
 10
10555.51364827801
 20
-1145.702609609026
 30
0.0
 40
3.611111111109
100
AcDbArc
 50
0.0
 51
15.30203171439582
  0
ARC
  5
480
330
25
100
AcDbEntity
  8
1
  6
Continuous
 62
     0
100
AcDbCircle
 10
10555.51364827801
 20
-1145.702609609026
 30
0.0
 40
3.611111111114
100
AcDbArc
 50
248.5781784780527
 51
0.0
  0
ARC
  5
47F
330
25
100
AcDbEntity
  8
1
  6
Continuous
 62
     0
100
AcDbCircle
 10
10555.51364827801
 20
-1145.702609609026
 30
0.0
 40
3.61111111111
100
AcDbArc
 50
74.69796828575069
 51
201.4218215217593
  0
ARC
  5
47E
330
25
100
AcDbEntity
  8
1
  6
Continuous
 62
     0
100
AcDbCircle
 10
10555.51251964536
 20
-1145.701625829013
 30
0.0
 40
32.087775151116
100
AcDbArc
 50
314.999168816242
 51
179.9269078913219
  0
ARC
  5
47D
330
25
100
AcDbEntity
  8
1
  6
Continuous
 62
     0
100
AcDbCircle
 10
10555.51633856653
 20
-1145.706117316112
 30
0.0
 40
28.591593842013
100
AcDbArc
 50
315.0000000000041
 51
180.0
  0
ARC
  5
47C
330
25
100
AcDbEntity
  8
1
  6
Continuous
 62
     0
100
AcDbCircle
 10
10555.51633856653
 20
-1145.706117316112
 30
0.0
 40
28.591593842009
100
AcDbArc
 50
180.0
 51
224.4894078670362
  0
ARC
  5
47B
330
25
100
AcDbEntity
  8
1
  6
Continuous
 62
     0
100
AcDbCircle
 10
10555.46920383356
 20
-1145.668522276188
 30
0.0
 40
39.044459324238
100
AcDbArc
 50
359.9499785478301
 51
85.9693421507979
  0
ARC
  5
47A
330
25
100
AcDbEntity
  8
1
  6
Continuous
 62
     0
100
AcDbCircle
 10
10555.46920383356
 20
-1145.668522276188
 30
0.0
 40
39.04445932423
100
AcDbArc
 50
85.96934215079706
 51
93.89990484410232
  0
ARC
  5
479
330
25
100
AcDbEntity
  8
1
  6
Continuous
 62
     0
100
AcDbCircle
 10
10555.51364827801
 20
-1107.861562951957
 30
0.0
 40
3.637499999992
100
AcDbArc
 50
42.07502205094583
 51
137.9249779492725
  0
ARC
  5
478
330
25
100
AcDbEntity
  8
1
  6
Continuous
 62
     0
100
AcDbCircle
 10
10522.74234056719
 20
-1164.62313293756
 30
0.0
 40
3.637499999997
100
AcDbArc
 50
162.075022050843
 51
257.924977949208
  0
ARC
  5
477
330
25
100
AcDbEntity
  8
1
  6
Continuous
 62
     0
100
AcDbCircle
 10
10588.24108439769
 20
-1164.59780366261
 30
0.0
 40
3.637499999999
100
AcDbArc
 50
282.0750220507556
 51
17.92497794917882
  0
ARC
  5
476
330
25
100
AcDbEntity
  8
1
  6
Continuous
 62
     0
100
AcDbCircle
 10
10555.55809272245
 20
-1145.76055807485
 30
0.0
 40
38.955598656246
100
AcDbArc
 50
285.1113442230268
 51
326.0668870753458
  0
ARC
  5
475
330
25
100
AcDbEntity
  8
1
  6
Continuous
 62
     0
100
AcDbCircle
 10
10555.55809272245
 20
-1145.76055807485
 30
0.0
 40
38.955598656249
100
AcDbArc
 50
326.0668870753447
 51
334.0155658970797
  0
ARC
  5
474
330
25
100
AcDbEntity
  8
1
  6
Continuous
 62
     0
100
AcDbCircle
 10
10555.46920383356
 20
-1145.668522276188
 30
0.0
 40
39.044459324229
100
AcDbArc
 50
206.1108297946179
 51
214.041394325594
  0
ARC
  5
473
330
25
100
AcDbEntity
  8
1
  6
Continuous
 62
     0
100
AcDbCircle
 10
10555.46920383356
 20
-1145.668522276188
 30
0.0
 40
39.044459324231
100
AcDbArc
 50
93.89990484410225
 51
206.110829794618
  0
ARC
  5
472
330
25
100
AcDbEntity
  8
1
  6
Continuous
 62
     0
100
AcDbCircle
 10
10649.5745529629
 20
-1232.351336467443
 30
0.0
 40
20.062177826479
100
AcDbArc
 50
162.4120462259963
 51
163.9040367899427
  0
ARC
  5
471
330
25
100
AcDbEntity
  8
1
  6
Continuous
 62
     0
100
AcDbCircle
 10
10581.78801948345
 20
-1232.351336467443
 30
0.0
 40
20.062177826479
100
AcDbArc
 50
342.4120462259981
 51
343.904036789944
  0
ARC
  5
470
330
25
100
AcDbEntity
  8
1
  6
Continuous
 62
     0
100
AcDbCircle
 10
10621.71525319687
 20
-1228.362506900513
 30
0.0
 40
6.80671071391
100
AcDbArc
 50
3.041596008610572
 51
41.51019968794234
  0
ARC
  5
46F
330
25
100
AcDbEntity
  8
1
  6
Continuous
 62
     0
100
AcDbCircle
 10
10596.43539529416
 20
-1241.459322729522
 30
0.0
 40
5.414822022411
100
AcDbArc
 50
335.979322918954
 51
34.22849580307228
  0
ARC
  5
46E
330
25
100
AcDbEntity
  8
1
  6
Continuous
 62
     0
100
AcDbCircle
 10
10596.43539529416
 20
-1223.243350205364
 30
0.0
 40
5.414822022403
100
AcDbArc
 50
325.771504196945
 51
24.02067708105096
  0
ARC
  5
46D
330
25
100
AcDbEntity
  8
1
  6
Continuous
 62
     0
100
AcDbCircle
 10
10581.78801948345
 20
-1232.351336467443
 30
0.0
 40
20.062177826481
100
AcDbArc
 50
16.09596321005838
 51
17.58795377400402
  0
ARC
  5
46C
330
25
100
AcDbEntity
  8
1
  6
Continuous
 62
     0
100
AcDbCircle
 10
10634.92717715219
 20
-1223.243350205364
 30
0.0
 40
5.414822022403
100
AcDbArc
 50
155.979322918906
 51
214.228495803055
  0
ARC
  5
46B
330
25
100
AcDbEntity
  8
1
  6
Continuous
 62
     0
100
AcDbCircle
 10
10634.92717715219
 20
-1241.459322729522
 30
0.0
 40
5.414822022404
100
AcDbArc
 50
145.7715041969331
 51
204.0206770810795
  0
ARC
  5
46A
330
25
100
AcDbEntity
  8
1
  6
Continuous
 62
     0
100
AcDbCircle
 10
10649.5745529629
 20
-1232.351336467443
 30
0.0
 40
20.062177826482
100
AcDbArc
 50
196.095963210055
 51
197.5879537740006
  0
ARC
  5
469
330
25
100
AcDbEntity
  8
1
  6
Continuous
 62
     0
100
AcDbCircle
 10
10615.81237513642
 20
-1232.351336467443
 30
0.0
 40
9.999999999996
100
AcDbArc
 50
34.42900395073357
 51
145.5709960492664
  0
ARC
  5
468
330
25
100
AcDbEntity
  8
1
  6
Continuous
 62
     0
100
AcDbCircle
 10
10615.81237513642
 20
-1232.351336467443
 30
0.0
 40
9.999999999995
100
AcDbArc
 50
214.4290039507271
 51
325.5709960492729
  0
ARC
  5
467
330
25
100
AcDbEntity
  8
1
  6
Continuous
 62
     0
100
AcDbCircle
 10
10632.39757312065
 20
-1223.243350205364
 30
0.0
 40
5.414822022403
100
AcDbArc
 50
325.771504196945
 51
24.02067708105096
  0
ARC
  5
466
330
25
100
AcDbEntity
  8
1
  6
Continuous
 62
     0
100
AcDbCircle
 10
10617.75019730994
 20
-1232.351336467443
 30
0.0
 40
20.062177826479
100
AcDbArc
 50
342.4120462259981
 51
17.58795377400373
  0
ARC
  5
465
330
25
100
AcDbEntity
  8
1
  6
Continuous
 62
     0
100
AcDbCircle
 10
10632.39757312065
 20
-1241.459322729522
 30
0.0
 40
5.414822022411
100
AcDbArc
 50
335.979322918954
 51
34.22849580307228
  0
ARC
  5
464
330
25
100
AcDbEntity
  8
1
  6
Continuous
 62
     0
100
AcDbCircle
 10
10599.22717715219
 20
-1223.243350205364
 30
0.0
 40
5.414822022402
100
AcDbArc
 50
155.9793229188938
 51
214.2284958030659
  0
ARC
  5
463
330
25
100
AcDbEntity
  8
1
  6
Continuous
 62
     0
100
AcDbCircle
 10
10613.8745529629
 20
-1232.351336467443
 30
0.0
 40
20.062177826479
100
AcDbArc
 50
162.4120462259963
 51
197.5879537740019
  0
ARC
  5
462
330
25
100
AcDbEntity
  8
1
  6
Continuous
 62
     0
100
AcDbCircle
 10
10599.22717715219
 20
-1241.459322729522
 30
0.0
 40
5.414822022404
100
AcDbArc
 50
145.7715041969331
 51
204.0206770810983
  0
ARC
  5
461
330
25
100
AcDbEntity
  8
1
  6
Continuous
 62
     0
100
AcDbCircle
 10
11794.69016793222
 20
-832.351336467443
 30
0.0
 40
117.4179492381
100
AcDbArc
 50
157.7026180772289
 51
202.2973819227711
  0
ARC
  5
460
330
25
100
AcDbEntity
  8
1
  6
Continuous
 62
     0
100
AcDbCircle
 10
10559.41364086793
 20
-1982.351336467443
 30
0.0
 40
117.417949238091
100
AcDbArc
 50
337.7026180772278
 51
22.29738192277216
  0
ARC
  5
45F
330
25
100
AcDbEntity
  8
1
  6
Continuous
 62
     0
100
AcDbCircle
 10
11170.80190440007
 20
-2624.166885445479
 30
0.0
 40
18.052215644708
100
AcDbArc
 50
98.76231806800313
 51
110.2561580004196
  0
ARC
  5
45E
330
25
100
AcDbEntity
  8
1
  6
Continuous
 62
     0
100
AcDbCircle
 10
11183.30190440007
 20
-2552.395787489406
 30
0.0
 40
18.052215644708
100
AcDbArc
 50
278.7623180680031
 51
290.2561580004195
  0
ARC
  5
45D
330
25
100
AcDbEntity
  8
1
  6
Continuous
 62
     0
100
AcDbCircle
 10
11183.30190440007
 20
-2624.166885445479
 30
0.0
 40
18.052215644708
100
AcDbArc
 50
98.76231806800313
 51
110.2561580004196
  0
ARC
  5
45C
330
25
100
AcDbEntity
  8
1
  6
Continuous
 62
     0
100
AcDbCircle
 10
11170.80190440007
 20
-2552.395787489406
 30
0.0
 40
18.052215644708
100
AcDbArc
 50
278.7623180680031
 51
290.2561580004195
  0
ARC
  5
45B
330
25
100
AcDbEntity
  8
1
  6
Continuous
 62
     0
100
AcDbCircle
 10
11170.80190440007
 20
-2624.166885445479
 30
0.0
 40
18.052215644709
100
AcDbArc
 50
69.74384199958187
 51
81.23768193199732
  0
ARC
  5
45A
330
25
100
AcDbEntity
  8
1
  6
Continuous
 62
     0
100
AcDbCircle
 10
11183.30190440007
 20
-2624.166885445479
 30
0.0
 40
18.052215644708
100
AcDbArc
 50
69.74384199958037
 51
81.23768193199686
  0
ARC
  5
459
330
25
100
AcDbEntity
  8
1
  6
Continuous
 62
     0
100
AcDbCircle
 10
11170.80190440007
 20
-2552.395787489406
 30
0.0
 40
18.052215644707
100
AcDbArc
 50
249.7438419995794
 51
261.2376819319964
  0
ARC
  5
458
330
25
100
AcDbEntity
  8
1
  6
Continuous
 62
     0
100
AcDbCircle
 10
11183.30190440007
 20
-2552.395787489406
 30
0.0
 40
18.052215644708
100
AcDbArc
 50
249.7438419995804
 51
261.2376819319969
  0
ARC
  5
457
330
25
100
AcDbEntity
  8
1
  6
Continuous
 62
     0
100
AcDbCircle
 10
11183.30190440007
 20
-2578.083552112148
 30
0.0
 40
18.052215644707
100
AcDbArc
 50
69.74384199957936
 51
110.2561580004206
  0
ARC
  5
456
330
25
100
AcDbEntity
  8
1
  6
Continuous
 62
     0
100
AcDbCircle
 10
11170.80190440007
 20
-2578.083552112148
 30
0.0
 40
18.052215644708
100
AcDbArc
 50
69.74384199958037
 51
110.2561580004196
  0
ARC
  5
455
330
25
100
AcDbEntity
  8
1
  6
Continuous
 62
     0
100
AcDbCircle
 10
11183.30190440007
 20
-2598.479120822735
 30
0.0
 40
18.052215644707
100
AcDbArc
 50
249.7438419995794
 51
290.2561580004206
  0
ARC
  5
454
330
25
100
AcDbEntity
  8
1
  6
Continuous
 62
     0
100
AcDbCircle
 10
11170.80190440007
 20
-2598.479120822735
 30
0.0
 40
18.052215644707
100
AcDbArc
 50
249.7438419995794
 51
290.2561580004206
  0
ARC
  5
453
330
25
100
AcDbEntity
  8
1
  6
Continuous
 62
     0
100
AcDbCircle
 10
11219.83315440007
 20
-2587.531336467442
 30
0.0
 40
15.781249999999
100
AcDbArc
 50
141.9080428947563
 51
218.0919571052344
  0
ARC
  5
452
330
25
100
AcDbEntity
  8
1
  6
Continuous
 62
     0
100
AcDbCircle
 10
11201.20190440007
 20
-2587.281336467441
 30
0.0
 40
14.252192813739
100
AcDbArc
 50
158.3852210572138
 51
201.6147789427863
  0
ARC
  5
451
330
25
100
AcDbEntity
  8
1
  6
Continuous
 62
     0
100
AcDbCircle
 10
11177.05190440007
 20
-1523.351336467443
 30
0.0
 40
1009.0
100
AcDbArc
 50
243.6582502299
 51
248.182271897196
  0
ARC
  5
44E
330
25
100
AcDbEntity
  8
1
  6
Continuous
 62
     0
100
AcDbCircle
 10
11177.05190440007
 20
-1523.351336467443
 30
0.0
 40
1009.0
100
AcDbArc
 50
267.744999329787
 51
272.255000670214
  0
ARC
  5
44D
330
25
100
AcDbEntity
  8
1
  6
Continuous
 62
     0
100
AcDbCircle
 10
11177.05190440007
 20
-2623.351336467443
 30
0.0
 40
100.0
100
AcDbArc
 50
0.0
 51
180.0
  0
ARC
  5
44C
330
25
100
AcDbEntity
  8
1
  6
Continuous
 62
     0
100
AcDbCircle
 10
10777.05190440007
 20
-2329.577111297298
 30
0.0
 40
109.0
100
AcDbArc
 50
180.0
 51
243.6122000387587
  0
ARC
  5
44B
330
25
100
AcDbEntity
  8
1
  6
Continuous
 62
     0
100
AcDbCircle
 10
11577.05190440007
 20
-2329.577111297298
 30
0.0
 40
109.000000000002
100
AcDbArc
 50
296.387799961245
 51
0.0
  0
ARC
  5
44A
330
25
100
AcDbEntity
  8
1
  6
Continuous
 62
     0
100
AcDbCircle
 10
11177.05190440007
 20
-1523.351336467443
 30
0.0
 40
1008.999999999999
100
AcDbArc
 50
291.817728102804
 51
296.387799961243
  0
ARC
  5
449
330
25
100
AcDbEntity
  8
1
  6
Continuous
 62
     0
100
AcDbCircle
 10
13705.42688705659
 20
-2329.577111297298
 30
0.0
 40
109.0
100
AcDbArc
 50
180.0
 51
243.6122000387587
  0
ARC
  5
448
330
25
100
AcDbEntity
  8
1
  6
Continuous
 62
     0
100
AcDbCircle
 10
14105.42688705659
 20
-1523.351336467443
 30
0.0
 40
1009.0
100
AcDbArc
 50
243.6582502299
 51
248.182271897196
  0
ARC
  5
447
330
25
100
AcDbEntity
  8
1
  6
Continuous
 62
     0
100
AcDbCircle
 10
14105.42688705659
 20
-1523.351336467443
 30
0.0
 40
1008.999999999999
100
AcDbArc
 50
291.817728102804
 51
296.387799961243
  0
ARC
  5
446
330
25
100
AcDbEntity
  8
1
  6
Continuous
 62
     0
100
AcDbCircle
 10
14505.42688705659
 20
-2329.577111297298
 30
0.0
 40
108.999999999998
100
AcDbArc
 50
296.3877999612408
 51
0.0
  0
ARC
  5
445
330
25
100
AcDbEntity
  8
1
  6
Continuous
 62
     0
100
AcDbCircle
 10
11177.05190440007
 20
-842.351336467443
 30
0.0
 40
1009.000000000001
100
AcDbArc
 50
63.61220003875697
 51
68.18227189719605
  0
ARC
  5
444
330
25
100
AcDbEntity
  8
1
  6
Continuous
 62
     0
100
AcDbCircle
 10
11577.05190440007
 20
-36.125561637589
 30
0.0
 40
109.0
100
AcDbArc
 50
0.0
 51
63.61220003875545
  0
ARC
  5
443
330
25
100
AcDbEntity
  8
1
  6
Continuous
 62
     0
100
AcDbCircle
 10
10777.05190440007
 20
-36.125561637589
 30
0.0
 40
108.999999999998
100
AcDbArc
 50
116.3877999612397
 51
180.0
  0
ARC
  5
442
330
25
100
AcDbEntity
  8
1
  6
Continuous
 62
     0
100
AcDbCircle
 10
11177.05190440007
 20
-842.351336467443
 30
0.0
 40
1008.999999999999
100
AcDbArc
 50
111.817728102804
 51
116.3417497701
  0
ARC
  5
441
330
25
100
AcDbEntity
  8
1
  6
Continuous
 62
     0
100
AcDbCircle
 10
10777.05190440007
 20
-36.125561637589
 30
0.0
 40
108.999999999998
100
AcDbArc
 50
116.3877999612397
 51
180.0
  0
ARC
  5
440
330
25
100
AcDbEntity
  8
1
  6
Continuous
 62
     0
100
AcDbCircle
 10
11177.05190440007
 20
-842.351336467443
 30
0.0
 40
1009.000000000001
100
AcDbArc
 50
63.86338685812507
 51
116.3417497701
  0
ARC
  5
43F
330
25
100
AcDbEntity
  8
1
  6
Continuous
 62
     0
100
AcDbCircle
 10
13705.42688705659
 20
-36.125561637589
 30
0.0
 40
108.999999999998
100
AcDbArc
 50
116.3877999612397
 51
180.0
  0
ARC
  5
43E
330
25
100
AcDbEntity
  8
1
  6
Continuous
 62
     0
100
AcDbCircle
 10
14105.42688705659
 20
-842.351336467443
 30
0.0
 40
1008.999999999999
100
AcDbArc
 50
111.817728102804
 51
116.3417497701
  0
ARC
  5
43D
330
25
100
AcDbEntity
  8
1
  6
Continuous
 62
     0
100
AcDbCircle
 10
13705.42688705659
 20
-36.125561637589
 30
0.0
 40
108.999999999998
100
AcDbArc
 50
116.3877999612397
 51
180.0
  0
ARC
  5
43C
330
25
100
AcDbEntity
  8
1
  6
Continuous
 62
     0
100
AcDbCircle
 10
14505.42688705659
 20
-36.125561637589
 30
0.0
 40
109.0
100
AcDbArc
 50
0.0
 51
63.61220003875869
  0
ARC
  5
43B
330
25
100
AcDbEntity
  8
1
  6
Continuous
 62
     0
100
AcDbCircle
 10
14105.42688705659
 20
-842.351336467443
 30
0.0
 40
1008.999999999997
100
AcDbArc
 50
63.61220003875699
 51
68.18227189719595
  0
ARC
  5
43A
330
25
100
AcDbEntity
  8
1
  6
Continuous
 62
     0
100
AcDbCircle
 10
14105.42688705659
 20
-842.351336467443
 30
0.0
 40
1009.000000000001
100
AcDbArc
 50
90.454282496182
 51
116.002748352268
  0
ARC
  5
439
330
25
100
AcDbEntity
  8
1
  6
Continuous
 62
     0
100
AcDbCircle
 10
11854.34193270937
 20
-2615.321854075181
 30
0.0
 40
315.971260282123
100
AcDbArc
 50
163.077829185707
 51
181.456160860873
  0
ARC
  5
438
330
25
100
AcDbEntity
  8
1
  6
Continuous
 62
     0
100
AcDbCircle
 10
10499.76187609077
 20
-2615.321854075181
 30
0.0
 40
315.971260282126
100
AcDbArc
 50
358.5438391391269
 51
16.92217081429293
  0
ARC
  5
437
330
25
100
AcDbEntity
  8
1
  6
Continuous
 62
     0
100
AcDbCircle
 10
13428.13685874729
 20
-2615.321854075181
 30
0.0
 40
315.971260282126
100
AcDbArc
 50
358.5438391391269
 51
16.92217081429293
  0
ARC
  5
436
330
25
100
AcDbEntity
  8
1
  6
Continuous
 62
     0
100
AcDbCircle
 10
13428.13685874729
 20
-2615.321854075181
 30
0.0
 40
315.971260282126
100
AcDbArc
 50
358.5438391391269
 51
16.92217081429293
  0
ARC
  5
435
330
25
100
AcDbEntity
  8
1
  6
Continuous
 62
     0
100
AcDbCircle
 10
14782.71691536589
 20
-2615.321854075181
 30
0.0
 40
315.971260282123
100
AcDbArc
 50
163.077829185707
 51
181.456160860873
  0
ARC
  5
434
330
25
100
AcDbEntity
  8
1
  6
Continuous
 62
     0
100
AcDbCircle
 10
14782.71691536589
 20
-2615.321854075181
 30
0.0
 40
315.971260282123
100
AcDbArc
 50
163.077829185707
 51
181.456160860873
  0
ARC
  5
433
330
25
100
AcDbEntity
  8
1
  6
Continuous
 62
     0
100
AcDbCircle
 10
11177.05190440007
 20
-832.351336467443
 30
0.0
 40
36.001544532573
100
AcDbArc
 50
270.0
 51
49.62608675774554
  0
ARC
  5
432
330
25
100
AcDbEntity
  8
1
  6
Continuous
 62
     0
100
AcDbCircle
 10
11177.05190440007
 20
-832.351336467443
 30
0.0
 40
34.501544532572
100
AcDbArc
 50
270.0
 51
38.4706455405979
  0
ARC
  5
431
330
25
100
AcDbEntity
  8
1
  6
Continuous
 62
     0
100
AcDbCircle
 10
11177.05190440007
 20
-832.351336467443
 30
0.0
 40
34.501544532566
100
AcDbArc
 50
141.5293544593915
 51
270.0
  0
ARC
  5
430
330
25
100
AcDbEntity
  8
1
  6
Continuous
 62
     0
100
AcDbCircle
 10
11177.05190440007
 20
-832.351336467443
 30
0.0
 40
36.001544532569
100
AcDbArc
 50
130.3739132422445
 51
270.0
  0
ARC
  5
42F
330
25
100
AcDbEntity
  8
1
  6
Continuous
 62
     0
100
AcDbCircle
 10
11204.04162324006
 20
-790.516417649706
 30
0.0
 40
6.489718839986
100
AcDbArc
 50
140.0740622145659
 51
180.0
  0
ARC
  5
42E
330
25
100
AcDbEntity
  8
1
  6
Continuous
 62
     0
100
AcDbCircle
 10
11150.06218556008
 20
-790.516417649706
 30
0.0
 40
6.48971883999
100
AcDbArc
 50
0.0
 51
39.92593778537516
  0
ARC
  5
42D
330
25
100
AcDbEntity
  8
1
  6
Continuous
 62
     0
100
AcDbCircle
 10
11203.69381883508
 20
-731.575050887446
 30
0.0
 40
28.556285579997
100
AcDbArc
 50
246.7989471040667
 51
270.0
  0
ARC
  5
42C
330
25
100
AcDbEntity
  8
1
  6
Continuous
 62
     0
100
AcDbCircle
 10
11150.69381883508
 20
-731.575050887446
 30
0.0
 40
28.556285579996
100
AcDbArc
 50
270.0
 51
293.2010528959343
  0
ARC
  5
42B
330
25
100
AcDbEntity
  8
1
  6
Continuous
 62
     0
100
AcDbCircle
 10
11177.19381883508
 20
-708.625377687158
 30
0.0
 40
51.505958780285
100
AcDbArc
 50
252.7775550278674
 51
287.2224449721327
  0
ARC
  5
42A
330
25
100
AcDbEntity
  8
1
  6
Continuous
 62
     0
100
AcDbCircle
 10
11203.55190440007
 20
-731.575050887446
 30
0.0
 40
28.556285579997
100
AcDbArc
 50
246.7989471040667
 51
270.0
  0
ARC
  5
429
330
25
100
AcDbEntity
  8
1
  6
Continuous
 62
     0
100
AcDbCircle
 10
11150.55190440007
 20
-731.575050887446
 30
0.0
 40
28.556285579996
100
AcDbArc
 50
270.0
 51
293.2010528959343
  0
ARC
  5
428
330
25
100
AcDbEntity
  8
1
  6
Continuous
 62
     0
100
AcDbCircle
 10
11177.05190440007
 20
-708.625377687158
 30
0.0
 40
51.505958780285
100
AcDbArc
 50
252.7775550278674
 51
287.2224449721327
  0
ARC
  5
427
330
25
100
AcDbEntity
  8
1
  6
Continuous
 62
     0
100
AcDbCircle
 10
11199.05190440007
 20
-676.664834568062
 30
0.0
 40
16.03349810062
100
AcDbArc
 50
90.0
 51
123.0747300672048
  0
ARC
  5
426
330
25
100
AcDbEntity
  8
1
  6
Continuous
 62
     0
100
AcDbCircle
 10
11155.05190440007
 20
-617.631336467442
 30
0.0
 40
1.0
100
AcDbArc
 50
0.0
 51
180.0
  0
ARC
  5
425
330
25
100
AcDbEntity
  8
1
  6
Continuous
 62
     0
100
AcDbCircle
 10
11169.71857106674
 20
-617.631336467442
 30
0.0
 40
1.0
100
AcDbArc
 50
0.0
 51
180.0
  0
ARC
  5
424
330
25
100
AcDbEntity
  8
1
  6
Continuous
 62
     0
100
AcDbCircle
 10
11184.38523773341
 20
-617.631336467442
 30
0.0
 40
1.0
100
AcDbArc
 50
0.0
 51
180.0
  0
ARC
  5
423
330
25
100
AcDbEntity
  8
1
  6
Continuous
 62
     0
100
AcDbCircle
 10
11199.05190440007
 20
-617.631336467442
 30
0.0
 40
1.0
100
AcDbArc
 50
0.0
 51
180.0
  0
ARC
  5
422
330
25
100
AcDbEntity
  8
1
  6
Continuous
 62
     0
100
AcDbCircle
 10
11155.05190440007
 20
-676.664834568062
 30
0.0
 40
16.033498100619
100
AcDbArc
 50
56.92526993279321
 51
90.0
  0
ARC
  5
421
330
25
100
AcDbEntity
  8
1
  6
Continuous
 62
     0
100
AcDbCircle
 10
11177.05190440007
 20
-695.717393451319
 30
0.0
 40
35.086056983876
100
AcDbArc
 50
67.8122458687581
 51
112.1877541312419
  0
ARC
  5
420
330
25
100
AcDbEntity
  8
1
  6
Continuous
 62
     0
100
AcDbCircle
 10
11177.05190440007
 20
-595.131336467442
 30
0.0
 40
15.0
100
AcDbArc
 50
0.0
 51
180.0
  0
ARC
  5
41F
330
25
100
AcDbEntity
  8
1
  6
Continuous
 62
     0
100
AcDbCircle
 10
11161.55190440007
 20
-615.773734316337
 30
0.0
 40
12.142397848894
100
AcDbArc
 50
59.02090113837195
 51
90.0
  0
ARC
  5
41E
330
25
100
AcDbEntity
  8
1
  6
Continuous
 62
     0
100
AcDbCircle
 10
11192.55190440007
 20
-615.773734316337
 30
0.0
 40
12.142397848895
100
AcDbArc
 50
90.0
 51
120.9790988616253
  0
ARC
  5
41D
330
25
100
AcDbEntity
  8
1
  6
Continuous
 62
     0
100
AcDbCircle
 10
11177.05190440007
 20
-629.197128074995
 30
0.0
 40
25.565791607551
100
AcDbArc
 50
68.78850558533539
 51
111.2114944146646
  0
ARC
  5
41C
330
25
100
AcDbEntity
  8
1
  6
Continuous
 62
     0
100
AcDbCircle
 10
13539.80206352185
 20
-787.434350434772
 30
0.0
 40
10.415441500099
100
AcDbArc
 50
270.0
 51
301.1314905660818
  0
ARC
  5
41B
330
25
100
AcDbEntity
  8
1
  6
Continuous
 62
     0
100
AcDbCircle
 10
13539.80206352185
 20
-877.268322500114
 30
0.0
 40
10.415441500099
100
AcDbArc
 50
58.86850943391821
 51
90.0
  0
ARC
  5
41A
330
25
100
AcDbEntity
  8
1
  6
Continuous
 62
     0
100
AcDbCircle
 10
13533.18128840137
 20
-790.516417649706
 30
0.0
 40
6.489718839988
100
AcDbArc
 50
140.0740622145716
 51
180.0
  0
ARC
  5
419
330
25
100
AcDbEntity
  8
1
  6
Continuous
 62
     0
100
AcDbCircle
 10
13479.2018507214
 20
-790.516417649706
 30
0.0
 40
6.48971883999
100
AcDbArc
 50
0.0
 51
39.92593778542964
  0
ARC
  5
418
330
25
100
AcDbEntity
  8
1
  6
Continuous
 62
     0
100
AcDbCircle
 10
13506.3334839964
 20
-629.19645673641
 30
0.0
 40
25.565791607552
100
AcDbArc
 50
68.78850558533622
 51
111.2114944146638
  0
ARC
  5
417
330
25
100
AcDbEntity
  8
1
  6
Continuous
 62
     0
100
AcDbCircle
 10
13521.8334839964
 20
-615.773062977752
 30
0.0
 40
12.142397848893
100
AcDbArc
 50
90.0
 51
120.9790988616308
  0
ARC
  5
416
330
25
100
AcDbEntity
  8
1
  6
Continuous
 62
     0
100
AcDbCircle
 10
13490.8334839964
 20
-615.773062977752
 30
0.0
 40
12.142397848894
100
AcDbArc
 50
59.02090113837195
 51
90.0
  0
ARC
  5
415
330
25
100
AcDbEntity
  8
1
  6
Continuous
 62
     0
100
AcDbCircle
 10
13506.3334839964
 20
-595.130665128859
 30
0.0
 40
15.0
100
AcDbArc
 50
0.0
 51
180.0
  0
ARC
  5
414
330
25
100
AcDbEntity
  8
1
  6
Continuous
 62
     0
100
AcDbCircle
 10
13506.3334839964
 20
-695.717393451319
 30
0.0
 40
35.086056983876
100
AcDbArc
 50
67.8122458687581
 51
112.1877541312419
  0
ARC
  5
413
330
25
100
AcDbEntity
  8
1
  6
Continuous
 62
     0
100
AcDbCircle
 10
13484.3334839964
 20
-676.664834568062
 30
0.0
 40
16.033498100619
100
AcDbArc
 50
56.92526993279321
 51
90.0
  0
ARC
  5
412
330
25
100
AcDbEntity
  8
1
  6
Continuous
 62
     0
100
AcDbCircle
 10
13528.3334839964
 20
-617.630665128859
 30
0.0
 40
1.0
100
AcDbArc
 50
0.0
 51
180.0
  0
ARC
  5
411
330
25
100
AcDbEntity
  8
1
  6
Continuous
 62
     0
100
AcDbCircle
 10
13513.66681732973
 20
-617.630665128859
 30
0.0
 40
1.0
100
AcDbArc
 50
0.0
 51
180.0
  0
ARC
  5
410
330
25
100
AcDbEntity
  8
1
  6
Continuous
 62
     0
100
AcDbCircle
 10
13499.00015066306
 20
-617.630665128859
 30
0.0
 40
1.0
100
AcDbArc
 50
0.0
 51
180.0
  0
ARC
  5
40F
330
25
100
AcDbEntity
  8
1
  6
Continuous
 62
     0
100
AcDbCircle
 10
13484.3334839964
 20
-617.630665128859
 30
0.0
 40
1.0
100
AcDbArc
 50
0.0
 51
180.0
  0
ARC
  5
40E
330
25
100
AcDbEntity
  8
1
  6
Continuous
 62
     0
100
AcDbCircle
 10
13528.3334839964
 20
-676.664834568062
 30
0.0
 40
16.03349810062
100
AcDbArc
 50
90.0
 51
123.0747300672048
  0
ARC
  5
40D
330
25
100
AcDbEntity
  8
1
  6
Continuous
 62
     0
100
AcDbCircle
 10
13506.3334839964
 20
-708.625377687158
 30
0.0
 40
51.505958780285
100
AcDbArc
 50
252.7775550278674
 51
287.2224449721327
  0
ARC
  5
40C
330
25
100
AcDbEntity
  8
1
  6
Continuous
 62
     0
100
AcDbCircle
 10
13479.8334839964
 20
-731.575050887446
 30
0.0
 40
28.556285579996
100
AcDbArc
 50
270.0
 51
293.2010528959343
  0
ARC
  5
40B
330
25
100
AcDbEntity
  8
1
  6
Continuous
 62
     0
100
AcDbCircle
 10
13532.8334839964
 20
-731.575050887446
 30
0.0
 40
28.556285579997
100
AcDbArc
 50
246.7989471040667
 51
270.0
  0
LINE
  5
408
330
25
100
AcDbEntity
  8
1
  6
Continuous
 62
     0
100
AcDbLine
 10
11231.05190440007
 20
-3187.46928293974
 30
0.0
 11
11221.95179304136
 21
-3187.46928293974
 31
0.0
  0
LINE
  5
407
330
25
100
AcDbEntity
  8
1
  6
Continuous
 62
     0
100
AcDbLine
 10
11221.95179304136
 20
-3242.46928293974
 30
0.0
 11
11231.05190440007
 21
-3242.46928293974
 31
0.0
  0
LINE
  5
406
330
25
100
AcDbEntity
  8
1
  6
Continuous
 62
     0
100
AcDbLine
 10
11232.05190440007
 20
-3243.96928293974
 30
0.0
 11
11232.05190440007
 21
-3243.46928293974
 31
0.0
  0
LINE
  5
405
330
25
100
AcDbEntity
  8
1
  6
Continuous
 62
     0
100
AcDbLine
 10
11232.05190440007
 20
-3243.96928293974
 30
0.0
 11
11237.05190440007
 21
-3243.96928293974
 31
0.0
  0
LINE
  5
404
330
25
100
AcDbEntity
  8
1
  6
Continuous
 62
     0
100
AcDbLine
 10
11237.05190440007
 20
-3243.96928293974
 30
0.0
 11
11237.05190440007
 21
-3185.96928293974
 31
0.0
  0
LINE
  5
403
330
25
100
AcDbEntity
  8
1
  6
Continuous
 62
     0
100
AcDbLine
 10
11237.05190440007
 20
-3185.96928293974
 30
0.0
 11
11232.05190440007
 21
-3185.96928293974
 31
0.0
  0
LINE
  5
402
330
25
100
AcDbEntity
  8
1
  6
Continuous
 62
     0
100
AcDbLine
 10
11232.05190440007
 20
-3185.96928293974
 30
0.0
 11
11232.05190440007
 21
-3186.46928293974
 31
0.0
  0
LINE
  5
401
330
25
100
AcDbEntity
  8
1
  6
Continuous
 62
     0
100
AcDbLine
 10
11232.05190440007
 20
-3186.610527947712
 30
0.0
 11
11232.05190440007
 21
-3243.96928293974
 31
0.0
  0
LINE
  5
3FD
330
25
100
AcDbEntity
  8
1
  6
Continuous
 62
     0
100
AcDbLine
 10
10519.55317754166
 20
-3797.169282939741
 30
0.0
 11
10568.05190440007
 21
-3797.169282939741
 31
0.0
  0
LINE
  5
3FC
330
25
100
AcDbEntity
  8
1
  6
Continuous
 62
     0
100
AcDbLine
 10
10556.55317754166
 20
-3829.66928293974
 30
0.0
 11
10568.05190440007
 21
-3829.66928293974
 31
0.0
  0
LINE
  5
3FB
330
25
100
AcDbEntity
  8
1
  6
Continuous
 62
     0
100
AcDbLine
 10
11164.24434904311
 20
-3190.221814037735
 30
0.0
 11
11177.05190440007
 21
-3182.827368504731
 31
0.0
  0
LINE
  5
3FA
330
25
100
AcDbEntity
  8
1
  6
Continuous
 62
     0
100
AcDbLine
 10
11177.05190440007
 20
-3182.827368504731
 30
0.0
 11
11189.85945975703
 21
-3190.221814037735
 31
0.0
  0
LINE
  5
3F8
330
25
100
AcDbEntity
  8
1
  6
Continuous
 62
     0
100
AcDbLine
 10
11142.5503598675
 20
-3252.544459405001
 30
0.0
 11
11142.5503598675
 21
-3218.35509029976
 31
0.0
  0
LINE
  5
3F7
330
25
100
AcDbEntity
  8
1
  6
Continuous
 62
     0
100
AcDbLine
 10
11211.55344893264
 20
-3217.909990986223
 30
0.0
 11
11211.55344893264
 21
-3252.544459405001
 31
0.0
  0
LINE
  5
3F6
330
25
100
AcDbEntity
  8
1
  6
Continuous
 62
     0
100
AcDbLine
 10
11211.55344893264
 20
-3252.544459405001
 30
0.0
 11
11211.55344893264
 21
-3245.433965444538
 31
0.0
  0
LINE
  5
3F5
330
25
100
AcDbEntity
  8
1
  6
Continuous
 62
     0
100
AcDbLine
 10
11141.0503598675
 20
-3262.929282939741
 30
0.0
 11
11177.05190440007
 21
-3262.929282939741
 31
0.0
  0
LINE
  5
3F4
330
25
100
AcDbEntity
  8
1
  6
Continuous
 62
     0
100
AcDbLine
 10
11213.05344893264
 20
-3257.929282939741
 30
0.0
 11
11211.55344893264
 21
-3257.929282939741
 31
0.0
  0
LINE
  5
3F3
330
25
100
AcDbEntity
  8
1
  6
Continuous
 62
     0
100
AcDbLine
 10
11141.0503598675
 20
-3257.929282939741
 30
0.0
 11
11142.5503598675
 21
-3257.929282939741
 31
0.0
  0
LINE
  5
3F2
330
25
100
AcDbEntity
  8
1
  6
Continuous
 62
     0
100
AcDbLine
 10
11142.5503598675
 20
-3257.929282939741
 30
0.0
 11
11211.55344893264
 21
-3257.929282939741
 31
0.0
  0
LINE
  5
3F1
330
25
100
AcDbEntity
  8
1
  6
Continuous
 62
     0
100
AcDbLine
 10
11141.0503598675
 20
-3262.929282939741
 30
0.0
 11
11141.0503598675
 21
-3257.929282939741
 31
0.0
  0
LINE
  5
3F0
330
25
100
AcDbEntity
  8
1
  6
Continuous
 62
     0
100
AcDbLine
 10
11213.05344893264
 20
-3262.929282939741
 30
0.0
 11
11213.05344893264
 21
-3257.929282939741
 31
0.0
  0
LINE
  5
3EF
330
25
100
AcDbEntity
  8
1
  6
Continuous
 62
     0
100
AcDbLine
 10
11177.05190440007
 20
-3262.929282939741
 30
0.0
 11
11213.05344893264
 21
-3262.929282939741
 31
0.0
  0
LINE
  5
3EE
330
25
100
AcDbEntity
  8
1
  6
Continuous
 62
     0
100
AcDbLine
 10
11142.5503598675
 20
-3252.544459405001
 30
0.0
 11
11142.5503598675
 21
-3243.433965444538
 31
0.0
  0
LINE
  5
3ED
330
25
100
AcDbEntity
  8
1
  6
Continuous
 62
     0
100
AcDbLine
 10
11146.80190440007
 20
-3274.049282939741
 30
0.0
 11
11147.24490440007
 21
-3262.929282939741
 31
0.0
  0
LINE
  5
3EC
330
25
100
AcDbEntity
  8
1
  6
Continuous
 62
     0
100
AcDbLine
 10
11206.85890440007
 20
-3262.929282939741
 30
0.0
 11
11207.30190440007
 21
-3274.049282939741
 31
0.0
  0
LINE
  5
3EB
330
25
100
AcDbEntity
  8
1
  6
Continuous
 62
     0
100
AcDbLine
 10
11147.24490440007
 20
-3289.16928293974
 30
0.0
 11
11146.80190440007
 21
-3278.049282939741
 31
0.0
  0
LINE
  5
3EA
330
25
100
AcDbEntity
  8
1
  6
Continuous
 62
     0
100
AcDbLine
 10
11206.85890440007
 20
-3289.16928293974
 30
0.0
 11
11207.30190440007
 21
-3278.049282939741
 31
0.0
  0
LINE
  5
3E9
330
25
100
AcDbEntity
  8
1
  6
Continuous
 62
     0
100
AcDbLine
 10
11146.80190440007
 20
-3274.049282939741
 30
0.0
 11
11146.80190440007
 21
-3278.049282939741
 31
0.0
  0
LINE
  5
3E8
330
25
100
AcDbEntity
  8
1
  6
Continuous
 62
     0
100
AcDbLine
 10
11207.30190440007
 20
-3278.049282939741
 30
0.0
 11
11207.30190440007
 21
-3274.049282939741
 31
0.0
  0
LINE
  5
3E7
330
25
100
AcDbEntity
  8
1
  6
Continuous
 62
     0
100
AcDbLine
 10
11146.80190440007
 20
-3274.049282939741
 30
0.0
 11
11207.30190440007
 21
-3274.049282939741
 31
0.0
  0
LINE
  5
3E6
330
25
100
AcDbEntity
  8
1
  6
Continuous
 62
     0
100
AcDbLine
 10
11207.30190440007
 20
-3278.049282939741
 30
0.0
 11
11146.80190440007
 21
-3278.049282939741
 31
0.0
  0
LINE
  5
3E5
330
25
100
AcDbEntity
  8
1
  6
Continuous
 62
     0
100
AcDbLine
 10
11143.90190440007
 20
-3289.16928293974
 30
0.0
 11
11210.20190440007
 21
-3289.16928293974
 31
0.0
  0
LINE
  5
3E4
330
25
100
AcDbEntity
  8
1
  6
Continuous
 62
     0
100
AcDbLine
 10
11143.90190440007
 20
-3289.16928293974
 30
0.0
 11
11143.90190440007
 21
-3309.16928293974
 31
0.0
  0
LINE
  5
3E3
330
25
100
AcDbEntity
  8
1
  6
Continuous
 62
     0
100
AcDbLine
 10
11210.20190440007
 20
-3289.16928293974
 30
0.0
 11
11210.20190440007
 21
-3309.16928293974
 31
0.0
  0
LINE
  5
3E2
330
25
100
AcDbEntity
  8
1
  6
Continuous
 62
     0
100
AcDbLine
 10
11143.90190440007
 20
-3289.16928293974
 30
0.0
 11
11210.20190440007
 21
-3289.16928293974
 31
0.0
  0
LINE
  5
3E1
330
25
100
AcDbEntity
  8
1
  6
Continuous
 62
     0
100
AcDbLine
 10
10545.24147987857
 20
-3818.16928293974
 30
0.0
 11
10517.55317754166
 21
-3818.16928293974
 31
0.0
  0
LINE
  5
3E0
330
25
100
AcDbEntity
  8
1
  6
Continuous
 62
     0
100
AcDbLine
 10
10568.05190440007
 20
-3832.169282939741
 30
0.0
 11
10519.55317754166
 21
-3832.169282939741
 31
0.0
  0
LINE
  5
3DF
330
25
100
AcDbEntity
  8
1
  6
Continuous
 62
     0
100
AcDbLine
 10
10517.55317754166
 20
-3830.169282939741
 30
0.0
 11
10517.55317754166
 21
-3799.169282939741
 31
0.0
  0
LINE
  5
3DC
330
25
100
AcDbEntity
  8
1
  6
Continuous
 62
     0
100
AcDbLine
 10
10550.55317754166
 20
-3812.16928293974
 30
0.0
 11
10562.55317754166
 21
-3824.16928293974
 31
0.0
  0
LINE
  5
3DB
330
25
100
AcDbEntity
  8
1
  6
Continuous
 62
     0
100
AcDbLine
 10
10562.55317754166
 20
-3812.16928293974
 30
0.0
 11
10550.55317754166
 21
-3824.16928293974
 31
0.0
  0
LINE
  5
3DA
330
25
100
AcDbEntity
  8
1
  6
Continuous
 62
     0
100
AcDbLine
 10
10550.55317754166
 20
-3812.16928293974
 30
0.0
 11
10562.55317754166
 21
-3812.16928293974
 31
0.0
  0
LINE
  5
3D9
330
25
100
AcDbEntity
  8
1
  6
Continuous
 62
     0
100
AcDbLine
 10
10562.55317754166
 20
-3812.16928293974
 30
0.0
 11
10562.55317754166
 21
-3824.16928293974
 31
0.0
  0
LINE
  5
3D8
330
25
100
AcDbEntity
  8
1
  6
Continuous
 62
     0
100
AcDbLine
 10
10562.55317754166
 20
-3824.16928293974
 30
0.0
 11
10550.55317754166
 21
-3824.16928293974
 31
0.0
  0
LINE
  5
3D7
330
25
100
AcDbEntity
  8
1
  6
Continuous
 62
     0
100
AcDbLine
 10
10550.55317754166
 20
-3824.16928293974
 30
0.0
 11
10550.55317754166
 21
-3812.16928293974
 31
0.0
  0
LINE
  5
3D5
330
25
100
AcDbEntity
  8
1
  6
Continuous
 62
     0
100
AcDbLine
 10
10568.05190440007
 20
-3806.66928293974
 30
0.0
 11
10556.55317754166
 21
-3806.66928293974
 31
0.0
  0
LINE
  5
3D4
330
25
100
AcDbEntity
  8
1
  6
Continuous
 62
     0
100
AcDbLine
 10
11246.79437518203
 20
-4359.169282939742
 30
0.0
 11
11248.65078164258
 21
-4358.097486170015
 31
0.0
  0
LINE
  5
3D3
330
25
100
AcDbEntity
  8
1
  6
Continuous
 62
     0
100
AcDbLine
 10
11220.93796872148
 20
-4358.097486170015
 30
0.0
 11
11222.79437518203
 21
-4359.169282939742
 31
0.0
  0
LINE
  5
3D2
330
25
100
AcDbEntity
  8
1
  6
Continuous
 62
     0
100
AcDbLine
 10
11220.93796872148
 20
-4349.169282939742
 30
0.0
 11
11220.93796872148
 21
-4358.097486170015
 31
0.0
  0
LINE
  5
3D1
330
25
100
AcDbEntity
  8
1
  6
Continuous
 62
     0
100
AcDbLine
 10
11222.79437518203
 20
-4359.169282939742
 30
0.0
 11
11246.79437518203
 21
-4359.169282939742
 31
0.0
  0
LINE
  5
3D0
330
25
100
AcDbEntity
  8
1
  6
Continuous
 62
     0
100
AcDbLine
 10
11248.65078164258
 20
-4358.097486170015
 30
0.0
 11
11248.65078164258
 21
-4349.169282939742
 31
0.0
  0
LINE
  5
3CF
330
25
100
AcDbEntity
  8
1
  6
Continuous
 62
     0
100
AcDbLine
 10
11227.86617195175
 20
-4349.169282939742
 30
0.0
 11
11227.86617195175
 21
-4358.097486170015
 31
0.0
  0
LINE
  5
3CE
330
25
100
AcDbEntity
  8
1
  6
Continuous
 62
     0
100
AcDbLine
 10
11241.7225784123
 20
-4349.169282939742
 30
0.0
 11
11241.7225784123
 21
-4358.097486170015
 31
0.0
  0
LINE
  5
3CD
330
25
100
AcDbEntity
  8
1
  6
Continuous
 62
     0
100
AcDbLine
 10
11220.79437518203
 20
-4345.169282939742
 30
0.0
 11
11220.79437518203
 21
-4349.169282939742
 31
0.0
  0
LINE
  5
3CC
330
25
100
AcDbEntity
  8
1
  6
Continuous
 62
     0
100
AcDbLine
 10
11220.79437518203
 20
-4349.169282939742
 30
0.0
 11
11248.79437518203
 21
-4349.169282939742
 31
0.0
  0
LINE
  5
3CB
330
25
100
AcDbEntity
  8
1
  6
Continuous
 62
     0
100
AcDbLine
 10
11248.79437518203
 20
-4349.169282939742
 30
0.0
 11
11248.79437518203
 21
-4345.169282939742
 31
0.0
  0
LINE
  5
3CA
330
25
100
AcDbEntity
  8
1
  6
Continuous
 62
     0
100
AcDbLine
 10
11233.8610418487
 20
-4349.169282939742
 30
0.0
 11
11232.71818470584
 21
-4345.169282939742
 31
0.0
  0
LINE
  5
3C9
330
25
100
AcDbEntity
  8
1
  6
Continuous
 62
     0
100
AcDbLine
 10
11236.87056565822
 20
-4349.169282939742
 30
0.0
 11
11235.72770851536
 21
-4345.169282939742
 31
0.0
  0
LINE
  5
3C8
330
25
100
AcDbEntity
  8
1
  6
Continuous
 62
     0
100
AcDbLine
 10
11219.79437518203
 20
-4342.169282939742
 30
0.0
 11
11219.79437518203
 21
-4345.169282939742
 31
0.0
  0
LINE
  5
3C7
330
25
100
AcDbEntity
  8
1
  6
Continuous
 62
     0
100
AcDbLine
 10
11219.79437518203
 20
-4345.169282939742
 30
0.0
 11
11249.79437518203
 21
-4345.169282939742
 31
0.0
  0
LINE
  5
3C6
330
25
100
AcDbEntity
  8
1
  6
Continuous
 62
     0
100
AcDbLine
 10
11249.79437518203
 20
-4345.169282939742
 30
0.0
 11
11249.79437518203
 21
-4342.169282939742
 31
0.0
  0
LINE
  5
3C5
330
25
100
AcDbEntity
  8
1
  6
Continuous
 62
     0
100
AcDbLine
 10
11249.79437518203
 20
-4342.169282939742
 30
0.0
 11
11219.79437518203
 21
-4342.169282939742
 31
0.0
  0
LINE
  5
3C2
330
25
100
AcDbEntity
  8
1
  6
Continuous
 62
     0
100
AcDbLine
 10
11215.96961892289
 20
-4342.169282939742
 30
0.0
 11
11185.96961892289
 21
-4342.169282939742
 31
0.0
  0
LINE
  5
3C1
330
25
100
AcDbEntity
  8
1
  6
Continuous
 62
     0
100
AcDbLine
 10
11215.96961892289
 20
-4345.169282939742
 30
0.0
 11
11215.96961892289
 21
-4342.169282939742
 31
0.0
  0
LINE
  5
3C0
330
25
100
AcDbEntity
  8
1
  6
Continuous
 62
     0
100
AcDbLine
 10
11185.96961892289
 20
-4345.169282939742
 30
0.0
 11
11215.96961892289
 21
-4345.169282939742
 31
0.0
  0
LINE
  5
3BF
330
25
100
AcDbEntity
  8
1
  6
Continuous
 62
     0
100
AcDbLine
 10
11185.96961892289
 20
-4342.169282939742
 30
0.0
 11
11185.96961892289
 21
-4345.169282939742
 31
0.0
  0
LINE
  5
3BE
330
25
100
AcDbEntity
  8
1
  6
Continuous
 62
     0
100
AcDbLine
 10
11203.04580939908
 20
-4349.169282939742
 30
0.0
 11
11201.90295225623
 21
-4345.169282939742
 31
0.0
  0
LINE
  5
3BD
330
25
100
AcDbEntity
  8
1
  6
Continuous
 62
     0
100
AcDbLine
 10
11200.03628558956
 20
-4349.169282939742
 30
0.0
 11
11198.8934284467
 21
-4345.169282939742
 31
0.0
  0
LINE
  5
3BC
330
25
100
AcDbEntity
  8
1
  6
Continuous
 62
     0
100
AcDbLine
 10
11214.96961892289
 20
-4349.169282939742
 30
0.0
 11
11214.96961892289
 21
-4345.169282939742
 31
0.0
  0
LINE
  5
3BB
330
25
100
AcDbEntity
  8
1
  6
Continuous
 62
     0
100
AcDbLine
 10
11186.96961892289
 20
-4349.169282939742
 30
0.0
 11
11214.96961892289
 21
-4349.169282939742
 31
0.0
  0
LINE
  5
3BA
330
25
100
AcDbEntity
  8
1
  6
Continuous
 62
     0
100
AcDbLine
 10
11186.96961892289
 20
-4345.169282939742
 30
0.0
 11
11186.96961892289
 21
-4349.169282939742
 31
0.0
  0
LINE
  5
3B9
330
25
100
AcDbEntity
  8
1
  6
Continuous
 62
     0
100
AcDbLine
 10
11207.89782215317
 20
-4349.169282939742
 30
0.0
 11
11207.89782215317
 21
-4358.097486170015
 31
0.0
  0
LINE
  5
3B8
330
25
100
AcDbEntity
  8
1
  6
Continuous
 62
     0
100
AcDbLine
 10
11194.04141569261
 20
-4349.169282939742
 30
0.0
 11
11194.04141569261
 21
-4358.097486170015
 31
0.0
  0
LINE
  5
3B7
330
25
100
AcDbEntity
  8
1
  6
Continuous
 62
     0
100
AcDbLine
 10
11214.82602538344
 20
-4358.097486170015
 30
0.0
 11
11214.82602538344
 21
-4349.169282939742
 31
0.0
  0
LINE
  5
3B6
330
25
100
AcDbEntity
  8
1
  6
Continuous
 62
     0
100
AcDbLine
 10
11188.96961892289
 20
-4359.169282939742
 30
0.0
 11
11212.96961892289
 21
-4359.169282939742
 31
0.0
  0
LINE
  5
3B5
330
25
100
AcDbEntity
  8
1
  6
Continuous
 62
     0
100
AcDbLine
 10
11187.11321246234
 20
-4349.169282939742
 30
0.0
 11
11187.11321246234
 21
-4358.097486170015
 31
0.0
  0
LINE
  5
3B4
330
25
100
AcDbEntity
  8
1
  6
Continuous
 62
     0
100
AcDbLine
 10
11187.11321246234
 20
-4358.097486170015
 30
0.0
 11
11188.96961892289
 21
-4359.169282939742
 31
0.0
  0
LINE
  5
3B3
330
25
100
AcDbEntity
  8
1
  6
Continuous
 62
     0
100
AcDbLine
 10
11212.96961892289
 20
-4359.169282939742
 30
0.0
 11
11214.82602538344
 21
-4358.097486170015
 31
0.0
  0
LINE
  5
3B2
330
25
100
AcDbEntity
  8
1
  6
Continuous
 62
     0
100
AcDbLine
 10
11139.2777834167
 20
-4358.097486170015
 30
0.0
 11
11141.13418987725
 21
-4359.169282939742
 31
0.0
  0
LINE
  5
3B1
330
25
100
AcDbEntity
  8
1
  6
Continuous
 62
     0
100
AcDbLine
 10
11165.13418987725
 20
-4359.169282939742
 30
0.0
 11
11166.99059633781
 21
-4358.097486170015
 31
0.0
  0
LINE
  5
3B0
330
25
100
AcDbEntity
  8
1
  6
Continuous
 62
     0
100
AcDbLine
 10
11166.99059633781
 20
-4358.097486170015
 30
0.0
 11
11166.99059633781
 21
-4349.169282939742
 31
0.0
  0
LINE
  5
3AF
330
25
100
AcDbEntity
  8
1
  6
Continuous
 62
     0
100
AcDbLine
 10
11141.13418987725
 20
-4359.169282939742
 30
0.0
 11
11165.13418987725
 21
-4359.169282939742
 31
0.0
  0
LINE
  5
3AE
330
25
100
AcDbEntity
  8
1
  6
Continuous
 62
     0
100
AcDbLine
 10
11139.2777834167
 20
-4349.169282939742
 30
0.0
 11
11139.2777834167
 21
-4358.097486170015
 31
0.0
  0
LINE
  5
3AD
330
25
100
AcDbEntity
  8
1
  6
Continuous
 62
     0
100
AcDbLine
 10
11160.06239310753
 20
-4358.097486170015
 30
0.0
 11
11160.06239310753
 21
-4349.169282939742
 31
0.0
  0
LINE
  5
3AC
330
25
100
AcDbEntity
  8
1
  6
Continuous
 62
     0
100
AcDbLine
 10
11146.20598664698
 20
-4358.097486170015
 30
0.0
 11
11146.20598664698
 21
-4349.169282939742
 31
0.0
  0
LINE
  5
3AB
330
25
100
AcDbEntity
  8
1
  6
Continuous
 62
     0
100
AcDbLine
 10
11167.13418987725
 20
-4349.169282939742
 30
0.0
 11
11167.13418987725
 21
-4345.169282939742
 31
0.0
  0
LINE
  5
3AA
330
25
100
AcDbEntity
  8
1
  6
Continuous
 62
     0
100
AcDbLine
 10
11139.13418987725
 20
-4349.169282939742
 30
0.0
 11
11167.13418987725
 21
-4349.169282939742
 31
0.0
  0
LINE
  5
3A9
330
25
100
AcDbEntity
  8
1
  6
Continuous
 62
     0
100
AcDbLine
 10
11139.13418987725
 20
-4345.169282939742
 30
0.0
 11
11139.13418987725
 21
-4349.169282939742
 31
0.0
  0
LINE
  5
3A8
330
25
100
AcDbEntity
  8
1
  6
Continuous
 62
     0
100
AcDbLine
 10
11155.21038035345
 20
-4345.169282939742
 30
0.0
 11
11154.06752321059
 21
-4349.169282939742
 31
0.0
  0
LINE
  5
3A7
330
25
100
AcDbEntity
  8
1
  6
Continuous
 62
     0
100
AcDbLine
 10
11152.20085654392
 20
-4345.169282939742
 30
0.0
 11
11151.05799940106
 21
-4349.169282939742
 31
0.0
  0
LINE
  5
3A6
330
25
100
AcDbEntity
  8
1
  6
Continuous
 62
     0
100
AcDbLine
 10
11168.13418987725
 20
-4345.169282939742
 30
0.0
 11
11168.13418987725
 21
-4342.169282939742
 31
0.0
  0
LINE
  5
3A5
330
25
100
AcDbEntity
  8
1
  6
Continuous
 62
     0
100
AcDbLine
 10
11138.13418987725
 20
-4345.169282939742
 30
0.0
 11
11168.13418987725
 21
-4345.169282939742
 31
0.0
  0
LINE
  5
3A4
330
25
100
AcDbEntity
  8
1
  6
Continuous
 62
     0
100
AcDbLine
 10
11138.13418987725
 20
-4342.169282939742
 30
0.0
 11
11138.13418987725
 21
-4345.169282939742
 31
0.0
  0
LINE
  5
3A3
330
25
100
AcDbEntity
  8
1
  6
Continuous
 62
     0
100
AcDbLine
 10
11168.13418987725
 20
-4342.169282939742
 30
0.0
 11
11138.13418987725
 21
-4342.169282939742
 31
0.0
  0
LINE
  5
3A0
330
25
100
AcDbEntity
  8
1
  6
Continuous
 62
     0
100
AcDbLine
 10
11134.30943361812
 20
-4342.169282939742
 30
0.0
 11
11104.30943361812
 21
-4342.169282939742
 31
0.0
  0
LINE
  5
39F
330
25
100
AcDbEntity
  8
1
  6
Continuous
 62
     0
100
AcDbLine
 10
11104.30943361812
 20
-4342.169282939742
 30
0.0
 11
11104.30943361812
 21
-4345.169282939742
 31
0.0
  0
LINE
  5
39E
330
25
100
AcDbEntity
  8
1
  6
Continuous
 62
     0
100
AcDbLine
 10
11104.30943361812
 20
-4345.169282939742
 30
0.0
 11
11134.30943361812
 21
-4345.169282939742
 31
0.0
  0
LINE
  5
39D
330
25
100
AcDbEntity
  8
1
  6
Continuous
 62
     0
100
AcDbLine
 10
11134.30943361812
 20
-4345.169282939742
 30
0.0
 11
11134.30943361812
 21
-4342.169282939742
 31
0.0
  0
LINE
  5
39C
330
25
100
AcDbEntity
  8
1
  6
Continuous
 62
     0
100
AcDbLine
 10
11118.37610028478
 20
-4345.169282939742
 30
0.0
 11
11117.23324314193
 21
-4349.169282939742
 31
0.0
  0
LINE
  5
39B
330
25
100
AcDbEntity
  8
1
  6
Continuous
 62
     0
100
AcDbLine
 10
11121.38562409431
 20
-4345.169282939742
 30
0.0
 11
11120.24276695145
 21
-4349.169282939742
 31
0.0
  0
LINE
  5
39A
330
25
100
AcDbEntity
  8
1
  6
Continuous
 62
     0
100
AcDbLine
 10
11105.30943361812
 20
-4345.169282939742
 30
0.0
 11
11105.30943361812
 21
-4349.169282939742
 31
0.0
  0
LINE
  5
399
330
25
100
AcDbEntity
  8
1
  6
Continuous
 62
     0
100
AcDbLine
 10
11105.30943361812
 20
-4349.169282939742
 30
0.0
 11
11133.30943361812
 21
-4349.169282939742
 31
0.0
  0
LINE
  5
398
330
25
100
AcDbEntity
  8
1
  6
Continuous
 62
     0
100
AcDbLine
 10
11133.30943361812
 20
-4349.169282939742
 30
0.0
 11
11133.30943361812
 21
-4345.169282939742
 31
0.0
  0
LINE
  5
397
330
25
100
AcDbEntity
  8
1
  6
Continuous
 62
     0
100
AcDbLine
 10
11112.38123038784
 20
-4358.097486170015
 30
0.0
 11
11112.38123038784
 21
-4349.169282939742
 31
0.0
  0
LINE
  5
396
330
25
100
AcDbEntity
  8
1
  6
Continuous
 62
     0
100
AcDbLine
 10
11126.23763684839
 20
-4358.097486170015
 30
0.0
 11
11126.23763684839
 21
-4349.169282939742
 31
0.0
  0
LINE
  5
395
330
25
100
AcDbEntity
  8
1
  6
Continuous
 62
     0
100
AcDbLine
 10
11105.45302715757
 20
-4349.169282939742
 30
0.0
 11
11105.45302715757
 21
-4358.097486170015
 31
0.0
  0
LINE
  5
394
330
25
100
AcDbEntity
  8
1
  6
Continuous
 62
     0
100
AcDbLine
 10
11107.30943361812
 20
-4359.169282939742
 30
0.0
 11
11131.30943361812
 21
-4359.169282939742
 31
0.0
  0
LINE
  5
393
330
25
100
AcDbEntity
  8
1
  6
Continuous
 62
     0
100
AcDbLine
 10
11133.16584007867
 20
-4358.097486170015
 30
0.0
 11
11133.16584007867
 21
-4349.169282939742
 31
0.0
  0
LINE
  5
392
330
25
100
AcDbEntity
  8
1
  6
Continuous
 62
     0
100
AcDbLine
 10
11131.30943361812
 20
-4359.169282939742
 30
0.0
 11
11133.16584007867
 21
-4358.097486170015
 31
0.0
  0
LINE
  5
391
330
25
100
AcDbEntity
  8
1
  6
Continuous
 62
     0
100
AcDbLine
 10
11105.45302715757
 20
-4358.097486170015
 30
0.0
 11
11107.30943361812
 21
-4359.169282939742
 31
0.0
  0
LINE
  5
390
330
25
100
AcDbEntity
  8
1
  6
Continuous
 62
     0
100
AcDbLine
 10
11098.05190440007
 20
-4320.305719842267
 30
0.0
 11
11098.05190440007
 21
-4342.169282939742
 31
0.0
  0
LINE
  5
38F
330
25
100
AcDbEntity
  8
1
  6
Continuous
 62
     0
100
AcDbLine
 10
11256.05190440007
 20
-4320.298903297653
 30
0.0
 11
11256.05190440007
 21
-4342.169282939742
 31
0.0
  0
LINE
  5
38D
330
25
100
AcDbEntity
  8
1
  6
Continuous
 62
     0
100
AcDbLine
 10
11256.05190440007
 20
-4342.169282939742
 30
0.0
 11
11098.05190440007
 21
-4342.169282939742
 31
0.0
  0
LINE
  5
38C
330
25
100
AcDbEntity
  8
1
  6
Continuous
 62
     0
100
AcDbLine
 10
11256.05190440007
 20
-4332.169282939742
 30
0.0
 11
11098.05190440007
 21
-4332.169282939742
 31
0.0
  0
LINE
  5
389
330
25
100
AcDbEntity
  8
1
  6
Continuous
 62
     0
100
AcDbLine
 10
10568.05190440007
 20
-3725.66928293974
 30
0.0
 11
10586.05190440007
 21
-3725.66928293974
 31
0.0
  0
LINE
  5
388
330
25
100
AcDbEntity
  8
1
  6
Continuous
 62
     0
100
AcDbLine
 10
10586.05190440007
 20
-3725.66928293974
 30
0.0
 11
10586.05190440007
 21
-3910.66928293974
 31
0.0
  0
LINE
  5
387
330
25
100
AcDbEntity
  8
1
  6
Continuous
 62
     0
100
AcDbLine
 10
10586.05190440007
 20
-3910.66928293974
 30
0.0
 11
10568.05190440007
 21
-3910.66928293974
 31
0.0
  0
LINE
  5
386
330
25
100
AcDbEntity
  8
1
  6
Continuous
 62
     0
100
AcDbLine
 10
10568.05190440007
 20
-3910.66928293974
 30
0.0
 11
10568.05190440007
 21
-3725.66928293974
 31
0.0
  0
LINE
  5
385
330
25
100
AcDbEntity
  8
1
  6
Continuous
 62
     0
100
AcDbLine
 10
10586.05190440007
 20
-3773.619282939741
 30
0.0
 11
10670.05027904102
 21
-3773.619282939741
 31
0.0
  0
LINE
  5
384
330
25
100
AcDbEntity
  8
1
  6
Continuous
 62
     0
100
AcDbLine
 10
10586.05190440007
 20
-3862.71928293974
 30
0.0
 11
10670.03825531111
 21
-3862.719282939741
 31
0.0
  0
LINE
  5
383
330
25
100
AcDbEntity
  8
1
  6
Continuous
 62
     0
100
AcDbLine
 10
11684.06406184929
 20
-3862.71928293974
 30
0.0
 11
11768.05190440007
 21
-3862.71928293974
 31
0.0
  0
LINE
  5
382
330
25
100
AcDbEntity
  8
1
  6
Continuous
 62
     0
100
AcDbLine
 10
11684.11856145045
 20
-3773.619282939741
 30
0.0
 11
11768.05190440007
 21
-3773.619282939741
 31
0.0
  0
LINE
  5
381
330
25
100
AcDbEntity
  8
1
  6
Continuous
 62
     0
100
AcDbLine
 10
11786.05190440007
 20
-3725.66928293974
 30
0.0
 11
11786.05190440007
 21
-3910.66928293974
 31
0.0
  0
LINE
  5
380
330
25
100
AcDbEntity
  8
1
  6
Continuous
 62
     0
100
AcDbLine
 10
11786.05190440007
 20
-3910.66928293974
 30
0.0
 11
11768.05190440007
 21
-3910.66928293974
 31
0.0
  0
LINE
  5
37F
330
25
100
AcDbEntity
  8
1
  6
Continuous
 62
     0
100
AcDbLine
 10
11768.05190440007
 20
-3910.66928293974
 30
0.0
 11
11768.05190440007
 21
-3725.66928293974
 31
0.0
  0
LINE
  5
37E
330
25
100
AcDbEntity
  8
1
  6
Continuous
 62
     0
100
AcDbLine
 10
11768.05190440007
 20
-3725.66928293974
 30
0.0
 11
11786.05190440007
 21
-3725.66928293974
 31
0.0
  0
LINE
  5
374
330
25
100
AcDbEntity
  8
1
  6
DOTTED
 62
     0
100
AcDbLine
 10
14092.22688705659
 20
-2533.226364840712
 30
0.0
 11
14092.22688705659
 21
-2532.255489830161
 31
0.0
  0
LINE
  5
373
330
25
100
AcDbEntity
  8
1
  6
DOTTED
 62
     0
100
AcDbLine
 10
14118.62688705659
 20
-2533.226364840712
 30
0.0
 11
14118.62688705659
 21
-2532.255489830161
 31
0.0
  0
LINE
  5
372
330
25
100
AcDbEntity
  8
1
  6
Continuous
 62
     0
100
AcDbLine
 10
14092.22688705659
 20
-2542.351336467442
 30
0.0
 11
14092.22688705659
 21
-2533.226364840712
 31
0.0
  0
LINE
  5
371
330
25
100
AcDbEntity
  8
1
  6
Continuous
 62
     0
100
AcDbLine
 10
14118.62688705659
 20
-2542.351336467442
 30
0.0
 11
14118.62688705659
 21
-2533.226364840712
 31
0.0
  0
LINE
  5
370
330
25
100
AcDbEntity
  8
1
  6
Continuous
 62
     0
100
AcDbLine
 10
14092.22688705659
 20
-2542.351336467442
 30
0.0
 11
14118.62688705659
 21
-2542.351336467442
 31
0.0
  0
LINE
  5
36F
330
25
100
AcDbEntity
  8
1
  6
Continuous
 62
     0
100
AcDbLine
 10
14107.92688705659
 20
-2590.406029978582
 30
0.0
 11
14107.92688705659
 21
-2585.225296439787
 31
0.0
  0
LINE
  5
36E
330
25
100
AcDbEntity
  8
1
  6
Continuous
 62
     0
100
AcDbLine
 10
14102.92688705659
 20
-2590.406029978582
 30
0.0
 11
14102.92688705659
 21
-2585.225296439787
 31
0.0
  0
LINE
  5
36D
330
25
100
AcDbEntity
  8
1
  6
Continuous
 62
     0
100
AcDbLine
 10
14112.92688705659
 20
-2587.815663209183
 30
0.0
 11
14116.52688705659
 21
-2587.815663209183
 31
0.0
  0
LINE
  5
36C
330
25
100
AcDbEntity
  8
1
  6
Continuous
 62
     0
100
AcDbLine
 10
14105.42688705659
 20
-2580.315663209183
 30
0.0
 11
14097.2051271929
 21
-2580.315663209183
 31
0.0
  0
LINE
  5
36B
330
25
100
AcDbEntity
  8
1
  6
Continuous
 62
     0
100
AcDbLine
 10
14096.67688705659
 20
-2575.815663209182
 30
0.0
 11
14096.67688705659
 21
-2578.201220947668
 31
0.0
  0
LINE
  5
36A
330
25
100
AcDbEntity
  8
1
  6
Continuous
 62
     0
100
AcDbLine
 10
14098.67688705659
 20
-2573.815663209182
 30
0.0
 11
14099.67688705659
 21
-2573.815663209182
 31
0.0
  0
LINE
  5
367
330
25
100
AcDbEntity
  8
1
  6
Continuous
 62
     0
100
AcDbLine
 10
14098.49868382632
 20
-2587.815663209183
 30
0.0
 11
14101.96278544146
 21
-2593.815663209183
 31
0.0
  0
LINE
  5
366
330
25
100
AcDbEntity
  8
1
  6
Continuous
 62
     0
100
AcDbLine
 10
14101.96278544146
 20
-2581.815663209183
 30
0.0
 11
14098.49868382632
 21
-2587.815663209183
 31
0.0
  0
LINE
  5
365
330
25
100
AcDbEntity
  8
1
  6
Continuous
 62
     0
100
AcDbLine
 10
14108.89098867173
 20
-2581.815663209183
 30
0.0
 11
14101.96278544146
 21
-2581.815663209183
 31
0.0
  0
LINE
  5
364
330
25
100
AcDbEntity
  8
1
  6
Continuous
 62
     0
100
AcDbLine
 10
14112.35509028687
 20
-2587.815663209183
 30
0.0
 11
14108.89098867173
 21
-2581.815663209183
 31
0.0
  0
LINE
  5
363
330
25
100
AcDbEntity
  8
1
  6
Continuous
 62
     0
100
AcDbLine
 10
14108.89098867173
 20
-2593.815663209183
 30
0.0
 11
14112.35509028687
 21
-2587.815663209183
 31
0.0
  0
LINE
  5
362
330
25
100
AcDbEntity
  8
1
  6
Continuous
 62
     0
100
AcDbLine
 10
14101.96278544146
 20
-2593.815663209183
 30
0.0
 11
14108.89098867173
 21
-2593.815663209183
 31
0.0
  0
LINE
  5
361
330
25
100
AcDbEntity
  8
1
  6
Continuous
 62
     0
100
AcDbLine
 10
14112.1858313772
 20
-2616.815663209182
 30
0.0
 11
14092.92688705659
 21
-2616.815663209182
 31
0.0
  0
LINE
  5
360
330
25
100
AcDbEntity
  8
1
  6
Continuous
 62
     0
100
AcDbLine
 10
14111.17688705659
 20
-2560.315663209182
 30
0.0
 11
14117.92688705659
 21
-2560.315663209183
 31
0.0
  0
LINE
  5
35F
330
25
100
AcDbEntity
  8
1
  6
Continuous
 62
     0
100
AcDbLine
 10
14093.92688705659
 20
-2580.865663209183
 30
0.0
 11
14094.44134966791
 21
-2580.865663209183
 31
0.0
  0
LINE
  5
35E
330
25
100
AcDbEntity
  8
1
  6
Continuous
 62
     0
100
AcDbLine
 10
14075.42688705659
 20
-2582.065663209183
 30
0.0
 11
14092.58408751755
 21
-2582.065663209183
 31
0.0
  0
LINE
  5
35D
330
25
100
AcDbEntity
  8
1
  6
Continuous
 62
     0
100
AcDbLine
 10
14092.58408751755
 20
-2593.565663209183
 30
0.0
 11
14075.42688705659
 21
-2593.565663209183
 31
0.0
  0
LINE
  5
35C
330
25
100
AcDbEntity
  8
1
  6
Continuous
 62
     0
100
AcDbLine
 10
14135.42688705659
 20
-2593.565663209183
 30
0.0
 11
14118.26968659563
 21
-2593.565663209183
 31
0.0
  0
LINE
  5
35B
330
25
100
AcDbEntity
  8
1
  6
Continuous
 62
     0
100
AcDbLine
 10
14135.42688705659
 20
-2582.065663209183
 30
0.0
 11
14118.26968659563
 21
-2582.065663209183
 31
0.0
  0
LINE
  5
35A
330
25
100
AcDbEntity
  8
1
  6
Continuous
 62
     0
100
AcDbLine
 10
14093.92688705659
 20
-2581.753485382692
 30
0.0
 11
14093.92688705659
 21
-2580.865663209183
 31
0.0
  0
LINE
  5
359
330
25
100
AcDbEntity
  8
1
  6
Continuous
 62
     0
100
AcDbLine
 10
14116.41312845209
 20
-2580.865663209183
 30
0.0
 11
14116.92688705659
 21
-2580.865663209183
 31
0.0
  0
LINE
  5
358
330
25
100
AcDbEntity
  8
1
  6
Continuous
 62
     0
100
AcDbLine
 10
14116.92688705659
 20
-2581.753485382692
 30
0.0
 11
14116.92688705659
 21
-2580.865663209183
 31
0.0
  0
LINE
  5
357
330
25
100
AcDbEntity
  8
1
  6
Continuous
 62
     0
100
AcDbLine
 10
14117.51681332266
 20
-2592.594123513613
 30
0.0
 11
14118.06064378634
 21
-2593.265663209182
 31
0.0
  0
LINE
  5
356
330
25
100
AcDbEntity
  8
1
  6
Continuous
 62
     0
100
AcDbLine
 10
14075.42688705659
 20
-2582.065663209183
 30
0.0
 11
14075.42688705659
 21
-2593.565663209183
 31
0.0
  0
LINE
  5
355
330
25
100
AcDbEntity
  8
1
  6
Continuous
 62
     0
100
AcDbLine
 10
14135.42688705659
 20
-2582.065663209183
 30
0.0
 11
14135.42688705659
 21
-2593.565663209183
 31
0.0
  0
LINE
  5
354
330
25
100
AcDbEntity
  8
1
  6
Continuous
 62
     0
100
AcDbLine
 10
14092.79313032685
 20
-2593.265663209182
 30
0.0
 11
14092.79313032685
 21
-2606.892887693108
 31
0.0
  0
LINE
  5
353
330
25
100
AcDbEntity
  8
1
  6
Continuous
 62
     0
100
AcDbLine
 10
14118.06064378634
 20
-2579.465663209182
 30
0.0
 11
14118.06064378634
 21
-2570.238438725262
 31
0.0
  0
LINE
  5
352
330
25
100
AcDbEntity
  8
1
  6
Continuous
 62
     0
100
AcDbLine
 10
14116.92688705659
 20
-2580.865663209183
 30
0.0
 11
14118.06064378634
 21
-2579.465663209182
 31
0.0
  0
LINE
  5
351
330
25
100
AcDbEntity
  8
1
  6
Continuous
 62
     0
100
AcDbLine
 10
14092.79313032685
 20
-2593.265663209182
 30
0.0
 11
14093.33696079052
 21
-2592.59412351361
 31
0.0
  0
LINE
  5
350
330
25
100
AcDbEntity
  8
1
  6
Continuous
 62
     0
100
AcDbLine
 10
14092.79313032685
 20
-2579.465663209182
 30
0.0
 11
14093.92688705659
 21
-2580.865663209183
 31
0.0
  0
LINE
  5
34F
330
25
100
AcDbEntity
  8
1
  6
Continuous
 62
     0
100
AcDbLine
 10
14118.06064378634
 20
-2606.892887693108
 30
0.0
 11
14118.06064378634
 21
-2593.265663209182
 31
0.0
  0
LINE
  5
34E
330
25
100
AcDbEntity
  8
1
  6
Continuous
 62
     0
100
AcDbLine
 10
14092.79313032685
 20
-2570.238438725259
 30
0.0
 11
14092.79313032685
 21
-2579.465663209182
 31
0.0
  0
LINE
  5
34D
330
25
100
AcDbEntity
  8
1
  6
Continuous
 62
     0
100
AcDbLine
 10
14118.06064378634
 20
-2606.892887693108
 30
0.0
 11
14119.86064378634
 21
-2607.932118177648
 31
0.0
  0
LINE
  5
34C
330
25
100
AcDbEntity
  8
1
  6
Continuous
 62
     0
100
AcDbLine
 10
14090.99313032685
 20
-2607.932118177648
 30
0.0
 11
14092.79313032685
 21
-2606.892887693108
 31
0.0
  0
LINE
  5
34B
330
25
100
AcDbEntity
  8
1
  6
Continuous
 62
     0
100
AcDbLine
 10
14092.79313032685
 20
-2570.238438725259
 30
0.0
 11
14090.99313032685
 21
-2569.199208240722
 31
0.0
  0
LINE
  5
34A
330
25
100
AcDbEntity
  8
1
  6
Continuous
 62
     0
100
AcDbLine
 10
14119.86064378634
 20
-2569.199208240722
 30
0.0
 11
14118.06064378634
 21
-2570.238438725262
 31
0.0
  0
LINE
  5
349
330
25
100
AcDbEntity
  8
1
  6
Continuous
 62
     0
100
AcDbLine
 10
14098.21000869172
 20
-2561.432118177645
 30
0.0
 11
14098.21000869172
 21
-2573.870920400372
 31
0.0
  0
LINE
  5
348
330
25
100
AcDbEntity
  8
1
  6
Continuous
 62
     0
100
AcDbLine
 10
14112.64376542147
 20
-2561.432118177645
 30
0.0
 11
14112.64376542147
 21
-2577.002862153644
 31
0.0
  0
LINE
  5
347
330
25
100
AcDbEntity
  8
1
  6
Continuous
 62
     0
100
AcDbLine
 10
14090.99313032685
 20
-2561.432118177645
 30
0.0
 11
14090.99313032685
 21
-2569.199208240722
 31
0.0
  0
LINE
  5
346
330
25
100
AcDbEntity
  8
1
  6
Continuous
 62
     0
100
AcDbLine
 10
14092.92688705659
 20
-2560.315663209182
 30
0.0
 11
14111.77305237918
 21
-2560.315663209182
 31
0.0
  0
LINE
  5
345
330
25
100
AcDbEntity
  8
1
  6
Continuous
 62
     0
100
AcDbLine
 10
14119.86064378634
 20
-2561.432118177645
 30
0.0
 11
14119.86064378634
 21
-2569.199208240722
 31
0.0
  0
LINE
  5
344
330
25
100
AcDbEntity
  8
1
  6
Continuous
 62
     0
100
AcDbLine
 10
14090.99313032685
 20
-2561.432118177645
 30
0.0
 11
14092.92688705659
 21
-2560.315663209182
 31
0.0
  0
LINE
  5
343
330
25
100
AcDbEntity
  8
1
  6
Continuous
 62
     0
100
AcDbLine
 10
14117.92688705659
 20
-2560.315663209183
 30
0.0
 11
14119.86064378634
 21
-2561.432118177645
 31
0.0
  0
LINE
  5
342
330
25
100
AcDbEntity
  8
1
  6
Continuous
 62
     0
100
AcDbLine
 10
14098.21000869172
 20
-2615.699208240719
 30
0.0
 11
14098.21000869172
 21
-2598.628464264723
 31
0.0
  0
LINE
  5
341
330
25
100
AcDbEntity
  8
1
  6
Continuous
 62
     0
100
AcDbLine
 10
14112.64376542147
 20
-2615.699208240719
 30
0.0
 11
14112.64376542147
 21
-2598.628464264723
 31
0.0
  0
LINE
  5
340
330
25
100
AcDbEntity
  8
1
  6
Continuous
 62
     0
100
AcDbLine
 10
14090.99313032685
 20
-2615.699208240719
 30
0.0
 11
14090.99313032685
 21
-2607.932118177648
 31
0.0
  0
LINE
  5
33F
330
25
100
AcDbEntity
  8
1
  6
Continuous
 62
     0
100
AcDbLine
 10
14117.92688705659
 20
-2616.815663209182
 30
0.0
 11
14111.17688705659
 21
-2616.815663209182
 31
0.0
  0
LINE
  5
33E
330
25
100
AcDbEntity
  8
1
  6
Continuous
 62
     0
100
AcDbLine
 10
14119.86064378634
 20
-2615.699208240719
 30
0.0
 11
14119.86064378634
 21
-2607.932118177648
 31
0.0
  0
LINE
  5
33D
330
25
100
AcDbEntity
  8
1
  6
Continuous
 62
     0
100
AcDbLine
 10
14092.92688705659
 20
-2616.815663209182
 30
0.0
 11
14090.99313032685
 21
-2615.699208240719
 31
0.0
  0
LINE
  5
33C
330
25
100
AcDbEntity
  8
1
  6
Continuous
 62
     0
100
AcDbLine
 10
14119.86064378634
 20
-2615.699208240719
 30
0.0
 11
14117.92688705659
 21
-2616.815663209182
 31
0.0
  0
LINE
  5
33B
330
25
100
AcDbEntity
  8
1
  6
Continuous
 62
     0
100
AcDbLine
 10
14092.22688705659
 20
-2542.635663209183
 30
0.0
 11
14118.62688705659
 21
-2542.635663209183
 31
0.0
  0
LINE
  5
33A
330
25
100
AcDbEntity
  8
1
  6
Continuous
 62
     0
100
AcDbLine
 10
14094.94938705659
 20
-2560.315663209183
 30
0.0
 11
14094.57688705659
 21
-2552.975663209183
 31
0.0
  0
LINE
  5
339
330
25
100
AcDbEntity
  8
1
  6
Continuous
 62
     0
100
AcDbLine
 10
14115.90438705659
 20
-2560.315663209183
 30
0.0
 11
14116.27688705659
 21
-2552.975663209183
 31
0.0
  0
LINE
  5
338
330
25
100
AcDbEntity
  8
1
  6
Continuous
 62
     0
100
AcDbLine
 10
14116.27688705659
 20
-2549.975663209183
 30
0.0
 11
14115.90438705659
 21
-2542.635663209183
 31
0.0
  0
LINE
  5
337
330
25
100
AcDbEntity
  8
1
  6
Continuous
 62
     0
100
AcDbLine
 10
14094.57688705659
 20
-2549.975663209183
 30
0.0
 11
14094.94938705659
 21
-2542.635663209183
 31
0.0
  0
LINE
  5
336
330
25
100
AcDbEntity
  8
1
  6
Continuous
 62
     0
100
AcDbLine
 10
14094.57688705659
 20
-2549.975663209183
 30
0.0
 11
14094.57688705659
 21
-2552.975663209183
 31
0.0
  0
LINE
  5
335
330
25
100
AcDbEntity
  8
1
  6
Continuous
 62
     0
100
AcDbLine
 10
14116.27688705659
 20
-2552.975663209183
 30
0.0
 11
14094.57688705659
 21
-2552.975663209183
 31
0.0
  0
LINE
  5
334
330
25
100
AcDbEntity
  8
1
  6
Continuous
 62
     0
100
AcDbLine
 10
14094.57688705659
 20
-2549.975663209183
 30
0.0
 11
14116.27688705659
 21
-2549.975663209183
 31
0.0
  0
LINE
  5
333
330
25
100
AcDbEntity
  8
1
  6
Continuous
 62
     0
100
AcDbLine
 10
14116.27688705659
 20
-2549.975663209183
 30
0.0
 11
14116.27688705659
 21
-2552.975663209183
 31
0.0
  0
LINE
  5
332
330
25
100
AcDbEntity
  8
1
  6
Continuous
 62
     0
100
AcDbLine
 10
14092.92688705659
 20
-2560.315663209182
 30
0.0
 11
14117.92688705659
 21
-2560.315663209183
 31
0.0
  0
LINE
  5
32F
330
25
100
AcDbEntity
  8
1
  6
DOTTED
 62
     0
100
AcDbLine
 10
14092.22688705659
 20
-2533.510691582453
 30
0.0
 11
14092.22688705659
 21
-2532.539816571902
 31
0.0
  0
LINE
  5
32E
330
25
100
AcDbEntity
  8
1
  6
DOTTED
 62
     0
100
AcDbLine
 10
14118.62688705659
 20
-2533.510691582453
 30
0.0
 11
14118.62688705659
 21
-2532.539816571902
 31
0.0
  0
LINE
  5
32D
330
25
100
AcDbEntity
  8
1
  6
Continuous
 62
     0
100
AcDbLine
 10
14092.22688705659
 20
-2542.635663209183
 30
0.0
 11
14092.22688705659
 21
-2533.510691582453
 31
0.0
  0
LINE
  5
32C
330
25
100
AcDbEntity
  8
1
  6
Continuous
 62
     0
100
AcDbLine
 10
14118.62688705659
 20
-2542.635663209183
 30
0.0
 11
14118.62688705659
 21
-2533.510691582453
 31
0.0
  0
LINE
  5
32B
330
25
100
AcDbEntity
  8
1
  6
Continuous
 62
     0
100
AcDbLine
 10
14092.22688705659
 20
-2542.635663209183
 30
0.0
 11
14118.62688705659
 21
-2542.635663209183
 31
0.0
  0
LINE
  5
32A
330
25
100
AcDbEntity
  8
1
  6
Continuous
 62
     0
100
AcDbLine
 10
14645.35509028687
 20
-2180.950213709948
 30
0.0
 11
14646.42688705659
 21
-2179.093807249397
 31
0.0
  0
LINE
  5
329
330
25
100
AcDbEntity
  8
1
  6
Continuous
 62
     0
100
AcDbLine
 10
14646.42688705659
 20
-2155.093807249397
 30
0.0
 11
14645.35509028687
 21
-2153.237400788847
 31
0.0
  0
LINE
  5
328
330
25
100
AcDbEntity
  8
1
  6
Continuous
 62
     0
100
AcDbLine
 10
14645.35509028687
 20
-2153.237400788847
 30
0.0
 11
14636.42688705659
 21
-2153.237400788847
 31
0.0
  0
LINE
  5
327
330
25
100
AcDbEntity
  8
1
  6
Continuous
 62
     0
100
AcDbLine
 10
14646.42688705659
 20
-2179.093807249397
 30
0.0
 11
14646.42688705659
 21
-2155.093807249397
 31
0.0
  0
LINE
  5
326
330
25
100
AcDbEntity
  8
1
  6
Continuous
 62
     0
100
AcDbLine
 10
14636.42688705659
 20
-2180.950213709948
 30
0.0
 11
14645.35509028687
 21
-2180.950213709948
 31
0.0
  0
LINE
  5
325
330
25
100
AcDbEntity
  8
1
  6
Continuous
 62
     0
100
AcDbLine
 10
14645.35509028687
 20
-2160.165604019122
 30
0.0
 11
14636.42688705659
 21
-2160.165604019122
 31
0.0
  0
LINE
  5
324
330
25
100
AcDbEntity
  8
1
  6
Continuous
 62
     0
100
AcDbLine
 10
14645.35509028687
 20
-2174.022010479673
 30
0.0
 11
14636.42688705659
 21
-2174.022010479673
 31
0.0
  0
LINE
  5
323
330
25
100
AcDbEntity
  8
1
  6
Continuous
 62
     0
100
AcDbLine
 10
14636.42688705659
 20
-2153.093807249397
 30
0.0
 11
14632.42688705659
 21
-2153.093807249397
 31
0.0
  0
LINE
  5
322
330
25
100
AcDbEntity
  8
1
  6
Continuous
 62
     0
100
AcDbLine
 10
14636.42688705659
 20
-2181.093807249397
 30
0.0
 11
14636.42688705659
 21
-2153.093807249397
 31
0.0
  0
LINE
  5
321
330
25
100
AcDbEntity
  8
1
  6
Continuous
 62
     0
100
AcDbLine
 10
14632.42688705659
 20
-2181.093807249397
 30
0.0
 11
14636.42688705659
 21
-2181.093807249397
 31
0.0
  0
LINE
  5
320
330
25
100
AcDbEntity
  8
1
  6
Continuous
 62
     0
100
AcDbLine
 10
14632.42688705659
 20
-2165.017616773207
 30
0.0
 11
14636.42688705659
 21
-2166.160473916064
 31
0.0
  0
LINE
  5
31F
330
25
100
AcDbEntity
  8
1
  6
Continuous
 62
     0
100
AcDbLine
 10
14632.42688705659
 20
-2168.027140582731
 30
0.0
 11
14636.42688705659
 21
-2169.169997725588
 31
0.0
  0
LINE
  5
31E
330
25
100
AcDbEntity
  8
1
  6
Continuous
 62
     0
100
AcDbLine
 10
14632.42688705659
 20
-2152.093807249397
 30
0.0
 11
14629.42688705659
 21
-2152.093807249397
 31
0.0
  0
LINE
  5
31D
330
25
100
AcDbEntity
  8
1
  6
Continuous
 62
     0
100
AcDbLine
 10
14632.42688705659
 20
-2182.093807249397
 30
0.0
 11
14632.42688705659
 21
-2152.093807249397
 31
0.0
  0
LINE
  5
31C
330
25
100
AcDbEntity
  8
1
  6
Continuous
 62
     0
100
AcDbLine
 10
14629.42688705659
 20
-2182.093807249397
 30
0.0
 11
14632.42688705659
 21
-2182.093807249397
 31
0.0
  0
LINE
  5
31B
330
25
100
AcDbEntity
  8
1
  6
Continuous
 62
     0
100
AcDbLine
 10
14629.42688705659
 20
-2152.093807249397
 30
0.0
 11
14629.42688705659
 21
-2182.093807249397
 31
0.0
  0
LINE
  5
318
330
25
100
AcDbEntity
  8
1
  6
Continuous
 62
     0
100
AcDbLine
 10
14629.42688705659
 20
-2118.269050990259
 30
0.0
 11
14629.42688705659
 21
-2148.269050990259
 31
0.0
  0
LINE
  5
317
330
25
100
AcDbEntity
  8
1
  6
Continuous
 62
     0
100
AcDbLine
 10
14629.42688705659
 20
-2148.269050990259
 30
0.0
 11
14632.42688705659
 21
-2148.269050990259
 31
0.0
  0
LINE
  5
316
330
25
100
AcDbEntity
  8
1
  6
Continuous
 62
     0
100
AcDbLine
 10
14632.42688705659
 20
-2148.269050990259
 30
0.0
 11
14632.42688705659
 21
-2118.269050990259
 31
0.0
  0
LINE
  5
315
330
25
100
AcDbEntity
  8
1
  6
Continuous
 62
     0
100
AcDbLine
 10
14632.42688705659
 20
-2118.269050990259
 30
0.0
 11
14629.42688705659
 21
-2118.269050990259
 31
0.0
  0
LINE
  5
314
330
25
100
AcDbEntity
  8
1
  6
Continuous
 62
     0
100
AcDbLine
 10
14632.42688705659
 20
-2134.202384323593
 30
0.0
 11
14636.42688705659
 21
-2135.345241466451
 31
0.0
  0
LINE
  5
313
330
25
100
AcDbEntity
  8
1
  6
Continuous
 62
     0
100
AcDbLine
 10
14632.42688705659
 20
-2131.192860514069
 30
0.0
 11
14636.42688705659
 21
-2132.335717656927
 31
0.0
  0
LINE
  5
312
330
25
100
AcDbEntity
  8
1
  6
Continuous
 62
     0
100
AcDbLine
 10
14632.42688705659
 20
-2147.269050990259
 30
0.0
 11
14636.42688705659
 21
-2147.269050990259
 31
0.0
  0
LINE
  5
311
330
25
100
AcDbEntity
  8
1
  6
Continuous
 62
     0
100
AcDbLine
 10
14636.42688705659
 20
-2147.269050990259
 30
0.0
 11
14636.42688705659
 21
-2119.269050990259
 31
0.0
  0
LINE
  5
310
330
25
100
AcDbEntity
  8
1
  6
Continuous
 62
     0
100
AcDbLine
 10
14636.42688705659
 20
-2119.269050990259
 30
0.0
 11
14632.42688705659
 21
-2119.269050990259
 31
0.0
  0
LINE
  5
30F
330
25
100
AcDbEntity
  8
1
  6
Continuous
 62
     0
100
AcDbLine
 10
14645.35509028687
 20
-2140.197254220536
 30
0.0
 11
14636.42688705659
 21
-2140.197254220536
 31
0.0
  0
LINE
  5
30E
330
25
100
AcDbEntity
  8
1
  6
Continuous
 62
     0
100
AcDbLine
 10
14645.35509028687
 20
-2126.340847759984
 30
0.0
 11
14636.42688705659
 21
-2126.340847759984
 31
0.0
  0
LINE
  5
30D
330
25
100
AcDbEntity
  8
1
  6
Continuous
 62
     0
100
AcDbLine
 10
14636.42688705659
 20
-2147.125457450811
 30
0.0
 11
14645.35509028687
 21
-2147.125457450811
 31
0.0
  0
LINE
  5
30C
330
25
100
AcDbEntity
  8
1
  6
Continuous
 62
     0
100
AcDbLine
 10
14646.42688705659
 20
-2145.269050990259
 30
0.0
 11
14646.42688705659
 21
-2121.269050990259
 31
0.0
  0
LINE
  5
30B
330
25
100
AcDbEntity
  8
1
  6
Continuous
 62
     0
100
AcDbLine
 10
14645.35509028687
 20
-2119.412644529709
 30
0.0
 11
14636.42688705659
 21
-2119.412644529709
 31
0.0
  0
LINE
  5
30A
330
25
100
AcDbEntity
  8
1
  6
Continuous
 62
     0
100
AcDbLine
 10
14646.42688705659
 20
-2121.269050990259
 30
0.0
 11
14645.35509028687
 21
-2119.412644529709
 31
0.0
  0
LINE
  5
309
330
25
100
AcDbEntity
  8
1
  6
Continuous
 62
     0
100
AcDbLine
 10
14645.35509028687
 20
-2147.125457450811
 30
0.0
 11
14646.42688705659
 21
-2145.269050990259
 31
0.0
  0
LINE
  5
308
330
25
100
AcDbEntity
  8
1
  6
Continuous
 62
     0
100
AcDbLine
 10
14646.42688705659
 20
-2073.433621944623
 30
0.0
 11
14645.35509028687
 21
-2071.577215484072
 31
0.0
  0
LINE
  5
307
330
25
100
AcDbEntity
  8
1
  6
Continuous
 62
     0
100
AcDbLine
 10
14645.35509028687
 20
-2099.290028405175
 30
0.0
 11
14646.42688705659
 21
-2097.433621944623
 31
0.0
  0
LINE
  5
306
330
25
100
AcDbEntity
  8
1
  6
Continuous
 62
     0
100
AcDbLine
 10
14636.42688705659
 20
-2099.290028405175
 30
0.0
 11
14645.35509028687
 21
-2099.290028405175
 31
0.0
  0
LINE
  5
305
330
25
100
AcDbEntity
  8
1
  6
Continuous
 62
     0
100
AcDbLine
 10
14646.42688705659
 20
-2097.433621944623
 30
0.0
 11
14646.42688705659
 21
-2073.433621944623
 31
0.0
  0
LINE
  5
304
330
25
100
AcDbEntity
  8
1
  6
Continuous
 62
     0
100
AcDbLine
 10
14645.35509028687
 20
-2071.577215484072
 30
0.0
 11
14636.42688705659
 21
-2071.577215484072
 31
0.0
  0
LINE
  5
303
330
25
100
AcDbEntity
  8
1
  6
Continuous
 62
     0
100
AcDbLine
 10
14636.42688705659
 20
-2092.361825174899
 30
0.0
 11
14645.35509028687
 21
-2092.361825174899
 31
0.0
  0
LINE
  5
302
330
25
100
AcDbEntity
  8
1
  6
Continuous
 62
     0
100
AcDbLine
 10
14636.42688705659
 20
-2078.505418714348
 30
0.0
 11
14645.35509028687
 21
-2078.505418714348
 31
0.0
  0
LINE
  5
301
330
25
100
AcDbEntity
  8
1
  6
Continuous
 62
     0
100
AcDbLine
 10
14632.42688705659
 20
-2099.433621944623
 30
0.0
 11
14636.42688705659
 21
-2099.433621944623
 31
0.0
  0
LINE
  5
300
330
25
100
AcDbEntity
  8
1
  6
Continuous
 62
     0
100
AcDbLine
 10
14636.42688705659
 20
-2099.433621944623
 30
0.0
 11
14636.42688705659
 21
-2071.433621944623
 31
0.0
  0
LINE
  5
2FF
330
25
100
AcDbEntity
  8
1
  6
Continuous
 62
     0
100
AcDbLine
 10
14636.42688705659
 20
-2071.433621944623
 30
0.0
 11
14632.42688705659
 21
-2071.433621944623
 31
0.0
  0
LINE
  5
2FE
330
25
100
AcDbEntity
  8
1
  6
Continuous
 62
     0
100
AcDbLine
 10
14636.42688705659
 20
-2086.366955277957
 30
0.0
 11
14632.42688705659
 21
-2087.509812420813
 31
0.0
  0
LINE
  5
2FD
330
25
100
AcDbEntity
  8
1
  6
Continuous
 62
     0
100
AcDbLine
 10
14636.42688705659
 20
-2083.357431468433
 30
0.0
 11
14632.42688705659
 21
-2084.500288611291
 31
0.0
  0
LINE
  5
2FC
330
25
100
AcDbEntity
  8
1
  6
Continuous
 62
     0
100
AcDbLine
 10
14629.42688705659
 20
-2100.433621944623
 30
0.0
 11
14632.42688705659
 21
-2100.433621944623
 31
0.0
  0
LINE
  5
2FB
330
25
100
AcDbEntity
  8
1
  6
Continuous
 62
     0
100
AcDbLine
 10
14632.42688705659
 20
-2100.433621944623
 30
0.0
 11
14632.42688705659
 21
-2070.433621944623
 31
0.0
  0
LINE
  5
2FA
330
25
100
AcDbEntity
  8
1
  6
Continuous
 62
     0
100
AcDbLine
 10
14632.42688705659
 20
-2070.433621944623
 30
0.0
 11
14629.42688705659
 21
-2070.433621944623
 31
0.0
  0
LINE
  5
2F9
330
25
100
AcDbEntity
  8
1
  6
Continuous
 62
     0
100
AcDbLine
 10
14629.42688705659
 20
-2070.433621944623
 30
0.0
 11
14629.42688705659
 21
-2100.433621944623
 31
0.0
  0
LINE
  5
2F6
330
25
100
AcDbEntity
  8
1
  6
Continuous
 62
     0
100
AcDbLine
 10
14629.42688705659
 20
-2036.608865685486
 30
0.0
 11
14629.42688705659
 21
-2066.608865685486
 31
0.0
  0
LINE
  5
2F5
330
25
100
AcDbEntity
  8
1
  6
Continuous
 62
     0
100
AcDbLine
 10
14632.42688705659
 20
-2036.608865685486
 30
0.0
 11
14629.42688705659
 21
-2036.608865685486
 31
0.0
  0
LINE
  5
2F4
330
25
100
AcDbEntity
  8
1
  6
Continuous
 62
     0
100
AcDbLine
 10
14632.42688705659
 20
-2066.608865685486
 30
0.0
 11
14632.42688705659
 21
-2036.608865685486
 31
0.0
  0
LINE
  5
2F3
330
25
100
AcDbEntity
  8
1
  6
Continuous
 62
     0
100
AcDbLine
 10
14629.42688705659
 20
-2066.608865685486
 30
0.0
 11
14632.42688705659
 21
-2066.608865685486
 31
0.0
  0
LINE
  5
2F2
330
25
100
AcDbEntity
  8
1
  6
Continuous
 62
     0
100
AcDbLine
 10
14636.42688705659
 20
-2049.532675209296
 30
0.0
 11
14632.42688705659
 21
-2050.675532352153
 31
0.0
  0
LINE
  5
2F1
330
25
100
AcDbEntity
  8
1
  6
Continuous
 62
     0
100
AcDbLine
 10
14636.42688705659
 20
-2052.54219901882
 30
0.0
 11
14632.42688705659
 21
-2053.685056161677
 31
0.0
  0
LINE
  5
2F0
330
25
100
AcDbEntity
  8
1
  6
Continuous
 62
     0
100
AcDbLine
 10
14636.42688705659
 20
-2037.608865685486
 30
0.0
 11
14632.42688705659
 21
-2037.608865685486
 31
0.0
  0
LINE
  5
2EF
330
25
100
AcDbEntity
  8
1
  6
Continuous
 62
     0
100
AcDbLine
 10
14636.42688705659
 20
-2065.608865685486
 30
0.0
 11
14636.42688705659
 21
-2037.608865685486
 31
0.0
  0
LINE
  5
2EE
330
25
100
AcDbEntity
  8
1
  6
Continuous
 62
     0
100
AcDbLine
 10
14632.42688705659
 20
-2065.608865685486
 30
0.0
 11
14636.42688705659
 21
-2065.608865685486
 31
0.0
  0
LINE
  5
2ED
330
25
100
AcDbEntity
  8
1
  6
Continuous
 62
     0
100
AcDbLine
 10
14636.42688705659
 20
-2044.680662455211
 30
0.0
 11
14645.35509028687
 21
-2044.680662455211
 31
0.0
  0
LINE
  5
2EC
330
25
100
AcDbEntity
  8
1
  6
Continuous
 62
     0
100
AcDbLine
 10
14636.42688705659
 20
-2058.537068915762
 30
0.0
 11
14645.35509028687
 21
-2058.537068915762
 31
0.0
  0
LINE
  5
2EB
330
25
100
AcDbEntity
  8
1
  6
Continuous
 62
     0
100
AcDbLine
 10
14645.35509028687
 20
-2037.752459224936
 30
0.0
 11
14636.42688705659
 21
-2037.752459224936
 31
0.0
  0
LINE
  5
2EA
330
25
100
AcDbEntity
  8
1
  6
Continuous
 62
     0
100
AcDbLine
 10
14646.42688705659
 20
-2063.608865685486
 30
0.0
 11
14646.42688705659
 21
-2039.608865685486
 31
0.0
  0
LINE
  5
2E9
330
25
100
AcDbEntity
  8
1
  6
Continuous
 62
     0
100
AcDbLine
 10
14636.42688705659
 20
-2065.465272146037
 30
0.0
 11
14645.35509028687
 21
-2065.465272146037
 31
0.0
  0
LINE
  5
2E8
330
25
100
AcDbEntity
  8
1
  6
Continuous
 62
     0
100
AcDbLine
 10
14645.35509028687
 20
-2065.465272146037
 30
0.0
 11
14646.42688705659
 21
-2063.608865685486
 31
0.0
  0
LINE
  5
2E7
330
25
100
AcDbEntity
  8
1
  6
Continuous
 62
     0
100
AcDbLine
 10
14646.42688705659
 20
-2039.608865685486
 30
0.0
 11
14645.35509028687
 21
-2037.752459224936
 31
0.0
  0
LINE
  5
2E6
330
25
100
AcDbEntity
  8
1
  6
Continuous
 62
     0
100
AcDbLine
 10
14629.42688705659
 20
-2030.351336467442
 30
0.0
 11
14614.42688705659
 21
-2030.351336467442
 31
0.0
  0
LINE
  5
2E5
330
25
100
AcDbEntity
  8
1
  6
Continuous
 62
     0
100
AcDbLine
 10
14629.42688705659
 20
-2188.351336467442
 30
0.0
 11
14614.42688705659
 21
-2188.351336467442
 31
0.0
  0
LINE
  5
2E3
330
25
100
AcDbEntity
  8
1
  6
Continuous
 62
     0
100
AcDbLine
 10
14629.42688705659
 20
-2030.351336467442
 30
0.0
 11
14629.42688705659
 21
-2188.351336467442
 31
0.0
  0
LINE
  5
2E2
330
25
100
AcDbEntity
  8
1
  6
Continuous
 62
     0
100
AcDbLine
 10
14619.42688705659
 20
-2030.351336467442
 30
0.0
 11
14619.42688705659
 21
-2188.351336467442
 31
0.0
  0
LINE
  5
2E1
330
25
100
AcDbEntity
  8
1
  6
Continuous
 62
     0
100
AcDbLine
 10
13550.18688705659
 20
-802.544336467443
 30
0.0
 11
13561.30688705659
 21
-802.101336467443
 31
0.0
  0
LINE
  5
2E0
330
25
100
AcDbEntity
  8
1
  6
Continuous
 62
     0
100
AcDbLine
 10
13561.30688705659
 20
-862.601336467443
 30
0.0
 11
13550.18688705659
 21
-862.158336467443
 31
0.0
  0
LINE
  5
2DF
330
25
100
AcDbEntity
  8
1
  6
Continuous
 62
     0
100
AcDbLine
 10
13565.30688705659
 20
-802.101336467443
 30
0.0
 11
13576.42688705659
 21
-802.544336467443
 31
0.0
  0
LINE
  5
2DE
330
25
100
AcDbEntity
  8
1
  6
Continuous
 62
     0
100
AcDbLine
 10
13565.30688705659
 20
-862.601336467443
 30
0.0
 11
13576.42688705659
 21
-862.158336467443
 31
0.0
  0
LINE
  5
2DD
330
25
100
AcDbEntity
  8
1
  6
Continuous
 62
     0
100
AcDbLine
 10
13565.30688705659
 20
-802.101336467443
 30
0.0
 11
13561.30688705659
 21
-802.101336467443
 31
0.0
  0
LINE
  5
2DC
330
25
100
AcDbEntity
  8
1
  6
Continuous
 62
     0
100
AcDbLine
 10
13561.30688705659
 20
-862.601336467443
 30
0.0
 11
13565.30688705659
 21
-862.601336467443
 31
0.0
  0
LINE
  5
2DB
330
25
100
AcDbEntity
  8
1
  6
Continuous
 62
     0
100
AcDbLine
 10
13561.30688705659
 20
-862.601336467443
 30
0.0
 11
13561.30688705659
 21
-802.101336467443
 31
0.0
  0
LINE
  5
2DA
330
25
100
AcDbEntity
  8
1
  6
Continuous
 62
     0
100
AcDbLine
 10
13565.30688705659
 20
-802.101336467443
 30
0.0
 11
13565.30688705659
 21
-862.601336467443
 31
0.0
  0
LINE
  5
2D9
330
25
100
AcDbEntity
  8
1
  6
Continuous
 62
     0
100
AcDbLine
 10
13596.42688705659
 20
-799.201336467442
 30
0.0
 11
13576.42688705659
 21
-799.201336467442
 31
0.0
  0
LINE
  5
2D8
330
25
100
AcDbEntity
  8
1
  6
Continuous
 62
     0
100
AcDbLine
 10
13596.42688705659
 20
-865.501336467443
 30
0.0
 11
13576.42688705659
 21
-865.501336467443
 31
0.0
  0
LINE
  5
2D7
330
25
100
AcDbEntity
  8
1
  6
Continuous
 62
     0
100
AcDbLine
 10
13576.42688705659
 20
-865.501336467443
 30
0.0
 11
13576.42688705659
 21
-799.201336467442
 31
0.0
  0
LINE
  5
2D6
330
25
100
AcDbEntity
  8
1
  6
Continuous
 62
     0
100
AcDbLine
 10
14121.42688705659
 20
154.545337725782
 30
0.0
 11
14122.92688705659
 21
142.731390399197
 31
0.0
  0
LINE
  5
2D5
330
25
100
AcDbEntity
  8
1
  6
Continuous
 62
     0
100
AcDbLine
 10
14089.42688705659
 20
154.545337726416
 30
0.0
 11
14087.92688705659
 21
142.731390398562
 31
0.0
  0
LINE
  5
2D4
330
25
100
AcDbEntity
  8
1
  6
Continuous
 62
     0
100
AcDbLine
 10
14097.42688705659
 20
204.048351222086
 30
0.0
 11
14097.42688705659
 21
142.731327960488
 31
0.0
  0
LINE
  5
2D3
330
25
100
AcDbEntity
  8
1
  6
Continuous
 62
     0
100
AcDbLine
 10
14113.42688705659
 20
204.048351222086
 30
0.0
 11
14113.42688705659
 21
142.731327960488
 31
0.0
  0
LINE
  5
2D1
330
25
100
AcDbEntity
  8
1
  6
Continuous
 62
     0
100
AcDbLine
 10
14614.42688705659
 20
-2309.351336467443
 30
0.0
 11
13596.42688705659
 21
-2309.351336467443
 31
0.0
  0
LINE
  5
2D0
330
25
100
AcDbEntity
  8
1
  6
Continuous
 62
     0
100
AcDbLine
 10
13596.42688705659
 20
-56.351336467443
 30
0.0
 11
14614.42688705659
 21
-56.351336467443
 31
0.0
  0
LINE
  5
2CF
330
25
100
AcDbEntity
  8
1
  6
Continuous
 62
     0
100
AcDbLine
 10
13605.42688705659
 20
-2823.351336467443
 30
0.0
 11
14605.42688705659
 21
-2823.351336467443
 31
0.0
  0
LINE
  5
2CE
330
25
100
AcDbEntity
  8
1
  6
Continuous
 62
     0
100
AcDbLine
 10
14605.42688705659
 20
-2823.351336467443
 30
0.0
 11
14605.42688705659
 21
-2832.351336467443
 31
0.0
  0
LINE
  5
2CD
330
25
100
AcDbEntity
  8
1
  6
Continuous
 62
     0
100
AcDbLine
 10
14605.42688705659
 20
-2832.351336467443
 30
0.0
 11
13605.42688705659
 21
-2832.351336467443
 31
0.0
  0
LINE
  5
2CC
330
25
100
AcDbEntity
  8
1
  6
Continuous
 62
     0
100
AcDbLine
 10
13605.42688705659
 20
-2832.351336467443
 30
0.0
 11
13605.42688705659
 21
-2823.351336467443
 31
0.0
  0
LINE
  5
2CB
330
25
100
AcDbEntity
  8
1
  6
Continuous
 62
     0
100
AcDbLine
 10
13730.42688705659
 20
-2460.077550470232
 30
0.0
 11
14480.42688705659
 21
-2460.077550470232
 31
0.0
  0
LINE
  5
2CA
330
25
100
AcDbEntity
  8
1
  6
Continuous
 62
     0
100
AcDbLine
 10
14205.42688705659
 20
-2623.351336467443
 30
0.0
 11
14205.42688705659
 21
-2823.351336467443
 31
0.0
  0
LINE
  5
2C9
330
25
100
AcDbEntity
  8
1
  6
Continuous
 62
     0
100
AcDbLine
 10
14005.42688705659
 20
-2623.351336467443
 30
0.0
 11
14005.42688705659
 21
-2823.351336467443
 31
0.0
  0
LINE
  5
2C5
330
25
100
AcDbEntity
  8
1
  6
Continuous
 62
     0
100
AcDbLine
 10
13596.42688705659
 20
-56.351336467443
 30
0.0
 11
13596.42688705659
 21
-2026.901336467443
 31
0.0
  0
LINE
  5
2C4
330
25
100
AcDbEntity
  8
1
  6
Continuous
 62
     0
100
AcDbLine
 10
13596.42688705659
 20
-2309.351336467443
 30
0.0
 11
13596.42688705659
 21
-2026.901336467443
 31
0.0
  0
LINE
  5
2C1
330
25
100
AcDbEntity
  8
1
  6
Continuous
 62
     0
100
AcDbLine
 10
10944.04696391782
 20
152.806375487635
 30
0.0
 11
10968.76844779585
 21
158.286996516005
 31
0.0
  0
LINE
  5
2C0
330
25
100
AcDbEntity
  8
1
  6
Continuous
 62
     0
100
AcDbLine
 10
10975.65908354046
 20
146.815124925999
 30
0.0
 11
10972.65788073855
 21
156.641973605351
 31
0.0
  0
LINE
  5
2BF
330
25
100
AcDbEntity
  8
1
  6
Continuous
 62
     0
100
AcDbLine
 10
10940.10298347471
 20
149.424726639071
 30
0.0
 11
10941.53597571212
 21
139.250214047665
 31
0.0
  0
LINE
  5
2BE
330
25
100
AcDbEntity
  8
1
  6
Continuous
 62
     0
100
AcDbLine
 10
10941.53597571212
 20
139.250214047665
 30
0.0
 11
10941.57915381193
 21
138.943641472654
 31
0.0
  0
LINE
  5
2BD
330
25
100
AcDbEntity
  8
1
  6
Continuous
 62
     0
100
AcDbLine
 10
10955.41773972746
 20
157.375774823368
 30
0.0
 11
10942.07623152281
 21
152.672454800516
 31
0.0
  0
LINE
  5
2BC
330
25
100
AcDbEntity
  8
1
  6
Continuous
 62
     0
100
AcDbLine
 10
10975.74951406113
 20
146.519027960487
 30
0.0
 11
10975.65908354046
 21
146.815124925999
 31
0.0
  0
LINE
  5
2BB
330
25
100
AcDbEntity
  8
1
  6
Continuous
 62
     0
100
AcDbLine
 10
10969.49696143661
 20
158.751484268179
 30
0.0
 11
10955.41773972746
 21
157.375774823368
 31
0.0
  0
LINE
  5
2BA
330
25
100
AcDbEntity
  8
1
  6
Continuous
 62
     0
100
AcDbLine
 10
10941.57915381193
 20
138.943641472654
 30
0.0
 11
10975.74951406113
 21
146.519027960487
 31
0.0
  0
LINE
  5
2B9
330
25
100
AcDbEntity
  8
1
  6
Continuous
 62
     0
100
AcDbLine
 10
11378.35429473902
 20
146.519027960487
 30
0.0
 11
11412.52465498822
 21
138.943641472654
 31
0.0
  0
LINE
  5
2B8
330
25
100
AcDbEntity
  8
1
  6
Continuous
 62
     0
100
AcDbLine
 10
11398.68606907269
 20
157.375774823368
 30
0.0
 11
11384.60684736354
 21
158.751484268179
 31
0.0
  0
LINE
  5
2B7
330
25
100
AcDbEntity
  8
1
  6
Continuous
 62
     0
100
AcDbLine
 10
11378.44472525968
 20
146.815124925999
 30
0.0
 11
11378.35429473902
 21
146.519027960487
 31
0.0
  0
LINE
  5
2B6
330
25
100
AcDbEntity
  8
1
  6
Continuous
 62
     0
100
AcDbLine
 10
11412.02757727734
 20
152.672454800516
 30
0.0
 11
11398.68606907269
 21
157.375774823368
 31
0.0
  0
LINE
  5
2B5
330
25
100
AcDbEntity
  8
1
  6
Continuous
 62
     0
100
AcDbLine
 10
11412.52465498822
 20
138.943641472654
 30
0.0
 11
11412.56783308803
 21
139.250214047665
 31
0.0
  0
LINE
  5
2B4
330
25
100
AcDbEntity
  8
1
  6
Continuous
 62
     0
100
AcDbLine
 10
11412.56783308803
 20
139.250214047665
 30
0.0
 11
11414.00082532543
 21
149.424726639071
 31
0.0
  0
LINE
  5
2B3
330
25
100
AcDbEntity
  8
1
  6
Continuous
 62
     0
100
AcDbLine
 10
11381.4459280616
 20
156.641973605351
 30
0.0
 11
11378.44472525968
 21
146.815124925999
 31
0.0
  0
LINE
  5
2B2
330
25
100
AcDbEntity
  8
1
  6
Continuous
 62
     0
100
AcDbLine
 10
11385.3353610043
 20
158.286996516005
 30
0.0
 11
11410.05684488233
 21
152.806375487635
 31
0.0
  0
LINE
  5
2AB
330
25
100
AcDbEntity
  8
1
  6
Continuous
 62
     0
100
AcDbLine
 10
10668.05190440007
 20
-2309.351336467443
 30
0.0
 11
10668.05190440007
 21
-2026.901336467443
 31
0.0
  0
LINE
  5
2AA
330
25
100
AcDbEntity
  8
1
  6
Continuous
 62
     0
100
AcDbLine
 10
10668.05190440007
 20
-56.351336467443
 30
0.0
 11
10668.05190440007
 21
-1937.801336467443
 31
0.0
  0
LINE
  5
2A9
330
25
100
AcDbEntity
  8
1
  6
Continuous
 62
     0
100
AcDbLine
 10
11686.05190440007
 20
-2309.351336467443
 30
0.0
 11
11686.05190440007
 21
-876.901336467442
 31
0.0
  0
LINE
  5
2A8
330
25
100
AcDbEntity
  8
1
  6
Continuous
 62
     0
100
AcDbLine
 10
11686.05190440007
 20
-56.351336467443
 30
0.0
 11
11686.05190440007
 21
-787.801336467442
 31
0.0
  0
LINE
  5
2A6
330
25
100
AcDbEntity
  8
1
  6
Continuous
 62
     0
100
AcDbLine
 10
10564.052460778
 20
-1262.00006332586
 30
0.0
 11
10546.974835778
 21
-1262.00006332586
 31
0.0
  0
LINE
  5
2A4
330
25
100
AcDbEntity
  8
1
  6
Continuous
 62
     0
100
AcDbLine
 10
10549.51364827801
 20
-1271.00006332586
 30
0.0
 11
10549.51364827801
 21
-1262.00006332586
 31
0.0
  0
LINE
  5
2A3
330
25
100
AcDbEntity
  8
1
  6
Continuous
 62
     0
100
AcDbLine
 10
10561.51364827801
 20
-1271.00006332586
 30
0.0
 11
10549.51364827801
 21
-1271.00006332586
 31
0.0
  0
LINE
  5
2A2
330
25
100
AcDbEntity
  8
1
  6
Continuous
 62
     0
100
AcDbLine
 10
10561.51364827801
 20
-1262.00006332586
 30
0.0
 11
10561.51364827801
 21
-1271.00006332586
 31
0.0
  0
LINE
  5
2A1
330
25
100
AcDbEntity
  8
1
  6
Continuous
 62
     0
100
AcDbLine
 10
10563.844648278
 20
-1255.35006332586
 30
0.0
 11
10564.052460778
 21
-1262.00006332586
 31
0.0
  0
LINE
  5
2A0
330
25
100
AcDbEntity
  8
1
  6
Continuous
 62
     0
100
AcDbLine
 10
10547.182648278
 20
-1255.35006332586
 30
0.0
 11
10546.974835778
 21
-1262.00006332586
 31
0.0
  0
LINE
  5
29F
330
25
100
AcDbEntity
  8
1
  6
Continuous
 62
     0
100
AcDbLine
 10
10557.43981211616
 20
-1159.497747040578
 30
0.0
 11
10555.51364827801
 21
-1158.340391044431
 31
0.0
  0
LINE
  5
29E
330
25
100
AcDbEntity
  8
1
  6
Continuous
 62
     0
100
AcDbLine
 10
10555.51364827801
 20
-1158.340391044431
 30
0.0
 11
10557.47902989097
 21
-1159.429819862057
 31
0.0
  0
LINE
  5
29D
330
25
100
AcDbEntity
  8
1
  6
Continuous
 62
     0
100
AcDbLine
 10
10553.54826666504
 20
-1159.429819862057
 30
0.0
 11
10555.51364827801
 21
-1158.340391044431
 31
0.0
  0
LINE
  5
29C
330
25
100
AcDbEntity
  8
1
  6
Continuous
 62
     0
100
AcDbLine
 10
10555.51364827801
 20
-1158.340391044431
 30
0.0
 11
10553.58748443984
 21
-1159.497747040578
 31
0.0
  0
LINE
  5
29A
330
25
100
AcDbEntity
  8
1
  6
Continuous
 62
     0
100
AcDbLine
 10
10555.51364827801
 20
-1158.340391044431
 30
0.0
 11
10555.4744305032
 21
-1156.093606230662
 31
0.0
  0
LINE
  5
299
330
25
100
AcDbEntity
  8
1
  6
Continuous
 62
     0
100
AcDbLine
 10
10555.55286605281
 20
-1156.093606230662
 30
0.0
 11
10555.51364827801
 21
-1158.340391044431
 31
0.0
  0
LINE
  5
296
330
25
100
AcDbEntity
  8
1
  6
Continuous
 62
     0
100
AcDbLine
 10
10554.19475726529
 20
-1149.064253545164
 30
0.0
 11
10534.3300359039
 21
-1166.736125585579
 31
0.0
  0
LINE
  5
295
330
25
100
AcDbEntity
  8
1
  6
Continuous
 62
     0
100
AcDbLine
 10
10552.15200434187
 20
-1147.021500621736
 30
0.0
 11
10534.12600139196
 21
-1166.53209107364
 31
0.0
  0
LINE
  5
294
330
25
100
AcDbEntity
  8
1
  6
Continuous
 62
     0
100
AcDbLine
 10
10575.73364845715
 20
-1165.92342720673
 30
0.0
 11
10579.87505917418
 21
-1170.064837923762
 31
0.0
  0
LINE
  5
293
330
25
100
AcDbEntity
  8
1
  6
Continuous
 62
     0
100
AcDbLine
 10
10535.11966699768
 20
-1165.742459979861
 30
0.0
 11
10530.9790464801
 21
-1169.883080497437
 31
0.0
  0
LINE
  5
292
330
25
100
AcDbEntity
  8
1
  6
Continuous
 62
     0
100
AcDbLine
 10
10552.813648278
 20
-1106.714474622409
 30
0.0
 11
10552.813648278
 21
-1105.424062951957
 31
0.0
  0
LINE
  5
291
330
25
100
AcDbEntity
  8
1
  6
Continuous
 62
     0
100
AcDbLine
 10
10552.813648278
 20
-1105.424062951957
 30
0.0
 11
10558.213648278
 21
-1105.424062951957
 31
0.0
  0
LINE
  5
290
330
25
100
AcDbEntity
  8
1
  6
Continuous
 62
     0
100
AcDbLine
 10
10558.213648278
 20
-1105.424062951957
 30
0.0
 11
10558.213648278
 21
-1106.720636215288
 31
0.0
  0
LINE
  5
28F
330
25
100
AcDbEntity
  8
1
  6
Continuous
 62
     0
100
AcDbLine
 10
10521.98140364547
 20
-1168.180151527778
 30
0.0
 11
10519.28140364547
 21
-1163.503614347343
 31
0.0
  0
LINE
  5
28E
330
25
100
AcDbEntity
  8
1
  6
Continuous
 62
     0
100
AcDbLine
 10
10591.70202131941
 20
-1163.478285072392
 30
0.0
 11
10589.00202131941
 21
-1168.154822252828
 31
0.0
  0
LINE
  5
28D
330
25
100
AcDbEntity
  8
1
  6
Continuous
 62
     0
100
AcDbLine
 10
10521.98140364547
 20
-1168.180151527778
 30
0.0
 11
10523.11566240585
 21
-1167.525286927139
 31
0.0
  0
LINE
  5
28C
330
25
100
AcDbEntity
  8
1
  6
Continuous
 62
     0
100
AcDbLine
 10
10591.70202131941
 20
-1163.478285072392
 30
0.0
 11
10590.57579098907
 21
-1162.828055687998
 31
0.0
  0
LINE
  5
28B
330
25
100
AcDbEntity
  8
1
  6
Continuous
 62
     0
100
AcDbLine
 10
10519.28140364547
 20
-1163.503614347343
 30
0.0
 11
10520.40945006192
 21
-1162.852336445147
 31
0.0
  0
LINE
  5
28A
330
25
100
AcDbEntity
  8
1
  6
Continuous
 62
     0
100
AcDbLine
 10
10589.00202131941
 20
-1168.154822252828
 30
0.0
 11
10587.8791559355
 21
-1167.506535621163
 31
0.0
  0
LINE
  5
287
330
25
100
AcDbEntity
  8
1
  6
Continuous
 62
     0
100
AcDbLine
 10
10546.50577695065
 20
-1185.702609609026
 30
0.0
 11
10548.51364827801
 21
-1185.702609609026
 31
0.0
  0
LINE
  5
286
330
25
100
AcDbEntity
  8
1
  6
Continuous
 62
     0
100
AcDbLine
 10
10546.51364827801
 20
-1183.671089200248
 30
0.0
 11
10546.51364827801
 21
-1185.702609609026
 31
0.0
  0
LINE
  5
285
330
25
100
AcDbEntity
  8
1
  6
Continuous
 62
     0
100
AcDbLine
 10
10564.51364827801
 20
-1183.671089200248
 30
0.0
 11
10564.51364827801
 21
-1185.702609609026
 31
0.0
  0
LINE
  5
284
330
25
100
AcDbEntity
  8
1
  6
Continuous
 62
     0
100
AcDbLine
 10
10562.51364827801
 20
-1185.702609609026
 30
0.0
 11
10564.51364827801
 21
-1185.702609609026
 31
0.0
  0
LINE
  5
283
330
25
100
AcDbEntity
  8
1
  6
Continuous
 62
     0
100
AcDbLine
 10
10548.51364827801
 20
-1185.702609609026
 30
0.0
 11
10548.51364827801
 21
-1197.702609609026
 31
0.0
  0
LINE
  5
282
330
25
100
AcDbEntity
  8
1
  6
Continuous
 62
     0
100
AcDbLine
 10
10562.51364827801
 20
-1185.702609609026
 30
0.0
 11
10562.51364827801
 21
-1197.702609609026
 31
0.0
  0
LINE
  5
281
330
25
100
AcDbEntity
  8
1
  6
Continuous
 62
     0
100
AcDbLine
 10
10564.208710778
 20
-1197.702609609026
 30
0.0
 11
10564.16364827801
 21
-1199.144609609025
 31
0.0
  0
LINE
  5
280
330
25
100
AcDbEntity
  8
1
  6
Continuous
 62
     0
100
AcDbLine
 10
10546.818585778
 20
-1197.702609609026
 30
0.0
 11
10564.208710778
 21
-1197.702609609026
 31
0.0
  0
LINE
  5
27F
330
25
100
AcDbEntity
  8
1
  6
Continuous
 62
     0
100
AcDbLine
 10
10546.818585778
 20
-1197.702609609026
 30
0.0
 11
10546.863648278
 21
-1199.144609609026
 31
0.0
  0
LINE
  5
27E
330
25
100
AcDbEntity
  8
1
  6
Continuous
 62
     0
100
AcDbLine
 10
10546.983473278
 20
-1202.979009609026
 30
0.0
 11
10555.51364827801
 21
-1202.979009609026
 31
0.0
  0
LINE
  5
27D
330
25
100
AcDbEntity
  8
1
  6
Continuous
 62
     0
100
AcDbLine
 10
10547.92302327801
 20
-1205.652609609026
 30
0.0
 11
10555.51364827801
 21
-1205.652609609026
 31
0.0
  0
LINE
  5
27C
330
25
100
AcDbEntity
  8
1
  6
Continuous
 62
     0
100
AcDbLine
 10
10563.844648278
 20
-1209.352609609025
 30
0.0
 11
10564.04382327801
 21
-1202.979009609026
 31
0.0
  0
LINE
  5
27B
330
25
100
AcDbEntity
  8
1
  6
Continuous
 62
     0
100
AcDbLine
 10
10562.988648278
 20
-1209.352609609025
 30
0.0
 11
10563.104273278
 21
-1205.652609609026
 31
0.0
  0
LINE
  5
27A
330
25
100
AcDbEntity
  8
1
  6
Continuous
 62
     0
100
AcDbLine
 10
10548.03864827801
 20
-1209.352609609025
 30
0.0
 11
10547.92302327801
 21
-1205.652609609026
 31
0.0
  0
LINE
  5
279
330
25
100
AcDbEntity
  8
1
  6
Continuous
 62
     0
100
AcDbLine
 10
10547.182648278
 20
-1209.352609609025
 30
0.0
 11
10546.983473278
 21
-1202.979009609026
 31
0.0
  0
LINE
  5
278
330
25
100
AcDbEntity
  8
1
  6
Continuous
 62
     0
100
AcDbLine
 10
10547.92302327801
 20
-1205.652609609026
 30
0.0
 11
10546.983473278
 21
-1202.979009609026
 31
0.0
  0
LINE
  5
277
330
25
100
AcDbEntity
  8
1
  6
Continuous
 62
     0
100
AcDbLine
 10
10546.983473278
 20
-1202.979009609026
 30
0.0
 11
10546.863648278
 21
-1199.144609609026
 31
0.0
  0
LINE
  5
276
330
25
100
AcDbEntity
  8
1
  6
Continuous
 62
     0
100
AcDbLine
 10
10564.04382327801
 20
-1202.979009609026
 30
0.0
 11
10564.16364827801
 21
-1199.144609609025
 31
0.0
  0
LINE
  5
275
330
25
100
AcDbEntity
  8
1
  6
Continuous
 62
     0
100
AcDbLine
 10
10564.04382327801
 20
-1202.979009609026
 30
0.0
 11
10563.104273278
 21
-1205.652609609026
 31
0.0
  0
LINE
  5
274
330
25
100
AcDbEntity
  8
1
  6
Continuous
 62
     0
100
AcDbLine
 10
10555.51364827801
 20
-1205.652609609026
 30
0.0
 11
10563.104273278
 21
-1205.652609609026
 31
0.0
  0
LINE
  5
273
330
25
100
AcDbEntity
  8
1
  6
Continuous
 62
     0
100
AcDbLine
 10
10555.51364827801
 20
-1202.979009609026
 30
0.0
 11
10564.04382327801
 21
-1202.979009609026
 31
0.0
  0
LINE
  5
272
330
25
100
AcDbEntity
  8
1
  6
Continuous
 62
     0
100
AcDbLine
 10
10668.05190440007
 20
-1221.701336467443
 30
0.0
 11
10653.05190440007
 21
-1221.701336467443
 31
0.0
  0
LINE
  5
271
330
25
100
AcDbEntity
  8
1
  6
Continuous
 62
     0
100
AcDbLine
 10
10668.05190440007
 20
-1243.001336467442
 30
0.0
 11
10653.05190440007
 21
-1243.001336467442
 31
0.0
  0
LINE
  5
270
330
25
100
AcDbEntity
  8
1
  6
Continuous
 62
     0
100
AcDbLine
 10
10653.05190440007
 20
-1221.701336467443
 30
0.0
 11
10653.05190440007
 21
-1243.001336467442
 31
0.0
  0
LINE
  5
26F
330
25
100
AcDbEntity
  8
1
  6
Continuous
 62
     0
100
AcDbLine
 10
10593.81237513642
 20
-1240.682336467443
 30
0.0
 11
10587.41237513642
 21
-1241.001336467442
 31
0.0
  0
LINE
  5
26E
330
25
100
AcDbEntity
  8
1
  6
Continuous
 62
     0
100
AcDbLine
 10
10578.51237513642
 20
-1224.020336467443
 30
0.0
 11
10584.91237513642
 21
-1223.701336467443
 31
0.0
  0
LINE
  5
26D
330
25
100
AcDbEntity
  8
1
  6
Continuous
 62
     0
100
AcDbLine
 10
10584.91237513642
 20
-1241.001336467442
 30
0.0
 11
10578.51237513642
 21
-1240.682336467443
 31
0.0
  0
LINE
  5
26C
330
25
100
AcDbEntity
  8
1
  6
Continuous
 62
     0
100
AcDbLine
 10
10587.41237513642
 20
-1223.701336467443
 30
0.0
 11
10593.81237513642
 21
-1224.020336467443
 31
0.0
  0
LINE
  5
26B
330
25
100
AcDbEntity
  8
1
  6
Continuous
 62
     0
100
AcDbLine
 10
10587.41237513642
 20
-1223.701336467443
 30
0.0
 11
10584.91237513642
 21
-1223.701336467443
 31
0.0
  0
LINE
  5
26A
330
25
100
AcDbEntity
  8
1
  6
Continuous
 62
     0
100
AcDbLine
 10
10584.91237513642
 20
-1241.001336467442
 30
0.0
 11
10587.41237513642
 21
-1241.001336467442
 31
0.0
  0
LINE
  5
269
330
25
100
AcDbEntity
  8
1
  6
Continuous
 62
     0
100
AcDbLine
 10
10587.41237513642
 20
-1241.001336467442
 30
0.0
 11
10587.41237513642
 21
-1223.701336467443
 31
0.0
  0
LINE
  5
268
330
25
100
AcDbEntity
  8
1
  6
Continuous
 62
     0
100
AcDbLine
 10
10584.91237513642
 20
-1223.701336467443
 30
0.0
 11
10584.91237513642
 21
-1241.001336467442
 31
0.0
  0
LINE
  5
267
330
25
100
AcDbEntity
  8
1
  6
Continuous
 62
     0
100
AcDbLine
 10
10644.15190440007
 20
-1223.701336467443
 30
0.0
 11
10644.15190440007
 21
-1241.001336467442
 31
0.0
  0
LINE
  5
266
330
25
100
AcDbEntity
  8
1
  6
Continuous
 62
     0
100
AcDbLine
 10
10646.65190440007
 20
-1241.001336467442
 30
0.0
 11
10646.65190440007
 21
-1223.701336467443
 31
0.0
  0
LINE
  5
265
330
25
100
AcDbEntity
  8
1
  6
Continuous
 62
     0
100
AcDbLine
 10
10644.15190440007
 20
-1241.001336467442
 30
0.0
 11
10646.65190440007
 21
-1241.001336467442
 31
0.0
  0
LINE
  5
264
330
25
100
AcDbEntity
  8
1
  6
Continuous
 62
     0
100
AcDbLine
 10
10646.65190440007
 20
-1223.701336467443
 30
0.0
 11
10644.15190440007
 21
-1223.701336467443
 31
0.0
  0
LINE
  5
263
330
25
100
AcDbEntity
  8
1
  6
Continuous
 62
     0
100
AcDbLine
 10
10646.65190440007
 20
-1223.701336467443
 30
0.0
 11
10653.05190440007
 21
-1224.020336467443
 31
0.0
  0
LINE
  5
262
330
25
100
AcDbEntity
  8
1
  6
Continuous
 62
     0
100
AcDbLine
 10
10644.15190440007
 20
-1241.001336467442
 30
0.0
 11
10637.75190440007
 21
-1240.682336467443
 31
0.0
  0
LINE
  5
261
330
25
100
AcDbEntity
  8
1
  6
Continuous
 62
     0
100
AcDbLine
 10
10637.75190440007
 20
-1224.020336467443
 30
0.0
 11
10644.15190440007
 21
-1223.701336467443
 31
0.0
  0
LINE
  5
260
330
25
100
AcDbEntity
  8
1
  6
Continuous
 62
     0
100
AcDbLine
 10
10653.05190440007
 20
-1240.682336467443
 30
0.0
 11
10646.65190440007
 21
-1241.001336467442
 31
0.0
  0
LINE
  5
25F
330
25
100
AcDbEntity
  8
1
  6
Continuous
 62
     0
100
AcDbLine
 10
10630.2988387876
 20
-1226.789158640952
 30
0.0
 11
10628.3578677321
 21
-1226.789158640952
 31
0.0
  0
LINE
  5
25E
330
25
100
AcDbEntity
  8
1
  6
Continuous
 62
     0
100
AcDbLine
 10
10630.2988387876
 20
-1237.913514293933
 30
0.0
 11
10624.0606491176
 21
-1237.913514293933
 31
0.0
  0
LINE
  5
25D
330
25
100
AcDbEntity
  8
1
  6
Continuous
 62
     0
100
AcDbLine
 10
10601.06373365875
 20
-1226.789158640952
 30
0.0
 11
10607.49870423873
 21
-1226.789158640952
 31
0.0
  0
LINE
  5
25C
330
25
100
AcDbEntity
  8
1
  6
Continuous
 62
     0
100
AcDbLine
 10
10601.06373365875
 20
-1237.913514293933
 30
0.0
 11
10607.49870423873
 21
-1237.913514293933
 31
0.0
  0
LINE
  5
25B
330
25
100
AcDbEntity
  8
1
  6
Continuous
 62
     0
100
AcDbLine
 10
10624.31237513642
 20
-1223.851336467443
 30
0.0
 11
10626.81237513642
 21
-1223.851336467443
 31
0.0
  0
LINE
  5
25A
330
25
100
AcDbEntity
  8
1
  6
Continuous
 62
     0
100
AcDbLine
 10
10624.31237513642
 20
-1227.016120571042
 30
0.0
 11
10624.31237513642
 21
-1223.851336467443
 31
0.0
  0
LINE
  5
259
330
25
100
AcDbEntity
  8
1
  6
Continuous
 62
     0
100
AcDbLine
 10
10630.45019730993
 20
-1226.289158640952
 30
0.0
 11
10636.87455296291
 21
-1226.289158640952
 31
0.0
  0
LINE
  5
258
330
25
100
AcDbEntity
  8
1
  6
Continuous
 62
     0
100
AcDbLine
 10
10630.45019730993
 20
-1238.413514293933
 30
0.0
 11
10636.87455296291
 21
-1238.413514293933
 31
0.0
  0
LINE
  5
257
330
25
100
AcDbEntity
  8
1
  6
Continuous
 62
     0
100
AcDbLine
 10
10600.91237513642
 20
-1244.475692120423
 30
0.0
 11
10594.75019730993
 21
-1244.475692120423
 31
0.0
  0
LINE
  5
256
330
25
100
AcDbEntity
  8
1
  6
Continuous
 62
     0
100
AcDbLine
 10
10629.51237513642
 20
-1242.851336467443
 30
0.0
 11
10601.85019730993
 21
-1242.851336467443
 31
0.0
  0
LINE
  5
255
330
25
100
AcDbEntity
  8
1
  6
Continuous
 62
     0
100
AcDbLine
 10
10600.91237513642
 20
-1220.226980814462
 30
0.0
 11
10594.75019730993
 21
-1220.226980814462
 31
0.0
  0
LINE
  5
254
330
25
100
AcDbEntity
  8
1
  6
Continuous
 62
     0
100
AcDbLine
 10
10629.51237513642
 20
-1221.851336467443
 30
0.0
 11
10601.85019730993
 21
-1221.851336467443
 31
0.0
  0
LINE
  5
253
330
25
100
AcDbEntity
  8
1
  6
Continuous
 62
     0
100
AcDbLine
 10
10600.91237513642
 20
-1220.226980814462
 30
0.0
 11
10601.85019730993
 21
-1221.851336467443
 31
0.0
  0
LINE
  5
252
330
25
100
AcDbEntity
  8
1
  6
Continuous
 62
     0
100
AcDbLine
 10
10601.85019730993
 20
-1242.851336467443
 30
0.0
 11
10600.91237513642
 21
-1244.475692120423
 31
0.0
  0
LINE
  5
251
330
25
100
AcDbEntity
  8
1
  6
Continuous
 62
     0
100
AcDbLine
 10
10630.45019730993
 20
-1244.475692120423
 30
0.0
 11
10629.51237513642
 21
-1242.851336467443
 31
0.0
  0
LINE
  5
250
330
25
100
AcDbEntity
  8
1
  6
Continuous
 62
     0
100
AcDbLine
 10
10629.51237513642
 20
-1221.851336467443
 30
0.0
 11
10630.45019730993
 21
-1220.226980814462
 31
0.0
  0
LINE
  5
24F
330
25
100
AcDbEntity
  8
1
  6
Continuous
 62
     0
100
AcDbLine
 10
10613.57630715892
 20
-1234.351336467443
 30
0.0
 11
10618.04844311392
 21
-1234.351336467443
 31
0.0
  0
LINE
  5
24E
330
25
100
AcDbEntity
  8
1
  6
Continuous
 62
     0
100
AcDbLine
 10
10613.57630715892
 20
-1230.351336467443
 30
0.0
 11
10618.04844311392
 21
-1230.351336467443
 31
0.0
  0
LINE
  5
24D
330
25
100
AcDbEntity
  8
1
  6
Continuous
 62
     0
100
AcDbLine
 10
10622.06237513642
 20
-1232.351336467443
 30
0.0
 11
10624.31237513642
 21
-1232.351336467443
 31
0.0
  0
LINE
  5
24C
330
25
100
AcDbEntity
  8
1
  6
Continuous
 62
     0
100
AcDbLine
 10
10615.81237513642
 20
-1226.101336467443
 30
0.0
 11
10610.09623165959
 21
-1226.101336467443
 31
0.0
  0
LINE
  5
24B
330
25
100
AcDbEntity
  8
1
  6
Continuous
 62
     0
100
AcDbLine
 10
10615.81237513642
 20
-1226.577833775543
 30
0.0
 11
10610.81237513642
 21
-1229.464585121491
 31
0.0
  0
LINE
  5
24A
330
25
100
AcDbEntity
  8
1
  6
Continuous
 62
     0
100
AcDbLine
 10
10620.81237513642
 20
-1229.464585121491
 30
0.0
 11
10615.81237513642
 21
-1226.577833775543
 31
0.0
  0
LINE
  5
249
330
25
100
AcDbEntity
  8
1
  6
Continuous
 62
     0
100
AcDbLine
 10
10620.81237513642
 20
-1235.238087813391
 30
0.0
 11
10620.81237513642
 21
-1229.464585121491
 31
0.0
  0
LINE
  5
248
330
25
100
AcDbEntity
  8
1
  6
Continuous
 62
     0
100
AcDbLine
 10
10615.81237513642
 20
-1238.124839159343
 30
0.0
 11
10620.81237513642
 21
-1235.238087813391
 31
0.0
  0
LINE
  5
247
330
25
100
AcDbEntity
  8
1
  6
Continuous
 62
     0
100
AcDbLine
 10
10610.81237513642
 20
-1235.238087813391
 30
0.0
 11
10615.81237513642
 21
-1238.124839159343
 31
0.0
  0
LINE
  5
246
330
25
100
AcDbEntity
  8
1
  6
Continuous
 62
     0
100
AcDbLine
 10
10610.81237513642
 20
-1229.464585121491
 30
0.0
 11
10610.81237513642
 21
-1235.238087813391
 31
0.0
  0
LINE
  5
243
330
25
100
AcDbEntity
  8
1
  6
Continuous
 62
     0
100
AcDbLine
 10
10595.81237513642
 20
-1236.701336467441
 30
0.0
 11
10605.08961896089
 21
-1236.701336467441
 31
0.0
  0
LINE
  5
242
330
25
100
AcDbEntity
  8
1
  6
Continuous
 62
     0
100
AcDbLine
 10
10595.81237513642
 20
-1228.001336467441
 30
0.0
 11
10595.81237513642
 21
-1236.701336467441
 31
0.0
  0
LINE
  5
241
330
25
100
AcDbEntity
  8
1
  6
Continuous
 62
     0
100
AcDbLine
 10
10595.81237513642
 20
-1228.001336467441
 30
0.0
 11
10605.08961896089
 21
-1228.001336467441
 31
0.0
  0
LINE
  5
240
330
25
100
AcDbEntity
  8
1
  6
Continuous
 62
     0
100
AcDbLine
 10
10635.81237513642
 20
-1236.701336467441
 30
0.0
 11
10626.53513131196
 21
-1236.701336467441
 31
0.0
  0
LINE
  5
23F
330
25
100
AcDbEntity
  8
1
  6
Continuous
 62
     0
100
AcDbLine
 10
10635.81237513642
 20
-1228.001336467441
 30
0.0
 11
10635.81237513642
 21
-1236.701336467441
 31
0.0
  0
LINE
  5
23E
330
25
100
AcDbEntity
  8
1
  6
Continuous
 62
     0
100
AcDbLine
 10
10635.81237513642
 20
-1228.001336467441
 30
0.0
 11
10626.53513131196
 21
-1228.001336467441
 31
0.0
  0
LINE
  5
23D
330
25
100
AcDbEntity
  8
1
  6
Continuous
 62
     0
100
AcDbLine
 10
10636.87455296291
 20
-1220.226980814462
 30
0.0
 11
10630.45019730993
 21
-1220.226980814462
 31
0.0
  0
LINE
  5
23C
330
25
100
AcDbEntity
  8
1
  6
Continuous
 62
     0
100
AcDbLine
 10
10637.81237513642
 20
-1221.851336467443
 30
0.0
 11
10637.81237513642
 21
-1242.851336467443
 31
0.0
  0
LINE
  5
23B
330
25
100
AcDbEntity
  8
1
  6
Continuous
 62
     0
100
AcDbLine
 10
10636.87455296291
 20
-1244.475692120423
 30
0.0
 11
10630.45019730993
 21
-1244.475692120423
 31
0.0
  0
LINE
  5
23A
330
25
100
AcDbEntity
  8
1
  6
Continuous
 62
     0
100
AcDbLine
 10
10636.87455296291
 20
-1220.226980814462
 30
0.0
 11
10637.81237513642
 21
-1221.851336467443
 31
0.0
  0
LINE
  5
239
330
25
100
AcDbEntity
  8
1
  6
Continuous
 62
     0
100
AcDbLine
 10
10637.81237513642
 20
-1242.851336467443
 30
0.0
 11
10636.87455296291
 21
-1244.475692120423
 31
0.0
  0
LINE
  5
238
330
25
100
AcDbEntity
  8
1
  6
Continuous
 62
     0
100
AcDbLine
 10
10594.75019730993
 20
-1226.289158640952
 30
0.0
 11
10600.91237513642
 21
-1226.289158640952
 31
0.0
  0
LINE
  5
237
330
25
100
AcDbEntity
  8
1
  6
Continuous
 62
     0
100
AcDbLine
 10
10594.75019730993
 20
-1238.413514293933
 30
0.0
 11
10600.91237513642
 21
-1238.413514293933
 31
0.0
  0
LINE
  5
236
330
25
100
AcDbEntity
  8
1
  6
Continuous
 62
     0
100
AcDbLine
 10
10593.81237513642
 20
-1242.851336467443
 30
0.0
 11
10593.81237513642
 21
-1221.851336467443
 31
0.0
  0
LINE
  5
235
330
25
100
AcDbEntity
  8
1
  6
Continuous
 62
     0
100
AcDbLine
 10
10593.81237513642
 20
-1221.851336467443
 30
0.0
 11
10594.75019730993
 21
-1220.226980814462
 31
0.0
  0
LINE
  5
234
330
25
100
AcDbEntity
  8
1
  6
Continuous
 62
     0
100
AcDbLine
 10
10594.75019730993
 20
-1244.475692120423
 30
0.0
 11
10593.81237513642
 21
-1242.851336467443
 31
0.0
  0
LINE
  5
233
330
25
100
AcDbEntity
  8
1
  6
Continuous
 62
     0
100
AcDbLine
 10
10567.01364827801
 20
-1255.35006332586
 30
0.0
 11
10555.51364827801
 21
-1255.35006332586
 31
0.0
  0
LINE
  5
232
330
25
100
AcDbEntity
  8
1
  6
Continuous
 62
     0
100
AcDbLine
 10
10567.01364827801
 20
-1246.851336467443
 30
0.0
 11
10567.01364827801
 21
-1255.35006332586
 31
0.0
  0
LINE
  5
231
330
25
100
AcDbEntity
  8
1
  6
Continuous
 62
     0
100
AcDbLine
 10
10570.01364827801
 20
-1243.851336467443
 30
0.0
 11
10578.51237513642
 21
-1243.851336467443
 31
0.0
  0
LINE
  5
230
330
25
100
AcDbEntity
  8
1
  6
Continuous
 62
     0
100
AcDbLine
 10
10555.51364827801
 20
-1255.35006332586
 30
0.0
 11
10544.01364827801
 21
-1255.35006332586
 31
0.0
  0
LINE
  5
22F
330
25
100
AcDbEntity
  8
1
  6
Continuous
 62
     0
100
AcDbLine
 10
10578.51237513642
 20
-1232.351336467443
 30
0.0
 11
10578.51237513642
 21
-1243.851336467443
 31
0.0
  0
LINE
  5
22E
330
25
100
AcDbEntity
  8
1
  6
Continuous
 62
     0
100
AcDbLine
 10
10544.01364827801
 20
-1232.351336467443
 30
0.0
 11
10544.01364827801
 21
-1255.35006332586
 31
0.0
  0
LINE
  5
22D
330
25
100
AcDbEntity
  8
1
  6
Continuous
 62
     0
100
AcDbLine
 10
10544.01364827801
 20
-1209.352609609025
 30
0.0
 11
10544.01364827801
 21
-1232.351336467443
 31
0.0
  0
LINE
  5
22C
330
25
100
AcDbEntity
  8
1
  6
Continuous
 62
     0
100
AcDbLine
 10
10578.51237513642
 20
-1220.851336467443
 30
0.0
 11
10578.51237513642
 21
-1232.351336467443
 31
0.0
  0
LINE
  5
22B
330
25
100
AcDbEntity
  8
1
  6
Continuous
 62
     0
100
AcDbLine
 10
10544.01364827801
 20
-1209.352609609025
 30
0.0
 11
10555.51364827801
 21
-1209.352609609025
 31
0.0
  0
LINE
  5
22A
330
25
100
AcDbEntity
  8
1
  6
Continuous
 62
     0
100
AcDbLine
 10
10578.51237513642
 20
-1220.851336467443
 30
0.0
 11
10570.01364827801
 21
-1220.851336467443
 31
0.0
  0
LINE
  5
229
330
25
100
AcDbEntity
  8
1
  6
Continuous
 62
     0
100
AcDbLine
 10
10567.01364827801
 20
-1209.352609609025
 30
0.0
 11
10567.01364827801
 21
-1217.851336467443
 31
0.0
  0
LINE
  5
228
330
25
100
AcDbEntity
  8
1
  6
Continuous
 62
     0
100
AcDbLine
 10
10555.51364827801
 20
-1209.352609609025
 30
0.0
 11
10567.01364827801
 21
-1209.352609609025
 31
0.0
  0
LINE
  5
226
330
25
100
AcDbEntity
  8
1
  6
Continuous
 62
     0
100
AcDbLine
 10
11768.05190440007
 20
-739.851336467443
 30
0.0
 11
11786.05190440007
 21
-739.851336467443
 31
0.0
  0
LINE
  5
225
330
25
100
AcDbEntity
  8
1
  6
Continuous
 62
     0
100
AcDbLine
 10
11768.05190440007
 20
-924.851336467443
 30
0.0
 11
11768.05190440007
 21
-739.851336467443
 31
0.0
  0
LINE
  5
224
330
25
100
AcDbEntity
  8
1
  6
Continuous
 62
     0
100
AcDbLine
 10
11786.05190440007
 20
-924.851336467443
 30
0.0
 11
11768.05190440007
 21
-924.851336467443
 31
0.0
  0
LINE
  5
223
330
25
100
AcDbEntity
  8
1
  6
Continuous
 62
     0
100
AcDbLine
 10
11786.05190440007
 20
-739.851336467443
 30
0.0
 11
11786.05190440007
 21
-924.851336467443
 31
0.0
  0
LINE
  5
222
330
25
100
AcDbEntity
  8
1
  6
Continuous
 62
     0
100
AcDbLine
 10
11686.05190440007
 20
-787.801336467442
 30
0.0
 11
11768.05190440007
 21
-787.801336467442
 31
0.0
  0
LINE
  5
221
330
25
100
AcDbEntity
  8
1
  6
Continuous
 62
     0
100
AcDbLine
 10
11686.05190440007
 20
-876.901336467442
 30
0.0
 11
11768.05190440007
 21
-876.901336467442
 31
0.0
  0
LINE
  5
220
330
25
100
AcDbEntity
  8
1
  6
Continuous
 62
     0
100
AcDbLine
 10
10586.05190440007
 20
-2026.901336467443
 30
0.0
 11
10668.05190440007
 21
-2026.901336467443
 31
0.0
  0
LINE
  5
21F
330
25
100
AcDbEntity
  8
1
  6
Continuous
 62
     0
100
AcDbLine
 10
10586.05190440007
 20
-1937.801336467443
 30
0.0
 11
10668.05190440007
 21
-1937.801336467443
 31
0.0
  0
LINE
  5
21E
330
25
100
AcDbEntity
  8
1
  6
Continuous
 62
     0
100
AcDbLine
 10
10568.05190440007
 20
-2074.851336467443
 30
0.0
 11
10568.05190440007
 21
-1889.851336467443
 31
0.0
  0
LINE
  5
21D
330
25
100
AcDbEntity
  8
1
  6
Continuous
 62
     0
100
AcDbLine
 10
10586.05190440007
 20
-2074.851336467443
 30
0.0
 11
10568.05190440007
 21
-2074.851336467443
 31
0.0
  0
LINE
  5
21C
330
25
100
AcDbEntity
  8
1
  6
Continuous
 62
     0
100
AcDbLine
 10
10586.05190440007
 20
-1889.851336467443
 30
0.0
 11
10586.05190440007
 21
-2074.851336467443
 31
0.0
  0
LINE
  5
21B
330
25
100
AcDbEntity
  8
1
  6
Continuous
 62
     0
100
AcDbLine
 10
10568.05190440007
 20
-1889.851336467443
 30
0.0
 11
10586.05190440007
 21
-1889.851336467443
 31
0.0
  0
LINE
  5
218
330
25
100
AcDbEntity
  8
1
  6
Continuous
 62
     0
100
AcDbLine
 10
11077.05190440007
 20
-2623.351336467443
 30
0.0
 11
11077.05190440007
 21
-2823.351336467443
 31
0.0
  0
LINE
  5
217
330
25
100
AcDbEntity
  8
1
  6
Continuous
 62
     0
100
AcDbLine
 10
11277.05190440007
 20
-2623.351336467443
 30
0.0
 11
11277.05190440007
 21
-2823.351336467443
 31
0.0
  0
LINE
  5
216
330
25
100
AcDbEntity
  8
1
  6
Continuous
 62
     0
100
AcDbLine
 10
11189.55190440007
 20
-2578.531336467441
 30
0.0
 11
11191.15190440007
 21
-2578.531336467441
 31
0.0
  0
LINE
  5
215
330
25
100
AcDbEntity
  8
1
  6
Continuous
 62
     0
100
AcDbLine
 10
11189.55190440007
 20
-2573.531336467441
 30
0.0
 11
11194.65190440007
 21
-2573.531336467441
 31
0.0
  0
LINE
  5
214
330
25
100
AcDbEntity
  8
1
  6
Continuous
 62
     0
100
AcDbLine
 10
11194.65190440007
 20
-2573.531336467441
 30
0.0
 11
11194.65190440007
 21
-2574.631336467443
 31
0.0
  0
LINE
  5
212
330
25
100
AcDbEntity
  8
1
  6
Continuous
 62
     0
100
AcDbLine
 10
11177.05190440007
 20
-2607.231124769233
 30
0.0
 11
11177.05190440007
 21
-2615.414881498979
 31
0.0
  0
LINE
  5
211
330
25
100
AcDbEntity
  8
1
  6
Continuous
 62
     0
100
AcDbLine
 10
11177.05190440007
 20
-2561.147791435903
 30
0.0
 11
11177.05190440007
 21
-2569.331548165651
 31
0.0
  0
LINE
  5
20F
330
25
100
AcDbEntity
  8
1
  6
Continuous
 62
     0
100
AcDbLine
 10
11191.15190440007
 20
-2574.631336467443
 30
0.0
 11
11191.15190440007
 21
-2577.531336467442
 31
0.0
  0
LINE
  5
20E
330
25
100
AcDbEntity
  8
1
  6
Continuous
 62
     0
100
AcDbLine
 10
11191.15190440007
 20
-2599.931336467441
 30
0.0
 11
11191.15190440007
 21
-2577.531336467442
 31
0.0
  0
LINE
  5
20D
330
25
100
AcDbEntity
  8
1
  6
Continuous
 62
     0
100
AcDbLine
 10
11195.35190440007
 20
-2599.031336467442
 30
0.0
 11
11195.35190440007
 21
-2576.031336467442
 31
0.0
  0
LINE
  5
20C
330
25
100
AcDbEntity
  8
1
  6
Continuous
 62
     0
100
AcDbLine
 10
11208.05190440007
 20
-2557.531336467442
 30
0.0
 11
11208.05190440007
 21
-2575.944706241185
 31
0.0
  0
LINE
  5
20B
330
25
100
AcDbEntity
  8
1
  6
Continuous
 62
     0
100
AcDbLine
 10
11189.55190440007
 20
-2616.53133646744
 30
0.0
 11
11189.55190440007
 21
-2560.031336467442
 31
0.0
  0
LINE
  5
20A
330
25
100
AcDbEntity
  8
1
  6
Continuous
 62
     0
100
AcDbLine
 10
11164.55190440007
 20
-2560.031336467441
 30
0.0
 11
11189.55190440007
 21
-2560.031336467442
 31
0.0
  0
LINE
  5
209
330
25
100
AcDbEntity
  8
1
  6
Continuous
 62
     0
100
AcDbLine
 10
11164.55190440007
 20
-2616.531336467441
 30
0.0
 11
11164.55190440007
 21
-2560.031336467441
 31
0.0
  0
LINE
  5
208
330
25
100
AcDbEntity
  8
1
  6
Continuous
 62
     0
100
AcDbLine
 10
11189.55190440007
 20
-2616.53133646744
 30
0.0
 11
11164.55190440007
 21
-2616.531336467441
 31
0.0
  0
LINE
  5
207
330
25
100
AcDbEntity
  8
1
  6
Continuous
 62
     0
100
AcDbLine
 10
11200.05190440007
 20
-2557.531336467442
 30
0.0
 11
11208.05190440007
 21
-2557.531336467442
 31
0.0
  0
LINE
  5
206
330
25
100
AcDbEntity
  8
1
  6
Continuous
 62
     0
100
AcDbLine
 10
11195.35190440007
 20
-2576.031336467442
 30
0.0
 11
11200.05190440007
 21
-2557.531336467442
 31
0.0
  0
LINE
  5
205
330
25
100
AcDbEntity
  8
1
  6
Continuous
 62
     0
100
AcDbLine
 10
11191.15190440007
 20
-2574.631336467443
 30
0.0
 11
11195.70758007575
 21
-2574.631336467443
 31
0.0
  0
LINE
  5
204
330
25
100
AcDbEntity
  8
1
  6
Continuous
 62
     0
100
AcDbLine
 10
11191.15190440007
 20
-2575.131336467443
 30
0.0
 11
11195.58055304872
 21
-2575.131336467443
 31
0.0
  0
LINE
  5
203
330
25
100
AcDbEntity
  8
1
  6
Continuous
 62
     0
100
AcDbLine
 10
11208.05190440007
 20
-2599.1179666937
 30
0.0
 11
11208.05190440007
 21
-2617.531336467442
 31
0.0
  0
LINE
  5
202
330
25
100
AcDbEntity
  8
1
  6
Continuous
 62
     0
100
AcDbLine
 10
11200.05190440007
 20
-2617.531336467442
 30
0.0
 11
11208.05190440007
 21
-2617.531336467442
 31
0.0
  0
LINE
  5
201
330
25
100
AcDbEntity
  8
1
  6
Continuous
 62
     0
100
AcDbLine
 10
11200.05190440007
 20
-2617.531336467442
 30
0.0
 11
11195.35190440007
 21
-2599.031336467442
 31
0.0
  0
LINE
  5
200
330
25
100
AcDbEntity
  8
1
  6
Continuous
 62
     0
100
AcDbLine
 10
11195.58055304872
 20
-2599.931336467441
 30
0.0
 11
11191.15190440007
 21
-2599.931336467441
 31
0.0
  0
LINE
  5
1FF
330
25
100
AcDbEntity
  8
1
  6
Continuous
 62
     0
100
AcDbLine
 10
11189.55190440007
 20
-2581.031336467442
 30
0.0
 11
11191.15190440007
 21
-2581.031336467442
 31
0.0
  0
LINE
  5
1FE
330
25
100
AcDbEntity
  8
1
  6
Continuous
 62
     0
100
AcDbLine
 10
11189.55190440007
 20
-2594.031336467442
 30
0.0
 11
11191.15190440007
 21
-2594.031336467442
 31
0.0
  0
LINE
  5
1FD
330
25
100
AcDbEntity
  8
1
  6
Continuous
 62
     0
100
AcDbLine
 10
11187.95190440007
 20
-2569.838837385655
 30
0.0
 11
11187.95190440007
 21
-2582.031336467441
 31
0.0
  0
LINE
  5
1FC
330
25
100
AcDbEntity
  8
1
  6
Continuous
 62
     0
100
AcDbLine
 10
11187.95190440007
 20
-2606.72383554923
 30
0.0
 11
11187.95190440007
 21
-2592.531336467441
 31
0.0
  0
LINE
  5
1FB
330
25
100
AcDbEntity
  8
1
  6
Continuous
 62
     0
100
AcDbLine
 10
11164.55190440007
 20
-2579.181336467441
 30
0.0
 11
11165.68566112981
 21
-2580.581336467442
 31
0.0
  0
LINE
  5
1FA
330
25
100
AcDbEntity
  8
1
  6
Continuous
 62
     0
100
AcDbLine
 10
11164.55190440007
 20
-2592.981336467441
 30
0.0
 11
11165.68566112981
 21
-2591.581336467442
 31
0.0
  0
LINE
  5
1F9
330
25
100
AcDbEntity
  8
1
  6
Continuous
 62
     0
100
AcDbLine
 10
11165.68566112981
 20
-2580.581336467442
 30
0.0
 11
11165.68566112981
 21
-2591.581336467442
 31
0.0
  0
LINE
  5
1F8
330
25
100
AcDbEntity
  8
1
  6
Continuous
 62
     0
100
AcDbLine
 10
11187.95190440007
 20
-2579.181336467441
 30
0.0
 11
11186.95190440007
 21
-2580.581336467442
 31
0.0
  0
LINE
  5
1F7
330
25
100
AcDbEntity
  8
1
  6
Continuous
 62
     0
100
AcDbLine
 10
11187.95190440007
 20
-2592.981336467441
 30
0.0
 11
11186.95190440007
 21
-2591.581336467442
 31
0.0
  0
LINE
  5
1F6
330
25
100
AcDbEntity
  8
1
  6
Continuous
 62
     0
100
AcDbLine
 10
11165.68566112981
 20
-2580.581336467442
 30
0.0
 11
11186.95190440007
 21
-2580.581336467442
 31
0.0
  0
LINE
  5
1F5
330
25
100
AcDbEntity
  8
1
  6
Continuous
 62
     0
100
AcDbLine
 10
11165.68566112981
 20
-2591.581336467442
 30
0.0
 11
11186.95190440007
 21
-2591.581336467442
 31
0.0
  0
LINE
  5
1F4
330
25
100
AcDbEntity
  8
1
  6
Continuous
 62
     0
100
AcDbLine
 10
11187.90190440007
 20
-2549.691336467442
 30
0.0
 11
11187.90190440007
 21
-2552.691336467442
 31
0.0
  0
LINE
  5
1F3
330
25
100
AcDbEntity
  8
1
  6
Continuous
 62
     0
100
AcDbLine
 10
11166.20190440007
 20
-2549.691336467442
 30
0.0
 11
11187.90190440007
 21
-2549.691336467442
 31
0.0
  0
LINE
  5
1F2
330
25
100
AcDbEntity
  8
1
  6
Continuous
 62
     0
100
AcDbLine
 10
11187.90190440007
 20
-2552.691336467442
 30
0.0
 11
11166.20190440007
 21
-2552.691336467442
 31
0.0
  0
LINE
  5
1F1
330
25
100
AcDbEntity
  8
1
  6
Continuous
 62
     0
100
AcDbLine
 10
11166.20190440007
 20
-2549.691336467442
 30
0.0
 11
11166.20190440007
 21
-2552.691336467442
 31
0.0
  0
LINE
  5
1F0
330
25
100
AcDbEntity
  8
1
  6
Continuous
 62
     0
100
AcDbLine
 10
11166.20190440007
 20
-2549.691336467442
 30
0.0
 11
11166.57440440007
 21
-2542.351336467442
 31
0.0
  0
LINE
  5
1EF
330
25
100
AcDbEntity
  8
1
  6
Continuous
 62
     0
100
AcDbLine
 10
11187.90190440007
 20
-2549.691336467442
 30
0.0
 11
11187.52940440007
 21
-2542.351336467442
 31
0.0
  0
LINE
  5
1EE
330
25
100
AcDbEntity
  8
1
  6
Continuous
 62
     0
100
AcDbLine
 10
11187.52940440007
 20
-2560.031336467442
 30
0.0
 11
11187.90190440007
 21
-2552.691336467442
 31
0.0
  0
LINE
  5
1ED
330
25
100
AcDbEntity
  8
1
  6
Continuous
 62
     0
100
AcDbLine
 10
11166.57440440007
 20
-2560.031336467442
 30
0.0
 11
11166.20190440007
 21
-2552.691336467442
 31
0.0
  0
LINE
  5
1EC
330
25
100
AcDbEntity
  8
1
  6
Continuous
 62
     0
100
AcDbLine
 10
11163.85190440007
 20
-2542.351336467442
 30
0.0
 11
11190.25190440007
 21
-2542.351336467442
 31
0.0
  0
LINE
  5
1EB
330
25
100
AcDbEntity
  8
1
  6
Continuous
 62
     0
100
AcDbLine
 10
11190.25190440007
 20
-2542.351336467442
 30
0.0
 11
11190.25190440007
 21
-2533.226364840712
 31
0.0
  0
LINE
  5
1EA
330
25
100
AcDbEntity
  8
1
  6
Continuous
 62
     0
100
AcDbLine
 10
11163.85190440007
 20
-2542.351336467442
 30
0.0
 11
11163.85190440007
 21
-2533.226364840712
 31
0.0
  0
LINE
  5
1E9
330
25
100
AcDbEntity
  8
1
  6
DOTTED
 62
     0
100
AcDbLine
 10
11190.25190440007
 20
-2533.226364840712
 30
0.0
 11
11190.25190440007
 21
-2532.255489830161
 31
0.0
  0
LINE
  5
1E8
330
25
100
AcDbEntity
  8
1
  6
DOTTED
 62
     0
100
AcDbLine
 10
11163.85190440007
 20
-2533.226364840712
 30
0.0
 11
11163.85190440007
 21
-2532.255489830161
 31
0.0
  0
LINE
  5
1E7
330
25
100
AcDbEntity
  8
1
  6
Continuous
 62
     0
100
AcDbLine
 10
10802.05190440007
 20
-2460.077550470232
 30
0.0
 11
11552.05190440007
 21
-2460.077550470232
 31
0.0
  0
LINE
  5
1E6
330
25
100
AcDbEntity
  8
1
  6
Continuous
 62
     0
100
AcDbLine
 10
10677.05190440007
 20
-2832.351336467443
 30
0.0
 11
10677.05190440007
 21
-2823.351336467443
 31
0.0
  0
LINE
  5
1E5
330
25
100
AcDbEntity
  8
1
  6
Continuous
 62
     0
100
AcDbLine
 10
11677.05190440007
 20
-2832.351336467443
 30
0.0
 11
10677.05190440007
 21
-2832.351336467443
 31
0.0
  0
LINE
  5
1E4
330
25
100
AcDbEntity
  8
1
  6
Continuous
 62
     0
100
AcDbLine
 10
11677.05190440007
 20
-2823.351336467443
 30
0.0
 11
11677.05190440007
 21
-2832.351336467443
 31
0.0
  0
LINE
  5
1E3
330
25
100
AcDbEntity
  8
1
  6
Continuous
 62
     0
100
AcDbLine
 10
10677.05190440007
 20
-2823.351336467443
 30
0.0
 11
11677.05190440007
 21
-2823.351336467443
 31
0.0
  0
LINE
  5
1E2
330
25
100
AcDbEntity
  8
1
  6
Continuous
 62
     0
100
AcDbLine
 10
10668.05190440007
 20
-56.351336467443
 30
0.0
 11
11686.05190440007
 21
-56.351336467443
 31
0.0
  0
LINE
  5
1E1
330
25
100
AcDbEntity
  8
1
  6
Continuous
 62
     0
100
AcDbLine
 10
11686.05190440007
 20
-2309.351336467443
 30
0.0
 11
10668.05190440007
 21
-2309.351336467443
 31
0.0
  0
LINE
  5
1E0
330
25
100
AcDbEntity
  8
1
  6
Continuous
 62
     0
100
AcDbLine
 10
10668.05190440007
 20
-2309.351336467443
 30
0.0
 11
10668.05190440007
 21
-2330.569678223677
 31
0.0
  0
LINE
  5
1DE
330
25
100
AcDbEntity
  8
1
  6
Continuous
 62
     0
100
AcDbLine
 10
10729.47675130701
 20
-2427.646499019314
 30
0.0
 11
10728.60745995563
 21
-2427.220010693358
 31
0.0
  0
LINE
  5
1DD
330
25
100
AcDbEntity
  8
1
  6
Continuous
 62
     0
100
AcDbLine
 10
11686.05190440007
 20
-2329.577111297298
 30
0.0
 11
11686.05190440007
 21
-2309.351336467443
 31
0.0
  0
LINE
  5
1DC
330
25
100
AcDbEntity
  8
1
  6
Continuous
 62
     0
100
AcDbLine
 10
13657.85173396352
 20
-2427.646499019314
 30
0.0
 11
13656.98244261215
 21
-2427.220010693358
 31
0.0
  0
LINE
  5
1DB
330
25
100
AcDbEntity
  8
1
  6
Continuous
 62
     0
100
AcDbLine
 10
13596.42688705659
 20
-2309.351336467443
 30
0.0
 11
13596.42688705659
 21
-2330.569678223677
 31
0.0
  0
LINE
  5
1DA
330
25
100
AcDbEntity
  8
1
  6
Continuous
 62
     0
100
AcDbLine
 10
14614.42688705659
 20
-2329.577111297298
 30
0.0
 11
14614.42688705659
 21
-2309.351336467443
 31
0.0
  0
LINE
  5
1D9
330
25
100
AcDbEntity
  8
1
  6
Continuous
 62
     0
100
AcDbLine
 10
10668.05190440007
 20
-56.351336467443
 30
0.0
 11
10668.05190440007
 21
-36.125561637589
 31
0.0
  0
LINE
  5
1D8
330
25
100
AcDbEntity
  8
1
  6
Continuous
 62
     0
100
AcDbLine
 10
10729.33406879063
 20
61.877472892885
 30
0.0
 11
10728.60745995563
 21
61.517337758472
 31
0.0
  0
LINE
  5
1D7
330
25
100
AcDbEntity
  8
1
  6
Continuous
 62
     0
100
AcDbLine
 10
11686.05190440007
 20
-56.351336467443
 30
0.0
 11
11686.05190440007
 21
-36.125561637589
 31
0.0
  0
LINE
  5
1D6
330
25
100
AcDbEntity
  8
1
  6
Continuous
 62
     0
100
AcDbLine
 10
13657.70905144715
 20
61.877472892885
 30
0.0
 11
13656.98244261215
 21
61.517337758472
 31
0.0
  0
LINE
  5
1D5
330
25
100
AcDbEntity
  8
1
  6
Continuous
 62
     0
100
AcDbLine
 10
13596.42688705659
 20
-56.351336467443
 30
0.0
 11
13596.42688705659
 21
-36.125561637589
 31
0.0
  0
LINE
  5
1D4
330
25
100
AcDbEntity
  8
1
  6
Continuous
 62
     0
100
AcDbLine
 10
14614.42688705659
 20
-56.351336467443
 30
0.0
 11
14614.42688705659
 21
-36.125561637589
 31
0.0
  0
LINE
  5
1D3
330
25
100
AcDbEntity
  8
1
  6
Continuous
 62
     0
100
AcDbLine
 10
11538.4727117701
 20
-2623.351336467443
 30
0.0
 11
11538.4727117701
 21
-2823.351336467443
 31
0.0
  0
LINE
  5
1D2
330
25
100
AcDbEntity
  8
1
  6
Continuous
 62
     0
100
AcDbLine
 10
11552.05190440007
 20
-2523.351336467443
 30
0.0
 11
11552.05190440007
 21
-2460.077550470232
 31
0.0
  0
LINE
  5
1D1
330
25
100
AcDbEntity
  8
1
  6
Continuous
 62
     0
100
AcDbLine
 10
10802.05190440007
 20
-2460.077550470232
 30
0.0
 11
10802.05190440007
 21
-2523.351336467443
 31
0.0
  0
LINE
  5
1D0
330
25
100
AcDbEntity
  8
1
  6
Continuous
 62
     0
100
AcDbLine
 10
10815.63109703005
 20
-2823.351336467443
 30
0.0
 11
10815.63109703005
 21
-2623.351336467443
 31
0.0
  0
LINE
  5
1CF
330
25
100
AcDbEntity
  8
1
  6
Continuous
 62
     0
100
AcDbLine
 10
13730.42688705659
 20
-2460.077550470232
 30
0.0
 11
13730.42688705659
 21
-2523.351336467443
 31
0.0
  0
LINE
  5
1CE
330
25
100
AcDbEntity
  8
1
  6
Continuous
 62
     0
100
AcDbLine
 10
13744.00607968657
 20
-2823.351336467443
 30
0.0
 11
13744.00607968657
 21
-2623.351336467443
 31
0.0
  0
LINE
  5
1CD
330
25
100
AcDbEntity
  8
1
  6
Continuous
 62
     0
100
AcDbLine
 10
14480.42688705659
 20
-2523.351336467443
 30
0.0
 11
14480.42688705659
 21
-2460.077550470232
 31
0.0
  0
LINE
  5
1CC
330
25
100
AcDbEntity
  8
1
  6
Continuous
 62
     0
100
AcDbLine
 10
14480.42688705659
 20
-2523.351336467443
 30
0.0
 11
14480.42688705659
 21
-2460.077550470232
 31
0.0
  0
LINE
  5
1CB
330
25
100
AcDbEntity
  8
1
  6
Continuous
 62
     0
100
AcDbLine
 10
14466.84769442661
 20
-2623.351336467443
 30
0.0
 11
14466.84769442661
 21
-2823.351336467443
 31
0.0
  0
LINE
  5
1CA
330
25
100
AcDbEntity
  8
1
  6
Continuous
 62
     0
100
AcDbLine
 10
11154.05190440007
 20
-617.631336467442
 30
0.0
 11
11154.05190440007
 21
-660.053986198252
 31
0.0
  0
LINE
  5
1C9
330
25
100
AcDbEntity
  8
1
  6
Continuous
 62
     0
100
AcDbLine
 10
11156.05190440007
 20
-617.631336467442
 30
0.0
 11
11156.05190440007
 21
-659.631336467442
 31
0.0
  0
LINE
  5
1C8
330
25
100
AcDbEntity
  8
1
  6
Continuous
 62
     0
100
AcDbLine
 10
11168.71857106674
 20
-617.631336467442
 30
0.0
 11
11168.71857106674
 21
-659.631336467442
 31
0.0
  0
LINE
  5
1C7
330
25
100
AcDbEntity
  8
1
  6
Continuous
 62
     0
100
AcDbLine
 10
11170.71857106674
 20
-617.631336467442
 30
0.0
 11
11170.71857106674
 21
-659.631336467442
 31
0.0
  0
LINE
  5
1C6
330
25
100
AcDbEntity
  8
1
  6
Continuous
 62
     0
100
AcDbLine
 10
11183.38523773341
 20
-617.631336467442
 30
0.0
 11
11183.38523773341
 21
-659.631336467442
 31
0.0
  0
LINE
  5
1C5
330
25
100
AcDbEntity
  8
1
  6
Continuous
 62
     0
100
AcDbLine
 10
11185.38523773341
 20
-617.631336467442
 30
0.0
 11
11185.38523773341
 21
-659.631336467442
 31
0.0
  0
LINE
  5
1C4
330
25
100
AcDbEntity
  8
1
  6
Continuous
 62
     0
100
AcDbLine
 10
11198.05190440007
 20
-617.631336467442
 30
0.0
 11
11198.05190440007
 21
-659.631336467442
 31
0.0
  0
LINE
  5
1C3
330
25
100
AcDbEntity
  8
1
  6
Continuous
 62
     0
100
AcDbLine
 10
11200.05190440007
 20
-617.631336467442
 30
0.0
 11
11200.05190440007
 21
-660.053986198252
 31
0.0
  0
LINE
  5
1C2
330
25
100
AcDbEntity
  8
1
  6
Continuous
 62
     0
100
AcDbLine
 10
11142.05190440007
 20
-734.131336467442
 30
0.0
 11
11142.05190440007
 21
-742.131336467442
 31
0.0
  0
LINE
  5
1C1
330
25
100
AcDbEntity
  8
1
  6
Continuous
 62
     0
100
AcDbLine
 10
11212.05190440007
 20
-734.131336467442
 30
0.0
 11
11212.05190440007
 21
-742.131336467442
 31
0.0
  0
LINE
  5
1C0
330
25
100
AcDbEntity
  8
1
  6
Continuous
 62
     0
100
AcDbLine
 10
11197.55190440007
 20
-792.224048406982
 30
0.0
 11
11197.55190440007
 21
-790.516417649706
 31
0.0
  0
LINE
  5
1BF
330
25
100
AcDbEntity
  8
1
  6
Continuous
 62
     0
100
AcDbLine
 10
11197.55190440007
 20
-790.516417649706
 30
0.0
 11
11197.55190440007
 21
-791.849791934872
 31
0.0
  0
LINE
  5
1BE
330
25
100
AcDbEntity
  8
1
  6
Continuous
 62
     0
100
AcDbLine
 10
11156.55190440007
 20
-790.516417649706
 30
0.0
 11
11156.55190440007
 21
-792.224048406982
 31
0.0
  0
LINE
  5
1BD
330
25
100
AcDbEntity
  8
1
  6
Continuous
 62
     0
100
AcDbLine
 10
11146.69381883508
 20
-757.821935390684
 30
0.0
 11
11150.69381883508
 21
-760.131336467442
 31
0.0
  0
LINE
  5
1BC
330
25
100
AcDbEntity
  8
1
  6
Continuous
 62
     0
100
AcDbLine
 10
11207.69381883508
 20
-757.821935390684
 30
0.0
 11
11203.69381883508
 21
-760.131336467442
 31
0.0
  0
LINE
  5
1BB
330
25
100
AcDbEntity
  8
1
  6
Continuous
 62
     0
100
AcDbLine
 10
11150.69381883508
 20
-760.131336467442
 30
0.0
 11
11203.69381883508
 21
-760.131336467442
 31
0.0
  0
LINE
  5
1BA
330
25
100
AcDbEntity
  8
1
  6
Continuous
 62
     0
100
AcDbLine
 10
11198.19381883508
 20
-760.131336467442
 30
0.0
 11
11156.19381883508
 21
-760.131336467442
 31
0.0
  0
LINE
  5
1B9
330
25
100
AcDbEntity
  8
1
  6
Continuous
 62
     0
100
AcDbLine
 10
11177.05190440007
 20
-781.351336467443
 30
0.0
 11
11199.06482212215
 21
-781.351336467443
 31
0.0
  0
LINE
  5
1B8
330
25
100
AcDbEntity
  8
1
  6
Continuous
 62
     0
100
AcDbLine
 10
11155.038986678
 20
-781.351336467443
 30
0.0
 11
11177.05190440007
 21
-781.351336467443
 31
0.0
  0
LINE
  5
1B7
330
25
100
AcDbEntity
  8
1
  6
Continuous
 62
     0
100
AcDbLine
 10
11155.038986678
 20
-781.351336467443
 30
0.0
 11
11155.038986678
 21
-786.351336467443
 31
0.0
  0
LINE
  5
1B6
330
25
100
AcDbEntity
  8
1
  6
Continuous
 62
     0
100
AcDbLine
 10
11199.06482212215
 20
-781.351336467443
 30
0.0
 11
11199.06482212215
 21
-786.351336467443
 31
0.0
  0
LINE
  5
1B5
330
25
100
AcDbEntity
  8
1
  6
Continuous
 62
     0
100
AcDbLine
 10
11155.038986678
 20
-786.351336467443
 30
0.0
 11
11199.06482212215
 21
-786.351336467443
 31
0.0
  0
LINE
  5
1B4
330
25
100
AcDbEntity
  8
1
  6
Continuous
 62
     0
100
AcDbLine
 10
11160.05190440007
 20
-768.891336467442
 30
0.0
 11
11194.05190440007
 21
-768.891336467442
 31
0.0
  0
LINE
  5
1B3
330
25
100
AcDbEntity
  8
1
  6
Continuous
 62
     0
100
AcDbLine
 10
11194.05190440007
 20
-772.591336467443
 30
0.0
 11
11160.05190440007
 21
-772.591336467443
 31
0.0
  0
LINE
  5
1B2
330
25
100
AcDbEntity
  8
1
  6
Continuous
 62
     0
100
AcDbLine
 10
11160.05190440007
 20
-768.891336467442
 30
0.0
 11
11160.05190440007
 21
-772.591336467443
 31
0.0
  0
LINE
  5
1B1
330
25
100
AcDbEntity
  8
1
  6
Continuous
 62
     0
100
AcDbLine
 10
11194.05190440007
 20
-772.591336467443
 30
0.0
 11
11194.05190440007
 21
-768.891336467442
 31
0.0
  0
LINE
  5
1B0
330
25
100
AcDbEntity
  8
1
  6
Continuous
 62
     0
100
AcDbLine
 10
11160.05190440007
 20
-768.891336467442
 30
0.0
 11
11160.42740440007
 21
-760.131336467442
 31
0.0
  0
LINE
  5
1AF
330
25
100
AcDbEntity
  8
1
  6
Continuous
 62
     0
100
AcDbLine
 10
11160.05190440007
 20
-772.591336467443
 30
0.0
 11
11160.42740440007
 21
-781.351336467443
 31
0.0
  0
LINE
  5
1AE
330
25
100
AcDbEntity
  8
1
  6
Continuous
 62
     0
100
AcDbLine
 10
11193.67640440007
 20
-781.351336467443
 30
0.0
 11
11194.05190440007
 21
-772.591336467443
 31
0.0
  0
LINE
  5
1AD
330
25
100
AcDbEntity
  8
1
  6
Continuous
 62
     0
100
AcDbLine
 10
11193.67640440007
 20
-760.131336467442
 30
0.0
 11
11194.05190440007
 21
-768.891336467442
 31
0.0
  0
LINE
  5
1AC
330
25
100
AcDbEntity
  8
1
  6
Continuous
 62
     0
100
AcDbLine
 10
11224.05190440007
 20
-676.772581475414
 30
0.0
 11
11224.05190440007
 21
-734.131336467442
 31
0.0
  0
LINE
  5
1AB
330
25
100
AcDbEntity
  8
1
  6
Continuous
 62
     0
100
AcDbLine
 10
11161.80190440007
 20
-757.821935390684
 30
0.0
 11
11161.80190440007
 21
-745.131336467442
 31
0.0
  0
LINE
  5
1AA
330
25
100
AcDbEntity
  8
1
  6
Continuous
 62
     0
100
AcDbLine
 10
11192.30190440007
 20
-757.821935390684
 30
0.0
 11
11192.30190440007
 21
-745.131336467442
 31
0.0
  0
LINE
  5
1A9
330
25
100
AcDbEntity
  8
1
  6
Continuous
 62
     0
100
AcDbLine
 10
11146.55190440007
 20
-757.821935390684
 30
0.0
 11
11150.55190440007
 21
-760.131336467442
 31
0.0
  0
LINE
  5
1A8
330
25
100
AcDbEntity
  8
1
  6
Continuous
 62
     0
100
AcDbLine
 10
11207.55190440007
 20
-757.821935390684
 30
0.0
 11
11203.55190440007
 21
-760.131336467442
 31
0.0
  0
LINE
  5
1A7
330
25
100
AcDbEntity
  8
1
  6
Continuous
 62
     0
100
AcDbLine
 10
11207.55190440007
 20
-757.821935390684
 30
0.0
 11
11207.55190440007
 21
-745.131336467442
 31
0.0
  0
LINE
  5
1A6
330
25
100
AcDbEntity
  8
1
  6
Continuous
 62
     0
100
AcDbLine
 10
11150.55190440007
 20
-760.131336467442
 30
0.0
 11
11203.55190440007
 21
-760.131336467442
 31
0.0
  0
LINE
  5
1A5
330
25
100
AcDbEntity
  8
1
  6
Continuous
 62
     0
100
AcDbLine
 10
11212.05190440007
 20
-734.131336467442
 30
0.0
 11
11142.05190440007
 21
-734.131336467442
 31
0.0
  0
LINE
  5
1A4
330
25
100
AcDbEntity
  8
1
  6
Continuous
 62
     0
100
AcDbLine
 10
11209.05190440007
 20
-745.131336467442
 30
0.0
 11
11145.05190440007
 21
-745.131336467442
 31
0.0
  0
LINE
  5
1A3
330
25
100
AcDbEntity
  8
1
  6
Continuous
 62
     0
100
AcDbLine
 10
11146.55190440007
 20
-745.131336467442
 30
0.0
 11
11146.55190440007
 21
-757.821935390684
 31
0.0
  0
LINE
  5
1A2
330
25
100
AcDbEntity
  8
1
  6
Continuous
 62
     0
100
AcDbLine
 10
11207.55190440007
 20
-745.131336467442
 30
0.0
 11
11146.55190440007
 21
-745.131336467442
 31
0.0
  0
LINE
  5
1A1
330
25
100
AcDbEntity
  8
1
  6
Continuous
 62
     0
100
AcDbLine
 10
11212.05190440007
 20
-734.131336467442
 30
0.0
 11
11142.05190440007
 21
-734.131336467442
 31
0.0
  0
LINE
  5
1A0
330
25
100
AcDbEntity
  8
1
  6
Continuous
 62
     0
100
AcDbLine
 10
11198.05190440007
 20
-760.131336467442
 30
0.0
 11
11156.05190440007
 21
-760.131336467442
 31
0.0
  0
LINE
  5
19F
330
25
100
AcDbEntity
  8
1
  6
Continuous
 62
     0
100
AcDbLine
 10
11203.55190440007
 20
-670.631336467442
 30
0.0
 11
11212.05190440007
 21
-670.631336467442
 31
0.0
  0
LINE
  5
19E
330
25
100
AcDbEntity
  8
1
  6
Continuous
 62
     0
100
AcDbLine
 10
11217.05190440007
 20
-675.631336467442
 30
0.0
 11
11217.05190440007
 21
-676.631336467442
 31
0.0
  0
LINE
  5
19D
330
25
100
AcDbEntity
  8
1
  6
Continuous
 62
     0
100
AcDbLine
 10
11218.05190440007
 20
-677.631336467442
 30
0.0
 11
11223.05190440007
 21
-677.631336467442
 31
0.0
  0
LINE
  5
19C
330
25
100
AcDbEntity
  8
1
  6
Continuous
 62
     0
100
AcDbLine
 10
11224.05190440007
 20
-676.131336467442
 30
0.0
 11
11224.05190440007
 21
-676.631336467442
 31
0.0
  0
LINE
  5
19B
330
25
100
AcDbEntity
  8
1
  6
Continuous
 62
     0
100
AcDbLine
 10
11229.05190440007
 20
-676.131336467442
 30
0.0
 11
11224.05190440007
 21
-676.131336467442
 31
0.0
  0
LINE
  5
19A
330
25
100
AcDbEntity
  8
1
  6
Continuous
 62
     0
100
AcDbLine
 10
11229.05190440007
 20
-734.131336467442
 30
0.0
 11
11229.05190440007
 21
-676.131336467442
 31
0.0
  0
LINE
  5
199
330
25
100
AcDbEntity
  8
1
  6
Continuous
 62
     0
100
AcDbLine
 10
11224.05190440007
 20
-734.131336467442
 30
0.0
 11
11229.05190440007
 21
-734.131336467442
 31
0.0
  0
LINE
  5
198
330
25
100
AcDbEntity
  8
1
  6
Continuous
 62
     0
100
AcDbLine
 10
11224.05190440007
 20
-734.131336467442
 30
0.0
 11
11224.05190440007
 21
-733.631336467442
 31
0.0
  0
LINE
  5
197
330
25
100
AcDbEntity
  8
1
  6
Continuous
 62
     0
100
AcDbLine
 10
11218.05190440007
 20
-732.631336467442
 30
0.0
 11
11223.05190440007
 21
-732.631336467442
 31
0.0
  0
LINE
  5
196
330
25
100
AcDbEntity
  8
1
  6
Continuous
 62
     0
100
AcDbLine
 10
11217.05190440007
 20
-734.131336467442
 30
0.0
 11
11217.05190440007
 21
-733.631336467442
 31
0.0
  0
LINE
  5
195
330
25
100
AcDbEntity
  8
1
  6
Continuous
 62
     0
100
AcDbLine
 10
11217.05190440007
 20
-734.131336467442
 30
0.0
 11
11142.05190440007
 21
-734.131336467442
 31
0.0
  0
LINE
  5
194
330
25
100
AcDbEntity
  8
1
  6
Continuous
 62
     0
100
AcDbLine
 10
11137.05190440007
 20
-675.631336467442
 30
0.0
 11
11137.05190440007
 21
-729.131336467442
 31
0.0
  0
LINE
  5
193
330
25
100
AcDbEntity
  8
1
  6
Continuous
 62
     0
100
AcDbLine
 10
11150.55190440007
 20
-670.631336467442
 30
0.0
 11
11142.05190440007
 21
-670.631336467442
 31
0.0
  0
LINE
  5
192
330
25
100
AcDbEntity
  8
1
  6
Continuous
 62
     0
100
AcDbLine
 10
11155.05190440007
 20
-660.631336467442
 30
0.0
 11
11150.55190440007
 21
-663.229412678797
 31
0.0
  0
LINE
  5
191
330
25
100
AcDbEntity
  8
1
  6
Continuous
 62
     0
100
AcDbLine
 10
11199.05190440007
 20
-660.631336467442
 30
0.0
 11
11155.05190440007
 21
-660.631336467442
 31
0.0
  0
LINE
  5
190
330
25
100
AcDbEntity
  8
1
  6
Continuous
 62
     0
100
AcDbLine
 10
11199.05190440007
 20
-660.631336467442
 30
0.0
 11
11203.55190440007
 21
-663.229412678797
 31
0.0
  0
LINE
  5
18F
330
25
100
AcDbEntity
  8
1
  6
Continuous
 62
     0
100
AcDbLine
 10
11199.05190440007
 20
-616.631336467442
 30
0.0
 11
11197.05190440007
 21
-616.631336467442
 31
0.0
  0
LINE
  5
18E
330
25
100
AcDbEntity
  8
1
  6
Continuous
 62
     0
100
AcDbLine
 10
11197.05190440007
 20
-616.631336467442
 30
0.0
 11
11157.05190440007
 21
-616.631336467442
 31
0.0
  0
LINE
  5
18D
330
25
100
AcDbEntity
  8
1
  6
Continuous
 62
     0
100
AcDbLine
 10
11155.05190440007
 20
-616.631336467442
 30
0.0
 11
11157.05190440007
 21
-616.631336467442
 31
0.0
  0
LINE
  5
18C
330
25
100
AcDbEntity
  8
1
  6
Continuous
 62
     0
100
AcDbLine
 10
11200.05190440007
 20
-616.631336467442
 30
0.0
 11
11199.05190440007
 21
-616.631336467442
 31
0.0
  0
LINE
  5
18B
330
25
100
AcDbEntity
  8
1
  6
Continuous
 62
     0
100
AcDbLine
 10
11154.05190440007
 20
-616.631336467442
 30
0.0
 11
11155.05190440007
 21
-616.631336467442
 31
0.0
  0
LINE
  5
18A
330
25
100
AcDbEntity
  8
1
  6
Continuous
 62
     0
100
AcDbLine
 10
11202.05190440007
 20
-662.363387275012
 30
0.0
 11
11202.05190440007
 21
-618.631336467442
 31
0.0
  0
LINE
  5
189
330
25
100
AcDbEntity
  8
1
  6
Continuous
 62
     0
100
AcDbLine
 10
11152.05190440007
 20
-662.363387275012
 30
0.0
 11
11152.05190440007
 21
-618.631336467442
 31
0.0
  0
LINE
  5
188
330
25
100
AcDbEntity
  8
1
  6
Continuous
 62
     0
100
AcDbLine
 10
11163.80190440007
 20
-663.229412678797
 30
0.0
 11
11163.80190440007
 21
-670.631336467442
 31
0.0
  0
LINE
  5
187
330
25
100
AcDbEntity
  8
1
  6
Continuous
 62
     0
100
AcDbLine
 10
11190.30190440007
 20
-663.229412678797
 30
0.0
 11
11190.30190440007
 21
-670.631336467442
 31
0.0
  0
LINE
  5
186
330
25
100
AcDbEntity
  8
1
  6
Continuous
 62
     0
100
AcDbLine
 10
11150.55190440007
 20
-670.631336467442
 30
0.0
 11
11150.55190440007
 21
-663.229412678797
 31
0.0
  0
LINE
  5
185
330
25
100
AcDbEntity
  8
1
  6
Continuous
 62
     0
100
AcDbLine
 10
11203.55190440007
 20
-670.631336467442
 30
0.0
 11
11150.55190440007
 21
-670.631336467442
 31
0.0
  0
LINE
  5
184
330
25
100
AcDbEntity
  8
1
  6
Continuous
 62
     0
100
AcDbLine
 10
11203.55190440007
 20
-663.229412678797
 30
0.0
 11
11203.55190440007
 21
-670.631336467442
 31
0.0
  0
LINE
  5
183
330
25
100
AcDbEntity
  8
1
  6
Continuous
 62
     0
100
AcDbLine
 10
11157.05190440007
 20
-612.631336467442
 30
0.0
 11
11157.05190440007
 21
-614.631336467442
 31
0.0
  0
LINE
  5
182
330
25
100
AcDbEntity
  8
1
  6
Continuous
 62
     0
100
AcDbLine
 10
11158.05190440007
 20
-611.631336467442
 30
0.0
 11
11196.05190440007
 21
-611.631336467442
 31
0.0
  0
LINE
  5
181
330
25
100
AcDbEntity
  8
1
  6
Continuous
 62
     0
100
AcDbLine
 10
11197.05190440007
 20
-612.631336467442
 30
0.0
 11
11197.05190440007
 21
-614.631336467442
 31
0.0
  0
LINE
  5
180
330
25
100
AcDbEntity
  8
1
  6
Continuous
 62
     0
100
AcDbLine
 10
11167.80190440007
 20
-605.363387275012
 30
0.0
 11
11167.80190440007
 21
-611.631336467442
 31
0.0
  0
LINE
  5
17F
330
25
100
AcDbEntity
  8
1
  6
Continuous
 62
     0
100
AcDbLine
 10
11186.30190440007
 20
-605.363387275012
 30
0.0
 11
11186.30190440007
 21
-611.631336467442
 31
0.0
  0
LINE
  5
17E
330
25
100
AcDbEntity
  8
1
  6
Continuous
 62
     0
100
AcDbLine
 10
11162.05190440007
 20
-595.131336467442
 30
0.0
 11
11162.05190440007
 21
-603.631336467442
 31
0.0
  0
LINE
  5
17D
330
25
100
AcDbEntity
  8
1
  6
Continuous
 62
     0
100
AcDbLine
 10
11192.05190440007
 20
-595.131336467442
 30
0.0
 11
11192.05190440007
 21
-603.641635342093
 31
0.0
  0
LINE
  5
17C
330
25
100
AcDbEntity
  8
1
  6
Continuous
 62
     0
100
AcDbLine
 10
11161.55190440007
 20
-603.631336467442
 30
0.0
 11
11192.55190440007
 21
-603.631336467442
 31
0.0
  0
LINE
  5
17B
330
25
100
AcDbEntity
  8
1
  6
Continuous
 62
     0
100
AcDbLine
 10
11158.55190440007
 20
-605.363387275012
 30
0.0
 11
11161.55190440007
 21
-603.631336467442
 31
0.0
  0
LINE
  5
17A
330
25
100
AcDbEntity
  8
1
  6
Continuous
 62
     0
100
AcDbLine
 10
11158.55190440007
 20
-611.631336467442
 30
0.0
 11
11158.55190440007
 21
-605.363387275012
 31
0.0
  0
LINE
  5
179
330
25
100
AcDbEntity
  8
1
  6
Continuous
 62
     0
100
AcDbLine
 10
11195.55190440007
 20
-611.631336467442
 30
0.0
 11
11158.55190440007
 21
-611.631336467442
 31
0.0
  0
LINE
  5
178
330
25
100
AcDbEntity
  8
1
  6
Continuous
 62
     0
100
AcDbLine
 10
11195.55190440007
 20
-605.363387275012
 30
0.0
 11
11195.55190440007
 21
-611.631336467442
 31
0.0
  0
LINE
  5
177
330
25
100
AcDbEntity
  8
1
  6
Continuous
 62
     0
100
AcDbLine
 10
11192.55190440007
 20
-603.631336467442
 30
0.0
 11
11195.55190440007
 21
-605.363387275012
 31
0.0
  0
LINE
  5
175
330
25
100
AcDbEntity
  8
1
  6
Continuous
 62
     0
100
AcDbLine
 10
13483.3334839964
 20
-617.630665128859
 30
0.0
 11
13483.3334839964
 21
-660.053986198252
 31
0.0
  0
LINE
  5
174
330
25
100
AcDbEntity
  8
1
  6
Continuous
 62
     0
100
AcDbLine
 10
13485.3334839964
 20
-617.630665128859
 30
0.0
 11
13485.3334839964
 21
-659.631336467442
 31
0.0
  0
LINE
  5
173
330
25
100
AcDbEntity
  8
1
  6
Continuous
 62
     0
100
AcDbLine
 10
13498.00015066306
 20
-617.630665128859
 30
0.0
 11
13498.00015066306
 21
-659.631336467442
 31
0.0
  0
LINE
  5
172
330
25
100
AcDbEntity
  8
1
  6
Continuous
 62
     0
100
AcDbLine
 10
13500.00015066306
 20
-617.630665128859
 30
0.0
 11
13500.00015066306
 21
-659.631336467442
 31
0.0
  0
LINE
  5
171
330
25
100
AcDbEntity
  8
1
  6
Continuous
 62
     0
100
AcDbLine
 10
13512.66681732973
 20
-617.630665128859
 30
0.0
 11
13512.66681732973
 21
-659.631336467442
 31
0.0
  0
LINE
  5
170
330
25
100
AcDbEntity
  8
1
  6
Continuous
 62
     0
100
AcDbLine
 10
13514.66681732973
 20
-617.630665128859
 30
0.0
 11
13514.66681732973
 21
-659.631336467442
 31
0.0
  0
LINE
  5
16F
330
25
100
AcDbEntity
  8
1
  6
Continuous
 62
     0
100
AcDbLine
 10
13527.3334839964
 20
-617.630665128859
 30
0.0
 11
13527.3334839964
 21
-659.631336467442
 31
0.0
  0
LINE
  5
16E
330
25
100
AcDbEntity
  8
1
  6
Continuous
 62
     0
100
AcDbLine
 10
13529.3334839964
 20
-617.630665128859
 30
0.0
 11
13529.3334839964
 21
-660.053986198252
 31
0.0
  0
LINE
  5
16D
330
25
100
AcDbEntity
  8
1
  6
Continuous
 62
     0
100
AcDbLine
 10
13471.3334839964
 20
-734.131336467442
 30
0.0
 11
13471.3334839964
 21
-742.131336467442
 31
0.0
  0
LINE
  5
16C
330
25
100
AcDbEntity
  8
1
  6
Continuous
 62
     0
100
AcDbLine
 10
13541.3334839964
 20
-734.131336467442
 30
0.0
 11
13541.3334839964
 21
-742.131336467442
 31
0.0
  0
LINE
  5
16A
330
25
100
AcDbEntity
  8
1
  6
Continuous
 62
     0
100
AcDbLine
 10
13522.81606956139
 20
-760.131336467442
 30
0.0
 11
13523.19156956139
 21
-768.891336467442
 31
0.0
  0
LINE
  5
169
330
25
100
AcDbEntity
  8
1
  6
Continuous
 62
     0
100
AcDbLine
 10
13522.81606956139
 20
-781.351336467443
 30
0.0
 11
13523.19156956139
 21
-772.591336467443
 31
0.0
  0
LINE
  5
168
330
25
100
AcDbEntity
  8
1
  6
Continuous
 62
     0
100
AcDbLine
 10
13489.19156956139
 20
-772.591336467443
 30
0.0
 11
13489.56706956139
 21
-781.351336467443
 31
0.0
  0
LINE
  5
167
330
25
100
AcDbEntity
  8
1
  6
Continuous
 62
     0
100
AcDbLine
 10
13489.19156956139
 20
-768.891336467442
 30
0.0
 11
13489.56706956139
 21
-760.131336467442
 31
0.0
  0
LINE
  5
166
330
25
100
AcDbEntity
  8
1
  6
Continuous
 62
     0
100
AcDbLine
 10
13523.19156956139
 20
-772.591336467443
 30
0.0
 11
13523.19156956139
 21
-768.891336467442
 31
0.0
  0
LINE
  5
165
330
25
100
AcDbEntity
  8
1
  6
Continuous
 62
     0
100
AcDbLine
 10
13489.19156956139
 20
-768.891336467442
 30
0.0
 11
13489.19156956139
 21
-772.591336467443
 31
0.0
  0
LINE
  5
164
330
25
100
AcDbEntity
  8
1
  6
Continuous
 62
     0
100
AcDbLine
 10
13523.19156956139
 20
-772.591336467443
 30
0.0
 11
13489.19156956139
 21
-772.591336467443
 31
0.0
  0
LINE
  5
163
330
25
100
AcDbEntity
  8
1
  6
Continuous
 62
     0
100
AcDbLine
 10
13489.19156956139
 20
-768.891336467442
 30
0.0
 11
13523.19156956139
 21
-768.891336467442
 31
0.0
  0
LINE
  5
162
330
25
100
AcDbEntity
  8
1
  6
Continuous
 62
     0
100
AcDbLine
 10
13539.80206352185
 20
-797.849791934871
 30
0.0
 11
13532.69156956139
 21
-797.849791934871
 31
0.0
  0
LINE
  5
161
330
25
100
AcDbEntity
  8
1
  6
Continuous
 62
     0
100
AcDbLine
 10
13550.18688705659
 20
-832.351336467443
 30
0.0
 11
13550.18688705659
 21
-796.349791934871
 31
0.0
  0
LINE
  5
160
330
25
100
AcDbEntity
  8
1
  6
Continuous
 62
     0
100
AcDbLine
 10
13545.18688705659
 20
-866.852881000014
 30
0.0
 11
13545.18688705659
 21
-868.352881000014
 31
0.0
  0
LINE
  5
15F
330
25
100
AcDbEntity
  8
1
  6
Continuous
 62
     0
100
AcDbLine
 10
13545.18688705659
 20
-797.849791934871
 30
0.0
 11
13545.18688705659
 21
-796.349791934871
 31
0.0
  0
LINE
  5
15E
330
25
100
AcDbEntity
  8
1
  6
Continuous
 62
     0
100
AcDbLine
 10
13545.18688705659
 20
-866.852881000014
 30
0.0
 11
13545.18688705659
 21
-797.849791934871
 31
0.0
  0
LINE
  5
15D
330
25
100
AcDbEntity
  8
1
  6
Continuous
 62
     0
100
AcDbLine
 10
13545.18688705659
 20
-796.349791934871
 30
0.0
 11
13550.18688705659
 21
-796.349791934871
 31
0.0
  0
LINE
  5
15C
330
25
100
AcDbEntity
  8
1
  6
Continuous
 62
     0
100
AcDbLine
 10
13545.18688705659
 20
-868.352881000014
 30
0.0
 11
13550.18688705659
 21
-868.352881000014
 31
0.0
  0
LINE
  5
15B
330
25
100
AcDbEntity
  8
1
  6
Continuous
 62
     0
100
AcDbLine
 10
13550.18688705659
 20
-868.352881000014
 30
0.0
 11
13550.18688705659
 21
-832.351336467443
 31
0.0
  0
LINE
  5
15A
330
25
100
AcDbEntity
  8
1
  6
Continuous
 62
     0
100
AcDbLine
 10
13539.80206352185
 20
-866.852881000014
 30
0.0
 11
13530.69156956139
 21
-866.852881000014
 31
0.0
  0
LINE
  5
158
330
25
100
AcDbEntity
  8
1
  6
Continuous
 62
     0
100
AcDbLine
 10
13484.17865183931
 20
-786.351336467443
 30
0.0
 11
13528.20448728346
 21
-786.351336467443
 31
0.0
  0
LINE
  5
157
330
25
100
AcDbEntity
  8
1
  6
Continuous
 62
     0
100
AcDbLine
 10
13528.20448728346
 20
-781.351336467443
 30
0.0
 11
13528.20448728346
 21
-786.351336467443
 31
0.0
  0
LINE
  5
156
330
25
100
AcDbEntity
  8
1
  6
Continuous
 62
     0
100
AcDbLine
 10
13484.17865183931
 20
-781.351336467443
 30
0.0
 11
13484.17865183931
 21
-786.351336467443
 31
0.0
  0
LINE
  5
155
330
25
100
AcDbEntity
  8
1
  6
Continuous
 62
     0
100
AcDbLine
 10
13484.17865183931
 20
-781.351336467443
 30
0.0
 11
13506.19156956139
 21
-781.351336467443
 31
0.0
  0
LINE
  5
154
330
25
100
AcDbEntity
  8
1
  6
Continuous
 62
     0
100
AcDbLine
 10
13526.69156956139
 20
-790.516417649706
 30
0.0
 11
13526.69156956139
 21
-791.849791934871
 31
0.0
  0
LINE
  5
153
330
25
100
AcDbEntity
  8
1
  6
Continuous
 62
     0
100
AcDbLine
 10
13485.69156956139
 20
-790.516417649706
 30
0.0
 11
13485.69156956139
 21
-821.852881000015
 31
0.0
  0
LINE
  5
152
330
25
100
AcDbEntity
  8
1
  6
Continuous
 62
     0
100
AcDbLine
 10
13506.19156956139
 20
-781.351336467443
 30
0.0
 11
13528.20448728346
 21
-781.351336467443
 31
0.0
  0
LINE
  5
151
330
25
100
AcDbEntity
  8
1
  6
Continuous
 62
     0
100
AcDbLine
 10
13550.18688705659
 20
-802.544336467443
 30
0.0
 11
13561.30688705659
 21
-802.101336467443
 31
0.0
  0
LINE
  5
150
330
25
100
AcDbEntity
  8
1
  6
Continuous
 62
     0
100
AcDbLine
 10
13561.30688705659
 20
-862.601336467443
 30
0.0
 11
13550.18688705659
 21
-862.158336467443
 31
0.0
  0
LINE
  5
14F
330
25
100
AcDbEntity
  8
1
  6
Continuous
 62
     0
100
AcDbLine
 10
13565.30688705659
 20
-802.101336467443
 30
0.0
 11
13576.42688705659
 21
-802.544336467443
 31
0.0
  0
LINE
  5
14E
330
25
100
AcDbEntity
  8
1
  6
Continuous
 62
     0
100
AcDbLine
 10
13565.30688705659
 20
-862.601336467443
 30
0.0
 11
13576.42688705659
 21
-862.158336467443
 31
0.0
  0
LINE
  5
14D
330
25
100
AcDbEntity
  8
1
  6
Continuous
 62
     0
100
AcDbLine
 10
13565.30688705659
 20
-802.101336467443
 30
0.0
 11
13561.30688705659
 21
-802.101336467443
 31
0.0
  0
LINE
  5
14C
330
25
100
AcDbEntity
  8
1
  6
Continuous
 62
     0
100
AcDbLine
 10
13561.30688705659
 20
-862.601336467443
 30
0.0
 11
13565.30688705659
 21
-862.601336467443
 31
0.0
  0
LINE
  5
14B
330
25
100
AcDbEntity
  8
1
  6
Continuous
 62
     0
100
AcDbLine
 10
13561.30688705659
 20
-862.601336467443
 30
0.0
 11
13561.30688705659
 21
-802.101336467443
 31
0.0
  0
LINE
  5
14A
330
25
100
AcDbEntity
  8
1
  6
Continuous
 62
     0
100
AcDbLine
 10
13565.30688705659
 20
-802.101336467443
 30
0.0
 11
13565.30688705659
 21
-862.601336467443
 31
0.0
  0
LINE
  5
148
330
25
100
AcDbEntity
  8
1
  6
Continuous
 62
     0
100
AcDbLine
 10
13521.8334839964
 20
-603.630665128859
 30
0.0
 11
13524.8334839964
 21
-605.362715936427
 31
0.0
  0
LINE
  5
147
330
25
100
AcDbEntity
  8
1
  6
Continuous
 62
     0
100
AcDbLine
 10
13524.8334839964
 20
-605.362715936427
 30
0.0
 11
13524.8334839964
 21
-611.630665128859
 31
0.0
  0
LINE
  5
146
330
25
100
AcDbEntity
  8
1
  6
Continuous
 62
     0
100
AcDbLine
 10
13524.8334839964
 20
-611.630665128859
 30
0.0
 11
13487.8334839964
 21
-611.630665128859
 31
0.0
  0
LINE
  5
145
330
25
100
AcDbEntity
  8
1
  6
Continuous
 62
     0
100
AcDbLine
 10
13487.8334839964
 20
-611.630665128859
 30
0.0
 11
13487.8334839964
 21
-605.362715936427
 31
0.0
  0
LINE
  5
144
330
25
100
AcDbEntity
  8
1
  6
Continuous
 62
     0
100
AcDbLine
 10
13487.8334839964
 20
-605.362715936427
 30
0.0
 11
13490.8334839964
 21
-603.630665128859
 31
0.0
  0
LINE
  5
143
330
25
100
AcDbEntity
  8
1
  6
Continuous
 62
     0
100
AcDbLine
 10
13490.8334839964
 20
-603.630665128859
 30
0.0
 11
13521.8334839964
 21
-603.630665128859
 31
0.0
  0
LINE
  5
142
330
25
100
AcDbEntity
  8
1
  6
Continuous
 62
     0
100
AcDbLine
 10
13521.3334839964
 20
-595.130665128859
 30
0.0
 11
13521.3334839964
 21
-603.640964003509
 31
0.0
  0
LINE
  5
141
330
25
100
AcDbEntity
  8
1
  6
Continuous
 62
     0
100
AcDbLine
 10
13491.3334839964
 20
-595.130665128859
 30
0.0
 11
13491.3334839964
 21
-603.630665128859
 31
0.0
  0
LINE
  5
140
330
25
100
AcDbEntity
  8
1
  6
Continuous
 62
     0
100
AcDbLine
 10
13515.5834839964
 20
-605.362715936427
 30
0.0
 11
13515.5834839964
 21
-611.630665128859
 31
0.0
  0
LINE
  5
13F
330
25
100
AcDbEntity
  8
1
  6
Continuous
 62
     0
100
AcDbLine
 10
13497.0834839964
 20
-605.362715936427
 30
0.0
 11
13497.0834839964
 21
-611.630665128859
 31
0.0
  0
LINE
  5
13E
330
25
100
AcDbEntity
  8
1
  6
Continuous
 62
     0
100
AcDbLine
 10
13526.3334839964
 20
-612.630665128859
 30
0.0
 11
13526.3334839964
 21
-614.630665128859
 31
0.0
  0
LINE
  5
13D
330
25
100
AcDbEntity
  8
1
  6
Continuous
 62
     0
100
AcDbLine
 10
13487.3334839964
 20
-611.630665128859
 30
0.0
 11
13525.3334839964
 21
-611.630665128859
 31
0.0
  0
LINE
  5
13C
330
25
100
AcDbEntity
  8
1
  6
Continuous
 62
     0
100
AcDbLine
 10
13486.3334839964
 20
-612.630665128859
 30
0.0
 11
13486.3334839964
 21
-614.630665128859
 31
0.0
  0
LINE
  5
13B
330
25
100
AcDbEntity
  8
1
  6
Continuous
 62
     0
100
AcDbLine
 10
13532.8334839964
 20
-663.229412678797
 30
0.0
 11
13532.8334839964
 21
-670.631336467442
 31
0.0
  0
LINE
  5
13A
330
25
100
AcDbEntity
  8
1
  6
Continuous
 62
     0
100
AcDbLine
 10
13532.8334839964
 20
-670.631336467442
 30
0.0
 11
13479.8334839964
 21
-670.631336467442
 31
0.0
  0
LINE
  5
139
330
25
100
AcDbEntity
  8
1
  6
Continuous
 62
     0
100
AcDbLine
 10
13479.8334839964
 20
-670.631336467442
 30
0.0
 11
13479.8334839964
 21
-663.229412678797
 31
0.0
  0
LINE
  5
138
330
25
100
AcDbEntity
  8
1
  6
Continuous
 62
     0
100
AcDbLine
 10
13519.5834839964
 20
-663.229412678797
 30
0.0
 11
13519.5834839964
 21
-670.631336467442
 31
0.0
  0
LINE
  5
137
330
25
100
AcDbEntity
  8
1
  6
Continuous
 62
     0
100
AcDbLine
 10
13493.0834839964
 20
-663.229412678797
 30
0.0
 11
13493.0834839964
 21
-670.631336467442
 31
0.0
  0
LINE
  5
136
330
25
100
AcDbEntity
  8
1
  6
Continuous
 62
     0
100
AcDbLine
 10
13481.3334839964
 20
-662.363387275012
 30
0.0
 11
13481.3334839964
 21
-618.630665128859
 31
0.0
  0
LINE
  5
135
330
25
100
AcDbEntity
  8
1
  6
Continuous
 62
     0
100
AcDbLine
 10
13531.3334839964
 20
-662.363387275012
 30
0.0
 11
13531.3334839964
 21
-618.630665128859
 31
0.0
  0
LINE
  5
134
330
25
100
AcDbEntity
  8
1
  6
Continuous
 62
     0
100
AcDbLine
 10
13483.3334839964
 20
-616.630665128859
 30
0.0
 11
13484.3334839964
 21
-616.630665128859
 31
0.0
  0
LINE
  5
133
330
25
100
AcDbEntity
  8
1
  6
Continuous
 62
     0
100
AcDbLine
 10
13529.3334839964
 20
-616.630665128859
 30
0.0
 11
13528.3334839964
 21
-616.630665128859
 31
0.0
  0
LINE
  5
132
330
25
100
AcDbEntity
  8
1
  6
Continuous
 62
     0
100
AcDbLine
 10
13484.3334839964
 20
-616.630665128859
 30
0.0
 11
13486.3334839964
 21
-616.630665128859
 31
0.0
  0
LINE
  5
131
330
25
100
AcDbEntity
  8
1
  6
Continuous
 62
     0
100
AcDbLine
 10
13526.3334839964
 20
-616.630665128859
 30
0.0
 11
13486.3334839964
 21
-616.630665128859
 31
0.0
  0
LINE
  5
130
330
25
100
AcDbEntity
  8
1
  6
Continuous
 62
     0
100
AcDbLine
 10
13528.3334839964
 20
-616.630665128859
 30
0.0
 11
13526.3334839964
 21
-616.630665128859
 31
0.0
  0
LINE
  5
12F
330
25
100
AcDbEntity
  8
1
  6
Continuous
 62
     0
100
AcDbLine
 10
13528.3334839964
 20
-660.631336467442
 30
0.0
 11
13532.8334839964
 21
-663.229412678797
 31
0.0
  0
LINE
  5
12E
330
25
100
AcDbEntity
  8
1
  6
Continuous
 62
     0
100
AcDbLine
 10
13528.3334839964
 20
-660.631336467442
 30
0.0
 11
13484.3334839964
 21
-660.631336467442
 31
0.0
  0
LINE
  5
12D
330
25
100
AcDbEntity
  8
1
  6
Continuous
 62
     0
100
AcDbLine
 10
13484.3334839964
 20
-660.631336467442
 30
0.0
 11
13479.8334839964
 21
-663.229412678797
 31
0.0
  0
LINE
  5
12C
330
25
100
AcDbEntity
  8
1
  6
Continuous
 62
     0
100
AcDbLine
 10
13479.8334839964
 20
-670.631336467442
 30
0.0
 11
13471.3334839964
 21
-670.631336467442
 31
0.0
  0
LINE
  5
12B
330
25
100
AcDbEntity
  8
1
  6
Continuous
 62
     0
100
AcDbLine
 10
13466.3334839964
 20
-675.631336467442
 30
0.0
 11
13466.3334839964
 21
-729.131336467442
 31
0.0
  0
LINE
  5
12A
330
25
100
AcDbEntity
  8
1
  6
Continuous
 62
     0
100
AcDbLine
 10
13471.3334839964
 20
-734.131336467442
 30
0.0
 11
13541.3334839964
 21
-734.131336467442
 31
0.0
  0
LINE
  5
129
330
25
100
AcDbEntity
  8
1
  6
Continuous
 62
     0
100
AcDbLine
 10
13546.3334839964
 20
-675.631336467442
 30
0.0
 11
13546.3334839964
 21
-729.131336467442
 31
0.0
  0
LINE
  5
128
330
25
100
AcDbEntity
  8
1
  6
Continuous
 62
     0
100
AcDbLine
 10
13532.8334839964
 20
-670.631336467442
 30
0.0
 11
13541.3334839964
 21
-670.631336467442
 31
0.0
  0
LINE
  5
127
330
25
100
AcDbEntity
  8
1
  6
Continuous
 62
     0
100
AcDbLine
 10
13527.3334839964
 20
-760.131336467442
 30
0.0
 11
13485.3334839964
 21
-760.131336467442
 31
0.0
  0
LINE
  5
126
330
25
100
AcDbEntity
  8
1
  6
Continuous
 62
     0
100
AcDbLine
 10
13541.3334839964
 20
-734.131336467442
 30
0.0
 11
13471.3334839964
 21
-734.131336467442
 31
0.0
  0
LINE
  5
125
330
25
100
AcDbEntity
  8
1
  6
Continuous
 62
     0
100
AcDbLine
 10
13536.8334839964
 20
-745.131336467442
 30
0.0
 11
13475.8334839964
 21
-745.131336467442
 31
0.0
  0
LINE
  5
124
330
25
100
AcDbEntity
  8
1
  6
Continuous
 62
     0
100
AcDbLine
 10
13475.8334839964
 20
-745.131336467442
 30
0.0
 11
13475.8334839964
 21
-757.821935390684
 31
0.0
  0
LINE
  5
123
330
25
100
AcDbEntity
  8
1
  6
Continuous
 62
     0
100
AcDbLine
 10
13538.3334839964
 20
-745.131336467442
 30
0.0
 11
13474.3334839964
 21
-745.131336467442
 31
0.0
  0
LINE
  5
122
330
25
100
AcDbEntity
  8
1
  6
Continuous
 62
     0
100
AcDbLine
 10
13541.3334839964
 20
-734.131336467442
 30
0.0
 11
13471.3334839964
 21
-734.131336467442
 31
0.0
  0
LINE
  5
121
330
25
100
AcDbEntity
  8
1
  6
Continuous
 62
     0
100
AcDbLine
 10
13479.8334839964
 20
-760.131336467442
 30
0.0
 11
13532.8334839964
 21
-760.131336467442
 31
0.0
  0
LINE
  5
120
330
25
100
AcDbEntity
  8
1
  6
Continuous
 62
     0
100
AcDbLine
 10
13536.8334839964
 20
-757.821935390684
 30
0.0
 11
13536.8334839964
 21
-745.131336467442
 31
0.0
  0
LINE
  5
11F
330
25
100
AcDbEntity
  8
1
  6
Continuous
 62
     0
100
AcDbLine
 10
13536.8334839964
 20
-757.821935390684
 30
0.0
 11
13532.8334839964
 21
-760.131336467442
 31
0.0
  0
LINE
  5
11E
330
25
100
AcDbEntity
  8
1
  6
Continuous
 62
     0
100
AcDbLine
 10
13475.8334839964
 20
-757.821935390684
 30
0.0
 11
13479.8334839964
 21
-760.131336467442
 31
0.0
  0
LINE
  5
11D
330
25
100
AcDbEntity
  8
1
  6
Continuous
 62
     0
100
AcDbLine
 10
13521.5834839964
 20
-757.821935390684
 30
0.0
 11
13521.5834839964
 21
-745.131336467442
 31
0.0
  0
LINE
  5
11C
330
25
100
AcDbEntity
  8
1
  6
Continuous
 62
     0
100
AcDbLine
 10
13491.0834839964
 20
-757.821935390684
 30
0.0
 11
13491.0834839964
 21
-745.131336467442
 31
0.0
  0
LINE
  5
11B
330
25
100
AcDbEntity
  8
1
  6
Continuous
 62
     0
100
AcDbLine
 10
13596.42688705659
 20
-799.201336467442
 30
0.0
 11
13576.42688705659
 21
-799.201336467442
 31
0.0
  0
LINE
  5
11A
330
25
100
AcDbEntity
  8
1
  6
Continuous
 62
     0
100
AcDbLine
 10
13596.42688705659
 20
-865.501336467443
 30
0.0
 11
13576.42688705659
 21
-865.501336467443
 31
0.0
  0
LINE
  5
119
330
25
100
AcDbEntity
  8
1
  6
Continuous
 62
     0
100
AcDbLine
 10
13576.42688705659
 20
-865.501336467443
 30
0.0
 11
13576.42688705659
 21
-799.201336467442
 31
0.0
  0
LINE
  5
F9
330
25
100
AcDbEntity
  8
1
  6
Continuous
 62
     0
100
AcDbLine
 10
11185.96961892289
 20
-4342.169282939742
 30
0.0
 11
11185.96961892289
 21
-4345.169282939742
 31
0.0
  0
LINE
  5
F8
330
25
100
AcDbEntity
  8
1
  6
Continuous
 62
     0
100
AcDbLine
 10
11186.96961892289
 20
-4345.169282939742
 30
0.0
 11
11186.96961892289
 21
-4349.169282939742
 31
0.0
  0
LINE
  5
F7
330
25
100
AcDbEntity
  8
1
  6
Continuous
 62
     0
100
AcDbLine
 10
11187.11321246234
 20
-4349.169282939742
 30
0.0
 11
11187.11321246234
 21
-4358.097486170015
 31
0.0
  0
LINE
  5
F6
330
25
100
AcDbEntity
  8
1
  6
Continuous
 62
     0
100
AcDbLine
 10
11187.11321246234
 20
-4358.097486170015
 30
0.0
 11
11188.96961892289
 21
-4359.169282939742
 31
0.0
  0
LINE
  5
F5
330
25
100
AcDbEntity
  8
1
  6
Continuous
 62
     0
100
AcDbLine
 10
11165.13418987725
 20
-4359.169282939742
 30
0.0
 11
11166.99059633781
 21
-4358.097486170015
 31
0.0
  0
LINE
  5
F4
330
25
100
AcDbEntity
  8
1
  6
Continuous
 62
     0
100
AcDbLine
 10
11166.99059633781
 20
-4358.097486170015
 30
0.0
 11
11166.99059633781
 21
-4349.169282939742
 31
0.0
  0
LINE
  5
F3
330
25
100
AcDbEntity
  8
1
  6
Continuous
 62
     0
100
AcDbLine
 10
11167.13418987725
 20
-4349.169282939742
 30
0.0
 11
11167.13418987725
 21
-4345.169282939742
 31
0.0
  0
LINE
  5
F2
330
25
100
AcDbEntity
  8
1
  6
Continuous
 62
     0
100
AcDbLine
 10
11168.13418987725
 20
-4345.169282939742
 30
0.0
 11
11168.13418987725
 21
-4342.169282939742
 31
0.0
  0
LINE
  5
F1
330
25
100
AcDbEntity
  8
1
  6
Continuous
 62
     0
100
AcDbLine
 10
11177.05190440007
 20
-4359.169282939742
 30
0.0
 11
11190.55190440007
 21
-4359.169282939742
 31
0.0
  0
LINE
  5
F0
330
25
100
AcDbEntity
  8
1
  6
Continuous
 62
     0
100
AcDbLine
 10
11185.96961892289
 20
-4342.169282939742
 30
0.0
 11
11185.96961892289
 21
-4345.169282939742
 31
0.0
  0
LINE
  5
EF
330
25
100
AcDbEntity
  8
1
  6
Continuous
 62
     0
100
AcDbLine
 10
11186.96961892289
 20
-4345.169282939742
 30
0.0
 11
11186.96961892289
 21
-4349.169282939742
 31
0.0
  0
LINE
  5
EE
330
25
100
AcDbEntity
  8
1
  6
Continuous
 62
     0
100
AcDbLine
 10
11187.11321246234
 20
-4349.169282939742
 30
0.0
 11
11187.11321246234
 21
-4358.097486170013
 31
0.0
  0
LINE
  5
ED
330
25
100
AcDbEntity
  8
1
  6
Continuous
 62
     0
100
AcDbLine
 10
11187.11321246234
 20
-4358.097486170013
 30
0.0
 11
11188.96961892289
 21
-4359.169282939742
 31
0.0
  0
LINE
  5
EC
330
25
100
AcDbEntity
  8
1
  6
Continuous
 62
     0
100
AcDbLine
 10
11165.13418987725
 20
-4359.169282939742
 30
0.0
 11
11166.99059633781
 21
-4358.097486170013
 31
0.0
  0
LINE
  5
EB
330
25
100
AcDbEntity
  8
1
  6
Continuous
 62
     0
100
AcDbLine
 10
11166.99059633781
 20
-4358.097486170013
 30
0.0
 11
11166.99059633781
 21
-4349.169282939742
 31
0.0
  0
LINE
  5
EA
330
25
100
AcDbEntity
  8
1
  6
Continuous
 62
     0
100
AcDbLine
 10
11167.13418987725
 20
-4349.169282939742
 30
0.0
 11
11167.13418987725
 21
-4345.169282939742
 31
0.0
  0
LINE
  5
E9
330
25
100
AcDbEntity
  8
1
  6
Continuous
 62
     0
100
AcDbLine
 10
11168.13418987725
 20
-4345.169282939742
 30
0.0
 11
11168.13418987725
 21
-4342.169282939742
 31
0.0
  0
LINE
  5
E8
330
25
100
AcDbEntity
  8
1
  6
Continuous
 62
     0
100
AcDbLine
 10
11173.05190440007
 20
-4347.169282939742
 30
0.0
 11
11173.05190440007
 21
-4354.169282939742
 31
0.0
  0
LINE
  5
E7
330
25
100
AcDbEntity
  8
1
  6
Continuous
 62
     0
100
AcDbLine
 10
11181.05190440007
 20
-4354.169282939742
 30
0.0
 11
11181.05190440007
 21
-4347.169282939742
 31
0.0
  0
LINE
  5
E6
330
25
100
AcDbEntity
  8
1
  6
Continuous
 62
     0
100
AcDbLine
 10
11177.05190440007
 20
-4359.169282939742
 30
0.0
 11
11190.55190440007
 21
-4359.169282939742
 31
0.0
  0
LINE
  5
E5
330
25
100
AcDbEntity
  8
1
  6
Continuous
 62
     0
100
AcDbLine
 10
11172.4839133143
 20
-4356.169282939742
 30
0.0
 11
11166.99059633781
 21
-4356.169282939742
 31
0.0
  0
LINE
  5
E4
330
25
100
AcDbEntity
  8
1
  6
Continuous
 62
     0
100
AcDbLine
 10
11179.05190440007
 20
-4356.169282939742
 30
0.0
 11
11175.05190440007
 21
-4356.169282939742
 31
0.0
  0
LINE
  5
E3
330
25
100
AcDbEntity
  8
1
  6
Continuous
 62
     0
100
AcDbLine
 10
11173.05190440007
 20
-4347.169282939742
 30
0.0
 11
11173.05190440007
 21
-4354.169282939742
 31
0.0
  0
LINE
  5
E2
330
25
100
AcDbEntity
  8
1
  6
Continuous
 62
     0
100
AcDbLine
 10
11181.05190440007
 20
-4354.169282939742
 30
0.0
 11
11181.05190440007
 21
-4347.169282939742
 31
0.0
  0
LINE
  5
E1
330
25
100
AcDbEntity
  8
1
  6
Continuous
 62
     0
100
AcDbLine
 10
11186.96961892289
 20
-4347.169282939742
 30
0.0
 11
11167.13418987725
 21
-4347.169282939742
 31
0.0
  0
LINE
  5
E0
330
25
100
AcDbEntity
  8
1
  6
Continuous
 62
     0
100
AcDbLine
 10
11187.11321246234
 20
-4356.169282939742
 30
0.0
 11
11181.61989548585
 21
-4356.169282939742
 31
0.0
  0
LINE
  5
DF
330
25
100
AcDbEntity
  8
1
  6
Continuous
 62
     0
100
AcDbLine
 10
11172.4839133143
 20
-4356.169282939742
 30
0.0
 11
11166.99059633781
 21
-4356.169282939742
 31
0.0
  0
LINE
  5
DE
330
25
100
AcDbEntity
  8
1
  6
Continuous
 62
     0
100
AcDbLine
 10
11187.11321246234
 20
-4356.169282939742
 30
0.0
 11
11181.61989548585
 21
-4356.169282939742
 31
0.0
  0
LINE
  5
DD
330
25
100
AcDbEntity
  8
1
  6
Continuous
 62
     0
100
AcDbLine
 10
11173.05190440007
 20
-4347.169282939742
 30
0.0
 11
11173.05190440007
 21
-4354.169282939742
 31
0.0
  0
LINE
  5
DC
330
25
100
AcDbEntity
  8
1
  6
Continuous
 62
     0
100
AcDbLine
 10
11181.05190440007
 20
-4354.169282939742
 30
0.0
 11
11181.05190440007
 21
-4347.169282939742
 31
0.0
  0
LINE
  5
DB
330
25
100
AcDbEntity
  8
1
  6
Continuous
 62
     0
100
AcDbLine
 10
11179.05190440007
 20
-4356.169282939742
 30
0.0
 11
11175.05190440007
 21
-4356.169282939742
 31
0.0
  0
LINE
  5
DA
330
25
100
AcDbEntity
  8
1
  6
Continuous
 62
     0
100
AcDbLine
 10
11173.05190440007
 20
-4347.169282939742
 30
0.0
 11
11173.05190440007
 21
-4354.169282939742
 31
0.0
  0
LINE
  5
D9
330
25
100
AcDbEntity
  8
1
  6
Continuous
 62
     0
100
AcDbLine
 10
11181.05190440007
 20
-4354.169282939742
 30
0.0
 11
11181.05190440007
 21
-4347.169282939742
 31
0.0
  0
LINE
  5
D8
330
25
100
AcDbEntity
  8
1
  6
Continuous
 62
     0
100
AcDbLine
 10
11186.96961892289
 20
-4347.169282939742
 30
0.0
 11
11167.13418987725
 21
-4347.169282939742
 31
0.0
  0
LINE
  5
D7
330
25
100
AcDbEntity
  8
1
  6
Continuous
 62
     0
100
AcDbLine
 10
11163.55190440007
 20
-4359.169282939742
 30
0.0
 11
11177.05190440007
 21
-4359.169282939742
 31
0.0
  0
LINE
  5
D6
330
25
100
AcDbEntity
  8
1
  6
Continuous
 62
     0
100
AcDbLine
 10
16525.71462890613
 20
-4319.406868680892
 30
0.0
 11
16521.77712890613
 21
-4316.781868680892
 31
0.0
  0
LINE
  5
D5
330
25
100
AcDbEntity
  8
1
  6
Continuous
 62
     0
100
AcDbLine
 10
16521.77712890613
 20
-4316.781868680892
 30
0.0
 11
16517.83962890613
 21
-4315.469368680892
 31
0.0
  0
LINE
  5
D4
330
25
100
AcDbEntity
  8
1
  6
Continuous
 62
     0
100
AcDbLine
 10
16517.83962890613
 20
-4315.469368680892
 30
0.0
 11
16511.27712890613
 21
-4314.156868680892
 31
0.0
  0
LINE
  5
D3
330
25
100
AcDbEntity
  8
1
  6
Continuous
 62
     0
100
AcDbLine
 10
16511.27712890613
 20
-4314.156868680892
 30
0.0
 11
16506.02712890613
 21
-4314.156868680892
 31
0.0
  0
LINE
  5
D2
330
25
100
AcDbEntity
  8
1
  6
Continuous
 62
     0
100
AcDbLine
 10
16506.02712890613
 20
-4314.156868680892
 30
0.0
 11
16500.77712890613
 21
-4315.469368680892
 31
0.0
  0
LINE
  5
D1
330
25
100
AcDbEntity
  8
1
  6
Continuous
 62
     0
100
AcDbLine
 10
16500.77712890613
 20
-4315.469368680892
 30
0.0
 11
16496.83962890613
 21
-4316.781868680892
 31
0.0
  0
LINE
  5
D0
330
25
100
AcDbEntity
  8
1
  6
Continuous
 62
     0
100
AcDbLine
 10
16496.83962890613
 20
-4316.781868680892
 30
0.0
 11
16492.90212890613
 21
-4319.406868680892
 31
0.0
  0
LINE
  5
CF
330
25
100
AcDbEntity
  8
1
  6
Continuous
 62
     0
100
AcDbLine
 10
16492.90212890613
 20
-4319.406868680892
 30
0.0
 11
16491.58962890613
 21
-4323.344368680892
 31
0.0
  0
LINE
  5
CE
330
25
100
AcDbEntity
  8
1
  6
Continuous
 62
     0
100
AcDbLine
 10
16491.58962890613
 20
-4323.344368680892
 30
0.0
 11
16491.58962890613
 21
-4325.969368680892
 31
0.0
  0
LINE
  5
CD
330
25
100
AcDbEntity
  8
1
  6
Continuous
 62
     0
100
AcDbLine
 10
16491.58962890613
 20
-4325.969368680892
 30
0.0
 11
16492.90212890613
 21
-4329.906868680892
 31
0.0
  0
LINE
  5
CC
330
25
100
AcDbEntity
  8
1
  6
Continuous
 62
     0
100
AcDbLine
 10
16492.90212890613
 20
-4329.906868680892
 30
0.0
 11
16496.83962890613
 21
-4332.531868680892
 31
0.0
  0
LINE
  5
CB
330
25
100
AcDbEntity
  8
1
  6
Continuous
 62
     0
100
AcDbLine
 10
16496.83962890613
 20
-4332.531868680892
 30
0.0
 11
16519.15212890613
 21
-4341.719368680892
 31
0.0
  0
LINE
  5
CA
330
25
100
AcDbEntity
  8
1
  6
Continuous
 62
     0
100
AcDbLine
 10
16519.15212890613
 20
-4341.719368680892
 30
0.0
 11
16523.08962890613
 21
-4344.344368680892
 31
0.0
  0
LINE
  5
C9
330
25
100
AcDbEntity
  8
1
  6
Continuous
 62
     0
100
AcDbLine
 10
16523.08962890613
 20
-4344.344368680892
 30
0.0
 11
16525.71462890613
 21
-4348.281868680892
 31
0.0
  0
LINE
  5
C8
330
25
100
AcDbEntity
  8
1
  6
Continuous
 62
     0
100
AcDbLine
 10
16525.71462890613
 20
-4348.281868680892
 30
0.0
 11
16527.02712890613
 21
-4352.219368680892
 31
0.0
  0
LINE
  5
C7
330
25
100
AcDbEntity
  8
1
  6
Continuous
 62
     0
100
AcDbLine
 10
16527.02712890613
 20
-4352.219368680892
 30
0.0
 11
16527.02712890613
 21
-4354.844368680892
 31
0.0
  0
LINE
  5
C6
330
25
100
AcDbEntity
  8
1
  6
Continuous
 62
     0
100
AcDbLine
 10
16527.02712890613
 20
-4354.844368680892
 30
0.0
 11
16525.71462890613
 21
-4358.781868680892
 31
0.0
  0
LINE
  5
C5
330
25
100
AcDbEntity
  8
1
  6
Continuous
 62
     0
100
AcDbLine
 10
16525.71462890613
 20
-4358.781868680892
 30
0.0
 11
16523.08962890613
 21
-4362.719368680892
 31
0.0
  0
LINE
  5
C4
330
25
100
AcDbEntity
  8
1
  6
Continuous
 62
     0
100
AcDbLine
 10
16523.08962890613
 20
-4362.719368680892
 30
0.0
 11
16519.15212890613
 21
-4365.344368680892
 31
0.0
  0
LINE
  5
C3
330
25
100
AcDbEntity
  8
1
  6
Continuous
 62
     0
100
AcDbLine
 10
16519.15212890613
 20
-4365.344368680892
 30
0.0
 11
16512.58962890613
 21
-4366.656868680892
 31
0.0
  0
LINE
  5
C2
330
25
100
AcDbEntity
  8
1
  6
Continuous
 62
     0
100
AcDbLine
 10
16512.58962890613
 20
-4366.656868680892
 30
0.0
 11
16504.71462890613
 21
-4366.656868680892
 31
0.0
  0
LINE
  5
C1
330
25
100
AcDbEntity
  8
1
  6
Continuous
 62
     0
100
AcDbLine
 10
16504.71462890613
 20
-4366.656868680892
 30
0.0
 11
16498.15212890613
 21
-4365.344368680892
 31
0.0
  0
LINE
  5
C0
330
25
100
AcDbEntity
  8
1
  6
Continuous
 62
     0
100
AcDbLine
 10
16498.15212890613
 20
-4365.344368680892
 30
0.0
 11
16492.90212890613
 21
-4362.719368680892
 31
0.0
  0
LINE
  5
BF
330
25
100
AcDbEntity
  8
1
  6
Continuous
 62
     0
100
AcDbLine
 10
16492.90212890613
 20
-4362.719368680892
 30
0.0
 11
16490.27712890613
 21
-4360.094368680892
 31
0.0
  0
LINE
  5
BE
330
25
100
AcDbEntity
  8
1
  6
Continuous
 62
     0
100
AcDbLine
 10
16549.33962890613
 20
-4350.906868680892
 30
0.0
 11
16578.21462890613
 21
-4350.906868680892
 31
0.0
  0
LINE
  5
BD
330
25
100
AcDbEntity
  8
1
  6
Continuous
 62
     0
100
AcDbLine
 10
16542.77712890613
 20
-4366.656868680892
 30
0.0
 11
16563.77712890613
 21
-4314.156868680892
 31
0.0
  0
LINE
  5
BC
330
25
100
AcDbEntity
  8
1
  6
Continuous
 62
     0
100
AcDbLine
 10
16563.77712890613
 20
-4314.156868680892
 30
0.0
 11
16584.77712890613
 21
-4366.656868680892
 31
0.0
  0
LINE
  5
BB
330
25
100
AcDbEntity
  8
1
  6
Continuous
 62
     0
100
AcDbLine
 10
16618.90212890613
 20
-4314.156868680892
 30
0.0
 11
16637.27712890613
 21
-4314.156868680892
 31
0.0
  0
LINE
  5
BA
330
25
100
AcDbEntity
  8
1
  6
Continuous
 62
     0
100
AcDbLine
 10
16600.52712890613
 20
-4314.156868680892
 30
0.0
 11
16618.90212890613
 21
-4314.156868680892
 31
0.0
  0
LINE
  5
B9
330
25
100
AcDbEntity
  8
1
  6
Continuous
 62
     0
100
AcDbLine
 10
16618.90212890613
 20
-4314.156868680892
 30
0.0
 11
16618.90212890613
 21
-4366.656868680892
 31
0.0
  0
LINE
  5
B8
330
25
100
AcDbEntity
  8
1
  6
Continuous
 62
     0
100
AcDbLine
 10
16653.02712890613
 20
-4348.281868680892
 30
0.0
 11
16679.27712890613
 21
-4348.281868680892
 31
0.0
  0
LINE
  5
B7
330
25
100
AcDbEntity
  8
1
  6
Continuous
 62
     0
100
AcDbLine
 10
16695.02712890613
 20
-4322.031868680892
 30
0.0
 11
16697.65212890613
 21
-4318.094368680892
 31
0.0
  0
LINE
  5
B6
330
25
100
AcDbEntity
  8
1
  6
Continuous
 62
     0
100
AcDbLine
 10
16697.65212890613
 20
-4318.094368680892
 30
0.0
 11
16701.58962890613
 21
-4315.469368680892
 31
0.0
  0
LINE
  5
B5
330
25
100
AcDbEntity
  8
1
  6
Continuous
 62
     0
100
AcDbLine
 10
16701.58962890613
 20
-4315.469368680892
 30
0.0
 11
16706.83962890613
 21
-4314.156868680892
 31
0.0
  0
LINE
  5
B4
330
25
100
AcDbEntity
  8
1
  6
Continuous
 62
     0
100
AcDbLine
 10
16706.83962890613
 20
-4314.156868680892
 30
0.0
 11
16714.71462890613
 21
-4314.156868680892
 31
0.0
  0
LINE
  5
B3
330
25
100
AcDbEntity
  8
1
  6
Continuous
 62
     0
100
AcDbLine
 10
16714.71462890613
 20
-4314.156868680892
 30
0.0
 11
16719.96462890613
 21
-4315.469368680892
 31
0.0
  0
LINE
  5
B2
330
25
100
AcDbEntity
  8
1
  6
Continuous
 62
     0
100
AcDbLine
 10
16719.96462890613
 20
-4315.469368680892
 30
0.0
 11
16723.90212890613
 21
-4318.094368680892
 31
0.0
  0
LINE
  5
B1
330
25
100
AcDbEntity
  8
1
  6
Continuous
 62
     0
100
AcDbLine
 10
16723.90212890613
 20
-4318.094368680892
 30
0.0
 11
16726.52712890613
 21
-4322.031868680892
 31
0.0
  0
LINE
  5
B0
330
25
100
AcDbEntity
  8
1
  6
Continuous
 62
     0
100
AcDbLine
 10
16726.52712890613
 20
-4322.031868680892
 30
0.0
 11
16726.52712890613
 21
-4327.281868680892
 31
0.0
  0
LINE
  5
AF
330
25
100
AcDbEntity
  8
1
  6
Continuous
 62
     0
100
AcDbLine
 10
16726.52712890613
 20
-4327.281868680892
 30
0.0
 11
16723.90212890613
 21
-4332.531868680892
 31
0.0
  0
LINE
  5
AE
330
25
100
AcDbEntity
  8
1
  6
Continuous
 62
     0
100
AcDbLine
 10
16723.90212890613
 20
-4332.531868680892
 30
0.0
 11
16695.02712890613
 21
-4366.656868680892
 31
0.0
  0
LINE
  5
AD
330
25
100
AcDbEntity
  8
1
  6
Continuous
 62
     0
100
AcDbLine
 10
16695.02712890613
 20
-4366.656868680892
 30
0.0
 11
16726.52712890613
 21
-4366.656868680892
 31
0.0
  0
LINE
  5
AC
330
25
100
AcDbEntity
  8
1
  6
Continuous
 62
     0
100
AcDbLine
 10
16773.77712890613
 20
-4346.969368680892
 30
0.0
 11
16772.46462890613
 21
-4354.844368680892
 31
0.0
  0
LINE
  5
AB
330
25
100
AcDbEntity
  8
1
  6
Continuous
 62
     0
100
AcDbLine
 10
16772.46462890613
 20
-4354.844368680892
 30
0.0
 11
16769.83962890613
 21
-4360.094368680892
 31
0.0
  0
LINE
  5
AA
330
25
100
AcDbEntity
  8
1
  6
Continuous
 62
     0
100
AcDbLine
 10
16769.83962890613
 20
-4360.094368680892
 30
0.0
 11
16767.21462890613
 21
-4362.719368680892
 31
0.0
  0
LINE
  5
A9
330
25
100
AcDbEntity
  8
1
  6
Continuous
 62
     0
100
AcDbLine
 10
16767.21462890613
 20
-4362.719368680892
 30
0.0
 11
16763.27712890613
 21
-4365.344368680892
 31
0.0
  0
LINE
  5
A8
330
25
100
AcDbEntity
  8
1
  6
Continuous
 62
     0
100
AcDbLine
 10
16763.27712890613
 20
-4365.344368680892
 30
0.0
 11
16759.33962890613
 21
-4366.656868680892
 31
0.0
  0
LINE
  5
A7
330
25
100
AcDbEntity
  8
1
  6
Continuous
 62
     0
100
AcDbLine
 10
16759.33962890613
 20
-4366.656868680892
 30
0.0
 11
16756.71462890613
 21
-4366.656868680892
 31
0.0
  0
LINE
  5
A6
330
25
100
AcDbEntity
  8
1
  6
Continuous
 62
     0
100
AcDbLine
 10
16756.71462890613
 20
-4366.656868680892
 30
0.0
 11
16752.77712890613
 21
-4365.344368680892
 31
0.0
  0
LINE
  5
A5
330
25
100
AcDbEntity
  8
1
  6
Continuous
 62
     0
100
AcDbLine
 10
16752.77712890613
 20
-4365.344368680892
 30
0.0
 11
16748.83962890613
 21
-4362.719368680892
 31
0.0
  0
LINE
  5
A4
330
25
100
AcDbEntity
  8
1
  6
Continuous
 62
     0
100
AcDbLine
 10
16748.83962890613
 20
-4362.719368680892
 30
0.0
 11
16746.21462890613
 21
-4360.094368680892
 31
0.0
  0
LINE
  5
A3
330
25
100
AcDbEntity
  8
1
  6
Continuous
 62
     0
100
AcDbLine
 10
16746.21462890613
 20
-4360.094368680892
 30
0.0
 11
16743.58962890613
 21
-4354.844368680892
 31
0.0
  0
LINE
  5
A2
330
25
100
AcDbEntity
  8
1
  6
Continuous
 62
     0
100
AcDbLine
 10
16743.58962890613
 20
-4354.844368680892
 30
0.0
 11
16742.27712890613
 21
-4346.969368680892
 31
0.0
  0
LINE
  5
A1
330
25
100
AcDbEntity
  8
1
  6
Continuous
 62
     0
100
AcDbLine
 10
16742.27712890613
 20
-4346.969368680892
 30
0.0
 11
16742.27712890613
 21
-4333.844368680892
 31
0.0
  0
LINE
  5
A0
330
25
100
AcDbEntity
  8
1
  6
Continuous
 62
     0
100
AcDbLine
 10
16742.27712890613
 20
-4333.844368680892
 30
0.0
 11
16743.58962890613
 21
-4325.969368680892
 31
0.0
  0
LINE
  5
9F
330
25
100
AcDbEntity
  8
1
  6
Continuous
 62
     0
100
AcDbLine
 10
16743.58962890613
 20
-4325.969368680892
 30
0.0
 11
16746.21462890613
 21
-4320.719368680892
 31
0.0
  0
LINE
  5
9E
330
25
100
AcDbEntity
  8
1
  6
Continuous
 62
     0
100
AcDbLine
 10
16746.21462890613
 20
-4320.719368680892
 30
0.0
 11
16748.83962890613
 21
-4318.094368680892
 31
0.0
  0
LINE
  5
9D
330
25
100
AcDbEntity
  8
1
  6
Continuous
 62
     0
100
AcDbLine
 10
16748.83962890613
 20
-4318.094368680892
 30
0.0
 11
16752.77712890613
 21
-4315.469368680892
 31
0.0
  0
LINE
  5
9C
330
25
100
AcDbEntity
  8
1
  6
Continuous
 62
     0
100
AcDbLine
 10
16752.77712890613
 20
-4315.469368680892
 30
0.0
 11
16756.71462890613
 21
-4314.156868680892
 31
0.0
  0
LINE
  5
9B
330
25
100
AcDbEntity
  8
1
  6
Continuous
 62
     0
100
AcDbLine
 10
16756.71462890613
 20
-4314.156868680892
 30
0.0
 11
16759.33962890613
 21
-4314.156868680892
 31
0.0
  0
LINE
  5
9A
330
25
100
AcDbEntity
  8
1
  6
Continuous
 62
     0
100
AcDbLine
 10
16759.33962890613
 20
-4314.156868680892
 30
0.0
 11
16763.27712890613
 21
-4315.469368680892
 31
0.0
  0
LINE
  5
99
330
25
100
AcDbEntity
  8
1
  6
Continuous
 62
     0
100
AcDbLine
 10
16763.27712890613
 20
-4315.469368680892
 30
0.0
 11
16767.21462890613
 21
-4318.094368680892
 31
0.0
  0
LINE
  5
98
330
25
100
AcDbEntity
  8
1
  6
Continuous
 62
     0
100
AcDbLine
 10
16767.21462890613
 20
-4318.094368680892
 30
0.0
 11
16769.83962890613
 21
-4320.719368680892
 31
0.0
  0
LINE
  5
97
330
25
100
AcDbEntity
  8
1
  6
Continuous
 62
     0
100
AcDbLine
 10
16769.83962890613
 20
-4320.719368680892
 30
0.0
 11
16772.46462890613
 21
-4325.969368680892
 31
0.0
  0
LINE
  5
96
330
25
100
AcDbEntity
  8
1
  6
Continuous
 62
     0
100
AcDbLine
 10
16772.46462890613
 20
-4325.969368680892
 30
0.0
 11
16773.77712890613
 21
-4333.844368680892
 31
0.0
  0
LINE
  5
95
330
25
100
AcDbEntity
  8
1
  6
Continuous
 62
     0
100
AcDbLine
 10
16773.77712890613
 20
-4333.844368680892
 30
0.0
 11
16773.77712890613
 21
-4346.969368680892
 31
0.0
  0
LINE
  5
94
330
25
100
AcDbEntity
  8
1
  6
Continuous
 62
     0
100
AcDbLine
 10
16821.02712890613
 20
-4346.969368680892
 30
0.0
 11
16819.71462890613
 21
-4354.844368680892
 31
0.0
  0
LINE
  5
93
330
25
100
AcDbEntity
  8
1
  6
Continuous
 62
     0
100
AcDbLine
 10
16819.71462890613
 20
-4354.844368680892
 30
0.0
 11
16817.08962890613
 21
-4360.094368680892
 31
0.0
  0
LINE
  5
92
330
25
100
AcDbEntity
  8
1
  6
Continuous
 62
     0
100
AcDbLine
 10
16817.08962890613
 20
-4360.094368680892
 30
0.0
 11
16814.46462890613
 21
-4362.719368680892
 31
0.0
  0
LINE
  5
91
330
25
100
AcDbEntity
  8
1
  6
Continuous
 62
     0
100
AcDbLine
 10
16814.46462890613
 20
-4362.719368680892
 30
0.0
 11
16810.52712890613
 21
-4365.344368680892
 31
0.0
  0
LINE
  5
90
330
25
100
AcDbEntity
  8
1
  6
Continuous
 62
     0
100
AcDbLine
 10
16810.52712890613
 20
-4365.344368680892
 30
0.0
 11
16806.58962890613
 21
-4366.656868680892
 31
0.0
  0
LINE
  5
8F
330
25
100
AcDbEntity
  8
1
  6
Continuous
 62
     0
100
AcDbLine
 10
16806.58962890613
 20
-4366.656868680892
 30
0.0
 11
16803.96462890613
 21
-4366.656868680892
 31
0.0
  0
LINE
  5
8E
330
25
100
AcDbEntity
  8
1
  6
Continuous
 62
     0
100
AcDbLine
 10
16803.96462890613
 20
-4366.656868680892
 30
0.0
 11
16800.02712890613
 21
-4365.344368680892
 31
0.0
  0
LINE
  5
8D
330
25
100
AcDbEntity
  8
1
  6
Continuous
 62
     0
100
AcDbLine
 10
16800.02712890613
 20
-4365.344368680892
 30
0.0
 11
16796.08962890613
 21
-4362.719368680892
 31
0.0
  0
LINE
  5
8C
330
25
100
AcDbEntity
  8
1
  6
Continuous
 62
     0
100
AcDbLine
 10
16796.08962890613
 20
-4362.719368680892
 30
0.0
 11
16793.46462890613
 21
-4360.094368680892
 31
0.0
  0
LINE
  5
8B
330
25
100
AcDbEntity
  8
1
  6
Continuous
 62
     0
100
AcDbLine
 10
16793.46462890613
 20
-4360.094368680892
 30
0.0
 11
16790.83962890613
 21
-4354.844368680892
 31
0.0
  0
LINE
  5
8A
330
25
100
AcDbEntity
  8
1
  6
Continuous
 62
     0
100
AcDbLine
 10
16790.83962890613
 20
-4354.844368680892
 30
0.0
 11
16789.52712890613
 21
-4346.969368680892
 31
0.0
  0
LINE
  5
89
330
25
100
AcDbEntity
  8
1
  6
Continuous
 62
     0
100
AcDbLine
 10
16789.52712890613
 20
-4346.969368680892
 30
0.0
 11
16789.52712890613
 21
-4333.844368680892
 31
0.0
  0
LINE
  5
88
330
25
100
AcDbEntity
  8
1
  6
Continuous
 62
     0
100
AcDbLine
 10
16789.52712890613
 20
-4333.844368680892
 30
0.0
 11
16790.83962890613
 21
-4325.969368680892
 31
0.0
  0
LINE
  5
87
330
25
100
AcDbEntity
  8
1
  6
Continuous
 62
     0
100
AcDbLine
 10
16790.83962890613
 20
-4325.969368680892
 30
0.0
 11
16793.46462890613
 21
-4320.719368680892
 31
0.0
  0
LINE
  5
86
330
25
100
AcDbEntity
  8
1
  6
Continuous
 62
     0
100
AcDbLine
 10
16793.46462890613
 20
-4320.719368680892
 30
0.0
 11
16796.08962890613
 21
-4318.094368680892
 31
0.0
  0
LINE
  5
85
330
25
100
AcDbEntity
  8
1
  6
Continuous
 62
     0
100
AcDbLine
 10
16796.08962890613
 20
-4318.094368680892
 30
0.0
 11
16800.02712890613
 21
-4315.469368680892
 31
0.0
  0
LINE
  5
84
330
25
100
AcDbEntity
  8
1
  6
Continuous
 62
     0
100
AcDbLine
 10
16800.02712890613
 20
-4315.469368680892
 30
0.0
 11
16803.96462890613
 21
-4314.156868680892
 31
0.0
  0
LINE
  5
83
330
25
100
AcDbEntity
  8
1
  6
Continuous
 62
     0
100
AcDbLine
 10
16803.96462890613
 20
-4314.156868680892
 30
0.0
 11
16806.58962890613
 21
-4314.156868680892
 31
0.0
  0
LINE
  5
82
330
25
100
AcDbEntity
  8
1
  6
Continuous
 62
     0
100
AcDbLine
 10
16806.58962890613
 20
-4314.156868680892
 30
0.0
 11
16810.52712890613
 21
-4315.469368680892
 31
0.0
  0
LINE
  5
81
330
25
100
AcDbEntity
  8
1
  6
Continuous
 62
     0
100
AcDbLine
 10
16810.52712890613
 20
-4315.469368680892
 30
0.0
 11
16814.46462890613
 21
-4318.094368680892
 31
0.0
  0
LINE
  5
80
330
25
100
AcDbEntity
  8
1
  6
Continuous
 62
     0
100
AcDbLine
 10
16814.46462890613
 20
-4318.094368680892
 30
0.0
 11
16817.08962890613
 21
-4320.719368680892
 31
0.0
  0
LINE
  5
7F
330
25
100
AcDbEntity
  8
1
  6
Continuous
 62
     0
100
AcDbLine
 10
16817.08962890613
 20
-4320.719368680892
 30
0.0
 11
16819.71462890613
 21
-4325.969368680892
 31
0.0
  0
LINE
  5
7E
330
25
100
AcDbEntity
  8
1
  6
Continuous
 62
     0
100
AcDbLine
 10
16819.71462890613
 20
-4325.969368680892
 30
0.0
 11
16821.02712890613
 21
-4333.844368680892
 31
0.0
  0
LINE
  5
7D
330
25
100
AcDbEntity
  8
1
  6
Continuous
 62
     0
100
AcDbLine
 10
16821.02712890613
 20
-4333.844368680892
 30
0.0
 11
16821.02712890613
 21
-4346.969368680892
 31
0.0
  0
LINE
  5
7C
330
25
100
AcDbEntity
  8
1
  6
Continuous
 62
     0
100
AcDbLine
 10
16868.27712890613
 20
-4346.969368680892
 30
0.0
 11
16866.96462890613
 21
-4354.844368680892
 31
0.0
  0
LINE
  5
7B
330
25
100
AcDbEntity
  8
1
  6
Continuous
 62
     0
100
AcDbLine
 10
16866.96462890613
 20
-4354.844368680892
 30
0.0
 11
16864.33962890613
 21
-4360.094368680892
 31
0.0
  0
LINE
  5
7A
330
25
100
AcDbEntity
  8
1
  6
Continuous
 62
     0
100
AcDbLine
 10
16864.33962890613
 20
-4360.094368680892
 30
0.0
 11
16861.71462890613
 21
-4362.719368680892
 31
0.0
  0
LINE
  5
79
330
25
100
AcDbEntity
  8
1
  6
Continuous
 62
     0
100
AcDbLine
 10
16861.71462890613
 20
-4362.719368680892
 30
0.0
 11
16857.77712890613
 21
-4365.344368680892
 31
0.0
  0
LINE
  5
78
330
25
100
AcDbEntity
  8
1
  6
Continuous
 62
     0
100
AcDbLine
 10
16857.77712890613
 20
-4365.344368680892
 30
0.0
 11
16853.83962890613
 21
-4366.656868680892
 31
0.0
  0
LINE
  5
77
330
25
100
AcDbEntity
  8
1
  6
Continuous
 62
     0
100
AcDbLine
 10
16853.83962890613
 20
-4366.656868680892
 30
0.0
 11
16851.21462890613
 21
-4366.656868680892
 31
0.0
  0
LINE
  5
76
330
25
100
AcDbEntity
  8
1
  6
Continuous
 62
     0
100
AcDbLine
 10
16851.21462890613
 20
-4366.656868680892
 30
0.0
 11
16847.27712890613
 21
-4365.344368680892
 31
0.0
  0
LINE
  5
75
330
25
100
AcDbEntity
  8
1
  6
Continuous
 62
     0
100
AcDbLine
 10
16847.27712890613
 20
-4365.344368680892
 30
0.0
 11
16843.33962890613
 21
-4362.719368680892
 31
0.0
  0
LINE
  5
74
330
25
100
AcDbEntity
  8
1
  6
Continuous
 62
     0
100
AcDbLine
 10
16843.33962890613
 20
-4362.719368680892
 30
0.0
 11
16840.71462890613
 21
-4360.094368680892
 31
0.0
  0
LINE
  5
73
330
25
100
AcDbEntity
  8
1
  6
Continuous
 62
     0
100
AcDbLine
 10
16840.71462890613
 20
-4360.094368680892
 30
0.0
 11
16838.08962890613
 21
-4354.844368680892
 31
0.0
  0
LINE
  5
72
330
25
100
AcDbEntity
  8
1
  6
Continuous
 62
     0
100
AcDbLine
 10
16838.08962890613
 20
-4354.844368680892
 30
0.0
 11
16836.77712890613
 21
-4346.969368680892
 31
0.0
  0
LINE
  5
71
330
25
100
AcDbEntity
  8
1
  6
Continuous
 62
     0
100
AcDbLine
 10
16836.77712890613
 20
-4346.969368680892
 30
0.0
 11
16836.77712890613
 21
-4333.844368680892
 31
0.0
  0
LINE
  5
70
330
25
100
AcDbEntity
  8
1
  6
Continuous
 62
     0
100
AcDbLine
 10
16836.77712890613
 20
-4333.844368680892
 30
0.0
 11
16838.08962890613
 21
-4325.969368680892
 31
0.0
  0
LINE
  5
6F
330
25
100
AcDbEntity
  8
1
  6
Continuous
 62
     0
100
AcDbLine
 10
16838.08962890613
 20
-4325.969368680892
 30
0.0
 11
16840.71462890613
 21
-4320.719368680892
 31
0.0
  0
LINE
  5
6E
330
25
100
AcDbEntity
  8
1
  6
Continuous
 62
     0
100
AcDbLine
 10
16840.71462890613
 20
-4320.719368680892
 30
0.0
 11
16843.33962890613
 21
-4318.094368680892
 31
0.0
  0
LINE
  5
6D
330
25
100
AcDbEntity
  8
1
  6
Continuous
 62
     0
100
AcDbLine
 10
16843.33962890613
 20
-4318.094368680892
 30
0.0
 11
16847.27712890613
 21
-4315.469368680892
 31
0.0
  0
LINE
  5
6C
330
25
100
AcDbEntity
  8
1
  6
Continuous
 62
     0
100
AcDbLine
 10
16847.27712890613
 20
-4315.469368680892
 30
0.0
 11
16851.21462890613
 21
-4314.156868680892
 31
0.0
  0
LINE
  5
6B
330
25
100
AcDbEntity
  8
1
  6
Continuous
 62
     0
100
AcDbLine
 10
16851.21462890613
 20
-4314.156868680892
 30
0.0
 11
16853.83962890613
 21
-4314.156868680892
 31
0.0
  0
LINE
  5
6A
330
25
100
AcDbEntity
  8
1
  6
Continuous
 62
     0
100
AcDbLine
 10
16853.83962890613
 20
-4314.156868680892
 30
0.0
 11
16857.77712890613
 21
-4315.469368680892
 31
0.0
  0
LINE
  5
69
330
25
100
AcDbEntity
  8
1
  6
Continuous
 62
     0
100
AcDbLine
 10
16857.77712890613
 20
-4315.469368680892
 30
0.0
 11
16861.71462890613
 21
-4318.094368680892
 31
0.0
  0
LINE
  5
68
330
25
100
AcDbEntity
  8
1
  6
Continuous
 62
     0
100
AcDbLine
 10
16861.71462890613
 20
-4318.094368680892
 30
0.0
 11
16864.33962890613
 21
-4320.719368680892
 31
0.0
  0
LINE
  5
67
330
25
100
AcDbEntity
  8
1
  6
Continuous
 62
     0
100
AcDbLine
 10
16864.33962890613
 20
-4320.719368680892
 30
0.0
 11
16866.96462890613
 21
-4325.969368680892
 31
0.0
  0
LINE
  5
66
330
25
100
AcDbEntity
  8
1
  6
Continuous
 62
     0
100
AcDbLine
 10
16866.96462890613
 20
-4325.969368680892
 30
0.0
 11
16868.27712890613
 21
-4333.844368680892
 31
0.0
  0
LINE
  5
65
330
25
100
AcDbEntity
  8
1
  6
Continuous
 62
     0
100
AcDbLine
 10
16868.27712890613
 20
-4333.844368680892
 30
0.0
 11
16868.27712890613
 21
-4346.969368680892
 31
0.0
  0
LINE
  5
64
330
25
100
AcDbEntity
  8
1
  6
Continuous
 62
     0
100
AcDbLine
 10
16915.52712890613
 20
-4366.656868680892
 30
0.0
 11
16898.46462890613
 21
-4366.656868680892
 31
0.0
  0
LINE
  5
63
330
25
100
AcDbEntity
  8
1
  6
Continuous
 62
     0
100
AcDbLine
 10
16898.46462890613
 20
-4366.656868680892
 30
0.0
 11
16893.21462890613
 21
-4365.344368680892
 31
0.0
  0
LINE
  5
62
330
25
100
AcDbEntity
  8
1
  6
Continuous
 62
     0
100
AcDbLine
 10
16893.21462890613
 20
-4365.344368680892
 30
0.0
 11
16889.27712890613
 21
-4362.719368680892
 31
0.0
  0
LINE
  5
61
330
25
100
AcDbEntity
  8
1
  6
Continuous
 62
     0
100
AcDbLine
 10
16889.27712890613
 20
-4362.719368680892
 30
0.0
 11
16886.65212890613
 21
-4360.094368680892
 31
0.0
  0
LINE
  5
60
330
25
100
AcDbEntity
  8
1
  6
Continuous
 62
     0
100
AcDbLine
 10
16886.65212890613
 20
-4360.094368680892
 30
0.0
 11
16885.33962890613
 21
-4356.156868680892
 31
0.0
  0
LINE
  5
5F
330
25
100
AcDbEntity
  8
1
  6
Continuous
 62
     0
100
AcDbLine
 10
16885.33962890613
 20
-4356.156868680892
 30
0.0
 11
16884.02712890613
 21
-4350.906868680892
 31
0.0
  0
LINE
  5
5E
330
25
100
AcDbEntity
  8
1
  6
Continuous
 62
     0
100
AcDbLine
 10
16884.02712890613
 20
-4350.906868680892
 30
0.0
 11
16884.02712890613
 21
-4329.906868680892
 31
0.0
  0
LINE
  5
5D
330
25
100
AcDbEntity
  8
1
  6
Continuous
 62
     0
100
AcDbLine
 10
16884.02712890613
 20
-4329.906868680892
 30
0.0
 11
16885.33962890613
 21
-4324.656868680892
 31
0.0
  0
LINE
  5
5C
330
25
100
AcDbEntity
  8
1
  6
Continuous
 62
     0
100
AcDbLine
 10
16885.33962890613
 20
-4324.656868680892
 30
0.0
 11
16886.65212890613
 21
-4320.719368680892
 31
0.0
  0
LINE
  5
5B
330
25
100
AcDbEntity
  8
1
  6
Continuous
 62
     0
100
AcDbLine
 10
16886.65212890613
 20
-4320.719368680892
 30
0.0
 11
16889.27712890613
 21
-4318.094368680892
 31
0.0
  0
LINE
  5
5A
330
25
100
AcDbEntity
  8
1
  6
Continuous
 62
     0
100
AcDbLine
 10
16889.27712890613
 20
-4318.094368680892
 30
0.0
 11
16893.21462890613
 21
-4315.469368680892
 31
0.0
  0
LINE
  5
59
330
25
100
AcDbEntity
  8
1
  6
Continuous
 62
     0
100
AcDbLine
 10
16893.21462890613
 20
-4315.469368680892
 30
0.0
 11
16898.46462890613
 21
-4314.156868680892
 31
0.0
  0
LINE
  5
58
330
25
100
AcDbEntity
  8
1
  6
Continuous
 62
     0
100
AcDbLine
 10
16898.46462890613
 20
-4314.156868680892
 30
0.0
 11
16915.52712890613
 21
-4314.156868680892
 31
0.0
  0
LINE
  5
57
330
25
100
AcDbEntity
  8
1
  6
Continuous
 62
     0
100
AcDbLine
 10
16931.27712890613
 20
-4348.281868680892
 30
0.0
 11
16957.52712890613
 21
-4348.281868680892
 31
0.0
  0
LINE
  5
56
330
25
100
AcDbEntity
  8
1
  6
Continuous
 62
     0
100
AcDbLine
 10
16986.40212890613
 20
-4335.156868680892
 30
0.0
 11
16979.83962890613
 21
-4337.781868680892
 31
0.0
  0
LINE
  5
55
330
25
100
AcDbEntity
  8
1
  6
Continuous
 62
     0
100
AcDbLine
 10
16979.83962890613
 20
-4337.781868680892
 30
0.0
 11
16975.90212890613
 21
-4341.719368680892
 31
0.0
  0
LINE
  5
54
330
25
100
AcDbEntity
  8
1
  6
Continuous
 62
     0
100
AcDbLine
 10
16975.90212890613
 20
-4341.719368680892
 30
0.0
 11
16973.27712890613
 21
-4346.969368680892
 31
0.0
  0
LINE
  5
53
330
25
100
AcDbEntity
  8
1
  6
Continuous
 62
     0
100
AcDbLine
 10
16973.27712890613
 20
-4346.969368680892
 30
0.0
 11
16973.27712890613
 21
-4354.844368680892
 31
0.0
  0
LINE
  5
52
330
25
100
AcDbEntity
  8
1
  6
Continuous
 62
     0
100
AcDbLine
 10
16973.27712890613
 20
-4354.844368680892
 30
0.0
 11
16975.90212890613
 21
-4360.094368680892
 31
0.0
  0
LINE
  5
51
330
25
100
AcDbEntity
  8
1
  6
Continuous
 62
     0
100
AcDbLine
 10
16975.90212890613
 20
-4360.094368680892
 30
0.0
 11
16979.83962890613
 21
-4364.031868680892
 31
0.0
  0
LINE
  5
50
330
25
100
AcDbEntity
  8
1
  6
Continuous
 62
     0
100
AcDbLine
 10
16979.83962890613
 20
-4364.031868680892
 30
0.0
 11
16985.08962890613
 21
-4366.656868680892
 31
0.0
  0
LINE
  5
4F
330
25
100
AcDbEntity
  8
1
  6
Continuous
 62
     0
100
AcDbLine
 10
16985.08962890613
 20
-4366.656868680892
 30
0.0
 11
16992.96462890613
 21
-4366.656868680892
 31
0.0
  0
LINE
  5
4E
330
25
100
AcDbEntity
  8
1
  6
Continuous
 62
     0
100
AcDbLine
 10
16992.96462890613
 20
-4366.656868680892
 30
0.0
 11
16998.21462890613
 21
-4364.031868680892
 31
0.0
  0
LINE
  5
4D
330
25
100
AcDbEntity
  8
1
  6
Continuous
 62
     0
100
AcDbLine
 10
16998.21462890613
 20
-4364.031868680892
 30
0.0
 11
17002.15212890613
 21
-4360.094368680892
 31
0.0
  0
LINE
  5
4C
330
25
100
AcDbEntity
  8
1
  6
Continuous
 62
     0
100
AcDbLine
 10
17002.15212890613
 20
-4360.094368680892
 30
0.0
 11
17004.77712890613
 21
-4354.844368680892
 31
0.0
  0
LINE
  5
4B
330
25
100
AcDbEntity
  8
1
  6
Continuous
 62
     0
100
AcDbLine
 10
17004.77712890613
 20
-4354.844368680892
 30
0.0
 11
17004.77712890613
 21
-4346.969368680892
 31
0.0
  0
LINE
  5
4A
330
25
100
AcDbEntity
  8
1
  6
Continuous
 62
     0
100
AcDbLine
 10
17004.77712890613
 20
-4346.969368680892
 30
0.0
 11
17002.15212890613
 21
-4341.719368680892
 31
0.0
  0
LINE
  5
49
330
25
100
AcDbEntity
  8
1
  6
Continuous
 62
     0
100
AcDbLine
 10
17002.15212890613
 20
-4341.719368680892
 30
0.0
 11
16998.21462890613
 21
-4337.781868680892
 31
0.0
  0
LINE
  5
48
330
25
100
AcDbEntity
  8
1
  6
Continuous
 62
     0
100
AcDbLine
 10
16998.21462890613
 20
-4337.781868680892
 30
0.0
 11
16991.65212890613
 21
-4335.156868680892
 31
0.0
  0
LINE
  5
47
330
25
100
AcDbEntity
  8
1
  6
Continuous
 62
     0
100
AcDbLine
 10
16982.46462890613
 20
-4315.469368680892
 30
0.0
 11
16986.40212890613
 21
-4314.156868680892
 31
0.0
  0
LINE
  5
46
330
25
100
AcDbEntity
  8
1
  6
Continuous
 62
     0
100
AcDbLine
 10
16986.40212890613
 20
-4314.156868680892
 30
0.0
 11
16991.65212890613
 21
-4314.156868680892
 31
0.0
  0
LINE
  5
45
330
25
100
AcDbEntity
  8
1
  6
Continuous
 62
     0
100
AcDbLine
 10
16991.65212890613
 20
-4314.156868680892
 30
0.0
 11
16995.58962890613
 21
-4315.469368680892
 31
0.0
  0
LINE
  5
44
330
25
100
AcDbEntity
  8
1
  6
Continuous
 62
     0
100
AcDbLine
 10
16995.58962890613
 20
-4315.469368680892
 30
0.0
 11
16999.52712890613
 21
-4318.094368680892
 31
0.0
  0
LINE
  5
43
330
25
100
AcDbEntity
  8
1
  6
Continuous
 62
     0
100
AcDbLine
 10
16999.52712890613
 20
-4318.094368680892
 30
0.0
 11
17002.15212890613
 21
-4322.031868680892
 31
0.0
  0
LINE
  5
42
330
25
100
AcDbEntity
  8
1
  6
Continuous
 62
     0
100
AcDbLine
 10
17002.15212890613
 20
-4322.031868680892
 30
0.0
 11
17002.15212890613
 21
-4327.281868680892
 31
0.0
  0
LINE
  5
41
330
25
100
AcDbEntity
  8
1
  6
Continuous
 62
     0
100
AcDbLine
 10
17002.15212890613
 20
-4327.281868680892
 30
0.0
 11
16999.52712890613
 21
-4331.219368680892
 31
0.0
  0
LINE
  5
40
330
25
100
AcDbEntity
  8
1
  6
Continuous
 62
     0
100
AcDbLine
 10
16999.52712890613
 20
-4331.219368680892
 30
0.0
 11
16995.58962890613
 21
-4333.844368680892
 31
0.0
  0
LINE
  5
3F
330
25
100
AcDbEntity
  8
1
  6
Continuous
 62
     0
100
AcDbLine
 10
16995.58962890613
 20
-4333.844368680892
 30
0.0
 11
16991.65212890613
 21
-4335.156868680892
 31
0.0
  0
LINE
  5
3E
330
25
100
AcDbEntity
  8
1
  6
Continuous
 62
     0
100
AcDbLine
 10
16991.65212890613
 20
-4335.156868680892
 30
0.0
 11
16986.40212890613
 21
-4335.156868680892
 31
0.0
  0
LINE
  5
3D
330
25
100
AcDbEntity
  8
1
  6
Continuous
 62
     0
100
AcDbLine
 10
16986.40212890613
 20
-4335.156868680892
 30
0.0
 11
16982.46462890613
 21
-4333.844368680892
 31
0.0
  0
LINE
  5
3C
330
25
100
AcDbEntity
  8
1
  6
Continuous
 62
     0
100
AcDbLine
 10
16982.46462890613
 20
-4333.844368680892
 30
0.0
 11
16978.52712890613
 21
-4331.219368680892
 31
0.0
  0
LINE
  5
3B
330
25
100
AcDbEntity
  8
1
  6
Continuous
 62
     0
100
AcDbLine
 10
16978.52712890613
 20
-4331.219368680892
 30
0.0
 11
16975.90212890613
 21
-4327.281868680892
 31
0.0
  0
LINE
  5
3A
330
25
100
AcDbEntity
  8
1
  6
Continuous
 62
     0
100
AcDbLine
 10
16975.90212890613
 20
-4327.281868680892
 30
0.0
 11
16975.90212890613
 21
-4322.031868680892
 31
0.0
  0
LINE
  5
39
330
25
100
AcDbEntity
  8
1
  6
Continuous
 62
     0
100
AcDbLine
 10
16975.90212890613
 20
-4322.031868680892
 30
0.0
 11
16978.52712890613
 21
-4318.094368680892
 31
0.0
  0
LINE
  5
38
330
25
100
AcDbEntity
  8
1
  6
Continuous
 62
     0
100
AcDbLine
 10
16978.52712890613
 20
-4318.094368680892
 30
0.0
 11
16982.46462890613
 21
-4315.469368680892
 31
0.0
  0
LINE
  5
37
330
25
100
AcDbEntity
  8
1
  6
Continuous
 62
     0
100
AcDbLine
 10
17049.40212890613
 20
-4314.156868680892
 30
0.0
 11
17020.52712890613
 21
-4314.156868680892
 31
0.0
  0
LINE
  5
36
330
25
100
AcDbEntity
  8
1
  6
Continuous
 62
     0
100
AcDbLine
 10
17020.52712890613
 20
-4314.156868680892
 30
0.0
 11
17020.52712890613
 21
-4335.156868680892
 31
0.0
  0
LINE
  5
35
330
25
100
AcDbEntity
  8
1
  6
Continuous
 62
     0
100
AcDbLine
 10
17020.52712890613
 20
-4335.156868680892
 30
0.0
 11
17040.21462890613
 21
-4335.156868680892
 31
0.0
  0
LINE
  5
34
330
25
100
AcDbEntity
  8
1
  6
Continuous
 62
     0
100
AcDbLine
 10
17040.21462890613
 20
-4335.156868680892
 30
0.0
 11
17046.77712890613
 21
-4336.469368680892
 31
0.0
  0
LINE
  5
33
330
25
100
AcDbEntity
  8
1
  6
Continuous
 62
     0
100
AcDbLine
 10
17046.77712890613
 20
-4336.469368680892
 30
0.0
 11
17050.71462890613
 21
-4340.406868680892
 31
0.0
  0
LINE
  5
32
330
25
100
AcDbEntity
  8
1
  6
Continuous
 62
     0
100
AcDbLine
 10
17050.71462890613
 20
-4340.406868680892
 30
0.0
 11
17052.02712890613
 21
-4345.656868680892
 31
0.0
  0
LINE
  5
31
330
25
100
AcDbEntity
  8
1
  6
Continuous
 62
     0
100
AcDbLine
 10
17052.02712890613
 20
-4345.656868680892
 30
0.0
 11
17052.02712890613
 21
-4353.531868680892
 31
0.0
  0
LINE
  5
30
330
25
100
AcDbEntity
  8
1
  6
Continuous
 62
     0
100
AcDbLine
 10
17052.02712890613
 20
-4353.531868680892
 30
0.0
 11
17050.71462890613
 21
-4358.781868680892
 31
0.0
  0
LINE
  5
2F
330
25
100
AcDbEntity
  8
1
  6
Continuous
 62
     0
100
AcDbLine
 10
17050.71462890613
 20
-4358.781868680892
 30
0.0
 11
17048.08962890613
 21
-4362.719368680892
 31
0.0
  0
LINE
  5
2E
330
25
100
AcDbEntity
  8
1
  6
Continuous
 62
     0
100
AcDbLine
 10
17048.08962890613
 20
-4362.719368680892
 30
0.0
 11
17044.15212890613
 21
-4365.344368680892
 31
0.0
  0
LINE
  5
2D
330
25
100
AcDbEntity
  8
1
  6
Continuous
 62
     0
100
AcDbLine
 10
17044.15212890613
 20
-4365.344368680892
 30
0.0
 11
17040.21462890613
 21
-4366.656868680892
 31
0.0
  0
LINE
  5
2C
330
25
100
AcDbEntity
  8
1
  6
Continuous
 62
     0
100
AcDbLine
 10
17040.21462890613
 20
-4366.656868680892
 30
0.0
 11
17020.52712890613
 21
-4366.656868680892
 31
0.0
  0
POINT
  5
2B
330
25
100
AcDbEntity
  8
1
 62
     0
100
AcDbPoint
 10
11402.73656969278
 20
213.070007823651
 30
0.0
  0
POINT
  5
2A
330
25
100
AcDbEntity
  8
1
 62
     0
100
AcDbPoint
 10
10516.39335183313
 20
-1145.692506249328
 30
0.0
  0
LINE
  5
C0B
330
25
100
AcDbEntity
  8
0
  6
Continuous
 62
     0
100
AcDbLine
 10
14614.42688705659
 20
-951.406941489005
 30
0.0
 11
14614.42688705659
 21
-335.3513364674418
 31
0.0
  0
LINE
  5
C0C
330
25
100
AcDbEntity
  8
0
  6
Continuous
 62
     0
100
AcDbLine
 10
14614.42688705659
 20
-56.351336467443
 30
0.0
 11
14614.42688705659
 21
-177.351336467443
 31
0.0
  0
LINE
  5
C0D
330
25
100
AcDbEntity
  8
0
  6
Continuous
 62
     0
100
AcDbLine
 10
14614.42688705659
 20
-2309.351336467443
 30
0.0
 11
14614.42688705659
 21
-2188.351336467441
 31
0.0
  0
LINE
  5
C0E
330
25
100
AcDbEntity
  8
0
  6
Continuous
 62
     0
100
AcDbLine
 10
14614.42688705659
 20
-2030.351336467443
 30
0.0
 11
14614.42688705659
 21
-951.406941489005
 31
0.0
  0
ARC
  5
C0F
330
25
100
AcDbEntity
  8
1
  6
Continuous
 62
     0
100
AcDbCircle
 10
14640.23854189571
 20
-303.6846800927306
 30
0.0
 40
6.188368025612
100
AcDbArc
 50
325.7715041969329
 51
24.02067708100994
  0
ARC
  5
C10
330
25
100
AcDbEntity
  8
1
  6
Continuous
 62
     0
100
AcDbCircle
 10
14640.23854189571
 20
-188.1997385288198
 30
0.0
 40
6.188368025612
100
AcDbArc
 50
325.7715041969329
 51
24.02067708101042
  0
LINE
  5
C11
330
25
100
AcDbEntity
  8
1
  6
Continuous
 62
     0
100
AcDbLine
 10
14645.35509028687
 20
-300.2374007888466
 30
0.0
 11
14636.42688705659
 21
-300.2374007888466
 31
0.0
  0
LINE
  5
C12
330
25
100
AcDbEntity
  8
1
  6
Continuous
 62
     0
100
AcDbLine
 10
14636.42688705659
 20
-327.950213709948
 30
0.0
 11
14645.35509028687
 21
-327.950213709948
 31
0.0
  0
ARC
  5
C13
330
25
100
AcDbEntity
  8
1
  6
Continuous
 62
     0
100
AcDbCircle
 10
14640.23854189571
 20
-222.0244947879582
 30
0.0
 40
6.188368025611
100
AcDbArc
 50
325.7715041969466
 51
24.02067708102809
  0
LINE
  5
C14
330
25
100
AcDbEntity
  8
1
  6
Continuous
 62
     0
100
AcDbLine
 10
14646.42688705659
 20
-326.0938072493973
 30
0.0
 11
14646.42688705659
 21
-302.0938072493973
 31
0.0
  0
ARC
  5
C15
330
25
100
AcDbEntity
  8
1
  6
Continuous
 62
     0
100
AcDbCircle
 10
14623.49868382631
 20
-314.0938072493973
 30
0.0
 40
22.928203230284
100
AcDbArc
 50
342.4120462260125
 51
17.58795377398732
  0
ARC
  5
C16
330
25
100
AcDbEntity
  8
1
  6
Continuous
 62
     0
100
AcDbCircle
 10
14640.23854189571
 20
-290.6781781469244
 30
0.0
 40
6.18836802561
100
AcDbArc
 50
335.9793229189543
 51
34.22849580304052
  0
ARC
  5
C17
330
25
100
AcDbEntity
  8
1
  6
Continuous
 62
     0
100
AcDbCircle
 10
14640.23854189571
 20
-269.8599238335946
 30
0.0
 40
6.188368025611
100
AcDbArc
 50
325.7715041969469
 51
24.02067708103121
  0
ARC
  5
C18
330
25
100
AcDbEntity
  8
1
  6
Continuous
 62
     0
100
AcDbCircle
 10
14640.23854189571
 20
-242.842749101289
 30
0.0
 40
6.188368025609
100
AcDbArc
 50
335.9793229189723
 51
34.22849580305609
  0
ARC
  5
C19
330
25
100
AcDbEntity
  8
1
  6
Continuous
 62
     0
100
AcDbCircle
 10
14623.49868382631
 20
-232.4336219446232
 30
0.0
 40
22.928203230284
100
AcDbArc
 50
342.4120462260126
 51
17.58795377398718
  0
ARC
  5
C1A
330
25
100
AcDbEntity
  8
1
  6
Continuous
 62
     0
100
AcDbCircle
 10
14640.23854189571
 20
-209.0179928421521
 30
0.0
 40
6.188368025609
100
AcDbArc
 50
335.9793229189723
 51
34.22849580305609
  0
ARC
  5
C1B
330
25
100
AcDbEntity
  8
1
  6
Continuous
 62
     0
100
AcDbCircle
 10
15066.54933231208
 20
-256.3513364674418
 30
0.0
 40
458.97244525549
100
AcDbArc
 50
170.0886860209871
 51
189.9113139790128
  0
ARC
  5
C1C
330
25
100
AcDbEntity
  8
1
  6
Continuous
 62
     0
100
AcDbCircle
 10
14640.23854189571
 20
-324.5029344060631
 30
0.0
 40
6.188368025609
100
AcDbArc
 50
335.9793229189725
 51
34.22849580305609
  0
LINE
  5
C1D
330
25
100
AcDbEntity
  8
1
  6
Continuous
 62
     0
100
AcDbLine
 10
14645.35509028687
 20
-327.950213709948
 30
0.0
 11
14646.42688705659
 21
-326.0938072493973
 31
0.0
  0
ARC
  5
C1E
330
25
100
AcDbEntity
  8
1
  6
Continuous
 62
     0
100
AcDbCircle
 10
14623.49868382631
 20
-280.2690509902586
 30
0.0
 40
22.928203230284
100
AcDbArc
 50
342.41204622601
 51
17.58795377398596
  0
ARC
  5
C1F
330
25
100
AcDbEntity
  8
1
  6
Continuous
 62
     0
100
AcDbCircle
 10
14623.49868382631
 20
-198.6088656854863
 30
0.0
 40
22.928203230284
100
AcDbArc
 50
342.4120462260126
 51
17.58795377398718
  0
LINE
  5
C20
330
25
100
AcDbEntity
  8
1
  6
Continuous
 62
     0
100
AcDbLine
 10
14646.42688705659
 20
-302.0938072493973
 30
0.0
 11
14645.35509028687
 21
-300.2374007888466
 31
0.0
  0
LINE
  5
C21
330
25
100
AcDbEntity
  8
1
  6
Continuous
 62
     0
100
AcDbLine
 10
14629.42688705659
 20
-247.4336219446232
 30
0.0
 11
14632.42688705659
 21
-247.4336219446232
 31
0.0
  0
LINE
  5
C22
330
25
100
AcDbEntity
  8
1
  6
Continuous
 62
     0
100
AcDbLine
 10
14632.42688705659
 20
-278.1928605140693
 30
0.0
 11
14636.42688705659
 21
-279.335717656927
 31
0.0
  0
LINE
  5
C23
330
25
100
AcDbEntity
  8
1
  6
Continuous
 62
     0
100
AcDbLine
 10
14636.42688705659
 20
-294.2690509902586
 30
0.0
 11
14636.42688705659
 21
-266.2690509902586
 31
0.0
  0
LINE
  5
C24
330
25
100
AcDbEntity
  8
1
  6
Continuous
 62
     0
100
AcDbLine
 10
14632.42688705659
 20
-329.0938072493973
 30
0.0
 11
14632.42688705659
 21
-299.0938072493973
 31
0.0
  0
LINE
  5
C25
330
25
100
AcDbEntity
  8
1
  6
Continuous
 62
     0
100
AcDbLine
 10
14646.42688705659
 20
-292.2690509902586
 30
0.0
 11
14646.42688705659
 21
-268.2690509902586
 31
0.0
  0
LINE
  5
C26
330
25
100
AcDbEntity
  8
1
  6
Continuous
 62
     0
100
AcDbLine
 10
14645.35509028687
 20
-294.1254574508112
 30
0.0
 11
14646.42688705659
 21
-292.2690509902586
 31
0.0
  0
LINE
  5
C27
330
25
100
AcDbEntity
  8
1
  6
Continuous
 62
     0
100
AcDbLine
 10
14632.42688705659
 20
-247.4336219446232
 30
0.0
 11
14632.42688705659
 21
-217.4336219446232
 31
0.0
  0
LINE
  5
C29
330
25
100
AcDbEntity
  8
1
  6
Continuous
 62
     0
100
AcDbLine
 10
14646.42688705659
 20
-268.2690509902586
 30
0.0
 11
14645.35509028687
 21
-266.4126445297088
 31
0.0
  0
LINE
  5
C2A
330
25
100
AcDbEntity
  8
1
  6
Continuous
 62
     0
100
AcDbLine
 10
14645.35509028687
 20
-266.4126445297088
 30
0.0
 11
14636.42688705659
 21
-266.4126445297088
 31
0.0
  0
LINE
  5
C2B
330
25
100
AcDbEntity
  8
1
  6
Continuous
 62
     0
100
AcDbLine
 10
14632.42688705659
 20
-217.4336219446232
 30
0.0
 11
14629.42688705659
 21
-217.4336219446232
 31
0.0
  0
LINE
  5
C2C
330
25
100
AcDbEntity
  8
1
  6
Continuous
 62
     0
100
AcDbLine
 10
14629.42688705659
 20
-295.2690509902586
 30
0.0
 11
14632.42688705659
 21
-295.2690509902586
 31
0.0
  0
LINE
  5
C2D
330
25
100
AcDbEntity
  8
1
  6
Continuous
 62
     0
100
AcDbLine
 10
14629.42688705659
 20
-217.4336219446232
 30
0.0
 11
14629.42688705659
 21
-247.4336219446232
 31
0.0
  0
LINE
  5
C30
330
25
100
AcDbEntity
  8
1
  6
Continuous
 62
     0
100
AcDbLine
 10
14636.42688705659
 20
-266.2690509902586
 30
0.0
 11
14632.42688705659
 21
-266.2690509902586
 31
0.0
  0
LINE
  5
C31
330
25
100
AcDbEntity
  8
1
  6
Continuous
 62
     0
100
AcDbLine
 10
14629.42688705659
 20
-183.6088656854859
 30
0.0
 11
14629.42688705659
 21
-213.6088656854863
 31
0.0
  0
LINE
  5
C32
330
25
100
AcDbEntity
  8
1
  6
Continuous
 62
     0
100
AcDbLine
 10
14632.42688705659
 20
-183.6088656854859
 30
0.0
 11
14629.42688705659
 21
-183.6088656854859
 31
0.0
  0
LINE
  5
C33
330
25
100
AcDbEntity
  8
1
  6
Continuous
 62
     0
100
AcDbLine
 10
14632.42688705659
 20
-213.6088656854863
 30
0.0
 11
14632.42688705659
 21
-183.6088656854859
 31
0.0
  0
LINE
  5
C34
330
25
100
AcDbEntity
  8
1
  6
Continuous
 62
     0
100
AcDbLine
 10
14645.35509028687
 20
-273.3408477599842
 30
0.0
 11
14636.42688705659
 21
-273.3408477599842
 31
0.0
  0
LINE
  5
C35
330
25
100
AcDbEntity
  8
1
  6
Continuous
 62
     0
100
AcDbLine
 10
14629.42688705659
 20
-213.6088656854863
 30
0.0
 11
14632.42688705659
 21
-213.6088656854863
 31
0.0
  0
LINE
  5
C36
330
25
100
AcDbEntity
  8
1
  6
Continuous
 62
     0
100
AcDbLine
 10
14636.42688705659
 20
-294.1254574508112
 30
0.0
 11
14645.35509028687
 21
-294.1254574508112
 31
0.0
  0
LINE
  5
C37
330
25
100
AcDbEntity
  8
1
  6
Continuous
 62
     0
100
AcDbLine
 10
14632.42688705659
 20
-299.0938072493973
 30
0.0
 11
14629.42688705659
 21
-299.0938072493973
 31
0.0
  0
LINE
  5
C39
330
25
100
AcDbEntity
  8
1
  6
Continuous
 62
     0
100
AcDbLine
 10
14632.42688705659
 20
-312.017616773207
 30
0.0
 11
14636.42688705659
 21
-313.1604739160639
 31
0.0
  0
LINE
  5
C3A
330
25
100
AcDbEntity
  8
1
  6
Continuous
 62
     0
100
AcDbLine
 10
14636.42688705659
 20
-225.5054187143478
 30
0.0
 11
14645.35509028687
 21
-225.5054187143478
 31
0.0
  0
LINE
  5
C3B
330
25
100
AcDbEntity
  8
1
  6
Continuous
 62
     0
100
AcDbLine
 10
14629.42688705659
 20
-299.0938072493973
 30
0.0
 11
14629.42688705659
 21
-329.0938072493973
 31
0.0
  0
LINE
  5
C3C
330
25
100
AcDbEntity
  8
1
  6
Continuous
 62
     0
100
AcDbLine
 10
14632.42688705659
 20
-295.2690509902586
 30
0.0
 11
14632.42688705659
 21
-265.2690509902586
 31
0.0
  0
LINE
  5
C3D
330
25
100
AcDbEntity
  8
1
  6
Continuous
 62
     0
100
AcDbLine
 10
14632.42688705659
 20
-281.2023843235929
 30
0.0
 11
14636.42688705659
 21
-282.3452414664507
 31
0.0
  0
LINE
  5
C3E
330
25
100
AcDbEntity
  8
1
  6
Continuous
 62
     0
100
AcDbLine
 10
14636.42688705659
 20
-246.4336219446232
 30
0.0
 11
14636.42688705659
 21
-218.4336219446232
 31
0.0
  0
LINE
  5
C3F
330
25
100
AcDbEntity
  8
1
  6
Continuous
 62
     0
100
AcDbLine
 10
14629.42688705659
 20
-265.2690509902586
 30
0.0
 11
14629.42688705659
 21
-295.2690509902586
 31
0.0
  0
LINE
  5
C40
330
25
100
AcDbEntity
  8
1
  6
Continuous
 62
     0
100
AcDbLine
 10
14636.42688705659
 20
-246.2900284051748
 30
0.0
 11
14645.35509028687
 21
-246.2900284051748
 31
0.0
  0
LINE
  5
C41
330
25
100
AcDbEntity
  8
1
  6
Continuous
 62
     0
100
AcDbLine
 10
14632.42688705659
 20
-328.0938072493973
 30
0.0
 11
14636.42688705659
 21
-328.0938072493973
 31
0.0
  0
LINE
  5
C42
330
25
100
AcDbEntity
  8
1
  6
Continuous
 62
     0
100
AcDbLine
 10
14629.42688705659
 20
-329.0938072493973
 30
0.0
 11
14632.42688705659
 21
-329.0938072493973
 31
0.0
  0
LINE
  5
C43
330
25
100
AcDbEntity
  8
1
  6
Continuous
 62
     0
100
AcDbLine
 10
14645.35509028687
 20
-321.0220104796726
 30
0.0
 11
14636.42688705659
 21
-321.0220104796726
 31
0.0
  0
LINE
  5
C44
330
25
100
AcDbEntity
  8
1
  6
Continuous
 62
     0
100
AcDbLine
 10
14645.35509028687
 20
-287.1972542205358
 30
0.0
 11
14636.42688705659
 21
-287.1972542205358
 31
0.0
  0
LINE
  5
C45
330
25
100
AcDbEntity
  8
1
  6
Continuous
 62
     0
100
AcDbLine
 10
14645.35509028687
 20
-218.5772154840715
 30
0.0
 11
14636.42688705659
 21
-218.5772154840715
 31
0.0
  0
LINE
  5
C46
330
25
100
AcDbEntity
  8
1
  6
Continuous
 62
     0
100
AcDbLine
 10
14636.42688705659
 20
-218.4336219446232
 30
0.0
 11
14632.42688705659
 21
-218.4336219446232
 31
0.0
  0
LINE
  5
C47
330
25
100
AcDbEntity
  8
1
  6
Continuous
 62
     0
100
AcDbLine
 10
14636.42688705659
 20
-230.3574314684329
 30
0.0
 11
14632.42688705659
 21
-231.5002886112907
 31
0.0
  0
LINE
  5
C48
330
25
100
AcDbEntity
  8
1
  6
Continuous
 62
     0
100
AcDbLine
 10
14632.42688705659
 20
-315.0271405827307
 30
0.0
 11
14636.42688705659
 21
-316.1699977255876
 31
0.0
  0
LINE
  5
C49
330
25
100
AcDbEntity
  8
1
  6
Continuous
 62
     0
100
AcDbLine
 10
14636.42688705659
 20
-233.3669552779565
 30
0.0
 11
14632.42688705659
 21
-234.5098124208134
 31
0.0
  0
LINE
  5
C4A
330
25
100
AcDbEntity
  8
1
  6
Continuous
 62
     0
100
AcDbLine
 10
14645.35509028687
 20
-246.2900284051748
 30
0.0
 11
14646.42688705659
 21
-244.4336219446232
 31
0.0
  0
LINE
  5
C4B
330
25
100
AcDbEntity
  8
1
  6
Continuous
 62
     0
100
AcDbLine
 10
14636.42688705659
 20
-239.3618251748985
 30
0.0
 11
14645.35509028687
 21
-239.3618251748985
 31
0.0
  0
LINE
  5
C4C
330
25
100
AcDbEntity
  8
1
  6
Continuous
 62
     0
100
AcDbLine
 10
14636.42688705659
 20
-328.0938072493973
 30
0.0
 11
14636.42688705659
 21
-300.0938072493973
 31
0.0
  0
LINE
  5
C4D
330
25
100
AcDbEntity
  8
1
  6
Continuous
 62
     0
100
AcDbLine
 10
14632.42688705659
 20
-265.2690509902586
 30
0.0
 11
14629.42688705659
 21
-265.2690509902586
 31
0.0
  0
LINE
  5
C4E
330
25
100
AcDbEntity
  8
1
  6
Continuous
 62
     0
100
AcDbLine
 10
14645.35509028687
 20
-307.1656040191219
 30
0.0
 11
14636.42688705659
 21
-307.1656040191219
 31
0.0
  0
LINE
  5
C4F
330
25
100
AcDbEntity
  8
1
  6
Continuous
 62
     0
100
AcDbLine
 10
14636.42688705659
 20
-300.0938072493973
 30
0.0
 11
14632.42688705659
 21
-300.0938072493973
 31
0.0
  0
LINE
  5
C50
330
25
100
AcDbEntity
  8
1
  6
Continuous
 62
     0
100
AcDbLine
 10
14632.42688705659
 20
-294.2690509902586
 30
0.0
 11
14636.42688705659
 21
-294.2690509902586
 31
0.0
  0
LINE
  5
C51
330
25
100
AcDbEntity
  8
1
  6
Continuous
 62
     0
100
AcDbLine
 10
14646.42688705659
 20
-220.4336219446232
 30
0.0
 11
14645.35509028687
 21
-218.5772154840715
 31
0.0
  0
LINE
  5
C52
330
25
100
AcDbEntity
  8
1
  6
Continuous
 62
     0
100
AcDbLine
 10
14646.42688705659
 20
-244.4336219446232
 30
0.0
 11
14646.42688705659
 21
-220.4336219446232
 31
0.0
  0
LINE
  5
C53
330
25
100
AcDbEntity
  8
1
  6
Continuous
 62
     0
100
AcDbLine
 10
14632.42688705659
 20
-246.4336219446232
 30
0.0
 11
14636.42688705659
 21
-246.4336219446232
 31
0.0
  0
LINE
  5
C54
330
25
100
AcDbEntity
  8
1
  6
Continuous
 62
     0
100
AcDbLine
 10
14636.42688705659
 20
-212.465272146037
 30
0.0
 11
14645.35509028687
 21
-212.465272146037
 31
0.0
  0
LINE
  5
C55
330
25
100
AcDbEntity
  8
1
  6
Continuous
 62
     0
100
AcDbLine
 10
14646.42688705659
 20
-210.6088656854863
 30
0.0
 11
14646.42688705659
 21
-186.6088656854859
 31
0.0
  0
LINE
  5
C56
330
25
100
AcDbEntity
  8
1
  6
Continuous
 62
     0
100
AcDbLine
 10
14636.42688705659
 20
-191.6806624552109
 30
0.0
 11
14645.35509028687
 21
-191.6806624552109
 31
0.0
  0
LINE
  5
C57
330
25
100
AcDbEntity
  8
1
  6
Continuous
 62
     0
100
AcDbLine
 10
14636.42688705659
 20
-199.5421990188197
 30
0.0
 11
14632.42688705659
 21
-200.6850561616766
 31
0.0
  0
LINE
  5
C58
330
25
100
AcDbEntity
  8
1
  6
Continuous
 62
     0
100
AcDbLine
 10
14645.35509028687
 20
-212.465272146037
 30
0.0
 11
14646.42688705659
 21
-210.6088656854863
 31
0.0
  0
LINE
  5
C59
330
25
100
AcDbEntity
  8
1
  6
Continuous
 62
     0
100
AcDbLine
 10
14629.42688705659
 20
-177.3513364674418
 30
0.0
 11
14629.42688705659
 21
-335.3513364674418
 31
0.0
  0
LINE
  5
C5A
330
25
100
AcDbEntity
  8
1
  6
Continuous
 62
     0
100
AcDbLine
 10
14645.35509028687
 20
-184.7524592249358
 30
0.0
 11
14636.42688705659
 21
-184.7524592249358
 31
0.0
  0
LINE
  5
C5B
330
25
100
AcDbEntity
  8
1
  6
Continuous
 62
     0
100
AcDbLine
 10
14636.42688705659
 20
-196.532675209296
 30
0.0
 11
14632.42688705659
 21
-197.6755323521529
 31
0.0
  0
LINE
  5
C5C
330
25
100
AcDbEntity
  8
1
  6
Continuous
 62
     0
100
AcDbLine
 10
14632.42688705659
 20
-212.6088656854863
 30
0.0
 11
14636.42688705659
 21
-212.6088656854863
 31
0.0
  0
LINE
  5
C5E
330
25
100
AcDbEntity
  8
1
  6
Continuous
 62
     0
100
AcDbLine
 10
14636.42688705659
 20
-184.6088656854859
 30
0.0
 11
14632.42688705659
 21
-184.6088656854859
 31
0.0
  0
LINE
  5
C5F
330
25
100
AcDbEntity
  8
1
  6
Continuous
 62
     0
100
AcDbLine
 10
14636.42688705659
 20
-205.5370689157617
 30
0.0
 11
14645.35509028687
 21
-205.5370689157617
 31
0.0
  0
LINE
  5
C60
330
25
100
AcDbEntity
  8
1
  6
Continuous
 62
     0
100
AcDbLine
 10
14619.42688705659
 20
-177.3513364674418
 30
0.0
 11
14619.42688705659
 21
-335.3513364674418
 31
0.0
  0
LINE
  5
C61
330
25
100
AcDbEntity
  8
1
  6
Continuous
 62
     0
100
AcDbLine
 10
14629.42688705659
 20
-177.3513364674418
 30
0.0
 11
14614.42688705659
 21
-177.3513364674418
 31
0.0
  0
LINE
  5
C62
330
25
100
AcDbEntity
  8
1
  6
Continuous
 62
     0
100
AcDbLine
 10
14636.42688705659
 20
-212.6088656854863
 30
0.0
 11
14636.42688705659
 21
-184.6088656854859
 31
0.0
  0
LINE
  5
C63
330
25
100
AcDbEntity
  8
1
  6
Continuous
 62
     0
100
AcDbLine
 10
14629.42688705659
 20
-335.3513364674418
 30
0.0
 11
14614.42688705659
 21
-335.3513364674418
 31
0.0
  0
LINE
  5
C64
330
25
100
AcDbEntity
  8
1
  6
Continuous
 62
     0
100
AcDbLine
 10
14646.42688705659
 20
-186.6088656854859
 30
0.0
 11
14645.35509028687
 21
-184.7524592249358
 31
0.0
  0
ENDBLK
  5
57D
330
25
100
AcDbEntity
  8
0
100
AcDbBlockEnd
  0
ENDSEC
  0
SECTION
  2
ENTITIES
  0
INSERT
  5
29
330
A
100
AcDbEntity
  8
0
100
AcDbBlockReference
  2
SAT2000C85__1
 10
0.0
 20
0.0
 30
0.0
  0
VIEWPORT
  5
21CA
330
21C6
100
AcDbEntity
 67
     1
  8
0
100
AcDbViewport
 10
0.0
 20
0.0
 30
0.0
 40
13.35029508196721
 41
5.711999999999999
 68
     1
 69
     1
 12
6.101362379204061
 22
3.548483543159836
 13
0.0
 23
0.0
 14
0.5
 24
0.5
 15
0.0
 25
0.0
 16
0.0
 26
0.0
 36
1.0
 17
0.0
 27
0.0
 37
0.0
 42
50.0
 43
0.0
 44
0.0
 45
5.711999999999999
 50
0.0
 51
0.0
 72
   100
 90
   557168
  1

281
     0
 71
     1
 74
     0
110
0.0
120
0.0
130
0.0
111
1.0
121
0.0
131
0.0
112
0.0
122
1.0
132
0.0
 79
     0
146
0.0
170
     0
 61
     5
348
5AD
292
     1
282
     1
141
0.0
142
0.0
 63
   256
361
21CE
  0
VIEWPORT
  5
21CB
102
{ACAD_XDICTIONARY
360
21CC
102
}
330
21C6
100
AcDbEntity
 67
     1
  8
0
100
AcDbViewport
 10
5.25
 20
3.5
 30
0.0
 40
8.4
 41
5.600000000000001
 68
     2
 69
     2
 12
13784.21024036963
 22
-2076.793430428621
 13
0.0
 23
0.0
 14
0.5
 24
0.5
 15
0.0
 25
0.0
 16
0.0
 26
0.0
 36
1.0
 17
0.0
 27
0.0
 37
0.0
 42
50.0
 43
0.0
 44
0.0
 45
4671.321414034634
 50
0.0
 51
0.0
 72
   100
 90
   557152
  1

281
     0
 71
     1
 74
     0
110
0.0
120
0.0
130
0.0
111
1.0
121
0.0
131
0.0
112
0.0
122
1.0
132
0.0
 79
     0
146
0.0
170
     0
 61
     5
348
5AD
292
     1
282
     1
141
0.0
142
0.0
 63
   256
  0
ENDSEC
  0
SECTION
  2
OBJECTS
  0
DICTIONARY
  5
19
330
0
100
AcDbDictionary
281
     1
  3
ACAD_DETAILVIEWSTYLE
350
C6A
  3
ACAD_GROUP
350
1A
  3
ACAD_LAYOUT
350
5A5
  3
ACAD_MATERIAL
350
5C1
  3
ACAD_MLEADERSTYLE
350
5C7
  3
ACAD_MLINESTYLE
350
1B
  3
ACAD_PLOTSETTINGS
350
580
  3
ACAD_PLOTSTYLENAME
350
581
  3
ACAD_SCALELIST
350
583
  3
ACAD_SECTIONVIEWSTYLE
350
C6B
  3
ACAD_TABLESTYLE
350
5C5
  3
ACAD_VISUALSTYLE
350
5A8
  3
ACDB_RECOMPOSE_DATA
350
21D4
  3
AcDbVariableDictionary
350
C65
  3
APPDATA
350
5C9
  0
SUN
  5
C7D
330
15
100
AcDbSun
 90
        1
290
     0
 63
     7
421
 16777215
 40
1.0
291
     1
 91
  2455826
 92
 54000000
292
     0
 70
     2
 71
   256
280
     1
  0
SUN
  5
21CE
330
21CA
100
AcDbSun
 90
        1
290
     0
 63
     7
421
 16777215
 40
1.0
291
     1
 91
  2455826
 92
 54000000
292
     0
 70
     2
 71
   256
280
     1
  0
DICTIONARY
  5
21CC
330
21CB
100
AcDbDictionary
280
     1
281
     1
  3
ASDK_XREC_ANNOTATION_SCALE_INFO
360
21CD
  0
DICTIONARY
  5
C6A
102
{ACAD_REACTORS
330
19
102
}
330
19
100
AcDbDictionary
281
     1
  0
DICTIONARY
  5
1A
102
{ACAD_REACTORS
330
19
102
}
330
19
100
AcDbDictionary
281
     1
  0
DICTIONARY
  5
5A5
102
{ACAD_REACTORS
330
19
102
}
330
19
100
AcDbDictionary
281
     1
  3
Model
350
5A6
  3
シート1
350
21C7
  0
DICTIONARY
  5
5C1
102
{ACAD_REACTORS
330
19
102
}
330
19
100
AcDbDictionary
281
     1
  3
ByBlock
350
5C3
  3
ByLayer
350
5C2
  3
Global
350
5C4
  0
DICTIONARY
  5
5C7
102
{ACAD_REACTORS
330
19
102
}
330
19
100
AcDbDictionary
281
     1
  3
Standard
350
5C8
  0
DICTIONARY
  5
1B
102
{ACAD_REACTORS
330
19
102
}
330
19
100
AcDbDictionary
281
     1
  3
STANDARD
350
1C
  0
DICTIONARY
  5
580
102
{ACAD_REACTORS
330
19
102
}
330
19
100
AcDbDictionary
281
     1
  0
ACDBDICTIONARYWDFLT
  5
581
102
{ACAD_REACTORS
330
19
102
}
330
19
100
AcDbDictionary
281
     1
  3
Normal
350
582
100
AcDbDictionaryWithDefault
340
582
  0
DICTIONARY
  5
583
102
{ACAD_REACTORS
330
19
102
}
330
19
100
AcDbDictionary
281
     1
  3
A0
350
584
  3
A1
350
585
  3
A2
350
586
  3
A3
350
587
  3
A4
350
588
  3
A5
350
589
  3
A6
350
58A
  3
A7
350
58B
  3
A8
350
58C
  3
A9
350
58D
  3
B0
350
58E
  3
B1
350
58F
  3
B2
350
590
  3
B3
350
591
  3
B4
350
592
  3
B5
350
593
  3
B6
350
594
  3
B7
350
595
  3
B8
350
596
  3
B9
350
597
  3
C0
350
598
  3
C1
350
599
  3
C2
350
59A
  3
C3
350
59B
  3
C4
350
59C
  3
C5
350
59D
  3
C6
350
59E
  3
C7
350
59F
  3
C8
350
5A0
  3
C9
350
5A1
  3
D0
350
5A2
  3
D1
350
5A3
  3
D2
350
5A4
  0
DICTIONARY
  5
C6B
102
{ACAD_REACTORS
330
19
102
}
330
19
100
AcDbDictionary
281
     1
  0
DICTIONARY
  5
5C5
102
{ACAD_REACTORS
330
19
102
}
330
19
100
AcDbDictionary
281
     1
  3
Standard
350
5C6
  0
DICTIONARY
  5
5A8
102
{ACAD_REACTORS
330
19
102
}
330
19
100
AcDbDictionary
281
     1
  3
2dWireframe
350
5AD
  3
Basic
350
5B0
  3
Brighten
350
5B4
  3
ColorChange
350
5B8
  3
Conceptual
350
5B2
  3
Dim
350
5B3
  3
EdgeColorOff
350
5BB
  3
Facepattern
350
5B7
  3
Flat
350
5A9
  3
FlatWithEdges
350
5AA
  3
Gouraud
350
5AB
  3
GouraudWithEdges
350
5AC
  3
Hidden
350
5AF
  3
JitterOff
350
5B9
  3
Linepattern
350
5B6
  3
OverhangOff
350
5BA
  3
Realistic
350
5B1
  3
Shaded
350
5C0
  3
Shaded with edges
350
5BF
  3
Shades of Gray
350
5BC
  3
Sketchy
350
5BD
  3
Thicken
350
5B5
  3
Wireframe
350
5AE
  3
X-Ray
350
5BE
  0
XRECORD
  5
21D4
102
{ACAD_REACTORS
330
19
102
}
330
19
100
AcDbXrecord
280
     1
 90
        1
330
5C6
  0
DICTIONARY
  5
C65
102
{ACAD_REACTORS
330
19
102
}
330
19
100
AcDbDictionary
281
     1
  3
CANNOSCALE
350
C66
  3
CMLEADERSTYLE
350
C68
  3
CTABLESTYLE
350
C67
  3
MSLTSCALE
350
C69
  0
DICTIONARY
  5
5C9
102
{ACAD_REACTORS
330
19
102
}
330
19
100
AcDbDictionary
281
     1
  0
XRECORD
  5
21CD
102
{ACAD_REACTORS
330
21CC
102
}
330
21CC
100
AcDbXrecord
280
     1
 90
        1
340
584
  0
LAYOUT
  5
5A6
102
{ACAD_REACTORS
330
5A5
102
}
330
5A5
100
AcDbPlotSettings
  1

  2
none_device
  4
Letter_(8.50_x_11.00_Inches)
  6

 40
6.35
 41
6.35
 42
6.35
 43
6.35
 44
215.9
 45
279.4
 46
0.0
 47
0.0
 48
0.0
 49
0.0
140
0.0
141
0.0
142
1.0
143
0.8722256190476192
 70
  1712
 72
     0
 73
     0
 74
     0
  7

 75
     0
 76
     0
 77
     2
 78
   300
147
1.146492350330064
148
-87.33095066012679
149
0.0000127000000131
100
AcDbLayout
  1
Model
 70
     1
 71
     0
 10
0.0
 20
0.0
 11
0.0
 21
0.0
 12
0.0
 22
0.0
 32
0.0
 14
10516.39335183313
 24
-4366.656868680892
 34
0.0
 15
17052.02712890613
 25
213.0700078236505
 35
0.0
146
0.0
 13
0.0
 23
0.0
 33
0.0
 16
1.0
 26
0.0
 36
0.0
 17
0.0
 27
1.0
 37
0.0
 76
     0
330
A
331
15
  0
LAYOUT
  5
21C7
102
{ACAD_REACTORS
330
5A5
102
}
330
5A5
100
AcDbPlotSettings
  1

  2
none_device
  4
ANSI_A_(11.00_x_8.50_Inches)
  6

 40
6.35
 41
19.05
 42
6.35
 43
19.05
 44
279.4
 45
215.9
 46
0.0
 47
0.0
 48
0.0
 49
0.0
140
0.0
141
0.0
142
1.0
143
1.0
 70
   688
 72
     0
 73
     0
 74
     5
  7

 75
    16
 76
     0
 77
     2
 78
   300
147
1.0
148
0.0
149
0.0
100
AcDbLayout
  1
シート1
 70
     1
 71
     1
 10
-0.25
 20
-0.7499999999999999
 11
10.75
 21
7.75
 12
0.0
 22
0.0
 32
0.0
 14
1.05
 24
0.6999999999999997
 34
0.0
 15
9.45
 25
6.300000000000001
 35
0.0
146
0.0
 13
0.0
 23
0.0
 33
0.0
 16
1.0
 26
0.0
 36
0.0
 17
0.0
 27
1.0
 37
0.0
 76
     0
330
21C6
331
21CA
  0
MATERIAL
  5
5C3
102
{ACAD_REACTORS
330
5C1
102
}
330
5C1
100
AcDbMaterial
  1
ByBlock
 72
     1
 94
      127
  0
MATERIAL
  5
5C2
102
{ACAD_REACTORS
330
5C1
102
}
330
5C1
100
AcDbMaterial
  1
ByLayer
 72
     1
 94
      127
  0
MATERIAL
  5
5C4
102
{ACAD_REACTORS
330
5C1
102
}
330
5C1
100
AcDbMaterial
  1
Global
 72
     1
 94
      127
  0
MLEADERSTYLE
  5
5C8
102
{ACAD_REACTORS
330
5C7
102
}
330
5C7
100
AcDbMLeaderStyle
179
     2
170
     2
171
     1
172
     0
 90
        2
 40
0.0
 41
0.0
173
     1
 91
-1056964608
340
11
 92
       -2
290
     1
 42
0.09
291
     1
 43
0.36
  3
Standard
341
0
 44
0.18
300

342
17
174
     1
178
     1
175
     1
176
     0
 93
-1056964608
 45
0.18
292
     0
297
     0
 46
0.18
343
0
 94
-1056964608
 47
1.0
 49
1.0
140
1.0
293
     1
141
0.0
294
     1
177
     0
142
1.0
295
     0
296
     0
143
0.125
271
     0
272
     9
273
     9
298
     0
  0
MLINESTYLE
  5
1C
102
{ACAD_REACTORS
330
1B
102
}
330
1B
100
AcDbMlineStyle
  2
STANDARD
 70
     0
  3

 62
     0
 51
90.0
 52
90.0
 71
     2
 49
0.5
 62
   256
  6
BYLAYER
 49
-0.5
 62
   256
  6
BYLAYER
  0
ACDBPLACEHOLDER
  5
582
102
{ACAD_REACTORS
330
581
102
}
330
581
  0
SCALE
  5
584
102
{ACAD_REACTORS
330
583
102
}
330
583
100
AcDbScale
 70
     0
300
1:1
140
1.0
141
1.0
290
     1
  0
SCALE
  5
585
102
{ACAD_REACTORS
330
583
102
}
330
583
100
AcDbScale
 70
     0
300
1:2
140
1.0
141
2.0
290
     0
  0
SCALE
  5
586
102
{ACAD_REACTORS
330
583
102
}
330
583
100
AcDbScale
 70
     0
300
1:4
140
1.0
141
4.0
290
     0
  0
SCALE
  5
587
102
{ACAD_REACTORS
330
583
102
}
330
583
100
AcDbScale
 70
     0
300
1:5
140
1.0
141
5.0
290
     0
  0
SCALE
  5
588
102
{ACAD_REACTORS
330
583
102
}
330
583
100
AcDbScale
 70
     0
300
1:8
140
1.0
141
8.0
290
     0
  0
SCALE
  5
589
102
{ACAD_REACTORS
330
583
102
}
330
583
100
AcDbScale
 70
     0
300
1:10
140
1.0
141
10.0
290
     0
  0
SCALE
  5
58A
102
{ACAD_REACTORS
330
583
102
}
330
583
100
AcDbScale
 70
     0
300
1:16
140
1.0
141
16.0
290
     0
  0
SCALE
  5
58B
102
{ACAD_REACTORS
330
583
102
}
330
583
100
AcDbScale
 70
     0
300
1:20
140
1.0
141
20.0
290
     0
  0
SCALE
  5
58C
102
{ACAD_REACTORS
330
583
102
}
330
583
100
AcDbScale
 70
     0
300
1:30
140
1.0
141
30.0
290
     0
  0
SCALE
  5
58D
102
{ACAD_REACTORS
330
583
102
}
330
583
100
AcDbScale
 70
     0
300
1:40
140
1.0
141
40.0
290
     0
  0
SCALE
  5
58E
102
{ACAD_REACTORS
330
583
102
}
330
583
100
AcDbScale
 70
     0
300
1:50
140
1.0
141
50.0
290
     0
  0
SCALE
  5
58F
102
{ACAD_REACTORS
330
583
102
}
330
583
100
AcDbScale
 70
     0
300
1:100
140
1.0
141
100.0
290
     0
  0
SCALE
  5
590
102
{ACAD_REACTORS
330
583
102
}
330
583
100
AcDbScale
 70
     0
300
2:1
140
2.0
141
1.0
290
     0
  0
SCALE
  5
591
102
{ACAD_REACTORS
330
583
102
}
330
583
100
AcDbScale
 70
     0
300
4:1
140
4.0
141
1.0
290
     0
  0
SCALE
  5
592
102
{ACAD_REACTORS
330
583
102
}
330
583
100
AcDbScale
 70
     0
300
8:1
140
8.0
141
1.0
290
     0
  0
SCALE
  5
593
102
{ACAD_REACTORS
330
583
102
}
330
583
100
AcDbScale
 70
     0
300
10:1
140
10.0
141
1.0
290
     0
  0
SCALE
  5
594
102
{ACAD_REACTORS
330
583
102
}
330
583
100
AcDbScale
 70
     0
300
100:1
140
100.0
141
1.0
290
     0
  0
SCALE
  5
595
102
{ACAD_REACTORS
330
583
102
}
330
583
100
AcDbScale
 70
     0
300
1/128" = 1'-0"
140
0.0078125
141
12.0
290
     0
  0
SCALE
  5
596
102
{ACAD_REACTORS
330
583
102
}
330
583
100
AcDbScale
 70
     0
300
1/64" = 1'-0"
140
0.015625
141
12.0
290
     0
  0
SCALE
  5
597
102
{ACAD_REACTORS
330
583
102
}
330
583
100
AcDbScale
 70
     0
300
1/32" = 1'-0"
140
0.03125
141
12.0
290
     0
  0
SCALE
  5
598
102
{ACAD_REACTORS
330
583
102
}
330
583
100
AcDbScale
 70
     0
300
1/16" = 1'-0"
140
0.0625
141
12.0
290
     0
  0
SCALE
  5
599
102
{ACAD_REACTORS
330
583
102
}
330
583
100
AcDbScale
 70
     0
300
3/32" = 1'-0"
140
0.09375
141
12.0
290
     0
  0
SCALE
  5
59A
102
{ACAD_REACTORS
330
583
102
}
330
583
100
AcDbScale
 70
     0
300
1/8" = 1'-0"
140
0.125
141
12.0
290
     0
  0
SCALE
  5
59B
102
{ACAD_REACTORS
330
583
102
}
330
583
100
AcDbScale
 70
     0
300
3/16" = 1'-0"
140
0.1875
141
12.0
290
     0
  0
SCALE
  5
59C
102
{ACAD_REACTORS
330
583
102
}
330
583
100
AcDbScale
 70
     0
300
1/4" = 1'-0"
140
0.25
141
12.0
290
     0
  0
SCALE
  5
59D
102
{ACAD_REACTORS
330
583
102
}
330
583
100
AcDbScale
 70
     0
300
3/8" = 1'-0"
140
0.375
141
12.0
290
     0
  0
SCALE
  5
59E
102
{ACAD_REACTORS
330
583
102
}
330
583
100
AcDbScale
 70
     0
300
1/2" = 1'-0"
140
0.5
141
12.0
290
     0
  0
SCALE
  5
59F
102
{ACAD_REACTORS
330
583
102
}
330
583
100
AcDbScale
 70
     0
300
3/4" = 1'-0"
140
0.75
141
12.0
290
     0
  0
SCALE
  5
5A0
102
{ACAD_REACTORS
330
583
102
}
330
583
100
AcDbScale
 70
     0
300
1" = 1'-0"
140
1.0
141
12.0
290
     0
  0
SCALE
  5
5A1
102
{ACAD_REACTORS
330
583
102
}
330
583
100
AcDbScale
 70
     0
300
1-1/2" = 1'-0"
140
1.5
141
12.0
290
     0
  0
SCALE
  5
5A2
102
{ACAD_REACTORS
330
583
102
}
330
583
100
AcDbScale
 70
     0
300
3" = 1'-0"
140
3.0
141
12.0
290
     0
  0
SCALE
  5
5A3
102
{ACAD_REACTORS
330
583
102
}
330
583
100
AcDbScale
 70
     0
300
6" = 1'-0"
140
6.0
141
12.0
290
     0
  0
SCALE
  5
5A4
102
{ACAD_REACTORS
330
583
102
}
330
583
100
AcDbScale
 70
     0
300
1'-0" = 1'-0"
140
12.0
141
12.0
290
     0
  0
TABLESTYLE
  5
5C6
102
{ACAD_REACTORS
330
5C5
102
}
102
{ACAD_XDICTIONARY
360
21D2
102
}
330
5C5
100
AcDbTableStyle
  3
Standard
 70
     0
 71
     0
 40
0.06
 41
0.06
280
     0
281
     0
  7
STANDARD
140
0.18
170
     2
 62
     0
 63
   257
283
     0
 90
        4
 91
        0
  1

274
    -2
284
     1
 64
     0
275
    -2
285
     1
 65
     0
276
    -2
286
     1
 66
     0
277
    -2
287
     1
 67
     0
278
    -2
288
     1
 68
     0
279
    -2
289
     1
 69
     0
  7
STANDARD
140
0.25
170
     5
 62
     0
 63
   257
283
     0
 90
        4
 91
        0
  1

274
    -2
284
     1
 64
     0
275
    -2
285
     1
 65
     0
276
    -2
286
     1
 66
     0
277
    -2
287
     1
 67
     0
278
    -2
288
     1
 68
     0
279
    -2
289
     1
 69
     0
  7
STANDARD
140
0.18
170
     5
 62
     0
 63
   257
283
     0
 90
        4
 91
        0
  1

274
    -2
284
     1
 64
     0
275
    -2
285
     1
 65
     0
276
    -2
286
     1
 66
     0
277
    -2
287
     1
 67
     0
278
    -2
288
     1
 68
     0
279
    -2
289
     1
 69
     0
  0
VISUALSTYLE
  5
5AD
102
{ACAD_REACTORS
330
5A8
102
}
330
5A8
100
AcDbVisualStyle
  2
2dWireframe
 70
     4
177
     3
291
     0
 70
    58
 90
        0
176
     1
 90
        2
176
     1
 90
        0
176
     1
 90
        0
176
     1
 40
0.6
176
     1
 40
30.0
176
     1
 62
     7
420
 16777215
176
     1
 90
        1
176
     1
 90
        4
176
     1
 62
     7
176
     1
 62
   257
176
     1
 90
        1
176
     1
 90
        1
176
     1
 40
1.0
176
     1
 90
        0
176
     1
 62
   257
176
     1
 40
1.0
176
     1
 90
        1
176
     1
 90
        6
176
     1
 90
        2
176
     1
 62
     7
176
     1
 90
        5
176
     1
 90
        0
176
     1
 90
        0
176
     1
290
     0
176
     1
 90
        1
176
     1
 40
0.0
176
     1
 90
        0
176
     1
290
     1
176
     1
290
     1
176
     1
290
     0
176
     1
290
     0
176
     1
290
     0
176
     1
290
     0
176
     1
290
     0
176
     1
290
     0
176
     1
290
     0
176
     1
 90
       50
176
     1
 40
0.0
176
     1
 40
1.0
176
     1
 90
        0
176
     1
 62
    18
420
        0
176
     1
 90
       50
176
     1
 90
        3
176
     1
 62
     5
420
      255
176
     1
290
     0
176
     1
 90
       50
176
     1
 90
       50
176
     1
 90
       50
176
     1
290
     0
176
     1
 90
       50
176
     1
 62
   256
176
     0
 40
1.0
176
     0
 90
        2
176
     1
  1
strokes_ogs.tif
176
     1
290
     0
176
     1
 40
1.0
176
     1
 40
1.0
176
     1
  0
VISUALSTYLE
  5
5B0
102
{ACAD_REACTORS
330
5A8
102
}
330
5A8
100
AcDbVisualStyle
  2
Basic
 70
     7
177
     3
291
     1
 70
    58
 90
        1
176
     1
 90
        0
176
     1
 90
        1
176
     1
 90
        0
176
     1
 40
0.6
176
     1
 40
30.0
176
     1
 62
     7
420
 16777215
176
     1
 90
        0
176
     1
 90
        4
176
     1
 62
     7
176
     1
 62
   257
176
     1
 90
        1
176
     1
 90
        1
176
     1
 40
1.0
176
     1
 90
        8
176
     1
 62
     7
176
     1
 40
1.0
176
     1
 90
        1
176
     1
 90
        6
176
     1
 90
        2
176
     1
 62
     7
176
     1
 90
        5
176
     1
 90
        0
176
     1
 90
        0
176
     1
290
     0
176
     1
 90
        1
176
     1
 40
0.0
176
     1
 90
        0
176
     1
290
     0
176
     1
290
     1
176
     1
290
     1
176
     1
290
     0
176
     1
290
     0
176
     1
290
     0
176
     1
290
     0
176
     1
290
     0
176
     1
290
     0
176
     1
 90
       50
176
     1
 40
0.0
176
     1
 40
1.0
176
     1
 90
        0
176
     1
 62
    18
420
        0
176
     1
 90
       50
176
     1
 90
        3
176
     1
 62
     5
420
      255
176
     1
290
     0
176
     1
 90
       50
176
     1
 90
       50
176
     1
 90
       50
176
     1
290
     0
176
     1
 90
       50
176
     1
 62
   256
176
     0
 40
1.0
176
     0
 90
        2
176
     1
  1
strokes_ogs.tif
176
     1
290
     0
176
     1
 40
1.0
176
     1
 40
1.0
176
     1
  0
VISUALSTYLE
  5
5B4
102
{ACAD_REACTORS
330
5A8
102
}
330
5A8
100
AcDbVisualStyle
  2
Brighten
 70
    12
177
     3
291
     1
 70
    58
 90
        2
176
     1
 90
        2
176
     1
 90
        0
176
     1
 90
        0
176
     1
 40
0.6
176
     1
 40
30.0
176
     1
 62
     7
420
 16777215
176
     1
 90
        1
176
     1
 90
        4
176
     1
 62
     7
176
     1
 62
   257
176
     1
 90
        1
176
     1
 90
        1
176
     1
 40
1.0
176
     1
 90
        8
176
     1
 62
     7
176
     1
 40
1.0
176
     1
 90
        1
176
     1
 90
        6
176
     1
 90
        2
176
     1
 62
     7
176
     1
 90
        5
176
     1
 90
        0
176
     1
 90
        0
176
     1
290
     0
176
     1
 90
        1
176
     1
 40
50.0
176
     1
 90
        0
176
     1
290
     0
176
     1
290
     1
176
     1
290
     1
176
     1
290
     0
176
     1
290
     0
176
     1
290
     0
176
     1
290
     0
176
     1
290
     0
176
     1
290
     0
176
     1
 90
       50
176
     1
 40
0.0
176
     1
 40
1.0
176
     1
 90
        0
176
     1
 62
    18
420
        0
176
     1
 90
       50
176
     1
 90
        3
176
     1
 62
     5
420
      255
176
     1
290
     0
176
     1
 90
       50
176
     1
 90
       50
176
     1
 90
       50
176
     1
290
     0
176
     1
 90
       50
176
     1
 62
   256
176
     0
 40
1.0
176
     0
 90
        2
176
     1
  1
strokes_ogs.tif
176
     1
290
     0
176
     1
 40
1.0
176
     1
 40
1.0
176
     1
  0
VISUALSTYLE
  5
5B8
102
{ACAD_REACTORS
330
5A8
102
}
330
5A8
100
AcDbVisualStyle
  2
ColorChange
 70
    16
177
     3
291
     1
 70
    58
 90
        2
176
     1
 90
        2
176
     1
 90
        3
176
     1
 90
        0
176
     1
 40
0.6
176
     1
 40
30.0
176
     1
 62
     8
420
  8421504
176
     1
 90
        1
176
     1
 90
        4
176
     1
 62
     7
176
     1
 62
   257
176
     1
 90
        1
176
     1
 90
        1
176
     1
 40
1.0
176
     1
 90
        8
176
     1
 62
     8
420
  8421504
176
     1
 40
1.0
176
     1
 90
        1
176
     1
 90
        6
176
     1
 90
        2
176
     1
 62
     7
176
     1
 90
        5
176
     1
 90
        0
176
     1
 90
        0
176
     1
290
     0
176
     1
 90
        1
176
     1
 40
0.0
176
     1
 90
        0
176
     1
290
     0
176
     1
290
     1
176
     1
290
     1
176
     1
290
     0
176
     1
290
     0
176
     1
290
     0
176
     1
290
     0
176
     1
290
     0
176
     1
290
     0
176
     1
 90
       50
176
     1
 40
0.0
176
     1
 40
1.0
176
     1
 90
        0
176
     1
 62
    18
420
        0
176
     1
 90
       50
176
     1
 90
        3
176
     1
 62
     5
420
      255
176
     1
290
     0
176
     1
 90
       50
176
     1
 90
       50
176
     1
 90
       50
176
     1
290
     0
176
     1
 90
       50
176
     1
 62
   256
176
     0
 40
1.0
176
     0
 90
        2
176
     1
  1
strokes_ogs.tif
176
     1
290
     0
176
     1
 40
1.0
176
     1
 40
1.0
176
     1
  0
VISUALSTYLE
  5
5B2
102
{ACAD_REACTORS
330
5A8
102
}
330
5A8
100
AcDbVisualStyle
  2
Conceptual
 70
     9
177
     3
291
     0
 70
    58
 90
        3
176
     1
 90
        2
176
     1
 90
        0
176
     1
 90
        0
176
     1
 40
0.6
176
     1
 40
30.0
176
     1
 62
     7
420
 16777215
176
     1
 90
        2
176
     1
 90
        2
176
     1
 62
     7
176
     1
 62
   257
176
     1
 90
        1
176
     1
 90
        1
176
     1
 40
179.0
176
     1
 90
        8
176
     1
 62
     7
176
     1
 40
1.0
176
     1
 90
        1
176
     1
 90
        6
176
     1
 90
        2
176
     1
 62
     7
176
     1
 90
        3
176
     1
 90
        0
176
     1
 90
        0
176
     1
290
     0
176
     1
 90
        1
176
     1
 40
0.0
176
     1
 90
        0
176
     1
290
     0
176
     1
290
     1
176
     1
290
     1
176
     1
290
     0
176
     1
290
     0
176
     1
290
     0
176
     1
290
     0
176
     1
290
     0
176
     1
290
     0
176
     1
 90
       50
176
     1
 40
0.0
176
     1
 40
1.0
176
     1
 90
        0
176
     1
 62
    18
420
        0
176
     1
 90
       50
176
     1
 90
        3
176
     1
 62
     5
420
      255
176
     1
290
     0
176
     1
 90
       50
176
     1
 90
       50
176
     1
 90
       50
176
     1
290
     0
176
     1
 90
       50
176
     1
 62
   256
176
     0
 40
1.0
176
     0
 90
        2
176
     1
  1
strokes_ogs.tif
176
     1
290
     0
176
     1
 40
1.0
176
     1
 40
1.0
176
     1
  0
VISUALSTYLE
  5
5B3
102
{ACAD_REACTORS
330
5A8
102
}
330
5A8
100
AcDbVisualStyle
  2
Dim
 70
    11
177
     3
291
     1
 70
    58
 90
        2
176
     1
 90
        2
176
     1
 90
        0
176
     1
 90
        0
176
     1
 40
0.6
176
     1
 40
30.0
176
     1
 62
     7
420
 16777215
176
     1
 90
        1
176
     1
 90
        4
176
     1
 62
     7
176
     1
 62
   257
176
     1
 90
        1
176
     1
 90
        1
176
     1
 40
1.0
176
     1
 90
        8
176
     1
 62
     7
176
     1
 40
1.0
176
     1
 90
        1
176
     1
 90
        6
176
     1
 90
        2
176
     1
 62
     7
176
     1
 90
        5
176
     1
 90
        0
176
     1
 90
        0
176
     1
290
     0
176
     1
 90
        1
176
     1
 40
-50.0
176
     1
 90
        0
176
     1
290
     0
176
     1
290
     1
176
     1
290
     1
176
     1
290
     0
176
     1
290
     0
176
     1
290
     0
176
     1
290
     0
176
     1
290
     0
176
     1
290
     0
176
     1
 90
       50
176
     1
 40
0.0
176
     1
 40
1.0
176
     1
 90
        0
176
     1
 62
    18
420
        0
176
     1
 90
       50
176
     1
 90
        3
176
     1
 62
     5
420
      255
176
     1
290
     0
176
     1
 90
       50
176
     1
 90
       50
176
     1
 90
       50
176
     1
290
     0
176
     1
 90
       50
176
     1
 62
   256
176
     0
 40
1.0
176
     0
 90
        2
176
     1
  1
strokes_ogs.tif
176
     1
290
     0
176
     1
 40
1.0
176
     1
 40
1.0
176
     1
  0
VISUALSTYLE
  5
5BB
102
{ACAD_REACTORS
330
5A8
102
}
330
5A8
100
AcDbVisualStyle
  2
EdgeColorOff
 70
    22
177
     3
291
     1
 70
    58
 90
        2
176
     0
 90
        2
176
     0
 90
        0
176
     0
 90
        0
176
     0
 40
0.6
176
     0
 40
30.0
176
     0
 62
     7
420
 16777215
176
     0
 90
        1
176
     0
 90
        4
176
     0
 62
     7
176
     0
 62
   257
176
     0
 90
        1
176
     0
 90
        1
176
     0
 40
1.0
176
     0
 90
        8
176
     2
 62
     7
176
     0
 40
1.0
176
     0
 90
        1
176
     0
 90
        6
176
     0
 90
        2
176
     0
 62
     7
176
     0
 90
        5
176
     0
 90
        0
176
     0
 90
        0
176
     0
290
     0
176
     0
 90
        1
176
     0
 40
0.0
176
     0
 90
        0
176
     0
290
     0
176
     0
290
     1
176
     0
290
     1
176
     0
290
     0
176
     0
290
     0
176
     0
290
     0
176
     0
290
     0
176
     0
290
     0
176
     0
290
     0
176
     0
 90
       50
176
     0
 40
0.0
176
     0
 40
1.0
176
     0
 90
        0
176
     0
 62
    18
420
        0
176
     0
 90
       50
176
     0
 90
        3
176
     0
 62
     5
420
      255
176
     0
290
     0
176
     0
 90
       50
176
     0
 90
       50
176
     0
 90
       50
176
     0
290
     0
176
     0
 90
       50
176
     0
 62
   256
176
     0
 40
1.0
176
     0
 90
        2
176
     0
  1
strokes_ogs.tif
176
     0
290
     0
176
     0
 40
1.0
176
     0
 40
1.0
176
     0
  0
VISUALSTYLE
  5
5B7
102
{ACAD_REACTORS
330
5A8
102
}
330
5A8
100
AcDbVisualStyle
  2
Facepattern
 70
    15
177
     3
291
     1
 70
    58
 90
        2
176
     1
 90
        2
176
     1
 90
        0
176
     1
 90
        0
176
     1
 40
0.6
176
     1
 40
30.0
176
     1
 62
     7
420
 16777215
176
     1
 90
        1
176
     1
 90
        4
176
     1
 62
     7
176
     1
 62
   257
176
     1
 90
        1
176
     1
 90
        1
176
     1
 40
1.0
176
     1
 90
        8
176
     1
 62
     7
176
     1
 40
1.0
176
     1
 90
        1
176
     1
 90
        6
176
     1
 90
        2
176
     1
 62
     7
176
     1
 90
        5
176
     1
 90
        0
176
     1
 90
        0
176
     1
290
     0
176
     1
 90
        1
176
     1
 40
0.0
176
     1
 90
        0
176
     1
290
     0
176
     1
290
     1
176
     1
290
     1
176
     1
290
     0
176
     1
290
     0
176
     1
290
     0
176
     1
290
     0
176
     1
290
     0
176
     1
290
     0
176
     1
 90
       50
176
     1
 40
0.0
176
     1
 40
1.0
176
     1
 90
        0
176
     1
 62
    18
420
        0
176
     1
 90
       50
176
     1
 90
        3
176
     1
 62
     5
420
      255
176
     1
290
     0
176
     1
 90
       50
176
     1
 90
       50
176
     1
 90
       50
176
     1
290
     0
176
     1
 90
       50
176
     1
 62
   256
176
     0
 40
1.0
176
     0
 90
        2
176
     1
  1
strokes_ogs.tif
176
     1
290
     0
176
     1
 40
1.0
176
     1
 40
1.0
176
     1
  0
VISUALSTYLE
  5
5A9
102
{ACAD_REACTORS
330
5A8
102
}
330
5A8
100
AcDbVisualStyle
  2
Flat
 70
     0
177
     3
291
     1
 70
    58
 90
        2
176
     1
 90
        1
176
     1
 90
        1
176
     1
 90
        2
176
     1
 40
0.6
176
     1
 40
30.0
176
     1
 62
     7
420
 16777215
176
     1
 90
        0
176
     1
 90
        0
176
     1
 62
     7
176
     1
 62
   257
176
     1
 90
        1
176
     1
 90
        1
176
     1
 40
1.0
176
     1
 90
        8
176
     1
 62
     7
176
     1
 40
1.0
176
     1
 90
        1
176
     1
 90
        6
176
     1
 90
        2
176
     1
 62
     7
176
     1
 90
        5
176
     1
 90
        0
176
     1
 90
        0
176
     1
290
     0
176
     1
 90
       13
176
     1
 40
0.0
176
     1
 90
        0
176
     1
290
     0
176
     1
290
     1
176
     1
290
     1
176
     1
290
     0
176
     1
290
     0
176
     1
290
     0
176
     1
290
     0
176
     1
290
     0
176
     1
290
     0
176
     1
 90
       50
176
     1
 40
0.0
176
     1
 40
1.0
176
     1
 90
        0
176
     1
 62
    18
420
        0
176
     1
 90
       50
176
     1
 90
        3
176
     1
 62
     5
420
      255
176
     1
290
     0
176
     1
 90
       50
176
     1
 90
       50
176
     1
 90
       50
176
     1
290
     0
176
     1
 90
       50
176
     1
 62
   256
176
     0
 40
1.0
176
     0
 90
        2
176
     1
  1
strokes_ogs.tif
176
     1
290
     0
176
     1
 40
1.0
176
     1
 40
1.0
176
     1
  0
VISUALSTYLE
  5
5AA
102
{ACAD_REACTORS
330
5A8
102
}
330
5A8
100
AcDbVisualStyle
  2
FlatWithEdges
 70
     1
177
     3
291
     1
 70
    58
 90
        2
176
     1
 90
        1
176
     1
 90
        1
176
     1
 90
        2
176
     1
 40
0.6
176
     1
 40
30.0
176
     1
 62
     7
420
 16777215
176
     1
 90
        1
176
     1
 90
        0
176
     1
 62
     7
176
     1
 62
   257
176
     1
 90
        1
176
     1
 90
        1
176
     1
 40
1.0
176
     1
 90
        0
176
     1
 62
   257
176
     1
 40
1.0
176
     1
 90
        1
176
     1
 90
        6
176
     1
 90
        2
176
     1
 62
     7
176
     1
 90
        5
176
     1
 90
        0
176
     1
 90
        0
176
     1
290
     0
176
     1
 90
       13
176
     1
 40
0.0
176
     1
 90
        0
176
     1
290
     0
176
     1
290
     1
176
     1
290
     1
176
     1
290
     0
176
     1
290
     0
176
     1
290
     0
176
     1
290
     0
176
     1
290
     0
176
     1
290
     0
176
     1
 90
       50
176
     1
 40
0.0
176
     1
 40
1.0
176
     1
 90
        0
176
     1
 62
    18
420
        0
176
     1
 90
       50
176
     1
 90
        3
176
     1
 62
     5
420
      255
176
     1
290
     0
176
     1
 90
       50
176
     1
 90
       50
176
     1
 90
       50
176
     1
290
     0
176
     1
 90
       50
176
     1
 62
   256
176
     0
 40
1.0
176
     0
 90
        2
176
     1
  1
strokes_ogs.tif
176
     1
290
     0
176
     1
 40
1.0
176
     1
 40
1.0
176
     1
  0
VISUALSTYLE
  5
5AB
102
{ACAD_REACTORS
330
5A8
102
}
330
5A8
100
AcDbVisualStyle
  2
Gouraud
 70
     2
177
     3
291
     1
 70
    58
 90
        2
176
     1
 90
        2
176
     1
 90
        1
176
     1
 90
        2
176
     1
 40
0.6
176
     1
 40
30.0
176
     1
 62
     7
420
 16777215
176
     1
 90
        0
176
     1
 90
        0
176
     1
 62
     7
176
     1
 62
   257
176
     1
 90
        1
176
     1
 90
        1
176
     1
 40
1.0
176
     1
 90
        0
176
     1
 62
     7
176
     1
 40
1.0
176
     1
 90
        1
176
     1
 90
        6
176
     1
 90
        2
176
     1
 62
     7
176
     1
 90
        5
176
     1
 90
        0
176
     1
 90
        0
176
     1
290
     0
176
     1
 90
       13
176
     1
 40
0.0
176
     1
 90
        0
176
     1
290
     0
176
     1
290
     1
176
     1
290
     1
176
     1
290
     0
176
     1
290
     0
176
     1
290
     0
176
     1
290
     0
176
     1
290
     0
176
     1
290
     0
176
     1
 90
       50
176
     1
 40
0.0
176
     1
 40
1.0
176
     1
 90
        0
176
     1
 62
    18
420
        0
176
     1
 90
       50
176
     1
 90
        3
176
     1
 62
     5
420
      255
176
     1
290
     0
176
     1
 90
       50
176
     1
 90
       50
176
     1
 90
       50
176
     1
290
     0
176
     1
 90
       50
176
     1
 62
   256
176
     0
 40
1.0
176
     0
 90
        2
176
     1
  1
strokes_ogs.tif
176
     1
290
     0
176
     1
 40
1.0
176
     1
 40
1.0
176
     1
  0
VISUALSTYLE
  5
5AC
102
{ACAD_REACTORS
330
5A8
102
}
330
5A8
100
AcDbVisualStyle
  2
GouraudWithEdges
 70
     3
177
     3
291
     1
 70
    58
 90
        2
176
     1
 90
        2
176
     1
 90
        1
176
     1
 90
        2
176
     1
 40
0.6
176
     1
 40
30.0
176
     1
 62
     7
420
 16777215
176
     1
 90
        1
176
     1
 90
        0
176
     1
 62
     7
176
     1
 62
   257
176
     1
 90
        1
176
     1
 90
        1
176
     1
 40
1.0
176
     1
 90
        0
176
     1
 62
   257
176
     1
 40
1.0
176
     1
 90
        1
176
     1
 90
        6
176
     1
 90
        2
176
     1
 62
     7
176
     1
 90
        5
176
     1
 90
        0
176
     1
 90
        0
176
     1
290
     0
176
     1
 90
       13
176
     1
 40
0.0
176
     1
 90
        0
176
     1
290
     0
176
     1
290
     1
176
     1
290
     1
176
     1
290
     0
176
     1
290
     0
176
     1
290
     0
176
     1
290
     0
176
     1
290
     0
176
     1
290
     0
176
     1
 90
       50
176
     1
 40
0.0
176
     1
 40
1.0
176
     1
 90
        0
176
     1
 62
    18
420
        0
176
     1
 90
       50
176
     1
 90
        3
176
     1
 62
     5
420
      255
176
     1
290
     0
176
     1
 90
       50
176
     1
 90
       50
176
     1
 90
       50
176
     1
290
     0
176
     1
 90
       50
176
     1
 62
   256
176
     0
 40
1.0
176
     0
 90
        2
176
     1
  1
strokes_ogs.tif
176
     1
290
     0
176
     1
 40
1.0
176
     1
 40
1.0
176
     1
  0
VISUALSTYLE
  5
5AF
102
{ACAD_REACTORS
330
5A8
102
}
330
5A8
100
AcDbVisualStyle
  2
Hidden
 70
     6
177
     3
291
     0
 70
    58
 90
        1
176
     1
 90
        2
176
     1
 90
        2
176
     1
 90
        0
176
     1
 40
0.6
176
     1
 40
30.0
176
     1
 62
     7
420
 16777215
176
     1
 90
        2
176
     1
 90
        2
176
     1
 62
     7
176
     1
 62
   257
176
     1
 90
        2
176
     1
 90
        1
176
     1
 40
40.0
176
     1
 90
        0
176
     1
 62
   257
176
     1
 40
1.0
176
     1
 90
        1
176
     1
 90
        6
176
     1
 90
        2
176
     1
 62
     7
176
     1
 90
        3
176
     1
 90
        0
176
     1
 90
        0
176
     1
290
     0
176
     1
 90
        1
176
     1
 40
0.0
176
     1
 90
        0
176
     1
290
     0
176
     1
290
     1
176
     1
290
     1
176
     1
290
     0
176
     1
290
     0
176
     1
290
     0
176
     1
290
     0
176
     1
290
     0
176
     1
290
     0
176
     1
 90
       50
176
     1
 40
0.0
176
     1
 40
1.0
176
     1
 90
        0
176
     1
 62
    18
420
        0
176
     1
 90
       50
176
     1
 90
        3
176
     1
 62
     5
420
      255
176
     1
290
     0
176
     1
 90
       50
176
     1
 90
       50
176
     1
 90
       50
176
     1
290
     0
176
     1
 90
       50
176
     1
 62
   256
176
     0
 40
1.0
176
     0
 90
        2
176
     1
  1
strokes_ogs.tif
176
     1
290
     0
176
     1
 40
1.0
176
     1
 40
1.0
176
     1
  0
VISUALSTYLE
  5
5B9
102
{ACAD_REACTORS
330
5A8
102
}
330
5A8
100
AcDbVisualStyle
  2
JitterOff
 70
    20
177
     3
291
     1
 70
    58
 90
        2
176
     0
 90
        2
176
     0
 90
        0
176
     0
 90
        0
176
     0
 40
0.6
176
     0
 40
30.0
176
     0
 62
     7
420
 16777215
176
     0
 90
        1
176
     0
 90
        4
176
     0
 62
     7
176
     0
 62
   257
176
     0
 90
        1
176
     0
 90
        1
176
     0
 40
1.0
176
     0
 90
       10
176
     2
 62
     7
176
     0
 40
1.0
176
     0
 90
        1
176
     0
 90
        6
176
     0
 90
        2
176
     0
 62
     7
176
     0
 90
        5
176
     0
 90
        0
176
     0
 90
        0
176
     0
290
     0
176
     0
 90
        1
176
     0
 40
0.0
176
     0
 90
        0
176
     0
290
     0
176
     0
290
     1
176
     0
290
     1
176
     0
290
     0
176
     0
290
     0
176
     0
290
     0
176
     0
290
     0
176
     0
290
     0
176
     0
290
     0
176
     0
 90
       50
176
     0
 40
0.0
176
     0
 40
1.0
176
     0
 90
        0
176
     0
 62
    18
420
        0
176
     0
 90
       50
176
     0
 90
        3
176
     0
 62
     5
420
      255
176
     0
290
     0
176
     0
 90
       50
176
     0
 90
       50
176
     0
 90
       50
176
     0
290
     0
176
     0
 90
       50
176
     0
 62
   256
176
     0
 40
1.0
176
     0
 90
        2
176
     0
  1
strokes_ogs.tif
176
     0
290
     0
176
     0
 40
1.0
176
     0
 40
1.0
176
     0
  0
VISUALSTYLE
  5
5B6
102
{ACAD_REACTORS
330
5A8
102
}
330
5A8
100
AcDbVisualStyle
  2
Linepattern
 70
    14
177
     3
291
     1
 70
    58
 90
        2
176
     1
 90
        2
176
     1
 90
        0
176
     1
 90
        0
176
     1
 40
0.6
176
     1
 40
30.0
176
     1
 62
     7
420
 16777215
176
     1
 90
        1
176
     1
 90
        4
176
     1
 62
     7
176
     1
 62
   257
176
     1
 90
        7
176
     1
 90
        7
176
     1
 40
1.0
176
     1
 90
        8
176
     1
 62
     7
176
     1
 40
1.0
176
     1
 90
        1
176
     1
 90
        6
176
     1
 90
        2
176
     1
 62
     7
176
     1
 90
        5
176
     1
 90
        0
176
     1
 90
        0
176
     1
290
     0
176
     1
 90
        1
176
     1
 40
0.0
176
     1
 90
        0
176
     1
290
     0
176
     1
290
     1
176
     1
290
     1
176
     1
290
     0
176
     1
290
     0
176
     1
290
     0
176
     1
290
     0
176
     1
290
     0
176
     1
290
     0
176
     1
 90
       50
176
     1
 40
0.0
176
     1
 40
1.0
176
     1
 90
        0
176
     1
 62
    18
420
        0
176
     1
 90
       50
176
     1
 90
        3
176
     1
 62
     5
420
      255
176
     1
290
     0
176
     1
 90
       50
176
     1
 90
       50
176
     1
 90
       50
176
     1
290
     0
176
     1
 90
       50
176
     1
 62
   256
176
     0
 40
1.0
176
     0
 90
        2
176
     1
  1
strokes_ogs.tif
176
     1
290
     0
176
     1
 40
1.0
176
     1
 40
1.0
176
     1
  0
VISUALSTYLE
  5
5BA
102
{ACAD_REACTORS
330
5A8
102
}
330
5A8
100
AcDbVisualStyle
  2
OverhangOff
 70
    21
177
     3
291
     1
 70
    58
 90
        2
176
     0
 90
        2
176
     0
 90
        0
176
     0
 90
        0
176
     0
 40
0.6
176
     0
 40
30.0
176
     0
 62
     7
420
 16777215
176
     0
 90
        1
176
     0
 90
        4
176
     0
 62
     7
176
     0
 62
   257
176
     0
 90
        1
176
     0
 90
        1
176
     0
 40
1.0
176
     0
 90
        9
176
     2
 62
     7
176
     0
 40
1.0
176
     0
 90
        1
176
     0
 90
        6
176
     0
 90
        2
176
     0
 62
     7
176
     0
 90
        5
176
     0
 90
        0
176
     0
 90
        0
176
     0
290
     0
176
     0
 90
        1
176
     0
 40
0.0
176
     0
 90
        0
176
     0
290
     0
176
     0
290
     1
176
     0
290
     1
176
     0
290
     0
176
     0
290
     0
176
     0
290
     0
176
     0
290
     0
176
     0
290
     0
176
     0
290
     0
176
     0
 90
       50
176
     0
 40
0.0
176
     0
 40
1.0
176
     0
 90
        0
176
     0
 62
    18
420
        0
176
     0
 90
       50
176
     0
 90
        3
176
     0
 62
     5
420
      255
176
     0
290
     0
176
     0
 90
       50
176
     0
 90
       50
176
     0
 90
       50
176
     0
290
     0
176
     0
 90
       50
176
     0
 62
   256
176
     0
 40
1.0
176
     0
 90
        2
176
     0
  1
strokes_ogs.tif
176
     0
290
     0
176
     0
 40
1.0
176
     0
 40
1.0
176
     0
  0
VISUALSTYLE
  5
5B1
102
{ACAD_REACTORS
330
5A8
102
}
330
5A8
100
AcDbVisualStyle
  2
Realistic
 70
     8
177
     3
291
     0
 70
    58
 90
        2
176
     1
 90
        3
176
     1
 90
        0
176
     1
 90
        2
176
     1
 40
0.6
176
     1
 40
30.0
176
     1
 62
     7
420
 16777215
176
     1
 90
        0
176
     1
 90
        0
176
     1
 62
     7
176
     1
 62
   257
176
     1
 90
        1
176
     1
 90
        1
176
     1
 40
1.0
176
     1
 90
        8
176
     1
 62
   257
176
     1
 40
1.0
176
     1
 90
        1
176
     1
 90
        6
176
     1
 90
        2
176
     1
 62
     7
176
     1
 90
        3
176
     1
 90
        0
176
     1
 90
        0
176
     1
290
     0
176
     1
 90
       13
176
     1
 40
0.0
176
     1
 90
        0
176
     1
290
     0
176
     1
290
     1
176
     1
290
     1
176
     1
290
     0
176
     1
290
     0
176
     1
290
     0
176
     1
290
     0
176
     1
290
     0
176
     1
290
     0
176
     1
 90
       50
176
     1
 40
0.0
176
     1
 40
1.0
176
     1
 90
        0
176
     1
 62
    18
420
        0
176
     1
 90
       50
176
     1
 90
        3
176
     1
 62
     5
420
      255
176
     1
290
     0
176
     1
 90
       50
176
     1
 90
       50
176
     1
 90
       50
176
     1
290
     0
176
     1
 90
       50
176
     1
 62
   256
176
     0
 40
1.0
176
     0
 90
        2
176
     1
  1
strokes_ogs.tif
176
     1
290
     0
176
     1
 40
1.0
176
     1
 40
1.0
176
     1
  0
VISUALSTYLE
  5
5C0
102
{ACAD_REACTORS
330
5A8
102
}
330
5A8
100
AcDbVisualStyle
  2
Shaded
 70
    27
177
     3
291
     0
 70
    58
 90
        2
176
     1
 90
        2
176
     1
 90
        1
176
     1
 90
        2
176
     1
 40
0.6
176
     1
 40
30.0
176
     1
 62
     7
420
 16777215
176
     1
 90
        0
176
     1
 90
        4
176
     1
 62
     7
176
     1
 62
   257
176
     1
 90
        1
176
     1
 90
        1
176
     1
 40
1.0
176
     1
 90
        8
176
     1
 62
   257
176
     1
 40
1.0
176
     1
 90
        1
176
     1
 90
        6
176
     1
 90
        2
176
     1
 62
     8
420
  7895160
176
     1
 90
        3
176
     1
 90
        0
176
     1
 90
        0
176
     1
290
     0
176
     1
 90
        5
176
     1
 40
0.0
176
     1
 90
        0
176
     1
290
     0
176
     1
290
     1
176
     1
290
     1
176
     1
290
     0
176
     1
290
     0
176
     1
290
     0
176
     1
290
     0
176
     1
290
     0
176
     1
290
     0
176
     1
 90
       50
176
     1
 40
0.0
176
     1
 40
1.0
176
     1
 90
        0
176
     1
 62
    18
420
        0
176
     1
 90
       50
176
     1
 90
        3
176
     1
 62
     5
420
      255
176
     1
290
     0
176
     1
 90
       50
176
     1
 90
       50
176
     1
 90
       50
176
     1
290
     0
176
     1
 90
       50
176
     1
 62
   256
176
     0
 40
1.0
176
     0
 90
        2
176
     1
  1
strokes_ogs.tif
176
     1
290
     0
176
     1
 40
1.0
176
     1
 40
1.0
176
     1
  0
VISUALSTYLE
  5
5BF
102
{ACAD_REACTORS
330
5A8
102
}
330
5A8
100
AcDbVisualStyle
  2
Shaded with edges
 70
    26
177
     3
291
     0
 70
    58
 90
        2
176
     1
 90
        2
176
     1
 90
        1
176
     1
 90
        2
176
     1
 40
0.6
176
     1
 40
30.0
176
     1
 62
     7
420
 16777215
176
     1
 90
        1
176
     1
 90
       10
176
     1
 62
     7
176
     1
 62
   257
176
     1
 90
        2
176
     1
 90
        1
176
     1
 40
1.0
176
     1
 90
        8
176
     1
 62
   257
176
     1
 40
1.0
176
     1
 90
        1
176
     1
 90
        6
176
     1
 90
        2
176
     1
 62
     7
176
     1
 90
        3
176
     1
 90
        0
176
     1
 90
        0
176
     1
290
     0
176
     1
 90
        5
176
     1
 40
0.0
176
     1
 90
        0
176
     1
290
     0
176
     1
290
     1
176
     1
290
     1
176
     1
290
     0
176
     1
290
     0
176
     1
290
     0
176
     1
290
     0
176
     1
290
     0
176
     1
290
     0
176
     1
 90
       50
176
     1
 40
0.0
176
     1
 40
1.0
176
     1
 90
        0
176
     1
 62
    18
420
        0
176
     1
 90
       50
176
     1
 90
        3
176
     1
 62
     5
420
      255
176
     1
290
     0
176
     1
 90
       50
176
     1
 90
       50
176
     1
 90
       50
176
     1
290
     0
176
     1
 90
       50
176
     1
 62
   256
176
     0
 40
1.0
176
     0
 90
        2
176
     1
  1
strokes_ogs.tif
176
     1
290
     0
176
     1
 40
1.0
176
     1
 40
1.0
176
     1
  0
VISUALSTYLE
  5
5BC
102
{ACAD_REACTORS
330
5A8
102
}
330
5A8
100
AcDbVisualStyle
  2
Shades of Gray
 70
    23
177
     3
291
     0
 70
    58
 90
        2
176
     1
 90
        2
176
     1
 90
        3
176
     1
 90
        0
176
     1
 40
0.6
176
     1
 40
30.0
176
     1
 62
     7
420
 16777215
176
     1
 90
        2
176
     1
 90
        2
176
     1
 62
     7
176
     1
 62
     7
176
     1
 90
        1
176
     1
 90
        1
176
     1
 40
40.0
176
     1
 90
        8
176
     1
 62
     7
176
     1
 40
1.0
176
     1
 90
        1
176
     1
 90
        6
176
     1
 90
        2
176
     1
 62
     7
176
     1
 90
        3
176
     1
 90
        0
176
     1
 90
        0
176
     1
290
     0
176
     1
 90
        1
176
     1
 40
0.0
176
     1
 90
        0
176
     1
290
     0
176
     1
290
     1
176
     1
290
     1
176
     1
290
     0
176
     1
290
     0
176
     1
290
     0
176
     1
290
     0
176
     1
290
     0
176
     1
290
     0
176
     1
 90
       50
176
     1
 40
0.0
176
     1
 40
1.0
176
     1
 90
        0
176
     1
 62
    18
420
        0
176
     1
 90
       50
176
     1
 90
        3
176
     1
 62
     5
420
      255
176
     1
290
     0
176
     1
 90
       50
176
     1
 90
       50
176
     1
 90
       50
176
     1
290
     0
176
     1
 90
       50
176
     1
 62
   256
176
     0
 40
1.0
176
     0
 90
        2
176
     1
  1
strokes_ogs.tif
176
     1
290
     0
176
     1
 40
1.0
176
     1
 40
1.0
176
     1
  0
VISUALSTYLE
  5
5BD
102
{ACAD_REACTORS
330
5A8
102
}
330
5A8
100
AcDbVisualStyle
  2
Sketchy
 70
    24
177
     3
291
     0
 70
    58
 90
        1
176
     1
 90
        2
176
     1
 90
        2
176
     1
 90
        0
176
     1
 40
0.6
176
     1
 40
30.0
176
     1
 62
     7
420
 16777215
176
     1
 90
        2
176
     1
 90
        2
176
     1
 62
     7
176
     1
 62
     7
176
     1
 90
        1
176
     1
 90
        1
176
     1
 40
40.0
176
     1
 90
       11
176
     1
 62
     7
176
     1
 40
1.0
176
     1
 90
        1
176
     1
 90
        6
176
     1
 90
        2
176
     1
 62
     7
176
     1
 90
        6
176
     1
 90
        0
176
     1
 90
        0
176
     1
290
     0
176
     1
 90
        1
176
     1
 40
0.0
176
     1
 90
        0
176
     1
290
     0
176
     1
290
     1
176
     1
290
     1
176
     1
290
     0
176
     1
290
     0
176
     1
290
     0
176
     1
290
     0
176
     1
290
     0
176
     1
290
     0
176
     1
 90
       50
176
     1
 40
0.0
176
     1
 40
1.0
176
     1
 90
        0
176
     1
 62
    18
420
        0
176
     1
 90
       50
176
     1
 90
        3
176
     1
 62
     5
420
      255
176
     1
290
     0
176
     1
 90
       50
176
     1
 90
       50
176
     1
 90
       50
176
     1
290
     0
176
     1
 90
       50
176
     1
 62
   256
176
     0
 40
1.0
176
     0
 90
        2
176
     1
  1
strokes_ogs.tif
176
     1
290
     0
176
     1
 40
1.0
176
     1
 40
1.0
176
     1
  0
VISUALSTYLE
  5
5B5
102
{ACAD_REACTORS
330
5A8
102
}
330
5A8
100
AcDbVisualStyle
  2
Thicken
 70
    13
177
     3
291
     1
 70
    58
 90
        2
176
     1
 90
        2
176
     1
 90
        0
176
     1
 90
        0
176
     1
 40
0.6
176
     1
 40
30.0
176
     1
 62
     7
420
 16777215
176
     1
 90
        1
176
     1
 90
        4
176
     1
 62
     7
176
     1
 62
   257
176
     1
 90
        1
176
     1
 90
        1
176
     1
 40
1.0
176
     1
 90
       12
176
     1
 62
     7
176
     1
 40
1.0
176
     1
 90
        1
176
     1
 90
        6
176
     1
 90
        2
176
     1
 62
     7
176
     1
 90
        5
176
     1
 90
        0
176
     1
 90
        0
176
     1
290
     0
176
     1
 90
        1
176
     1
 40
0.0
176
     1
 90
        0
176
     1
290
     0
176
     1
290
     1
176
     1
290
     1
176
     1
290
     0
176
     1
290
     0
176
     1
290
     0
176
     1
290
     0
176
     1
290
     0
176
     1
290
     0
176
     1
 90
       50
176
     1
 40
0.0
176
     1
 40
1.0
176
     1
 90
        0
176
     1
 62
    18
420
        0
176
     1
 90
       50
176
     1
 90
        3
176
     1
 62
     5
420
      255
176
     1
290
     0
176
     1
 90
       50
176
     1
 90
       50
176
     1
 90
       50
176
     1
290
     0
176
     1
 90
       50
176
     1
 62
   256
176
     0
 40
1.0
176
     0
 90
        2
176
     1
  1
strokes_ogs.tif
176
     1
290
     0
176
     1
 40
1.0
176
     1
 40
1.0
176
     1
  0
VISUALSTYLE
  5
5AE
102
{ACAD_REACTORS
330
5A8
102
}
330
5A8
100
AcDbVisualStyle
  2
Wireframe
 70
     5
177
     3
291
     0
 70
    58
 90
        0
176
     1
 90
        2
176
     1
 90
        0
176
     1
 90
        0
176
     1
 40
0.6
176
     1
 40
30.0
176
     1
 62
     7
420
 16777215
176
     1
 90
        1
176
     1
 90
        4
176
     1
 62
     7
176
     1
 62
   257
176
     1
 90
        1
176
     1
 90
        1
176
     1
 40
1.0
176
     1
 90
        0
176
     1
 62
   257
176
     1
 40
1.0
176
     1
 90
        1
176
     1
 90
        6
176
     1
 90
        2
176
     1
 62
     7
176
     1
 90
        3
176
     1
 90
        0
176
     1
 90
        0
176
     1
290
     0
176
     1
 90
        1
176
     1
 40
0.0
176
     1
 90
        0
176
     1
290
     0
176
     1
290
     1
176
     1
290
     1
176
     1
290
     0
176
     1
290
     0
176
     1
290
     0
176
     1
290
     0
176
     1
290
     0
176
     1
290
     0
176
     1
 90
       50
176
     1
 40
0.0
176
     1
 40
1.0
176
     1
 90
        0
176
     1
 62
    18
420
        0
176
     1
 90
       50
176
     1
 90
        3
176
     1
 62
     5
420
      255
176
     1
290
     0
176
     1
 90
       50
176
     1
 90
       50
176
     1
 90
       50
176
     1
290
     0
176
     1
 90
       50
176
     1
 62
   256
176
     0
 40
1.0
176
     0
 90
        2
176
     1
  1
strokes_ogs.tif
176
     1
290
     0
176
     1
 40
1.0
176
     1
 40
1.0
176
     1
  0
VISUALSTYLE
  5
5BE
102
{ACAD_REACTORS
330
5A8
102
}
330
5A8
100
AcDbVisualStyle
  2
X-Ray
 70
    25
177
     3
291
     0
 70
    58
 90
        2
176
     1
 90
        2
176
     1
 90
        1
176
     1
 90
        1
176
     1
 40
0.5
176
     1
 40
30.0
176
     1
 62
     7
420
 16777215
176
     1
 90
        1
176
     1
 90
        0
176
     1
 62
     7
176
     1
 62
   257
176
     1
 90
        1
176
     1
 90
        1
176
     1
 40
1.0
176
     1
 90
        8
176
     1
 62
     7
176
     1
 40
1.0
176
     1
 90
        1
176
     1
 90
        6
176
     1
 90
        2
176
     1
 62
     7
176
     1
 90
        3
176
     1
 90
        0
176
     1
 90
        0
176
     1
290
     0
176
     1
 90
       13
176
     1
 40
0.0
176
     1
 90
        0
176
     1
290
     0
176
     1
290
     1
176
     1
290
     1
176
     1
290
     0
176
     1
290
     0
176
     1
290
     0
176
     1
290
     0
176
     1
290
     0
176
     1
290
     0
176
     1
 90
       50
176
     1
 40
0.0
176
     1
 40
1.0
176
     1
 90
        0
176
     1
 62
    18
420
        0
176
     1
 90
       50
176
     1
 90
        3
176
     1
 62
     5
420
      255
176
     1
290
     0
176
     1
 90
       50
176
     1
 90
       50
176
     1
 90
       50
176
     1
290
     0
176
     1
 90
       50
176
     1
 62
   256
176
     0
 40
1.0
176
     0
 90
        2
176
     1
  1
strokes_ogs.tif
176
     1
290
     0
176
     1
 40
1.0
176
     1
 40
1.0
176
     1
  0
DICTIONARYVAR
  5
C66
102
{ACAD_REACTORS
330
C65
102
}
330
C65
100
DictionaryVariables
280
     0
  1
1:1
  0
DICTIONARYVAR
  5
C68
102
{ACAD_REACTORS
330
C65
102
}
330
C65
100
DictionaryVariables
280
     0
  1
Standard
  0
DICTIONARYVAR
  5
C67
102
{ACAD_REACTORS
330
C65
102
}
330
C65
100
DictionaryVariables
280
     0
  1
Standard
  0
DICTIONARYVAR
  5
C69
102
{ACAD_REACTORS
330
C65
102
}
330
C65
100
DictionaryVariables
280
     0
  1
0
  0
DICTIONARY
  5
21D2
330
5C6
100
AcDbDictionary
280
     1
281
     1
  3
ACAD_ROUNDTRIP_2008_TABLESTYLE_CELLSTYLEMAP
360
21D3
  0
CELLSTYLEMAP
  5
21D3
102
{ACAD_REACTORS
330
21D2
102
}
330
21D2
100
AcDbCellStyleMap
 90
        3
300
CELLSTYLE
  1
TABLEFORMAT_BEGIN
 90
        5
170
     1
 91
        0
 92
    32768
 62
   257
 93
        1
300
CONTENTFORMAT
  1
CONTENTFORMAT_BEGIN
 90
        0
 91
        0
 92
        4
 93
        0
300

 40
0.0
140
1.0
 94
        5
 62
     0
340
17
144
0.25
309
CONTENTFORMAT_END
171
     1
301
MARGIN
  1
CELLMARGIN_BEGIN
 40
0.06
 40
0.06
 40
0.06
 40
0.06
 40
0.06
 40
0.06
309
CELLMARGIN_END
 94
        6
 95
        1
302
GRIDFORMAT
  1
GRIDFORMAT_BEGIN
 90
        0
 91
        1
 62
     0
 92
       -2
340
11
 93
        0
 40
0.045
309
GRIDFORMAT_END
 95
        2
302
GRIDFORMAT
  1
GRIDFORMAT_BEGIN
 90
        0
 91
        1
 62
     0
 92
       -2
340
11
 93
        0
 40
0.045
309
GRIDFORMAT_END
 95
        4
302
GRIDFORMAT
  1
GRIDFORMAT_BEGIN
 90
        0
 91
        1
 62
     0
 92
       -2
340
11
 93
        0
 40
0.045
309
GRIDFORMAT_END
 95
        8
302
GRIDFORMAT
  1
GRIDFORMAT_BEGIN
 90
        0
 91
        1
 62
     0
 92
       -2
340
11
 93
        0
 40
0.045
309
GRIDFORMAT_END
 95
       16
302
GRIDFORMAT
  1
GRIDFORMAT_BEGIN
 90
        0
 91
        1
 62
     0
 92
       -2
340
11
 93
        0
 40
0.045
309
GRIDFORMAT_END
 95
       32
302
GRIDFORMAT
  1
GRIDFORMAT_BEGIN
 90
        0
 91
        1
 62
     0
 92
       -2
340
11
 93
        0
 40
0.045
309
GRIDFORMAT_END
309
TABLEFORMAT_END
  1
CELLSTYLE_BEGIN
 90
        1
 91
        1
300
_TITLE
309
CELLSTYLE_END
300
CELLSTYLE
  1
TABLEFORMAT_BEGIN
 90
        5
170
     1
 91
        0
 92
        0
 62
   257
 93
        1
300
CONTENTFORMAT
  1
CONTENTFORMAT_BEGIN
 90
        0
 91
        0
 92
        4
 93
        0
300

 40
0.0
140
1.0
 94
        5
 62
     0
340
17
144
0.18
309
CONTENTFORMAT_END
171
     1
301
MARGIN
  1
CELLMARGIN_BEGIN
 40
0.06
 40
0.06
 40
0.06
 40
0.06
 40
0.06
 40
0.06
309
CELLMARGIN_END
 94
        6
 95
        1
302
GRIDFORMAT
  1
GRIDFORMAT_BEGIN
 90
        0
 91
        1
 62
     0
 92
       -2
340
11
 93
        0
 40
0.045
309
GRIDFORMAT_END
 95
        2
302
GRIDFORMAT
  1
GRIDFORMAT_BEGIN
 90
        0
 91
        1
 62
     0
 92
       -2
340
11
 93
        0
 40
0.045
309
GRIDFORMAT_END
 95
        4
302
GRIDFORMAT
  1
GRIDFORMAT_BEGIN
 90
        0
 91
        1
 62
     0
 92
       -2
340
11
 93
        0
 40
0.045
309
GRIDFORMAT_END
 95
        8
302
GRIDFORMAT
  1
GRIDFORMAT_BEGIN
 90
        0
 91
        1
 62
     0
 92
       -2
340
11
 93
        0
 40
0.045
309
GRIDFORMAT_END
 95
       16
302
GRIDFORMAT
  1
GRIDFORMAT_BEGIN
 90
        0
 91
        1
 62
     0
 92
       -2
340
11
 93
        0
 40
0.045
309
GRIDFORMAT_END
 95
       32
302
GRIDFORMAT
  1
GRIDFORMAT_BEGIN
 90
        0
 91
        1
 62
     0
 92
       -2
340
11
 93
        0
 40
0.045
309
GRIDFORMAT_END
309
TABLEFORMAT_END
  1
CELLSTYLE_BEGIN
 90
        2
 91
        1
300
_HEADER
309
CELLSTYLE_END
300
CELLSTYLE
  1
TABLEFORMAT_BEGIN
 90
        5
170
     1
 91
        0
 92
        0
 62
   257
 93
        1
300
CONTENTFORMAT
  1
CONTENTFORMAT_BEGIN
 90
        0
 91
        0
 92
        4
 93
        0
300

 40
0.0
140
1.0
 94
        2
 62
     0
340
17
144
0.18
309
CONTENTFORMAT_END
171
     1
301
MARGIN
  1
CELLMARGIN_BEGIN
 40
0.06
 40
0.06
 40
0.06
 40
0.06
 40
0.06
 40
0.06
309
CELLMARGIN_END
 94
        6
 95
        1
302
GRIDFORMAT
  1
GRIDFORMAT_BEGIN
 90
        0
 91
        1
 62
     0
 92
       -2
340
11
 93
        0
 40
0.045
309
GRIDFORMAT_END
 95
        2
302
GRIDFORMAT
  1
GRIDFORMAT_BEGIN
 90
        0
 91
        1
 62
     0
 92
       -2
340
11
 93
        0
 40
0.045
309
GRIDFORMAT_END
 95
        4
302
GRIDFORMAT
  1
GRIDFORMAT_BEGIN
 90
        0
 91
        1
 62
     0
 92
       -2
340
11
 93
        0
 40
0.045
309
GRIDFORMAT_END
 95
        8
302
GRIDFORMAT
  1
GRIDFORMAT_BEGIN
 90
        0
 91
        1
 62
     0
 92
       -2
340
11
 93
        0
 40
0.045
309
GRIDFORMAT_END
 95
       16
302
GRIDFORMAT
  1
GRIDFORMAT_BEGIN
 90
        0
 91
        1
 62
     0
 92
       -2
340
11
 93
        0
 40
0.045
309
GRIDFORMAT_END
 95
       32
302
GRIDFORMAT
  1
GRIDFORMAT_BEGIN
 90
        0
 91
        1
 62
     0
 92
       -2
340
11
 93
        0
 40
0.045
309
GRIDFORMAT_END
309
TABLEFORMAT_END
  1
CELLSTYLE_BEGIN
 90
        3
 91
        2
300
_DATA
309
CELLSTYLE_END
  0
ENDSEC
  0
SECTION
  2
ACDSDATA
 70
     2
 71
     2
  0
ACDSSCHEMA
 90
        0
  1
AcDb_Thumbnail_Schema
  2
AcDbDs::ID
280
    10
 91
        8
  2
Thumbnail_Data
280
    15
 91
        0
101
ACDSRECORD
 95
        0
 90
        2
  2
AcDbDs::TreatedAsObjectData
280
     1
291
     1
101
ACDSRECORD
 95
        0
 90
        3
  2
AcDbDs::Legacy
280
     1
291
     1
101
ACDSRECORD
  1
AcDbDs::ID
 90
        4
  2
AcDs:Indexable
280
     1
291
     1
101
ACDSRECORD
  1
AcDbDs::ID
 90
        5
  2
AcDbDs::HandleAttribute
280
     7
282
     1
  0
ACDSSCHEMA
 90
        1
  1
AcDb3DSolid_ASM_Data
  2
AcDbDs::ID
280
    10
 91
        8
  2
ASM_Data
280
    15
 91
        0
101
ACDSRECORD
 95
        1
 90
        2
  2
AcDbDs::TreatedAsObjectData
280
     1
291
     1
101
ACDSRECORD
 95
        1
 90
        3
  2
AcDbDs::Legacy
280
     1
291
     1
101
ACDSRECORD
  1
AcDbDs::ID
 90
        4
  2
AcDs:Indexable
280
     1
291
     1
101
ACDSRECORD
  1
AcDbDs::ID
 90
        5
  2
AcDbDs::HandleAttribute
280
     7
282
     1
  0
ACDSSCHEMA
 90
        2
  1
AcDbDs::TreatedAsObjectDataSchema
  2
AcDbDs::TreatedAsObjectData
280
     1
 91
        0
  0
ACDSSCHEMA
 90
        3
  1
AcDbDs::LegacySchema
  2
AcDbDs::Legacy
280
     1
 91
        0
  0
ACDSSCHEMA
 90
        4
  1
AcDbDs::IndexedPropertySchema
  2
AcDs:Indexable
280
     1
 91
        0
  0
ACDSSCHEMA
 90
        5
  1
AcDbDs::HandleAttributeSchema
  2
AcDbDs::HandleAttribute
280
     7
 91
        1
284
     1
  0
ACDSRECORD
 90
        0
  2
AcDbDs::ID
280
    10
320
5A6
  2
Thumbnail_Data
280
    15
 94
     4846
310
89504E470D0A1A0A0000000D49484452000001000000007D08060000004DB9BDCD000000097048597300000EC400000EC401952B0E1B000012A049444154789CEDDD7B5054F7DDC7F1F72EBBDC91051141E426172937053411C1415D1CD3E8D3D48C99561393A64F932775CC349DA7EDF432D3CBA499696B677AC9A549ECE5
310
1FEB93A7B59924A637152D0D8FF5824401AD978D8A174484058500B2EC9EE78F23869BB29BB07B9673BEAF993313767FBFDDEF39F17CF677EE26404108614866AD0B081655555A5730BDC8F2D2070980DBAC56AD2B985E6479E983E10260D5AA0C121313BD6EFFE9FBB2FD58CDF4151F1FAF7509620A182A00EEBB6F3EDFFC
310
66195BB7AEF3AAFDF7BFBF86AFFE703E6BD796FBB9B2E9A7B4B454EB12C414B0685D40208587C3AD5BCBF07822B0DBEDA3DE2B2D75A228A37FD56CB655B8DD0ED2D2C2025966D09833670EE9E9E94446468E7A3D2A2A8A471E59C39E3DE3F71FF7F6F6D2D2D2425B5B5BA0CA149F80099D1F0588898961F1E2C5984C263A3B
310
3B397FFE14376F0EA08C99EBEA6AD8BB777CFF1933AC2426A6939E9E0E404343035D5D5D01A85C1BB366CDA2B8B81880D6D6562E5CB8407F7FFFB876775B5ED1D1D1A4A7A793949404C0D1A347E9EEEEF66BCDE2E3D36D00242727939F9F4F4F4F0F478E1C4119BBC68F71B77FD06395969612171787C3E1A0A5A5658AAAD5
310
5E616121B9B9B9381C0E1A1B1B276DEFEDF22A2B2BC366B3E93E38A733456F537272B2525959E9539FEA6ADFBE233B3B5B494F4FD77C5EA762CACBCB538A8A8AFCBABC4A4B4B95ACAC2CCDE755A6D1932E7702161414505757E7D7EF70381CE4E4E4F8F53B0265EEDCB9343535F9F53B1A1A1AC8CCCCF4EB7708DFE9722760
310
5A5ADAB89D7C93996827E064B2B3B3D9EBCD3838C81515154DBA8934566929E3F6A34C66FEFCF9BA585E7AA2CB00B878F1223535353EF53199C0C72E984C26DF3A04A9A6A626595E06A5CB4D002184772400008B05E6CC8130631EEE0F18ABB50F8B2EC79CD397E103202E0E5E7A097EF843F8FDEF213555EB8AF46BCD9A03
310
FCE2175A57214632740098CDB06103B4B7C3B3CF4263237CE52BEAF6AD987A29296AE08AE061D80199C502CB96C18205306F1E0C0D414909B85C505E0E070E685DA1BECC9801090970E992D69588910C3B02181A82FDFBE13BDF816BD7E0E9A7D55078FE7959F9FDE1E64D38764CEB2AC458861D010CEBE880679E81871E82
310
77DF851B37B4AE48BFFEF2970A8E1CF93FADCB102318760430526FAF3A0A9095DFBF5CAE083A3AB4AE428C240120848149000861601200421898048041CD9CA975052218480000A1A1F0B5AFA9A7031BC5962DB0668DD65508AD490000C9C9B07A353CF8A0D695044E51917A229430360900202F0FBABB61F162639C061C1D
310
0D5959B070A1D69508AD4900006E377CFEF370FAB47A1AB0DEE5E7436E2E141682DCDEDFD824005057881FFF58BD2EE0E041DFFBDF7FFFFDAC58B162EA0BF393D65608095147024EA76F7DC3C3C3F9C2172AD8B8B184471F5D4A4848887F8A1401210100FCF9CFEA0EC0575F058FC7FB7E313131D8ED762A2A2AA6D58A70F9
310
32FCEB5FB0670FE4E6C661367BFFCFE0F1C7EFA3B0D0456A6A0505053D6CDC78BF1F2B15FE66E86B01B2B3213D1D7272E077BF834F7F1AC63C03E39E72725A387AB4018BC574E71E79CDCDEA69C5C1ACB858ADF1DC39D8BDBB9C575F1DC2EDF6AEEFE6CD66EAEB93397EFC0F1415AD61E5CA0F686D1DDDC6E3512FB412C1CF
310
D001E070A8D3E5CBEA4D2E5F7C117CB939AED93C93DA5A0B164B086EB7DBE77BE469A5B11176EE848C0CB87C3994E3C715AF6B8F8ECEA0BF3F93EBD72F03312425A54E9BF916E3C92600EACEBF3FFCC1B7951FD4A7E0545454909797E79FC2FC68E74EF8E94FA1B2F22D5C2E97D7FDB66C394F5ADA1E2A2B23C8C9799F279F
310
ACF76395C2DF0C3D02F8A47A7A7AA8ADADE5CC9933E39E9FA7577FFB5B2D1D1D69AC5E9DCCAE5D2D3437CB3300A73309802970F5EA55AD4B08A8FAFA8BD86C17F1E2096222C8C9268010062601208481E926004A4AD2B52E418869471701F0DFCF3EC32BAFFC175FFDEA635A9722C4B4A28B9D8069495D403B9999DD5A9722
310
C4B4A28B00F8CA77FE97A626D8B103962C019B2D56EB92849816741100E9E960B3C1E38FAB17B8B4B7F75257076D72885A887BD24500B4B4C0E6CDB06B97FA7775B55B567E21BCA08B9D80F0D1CA2F84F09E6E024008E13B0900210C4C02400803930010C2C024008430300900210C4C02400803930010C2C0240084303009
310
00210C4C02400803930010C2C024008430B0A00F80D454AD2B1042BF82F67E00D9D9D9FCE42745CC9903CDCDFD7CEF7B4D5CB972E5AEED57AD5A85D96CE6EF7FFF7B00AB14627A0BDA11C0CF7F5ECCA14366DE7BAF97B6B630BEFBDDE27BB65714859C9C1CEC763BB9B9B901AA5288E92DE802202404EC76484850282989E3
310
FAF53D24245859B0209CC2C2F1EDE3E2D4F6A5A54E22230F003544471FC46E575F8F95DB030A71574117006E37D4D440478789BABACB9495FD274EA79BC6C6019A9BC7B7EFEA52DB3734C4D3D7B714B0D3DBBB849A1AF5F51B3726FF4E9B0D8A8AD47B0B0AFFB1D97AC9CAD2BA0A3152D005C0B0E79E6B64E5CA08D2D39D24
310
26F6F3831FDCFB4174212121381C0E6A6A6A3873E68CD7DF939B0BAFBF0E8F3E0A2FBC008B167DD2CAC5DDAC5F7F90E79FD7BA0A3152D0EE0474381C3CFCB083050BE0F8F1C9DB1F3A740893C9E4F5E75B2C5055059FFB1CDCBAA53E1E3C3515BEF10DF8E52FA1AEEE13142FC6898D85B973E1E245AD2B1123056D000CF366
310
E507E8EEF6EDA1204343EA264256161416C2E020783CD0D8282BBF3FDCB801EDED5A5721C60ADA4D8040D9B60D5A5B61D32635045E7B4DEB8AF4EBD2A528AE5DD3BA0A3152D08F00FC4D51E0473F82FA7AD8BB57EB6AF4EDAF7F2D67F76E59C8C1C4F0230011384343EA6696081EBA1C01A4A4A4505959E9539FC2C26E0606
310
6C3EF5C9C8C8F0A97DB0CACBCB636060C0A73E8585E06317B2B2B2D82BC3ACA0A2CB00686B6BE3C891233EF58989F170E4886F03A2E8E8689FDA07AB0F3EF8E0632C2FF0B10B494949BE75107EA7CB00181C1CC4E572E1F161BCE972A987037D313434E46365C1C9E57271CBC799FF38CBABAFAFCFB70EC2EF74B90FA0B1B1
310
91AAAA2A2C16FFE45B4848081515159C3A75CA2F9F1F68EFBFFF3E2525257E5B5E56AB95C58B175327C757838E0950B42EC21F424343292F2F27242484C1C1C149DB2F5AD44D7DFDE4FB00121313713A9D9C397386D6D6D6A9283528C4C7C75355554557579757239B458BD4232793B15AADC4C6C6B26FDF3E6EDEBC390595
310
8AA9A4DB0018B674E952AC562BD1D1D1288AC2B56BD73879F2E4B8CD83952B3DECDB377E40949696466A6A2A111111DCB87183C8C84876EFDE1DA8F2036ED5AA55747676929C9CCCE0E020ADADAD381C8E71ED56AE847DFBC6F7CFCBCB232929098BC5C2C58B17494A4A62CF9E3D01A85C7C1CBADC0730D6E1C387E9EFEF07
310
60F6ECD92C59B204B3595DD9434343898E8EE6C927DB4949C9E1EAD5ABA3F6885FBC789103070EDC79ADBABA3AF03310404343431C3B768C868606AC562B73E6CC197544253A3A9AB8B8481E7DF43AF1F1B3696F6F1F15A6A74E9DA2B9B919B7DB4D6C6C2C6161615ACC86F081A2E72922224259BA74E95DDF5FB16285121B
310
1BA39C3E8DF2E52FA3D8EDF6BBB68D8B8B53CACACA349F277F4E4545454A6262E284EF99CD66E581071E5052532D8ADB8D121313AE545656DEF5B3F2F3F395E4E464CDE749A6BB4FBADC0938527F7F3F919191777D3F24248481811E2222203313CE9F3F4F6666E6846D737373397DFAB4BF4A0D7AC33BF2E6CF1FC26482AC
310
AC013A3B3B49494999B07D4242021D1D1D01AE52F842F701702F2B57AEA4A6A6865BB7E0E9A7E15BDF8273E7CE912517ADDFD3DEBDB0660D1C3B060303038487874FD82E34341497CB15E0EA842F0C1D0066B319455100F53455B75BE382A61159AFF5C1D0012084D1490008616012004218982E4F04AAACAC64CD9A3577FE
310
0E0B0B9BF05CF791AF676438B87021FB9EEDAD562B6EB7FBCE71EF9E2B3D1C7AE910A738C515EEFECC8260B761C3068A8BD5DBAE8F9DC79146BE979101172EA847514C26D384670F8E5D8E070F1EE4EDB7DFF6D76C888F49F36391C13055576B5FC3749A6479E963924D80DB7CBDB455083D9000B8CD9BE70708A1371200E2
310
6399E8212D62FAD1E54E40218477640420848149000861601200B715144068A8D65508115886B821C8643EF31958BB567D74D58E1D70F2A4D6150911183202001E79041C0E282D556F752584514800006FBD05F3E6C1B973F0C61B5A572344E0187A13C066B31113134355D516162F3673FC780451515BF1787A703A9D5A97
310
2784DF19EE3C80D0D050366DDA447C7C3C66B3992B57AE70F8F061962EFD900307A2484B4B233D3D9DECEC6CAE5CB9C26F7EF39B3B371415426F0C350258BD7A35E5E5E56CDFBE7DD4ADAEF3F361E64C888C84BD7BCFDC793D252585AF7FFDEBB4B5B5F1FAEBAF6B51B2107EA5EB11404202CC9903A74F87B165CB16EAEBEB
310
A9ADAD65E64C282E86DB7706E7E449F5EFFA7A58B8F0A3FECDCD70ED1A646666F2C4134FB075EB5652533FE4C205DF1F8C2944B0D2FC92447F4E73E7862A3FFBD917948484040550962E4559B810C56C1EDD6EA2CB5B0B0B51962D43090941090B0B53B66E7D52C9CB8BD17C9E649269AA26DD6F023CFEF8D778F1C59758B2
310
24825BB7CCD4D579F07693BEB9593D39A8AACA446A6A16BFFAD5FFF0F0C35BB874E9577CF8E187FE2D5C8800D0F561C04D9B36F1F6DB6F73EEDC4DB2B266D0DB1BE6F5CA3F6C70103A3A42484D8DA7B37380EDDBB7F3D4534FF9A76021024CB70190919141545414274E9CA0B2125E7BED2C67CFF68FDAC6F7467E3E74740C
310
F1C20B759494407B7B1B6D6D6D2CF4F583840842BA0D808D1B37B263C70E66CF86EE6E75A75D47075CBA84D721909F0F5D5DD0DA0A8A024D4DB06001BCF9E69BAC5BB7CEBF33204400E83200CC6633B76EDDE2E6CD9B14158DBE794567A7772130BCF25FBD3ABA6F5C1CB85C839C3F7F9E59B366F967068408105D06406565
310
25FFFEF7BF090D85096EEE7B27044A4A26EE5F50307EE51F76E912A4A6426D6DAD8C02C4B4A79B00282F2FA7A2A20280FCFC7C0E1D3AC4B265F0DE7B13B7EFEC849696F1215050A0BE37D1CA0F70F62CE4E4A80F11B5D96C80FAD0CCAAAAAAA99A1521024637011015154549490976BB9DE2E2623A3B3B3199EEDDC7E91C1D
310
02C32B7F5BDBBDFB0D7F6E46460676BB9D65CB9661B55A3FF94C081160D3FE3C80B838F8F6B761F972277FFCE301A081F8F84CEC76F5F2DEDBCFFEBCA7993361C306F8D39FD45FFE82827BB71FFEDCF8F806A0068BA5EBCE6BC3670F0A311D4CFB00E8EA8277DF054589A7B737178F27969E9EFBA9A9F9352613D4D44CFE19
310
8585B07FBF7A4A7043C3E4ED873FF7E1874BF078563038B880E6E666AFBE4B886032ED0300A0B616AC563099CE525B5B4B494909168B0518FFB8AAB10A0BE1FA7575E53F7F5EFD75F72604007A7B7BA9ADADBDFD5D424C3FBAD90770F6EC591C0E071E8F87BEBE3E66CE9C495B1BCC9E7DF73EC32BFFF090BDABEBA310B81B
310
8B055C2EF5BF3D1E0F1E8F8793274FD2D2D2327533234400697E41C2544FF9F9F9CAFAF5EB95901094E5CB276E5354849298F8D1DF232F068A8B43292B9BB8DF8205280909289FFAD4A794B56BD76A3EAF32C9F44926DD8C00463A79F2248B162DC2ED56B7D7CD63E6B2A848FDD56F6F9FB87F57177CF00194958D7F6FD62C
310
F58CC275EBD6515B5B3BF5C50B1140BA0C008013274E505050C0FBEF8F1ED24FB6F20FEBEE1E1F02F9F970E20484878763B55AE9E9E9F14FF14204886E0360E7CE9DAC5FBFFECE7500B367AB37FDF066E51F361C028B16A9770BB2D9D4C3849B376FE695575EF1EF0C081100BA0D80FEFE7EF6EFDFCF830F3E4873333CFBEC
310
22C2C262BD5EF987757743676718EFBCF304070E407171316D6D6D5CBF7EDD3F850B1140BABE2518C0638F3D4647470D9D9D6184855DA3B5B59F73E7C6B7ABAE86BD7BC7BF3E772ECC9B67A1AF2F93B4B40192933FC3CB2FBFECFFC2850800DD8E008635356D2739B98CD0D014EAEAFAF178C06E87ACAC7BF79B3B17AAAA20
310
2A0AFEF9CF215CAE48E6CFFF0F0E1F96955FE887AE4700B9B9EAF9FE1D1DB076ED5AE6CF9FCF6F7FFB5BBABABAC8C8181D02656570F4E8477F5FBEAC6EFF9B4C569E7AEA299C4E276FBCF1063366A87709929B820A3DD075008C959090C017BFF8459C4E27BB76EDE2DA8893F6C76E02D86C363EFBD9CF326FDE3CB66DDBC6
310
A54B9734A85808FF3254000CCBCACAE281071E20363696981817D04F46C6352E5CC802AEE374AA0F0D79EBADB7387DFAB4D6E58A20B27CB93A3A0C0F570F0BBFF9266467434404C4C7AB9B8C6EB77AD468FF7EF5CCD1871E524797F5F55A573F9E210360A46DDBE04B5F027805D8CC3BEFA8FFC38498C873CF81A2A827980D
310
5FF969B34165A5FA5A5F9FBA799898A8864365256466AA27903DF38CBAF9184C0C1F00E1E16A7A2F5F1EC33FFED1C3C0003EDF39581887CDA6AEE41E8FFAF7D090FA6B6F36ABBFFCC3D785B95CDC3913352A4A6D178CE78D19FE32B6810175723A7BE8EAD2BA1A11ECBABBC7BFD6D777EF3EC1F6AB3F92E147004218D9FF03
310
EF88B22F556B6EA00000000049454E44AE426082
  0
ACDSRECORD
 90
        0
  2
AcDbDs::ID
280
    10
320
21C7
  2
Thumbnail_Data
280
    15
 94
     4094
310
89504E470D0A1A0A0000000D49484452000001000000007A080600000050BC8D75000000097048597300000EC400000EC401952B0E1B00000FB049444154789CEDDDFB6F53E51F07F077DBADA75B4BD7ADEDE6DC185B77A19DBB012B4C870B0A11A26222C4CBF8C198F8834B8CF10713351AE35FA026FE4234DEE29518F102
310
A2B2C00F880447616301B6C96017762FEB3676E9D6FBF707B205BF5439879DA7CF39EDE7959070699FF34EE9F9EC799EF39CE7683EFFFCF318E2C8CBCBC3AE5DBBE2FD13214482F7DE7B0F56AB95778CB8B4BC031042F8A10240480A135D00A2D128C2E130CB2C84A85E3018E41D4112D10560616101BDBDBD2CB310A27A9D
310
9D9DBC2348424300425218150042521815004252589AD8170A82807BEEB947B60347A351B4B6B62AF6FA28490D66B319EBD7AF97ADBDA2A222D9DA4A04D10540AFD743AFD7CB7A70BBDD8E4D9B36497E5F2814C2993367505D5D0DB3D9FC9FAFEDEAEA426666268A8B8BEF32A53A0502014C4C4CA8EE0B99681E8F47D6F6F2
310
F2F2646D8F35D10540492E5CB880B6B6360C0F0FE3FEFBEF87CFE7BBED1265565616CC66330E1D3A84F4F474BCFAEAAB9CD226CEC8C808666767313F3F8F0B172E40AFD763FDFAF5100401168B05F9F9F9484F4FE71D932888EA0A404F4F0F82C120EC763B4A4B4BA1D7EB51555575DB177B666606B3B3B3D8B06103C6C6C6
310
E0F178E07038926AC8313A3A8A919191953F171414A0B0B0106BD6AC8146A3C1ECEC2CDC6E37028100A6A7A771F1E2C59542999D9D0D87C301AD96A6815299E802100C06313737C7E5049A9B9B434F4F0F00C0E974C2E974A2A1A1E13FDF63B15860B158FED105EEEBEB435F5F1F82C1201A1A1AA0D3E998E66621140AA1B7
310
B7170B0B0BC8CFCF87DBED8EFBBAFAFAFA95DF2FCFDFDC3A87333D3D8D8E8E0E442211545454C062B130CF9E0AC6C6C6909F9FCF3B8668A20B40201080D7EB4D7801181A1A82D7EBFDD72FBA140E87030E87033333333876EC18B66FDF8EB434F57482FC7E3F3A3A3A505B5B0B93C9B4AAB6B2B3B3B169D3264422119C3D7B
310
16B9B9B9282929912969EA1A1E1E565501507CFF6F7C7CFCAE260AFF8BC562C1CE9D3BD1D1D1216BBBAC5DBA74098D8D8DAB3EF96FA5D3E9B065CB164C4E4ECAD626510FC5FFF8EBEBEB63367175FDFA7526EDB2323D3D8DF3E7CF3369BBB7B757965E165117D10540ABD54210049659E22A2A2A4265652593B60381009376
310
59C9CACA62F6592C2E2E326937D5180C06DE1124115D008C46231C0E07CB2C71A5A5A5C9BEFE6099DA66C0B55A2DB3CF424D73214A565D5DCD3B8224EA3A0308536D6D6DBC239004A3024000DC9C033877EE1CEF1824C1441780582C864824C2320BE16866660646A391770CD553DB3922BA00CCCFCFE3F2E5CB2CB3108EF2
310
F2F2B0B0B0C03B86EAB5B7B7F38E2009CDFC10006CAFB610E5A23900B2C2E572F18E40128C0A0021294C7401100401B9B9B92CB310A27A858585BC234822BA00E8F5FAA4BA95961016D474231090644380FEFE7E2C2D2DF18E21AB4824C26CFD3F21495500DE78E30D1C3F7E9C770C59FDFDF7DF78E79D7778C720494A7401
310
080683989A9A62996555FC7E3F7EF9E5170C0D0D21168BFBBC53551A1D1D85D7EBC5C4C404EF284404B5FD3F892E00CB9B4C2A555F5F1F262727D1D0D080B1B131DE716473FAF469D4D5D5E1E8D1A3BCA31011AE5DBBC63B8224493304B0582C78FEF9E7F1D9679F212B2B4BD27B7FFFFD7746A9562F232303ADADAD92AED1
310
FBFD7E7CF5D557F8F1C71FD1D5D5C5301D51BBA42900858585309BCDD8B2658BE835ED3E9F0F1E8F47D13B033DF4D043D8BC7933969696303E3E2EEA3D070F1E44341A45575717CE9F3FAFBA9F4A247192A6008C8C8CA0A5A505369B4DF47BAC562BDC6EB7E41E4322D9ED76BCFFFEFBF8E28B2F909D9D7DC7D7CFCDCD61CD
310
9A3530180C78F1C517313B3B8BC1C1C10424256A24BA00188D46949797B3CCB22A050505D0EBF5929E5EB4DC03B871E306C364AB53545484B1B131ECD8B143D424ACD168C4D8D818D2D2D2F0E5975F22232343525124AB535757C73B8224A20B8056AB55FCAE31D5D5D5A8A9A911FDFAE51E80D29F1AB461C3063CF3CC33A2
310
169968B55A3CFDF4D3E8EFEF87C96442717131ADF14F20B53D7845D9677482343737F38E202BABD59A124F4222AB973473008410E9441700BFDF8FFEFE7E96590851BD4B972EF18E2089E80210894412B2CE3E168BE1DCB97349B59A8FA40EBFDFCF3B82248A1B027CFDF5D72BBF08216C29AE00D4D5D5211008A8EE720A21
310
6A24BA00E8743A599F49F76FAAAAAA505A5A8AB7DF7E1B2FBDF41282C120F363122217252F2A8B47F465C0CCCC4C646666B2CCB2221C0EE3DD77DF852008181A1A4AC831099143454505EF089228721DC06BAFBDB6F2FBD1D1518E4908496E8A9B032084248EA4CB806A7B9A2E218996B49701FD7E3FFAFAFA58662144F592
310
7621102124F950012024855101202485892E000683010505052CB310A27A0E878377044944AF03484F4F57DD660784249ADA9E9E4543004252181500425298A4078378BD5E965908513DB5DDBB22E9D1603E9F8F651642544FECB31B9442914380B1B1314C4F4FF38E4148D253E4DD80C3C3C3E8EEEE86CBE5422814E21D87
310
90A425A907A0D16858E5B88DCBE582DBEDA64B8F445512798EC841740F60CD9A35703A9D2CB3FC4377773700500F2081BC5E2F72737379C750B5FAFA7ADE112451E41CC0E2E2229C4E27F5001268727212DF7FFF3DEF1824C1143907D0D8D8A8BAAE94DAF5F7F78B7EAA32491E8A2C003A9D8E77849423080216161678C720
310
09267A08303F3F8FDEDE5E965908473535358A7F48AA1A747474F08E2089E802108BC5100E875966219C3DFAE8A3BC23A89EDACE11454E0212421243917300B76239EC98989860D6360B3E9F0F1E8F8749DB5D5D5D70BBDD4CDA26CA25693F008BC5C2324B5CE5E5E5CCBE98AC4E2656AC562B9DA40A67B7DB79479044D28E
310
40F9F9F92CB3C4959595C5E4068B3FFFFC13EBD7AF97BD5D961C0E07935D67070707E912A04CD43691AAF821404545057A7A7A30343484402000411056D55E201040381CC6C68D1B61369B654A991856AB15D168141E8F47B6CF42A7D3213B3B1B95959532A5246AA2F80200606509B2C7E3597517D8E3F160EBD6AD72C4E2
310
C26EB7C36EB7CBF659D09022B5891E0284C361CCCFCFB3CCB22A9D9D9D686969C137DF7C83818101DE71B81A1E1EC6810307F0CA2BAFE0DCB973BCE3A494999919DE1124115D0016171715BBDB496767279C4E27F2F3F371F2E4498442A194DD4F201008C0E7F321140AA1ADAD0D252525E8E9E9E11D2B65A86DB19C2A8600
310
77120C062108021A1A1AE0F3F990939383A9A929646767F38E9670DDDDDDA8ACAC84D56A854EA7434E4E0EAE5EBDCA3B1651A8A42800CB76EEDC090029BD75592814825EAF47616121F6EDDBC73B0E51385A0948480A135D00323333B16EDD3A965908513D97CBC53B8224A20B804EA743666626CB2C84A89EC964E21D4112
310
C5CF011C397204D7AE5D0370F352E4D9B3676F7BCDFFFF7D341A452C168BBBAFC0ADAF6D6C6C444D4D0DA3E4F2EBEDEDC5B163C70088FF2CC4BE363737177BF7EE65909A2899E20BC0638F3DC63B8262949797A3BCBC9C770C924424AD0318191961998510D5BB72E50AEF0892485A09383B3BCB320B21AAA7B60568741990
310
9014460580901426BA0068B55AE8F57A965908513D83C1C03B8224A20B80D16844696929CB2CAB363E3E8EC5C545DE31480AABAEAEE61D4192A419025CB97205274F9EC45B6FBD85BFFEFA8B771C425441F1EB00C41A1C1CC4E6CD9B313535856834CA3B0E21AA20E9B9004A3EB1366DDA84A79E7A0A972E5DC2030F3CC03B
310
0E495191488477044944F700E6E7E7313C3CACA89B1DA6A6A6D0DADABA72EDF5D9679F0500ECDFBF1FC0CD1B339A9A9AA0D526CD4887285C7B7BBBAAB65953E510607A7A1A070F1E84C964C2238F3C829C9C9CB8AFEBEAEAC2471F7D049BCD86279F7C929E3948C8FF515D01387DFA34060606F0DC73CFDDF1B2646565252A
310
2B2BE1F57AF1E9A79F62EFDEBDFF5A2C084945AAEA1BFFFCF3CF30180C686E6E96B426213737172FBCF0027EFBED37D5ADD5268425D105401004AE4F3D3975EA148A8B8B613299566E0F96E2ECD9B3D8BD7B37DADBDB537ACB30C256414101EF0892882E007ABD1E369B8D65967F353A3A0AAFD78BDADA5A68349ABB7A8A8D
310
2008D0EBF5D8B3670F0E1E3CC8202521C0BDF7DECB3B8224AA18021C3972048F3FFE3800A0ACAC0C56AB55721BB5B5B530180C484B4BC3B66DDB5636D620249529BE000C0C0CA0A0A000E9E9E9B2B559515181CB972F23168BC9D626216A24BA000483412EF73A9F3871024D4D4DB2B75B505080D1D151D9DB25A9CDEBF5F2
310
8E2089E802100804983CA5379EC1C1C1950F72616181C9468B8D8D8D3875EA1400C4DD2F8F90BB313838C83B82248A5C07E0F57AD1DDDD0D97CB857038CCE418369B0DEDEDED282929C1B163C7505F5FCFE438842899E2E6004E9C38814F3EF9042E970B6EB71B6969EC6A54515111DC6E37B2B2B2981D831025535C0FA0AC
310
AC0C8D8D8DE8EEEE0600663D0000B876ED1A3C1E0F6EDCB8C1EC18842899A40D41CACACA586601707372AEACAC0C4EA733613D80BB595740483CB5B5B5BC234822FAECD26AB509BBABEEBEFBEE63BEFDD8D5AB57E170380000CDCDCD4C8F455287DAB6CD53DC1C000098CDE695BDD56C361BAE5FBF2EFB318E1F3F8E1D3B76
310
0000D725CE84F0A4C80270AB5DBB76E1E8D1A3B2B6198D46118D46990E2F085103D105C0EFF7636060806194F8CC6633341A8DAC13753FFCF003F6ECD9235B7B842CEBEAEAE21D4112D10520128970DB71F7D61B784E9C38818B172F4A6EE3DB6FBF85CFE7C3C4C404341A0D727373E58E490816161678479044157DE08C8C
310
0C6CDFBE1D478E1CC1C30F3F7C57F705ECDEBD1B00F0EBAFBF62DFBE7D7247244495143F07B06CDDBA7570381C387CF8F05D6DED353737879F7EFA89B60623E416A27B007ABDFEAE6EC39593CBE582DD6EC7871F7E88AD5BB7A2AAAAEA8EEF0904023874E810D2D2D2D0DCDC4C273F612A3F3F9F770449441700411014316E
310
B6D96C686969C11F7FFC81FDFBF7C36AB562FBF6ED301A8D30180C88C562585C5C445F5F1FCE9C3983582C86279E78822EF59184282C2CE41D411255CC01C4D3D4D484A6A6264C4E4EE2E38F3FC677DF7D87A5A52568341AAC5DBB166FBEF926F6EDDBA7BA67B5913B0B8542F8E0830FE0743A61B3D9A0D16860329970F8F0
310
61188D4698CD66E4E5E521180CA2A4A404070E1C405E5E1E5E7EF965DED11547B5056099CD66C3EBAFBF0E8BC5B2F2771B376E54D5DEEC441A9D4E87FAFA7A984C2698CD66AC5DBB167EBF1F5BB76E45381C86D168842008585C5C84D3E9C4830F3E88ECEC6CDEB115497401088542F0FBFDB2DD39A7D168303737078FC723
310
4B7B1B376EFCC79FE56A972853666626A2D12866666630333303E0E63C955EAF472C165BE90D767474AC6C051FEF3B21F7B076727292DBDE9977437401585A5AC2E8E8A8AC0560DBB66DB2B4458852F4F7F7ABAA00A8E6322021447E5400084961540008496192360459BE7F9E10125F757535EF0892882E005AAD168220B0
310
CC4288EAA96DDDC9FF00DB69C3172A51FDBF0000000049454E44AE426082
  0
ENDSEC
  0
EOF
