  0
SECTION
  2
HEADER
  9
$ACADVER
  1
AC1014
  9
$ACADMAINTVER
 70
           0
  9
$DWGCODEPAGE
  3
DOS932
  9
$INSBASE
 10
0.0
 20
0.0
 30
0.0
  9
$EXTMIN
 10
1.000000000000E+20
 20
1.000000000000E+20
 30
1.000000000000E+20
  9
$EXTMAX
 10
-1.000000000000E+20
 20
-1.000000000000E+20
 30
-1.000000000000E+20
  9
$LIMMIN
 10
0.0
 20
0.0
  9
$LIMMAX
 10
0.0
 20
0.0
  9
$ORTHOMODE
 70
           0
  9
$REGENMODE
 70
           1
  9
$FILLMODE
 70
           1
  9
$QTEXTMODE
 70
           0
  9
$MIRRTEXT
 70
           1
  9
$DRAGMODE
 70
           2
  9
$LTSCALE
 40
1.0
  9
$OSMODE
 70
           0
  9
$ATTMODE
 70
           1
  9
$TEXTSIZE
 40
0.2
  9
$TRACEWID
 40
0.05
  9
$TEXTSTYLE
  7
STANDARD
  9
$CLAYER
  8
0
  9
$CELTYPE
  6
CONTINUOUS
  9
$CECOLOR
 62
         256
  9
$CELTSCALE
 40
1.0
  9
$DELOBJ
 70
           1
  9
$DISPSILH
 70
           0
  9
$DIMSCALE
 40
1.0
  9
$DIMASZ
 40
0.18
  9
$DIMEXO
 40
0.0625
  9
$DIMDLI
 40
0.38
  9
$DIMRND
 40
0.0
  9
$DIMDLE
 40
0.0
  9
$DIMEXE
 40
0.18
  9
$DIMTP
 40
0.0
  9
$DIMTM
 40
0.0
  9
$DIMTXT
 40
0.18
  9
$DIMCEN
 40
0.09
  9
$DIMTSZ
 40
0.0
  9
$DIMTOL
 70
           0
  9
$DIMLIM
 70
           0
  9
$DIMTIH
 70
           1
  9
$DIMTOH
 70
           1
  9
$DIMSE1
 70
           0
  9
$DIMSE2
 70
           0
  9
$DIMTAD
 70
           0
  9
$DIMZIN
 70
           0
  9
$DIMBLK
  1

  9
$DIMASO
 70
           1
  9
$DIMSHO
 70
           1
  9
$DIMPOST
  1

  9
$DIMAPOST
  1

  9
$DIMALT
 70
           0
  9
$DIMALTD
 70
           2
  9
$DIMALTF
 40
25.4
  9
$DIMLFAC
 40
1.0
  9
$DIMTOFL
 70
           0
  9
$DIMTVP
 40
0.0
  9
$DIMTIX
 70
           0
  9
$DIMSOXD
 70
           0
  9
$DIMSAH
 70
           0
  9
$DIMBLK1
  1

  9
$DIMBLK2
  1

  9
$DIMSTYLE
  2
STANDARD
  9
$DIMCLRD
 70
           0
  9
$DIMCLRE
 70
           0
  9
$DIMCLRT
 70
           0
  9
$DIMTFAC
 40
1.0
  9
$DIMGAP
 40
0.09
  9
$DIMJUST
 70
           0
  9
$DIMSD1
 70
           0
  9
$DIMSD2
 70
           0
  9
$DIMTOLJ
 70
           1
  9
$DIMTZIN
 70
           0
  9
$DIMALTZ
 70
           0
  9
$DIMALTTZ
 70
           0
  9
$DIMFIT
 70
           3
  9
$DIMUPT
 70
           0
  9
$DIMUNIT
 70
           2
  9
$DIMDEC
 70
           4
  9
$DIMTDEC
 70
           4
  9
$DIMALTU
 70
           2
  9
$DIMALTTD
 70
           2
  9
$DIMTXSTY
  7
STANDARD
  9
$DIMAUNIT
 70
           0
  9
$LUNITS
 70
           2
  9
$LUPREC
 70
           4
  9
$SKETCHINC
 40
0.1
  9
$FILLETRAD
 40
0.0
  9
$AUNITS
 70
           0
  9
$AUPREC
 70
           0
  9
$MENU
  1
acad
  9
$ELEVATION
 40
0.0
  9
$PELEVATION
 40
0.0
  9
$THICKNESS
 40
0.0
  9
$LIMCHECK
 70
           0
  9
$BLIPMODE
 70
           1
  9
$CHAMFERA
 40
0.0
  9
$CHAMFERB
 40
0.0
  9
$CHAMFERC
 40
0.0
  9
$CHAMFERD
 40
0.0
  9
$SKPOLY
 70
           0
  9
$TDCREATE
 40
0.000000000
  9
$TDUPDATE
 40
0.000000000
  9
$TDINDWG
 40
0.0000000000
  9
$TDUSRTIMER
 40
0.0000000000
  9
$USRTIMER
 70
           1
  9
$ANGBASE
 50
0.0
  9
$ANGDIR
 70
           0
  9
$PDMODE
 70
           0
  9
$PDSIZE
 40
0.0
  9
$PLINEWID
 40
0.0
  9
$COORDS
 70
           0
  9
$SPLFRAME
 70
           0
  9
$SPLINETYPE
 70
           6
  9
$SPLINESEGS
 70
           8
  9
$ATTDIA
 70
           0
  9
$ATTREQ
 70
           1
  9
$HANDLING
 70
           1
  9
$HANDSEED
  5
47B
  9
$SURFTAB1
 70
           6
  9
$SURFTAB2
 70
           6
  9
$SURFTYPE
 70
           6
  9
$SURFU
 70
           6
  9
$SURFV
 70
           6
  9
$UCSNAME
  2

  9
$UCSORG
 10
0.0
 20
0.0
 30
0.0
  9
$UCSXDIR
 10
1.0
 20
0.0
 30
0.0
  9
$UCSYDIR
 10
0.0
 20
1.0
 30
0.0
  9
$PUCSNAME
  2

  9
$PUCSORG
 10
0.0
 20
0.0
 30
0.0
  9
$PUCSXDIR
 10
1.0
 20
0.0
 30
0.0
  9
$PUCSYDIR
 10
0.0
 20
1.0
 30
0.0
  9
$USERI1
 70
           0
  9
$USERI2
 70
           0
  9
$USERI3
 70
           0
  9
$USERI4
 70
           0
  9
$USERI5
 70
           0
  9
$USERR1
 40
0.0
  9
$USERR2
 40
0.0
  9
$USERR3
 40
0.0
  9
$USERR4
 40
0.0
  9
$USERR5
 40
0.0
  9
$WORLDVIEW
 70
           1
  9
$SHADEDGE
 70
           3
  9
$SHADEDIF
 70
          70
  9
$TILEMODE
 70
           1
  9
$MAXACTVP
 70
          16
  9
$PINSBASE
 10
0.0
 20
0.0
 30
0.0
  9
$PLIMCHECK
 70
           0
  9
$PEXTMIN
 10
1.000000000000E+20
 20
1.000000000000E+20
 30
1.000000000000E+20
  9
$PEXTMAX
 10
-1.000000000000E+20
 20
-1.000000000000E+20
 30
-1.000000000000E+20
  9
$PLIMMIN
 10
0.0
 20
0.0
  9
$PLIMMAX
 10
12.0
 20
9.0
  9
$UNITMODE
 70
           0
  9
$VISRETAIN
 70
           0
  9
$PLINEGEN
 70
           1
  9
$PSLTSCALE
 70
           0
  9
$TREEDEPTH
 70
        3020
  9
$PICKSTYLE
 70
           1
  9
$CMLSTYLE
  2
STANDARD
  9
$CMLJUST
 70
           0
  9
$CMLSCALE
 40
1.0
  9
$PROXYGRAPHICS
 70
           0
  9
$MEASUREMENT
 70
           0
  0
ENDSEC
  0
SECTION
  2
CLASSES
  0
CLASS
  1
LWPOLYLINE
  2
AcDbPolyline
  3
"AutoCAD"
 90
        0
280
           0
281
           1
  0
CLASS
  1
IMAGE
  2
AcDbRasterImage
  3
ISM
 90
      127
280
           0
281
           1
  0
CLASS
  1
OLE2FRAME
  2
AcDbOle2Frame
  3
""
 90
        0
280
           0
281
           1
  0
CLASS
  1
HATCH
  2
AcDbHatch
  3
"ACAD_SEDONA"
 90
        0
280
           0
281
           1
  0
CLASS
  1
DICTIONARYVAR
  2
AcDbDictionaryVar
  3
"AutoCAD"
 90
        0
280
           0
281
           0
  0
CLASS
  1
RASTERVARIABLES
  2
AcDbRasterVariables
  3
ISM
 90
        0
280
           0
281
           0
  0
CLASS
  1
IMAGEDEF
  2
AcDbRasterImageDef
  3
ISM
 90
        0
280
           0
281
           0
  0
CLASS
  1
IMAGEDEF_REACTOR
  2
AcDbRasterImageDefReactor
  3
ISM
 90
        1
280
           0
281
           0
  0
CLASS
  1
IDBUFFER
  2
AcDbIdBuffer
  3
"Acad"
 90
        0
280
           0
281
           0
  0
CLASS
  1
SPATIAL_FILTER
  2
AcDbSpatialFilter
  3
"Acad"
 90
        0
280
           0
281
           0
  0
CLASS
  1
XRECORD
  2
AcDbXrecord
  3
"<Built In>"
 90
        0
280
           0
281
           0
  0
CLASS
  1
SORTENTSTABLE
  2
AcDbSortentsTable
  3
"AutoCAD"
 90
        0
280
           0
281
           0
  0
CLASS
  1
LAYER_INDEX
  2
AcDbLayerIndex
  3
"Acad"
 90
        0
280
           0
281
           0
  0
CLASS
  1
SPATIAL_INDEX
  2
AcDbSpatialIndex
  3
"Acad"
 90
        0
280
           0
281
           0
  0
CLASS
  1
OBJECT_PTR
  2
CAseDLPNTableRecord
  3
"ASE-LPNTableRecord"
 90
        1
280
           0
281
           0
  0
CLASS
  1
LAYOUT
  2
AcDbLayout
  3
"AutoCAD 2000"
 90
        1
280
           0
281
           0
  0
CLASS
  1
PLOTSETTINGS
  2
AcDbPlotSettings
  3
"AutoCAD 2000"
 90
        1
280
           0
281
           0
  0
CLASS
  1
ACDBDICTIONARYWDFLT
  2
AcDbDictionaryWithDefault
  3
"AutoCAD 2000"
 90
        1
280
           0
281
           0
  0
CLASS
  1
ACDBPLACEHOLDER
  2
AcDbPlaceHolder
  3
"AutoCAD 2000"
 90
        1
280
           0
281
           0
  0
CLASS
  1
VBA_PROJECT
  2
AcDbVbaProject
  3
"acadvba"
 90
        1
280
           0
281
           0
  0
CLASS
  1
WIPEOUT
  2
AcDbWipeout
  3
WipeOut|AutoCAD Express Tool|expresstools@autodesk.com
 90
      127
280
           0
281
           1
  0
CLASS
  1
WIPEOUTVARIABLES
  2
AcDbWipeoutVariables
  3
WipeOut|AutoCAD Express Tool|expresstools@autodesk.com
 90
        0
280
           0
281
           0
  0
CLASS
  1
RTEXT
  2
RText
  3
RText|AutoCAD Express Tool|expresstools@autodesk.com
 90
        0
280
           0
281
           1
  0
CLASS
  1
ARCALIGNEDTEXT
  2
AcDbArcAlignedText
  3
ATEXT|AutoCAD Express Tool|expresstools@autodesk.com
 90
        0
280
           0
281
           1
  0
ENDSEC
  0
SECTION
  2
TABLES
  0
TABLE
  2
VPORT
  5
7
100
AcDbSymbolTable
 70
           1
  0
VPORT
  5
15
100
AcDbSymbolTableRecord
100
AcDbViewportTableRecord
  2
*ACTIVE
 70
           0
 10
0.0
 20
0.0
 11
1.0
 21
1.0
 12
6.591288
 22
4.579184
 13
0.0
 23
0.0
 14
1.0
 24
1.0
 15
0.0
 25
0.0
 16
0.0
 26
0.0
 36
1.0
 17
0.0
 27
0.0
 37
0.0
 40
9.158369
 41
0.688564
 42
50.0
 43
0.0
 44
0.0
 50
0.0
 51
0.0
 71
           0
 72
         100
 73
           1
 74
           1
 75
           0
 76
           0
 77
           0
 78
           0
  0
ENDTAB
  0
TABLE
  2
LTYPE
  5
4
100
AcDbSymbolTable
 70
          10
  0
LTYPE
  5
11
100
AcDbSymbolTableRecord
100
AcDbLinetypeTableRecord
  2
BYBLOCK
 70
          64
  3

 72
          65
 73
           0
 40
0.0
  0
LTYPE
  5
12
100
AcDbSymbolTableRecord
100
AcDbLinetypeTableRecord
  2
BYLAYER
 70
          64
  3

 72
          65
 73
           0
 40
0.0
  0
LTYPE
  5
13
100
AcDbSymbolTableRecord
100
AcDbLinetypeTableRecord
  2
CONTINUOUS
 70
          64
  3
Solid line
 72
          65
 73
           0
 40
0.0
  0
LTYPE
  5
1D
100
AcDbSymbolTableRecord
100
AcDbLinetypeTableRecord
  2
DASHED
 70
          64
  3
Dashed
 72
          65
 73
           2
 40
15.0
 49
12.0
 74
           0
 49
-3.0
 74
           0
  0
LTYPE
  5
1E
100
AcDbSymbolTableRecord
100
AcDbLinetypeTableRecord
  2
DOTTED
 70
          64
  3
Dotted
 72
          65
 73
           2
 40
3.5
 49
0.5
 74
           0
 49
-3.0
 74
           0
  0
LTYPE
  5
1F
100
AcDbSymbolTableRecord
100
AcDbLinetypeTableRecord
  2
DOT_CENTER
 70
          64
  3
Dot_Center
 72
          65
 73
           4
 40
2.0
 49
1.25
 74
           0
 49
-0.25
 74
           0
 49
0.25
 74
           0
 49
-0.25
 74
           0
  0
LTYPE
  5
20
100
AcDbSymbolTableRecord
100
AcDbLinetypeTableRecord
  2
LONG_DASHED
 70
          64
  3
Long_Dashed
 72
          65
 73
           2
 40
2.0
 49
1.5
 74
           0
 49
-0.5
 74
           0
  0
LTYPE
  5
21
100
AcDbSymbolTableRecord
100
AcDbLinetypeTableRecord
  2
DASH_CENTER
 70
          64
  3
Dash_Center
 72
          65
 73
           4
 40
36.0
 49
24.0
 74
           0
 49
-3.0
 74
           0
 49
6.0
 74
           0
 49
-3.0
 74
           0
  0
LTYPE
  5
22
100
AcDbSymbolTableRecord
100
AcDbLinetypeTableRecord
  2
PHANTOM
 70
          64
  3
Phantom
 72
          65
 73
           6
 40
2.5
 49
1.25
 74
           0
 49
-0.25
 74
           0
 49
0.25
 74
           0
 49
-0.25
 74
           0
 49
0.25
 74
           0
 49
-0.25
 74
           0
  0
LTYPE
  5
23
100
AcDbSymbolTableRecord
100
AcDbLinetypeTableRecord
  2
CENTER_DASH_DASH
 70
          64
  3
Center_Dash_Dash
 72
          65
 73
           6
 40
22.0
 49
12.0
 74
           0
 49
-3.0
 74
           0
 49
0.5
 74
           0
 49
-3.0
 74
           0
 49
0.5
 74
           0
 49
-3.0
 74
           0
  0
ENDTAB
  0
TABLE
  2
LAYER
  5
2
100
AcDbSymbolTable
 70
           2
  0
LAYER
  5
14
100
AcDbSymbolTableRecord
100
AcDbLayerTableRecord
  2
0
 70
           0
 62
           7
  6
CONTINUOUS
  0
LAYER
  5
24
100
AcDbSymbolTableRecord
100
AcDbLayerTableRecord
  2
1
 70
           0
 62
           7
  6
CONTINUOUS
  0
ENDTAB
  0
TABLE
  2
STYLE
  5
3
100
AcDbSymbolTable
 70
           2
  0
STYLE
  5
17
100
AcDbSymbolTableRecord
100
AcDbTextStyleTableRecord
  2
STANDARD
 70
           0
 40
0.0
 41
1.0
 50
0.0
 71
           0
 42
0.0
  3
txt
  4

  0
STYLE
  5
478
100
AcDbSymbolTableRecord
100
AcDbTextStyleTableRecord
  2
CONVERTER_1
 70
           0
 40
0.0
 41
0.9
 50
0.0
 71
           0
 42
0.0
  3
txt.shx
  4

  0
ENDTAB
  0
TABLE
  2
VIEW
  5
5
100
AcDbSymbolTable
 70
           0
  0
ENDTAB
  0
TABLE
  2
UCS
  5
6
100
AcDbSymbolTable
 70
           0
  0
ENDTAB
  0
TABLE
  2
APPID
  5
8
100
AcDbSymbolTable
 70
           1
  0
APPID
  5
16
100
AcDbSymbolTableRecord
100
AcDbRegAppTableRecord
  2
ACAD
 70
           0
  0
ENDTAB
  0
TABLE
  2
DIMSTYLE
  5
9
100
AcDbSymbolTable
 70
           1
  0
DIMSTYLE
105
18
100
AcDbSymbolTableRecord
100
AcDbDimStyleTableRecord
  2
STANDARD
 70
           0
  3

  4

  5

  6

  7

 40
1.0
 41
0.18
 42
0.0625
 43
0.38
 44
0.18
 45
0.0
 46
0.0
 47
0.0
 48
0.0
 71
           0
 72
           0
 73
           1
 74
           1
 75
           0
 76
           0
 77
           0
 78
           0
140
0.18
141
0.09
142
0.0
143
25.4
144
1.0
145
0.0
146
1.0
147
0.09
170
           0
171
           2
172
           0
173
           0
174
           0
175
           0
176
           0
177
           0
178
           0
270
           2
271
           4
272
           4
273
           2
274
           2
275
           0
280
           0
281
           0
282
           0
283
           1
284
           0
285
           0
286
           0
287
           0
288
           0
340
17
  0
ENDTAB
  0
TABLE
  2
BLOCK_RECORD
  5
1
100
AcDbSymbolTable
 70
           1
  0
BLOCK_RECORD
  5
A
100
AcDbSymbolTableRecord
100
AcDbBlockTableRecord
  2
*MODEL_SPACE
  0
BLOCK_RECORD
  5
B
100
AcDbSymbolTableRecord
100
AcDbBlockTableRecord
  2
*PAPER_SPACE
  0
BLOCK_RECORD
  5
25
100
AcDbSymbolTableRecord
100
AcDbBlockTableRecord
  2
SAT2001C85__1
  0
ENDTAB
  0
ENDSEC
  0
SECTION
  2
BLOCKS
  0
BLOCK
  5
D
100
AcDbEntity
  8
0
100
AcDbBlockBegin
  2
*MODEL_SPACE
 70
           0
 10
0.0
 20
0.0
 30
0.0
  3
*MODEL_SPACE
  1

  0
ENDBLK
  5
E
100
AcDbEntity
  8
0
100
AcDbBlockEnd
  0
BLOCK
  5
F
100
AcDbEntity
 67
           1
  8
0
100
AcDbBlockBegin
  2
*PAPER_SPACE
 70
           0
 10
0.0
 20
0.0
 30
0.0
  3
*PAPER_SPACE
  1

  0
ENDBLK
  5
10
100
AcDbEntity
 67
           1
  8
0
100
AcDbBlockEnd
  0
BLOCK
  5
26
100
AcDbEntity
  8
0
100
AcDbBlockBegin
  2
SAT2001C85__1
 70
           0
 10
0.0
 20
0.0
 30
0.0
  3
SAT2001C85__1
  1

  0
ARC
  5
475
100
AcDbEntity
  8
1
  6
CONTINUOUS
 62
           2
100
AcDbCircle
 10
11381.227948759049
 20
-3225.0312507013
 40
10.000000000002
100
AcDbArc
 50
-140.131658450008
 51
-90.0
  0
ARC
  5
474
100
AcDbEntity
  8
1
  6
CONTINUOUS
 62
           2
100
AcDbCircle
 10
11381.227948759049
 20
-3300.0312507013
 40
10.0
100
AcDbArc
 50
90.0
 51
140.131658450004
  0
ARC
  5
473
100
AcDbEntity
  8
1
  6
CONTINUOUS
 62
           2
100
AcDbCircle
 10
11390.328060117759
 20
-3234.0312507013
 40
1.0
100
AcDbArc
 50
-90.0
 51
0.0
  0
ARC
  5
472
100
AcDbEntity
  8
1
  6
CONTINUOUS
 62
           2
100
AcDbCircle
 10
11390.328060117759
 20
-3291.0312507013
 40
1.0
100
AcDbArc
 50
0.0
 51
90.0
  0
ARC
  5
471
100
AcDbEntity
  8
1
  6
CONTINUOUS
 62
           2
100
AcDbCircle
 10
10678.829333259349
 20
-3877.731250701301
 40
2.0
100
AcDbArc
 50
180.0
 51
-90.0
  0
ARC
  5
470
100
AcDbEntity
  8
1
  6
CONTINUOUS
 62
           2
100
AcDbCircle
 10
10678.829333259349
 20
-3846.731250701301
 40
2.0
100
AcDbArc
 50
90.0
 51
180.0
  0
ARC
  5
46F
100
AcDbEntity
  8
1
  6
CONTINUOUS
 62
           2
100
AcDbCircle
 10
14257.953042774279
 20
-2623.377630970742
 40
2.0
100
AcDbArc
 50
90.0
 51
180.0
  0
ARC
  5
46E
100
AcDbEntity
  8
1
  6
CONTINUOUS
 62
           2
100
AcDbCircle
 10
14277.54584231332
 20
-2643.127630970743
 40
2.0
100
AcDbArc
 50
90.0
 51
148.891077489541
  0
ARC
  5
46D
100
AcDbEntity
  8
1
  6
CONTINUOUS
 62
           2
100
AcDbCircle
 10
14277.54584231332
 20
-2627.627630970743
 40
2.000000000001
100
AcDbArc
 50
-148.891077489285
 51
-90.0
  0
ARC
  5
46C
100
AcDbEntity
  8
1
  6
CONTINUOUS
 62
           2
100
AcDbCircle
 10
14251.86024323524
 20
-2643.127630970743
 40
1.999999999996
100
AcDbArc
 50
31.108922510458
 51
90.0
  0
ARC
  5
46B
100
AcDbEntity
  8
1
  6
CONTINUOUS
 62
           2
100
AcDbCircle
 10
14251.86024323524
 20
-2627.627630970743
 40
2.0
100
AcDbArc
 50
-90.0
 51
-31.108922510715
  0
ARC
  5
46A
100
AcDbEntity
  8
1
  6
CONTINUOUS
 62
           7
100
AcDbCircle
 10
11139.717193635161
 20
100.713606525492
 40
4.999999999992
100
AcDbArc
 50
135.717387283307
 51
-163.016884875012
  0
ARC
  5
469
100
AcDbEntity
  8
1
  6
CONTINUOUS
 62
           7
100
AcDbCircle
 10
11095.86099637034
 20
90.990921668063
 40
5.000000000003
100
AcDbArc
 50
8.016884875046
 51
69.282612716552
  0
ARC
  5
468
100
AcDbEntity
  8
1
  6
CONTINUOUS
 62
           7
100
AcDbCircle
 10
11102.349820228081
 20
102.281153648335
 40
3.0
100
AcDbArc
 50
109.419228696301
 51
-171.983115124977
  0
ARC
  5
467
100
AcDbEntity
  8
1
  6
CONTINUOUS
 62
           7
100
AcDbCircle
 10
11129.06486383003
 20
108.203736227161
 40
3.000000000003
100
AcDbArc
 50
16.983115124919
 51
95.580771303544
  0
ARC
  5
466
100
AcDbEntity
  8
1
  6
CONTINUOUS
 62
           7
100
AcDbCircle
 10
11543.591256405491
 20
108.203736227161
 40
3.000000000001
100
AcDbArc
 50
84.419228696283
 51
163.01688487503
  0
ARC
  5
465
100
AcDbEntity
  8
1
  6
CONTINUOUS
 62
           7
100
AcDbCircle
 10
11570.30630000744
 20
102.281153648335
 40
3.0
100
AcDbArc
 50
-8.016884875023
 51
70.580771303535
  0
ARC
  5
464
100
AcDbEntity
  8
1
  6
CONTINUOUS
 62
           7
100
AcDbCircle
 10
11576.79512386518
 20
90.990921668063
 40
4.999999999999
100
AcDbArc
 50
110.71738728335
 51
171.983115124939
  0
ARC
  5
463
100
AcDbEntity
  8
1
  6
CONTINUOUS
 62
           7
100
AcDbCircle
 10
11532.93892660036
 20
100.713606525492
 40
5.0
100
AcDbArc
 50
-16.983115124957
 51
44.28261271662
  0
ARC
  5
462
100
AcDbEntity
  8
1
  6
CONTINUOUS
 62
           7
100
AcDbCircle
 10
10693.50913201123
 20
-1214.191118445559
 40
0.144444444437
100
AcDbArc
 50
137.782165415363
 51
-47.782165417884
  0
ARC
  5
461
100
AcDbEntity
  8
1
  6
CONTINUOUS
 62
           2
100
AcDbCircle
 10
10764.365774678579
 20
-1287.263304229001
 40
3.0
100
AcDbArc
 50
34.429003950854
 51
90.0
  0
ARC
  5
460
100
AcDbEntity
  8
1
  6
CONTINUOUS
 62
           2
100
AcDbCircle
 10
10764.365774678579
 20
-1272.563304229
 40
3.0
100
AcDbArc
 50
-90.0
 51
-34.429003950914
  0
ARC
  5
45F
100
AcDbEntity
  8
1
  6
CONTINUOUS
 62
           2
100
AcDbCircle
 10
10785.81128702965
 20
-1272.563304229
 40
3.0
100
AcDbArc
 50
-145.570996049065
 51
-90.0
  0
ARC
  5
45E
100
AcDbEntity
  8
1
  6
CONTINUOUS
 62
           2
100
AcDbCircle
 10
10785.81128702965
 20
-1287.263304229001
 40
3.0
100
AcDbArc
 50
90.0
 51
145.570996049126
  0
ARC
  5
45D
100
AcDbEntity
  8
1
  6
CONTINUOUS
 62
           2
100
AcDbCircle
 10
10729.289803995691
 20
-1294.413304229002
 40
3.0
100
AcDbArc
 50
90.0
 51
180.0
  0
ARC
  5
45C
100
AcDbEntity
  8
1
  6
CONTINUOUS
 62
           2
100
AcDbCircle
 10
10729.289803995691
 20
-1265.413304229002
 40
3.0
100
AcDbArc
 50
180.0
 51
-90.0
  0
ARC
  5
45B
100
AcDbEntity
  8
1
  6
CONTINUOUS
 62
           2
100
AcDbCircle
 10
11364.328060117759
 20
-2623.506674002745
 40
3.000000000003
100
AcDbArc
 50
-38.091957105173
 51
0.0
  0
ARC
  5
45A
100
AcDbEntity
  8
1
  6
CONTINUOUS
 62
           2
100
AcDbCircle
 10
11364.328060117759
 20
-2646.67993445526
 40
3.0
100
AcDbArc
 50
0.0
 51
38.09195710522
  0
ARC
  5
459
100
AcDbEntity
  8
1
  6
CONTINUOUS
 62
           2
100
AcDbCircle
 10
11386.828060117759
 20
-839.786016168541
 40
30.0
100
AcDbArc
 50
180.0
 51
-141.529354459393
  0
ARC
  5
458
100
AcDbEntity
  8
1
  6
CONTINUOUS
 62
           2
100
AcDbCircle
 10
11285.828060117759
 20
-839.786016168541
 40
30.000000000005
100
AcDbArc
 50
-38.470645540594
 51
0.0
  0
ARC
  5
457
100
AcDbEntity
  8
1
  6
CONTINUOUS
 62
           2
100
AcDbCircle
 10
11304.328060117759
 20
-789.693304229002
 40
3.0
100
AcDbArc
 50
180.0
 51
-90.0
  0
ARC
  5
456
100
AcDbEntity
  8
1
  6
CONTINUOUS
 62
           2
100
AcDbCircle
 10
11368.328060117759
 20
-789.693304229002
 40
3.0
100
AcDbArc
 50
-90.0
 51
0.0
  0
ARC
  5
455
100
AcDbEntity
  8
1
  6
CONTINUOUS
 62
           2
100
AcDbCircle
 10
11382.328060117759
 20
-781.193304229002
 40
1.0
100
AcDbArc
 50
0.0
 51
90.0
  0
ARC
  5
454
100
AcDbEntity
  8
1
  6
CONTINUOUS
 62
           2
100
AcDbCircle
 10
11377.328060117759
 20
-781.193304229002
 40
1.0
100
AcDbArc
 50
90.0
 51
180.0
  0
ARC
  5
453
100
AcDbEntity
  8
1
  6
CONTINUOUS
 62
           2
100
AcDbCircle
 10
11382.328060117759
 20
-724.193304229002
 40
1.0
100
AcDbArc
 50
-90.0
 51
0.0
  0
ARC
  5
452
100
AcDbEntity
  8
1
  6
CONTINUOUS
 62
           2
100
AcDbCircle
 10
11377.328060117759
 20
-724.193304229002
 40
1.0
100
AcDbArc
 50
180.0
 51
-90.0
  0
ARC
  5
451
100
AcDbEntity
  8
1
  6
CONTINUOUS
 62
           2
100
AcDbCircle
 10
11301.328060117759
 20
-776.693304229002
 40
5.0
100
AcDbArc
 50
180.0
 51
-90.0
  0
ARC
  5
450
100
AcDbEntity
  8
1
  6
CONTINUOUS
 62
           2
100
AcDbCircle
 10
11371.328060117759
 20
-723.193304229002
 40
5.0
100
AcDbArc
 50
0.0
 51
90.0
  0
ARC
  5
44F
100
AcDbEntity
  8
1
  6
CONTINUOUS
 62
           2
100
AcDbCircle
 10
11301.328060117759
 20
-723.193304229002
 40
5.0
100
AcDbArc
 50
90.0
 51
180.0
  0
ARC
  5
44E
100
AcDbEntity
  8
1
  6
CONTINUOUS
 62
           2
100
AcDbCircle
 10
11316.328060117759
 20
-707.193304229002
 40
1.0
100
AcDbArc
 50
180.0
 51
-90.0
  0
ARC
  5
44D
100
AcDbEntity
  8
1
  6
CONTINUOUS
 62
           2
100
AcDbCircle
 10
11311.328060117759
 20
-707.615953959812
 40
2.000000000001
100
AcDbArc
 50
-60.000000000016
 51
0.0
  0
ARC
  5
44C
100
AcDbEntity
  8
1
  6
CONTINUOUS
 62
           2
100
AcDbCircle
 10
11326.994726784431
 20
-707.193304229002
 40
1.0
100
AcDbArc
 50
-90.0
 51
0.0
  0
ARC
  5
44B
100
AcDbEntity
  8
1
  6
CONTINUOUS
 62
           2
100
AcDbCircle
 10
11330.994726784431
 20
-707.193304229002
 40
1.0
100
AcDbArc
 50
180.0
 51
-90.0
  0
ARC
  5
44A
100
AcDbEntity
  8
1
  6
CONTINUOUS
 62
           2
100
AcDbCircle
 10
11341.661393451101
 20
-707.193304229002
 40
1.0
100
AcDbArc
 50
-90.0
 51
0.0
  0
ARC
  5
449
100
AcDbEntity
  8
1
  6
CONTINUOUS
 62
           2
100
AcDbCircle
 10
11345.661393451101
 20
-707.193304229002
 40
1.0
100
AcDbArc
 50
180.0
 51
-90.0
  0
ARC
  5
448
100
AcDbEntity
  8
1
  6
CONTINUOUS
 62
           2
100
AcDbCircle
 10
11356.328060117759
 20
-707.193304229002
 40
1.0
100
AcDbArc
 50
-90.0
 51
0.0
  0
ARC
  5
447
100
AcDbEntity
  8
1
  6
CONTINUOUS
 62
           2
100
AcDbCircle
 10
11361.328060117759
 20
-707.615953959812
 40
2.0
100
AcDbArc
 50
180.0
 51
-119.999999999984
  0
ARC
  5
446
100
AcDbEntity
  8
1
  6
CONTINUOUS
 62
           2
100
AcDbCircle
 10
11358.328060117759
 20
-662.193304229002
 40
2.0
100
AcDbArc
 50
180.0
 51
-90.0
  0
ARC
  5
445
100
AcDbEntity
  8
1
  6
CONTINUOUS
 62
           2
100
AcDbCircle
 10
11314.328060117759
 20
-662.193304229002
 40
2.0
100
AcDbArc
 50
-90.0
 51
0.0
  0
ARC
  5
444
100
AcDbEntity
  8
1
  6
CONTINUOUS
 62
           2
100
AcDbCircle
 10
11313.328060117759
 20
-666.193304229002
 40
2.0
100
AcDbArc
 50
90.0
 51
180.0
  0
ARC
  5
443
100
AcDbEntity
  8
1
  6
CONTINUOUS
 62
           2
100
AcDbCircle
 10
11359.328060117759
 20
-666.193304229002
 40
2.0
100
AcDbArc
 50
0.0
 51
90.0
  0
ARC
  5
442
100
AcDbEntity
  8
1
  6
CONTINUOUS
 62
           2
100
AcDbCircle
 10
11355.328060117759
 20
-660.193304229002
 40
1.0
100
AcDbArc
 50
0.0
 51
90.0
  0
ARC
  5
441
100
AcDbEntity
  8
1
  6
CONTINUOUS
 62
           2
100
AcDbCircle
 10
11317.328060117759
 20
-660.193304229002
 40
1.0
100
AcDbArc
 50
90.0
 51
180.0
  0
ARC
  5
440
100
AcDbEntity
  8
1
  6
CONTINUOUS
 62
           2
100
AcDbCircle
 10
13691.967725279081
 20
-839.411759696431
 40
6.0
100
AcDbArc
 50
180.0
 51
-90.0
  0
ARC
  5
43F
100
AcDbEntity
  8
1
  6
CONTINUOUS
 62
           2
100
AcDbCircle
 10
13689.967725279081
 20
-869.414848761574
 40
45.0
100
AcDbArc
 50
-179.999999999998
 51
-90.0
  0
ARC
  5
43E
100
AcDbEntity
  8
1
  6
CONTINUOUS
 62
           2
100
AcDbCircle
 10
13646.60963971409
 20
-660.192632890418
 40
1.0
100
AcDbArc
 50
90.0
 51
180.0
  0
ARC
  5
43D
100
AcDbEntity
  8
1
  6
CONTINUOUS
 62
           2
100
AcDbCircle
 10
13684.60963971409
 20
-660.192632890418
 40
1.0
100
AcDbArc
 50
0.0
 51
90.0
  0
ARC
  5
43C
100
AcDbEntity
  8
1
  6
CONTINUOUS
 62
           2
100
AcDbCircle
 10
13688.60963971409
 20
-666.192632890418
 40
2.0
100
AcDbArc
 50
0.0
 51
90.0
  0
ARC
  5
43B
100
AcDbEntity
  8
1
  6
CONTINUOUS
 62
           2
100
AcDbCircle
 10
13642.60963971409
 20
-666.192632890418
 40
2.0
100
AcDbArc
 50
90.0
 51
180.0
  0
ARC
  5
43A
100
AcDbEntity
  8
1
  6
CONTINUOUS
 62
           2
100
AcDbCircle
 10
13643.60963971409
 20
-662.192632890418
 40
2.0
100
AcDbArc
 50
-90.0
 51
0.0
  0
ARC
  5
439
100
AcDbEntity
  8
1
  6
CONTINUOUS
 62
           2
100
AcDbCircle
 10
13687.60963971409
 20
-662.192632890418
 40
2.0
100
AcDbArc
 50
180.0
 51
-90.0
  0
ARC
  5
438
100
AcDbEntity
  8
1
  6
CONTINUOUS
 62
           2
100
AcDbCircle
 10
13690.60963971409
 20
-707.615953959812
 40
2.0
100
AcDbArc
 50
180.0
 51
-119.999999999984
  0
ARC
  5
437
100
AcDbEntity
  8
1
  6
CONTINUOUS
 62
           2
100
AcDbCircle
 10
13685.60963971409
 20
-707.193304229002
 40
1.0
100
AcDbArc
 50
-90.0
 51
0.0
  0
ARC
  5
436
100
AcDbEntity
  8
1
  6
CONTINUOUS
 62
           2
100
AcDbCircle
 10
13674.94297304742
 20
-707.193304229002
 40
1.0
100
AcDbArc
 50
180.0
 51
-90.0
  0
ARC
  5
435
100
AcDbEntity
  8
1
  6
CONTINUOUS
 62
           2
100
AcDbCircle
 10
13670.94297304742
 20
-707.193304229002
 40
1.0
100
AcDbArc
 50
-90.0
 51
0.0
  0
ARC
  5
434
100
AcDbEntity
  8
1
  6
CONTINUOUS
 62
           2
100
AcDbCircle
 10
13660.276306380751
 20
-707.193304229002
 40
1.0
100
AcDbArc
 50
180.0
 51
-90.0
  0
ARC
  5
433
100
AcDbEntity
  8
1
  6
CONTINUOUS
 62
           2
100
AcDbCircle
 10
13656.276306380751
 20
-707.193304229002
 40
1.0
100
AcDbArc
 50
-90.0
 51
0.0
  0
ARC
  5
432
100
AcDbEntity
  8
1
  6
CONTINUOUS
 62
           2
100
AcDbCircle
 10
13640.60963971409
 20
-707.615953959812
 40
2.000000000001
100
AcDbArc
 50
-60.000000000016
 51
0.0
  0
ARC
  5
431
100
AcDbEntity
  8
1
  6
CONTINUOUS
 62
           2
100
AcDbCircle
 10
13645.60963971409
 20
-707.193304229002
 40
1.0
100
AcDbArc
 50
180.0
 51
-90.0
  0
ARC
  5
430
100
AcDbEntity
  8
1
  6
CONTINUOUS
 62
           2
100
AcDbCircle
 10
13630.60963971409
 20
-723.193304229002
 40
5.0
100
AcDbArc
 50
90.0
 51
180.0
  0
ARC
  5
42F
100
AcDbEntity
  8
1
  6
CONTINUOUS
 62
           2
100
AcDbCircle
 10
13700.60963971409
 20
-723.193304229002
 40
5.0
100
AcDbArc
 50
0.0
 51
90.0
  0
ARC
  5
42E
100
AcDbEntity
  8
1
  6
CONTINUOUS
 62
           2
100
AcDbCircle
 10
13630.60963971409
 20
-776.693304229002
 40
5.0
100
AcDbArc
 50
180.0
 51
-90.0
  0
ARC
  5
42D
100
AcDbEntity
  8
1
  6
CONTINUOUS
 62
           2
100
AcDbCircle
 10
13697.60963971409
 20
-789.693304229002
 40
3.0
100
AcDbArc
 50
-90.0
 51
0.0
  0
ARC
  5
42C
100
AcDbEntity
  8
1
  6
CONTINUOUS
 62
           2
100
AcDbCircle
 10
13633.60963971409
 20
-789.693304229002
 40
3.0
100
AcDbArc
 50
180.0
 51
-90.0
  0
ARC
  5
42B
100
AcDbEntity
  8
1
  6
CONTINUOUS
 62
           2
100
AcDbCircle
 10
13700.60963971409
 20
-776.693304229002
 40
5.0
100
AcDbArc
 50
-90.0
 51
0.0
  0
ARC
  5
42A
100
AcDbEntity
  8
1
  6
CONTINUOUS
 62
           7
100
AcDbCircle
 10
11421.328060117759
 20
-3275.7312507013
 40
5.0
100
AcDbArc
 50
90.0
 51
180.0
  0
ARC
  5
429
100
AcDbEntity
  8
1
  6
CONTINUOUS
 62
           7
100
AcDbCircle
 10
11451.32607628599
 20
-3275.7312507013
 40
5.0
100
AcDbArc
 50
0.0
 51
90.0
  0
ARC
  5
428
100
AcDbEntity
  8
1
  6
CONTINUOUS
 62
           7
100
AcDbCircle
 10
11423.829795970571
 20
-3300.7312507013
 40
5.0
100
AcDbArc
 50
90.0
 51
180.0
  0
ARC
  5
427
100
AcDbEntity
  8
1
  6
CONTINUOUS
 62
           7
100
AcDbCircle
 10
11448.828060117759
 20
-3300.7312507013
 40
5.0
100
AcDbArc
 50
0.0
 51
90.0
  0
ARC
  5
426
100
AcDbEntity
  8
1
  6
CONTINUOUS
 62
           7
100
AcDbCircle
 10
11223.828060117759
 20
-3300.7312507013
 40
5.0
100
AcDbArc
 50
90.0
 51
180.0
  0
ARC
  5
425
100
AcDbEntity
  8
1
  6
CONTINUOUS
 62
           7
100
AcDbCircle
 10
11248.826324264959
 20
-3300.7312507013
 40
5.0
100
AcDbArc
 50
0.0
 51
90.0
  0
ARC
  5
424
100
AcDbEntity
  8
1
  6
CONTINUOUS
 62
           7
100
AcDbCircle
 10
11221.33004394954
 20
-3275.7312507013
 40
5.0
100
AcDbArc
 50
90.0
 51
180.0
  0
ARC
  5
423
100
AcDbEntity
  8
1
  6
CONTINUOUS
 62
           7
100
AcDbCircle
 10
11251.328060117759
 20
-3275.7312507013
 40
5.0
100
AcDbArc
 50
0.0
 51
90.0
  0
ARC
  5
422
100
AcDbEntity
  8
1
  6
CONTINUOUS
 62
           7
100
AcDbCircle
 10
13732.203042774279
 20
-1704.290498782488
 40
7.5
100
AcDbArc
 50
90.0
 51
180.0
  0
ARC
  5
421
100
AcDbEntity
  8
1
  6
CONTINUOUS
 62
           7
100
AcDbCircle
 10
13732.203042774279
 20
-2009.536109675517
 40
7.5
100
AcDbArc
 50
180.0
 51
-90.0
  0
ARC
  5
420
100
AcDbEntity
  8
1
  6
CONTINUOUS
 62
           7
100
AcDbCircle
 10
13703.13563096072
 20
-1671.790498782488
 40
10.0
100
AcDbArc
 50
90.0
 51
170.279112747895
  0
ARC
  5
41F
100
AcDbEntity
  8
1
  6
CONTINUOUS
 62
           7
100
AcDbCircle
 10
13703.13563096072
 20
-2042.036109675517
 40
10.000000000004
100
AcDbArc
 50
-170.279112747895
 51
-90.0
  0
CIRCLE
  5
41E
100
AcDbEntity
  8
1
  6
CONTINUOUS
 62
           7
100
AcDbCircle
 10
11035.807678113481
 20
-4166.251632705583
 40
13.5
  0
CIRCLE
  5
41D
100
AcDbEntity
  8
1
  6
CONTINUOUS
 62
           7
100
AcDbCircle
 10
11035.807678113481
 20
-3565.210868697018
 40
13.5
  0
CIRCLE
  5
41C
100
AcDbEntity
  8
1
  6
CONTINUOUS
 62
           7
100
AcDbCircle
 10
11636.848442122049
 20
-3565.210868697018
 40
13.5
  0
CIRCLE
  5
41B
100
AcDbEntity
  8
1
  6
CONTINUOUS
 62
           7
100
AcDbCircle
 10
11636.848442122049
 20
-4166.251632705583
 40
13.5
  0
CIRCLE
  5
41A
100
AcDbEntity
  8
1
  6
CONTINUOUS
 62
           2
100
AcDbCircle
 10
10715.829333259349
 20
-3865.7312507013
 40
8.331000000001
  0
CIRCLE
  5
419
100
AcDbEntity
  8
1
  6
CONTINUOUS
 62
           2
100
AcDbCircle
 10
10715.829333259349
 20
-3865.7312507013
 40
7.475000000001
  0
CIRCLE
  5
418
100
AcDbEntity
  8
1
  6
DOT_CENTER
 62
           2
100
AcDbCircle
 10
11336.328060117759
 20
-3865.731250701301
 40
425.0
  0
CIRCLE
  5
417
100
AcDbEntity
  8
1
  6
CONTINUOUS
 62
           7
100
AcDbCircle
 10
11336.328060117759
 20
-3865.731250701301
 40
500.0
  0
CIRCLE
  5
416
100
AcDbEntity
  8
1
  6
CONTINUOUS
 62
           7
100
AcDbCircle
 10
11336.328060117759
 20
-3865.731250701301
 40
509.0
  0
CIRCLE
  5
415
100
AcDbEntity
  8
1
  6
CONTINUOUS
 62
           7
100
AcDbCircle
 10
14236.0017853469
 20
-949.204269167349
 40
9.5
  0
CIRCLE
  5
414
100
AcDbEntity
  8
1
  6
CONTINUOUS
 62
           7
100
AcDbCircle
 10
14195.41207783593
 20
-908.614561656384
 40
9.5
  0
CIRCLE
  5
413
100
AcDbEntity
  8
1
  6
CONTINUOUS
 62
           7
100
AcDbCircle
 10
14195.41207783593
 20
-851.212046801621
 40
9.5
  0
CIRCLE
  5
412
100
AcDbEntity
  8
1
  6
CONTINUOUS
 62
           7
100
AcDbCircle
 10
14236.0017853469
 20
-810.622339290656
 40
9.5
  0
CIRCLE
  5
411
100
AcDbEntity
  8
1
  6
CONTINUOUS
 62
           7
100
AcDbCircle
 10
14293.404300201661
 20
-949.204269167349
 40
9.5
  0
CIRCLE
  5
410
100
AcDbEntity
  8
1
  6
CONTINUOUS
 62
           7
100
AcDbCircle
 10
14333.99400771263
 20
-908.614561656384
 40
9.5
  0
CIRCLE
  5
40F
100
AcDbEntity
  8
1
  6
CONTINUOUS
 62
           7
100
AcDbCircle
 10
14333.99400771263
 20
-851.212046801621
 40
9.5
  0
CIRCLE
  5
40E
100
AcDbEntity
  8
1
  6
CONTINUOUS
 62
           7
100
AcDbCircle
 10
14293.404300201661
 20
-810.622339290656
 40
9.5
  0
CIRCLE
  5
40D
100
AcDbEntity
  8
1
  6
CONTINUOUS
 62
           7
100
AcDbCircle
 10
14264.703042774279
 20
-879.913304229002
 40
40.0
  0
CIRCLE
  5
40C
100
AcDbEntity
  8
1
  6
CONTINUOUS
 62
           7
100
AcDbCircle
 10
14264.703042774279
 20
-879.913304229002
 40
45.0
  0
CIRCLE
  5
40B
100
AcDbEntity
  8
1
  6
DOT_CENTER
 62
           2
100
AcDbCircle
 10
14264.703042774279
 20
-879.913304229002
 40
75.0
  0
CIRCLE
  5
40A
100
AcDbEntity
  8
1
  6
CONTINUOUS
 62
           7
100
AcDbCircle
 10
14264.703042774279
 20
-879.913304229002
 40
92.5
  0
CIRCLE
  5
409
100
AcDbEntity
  8
1
  6
CONTINUOUS
 62
           2
100
AcDbCircle
 10
14264.703042774279
 20
-2635.377630970743
 40
3.600000000001
  0
CIRCLE
  5
408
100
AcDbEntity
  8
1
  6
CONTINUOUS
 62
           2
100
AcDbCircle
 10
14264.703042774279
 20
-2635.377630970743
 40
7.5
  0
CIRCLE
  5
407
100
AcDbEntity
  8
1
  6
CONTINUOUS
 62
           2
100
AcDbCircle
 10
14264.703042774279
 20
-2635.377630970743
 40
6.0
  0
CIRCLE
  5
406
100
AcDbEntity
  8
1
  6
CONTINUOUS
 62
           2
100
AcDbCircle
 10
14264.703042774279
 20
-2635.377630970743
 40
11.1
  0
CIRCLE
  5
405
100
AcDbEntity
  8
1
  6
CONTINUOUS
 62
           7
100
AcDbCircle
 10
11110.36510316639
 20
129.339727204208
 40
20.000000000001
  0
CIRCLE
  5
404
100
AcDbEntity
  8
1
  6
CONTINUOUS
 62
           7
100
AcDbCircle
 10
11562.291017069139
 20
129.339727204208
 40
20.0
  0
CIRCLE
  5
403
100
AcDbEntity
  8
1
  6
CONTINUOUS
 62
           2
100
AcDbCircle
 10
10714.789803995691
 20
-1205.902358805991
 40
2.247127062113
  0
CIRCLE
  5
402
100
AcDbEntity
  8
1
  6
CONTINUOUS
 62
           7
100
AcDbCircle
 10
10698.90015932248
 20
-1210.689164745299
 40
0.722222222221
  0
CIRCLE
  5
401
100
AcDbEntity
  8
1
  6
CONTINUOUS
 62
           7
100
AcDbCircle
 10
10714.789803995691
 20
-1193.264577370585
 40
2.8888888889
  0
CIRCLE
  5
400
100
AcDbEntity
  8
1
  6
CONTINUOUS
 62
           7
100
AcDbCircle
 10
10714.792993511581
 20
-1193.268735990516
 40
36.092093524141
  0
CIRCLE
  5
3FF
100
AcDbEntity
  8
1
  6
CONTINUOUS
 62
           2
100
AcDbCircle
 10
10775.088530854109
 20
-1279.913304229002
 40
6.25
  0
CIRCLE
  5
3FE
100
AcDbEntity
  8
1
  6
CONTINUOUS
 62
           2
100
AcDbCircle
 10
10775.088530854109
 20
-1279.913304229002
 40
3.0
  0
CIRCLE
  5
3FD
100
AcDbEntity
  8
1
  6
CONTINUOUS
 62
           2
100
AcDbCircle
 10
10775.088530854109
 20
-1279.913304229002
 40
5.0
  0
CIRCLE
  5
3FC
100
AcDbEntity
  8
1
  6
CONTINUOUS
 62
           2
100
AcDbCircle
 10
10775.088530854109
 20
-1279.913304229002
 40
8.5
  0
CIRCLE
  5
3FB
100
AcDbEntity
  8
1
  6
CONTINUOUS
 62
           2
100
AcDbCircle
 10
13665.467725279081
 20
-752.693304229002
 40
29.0
  0
CIRCLE
  5
3FA
100
AcDbEntity
  8
1
  6
CONTINUOUS
 62
           2
100
AcDbCircle
 10
13665.467725279081
 20
-752.693304229002
 40
21.0
  0
CIRCLE
  5
3F9
100
AcDbEntity
  8
1
  6
CONTINUOUS
 62
           2
100
AcDbCircle
 10
13665.467725279081
 20
-752.693304229002
 40
19.5
  0
CIRCLE
  5
3F8
100
AcDbEntity
  8
1
  6
CONTINUOUS
 62
           7
100
AcDbCircle
 10
10297.925313083761
 20
-2099.20426916735
 40
9.5
  0
CIRCLE
  5
3F7
100
AcDbEntity
  8
1
  6
CONTINUOUS
 62
           7
100
AcDbCircle
 10
10257.335605572791
 20
-2058.614561656385
 40
9.5
  0
CIRCLE
  5
3F6
100
AcDbEntity
  8
1
  6
CONTINUOUS
 62
           7
100
AcDbCircle
 10
10257.335605572791
 20
-2001.212046801621
 40
9.5
  0
CIRCLE
  5
3F5
100
AcDbEntity
  8
1
  6
CONTINUOUS
 62
           7
100
AcDbCircle
 10
10297.925313083761
 20
-1960.622339290656
 40
9.5
  0
CIRCLE
  5
3F4
100
AcDbEntity
  8
1
  6
CONTINUOUS
 62
           7
100
AcDbCircle
 10
10355.327827938519
 20
-2099.20426916735
 40
9.5
  0
CIRCLE
  5
3F3
100
AcDbEntity
  8
1
  6
CONTINUOUS
 62
           7
100
AcDbCircle
 10
10395.917535449489
 20
-2058.614561656385
 40
9.5
  0
CIRCLE
  5
3F2
100
AcDbEntity
  8
1
  6
CONTINUOUS
 62
           7
100
AcDbCircle
 10
10395.917535449489
 20
-2001.212046801621
 40
9.5
  0
CIRCLE
  5
3F1
100
AcDbEntity
  8
1
  6
CONTINUOUS
 62
           7
100
AcDbCircle
 10
10355.327827938519
 20
-1960.622339290656
 40
9.5
  0
CIRCLE
  5
3F0
100
AcDbEntity
  8
1
  6
CONTINUOUS
 62
           7
100
AcDbCircle
 10
10326.62657051114
 20
-2029.913304229002
 40
40.0
  0
CIRCLE
  5
3EF
100
AcDbEntity
  8
1
  6
CONTINUOUS
 62
           7
100
AcDbCircle
 10
10326.62657051114
 20
-2029.913304229002
 40
45.0
  0
CIRCLE
  5
3EE
100
AcDbEntity
  8
1
  6
DOT_CENTER
 62
           2
100
AcDbCircle
 10
10326.62657051114
 20
-2029.913304229002
 40
75.0
  0
CIRCLE
  5
3ED
100
AcDbEntity
  8
1
  6
CONTINUOUS
 62
           7
100
AcDbCircle
 10
10326.62657051114
 20
-2029.913304229002
 40
92.5
  0
CIRCLE
  5
3EC
100
AcDbEntity
  8
1
  6
CONTINUOUS
 62
           7
100
AcDbCircle
 10
11436.328060117759
 20
-1856.913304229002
 40
15.0
  0
CIRCLE
  5
3EB
100
AcDbEntity
  8
1
  6
CONTINUOUS
 62
           3
100
AcDbCircle
 10
11436.328060117759
 20
-1856.913304229002
 40
10.0
  0
CIRCLE
  5
3EA
100
AcDbEntity
  8
1
  6
CONTINUOUS
 62
           3
100
AcDbCircle
 10
11236.328060117759
 20
-1856.913304229002
 40
10.0
  0
CIRCLE
  5
3E9
100
AcDbEntity
  8
1
  6
CONTINUOUS
 62
           7
100
AcDbCircle
 10
11236.328060117759
 20
-1856.913304229002
 40
15.0
  0
ARC
  5
3E8
100
AcDbEntity
  8
1
  6
CONTINUOUS
 62
           7
100
AcDbCircle
 10
11336.328060117759
 20
-3865.731250701301
 40
515.000000000006
100
AcDbArc
 50
56.229999999999
 51
123.769999999999
  0
ARC
  5
3E7
100
AcDbEntity
  8
1
  6
CONTINUOUS
 62
           2
100
AcDbCircle
 10
11329.78933788109
 20
-3257.879959786301
 40
56.523480904114
100
AcDbArc
 50
-38.73647906866
 51
-34.667494258061
  0
ARC
  5
3E6
100
AcDbEntity
  8
1
  6
CONTINUOUS
 62
           2
100
AcDbCircle
 10
11336.328060117759
 20
-3262.5312507013
 40
48.500000000007
100
AcDbArc
 50
-44.653340805224
 51
-39.868341550011
  0
ARC
  5
3E5
100
AcDbEntity
  8
1
  6
CONTINUOUS
 62
           2
100
AcDbCircle
 10
11336.328060117759
 20
-3262.5312507013
 40
48.500000000003
100
AcDbArc
 50
-34.542007549615
 51
-135.346659194765
  0
ARC
  5
3E4
100
AcDbEntity
  8
1
  6
CONTINUOUS
 62
           2
100
AcDbCircle
 10
11336.35672902162
 20
-3270.139006218649
 40
34.787361012421
100
AcDbArc
 50
7.710008218939
 51
173.029145890946
  0
ARC
  5
3E3
100
AcDbEntity
  8
1
  6
CONTINUOUS
 62
           2
100
AcDbCircle
 10
11291.41107408509
 20
-3300.10642716656
 40
10.415441500099
100
AcDbArc
 50
-31.131490566089
 51
0.0
  0
ARC
  5
3E2
100
AcDbEntity
  8
1
  6
CONTINUOUS
 62
           2
100
AcDbCircle
 10
11381.24504615043
 20
-3300.10642716656
 40
10.41544150009
100
AcDbArc
 50
180.0
 51
-148.868509433885
  0
ARC
  5
3E1
100
AcDbEntity
  8
1
  6
CONTINUOUS
 62
           2
100
AcDbCircle
 10
10715.829333259349
 20
-3865.7312507013
 40
11.5
100
AcDbArc
 50
90.0
 51
-90.0
  0
ARC
  5
3E0
100
AcDbEntity
  8
1
  6
CONTINUOUS
 62
           7
100
AcDbCircle
 10
14264.703042774279
 20
-1570.913304229002
 40
1009.0
100
AcDbArc
 50
-92.255000670213
 51
-87.744999329786
  0
ARC
  5
3DF
100
AcDbEntity
  8
1
  6
CONTINUOUS
 62
           2
100
AcDbCircle
 10
14264.703042774279
 20
-2635.377630970743
 40
13.000000000002
100
AcDbArc
 50
-148.891077489456
 51
-31.10892251054
  0
ARC
  5
3DE
100
AcDbEntity
  8
1
  6
CONTINUOUS
 62
           2
100
AcDbCircle
 10
14264.703042774279
 20
-2635.377630970743
 40
12.999999999998
100
AcDbArc
 50
31.1089225105
 51
148.891077489495
  0
ARC
  5
3DD
100
AcDbEntity
  8
1
  6
CONTINUOUS
 62
           2
100
AcDbCircle
 10
14264.703042774279
 20
-2640.494085939203
 40
23.883545031537
100
AcDbArc
 50
-107.587953773989
 51
-103.930900484151
  0
ARC
  5
3DC
100
AcDbEntity
  8
1
  6
CONTINUOUS
 62
           2
100
AcDbCircle
 10
14264.703042774279
 20
-2631.761176002282
 40
23.883545031543
100
AcDbArc
 50
72.412046225983
 51
76.069099515849
  0
ARC
  5
3DB
100
AcDbEntity
  8
1
  6
CONTINUOUS
 62
           2
100
AcDbCircle
 10
14264.703042774279
 20
-2678.261176002283
 40
23.883545031542
100
AcDbArc
 50
72.412046225983
 51
76.069099515848
  0
ARC
  5
3DA
100
AcDbEntity
  8
1
  6
CONTINUOUS
 62
           2
100
AcDbCircle
 10
14264.703042774279
 20
-2593.994085939205
 40
23.883545031539
100
AcDbArc
 50
-107.587953773987
 51
-103.930900484151
  0
ARC
  5
3D9
100
AcDbEntity
  8
1
  6
CONTINUOUS
 62
           2
100
AcDbCircle
 10
14275.54588356248
 20
-2660.823823846665
 40
6.446216693344
100
AcDbArc
 50
97.512915755731
 51
124.22849580303
  0
ARC
  5
3D8
100
AcDbEntity
  8
1
  6
CONTINUOUS
 62
           2
100
AcDbCircle
 10
14253.86020198609
 20
-2660.823823846666
 40
6.446216693348
100
AcDbArc
 50
100.341209638535
 51
114.020677081041
  0
ARC
  5
3D7
100
AcDbEntity
  8
1
  6
CONTINUOUS
 62
           2
100
AcDbCircle
 10
14264.703042774279
 20
-2678.261176002283
 40
23.883545031539
100
AcDbArc
 50
103.930900484151
 51
107.587953773988
  0
ARC
  5
3D6
100
AcDbEntity
  8
1
  6
CONTINUOUS
 62
           2
100
AcDbCircle
 10
14275.54588356248
 20
-2611.431438094823
 40
6.446216693345
100
AcDbArc
 50
-79.658790361558
 51
-65.979322918939
  0
ARC
  5
3D5
100
AcDbEntity
  8
1
  6
CONTINUOUS
 62
           2
100
AcDbCircle
 10
14253.86020198609
 20
-2611.431438094822
 40
6.446216693345
100
AcDbArc
 50
-82.487084244367
 51
-55.771504196963
  0
ARC
  5
3D4
100
AcDbEntity
  8
1
  6
CONTINUOUS
 62
           2
100
AcDbCircle
 10
14264.703042774279
 20
-2593.994085939205
 40
23.883545031539
100
AcDbArc
 50
-76.069099515848
 51
-72.412046225983
  0
ARC
  5
3D3
100
AcDbEntity
  8
1
  6
CONTINUOUS
 62
           2
100
AcDbCircle
 10
14253.86020198609
 20
-2614.323823846664
 40
6.446216693343
100
AcDbArc
 50
55.771504196959
 51
114.020677081043
  0
ARC
  5
3D2
100
AcDbEntity
  8
1
  6
CONTINUOUS
 62
           2
100
AcDbCircle
 10
14264.703042774279
 20
-2631.761176002282
 40
23.88354503154
100
AcDbArc
 50
103.930900484151
 51
107.587953773987
  0
ARC
  5
3D1
100
AcDbEntity
  8
1
  6
CONTINUOUS
 62
           2
100
AcDbCircle
 10
14275.54588356248
 20
-2614.323823846663
 40
6.446216693346
100
AcDbArc
 50
65.979322918939
 51
124.228495803032
  0
ARC
  5
3D0
100
AcDbEntity
  8
1
  6
CONTINUOUS
 62
           2
100
AcDbCircle
 10
14253.86020198609
 20
-2657.93143809482
 40
6.446216693345
100
AcDbArc
 50
-114.020677081045
 51
-55.771504196954
  0
ARC
  5
3CF
100
AcDbEntity
  8
1
  6
CONTINUOUS
 62
           2
100
AcDbCircle
 10
14264.703042774279
 20
-2640.494085939203
 40
23.88354503154
100
AcDbArc
 50
-76.069099515849
 51
-72.412046225982
  0
ARC
  5
3CE
100
AcDbEntity
  8
1
  6
CONTINUOUS
 62
           2
100
AcDbCircle
 10
14275.54588356248
 20
-2657.931438094821
 40
6.446216693341
100
AcDbArc
 50
-124.228495803037
 51
-65.979322918937
  0
ARC
  5
3CD
100
AcDbEntity
  8
1
  6
CONTINUOUS
 62
           2
100
AcDbCircle
 10
14253.86020198609
 20
-2611.431438094822
 40
6.446216693346
100
AcDbArc
 50
-114.020677081043
 51
-100.341209638544
  0
ARC
  5
3CC
100
AcDbEntity
  8
1
  6
CONTINUOUS
 62
           2
100
AcDbCircle
 10
14275.54588356248
 20
-2611.431438094823
 40
6.446216693342
100
AcDbArc
 50
-124.228495803028
 51
-97.51291575573
  0
ARC
  5
3CB
100
AcDbEntity
  8
1
  6
CONTINUOUS
 62
           2
100
AcDbCircle
 10
14253.86020198609
 20
-2660.823823846666
 40
6.446216693344
100
AcDbArc
 50
55.771504196961
 51
82.487084244369
  0
ARC
  5
3CA
100
AcDbEntity
  8
1
  6
CONTINUOUS
 62
           2
100
AcDbCircle
 10
14275.54588356248
 20
-2660.823823846665
 40
6.446216693346
100
AcDbArc
 50
65.97932291894
 51
79.658790361556
  0
ARC
  5
3C9
100
AcDbEntity
  8
1
  6
CONTINUOUS
 62
           2
100
AcDbCircle
 10
14264.70304277429
 20
-2631.761176002321
 40
23.883545031577
100
AcDbArc
 50
72.412046226036
 51
107.587953773984
  0
ARC
  5
3C8
100
AcDbEntity
  8
1
  6
CONTINUOUS
 62
           2
100
AcDbCircle
 10
14264.70304277429
 20
-2596.385696510954
 40
21.615815918789
100
AcDbArc
 50
-109.503854479479
 51
-70.496145520544
  0
ARC
  5
3C7
100
AcDbEntity
  8
1
  6
CONTINUOUS
 62
           2
100
AcDbCircle
 10
14264.70304277429
 20
-2640.494085939185
 40
23.883545031558
100
AcDbArc
 50
-107.587953774001
 51
-72.41204622602
  0
ARC
  5
3C6
100
AcDbEntity
  8
1
  6
CONTINUOUS
 62
           2
100
AcDbCircle
 10
14264.70304277429
 20
-2680.222737685028
 40
25.760231957407
100
AcDbArc
 50
73.730496507363
 51
106.269503492656
  0
ARC
  5
3C5
100
AcDbEntity
  8
1
  6
CONTINUOUS
 62
           7
100
AcDbCircle
 10
14264.703042774279
 20
-889.913304229002
 40
1009.000000000002
100
AcDbArc
 50
63.612200038757
 51
89.545717503817
  0
ARC
  5
3C4
100
AcDbEntity
  8
1
  6
CONTINUOUS
 62
           7
100
AcDbCircle
 10
14279.834666666729
 20
106.984104994509
 40
0.867981349412
100
AcDbArc
 50
-33.554741413969
 51
34.282105155022
  0
ARC
  5
3C3
100
AcDbEntity
  8
1
  6
CONTINUOUS
 62
           7
100
AcDbCircle
 10
14278.77612351168
 20
106.325121902582
 40
2.114445598486
100
AcDbArc
 50
32.879876506633
 51
58.140432702904
  0
ARC
  5
3C2
100
AcDbEntity
  8
1
  6
CONTINUOUS
 62
           7
100
AcDbCircle
 10
14275.40035968224
 20
100.854075060332
 40
8.543133604494
100
AcDbArc
 50
58.278900744557
 51
72.229223794476
  0
ARC
  5
3C1
100
AcDbEntity
  8
1
  6
CONTINUOUS
 62
           7
100
AcDbCircle
 10
14269.174674357289
 20
80.280615697342
 40
30.037119456797
100
AcDbArc
 50
72.89798909853
 51
83.254065252008
  0
ARC
  5
3C0
100
AcDbEntity
  8
1
  6
CONTINUOUS
 62
           7
100
AcDbCircle
 10
14269.174674357289
 20
133.68624486267
 40
30.037119456797
100
AcDbArc
 50
-83.254065252008
 51
-72.89798909853
  0
ARC
  5
3BF
100
AcDbEntity
  8
1
  6
CONTINUOUS
 62
           7
100
AcDbCircle
 10
14275.40035968224
 20
113.11278549968
 40
8.543133604493
100
AcDbArc
 50
-72.229223794476
 51
-58.278900744554
  0
ARC
  5
3BE
100
AcDbEntity
  8
1
  6
CONTINUOUS
 62
           7
100
AcDbCircle
 10
14278.77612351168
 20
107.64173865743
 40
2.114445598482
100
AcDbArc
 50
-58.140432702904
 51
-32.879876506631
  0
ARC
  5
3BD
100
AcDbEntity
  8
1
  6
CONTINUOUS
 62
           7
100
AcDbCircle
 10
14279.834666666729
 20
106.982755565504
 40
0.867981349411
100
AcDbArc
 50
-34.282105155017
 51
33.55474141392
  0
ARC
  5
3BC
100
AcDbEntity
  8
1
  6
CONTINUOUS
 62
           7
100
AcDbCircle
 10
14249.571418881829
 20
106.982755565504
 40
0.867981349402
100
AcDbArc
 50
146.445258585681
 51
-145.717894844577
  0
ARC
  5
3BB
100
AcDbEntity
  8
1
  6
CONTINUOUS
 62
           7
100
AcDbCircle
 10
14250.62996203689
 20
107.64173865743
 40
2.114445598486
100
AcDbArc
 50
-147.120123493369
 51
-121.859567297305
  0
ARC
  5
3BA
100
AcDbEntity
  8
1
  6
CONTINUOUS
 62
           7
100
AcDbCircle
 10
14254.00572586632
 20
113.11278549968
 40
8.543133604493
100
AcDbArc
 50
-121.721099255446
 51
-107.770776205536
  0
ARC
  5
3B9
100
AcDbEntity
  8
1
  6
CONTINUOUS
 62
           7
100
AcDbCircle
 10
14260.231411191269
 20
133.68624486267
 40
30.037119456797
100
AcDbArc
 50
-107.102010901469
 51
-96.745934747991
  0
ARC
  5
3B8
100
AcDbEntity
  8
1
  6
CONTINUOUS
 62
           7
100
AcDbCircle
 10
14260.231411191269
 20
80.280615697342
 40
30.037119456797
100
AcDbArc
 50
96.745934747991
 51
107.102010901469
  0
ARC
  5
3B7
100
AcDbEntity
  8
1
  6
CONTINUOUS
 62
           7
100
AcDbCircle
 10
14254.00572586632
 20
100.854075060332
 40
8.543133604494
100
AcDbArc
 50
107.770776205536
 51
121.721099255443
  0
ARC
  5
3B6
100
AcDbEntity
  8
1
  6
CONTINUOUS
 62
           7
100
AcDbCircle
 10
14250.62996203689
 20
106.325121902582
 40
2.114445598487
100
AcDbArc
 50
121.859567297305
 51
147.120123493367
  0
ARC
  5
3B5
100
AcDbEntity
  8
1
  6
CONTINUOUS
 62
           7
100
AcDbCircle
 10
14249.571418881829
 20
106.984104994509
 40
0.867981349402
100
AcDbArc
 50
145.717894844572
 51
-146.445258585632
  0
ARC
  5
3B4
100
AcDbEntity
  8
1
  6
CONTINUOUS
 62
           7
100
AcDbCircle
 10
14280.94587363889
 20
95.288246705012
 40
1.262772106962
100
AcDbArc
 50
-45.222420908256
 51
-5.399394528947
  0
ARC
  5
3B3
100
AcDbEntity
  8
1
  6
CONTINUOUS
 62
           7
100
AcDbCircle
 10
14277.682897134409
 20
99.396607333317
 40
6.503072230997
100
AcDbArc
 50
-72.551476012034
 51
-50.317575692683
  0
ARC
  5
3B2
100
AcDbEntity
  8
1
  6
CONTINUOUS
 62
           7
100
AcDbCircle
 10
14266.223708038389
 20
141.28938460396
 40
49.93084959659
100
AcDbArc
 50
-91.744373329515
 51
-74.421762442626
  0
ARC
  5
3B1
100
AcDbEntity
  8
1
  6
CONTINUOUS
 62
           7
100
AcDbCircle
 10
14263.182377510169
 20
141.28938460396
 40
49.930849596589
100
AcDbArc
 50
-105.578237557361
 51
-88.255626670482
  0
ARC
  5
3B0
100
AcDbEntity
  8
1
  6
CONTINUOUS
 62
           7
100
AcDbCircle
 10
14251.723188414149
 20
99.396607333317
 40
6.503072230992
100
AcDbArc
 50
-129.682424307242
 51
-107.448523987874
  0
ARC
  5
3AF
100
AcDbEntity
  8
1
  6
CONTINUOUS
 62
           7
100
AcDbCircle
 10
14248.460211909671
 20
95.288246705012
 40
1.262772106961
100
AcDbArc
 50
-174.600605471061
 51
-134.77757909145
  0
ARC
  5
3AE
100
AcDbEntity
  8
1
  6
CONTINUOUS
 62
           7
100
AcDbCircle
 10
14264.703042774279
 20
156.486383460527
 40
8.0
100
AcDbArc
 50
0.0
 51
180.0
  0
ARC
  5
3AD
100
AcDbEntity
  8
1
  6
CONTINUOUS
 62
           7
100
AcDbCircle
 10
14264.703042774279
 20
-2670.913304229003
 40
100.0
100
AcDbArc
 50
0.0
 51
180.0
  0
ARC
  5
3AC
100
AcDbEntity
  8
1
  6
DOTTED
 62
           7
100
AcDbCircle
 10
14264.703042774279
 20
-1570.913304229002
 40
1009.0
100
AcDbArc
 50
-87.744999329786
 51
-68.182271897196
  0
ARC
  5
3AB
100
AcDbEntity
  8
1
  6
DOTTED
 62
           7
100
AcDbCircle
 10
14264.703042774279
 20
-1570.913304229002
 40
1009.0
100
AcDbArc
 50
-111.817728102804
 51
-92.255000670213
  0
ARC
  5
3AA
100
AcDbEntity
  8
1
  6
CONTINUOUS
 62
           7
100
AcDbCircle
 10
11110.36510316639
 20
129.339727204208
 40
35.999999999999
100
AcDbArc
 50
-44.282612716628
 51
-110.717387283376
  0
ARC
  5
3A9
100
AcDbEntity
  8
1
  6
CONTINUOUS
 62
           7
100
AcDbCircle
 10
11562.291017069139
 20
129.339727204208
 40
36.000000000001
100
AcDbArc
 50
-69.282612716623
 51
-135.717387283372
  0
ARC
  5
3A8
100
AcDbEntity
  8
1
  6
CONTINUOUS
 62
           7
100
AcDbCircle
 10
10716.892607128781
 20
-1191.161774237499
 40
13.711205269321
100
AcDbArc
 50
30.139023485571
 51
59.860976514418
  0
ARC
  5
3A7
100
AcDbEntity
  8
1
  6
CONTINUOUS
 62
           7
100
AcDbCircle
 10
10723.45054651373
 20
-1179.866472973223
 40
0.650179290189
100
AcDbArc
 50
59.860976514711
 51
153.417695580789
  0
ARC
  5
3A6
100
AcDbEntity
  8
1
  6
CONTINUOUS
 62
           7
100
AcDbCircle
 10
10684.506192059031
 20
-1160.379634596679
 40
42.897491299709
100
AcDbArc
 50
-43.266911622702
 51
-26.582304419183
  0
ARC
  5
3A5
100
AcDbEntity
  8
1
  6
CONTINUOUS
 62
           7
100
AcDbCircle
 10
10728.18790839306
 20
-1184.603834852553
 40
0.650179290189
100
AcDbArc
 50
-63.417695581085
 51
30.139023485453
  0
ARC
  5
3A4
100
AcDbEntity
  8
1
  6
CONTINUOUS
 62
           7
100
AcDbCircle
 10
10747.6747467696
 20
-1223.54818930725
 40
42.897491299711
100
AcDbArc
 50
116.582304419185
 51
133.266911622695
  0
ARC
  5
3A3
100
AcDbEntity
  8
1
  6
CONTINUOUS
 62
           7
100
AcDbCircle
 10
10714.78867536305
 20
-1193.263593590573
 40
32.087775151113
100
AcDbArc
 50
179.92690789132
 51
-135.4444653082
  0
ARC
  5
3A2
100
AcDbEntity
  8
1
  6
CONTINUOUS
 62
           7
100
AcDbCircle
 10
10714.789803995691
 20
-1192.933443280163
 40
39.342857142854
100
AcDbArc
 50
-105.026113759108
 51
-74.973886240866
  0
ARC
  5
3A1
100
AcDbEntity
  8
1
  6
CONTINUOUS
 62
           7
100
AcDbCircle
 10
10714.745359551251
 20
-1193.230490037748
 40
39.044459324232
100
AcDbArc
 50
-145.958605674407
 51
-105.076135211283
  0
ARC
  5
3A0
100
AcDbEntity
  8
1
  6
CONTINUOUS
 62
           7
100
AcDbCircle
 10
10714.83424844014
 20
-1193.322525836409
 40
38.955598656242
100
AcDbArc
 50
-25.98443410293
 51
0.085230463913
  0
ARC
  5
39F
100
AcDbEntity
  8
1
  6
CONTINUOUS
 62
           7
100
AcDbCircle
 10
10714.789803995691
 20
-1193.264577370585
 40
3.611111111119
100
AcDbArc
 50
0.0
 51
15.302031714347
  0
ARC
  5
39E
100
AcDbEntity
  8
1
  6
CONTINUOUS
 62
           7
100
AcDbCircle
 10
10714.789803995691
 20
-1193.264577370585
 40
3.611111111111
100
AcDbArc
 50
-111.421821521782
 51
0.0
  0
ARC
  5
39D
100
AcDbEntity
  8
1
  6
CONTINUOUS
 62
           7
100
AcDbCircle
 10
10714.789803995691
 20
-1193.264577370585
 40
3.611111111111
100
AcDbArc
 50
74.697968285606
 51
-158.578178478167
  0
ARC
  5
39C
100
AcDbEntity
  8
1
  6
CONTINUOUS
 62
           7
100
AcDbCircle
 10
10714.78867536305
 20
-1193.263593590573
 40
32.087775151114
100
AcDbArc
 50
-45.000831183759
 51
179.92690789132
  0
ARC
  5
39B
100
AcDbEntity
  8
1
  6
CONTINUOUS
 62
           7
100
AcDbCircle
 10
10714.79249428422
 20
-1193.268085077672
 40
28.591593842013
100
AcDbArc
 50
-44.999999999995
 51
180.0
  0
ARC
  5
39A
100
AcDbEntity
  8
1
  6
CONTINUOUS
 62
           7
100
AcDbCircle
 10
10714.79249428422
 20
-1193.268085077672
 40
28.591593842009
100
AcDbArc
 50
180.0
 51
-135.510592132965
  0
ARC
  5
399
100
AcDbEntity
  8
1
  6
CONTINUOUS
 62
           7
100
AcDbCircle
 10
10714.745359551251
 20
-1193.230490037748
 40
39.044459324227
100
AcDbArc
 50
-0.050021452168
 51
85.9693421508
  0
ARC
  5
398
100
AcDbEntity
  8
1
  6
CONTINUOUS
 62
           7
100
AcDbCircle
 10
10714.745359551251
 20
-1193.230490037748
 40
39.04445932423
100
AcDbArc
 50
85.9693421508
 51
93.899904844102
  0
ARC
  5
397
100
AcDbEntity
  8
1
  6
CONTINUOUS
 62
           7
100
AcDbCircle
 10
10714.789803995691
 20
-1155.423530713517
 40
3.637499999999
100
AcDbArc
 50
42.075022050855
 51
137.924977949164
  0
ARC
  5
396
100
AcDbEntity
  8
1
  6
CONTINUOUS
 62
           7
100
AcDbCircle
 10
10682.01849628488
 20
-1212.185100699119
 40
3.637499999995
100
AcDbArc
 50
162.075022050834
 51
-102.075022050755
  0
ARC
  5
395
100
AcDbEntity
  8
1
  6
CONTINUOUS
 62
           7
100
AcDbCircle
 10
10747.51724011538
 20
-1212.15977142417
 40
3.637499999999
100
AcDbArc
 50
-77.924977949215
 51
17.924977949179
  0
ARC
  5
394
100
AcDbEntity
  8
1
  6
CONTINUOUS
 62
           7
100
AcDbCircle
 10
10714.83424844014
 20
-1193.322525836409
 40
38.955598656249
100
AcDbArc
 50
-74.88865577696
 51
-33.933112924655
  0
ARC
  5
393
100
AcDbEntity
  8
1
  6
CONTINUOUS
 62
           7
100
AcDbCircle
 10
10714.83424844014
 20
-1193.322525836409
 40
38.955598656249
100
AcDbArc
 50
-33.933112924655
 51
-25.98443410293
  0
ARC
  5
392
100
AcDbEntity
  8
1
  6
CONTINUOUS
 62
           7
100
AcDbCircle
 10
10714.745359551251
 20
-1193.230490037748
 40
39.044459324228
100
AcDbArc
 50
-153.889170205384
 51
-145.958605674407
  0
ARC
  5
391
100
AcDbEntity
  8
1
  6
CONTINUOUS
 62
           7
100
AcDbCircle
 10
10714.745359551251
 20
-1193.230490037748
 40
39.044459324231
100
AcDbArc
 50
93.899904844102
 51
-153.889170205384
  0
ARC
  5
390
100
AcDbEntity
  8
1
  6
CONTINUOUS
 62
           2
100
AcDbCircle
 10
10808.850708680589
 20
-1279.913304229002
 40
20.062177826479
100
AcDbArc
 50
162.412046225998
 51
163.904036789944
  0
ARC
  5
38F
100
AcDbEntity
  8
1
  6
CONTINUOUS
 62
           2
100
AcDbCircle
 10
10741.064175201151
 20
-1279.913304229002
 40
20.062177826469
100
AcDbArc
 50
-17.587953774014
 51
-16.095963210066
  0
ARC
  5
38E
100
AcDbEntity
  8
1
  6
CONTINUOUS
 62
           2
100
AcDbCircle
 10
10780.99140891456
 20
-1275.924474662073
 40
6.806710713908
100
AcDbArc
 50
3.041596008619
 51
41.510199687955
  0
ARC
  5
38D
100
AcDbEntity
  8
1
  6
CONTINUOUS
 62
           2
100
AcDbCircle
 10
10755.711551011849
 20
-1289.021290491081
 40
5.414822022412
100
AcDbArc
 50
-24.020677081057
 51
34.228495803057
  0
ARC
  5
38C
100
AcDbEntity
  8
1
  6
CONTINUOUS
 62
           2
100
AcDbCircle
 10
10755.711551011849
 20
-1270.805317966923
 40
5.414822022404
100
AcDbArc
 50
-34.228495803067
 51
24.020677081046
  0
ARC
  5
38B
100
AcDbEntity
  8
1
  6
CONTINUOUS
 62
           2
100
AcDbCircle
 10
10741.064175201151
 20
-1279.913304229002
 40
20.062177826472
100
AcDbArc
 50
16.095963210063
 51
17.587953774011
  0
ARC
  5
38A
100
AcDbEntity
  8
1
  6
CONTINUOUS
 62
           2
100
AcDbCircle
 10
10794.20333286988
 20
-1270.805317966923
 40
5.414822022401
100
AcDbArc
 50
155.979322918907
 51
-145.771504196933
  0
ARC
  5
389
100
AcDbEntity
  8
1
  6
CONTINUOUS
 62
           2
100
AcDbCircle
 10
10794.20333286988
 20
-1289.021290491081
 40
5.414822022403
100
AcDbArc
 50
145.771504196943
 51
-155.979322918896
  0
ARC
  5
388
100
AcDbEntity
  8
1
  6
CONTINUOUS
 62
           2
100
AcDbCircle
 10
10808.850708680589
 20
-1279.913304229002
 40
20.062177826481
100
AcDbArc
 50
-163.904036789941
 51
-162.412046225995
  0
ARC
  5
387
100
AcDbEntity
  8
1
  6
CONTINUOUS
 62
           2
100
AcDbCircle
 10
10775.088530854109
 20
-1279.913304229002
 40
10.000000000004
100
AcDbArc
 50
34.429003950694
 51
145.570996049264
  0
ARC
  5
386
100
AcDbEntity
  8
1
  6
CONTINUOUS
 62
           2
100
AcDbCircle
 10
10775.088530854109
 20
-1279.913304229002
 40
9.999999999994
100
AcDbArc
 50
-145.57099604926
 51
-34.429003950698
  0
ARC
  5
385
100
AcDbEntity
  8
1
  6
CONTINUOUS
 62
           2
100
AcDbCircle
 10
10791.673728838339
 20
-1270.805317966923
 40
5.414822022404
100
AcDbArc
 50
-34.228495803067
 51
24.020677081046
  0
ARC
  5
384
100
AcDbEntity
  8
1
  6
CONTINUOUS
 62
           2
100
AcDbCircle
 10
10777.026353027641
 20
-1279.913304229002
 40
20.062177826469
100
AcDbArc
 50
-17.587953774014
 51
17.587953774011
  0
ARC
  5
383
100
AcDbEntity
  8
1
  6
CONTINUOUS
 62
           2
100
AcDbCircle
 10
10791.673728838339
 20
-1289.021290491081
 40
5.414822022412
100
AcDbArc
 50
-24.020677081057
 51
34.228495803057
  0
ARC
  5
382
100
AcDbEntity
  8
1
  6
CONTINUOUS
 62
           2
100
AcDbCircle
 10
10758.50333286989
 20
-1270.805317966923
 40
5.414822022411
100
AcDbArc
 50
155.979322918954
 51
-145.771504196987
  0
ARC
  5
381
100
AcDbEntity
  8
1
  6
CONTINUOUS
 62
           2
100
AcDbCircle
 10
10773.15070868059
 20
-1279.913304229002
 40
20.062177826479
100
AcDbArc
 50
162.412046225998
 51
-162.412046225995
  0
ARC
  5
380
100
AcDbEntity
  8
1
  6
CONTINUOUS
 62
           2
100
AcDbCircle
 10
10758.50333286989
 20
-1289.021290491081
 40
5.414822022411
100
AcDbArc
 50
145.771504196997
 51
-155.979322918943
  0
ARC
  5
37F
100
AcDbEntity
  8
1
  6
CONTINUOUS
 62
           7
100
AcDbCircle
 10
11953.966323649909
 20
-879.913304229002
 40
117.4179492381
100
AcDbArc
 50
157.702618077229
 51
-157.702618077229
  0
ARC
  5
37E
100
AcDbEntity
  8
1
  6
CONTINUOUS
 62
           7
100
AcDbCircle
 10
10718.689796585621
 20
-2029.913304229002
 40
117.417949238089
100
AcDbArc
 50
-22.297381922773
 51
22.297381922772
  0
ARC
  5
37D
100
AcDbEntity
  8
1
  6
CONTINUOUS
 62
           2
100
AcDbCircle
 10
11330.078060117759
 20
-2671.728853207039
 40
18.052215644708
100
AcDbArc
 50
98.762318068003
 51
110.256158000419
  0
ARC
  5
37C
100
AcDbEntity
  8
1
  6
CONTINUOUS
 62
           2
100
AcDbCircle
 10
11342.578060117759
 20
-2599.957755250966
 40
18.052215644708
100
AcDbArc
 50
-81.237681931996
 51
-69.74384199958
  0
ARC
  5
37B
100
AcDbEntity
  8
1
  6
CONTINUOUS
 62
           2
100
AcDbCircle
 10
11342.578060117759
 20
-2671.728853207039
 40
18.052215644708
100
AcDbArc
 50
98.762318068003
 51
110.256158000418
  0
ARC
  5
37A
100
AcDbEntity
  8
1
  6
CONTINUOUS
 62
           2
100
AcDbCircle
 10
11330.078060117759
 20
-2599.957755250966
 40
18.052215644708
100
AcDbArc
 50
-81.237681931997
 51
-69.743841999581
  0
ARC
  5
379
100
AcDbEntity
  8
1
  6
CONTINUOUS
 62
           2
100
AcDbCircle
 10
11330.078060117759
 20
-2671.728853207039
 40
18.052215644709
100
AcDbArc
 50
69.743841999582
 51
81.237681931997
  0
ARC
  5
378
100
AcDbEntity
  8
1
  6
CONTINUOUS
 62
           2
100
AcDbCircle
 10
11342.578060117759
 20
-2671.728853207039
 40
18.052215644708
100
AcDbArc
 50
69.74384199958
 51
81.237681931997
  0
ARC
  5
377
100
AcDbEntity
  8
1
  6
CONTINUOUS
 62
           2
100
AcDbCircle
 10
11330.078060117759
 20
-2599.957755250966
 40
18.052215644707
100
AcDbArc
 50
-110.25615800042
 51
-98.762318068003
  0
ARC
  5
376
100
AcDbEntity
  8
1
  6
CONTINUOUS
 62
           2
100
AcDbCircle
 10
11342.578060117759
 20
-2599.957755250966
 40
18.052215644708
100
AcDbArc
 50
-110.256158000419
 51
-98.762318068003
  0
ARC
  5
375
100
AcDbEntity
  8
1
  6
CONTINUOUS
 62
           2
100
AcDbCircle
 10
11342.578060117759
 20
-2625.645519873708
 40
18.052215644707
100
AcDbArc
 50
69.74384199958
 51
110.256158000419
  0
ARC
  5
374
100
AcDbEntity
  8
1
  6
CONTINUOUS
 62
           2
100
AcDbCircle
 10
11330.078060117759
 20
-2625.645519873708
 40
18.052215644708
100
AcDbArc
 50
69.743841999581
 51
110.25615800042
  0
ARC
  5
373
100
AcDbEntity
  8
1
  6
CONTINUOUS
 62
           2
100
AcDbCircle
 10
11342.578060117759
 20
-2646.041088584295
 40
18.052215644707
100
AcDbArc
 50
-110.25615800042
 51
-69.743841999579
  0
ARC
  5
372
100
AcDbEntity
  8
1
  6
CONTINUOUS
 62
           2
100
AcDbCircle
 10
11330.078060117759
 20
-2646.041088584295
 40
18.052215644707
100
AcDbArc
 50
-110.256158000421
 51
-69.74384199958
  0
ARC
  5
371
100
AcDbEntity
  8
1
  6
CONTINUOUS
 62
           2
100
AcDbCircle
 10
11379.109310117759
 20
-2635.093304229002
 40
15.781249999998
100
AcDbArc
 50
141.908042894752
 51
-141.908042894758
  0
ARC
  5
370
100
AcDbEntity
  8
1
  6
CONTINUOUS
 62
           2
100
AcDbCircle
 10
11360.478060117761
 20
-2634.843304229001
 40
14.252192813739
100
AcDbArc
 50
158.385221057213
 51
-158.385221057213
  0
ARC
  5
36F
100
AcDbEntity
  8
1
  6
CONTINUOUS
 62
           7
100
AcDbCircle
 10
11336.328060117759
 20
-1570.913304229002
 40
1008.999999999999
100
AcDbArc
 50
-116.3417497701
 51
-111.817728102804
  0
ARC
  5
36E
100
AcDbEntity
  8
1
  6
DOTTED
 62
           7
100
AcDbCircle
 10
11336.328060117759
 20
-1570.913304229002
 40
1009.0
100
AcDbArc
 50
-111.817728102804
 51
-92.255000670213
  0
ARC
  5
36D
100
AcDbEntity
  8
1
  6
DOTTED
 62
           7
100
AcDbCircle
 10
11336.328060117759
 20
-1570.913304229002
 40
1009.000000000001
100
AcDbArc
 50
-87.744999329786
 51
-68.182271897196
  0
ARC
  5
36C
100
AcDbEntity
  8
1
  6
CONTINUOUS
 62
           7
100
AcDbCircle
 10
11336.328060117759
 20
-1570.913304229002
 40
1009.0
100
AcDbArc
 50
-92.255000670213
 51
-87.744999329786
  0
ARC
  5
36B
100
AcDbEntity
  8
1
  6
CONTINUOUS
 62
           7
100
AcDbCircle
 10
11336.328060117759
 20
-2670.913304229003
 40
100.0
100
AcDbArc
 50
0.0
 51
180.0
  0
ARC
  5
36A
100
AcDbEntity
  8
1
  6
CONTINUOUS
 62
           7
100
AcDbCircle
 10
10936.328060117759
 20
-2377.139079058857
 40
109.0
100
AcDbArc
 50
180.0
 51
-116.387799961241
  0
ARC
  5
369
100
AcDbEntity
  8
1
  6
CONTINUOUS
 62
           7
100
AcDbCircle
 10
11736.328060117759
 20
-2377.139079058857
 40
109.000000000002
100
AcDbArc
 50
-63.612200038754
 51
0.0
  0
ARC
  5
368
100
AcDbEntity
  8
1
  6
CONTINUOUS
 62
           7
100
AcDbCircle
 10
11336.328060117759
 20
-1570.913304229002
 40
1009.0
100
AcDbArc
 50
-68.182271897196
 51
-63.612200038757
  0
ARC
  5
367
100
AcDbEntity
  8
1
  6
CONTINUOUS
 62
           7
100
AcDbCircle
 10
13864.703042774279
 20
-2377.139079058857
 40
109.0
100
AcDbArc
 50
180.0
 51
-116.387799961241
  0
ARC
  5
366
100
AcDbEntity
  8
1
  6
CONTINUOUS
 62
           7
100
AcDbCircle
 10
14264.703042774279
 20
-1570.913304229002
 40
1008.999999999999
100
AcDbArc
 50
-116.3417497701
 51
-111.817728102804
  0
ARC
  5
365
100
AcDbEntity
  8
1
  6
CONTINUOUS
 62
           7
100
AcDbCircle
 10
14264.703042774279
 20
-1570.913304229002
 40
1009.0
100
AcDbArc
 50
-68.182271897196
 51
-63.612200038757
  0
ARC
  5
364
100
AcDbEntity
  8
1
  6
CONTINUOUS
 62
           7
100
AcDbCircle
 10
14664.703042774279
 20
-2377.139079058857
 40
109.000000000002
100
AcDbArc
 50
-63.612200038754
 51
0.0
  0
ARC
  5
363
100
AcDbEntity
  8
1
  6
CONTINUOUS
 62
           7
100
AcDbCircle
 10
11336.328060117759
 20
-889.913304229002
 40
1009.000000000002
100
AcDbArc
 50
63.612200038757
 51
68.182271897196
  0
ARC
  5
362
100
AcDbEntity
  8
1
  6
CONTINUOUS
 62
           7
100
AcDbCircle
 10
11736.328060117759
 20
-83.687529399149
 40
109.0
100
AcDbArc
 50
0.0
 51
63.612200038754
  0
ARC
  5
361
100
AcDbEntity
  8
1
  6
CONTINUOUS
 62
           7
100
AcDbCircle
 10
10936.328060117759
 20
-83.687529399149
 40
108.999999999998
100
AcDbArc
 50
116.38779996124
 51
180.0
  0
ARC
  5
360
100
AcDbEntity
  8
1
  6
CONTINUOUS
 62
           7
100
AcDbCircle
 10
11336.328060117759
 20
-889.913304229002
 40
1008.999999999999
100
AcDbArc
 50
111.817728102804
 51
116.3417497701
  0
ARC
  5
35F
100
AcDbEntity
  8
1
  6
CONTINUOUS
 62
           7
100
AcDbCircle
 10
10936.328060117759
 20
-83.687529399149
 40
108.999999999998
100
AcDbArc
 50
116.38779996124
 51
180.0
  0
ARC
  5
35E
100
AcDbEntity
  8
1
  6
CONTINUOUS
 62
           7
100
AcDbCircle
 10
11336.328060117759
 20
-889.913304229002
 40
1009.000000000001
100
AcDbArc
 50
63.863386858125
 51
116.3417497701
  0
ARC
  5
35D
100
AcDbEntity
  8
1
  6
CONTINUOUS
 62
           7
100
AcDbCircle
 10
13864.703042774279
 20
-83.687529399149
 40
108.999999999998
100
AcDbArc
 50
116.38779996124
 51
180.0
  0
ARC
  5
35C
100
AcDbEntity
  8
1
  6
CONTINUOUS
 62
           7
100
AcDbCircle
 10
14264.703042774279
 20
-889.913304229002
 40
1008.999999999999
100
AcDbArc
 50
111.817728102804
 51
116.3417497701
  0
ARC
  5
35B
100
AcDbEntity
  8
1
  6
CONTINUOUS
 62
           7
100
AcDbCircle
 10
13864.703042774279
 20
-83.687529399149
 40
108.999999999998
100
AcDbArc
 50
116.38779996124
 51
180.0
  0
ARC
  5
35A
100
AcDbEntity
  8
1
  6
CONTINUOUS
 62
           7
100
AcDbCircle
 10
14664.703042774279
 20
-83.687529399149
 40
109.0
100
AcDbArc
 50
0.0
 51
63.612200038754
  0
ARC
  5
359
100
AcDbEntity
  8
1
  6
CONTINUOUS
 62
           7
100
AcDbCircle
 10
14264.703042774279
 20
-889.913304229002
 40
1009.000000000002
100
AcDbArc
 50
63.612200038757
 51
68.182271897196
  0
ARC
  5
358
100
AcDbEntity
  8
1
  6
CONTINUOUS
 62
           7
100
AcDbCircle
 10
14264.703042774279
 20
-889.913304229002
 40
1009.000000000001
100
AcDbArc
 50
90.454282496182
 51
116.002748352268
  0
ARC
  5
357
100
AcDbEntity
  8
1
  6
CONTINUOUS
 62
           7
100
AcDbCircle
 10
12013.618088427071
 20
-2662.883821836741
 40
315.971260282133
100
AcDbArc
 50
163.077829185707
 51
-178.543839139127
  0
ARC
  5
356
100
AcDbEntity
  8
1
  6
CONTINUOUS
 62
           7
100
AcDbCircle
 10
10659.038031808461
 20
-2662.883821836741
 40
315.971260282126
100
AcDbArc
 50
-1.456160860873
 51
16.922170814293
  0
ARC
  5
355
100
AcDbEntity
  8
1
  6
CONTINUOUS
 62
           7
100
AcDbCircle
 10
13587.413014464981
 20
-2662.883821836741
 40
315.971260282126
100
AcDbArc
 50
-1.456160860873
 51
16.922170814293
  0
ARC
  5
354
100
AcDbEntity
  8
1
  6
CONTINUOUS
 62
           7
100
AcDbCircle
 10
13587.413014464981
 20
-2662.883821836741
 40
315.971260282126
100
AcDbArc
 50
-1.456160860873
 51
16.922170814293
  0
ARC
  5
353
100
AcDbEntity
  8
1
  6
CONTINUOUS
 62
           7
100
AcDbCircle
 10
14941.993071083591
 20
-2662.883821836741
 40
315.971260282133
100
AcDbArc
 50
163.077829185707
 51
-178.543839139127
  0
ARC
  5
352
100
AcDbEntity
  8
1
  6
CONTINUOUS
 62
           7
100
AcDbCircle
 10
14941.993071083591
 20
-2662.883821836741
 40
315.971260282133
100
AcDbArc
 50
163.077829185707
 51
-178.543839139127
  0
ARC
  5
351
100
AcDbEntity
  8
1
  6
CONTINUOUS
 62
           2
100
AcDbCircle
 10
11336.328060117759
 20
-879.913304229002
 40
36.001544532573
100
AcDbArc
 50
-90.0
 51
49.626086757745
  0
ARC
  5
350
100
AcDbEntity
  8
1
  6
CONTINUOUS
 62
           2
100
AcDbCircle
 10
11336.328060117759
 20
-879.913304229002
 40
34.501544532572
100
AcDbArc
 50
-90.0
 51
38.470645540597
  0
ARC
  5
34F
100
AcDbEntity
  8
1
  6
CONTINUOUS
 62
           2
100
AcDbCircle
 10
11336.328060117759
 20
-879.913304229002
 40
34.501544532566
100
AcDbArc
 50
141.529354459392
 51
-90.0
  0
ARC
  5
34E
100
AcDbEntity
  8
1
  6
CONTINUOUS
 62
           2
100
AcDbCircle
 10
11336.328060117759
 20
-879.913304229002
 40
36.001544532568
100
AcDbArc
 50
130.373913242242
 51
-90.0
  0
ARC
  5
34D
100
AcDbEntity
  8
1
  6
CONTINUOUS
 62
           2
100
AcDbCircle
 10
11363.317778957749
 20
-838.078385411266
 40
6.489718839986
100
AcDbArc
 50
140.074062214564
 51
180.0
  0
ARC
  5
34C
100
AcDbEntity
  8
1
  6
CONTINUOUS
 62
           2
100
AcDbCircle
 10
11309.33834127778
 20
-838.078385411266
 40
6.489718839979
100
AcDbArc
 50
0.0
 51
39.925937785436
  0
ARC
  5
34B
100
AcDbEntity
  8
1
  6
CONTINUOUS
 62
           2
100
AcDbCircle
 10
11362.969974552771
 20
-779.137018649006
 40
28.556285579997
100
AcDbArc
 50
-113.201052895934
 51
-90.0
  0
ARC
  5
34A
100
AcDbEntity
  8
1
  6
CONTINUOUS
 62
           2
100
AcDbCircle
 10
11309.969974552771
 20
-779.137018649006
 40
28.556285579996
100
AcDbArc
 50
-90.0
 51
-66.798947104066
  0
ARC
  5
349
100
AcDbEntity
  8
1
  6
CONTINUOUS
 62
           2
100
AcDbCircle
 10
11336.469974552771
 20
-756.187345448718
 40
51.505958780285
100
AcDbArc
 50
-107.222444972132
 51
-72.777555027867
  0
ARC
  5
348
100
AcDbEntity
  8
1
  6
CONTINUOUS
 62
           2
100
AcDbCircle
 10
11362.828060117759
 20
-779.137018649006
 40
28.556285579997
100
AcDbArc
 50
-113.201052895934
 51
-90.0
  0
ARC
  5
347
100
AcDbEntity
  8
1
  6
CONTINUOUS
 62
           2
100
AcDbCircle
 10
11309.828060117759
 20
-779.137018649006
 40
28.556285579996
100
AcDbArc
 50
-90.0
 51
-66.798947104066
  0
ARC
  5
346
100
AcDbEntity
  8
1
  6
CONTINUOUS
 62
           2
100
AcDbCircle
 10
11336.328060117759
 20
-756.187345448718
 40
51.505958780285
100
AcDbArc
 50
-107.222444972132
 51
-72.777555027867
  0
ARC
  5
345
100
AcDbEntity
  8
1
  6
CONTINUOUS
 62
           2
100
AcDbCircle
 10
11358.328060117759
 20
-724.226802329622
 40
16.03349810062
100
AcDbArc
 50
90.0
 51
123.074730067206
  0
ARC
  5
344
100
AcDbEntity
  8
1
  6
CONTINUOUS
 62
           2
100
AcDbCircle
 10
11314.328060117759
 20
-665.193304229002
 40
1.0
100
AcDbArc
 50
0.0
 51
180.0
  0
ARC
  5
343
100
AcDbEntity
  8
1
  6
CONTINUOUS
 62
           2
100
AcDbCircle
 10
11328.994726784431
 20
-665.193304229002
 40
1.0
100
AcDbArc
 50
0.0
 51
180.0
  0
ARC
  5
342
100
AcDbEntity
  8
1
  6
CONTINUOUS
 62
           2
100
AcDbCircle
 10
11343.661393451101
 20
-665.193304229002
 40
1.0
100
AcDbArc
 50
0.0
 51
180.0
  0
ARC
  5
341
100
AcDbEntity
  8
1
  6
CONTINUOUS
 62
           2
100
AcDbCircle
 10
11358.328060117759
 20
-665.193304229002
 40
1.0
100
AcDbArc
 50
0.0
 51
180.0
  0
ARC
  5
340
100
AcDbEntity
  8
1
  6
CONTINUOUS
 62
           2
100
AcDbCircle
 10
11314.328060117759
 20
-724.226802329622
 40
16.033498100619
100
AcDbArc
 50
56.925269932794
 51
90.0
  0
ARC
  5
33F
100
AcDbEntity
  8
1
  6
CONTINUOUS
 62
           2
100
AcDbCircle
 10
11336.328060117759
 20
-743.279361212879
 40
35.086056983876
100
AcDbArc
 50
67.812245868758
 51
112.187754131241
  0
ARC
  5
33E
100
AcDbEntity
  8
1
  6
CONTINUOUS
 62
           2
100
AcDbCircle
 10
11336.328060117759
 20
-642.693304229002
 40
15.0
100
AcDbArc
 50
0.0
 51
180.0
  0
ARC
  5
33D
100
AcDbEntity
  8
1
  6
CONTINUOUS
 62
           2
100
AcDbCircle
 10
11320.828060117759
 20
-663.335702077897
 40
12.142397848894
100
AcDbArc
 50
59.020901138371
 51
90.0
  0
ARC
  5
33C
100
AcDbEntity
  8
1
  6
CONTINUOUS
 62
           2
100
AcDbCircle
 10
11351.828060117759
 20
-663.335702077897
 40
12.142397848895
100
AcDbArc
 50
90.0
 51
120.979098861629
  0
ARC
  5
33B
100
AcDbEntity
  8
1
  6
CONTINUOUS
 62
           2
100
AcDbCircle
 10
11336.328060117759
 20
-676.759095836554
 40
25.565791607551
100
AcDbArc
 50
68.788505585336
 51
111.211494414664
  0
ARC
  5
33A
100
AcDbEntity
  8
1
  6
CONTINUOUS
 62
           2
100
AcDbCircle
 10
13699.07821923954
 20
-834.996318196331
 40
10.415441500099
100
AcDbArc
 50
-90.0
 51
-58.868509433917
  0
ARC
  5
339
100
AcDbEntity
  8
1
  6
CONTINUOUS
 62
           2
100
AcDbCircle
 10
13699.07821923954
 20
-924.830290261673
 40
10.415441500099
100
AcDbArc
 50
58.868509433917
 51
90.0
  0
ARC
  5
338
100
AcDbEntity
  8
1
  6
CONTINUOUS
 62
           2
100
AcDbCircle
 10
13692.457444119071
 20
-838.078385411266
 40
6.489718839995
100
AcDbArc
 50
140.074062214626
 51
180.0
  0
ARC
  5
337
100
AcDbEntity
  8
1
  6
CONTINUOUS
 62
           2
100
AcDbCircle
 10
13638.478006439091
 20
-838.078385411266
 40
6.48971883999
100
AcDbArc
 50
0.0
 51
39.925937785436
  0
ARC
  5
336
100
AcDbEntity
  8
1
  6
CONTINUOUS
 62
           2
100
AcDbCircle
 10
13665.60963971409
 20
-676.75842449797
 40
25.565791607552
100
AcDbArc
 50
68.788505585336
 51
111.211494414663
  0
ARC
  5
335
100
AcDbEntity
  8
1
  6
CONTINUOUS
 62
           2
100
AcDbCircle
 10
13681.10963971409
 20
-663.335030739311
 40
12.142397848893
100
AcDbArc
 50
90.0
 51
120.979098861629
  0
ARC
  5
334
100
AcDbEntity
  8
1
  6
CONTINUOUS
 62
           2
100
AcDbCircle
 10
13650.10963971409
 20
-663.335030739311
 40
12.142397848894
100
AcDbArc
 50
59.020901138371
 51
90.0
  0
ARC
  5
333
100
AcDbEntity
  8
1
  6
CONTINUOUS
 62
           2
100
AcDbCircle
 10
13665.60963971409
 20
-642.692632890418
 40
15.0
100
AcDbArc
 50
0.0
 51
180.0
  0
ARC
  5
332
100
AcDbEntity
  8
1
  6
CONTINUOUS
 62
           2
100
AcDbCircle
 10
13665.60963971409
 20
-743.279361212879
 40
35.086056983876
100
AcDbArc
 50
67.812245868758
 51
112.187754131241
  0
ARC
  5
331
100
AcDbEntity
  8
1
  6
CONTINUOUS
 62
           2
100
AcDbCircle
 10
13643.60963971409
 20
-724.226802329622
 40
16.033498100619
100
AcDbArc
 50
56.925269932794
 51
90.0
  0
ARC
  5
330
100
AcDbEntity
  8
1
  6
CONTINUOUS
 62
           2
100
AcDbCircle
 10
13687.60963971409
 20
-665.192632890418
 40
1.0
100
AcDbArc
 50
0.0
 51
180.0
  0
ARC
  5
32F
100
AcDbEntity
  8
1
  6
CONTINUOUS
 62
           2
100
AcDbCircle
 10
13672.94297304742
 20
-665.192632890418
 40
1.0
100
AcDbArc
 50
0.0
 51
180.0
  0
ARC
  5
32E
100
AcDbEntity
  8
1
  6
CONTINUOUS
 62
           2
100
AcDbCircle
 10
13658.276306380751
 20
-665.192632890418
 40
1.0
100
AcDbArc
 50
0.0
 51
180.0
  0
ARC
  5
32D
100
AcDbEntity
  8
1
  6
CONTINUOUS
 62
           2
100
AcDbCircle
 10
13643.60963971409
 20
-665.192632890418
 40
1.0
100
AcDbArc
 50
0.0
 51
180.0
  0
ARC
  5
32C
100
AcDbEntity
  8
1
  6
CONTINUOUS
 62
           2
100
AcDbCircle
 10
13687.60963971409
 20
-724.226802329622
 40
16.03349810062
100
AcDbArc
 50
90.0
 51
123.074730067206
  0
ARC
  5
32B
100
AcDbEntity
  8
1
  6
CONTINUOUS
 62
           2
100
AcDbCircle
 10
13665.60963971409
 20
-756.187345448718
 40
51.505958780285
100
AcDbArc
 50
-107.222444972132
 51
-72.777555027867
  0
ARC
  5
32A
100
AcDbEntity
  8
1
  6
CONTINUOUS
 62
           2
100
AcDbCircle
 10
13639.10963971409
 20
-779.137018649006
 40
28.556285579996
100
AcDbArc
 50
-90.0
 51
-66.798947104066
  0
ARC
  5
329
100
AcDbEntity
  8
1
  6
CONTINUOUS
 62
           2
100
AcDbCircle
 10
13692.10963971409
 20
-779.137018649006
 40
28.556285579997
100
AcDbArc
 50
-113.201052895934
 51
-90.0
  0
ARC
  5
328
100
AcDbEntity
  8
1
  6
CONTINUOUS
 62
           7
100
AcDbCircle
 10
11436.32892804417
 20
-1679.290064792383
 40
17.49956603141
100
AcDbArc
 50
-0.403504746534
 51
179.596495253463
  0
ARC
  5
327
100
AcDbEntity
  8
1
  6
CONTINUOUS
 62
           7
100
AcDbCircle
 10
11436.32892804417
 20
-2034.536543665622
 40
17.499566031419
100
AcDbArc
 50
-179.596495253463
 51
0.403504746537
  0
ARC
  5
326
100
AcDbEntity
  8
1
  6
CONTINUOUS
 62
           7
100
AcDbCircle
 10
11236.32719219136
 20
-2034.536543665622
 40
17.499566031421
100
AcDbArc
 50
179.596495253463
 51
-0.403504746536
  0
ARC
  5
325
100
AcDbEntity
  8
1
  6
CONTINUOUS
 62
           7
100
AcDbCircle
 10
11236.32719219136
 20
-1679.290064792383
 40
17.499566031419
100
AcDbArc
 50
0.403504746536
 51
-179.596495253466
  0
ARC
  5
324
100
AcDbEntity
  8
1
  6
CONTINUOUS
 62
           7
100
AcDbCircle
 10
11249.983224521409
 20
-1856.91216141966
 40
113.762501224359
100
AcDbArc
 50
154.947607586391
 51
-154.984784540828
  0
ARC
  5
323
100
AcDbEntity
  8
1
  6
CONTINUOUS
 62
           7
100
AcDbCircle
 10
11285.54192051947
 20
-1839.012429524412
 40
153.559261072974
100
AcDbArc
 50
-154.542879317995
 51
-126.394531208384
  0
ARC
  5
322
100
AcDbEntity
  8
1
  6
CONTINUOUS
 62
           7
100
AcDbCircle
 10
11312.754355909199
 20
-1805.276975090836
 40
196.869965427194
100
AcDbArc
 50
-126.944010452762
 51
-118.760356672525
  0
ARC
  5
321
100
AcDbEntity
  8
1
  6
CONTINUOUS
 62
           7
100
AcDbCircle
 10
11335.720752910231
 20
-1749.139115344112
 40
257.774909317818
100
AcDbArc
 50
-108.388815607174
 51
-89.864539028133
  0
ARC
  5
320
100
AcDbEntity
  8
1
  6
CONTINUOUS
 62
           7
100
AcDbCircle
 10
11335.720752910231
 20
-1964.687493113894
 40
257.77490931782
100
AcDbArc
 50
89.864539028133
 51
108.388815607174
  0
ARC
  5
31F
100
AcDbEntity
  8
1
  6
CONTINUOUS
 62
           7
100
AcDbCircle
 10
11285.54192051947
 20
-1874.814178933592
 40
153.559261072972
100
AcDbArc
 50
126.394531208384
 51
154.542879317995
  0
ARC
  5
31E
100
AcDbEntity
  8
1
  6
CONTINUOUS
 62
           7
100
AcDbCircle
 10
11312.754355909199
 20
-1908.549633367169
 40
196.869965427193
100
AcDbArc
 50
118.760356672526
 51
126.944010452762
  0
ARC
  5
31D
100
AcDbEntity
  8
1
  6
CONTINUOUS
 62
           7
100
AcDbCircle
 10
11336.935367325301
 20
-1964.687493113894
 40
257.774909317818
100
AcDbArc
 50
71.611184392826
 51
90.135460971867
  0
ARC
  5
31C
100
AcDbEntity
  8
1
  6
CONTINUOUS
 62
           7
100
AcDbCircle
 10
11387.11419971605
 20
-1874.814178933592
 40
153.559261072974
100
AcDbArc
 50
25.457120682005
 51
53.605468791613
  0
ARC
  5
31B
100
AcDbEntity
  8
1
  6
CONTINUOUS
 62
           7
100
AcDbCircle
 10
11359.90176432632
 20
-1908.549633367169
 40
196.8699654272
100
AcDbArc
 50
53.055989547235
 51
61.239643327471
  0
ARC
  5
31A
100
AcDbEntity
  8
1
  6
CONTINUOUS
 62
           7
100
AcDbCircle
 10
11422.67289571412
 20
-1856.91216141966
 40
113.762501224349
100
AcDbArc
 50
-25.015215459173
 51
25.052392413611
  0
ARC
  5
319
100
AcDbEntity
  8
1
  6
CONTINUOUS
 62
           7
100
AcDbCircle
 10
11387.11419971605
 20
-1839.012429524412
 40
153.559261072978
100
AcDbArc
 50
-53.605468791613
 51
-25.457120682005
  0
ARC
  5
318
100
AcDbEntity
  8
1
  6
CONTINUOUS
 62
           7
100
AcDbCircle
 10
11359.90176432632
 20
-1805.276975090836
 40
196.8699654272
100
AcDbArc
 50
-61.239643327471
 51
-53.055989547235
  0
ARC
  5
317
100
AcDbEntity
  8
1
  6
CONTINUOUS
 62
           7
100
AcDbCircle
 10
11336.935367325301
 20
-1749.139115344112
 40
257.774909317818
100
AcDbArc
 50
-90.135460971867
 51
-71.611184392826
  0
ARC
  5
316
100
AcDbEntity
  8
1
  6
CONTINUOUS
 62
           7
100
AcDbCircle
 10
11423.31665117193
 20
-3262.466682152405
 40
7.735460032014
100
AcDbArc
 50
55.77150419692
 51
114.020677081011
  0
ARC
  5
315
100
AcDbEntity
  8
1
  6
CONTINUOUS
 62
           7
100
AcDbCircle
 10
11436.328060117759
 20
-3283.391504739144
 40
28.660254037845
100
AcDbArc
 50
72.412046225995
 51
107.587953773984
  0
ARC
  5
314
100
AcDbEntity
  8
1
  6
CONTINUOUS
 62
           7
100
AcDbCircle
 10
11449.339469063591
 20
-3262.466682152405
 40
7.735460032015
100
AcDbArc
 50
65.979322918927
 51
124.228495803024
  0
ARC
  5
313
100
AcDbEntity
  8
1
  6
CONTINUOUS
 62
           7
100
AcDbCircle
 10
11223.31665117193
 20
-3262.466682152405
 40
7.735460032014
100
AcDbArc
 50
55.77150419692
 51
114.020677081011
  0
ARC
  5
312
100
AcDbEntity
  8
1
  6
CONTINUOUS
 62
           7
100
AcDbCircle
 10
11236.328060117759
 20
-3283.391504739144
 40
28.660254037845
100
AcDbArc
 50
72.412046225995
 51
107.587953773984
  0
ARC
  5
311
100
AcDbEntity
  8
1
  6
CONTINUOUS
 62
           7
100
AcDbCircle
 10
11249.3394690636
 20
-3262.466682152405
 40
7.735460032011
100
AcDbArc
 50
65.979322918989
 51
124.22849580308
  0
ARC
  5
310
100
AcDbEntity
  8
1
  6
CONTINUOUS
 62
           7
100
AcDbCircle
 10
13455.203042774279
 20
-1856.913304229002
 40
330.5
100
AcDbArc
 50
-26.991466561592
 51
26.991466561592
  0
ARC
  5
30F
100
AcDbEntity
  8
1
  6
CONTINUOUS
 62
           7
100
AcDbCircle
 10
13240.64748721873
 20
-1856.913304229002
 40
596.05555555555
100
AcDbArc
 50
-30.219150244681
 51
30.219150244681
  0
ARC
  5
30E
100
AcDbEntity
  8
1
  6
CONTINUOUS
 62
           7
100
AcDbCircle
 10
13255.7363967989
 20
-1856.913304229002
 40
577.929967501397
100
AcDbArc
 50
-31.271500898697
 51
31.271500898697
  0
ARC
  5
30D
100
AcDbEntity
  8
1
  6
CONTINUOUS
 62
           7
100
AcDbCircle
 10
13656.43847422539
 20
-1869.924713174834
 40
7.735460032012
100
AcDbArc
 50
145.771504196939
 51
-155.979322918972
  0
ARC
  5
30C
100
AcDbEntity
  8
1
  6
CONTINUOUS
 62
           7
100
AcDbCircle
 10
13677.363296812129
 20
-1856.913304229002
 40
28.660254037844
100
AcDbArc
 50
162.412046226007
 51
-162.412046226005
  0
ARC
  5
30B
100
AcDbEntity
  8
1
  6
CONTINUOUS
 62
           7
100
AcDbCircle
 10
13656.43847422539
 20
-1843.90189528317
 40
7.735460032014
100
AcDbArc
 50
155.979322918978
 51
-145.771504196934
  0
ARC
  5
30A
100
AcDbEntity
  8
1
  6
CONTINUOUS
 62
           7
100
AcDbCircle
 10
13656.438474225381
 20
-1843.901895283171
 40
7.735460032006
100
AcDbArc
 50
155.979322918945
 51
-145.771504196901
  0
ARC
  5
309
100
AcDbEntity
  8
1
  6
CONTINUOUS
 62
           7
100
AcDbCircle
 10
13677.36329681212
 20
-1856.913304229002
 40
28.660254037836
100
AcDbArc
 50
162.412046226001
 51
-162.412046225999
  0
ARC
  5
308
100
AcDbEntity
  8
1
  6
CONTINUOUS
 62
           7
100
AcDbCircle
 10
13656.438474225381
 20
-1869.924713174834
 40
7.735460032005
100
AcDbArc
 50
145.771504196901
 51
-155.979322918945
  0
LINE
  5
307
100
AcDbEntity
  8
1
  6
DOT_CENTER
 62
           2
100
AcDbLine
 10
11735.036767917531
 20
-4264.910029498482
 11
10925.58995209466
 21
-3455.463213675612
  0
LINE
  5
306
100
AcDbEntity
  8
1
  6
DOT_CENTER
 62
           2
100
AcDbLine
 10
10989.395451089649
 20
-1856.913304229002
 11
11684.705420320821
 21
-1856.913304229002
  0
LINE
  5
305
100
AcDbEntity
  8
1
  6
CONTINUOUS
 62
           7
100
AcDbLine
 10
11050.05993515869
 20
-3437.624300708174
 11
11053.39509777957
 21
-3442.611954494502
  0
LINE
  5
304
100
AcDbEntity
  8
1
  6
CONTINUOUS
 62
           7
100
AcDbLine
 10
11622.59618507684
 20
-3437.624300708174
 11
11619.26102245595
 21
-3442.611954494502
  0
LINE
  5
303
100
AcDbEntity
  8
1
  6
CONTINUOUS
 62
           2
100
AcDbLine
 10
11390.328060117759
 20
-3235.0312507013
 11
11381.227948759049
 21
-3235.0312507013
  0
LINE
  5
302
100
AcDbEntity
  8
1
  6
CONTINUOUS
 62
           2
100
AcDbLine
 10
11381.227948759049
 20
-3290.0312507013
 11
11390.328060117759
 21
-3290.0312507013
  0
LINE
  5
301
100
AcDbEntity
  8
1
  6
CONTINUOUS
 62
           2
100
AcDbLine
 10
11391.328060117759
 20
-3291.5312507013
 11
11391.328060117759
 21
-3291.0312507013
  0
LINE
  5
300
100
AcDbEntity
  8
1
  6
CONTINUOUS
 62
           2
100
AcDbLine
 10
11391.328060117759
 20
-3291.5312507013
 11
11396.328060117759
 21
-3291.5312507013
  0
LINE
  5
2FF
100
AcDbEntity
  8
1
  6
CONTINUOUS
 62
           2
100
AcDbLine
 10
11396.328060117759
 20
-3291.5312507013
 11
11396.328060117759
 21
-3233.5312507013
  0
LINE
  5
2FE
100
AcDbEntity
  8
1
  6
CONTINUOUS
 62
           2
100
AcDbLine
 10
11396.328060117759
 20
-3233.5312507013
 11
11391.328060117759
 21
-3233.5312507013
  0
LINE
  5
2FD
100
AcDbEntity
  8
1
  6
CONTINUOUS
 62
           2
100
AcDbLine
 10
11391.328060117759
 20
-3233.5312507013
 11
11391.328060117759
 21
-3234.0312507013
  0
LINE
  5
2FC
100
AcDbEntity
  8
1
  6
CONTINUOUS
 62
           2
100
AcDbLine
 10
11391.328060117759
 20
-3234.172495709271
 11
11391.328060117759
 21
-3291.5312507013
  0
LINE
  5
2FB
100
AcDbEntity
  8
1
  6
DOT_CENTER
 62
           2
100
AcDbLine
 10
10918.563873110021
 20
-4283.495437709047
 11
11742.295044506231
 21
-3459.764266312833
  0
LINE
  5
2FA
100
AcDbEntity
  8
1
  6
CONTINUOUS
 62
           2
100
AcDbLine
 10
10678.829333259349
 20
-3844.731250701301
 11
10727.32806011777
 21
-3844.731250701301
  0
LINE
  5
2F9
100
AcDbEntity
  8
1
  6
CONTINUOUS
 62
           2
100
AcDbLine
 10
10715.829333259349
 20
-3877.2312507013
 11
10727.32806011777
 21
-3877.2312507013
  0
LINE
  5
2F8
100
AcDbEntity
  8
1
  6
CONTINUOUS
 62
           2
100
AcDbLine
 10
11323.5205047608
 20
-3237.783781799295
 11
11336.328060117759
 21
-3230.389336266291
  0
LINE
  5
2F7
100
AcDbEntity
  8
1
  6
CONTINUOUS
 62
           2
100
AcDbLine
 10
11336.328060117759
 20
-3230.389336266291
 11
11349.13561547473
 21
-3237.783781799295
  0
LINE
  5
2F6
100
AcDbEntity
  8
1
  6
DOT_CENTER
 62
           2
100
AcDbLine
 10
11288.78329183974
 20
-3262.5312507013
 11
11413.218183580129
 21
-3262.5312507013
  0
LINE
  5
2F5
100
AcDbEntity
  8
1
  6
CONTINUOUS
 62
           2
100
AcDbLine
 10
11301.82651558519
 20
-3300.10642716656
 11
11301.82651558519
 21
-3265.91705806132
  0
LINE
  5
2F4
100
AcDbEntity
  8
1
  6
CONTINUOUS
 62
           2
100
AcDbLine
 10
11370.82960465034
 20
-3265.471958747783
 11
11370.82960465034
 21
-3300.10642716656
  0
LINE
  5
2F3
100
AcDbEntity
  8
1
  6
CONTINUOUS
 62
           2
100
AcDbLine
 10
11370.82960465034
 20
-3300.10642716656
 11
11370.82960465034
 21
-3292.995933206098
  0
LINE
  5
2F2
100
AcDbEntity
  8
1
  6
CONTINUOUS
 62
           2
100
AcDbLine
 10
11300.32651558519
 20
-3310.491250701301
 11
11336.328060117759
 21
-3310.491250701301
  0
LINE
  5
2F1
100
AcDbEntity
  8
1
  6
CONTINUOUS
 62
           2
100
AcDbLine
 10
11372.32960465034
 20
-3305.491250701301
 11
11370.82960465034
 21
-3305.491250701301
  0
LINE
  5
2F0
100
AcDbEntity
  8
1
  6
CONTINUOUS
 62
           2
100
AcDbLine
 10
11300.32651558519
 20
-3305.491250701301
 11
11301.82651558519
 21
-3305.491250701301
  0
LINE
  5
2EF
100
AcDbEntity
  8
1
  6
CONTINUOUS
 62
           2
100
AcDbLine
 10
11301.82651558519
 20
-3305.491250701301
 11
11370.82960465034
 21
-3305.491250701301
  0
LINE
  5
2EE
100
AcDbEntity
  8
1
  6
CONTINUOUS
 62
           2
100
AcDbLine
 10
11300.32651558519
 20
-3310.491250701301
 11
11300.32651558519
 21
-3305.491250701301
  0
LINE
  5
2ED
100
AcDbEntity
  8
1
  6
CONTINUOUS
 62
           2
100
AcDbLine
 10
11372.32960465034
 20
-3310.491250701301
 11
11372.32960465034
 21
-3305.491250701301
  0
LINE
  5
2EC
100
AcDbEntity
  8
1
  6
CONTINUOUS
 62
           2
100
AcDbLine
 10
11336.328060117759
 20
-3310.491250701301
 11
11372.32960465034
 21
-3310.491250701301
  0
LINE
  5
2EB
100
AcDbEntity
  8
1
  6
CONTINUOUS
 62
           2
100
AcDbLine
 10
11301.82651558519
 20
-3300.10642716656
 11
11301.82651558519
 21
-3290.995933206098
  0
LINE
  5
2EA
100
AcDbEntity
  8
1
  6
CONTINUOUS
 62
           2
100
AcDbLine
 10
11306.078060117759
 20
-3321.611250701301
 11
11306.52106011776
 21
-3310.491250701301
  0
LINE
  5
2E9
100
AcDbEntity
  8
1
  6
CONTINUOUS
 62
           2
100
AcDbLine
 10
11366.13506011776
 20
-3310.491250701301
 11
11366.578060117759
 21
-3321.611250701301
  0
LINE
  5
2E8
100
AcDbEntity
  8
1
  6
CONTINUOUS
 62
           2
100
AcDbLine
 10
11306.52106011776
 20
-3336.7312507013
 11
11306.078060117759
 21
-3325.611250701301
  0
LINE
  5
2E7
100
AcDbEntity
  8
1
  6
CONTINUOUS
 62
           2
100
AcDbLine
 10
11366.13506011776
 20
-3336.7312507013
 11
11366.578060117759
 21
-3325.611250701301
  0
LINE
  5
2E6
100
AcDbEntity
  8
1
  6
CONTINUOUS
 62
           2
100
AcDbLine
 10
11306.078060117759
 20
-3321.611250701301
 11
11306.078060117759
 21
-3325.611250701301
  0
LINE
  5
2E5
100
AcDbEntity
  8
1
  6
CONTINUOUS
 62
           2
100
AcDbLine
 10
11366.578060117759
 20
-3325.611250701301
 11
11366.578060117759
 21
-3321.611250701301
  0
LINE
  5
2E4
100
AcDbEntity
  8
1
  6
CONTINUOUS
 62
           2
100
AcDbLine
 10
11306.078060117759
 20
-3321.611250701301
 11
11366.578060117759
 21
-3321.611250701301
  0
LINE
  5
2E3
100
AcDbEntity
  8
1
  6
CONTINUOUS
 62
           2
100
AcDbLine
 10
11366.578060117759
 20
-3325.611250701301
 11
11306.078060117759
 21
-3325.611250701301
  0
LINE
  5
2E2
100
AcDbEntity
  8
1
  6
CONTINUOUS
 62
           2
100
AcDbLine
 10
11303.17806011776
 20
-3336.7312507013
 11
11369.478060117761
 21
-3336.7312507013
  0
LINE
  5
2E1
100
AcDbEntity
  8
1
  6
CONTINUOUS
 62
           2
100
AcDbLine
 10
11303.17806011776
 20
-3336.7312507013
 11
11303.17806011776
 21
-3351.799273198441
  0
LINE
  5
2E0
100
AcDbEntity
  8
1
  6
CONTINUOUS
 62
           2
100
AcDbLine
 10
11369.478060117761
 20
-3336.7312507013
 11
11369.478060117761
 21
-3351.79927319844
  0
LINE
  5
2DF
100
AcDbEntity
  8
1
  6
CONTINUOUS
 62
           2
100
AcDbLine
 10
11303.17806011776
 20
-3336.7312507013
 11
11369.478060117761
 21
-3336.7312507013
  0
LINE
  5
2DE
100
AcDbEntity
  8
1
  6
CONTINUOUS
 62
           2
100
AcDbLine
 10
10704.517635596259
 20
-3865.7312507013
 11
10676.829333259349
 21
-3865.7312507013
  0
LINE
  5
2DD
100
AcDbEntity
  8
1
  6
CONTINUOUS
 62
           2
100
AcDbLine
 10
10727.32806011777
 20
-3879.731250701301
 11
10678.829333259349
 21
-3879.731250701301
  0
LINE
  5
2DC
100
AcDbEntity
  8
1
  6
CONTINUOUS
 62
           2
100
AcDbLine
 10
10676.829333259349
 20
-3877.731250701301
 11
10676.829333259349
 21
-3846.731250701301
  0
LINE
  5
2DB
100
AcDbEntity
  8
1
  6
DOT_CENTER
 62
           2
100
AcDbLine
 10
10704.99903325935
 20
-3865.7312507013
 11
10726.659633259351
 21
-3865.7312507013
  0
LINE
  5
2DA
100
AcDbEntity
  8
1
  6
DOT_CENTER
 62
           2
100
AcDbLine
 10
10715.829333259349
 20
-3876.5615507013
 11
10715.829333259349
 21
-3854.9009507013
  0
LINE
  5
2D9
100
AcDbEntity
  8
1
  6
CONTINUOUS
 62
           2
100
AcDbLine
 10
10709.829333259349
 20
-3859.7312507013
 11
10721.829333259349
 21
-3871.7312507013
  0
LINE
  5
2D8
100
AcDbEntity
  8
1
  6
CONTINUOUS
 62
           2
100
AcDbLine
 10
10721.829333259349
 20
-3859.7312507013
 11
10709.829333259349
 21
-3871.7312507013
  0
LINE
  5
2D7
100
AcDbEntity
  8
1
  6
CONTINUOUS
 62
           2
100
AcDbLine
 10
10709.829333259349
 20
-3859.7312507013
 11
10721.829333259349
 21
-3859.7312507013
  0
LINE
  5
2D6
100
AcDbEntity
  8
1
  6
CONTINUOUS
 62
           2
100
AcDbLine
 10
10721.829333259349
 20
-3859.7312507013
 11
10721.829333259349
 21
-3871.7312507013
  0
LINE
  5
2D5
100
AcDbEntity
  8
1
  6
CONTINUOUS
 62
           2
100
AcDbLine
 10
10721.829333259349
 20
-3871.7312507013
 11
10709.829333259349
 21
-3871.7312507013
  0
LINE
  5
2D4
100
AcDbEntity
  8
1
  6
CONTINUOUS
 62
           2
100
AcDbLine
 10
10709.829333259349
 20
-3871.7312507013
 11
10709.829333259349
 21
-3859.7312507013
  0
LINE
  5
2D3
100
AcDbEntity
  8
1
  6
DOT_CENTER
 62
           2
100
AcDbLine
 10
10715.829333259349
 20
-3888.171694185613
 11
10715.829333259349
 21
-3840.057057422548
  0
LINE
  5
2D2
100
AcDbEntity
  8
1
  6
CONTINUOUS
 62
           2
100
AcDbLine
 10
10727.32806011777
 20
-3854.2312507013
 11
10715.829333259349
 21
-3854.2312507013
  0
LINE
  5
2D1
100
AcDbEntity
  8
1
  6
DOT_CENTER
 62
           2
100
AcDbLine
 10
10654.954699389271
 20
-3865.7312507013
 11
10928.902652291779
 21
-3865.7312507013
  0
LINE
  5
2D0
100
AcDbEntity
  8
1
  6
CONTINUOUS
 62
           7
100
AcDbLine
 10
10727.32806011777
 20
-3773.2312507013
 11
10745.328060117759
 21
-3773.2312507013
  0
LINE
  5
2CF
100
AcDbEntity
  8
1
  6
CONTINUOUS
 62
           7
100
AcDbLine
 10
10745.328060117759
 20
-3773.2312507013
 11
10745.328060117759
 21
-3958.2312507013
  0
LINE
  5
2CE
100
AcDbEntity
  8
1
  6
CONTINUOUS
 62
           7
100
AcDbLine
 10
10745.328060117759
 20
-3958.2312507013
 11
10727.32806011777
 21
-3958.2312507013
  0
LINE
  5
2CD
100
AcDbEntity
  8
1
  6
CONTINUOUS
 62
           7
100
AcDbLine
 10
10727.32806011777
 20
-3958.2312507013
 11
10727.32806011777
 21
-3773.2312507013
  0
LINE
  5
2CC
100
AcDbEntity
  8
1
  6
CONTINUOUS
 62
           7
100
AcDbLine
 10
10745.328060117759
 20
-3821.1812507013
 11
10829.32643475871
 21
-3821.1812507013
  0
LINE
  5
2CB
100
AcDbEntity
  8
1
  6
CONTINUOUS
 62
           7
100
AcDbLine
 10
10745.328060117759
 20
-3910.2812507013
 11
10829.314411028799
 21
-3910.281250701301
  0
LINE
  5
2CA
100
AcDbEntity
  8
1
  6
CONTINUOUS
 62
           7
100
AcDbLine
 10
11843.340217566971
 20
-3910.2812507013
 11
11927.328060117759
 21
-3910.2812507013
  0
LINE
  5
2C9
100
AcDbEntity
  8
1
  6
CONTINUOUS
 62
           7
100
AcDbLine
 10
11843.394717168139
 20
-3821.1812507013
 11
11927.328060117759
 21
-3821.1812507013
  0
LINE
  5
2C8
100
AcDbEntity
  8
1
  6
CONTINUOUS
 62
           7
100
AcDbLine
 10
11945.328060117759
 20
-3773.2312507013
 11
11945.328060117759
 21
-3958.2312507013
  0
LINE
  5
2C7
100
AcDbEntity
  8
1
  6
CONTINUOUS
 62
           7
100
AcDbLine
 10
11945.328060117759
 20
-3958.2312507013
 11
11927.328060117759
 21
-3958.2312507013
  0
LINE
  5
2C6
100
AcDbEntity
  8
1
  6
CONTINUOUS
 62
           7
100
AcDbLine
 10
11927.328060117759
 20
-3958.2312507013
 11
11927.328060117759
 21
-3773.2312507013
  0
LINE
  5
2C5
100
AcDbEntity
  8
1
  6
CONTINUOUS
 62
           7
100
AcDbLine
 10
11927.328060117759
 20
-3773.2312507013
 11
11945.328060117759
 21
-3773.2312507013
  0
LINE
  5
2C4
100
AcDbEntity
  8
1
  6
DOT_CENTER
 62
           2
100
AcDbLine
 10
10678.584020832241
 20
-3865.7312507013
 11
12019.94092791681
 21
-3865.7312507013
  0
LINE
  5
2C3
100
AcDbEntity
  8
1
  6
DOT_CENTER
 62
           2
100
AcDbLine
 10
14175.447547338919
 20
-842.942467503343
 11
14211.139100179969
 21
-857.726392752266
  0
LINE
  5
2C2
100
AcDbEntity
  8
1
  6
DOT_CENTER
 62
           2
100
AcDbLine
 10
14175.44754733891
 20
-916.884140954661
 11
14211.139100179969
 21
-902.100215705738
  0
LINE
  5
2C1
100
AcDbEntity
  8
1
  6
DOT_CENTER
 62
           2
100
AcDbLine
 10
14353.95853820965
 20
-916.884140954661
 11
14318.266985368589
 21
-902.100215705738
  0
LINE
  5
2C0
100
AcDbEntity
  8
1
  6
DOT_CENTER
 62
           2
100
AcDbLine
 10
14353.95853820965
 20
-842.942467503343
 11
14318.266985368589
 21
-857.726392752266
  0
LINE
  5
2BF
100
AcDbEntity
  8
1
  6
DOT_CENTER
 62
           2
100
AcDbLine
 10
14227.73220604862
 20
-969.168799664368
 11
14242.51613129754
 21
-933.477246823311
  0
LINE
  5
2BE
100
AcDbEntity
  8
1
  6
DOT_CENTER
 62
           2
100
AcDbLine
 10
14286.889954251021
 20
-933.477246823311
 11
14301.67387949994
 21
-969.168799664368
  0
LINE
  5
2BD
100
AcDbEntity
  8
1
  6
DOT_CENTER
 62
           2
100
AcDbLine
 10
14242.51613129754
 20
-826.349361634692
 11
14227.73220604862
 21
-790.657808793637
  0
LINE
  5
2BC
100
AcDbEntity
  8
1
  6
DOT_CENTER
 62
           2
100
AcDbLine
 10
14301.67387949994
 20
-790.657808793637
 11
14286.889954251021
 21
-826.349361634692
  0
LINE
  5
2BB
100
AcDbEntity
  8
1
  6
DOTTED
 62
           2
100
AcDbLine
 10
14251.50304277428
 20
-2580.788332602272
 11
14251.50304277428
 21
-2579.817457591721
  0
LINE
  5
2BA
100
AcDbEntity
  8
1
  6
DOTTED
 62
           2
100
AcDbLine
 10
14277.90304277428
 20
-2580.788332602272
 11
14277.90304277428
 21
-2579.817457591721
  0
LINE
  5
2B9
100
AcDbEntity
  8
1
  6
CONTINUOUS
 62
           2
100
AcDbLine
 10
14251.50304277428
 20
-2589.913304229002
 11
14251.50304277428
 21
-2580.788332602272
  0
LINE
  5
2B8
100
AcDbEntity
  8
1
  6
CONTINUOUS
 62
           2
100
AcDbLine
 10
14277.90304277428
 20
-2589.913304229002
 11
14277.90304277428
 21
-2580.788332602272
  0
LINE
  5
2B7
100
AcDbEntity
  8
1
  6
CONTINUOUS
 62
           2
100
AcDbLine
 10
14251.50304277428
 20
-2589.913304229002
 11
14277.90304277428
 21
-2589.913304229002
  0
LINE
  5
2B6
100
AcDbEntity
  8
1
  6
CONTINUOUS
 62
           2
100
AcDbLine
 10
14267.203042774279
 20
-2637.967997740141
 11
14267.203042774279
 21
-2632.787264201346
  0
LINE
  5
2B5
100
AcDbEntity
  8
1
  6
CONTINUOUS
 62
           2
100
AcDbLine
 10
14262.203042774279
 20
-2637.967997740141
 11
14262.203042774279
 21
-2632.787264201346
  0
LINE
  5
2B4
100
AcDbEntity
  8
1
  6
CONTINUOUS
 62
           2
100
AcDbLine
 10
14272.203042774279
 20
-2635.377630970743
 11
14275.80304277428
 21
-2635.377630970743
  0
LINE
  5
2B3
100
AcDbEntity
  8
1
  6
CONTINUOUS
 62
           2
100
AcDbLine
 10
14264.703042774279
 20
-2627.877630970743
 11
14256.48128291059
 21
-2627.877630970743
  0
LINE
  5
2B2
100
AcDbEntity
  8
1
  6
CONTINUOUS
 62
           2
100
AcDbLine
 10
14255.953042774279
 20
-2623.377630970742
 11
14255.953042774279
 21
-2625.763188709228
  0
LINE
  5
2B1
100
AcDbEntity
  8
1
  6
CONTINUOUS
 62
           2
100
AcDbLine
 10
14257.953042774279
 20
-2621.377630970742
 11
14258.953042774279
 21
-2621.377630970742
  0
LINE
  5
2B0
100
AcDbEntity
  8
1
  6
DOT_CENTER
 62
           2
100
AcDbLine
 10
14230.2021328108
 20
-2635.377630970743
 11
14299.994565022789
 21
-2635.377630970743
  0
LINE
  5
2AF
100
AcDbEntity
  8
1
  6
DOT_CENTER
 62
           2
100
AcDbLine
 10
14264.703042774279
 20
-2669.315833886822
 11
14264.703042774279
 21
-2601.809574112952
  0
LINE
  5
2AE
100
AcDbEntity
  8
1
  6
CONTINUOUS
 62
           2
100
AcDbLine
 10
14257.77483954401
 20
-2635.377630970743
 11
14261.23894115915
 21
-2641.377630970743
  0
LINE
  5
2AD
100
AcDbEntity
  8
1
  6
CONTINUOUS
 62
           2
100
AcDbLine
 10
14261.23894115915
 20
-2629.377630970743
 11
14257.77483954401
 21
-2635.377630970743
  0
LINE
  5
2AC
100
AcDbEntity
  8
1
  6
CONTINUOUS
 62
           2
100
AcDbLine
 10
14268.167144389419
 20
-2629.377630970743
 11
14261.23894115915
 21
-2629.377630970743
  0
LINE
  5
2AB
100
AcDbEntity
  8
1
  6
CONTINUOUS
 62
           2
100
AcDbLine
 10
14271.631246004559
 20
-2635.377630970743
 11
14268.167144389419
 21
-2629.377630970743
  0
LINE
  5
2AA
100
AcDbEntity
  8
1
  6
CONTINUOUS
 62
           2
100
AcDbLine
 10
14268.167144389419
 20
-2641.377630970743
 11
14271.631246004559
 21
-2635.377630970743
  0
LINE
  5
2A9
100
AcDbEntity
  8
1
  6
CONTINUOUS
 62
           2
100
AcDbLine
 10
14261.23894115915
 20
-2641.377630970743
 11
14268.167144389419
 21
-2641.377630970743
  0
LINE
  5
2A8
100
AcDbEntity
  8
1
  6
CONTINUOUS
 62
           2
100
AcDbLine
 10
14271.46198709489
 20
-2664.377630970742
 11
14252.203042774279
 21
-2664.377630970742
  0
LINE
  5
2A7
100
AcDbEntity
  8
1
  6
CONTINUOUS
 62
           2
100
AcDbLine
 10
14270.453042774279
 20
-2607.877630970742
 11
14277.203042774279
 21
-2607.877630970743
  0
LINE
  5
2A6
100
AcDbEntity
  8
1
  6
CONTINUOUS
 62
           2
100
AcDbLine
 10
14253.203042774279
 20
-2628.427630970743
 11
14253.717505385601
 21
-2628.427630970743
  0
LINE
  5
2A5
100
AcDbEntity
  8
1
  6
CONTINUOUS
 62
           2
100
AcDbLine
 10
14234.703042774279
 20
-2629.627630970743
 11
14251.86024323524
 21
-2629.627630970743
  0
LINE
  5
2A4
100
AcDbEntity
  8
1
  6
CONTINUOUS
 62
           2
100
AcDbLine
 10
14251.86024323524
 20
-2641.127630970743
 11
14234.703042774279
 21
-2641.127630970743
  0
LINE
  5
2A3
100
AcDbEntity
  8
1
  6
CONTINUOUS
 62
           2
100
AcDbLine
 10
14294.703042774279
 20
-2641.127630970743
 11
14277.54584231332
 21
-2641.127630970743
  0
LINE
  5
2A2
100
AcDbEntity
  8
1
  6
CONTINUOUS
 62
           2
100
AcDbLine
 10
14294.703042774279
 20
-2629.627630970743
 11
14277.54584231332
 21
-2629.627630970743
  0
LINE
  5
2A1
100
AcDbEntity
  8
1
  6
CONTINUOUS
 62
           2
100
AcDbLine
 10
14253.203042774279
 20
-2629.315453144252
 11
14253.203042774279
 21
-2628.427630970743
  0
LINE
  5
2A0
100
AcDbEntity
  8
1
  6
CONTINUOUS
 62
           2
100
AcDbLine
 10
14275.689284169781
 20
-2628.427630970743
 11
14276.203042774279
 21
-2628.427630970743
  0
LINE
  5
29F
100
AcDbEntity
  8
1
  6
CONTINUOUS
 62
           2
100
AcDbLine
 10
14276.203042774279
 20
-2629.315453144252
 11
14276.203042774279
 21
-2628.427630970743
  0
LINE
  5
29E
100
AcDbEntity
  8
1
  6
CONTINUOUS
 62
           2
100
AcDbLine
 10
14276.792969040351
 20
-2640.156091275173
 11
14277.33679950403
 21
-2640.827630970742
  0
LINE
  5
29D
100
AcDbEntity
  8
1
  6
CONTINUOUS
 62
           2
100
AcDbLine
 10
14234.703042774279
 20
-2629.627630970743
 11
14234.703042774279
 21
-2641.127630970743
  0
LINE
  5
29C
100
AcDbEntity
  8
1
  6
CONTINUOUS
 62
           2
100
AcDbLine
 10
14294.703042774279
 20
-2629.627630970743
 11
14294.703042774279
 21
-2641.127630970743
  0
LINE
  5
29B
100
AcDbEntity
  8
1
  6
CONTINUOUS
 62
           2
100
AcDbLine
 10
14252.06928604454
 20
-2640.827630970742
 11
14252.06928604454
 21
-2654.454855454667
  0
LINE
  5
29A
100
AcDbEntity
  8
1
  6
CONTINUOUS
 62
           2
100
AcDbLine
 10
14277.33679950403
 20
-2627.027630970742
 11
14277.33679950403
 21
-2617.800406486822
  0
LINE
  5
299
100
AcDbEntity
  8
1
  6
CONTINUOUS
 62
           2
100
AcDbLine
 10
14276.203042774279
 20
-2628.427630970743
 11
14277.33679950403
 21
-2627.027630970742
  0
LINE
  5
298
100
AcDbEntity
  8
1
  6
CONTINUOUS
 62
           2
100
AcDbLine
 10
14252.06928604454
 20
-2640.827630970742
 11
14252.61311650821
 21
-2640.156091275169
  0
LINE
  5
297
100
AcDbEntity
  8
1
  6
CONTINUOUS
 62
           2
100
AcDbLine
 10
14252.06928604454
 20
-2627.027630970742
 11
14253.203042774279
 21
-2628.427630970743
  0
LINE
  5
296
100
AcDbEntity
  8
1
  6
CONTINUOUS
 62
           2
100
AcDbLine
 10
14277.33679950403
 20
-2654.454855454667
 11
14277.33679950403
 21
-2640.827630970742
  0
LINE
  5
295
100
AcDbEntity
  8
1
  6
CONTINUOUS
 62
           2
100
AcDbLine
 10
14252.06928604454
 20
-2617.800406486818
 11
14252.06928604454
 21
-2627.027630970742
  0
LINE
  5
294
100
AcDbEntity
  8
1
  6
CONTINUOUS
 62
           2
100
AcDbLine
 10
14277.33679950403
 20
-2654.454855454667
 11
14279.136799504029
 21
-2655.494085939207
  0
LINE
  5
293
100
AcDbEntity
  8
1
  6
CONTINUOUS
 62
           2
100
AcDbLine
 10
14250.26928604454
 20
-2655.494085939207
 11
14252.06928604454
 21
-2654.454855454667
  0
LINE
  5
292
100
AcDbEntity
  8
1
  6
CONTINUOUS
 62
           2
100
AcDbLine
 10
14252.06928604454
 20
-2617.800406486818
 11
14250.26928604454
 21
-2616.761176002282
  0
LINE
  5
291
100
AcDbEntity
  8
1
  6
CONTINUOUS
 62
           2
100
AcDbLine
 10
14279.136799504029
 20
-2616.761176002282
 11
14277.33679950403
 21
-2617.800406486822
  0
LINE
  5
290
100
AcDbEntity
  8
1
  6
CONTINUOUS
 62
           2
100
AcDbLine
 10
14257.486164409411
 20
-2608.994085939205
 11
14257.486164409411
 21
-2621.432888161931
  0
LINE
  5
28F
100
AcDbEntity
  8
1
  6
CONTINUOUS
 62
           2
100
AcDbLine
 10
14271.919921139161
 20
-2608.994085939205
 11
14271.919921139161
 21
-2624.564829915204
  0
LINE
  5
28E
100
AcDbEntity
  8
1
  6
CONTINUOUS
 62
           2
100
AcDbLine
 10
14250.26928604454
 20
-2608.994085939205
 11
14250.26928604454
 21
-2616.761176002282
  0
LINE
  5
28D
100
AcDbEntity
  8
1
  6
CONTINUOUS
 62
           2
100
AcDbLine
 10
14252.203042774279
 20
-2607.877630970742
 11
14271.049208096871
 21
-2607.877630970742
  0
LINE
  5
28C
100
AcDbEntity
  8
1
  6
CONTINUOUS
 62
           2
100
AcDbLine
 10
14279.136799504029
 20
-2608.994085939205
 11
14279.136799504029
 21
-2616.761176002282
  0
LINE
  5
28B
100
AcDbEntity
  8
1
  6
CONTINUOUS
 62
           2
100
AcDbLine
 10
14250.26928604454
 20
-2608.994085939205
 11
14252.203042774279
 21
-2607.877630970742
  0
LINE
  5
28A
100
AcDbEntity
  8
1
  6
CONTINUOUS
 62
           2
100
AcDbLine
 10
14277.203042774279
 20
-2607.877630970743
 11
14279.136799504029
 21
-2608.994085939205
  0
LINE
  5
289
100
AcDbEntity
  8
1
  6
CONTINUOUS
 62
           2
100
AcDbLine
 10
14257.486164409411
 20
-2663.261176002278
 11
14257.486164409411
 21
-2646.190432026283
  0
LINE
  5
288
100
AcDbEntity
  8
1
  6
CONTINUOUS
 62
           2
100
AcDbLine
 10
14271.919921139161
 20
-2663.261176002278
 11
14271.919921139161
 21
-2646.190432026283
  0
LINE
  5
287
100
AcDbEntity
  8
1
  6
CONTINUOUS
 62
           2
100
AcDbLine
 10
14250.26928604454
 20
-2663.261176002278
 11
14250.26928604454
 21
-2655.494085939207
  0
LINE
  5
286
100
AcDbEntity
  8
1
  6
CONTINUOUS
 62
           2
100
AcDbLine
 10
14277.203042774279
 20
-2664.377630970742
 11
14270.453042774279
 21
-2664.377630970742
  0
LINE
  5
285
100
AcDbEntity
  8
1
  6
CONTINUOUS
 62
           2
100
AcDbLine
 10
14279.136799504029
 20
-2663.261176002278
 11
14279.136799504029
 21
-2655.494085939207
  0
LINE
  5
284
100
AcDbEntity
  8
1
  6
CONTINUOUS
 62
           2
100
AcDbLine
 10
14252.203042774279
 20
-2664.377630970742
 11
14250.26928604454
 21
-2663.261176002278
  0
LINE
  5
283
100
AcDbEntity
  8
1
  6
CONTINUOUS
 62
           2
100
AcDbLine
 10
14279.136799504029
 20
-2663.261176002278
 11
14277.203042774279
 21
-2664.377630970742
  0
LINE
  5
282
100
AcDbEntity
  8
1
  6
CONTINUOUS
 62
           2
100
AcDbLine
 10
14251.50304277428
 20
-2590.197630970743
 11
14277.90304277428
 21
-2590.197630970743
  0
LINE
  5
281
100
AcDbEntity
  8
1
  6
CONTINUOUS
 62
           2
100
AcDbLine
 10
14254.22554277428
 20
-2607.877630970743
 11
14253.853042774281
 21
-2600.537630970743
  0
LINE
  5
280
100
AcDbEntity
  8
1
  6
CONTINUOUS
 62
           2
100
AcDbLine
 10
14275.18054277428
 20
-2607.877630970743
 11
14275.55304277428
 21
-2600.537630970743
  0
LINE
  5
27F
100
AcDbEntity
  8
1
  6
CONTINUOUS
 62
           2
100
AcDbLine
 10
14275.55304277428
 20
-2597.537630970743
 11
14275.18054277428
 21
-2590.197630970743
  0
LINE
  5
27E
100
AcDbEntity
  8
1
  6
CONTINUOUS
 62
           2
100
AcDbLine
 10
14253.853042774281
 20
-2597.537630970743
 11
14254.22554277428
 21
-2590.197630970743
  0
LINE
  5
27D
100
AcDbEntity
  8
1
  6
CONTINUOUS
 62
           2
100
AcDbLine
 10
14253.853042774281
 20
-2597.537630970743
 11
14253.853042774281
 21
-2600.537630970743
  0
LINE
  5
27C
100
AcDbEntity
  8
1
  6
CONTINUOUS
 62
           2
100
AcDbLine
 10
14275.55304277428
 20
-2600.537630970743
 11
14253.853042774281
 21
-2600.537630970743
  0
LINE
  5
27B
100
AcDbEntity
  8
1
  6
CONTINUOUS
 62
           2
100
AcDbLine
 10
14253.853042774281
 20
-2597.537630970743
 11
14275.55304277428
 21
-2597.537630970743
  0
LINE
  5
27A
100
AcDbEntity
  8
1
  6
CONTINUOUS
 62
           2
100
AcDbLine
 10
14275.55304277428
 20
-2597.537630970743
 11
14275.55304277428
 21
-2600.537630970743
  0
LINE
  5
279
100
AcDbEntity
  8
1
  6
CONTINUOUS
 62
           2
100
AcDbLine
 10
14252.203042774279
 20
-2607.877630970742
 11
14277.203042774279
 21
-2607.877630970743
  0
LINE
  5
278
100
AcDbEntity
  8
1
  6
CONTINUOUS
 62
           2
100
AcDbLine
 10
14264.703042774279
 20
-2617.177842668952
 11
14264.703042774279
 21
-2608.994085939204
  0
LINE
  5
277
100
AcDbEntity
  8
1
  6
DOT_CENTER
 62
           2
100
AcDbLine
 10
14264.703042774279
 20
-2667.605210793513
 11
14264.703042774279
 21
-2604.165107588792
  0
LINE
  5
276
100
AcDbEntity
  8
1
  6
DOTTED
 62
           2
100
AcDbLine
 10
14251.50304277428
 20
-2581.072659344012
 11
14251.50304277428
 21
-2580.101784333461
  0
LINE
  5
275
100
AcDbEntity
  8
1
  6
DOTTED
 62
           2
100
AcDbLine
 10
14277.90304277428
 20
-2581.072659344012
 11
14277.90304277428
 21
-2580.101784333461
  0
LINE
  5
274
100
AcDbEntity
  8
1
  6
CONTINUOUS
 62
           2
100
AcDbLine
 10
14251.50304277428
 20
-2590.197630970743
 11
14251.50304277428
 21
-2581.072659344012
  0
LINE
  5
273
100
AcDbEntity
  8
1
  6
CONTINUOUS
 62
           2
100
AcDbLine
 10
14277.90304277428
 20
-2590.197630970743
 11
14277.90304277428
 21
-2581.072659344012
  0
LINE
  5
272
100
AcDbEntity
  8
1
  6
CONTINUOUS
 62
           2
100
AcDbLine
 10
14251.50304277428
 20
-2590.197630970743
 11
14277.90304277428
 21
-2590.197630970743
  0
LINE
  5
271
100
AcDbEntity
  8
1
  6
CONTINUOUS
 62
           7
100
AcDbLine
 10
13709.46304277428
 20
-850.106304229002
 11
13720.58304277428
 21
-849.663304229002
  0
LINE
  5
270
100
AcDbEntity
  8
1
  6
CONTINUOUS
 62
           7
100
AcDbLine
 10
13720.58304277428
 20
-910.163304229002
 11
13709.46304277428
 21
-909.720304229003
  0
LINE
  5
26F
100
AcDbEntity
  8
1
  6
CONTINUOUS
 62
           7
100
AcDbLine
 10
13724.58304277428
 20
-849.663304229002
 11
13735.703042774279
 21
-850.106304229002
  0
LINE
  5
26E
100
AcDbEntity
  8
1
  6
CONTINUOUS
 62
           7
100
AcDbLine
 10
13724.58304277428
 20
-910.163304229002
 11
13735.703042774279
 21
-909.720304229003
  0
LINE
  5
26D
100
AcDbEntity
  8
1
  6
CONTINUOUS
 62
           7
100
AcDbLine
 10
13724.58304277428
 20
-849.663304229002
 11
13720.58304277428
 21
-849.663304229002
  0
LINE
  5
26C
100
AcDbEntity
  8
1
  6
CONTINUOUS
 62
           7
100
AcDbLine
 10
13720.58304277428
 20
-910.163304229002
 11
13724.58304277428
 21
-910.163304229002
  0
LINE
  5
26B
100
AcDbEntity
  8
1
  6
CONTINUOUS
 62
           7
100
AcDbLine
 10
13720.58304277428
 20
-910.163304229002
 11
13720.58304277428
 21
-849.663304229002
  0
LINE
  5
26A
100
AcDbEntity
  8
1
  6
CONTINUOUS
 62
           7
100
AcDbLine
 10
13724.58304277428
 20
-849.663304229002
 11
13724.58304277428
 21
-910.163304229002
  0
LINE
  5
269
100
AcDbEntity
  8
1
  6
CONTINUOUS
 62
           7
100
AcDbLine
 10
13755.703042774279
 20
-846.763304229002
 11
13735.703042774279
 21
-846.763304229002
  0
LINE
  5
268
100
AcDbEntity
  8
1
  6
CONTINUOUS
 62
           7
100
AcDbLine
 10
13755.703042774279
 20
-913.063304229003
 11
13735.703042774279
 21
-913.063304229003
  0
LINE
  5
267
100
AcDbEntity
  8
1
  6
CONTINUOUS
 62
           7
100
AcDbLine
 10
13735.703042774279
 20
-913.063304229003
 11
13735.703042774279
 21
-846.763304229002
  0
LINE
  5
266
100
AcDbEntity
  8
1
  6
CONTINUOUS
 62
           7
100
AcDbLine
 10
14280.703042774279
 20
106.983369964222
 11
14282.203042774279
 21
95.169422637638
  0
LINE
  5
265
100
AcDbEntity
  8
1
  6
CONTINUOUS
 62
           7
100
AcDbLine
 10
14248.703042774279
 20
106.983369964856
 11
14247.203042774279
 21
95.169422637003
  0
LINE
  5
264
100
AcDbEntity
  8
1
  6
CONTINUOUS
 62
           7
100
AcDbLine
 10
14256.703042774279
 20
156.486383460527
 11
14256.703042774279
 21
95.169360198928
  0
LINE
  5
263
100
AcDbEntity
  8
1
  6
CONTINUOUS
 62
           7
100
AcDbLine
 10
14272.703042774279
 20
156.486383460527
 11
14272.703042774279
 21
95.169360198928
  0
LINE
  5
262
100
AcDbEntity
  8
1
  6
DOT_CENTER
 62
           2
100
AcDbLine
 10
14264.703042774279
 20
269.659688471727
 11
14264.703042774279
 21
-3028.262756783743
  0
LINE
  5
261
100
AcDbEntity
  8
1
  6
CONTINUOUS
 62
           7
100
AcDbLine
 10
14773.703042774279
 20
-2356.913304229002
 11
13755.703042774279
 21
-2356.913304229002
  0
LINE
  5
260
100
AcDbEntity
  8
1
  6
CONTINUOUS
 62
           7
100
AcDbLine
 10
13755.703042774279
 20
-103.913304229002
 11
14773.703042774279
 21
-103.913304229002
  0
LINE
  5
25F
100
AcDbEntity
  8
1
  6
CONTINUOUS
 62
           7
100
AcDbLine
 10
13764.703042774279
 20
-2870.913304229003
 11
14764.703042774279
 21
-2870.913304229003
  0
LINE
  5
25E
100
AcDbEntity
  8
1
  6
CONTINUOUS
 62
           7
100
AcDbLine
 10
14764.703042774279
 20
-2870.913304229003
 11
14764.703042774279
 21
-2879.913304229002
  0
LINE
  5
25D
100
AcDbEntity
  8
1
  6
CONTINUOUS
 62
           7
100
AcDbLine
 10
14764.703042774279
 20
-2879.913304229002
 11
13764.703042774279
 21
-2879.913304229002
  0
LINE
  5
25C
100
AcDbEntity
  8
1
  6
CONTINUOUS
 62
           7
100
AcDbLine
 10
13764.703042774279
 20
-2879.913304229002
 11
13764.703042774279
 21
-2870.913304229003
  0
LINE
  5
25B
100
AcDbEntity
  8
1
  6
CONTINUOUS
 62
           7
100
AcDbLine
 10
13889.703042774279
 20
-2507.639518231792
 11
14639.703042774279
 21
-2507.639518231792
  0
LINE
  5
25A
100
AcDbEntity
  8
1
  6
CONTINUOUS
 62
           7
100
AcDbLine
 10
14364.703042774279
 20
-2670.913304229003
 11
14364.703042774279
 21
-2870.913304229003
  0
LINE
  5
259
100
AcDbEntity
  8
1
  6
CONTINUOUS
 62
           7
100
AcDbLine
 10
14164.703042774279
 20
-2670.913304229003
 11
14164.703042774279
 21
-2870.913304229003
  0
LINE
  5
258
100
AcDbEntity
  8
1
  6
DOT_CENTER
 62
           2
100
AcDbLine
 10
13608.897607475859
 20
-879.913304229002
 11
14553.820734725559
 21
-879.913304229002
  0
LINE
  5
257
100
AcDbEntity
  8
1
  6
CONTINUOUS
 62
           7
100
AcDbLine
 10
14773.703042774279
 20
-103.913304229002
 11
14773.703042774279
 21
-998.968909250565
  0
LINE
  5
256
100
AcDbEntity
  8
1
  6
CONTINUOUS
 62
           7
100
AcDbLine
 10
14773.703042774279
 20
-2356.913304229002
 11
14773.703042774279
 21
-924.463304229002
  0
LINE
  5
255
100
AcDbEntity
  8
1
  6
CONTINUOUS
 62
           7
100
AcDbLine
 10
13755.703042774279
 20
-103.913304229002
 11
13755.703042774279
 21
-1556.913304229002
  0
LINE
  5
254
100
AcDbEntity
  8
1
  6
CONTINUOUS
 62
           7
100
AcDbLine
 10
13755.703042774279
 20
-2356.913304229002
 11
13755.703042774279
 21
-2156.913304229002
  0
LINE
  5
253
100
AcDbEntity
  8
1
  6
DOT_CENTER
 62
           2
100
AcDbLine
 10
11120.33685638347
 20
84.360055171469
 11
11100.487038473961
 21
173.896797612058
  0
LINE
  5
252
100
AcDbEntity
  8
1
  6
DOT_CENTER
 62
           2
100
AcDbLine
 10
11064.812584398511
 20
119.240976923428
 11
11153.31121968037
 21
138.860652016601
  0
LINE
  5
251
100
AcDbEntity
  8
1
  6
CONTINUOUS
 62
           7
100
AcDbLine
 10
11103.32311963551
 20
105.244407726075
 11
11128.044603513539
 21
110.725028754446
  0
LINE
  5
250
100
AcDbEntity
  8
1
  6
CONTINUOUS
 62
           7
100
AcDbLine
 10
11134.93523925816
 20
99.253157164439
 11
11131.934036456239
 21
109.080005843792
  0
LINE
  5
24F
100
AcDbEntity
  8
1
  6
CONTINUOUS
 62
           7
100
AcDbLine
 10
11099.379139192401
 20
101.862758877512
 11
11100.81213142981
 21
91.688246286105
  0
LINE
  5
24E
100
AcDbEntity
  8
1
  6
CONTINUOUS
 62
           7
100
AcDbLine
 10
11100.81213142981
 20
91.688246286105
 11
11100.855309529619
 21
91.381673711095
  0
LINE
  5
24D
100
AcDbEntity
  8
1
  6
CONTINUOUS
 62
           7
100
AcDbLine
 10
11114.693895445151
 20
109.813807061809
 11
11101.3523872405
 21
105.110487038956
  0
LINE
  5
24C
100
AcDbEntity
  8
1
  6
CONTINUOUS
 62
           7
100
AcDbLine
 10
11135.025669778821
 20
98.957060198927
 11
11134.93523925816
 21
99.253157164439
  0
LINE
  5
24B
100
AcDbEntity
  8
1
  6
CONTINUOUS
 62
           7
100
AcDbLine
 10
11128.7731171543
 20
111.189516506619
 11
11114.693895445151
 21
109.813807061809
  0
LINE
  5
24A
100
AcDbEntity
  8
1
  6
CONTINUOUS
 62
           7
100
AcDbLine
 10
11100.855309529619
 20
91.381673711095
 11
11135.025669778821
 21
98.957060198927
  0
LINE
  5
249
100
AcDbEntity
  8
1
  6
CONTINUOUS
 62
           7
100
AcDbLine
 10
11537.630450456711
 20
98.957060198927
 11
11571.80081070591
 21
91.381673711095
  0
LINE
  5
248
100
AcDbEntity
  8
1
  6
CONTINUOUS
 62
           7
100
AcDbLine
 10
11557.962224790381
 20
109.813807061809
 11
11543.88300308123
 21
111.189516506619
  0
LINE
  5
247
100
AcDbEntity
  8
1
  6
CONTINUOUS
 62
           7
100
AcDbLine
 10
11537.720880977369
 20
99.253157164439
 11
11537.630450456711
 21
98.957060198927
  0
LINE
  5
246
100
AcDbEntity
  8
1
  6
CONTINUOUS
 62
           7
100
AcDbLine
 10
11571.303732995029
 20
105.110487038956
 11
11557.962224790381
 21
109.813807061809
  0
LINE
  5
245
100
AcDbEntity
  8
1
  6
CONTINUOUS
 62
           7
100
AcDbLine
 10
11571.80081070591
 20
91.381673711095
 11
11571.84398880572
 21
91.688246286105
  0
LINE
  5
244
100
AcDbEntity
  8
1
  6
CONTINUOUS
 62
           7
100
AcDbLine
 10
11571.84398880572
 20
91.688246286105
 11
11573.27698104312
 21
101.862758877512
  0
LINE
  5
243
100
AcDbEntity
  8
1
  6
CONTINUOUS
 62
           7
100
AcDbLine
 10
11540.72208377929
 20
109.080005843792
 11
11537.720880977369
 21
99.253157164439
  0
LINE
  5
242
100
AcDbEntity
  8
1
  6
CONTINUOUS
 62
           7
100
AcDbLine
 10
11544.61151672199
 20
110.725028754446
 11
11569.33300060002
 21
105.244407726075
  0
LINE
  5
241
100
AcDbEntity
  8
1
  6
DOT_CENTER
 62
           2
100
AcDbLine
 10
11519.344900555159
 20
138.860652016601
 11
11607.843535837021
 21
119.240976923428
  0
LINE
  5
240
100
AcDbEntity
  8
1
  6
DOT_CENTER
 62
           2
100
AcDbLine
 10
11572.169081761571
 20
173.896797612058
 11
11552.31926385205
 21
84.360055171469
  0
LINE
  5
23F
100
AcDbEntity
  8
1
  6
CONTINUOUS
 62
           7
100
AcDbLine
 10
10827.328060117759
 20
-2356.913304229002
 11
10827.328060117759
 21
-2074.463304229003
  0
LINE
  5
23E
100
AcDbEntity
  8
1
  6
CONTINUOUS
 62
           7
100
AcDbLine
 10
10827.328060117759
 20
-103.913304229002
 11
10827.328060117759
 21
-1985.363304229002
  0
LINE
  5
23D
100
AcDbEntity
  8
1
  6
CONTINUOUS
 62
           7
100
AcDbLine
 10
11845.328060117759
 20
-2356.913304229002
 11
11845.328060117759
 21
-924.463304229002
  0
LINE
  5
23C
100
AcDbEntity
  8
1
  6
CONTINUOUS
 62
           7
100
AcDbLine
 10
11845.328060117759
 20
-103.913304229002
 11
11845.328060117759
 21
-835.363304229001
  0
LINE
  5
23B
100
AcDbEntity
  8
1
  6
DOT_CENTER
 62
           2
100
AcDbLine
 10
10688.784848558411
 20
-1279.913304229002
 11
10863.63758052067
 21
-1279.913304229002
  0
LINE
  5
23A
100
AcDbEntity
  8
1
  6
CONTINUOUS
 62
           2
100
AcDbLine
 10
10723.328616495701
 20
-1309.562031087419
 11
10706.250991495701
 21
-1309.562031087419
  0
LINE
  5
239
100
AcDbEntity
  8
1
  6
DOT_CENTER
 62
           2
100
AcDbLine
 10
10714.789803995691
 20
-1322.456409087906
 11
10714.789803995691
 21
-1291.776682121232
  0
LINE
  5
238
100
AcDbEntity
  8
1
  6
CONTINUOUS
 62
           2
100
AcDbLine
 10
10708.789803995691
 20
-1318.562031087419
 11
10708.789803995691
 21
-1309.562031087419
  0
LINE
  5
237
100
AcDbEntity
  8
1
  6
CONTINUOUS
 62
           2
100
AcDbLine
 10
10720.789803995691
 20
-1318.562031087419
 11
10708.789803995691
 21
-1318.562031087419
  0
LINE
  5
236
100
AcDbEntity
  8
1
  6
CONTINUOUS
 62
           2
100
AcDbLine
 10
10720.789803995691
 20
-1309.562031087419
 11
10720.789803995691
 21
-1318.562031087419
  0
LINE
  5
235
100
AcDbEntity
  8
1
  6
CONTINUOUS
 62
           2
100
AcDbLine
 10
10723.1208039957
 20
-1302.91203108742
 11
10723.328616495701
 21
-1309.562031087419
  0
LINE
  5
234
100
AcDbEntity
  8
1
  6
CONTINUOUS
 62
           2
100
AcDbLine
 10
10706.4588039957
 20
-1302.91203108742
 11
10706.250991495701
 21
-1309.562031087419
  0
LINE
  5
233
100
AcDbEntity
  8
1
  6
CONTINUOUS
 62
           2
100
AcDbLine
 10
10716.71596783385
 20
-1207.059714802137
 11
10714.789803995691
 21
-1205.902358805991
  0
LINE
  5
232
100
AcDbEntity
  8
1
  6
CONTINUOUS
 62
           2
100
AcDbLine
 10
10714.789803995691
 20
-1205.902358805991
 11
10716.755185608659
 21
-1206.991787623617
  0
LINE
  5
231
100
AcDbEntity
  8
1
  6
CONTINUOUS
 62
           2
100
AcDbLine
 10
10712.82442238273
 20
-1206.991787623617
 11
10714.789803995691
 21
-1205.902358805991
  0
LINE
  5
230
100
AcDbEntity
  8
1
  6
CONTINUOUS
 62
           2
100
AcDbLine
 10
10714.789803995691
 20
-1205.902358805991
 11
10712.86364015754
 21
-1207.059714802137
  0
LINE
  5
22F
100
AcDbEntity
  8
1
  6
DOT_CENTER
 62
           2
100
AcDbLine
 10
10714.789803995691
 20
-1204.232503606286
 11
10714.789803995691
 21
-1291.776682121232
  0
LINE
  5
22E
100
AcDbEntity
  8
1
  6
CONTINUOUS
 62
           2
100
AcDbLine
 10
10714.789803995691
 20
-1205.902358805991
 11
10714.750586220891
 21
-1203.655573992221
  0
LINE
  5
22D
100
AcDbEntity
  8
1
  6
CONTINUOUS
 62
           2
100
AcDbLine
 10
10714.8290217705
 20
-1203.655573992221
 11
10714.789803995691
 21
-1205.902358805991
  0
LINE
  5
22C
100
AcDbEntity
  8
1
  6
DOT_CENTER
 62
           2
100
AcDbLine
 10
10714.789803995691
 20
-1147.099743697869
 11
10714.789803995691
 21
-1201.98537654418
  0
LINE
  5
22B
100
AcDbEntity
  8
1
  6
DOT_CENTER
 62
           2
100
AcDbLine
 10
10669.152610553831
 20
-1193.264577370585
 11
10762.56937206144
 21
-1193.264577370585
  0
LINE
  5
22A
100
AcDbEntity
  8
1
  6
CONTINUOUS
 62
           7
100
AcDbLine
 10
10713.470912982981
 20
-1196.626221306724
 11
10693.606191621589
 21
-1214.298093347139
  0
LINE
  5
229
100
AcDbEntity
  8
1
  6
CONTINUOUS
 62
           7
100
AcDbLine
 10
10711.42816005956
 20
-1194.583468383295
 11
10693.40215710966
 21
-1214.0940588352
  0
LINE
  5
228
100
AcDbEntity
  8
1
  6
CONTINUOUS
 62
           7
100
AcDbLine
 10
10735.009804174841
 20
-1213.485394968289
 11
10739.15121489187
 21
-1217.626805685321
  0
LINE
  5
227
100
AcDbEntity
  8
1
  6
CONTINUOUS
 62
           7
100
AcDbLine
 10
10694.395822715371
 20
-1213.30442774142
 11
10690.25520219779
 21
-1217.445048258996
  0
LINE
  5
226
100
AcDbEntity
  8
1
  6
CONTINUOUS
 62
           7
100
AcDbLine
 10
10712.08980399569
 20
-1154.276442383969
 11
10712.08980399569
 21
-1152.986030713517
  0
LINE
  5
225
100
AcDbEntity
  8
1
  6
CONTINUOUS
 62
           7
100
AcDbLine
 10
10712.08980399569
 20
-1152.986030713517
 11
10717.48980399569
 21
-1152.986030713517
  0
LINE
  5
224
100
AcDbEntity
  8
1
  6
CONTINUOUS
 62
           7
100
AcDbLine
 10
10717.48980399569
 20
-1152.986030713517
 11
10717.48980399569
 21
-1154.282603976848
  0
LINE
  5
223
100
AcDbEntity
  8
1
  6
CONTINUOUS
 62
           7
100
AcDbLine
 10
10681.257559363161
 20
-1215.742119289337
 11
10678.55755936316
 21
-1211.065582108902
  0
LINE
  5
222
100
AcDbEntity
  8
1
  6
CONTINUOUS
 62
           7
100
AcDbLine
 10
10750.978177037099
 20
-1211.040252833952
 11
10748.2781770371
 21
-1215.716790014388
  0
LINE
  5
221
100
AcDbEntity
  8
1
  6
CONTINUOUS
 62
           7
100
AcDbLine
 10
10681.257559363161
 20
-1215.742119289337
 11
10682.39181812354
 21
-1215.087254688699
  0
LINE
  5
220
100
AcDbEntity
  8
1
  6
CONTINUOUS
 62
           7
100
AcDbLine
 10
10750.978177037099
 20
-1211.040252833952
 11
10749.851946706751
 21
-1210.390023449558
  0
LINE
  5
21F
100
AcDbEntity
  8
1
  6
CONTINUOUS
 62
           7
100
AcDbLine
 10
10678.55755936316
 20
-1211.065582108902
 11
10679.68560577961
 21
-1210.414304206706
  0
LINE
  5
21E
100
AcDbEntity
  8
1
  6
CONTINUOUS
 62
           7
100
AcDbLine
 10
10748.2781770371
 20
-1215.716790014388
 11
10747.15531165319
 21
-1215.068503382722
  0
LINE
  5
21D
100
AcDbEntity
  8
1
  6
DOT_CENTER
 62
           2
100
AcDbLine
 10
10746.83079589324
 20
-1211.763452667738
 11
10752.486664692189
 21
-1215.028870041311
  0
LINE
  5
21C
100
AcDbEntity
  8
1
  6
DOT_CENTER
 62
           2
100
AcDbLine
 10
10677.050102257121
 20
-1215.053604328491
 11
10682.98257808269
 21
-1211.628487813637
  0
LINE
  5
21B
100
AcDbEntity
  8
1
  6
CONTINUOUS
 62
           2
100
AcDbLine
 10
10705.78193266834
 20
-1233.264577370585
 11
10707.789803995691
 21
-1233.264577370585
  0
LINE
  5
21A
100
AcDbEntity
  8
1
  6
CONTINUOUS
 62
           2
100
AcDbLine
 10
10705.789803995691
 20
-1231.233056961807
 11
10705.789803995691
 21
-1233.264577370585
  0
LINE
  5
219
100
AcDbEntity
  8
1
  6
CONTINUOUS
 62
           2
100
AcDbLine
 10
10723.789803995691
 20
-1231.233056961807
 11
10723.789803995691
 21
-1233.264577370585
  0
LINE
  5
218
100
AcDbEntity
  8
1
  6
CONTINUOUS
 62
           2
100
AcDbLine
 10
10721.789803995691
 20
-1233.264577370585
 11
10723.789803995691
 21
-1233.264577370585
  0
LINE
  5
217
100
AcDbEntity
  8
1
  6
CONTINUOUS
 62
           2
100
AcDbLine
 10
10707.789803995691
 20
-1233.264577370585
 11
10707.789803995691
 21
-1245.264577370585
  0
LINE
  5
216
100
AcDbEntity
  8
1
  6
CONTINUOUS
 62
           2
100
AcDbLine
 10
10721.789803995691
 20
-1233.264577370585
 11
10721.789803995691
 21
-1245.264577370585
  0
LINE
  5
215
100
AcDbEntity
  8
1
  6
CONTINUOUS
 62
           2
100
AcDbLine
 10
10723.484866495701
 20
-1245.264577370585
 11
10723.4398039957
 21
-1246.706577370585
  0
LINE
  5
214
100
AcDbEntity
  8
1
  6
CONTINUOUS
 62
           2
100
AcDbLine
 10
10706.094741495701
 20
-1245.264577370585
 11
10723.484866495701
 21
-1245.264577370585
  0
LINE
  5
213
100
AcDbEntity
  8
1
  6
CONTINUOUS
 62
           2
100
AcDbLine
 10
10706.094741495701
 20
-1245.264577370585
 11
10706.1398039957
 21
-1246.706577370585
  0
LINE
  5
212
100
AcDbEntity
  8
1
  6
CONTINUOUS
 62
           2
100
AcDbLine
 10
10706.2596289957
 20
-1250.540977370585
 11
10714.789803995691
 21
-1250.540977370585
  0
LINE
  5
211
100
AcDbEntity
  8
1
  6
CONTINUOUS
 62
           2
100
AcDbLine
 10
10707.199178995699
 20
-1253.214577370585
 11
10714.789803995691
 21
-1253.214577370585
  0
LINE
  5
210
100
AcDbEntity
  8
1
  6
CONTINUOUS
 62
           2
100
AcDbLine
 10
10723.1208039957
 20
-1256.914577370585
 11
10723.319978995691
 21
-1250.540977370585
  0
LINE
  5
20F
100
AcDbEntity
  8
1
  6
CONTINUOUS
 62
           2
100
AcDbLine
 10
10722.2648039957
 20
-1256.914577370585
 11
10722.380428995701
 21
-1253.214577370585
  0
LINE
  5
20E
100
AcDbEntity
  8
1
  6
CONTINUOUS
 62
           2
100
AcDbLine
 10
10707.3148039957
 20
-1256.914577370585
 11
10707.199178995699
 21
-1253.214577370585
  0
LINE
  5
20D
100
AcDbEntity
  8
1
  6
CONTINUOUS
 62
           2
100
AcDbLine
 10
10706.4588039957
 20
-1256.914577370585
 11
10706.2596289957
 21
-1250.540977370585
  0
LINE
  5
20C
100
AcDbEntity
  8
1
  6
CONTINUOUS
 62
           2
100
AcDbLine
 10
10707.199178995699
 20
-1253.214577370585
 11
10706.2596289957
 21
-1250.540977370585
  0
LINE
  5
20B
100
AcDbEntity
  8
1
  6
CONTINUOUS
 62
           2
100
AcDbLine
 10
10706.2596289957
 20
-1250.540977370585
 11
10706.1398039957
 21
-1246.706577370585
  0
LINE
  5
20A
100
AcDbEntity
  8
1
  6
CONTINUOUS
 62
           2
100
AcDbLine
 10
10723.319978995691
 20
-1250.540977370585
 11
10723.4398039957
 21
-1246.706577370585
  0
LINE
  5
209
100
AcDbEntity
  8
1
  6
CONTINUOUS
 62
           2
100
AcDbLine
 10
10723.319978995691
 20
-1250.540977370585
 11
10722.380428995701
 21
-1253.214577370585
  0
LINE
  5
208
100
AcDbEntity
  8
1
  6
CONTINUOUS
 62
           2
100
AcDbLine
 10
10714.789803995691
 20
-1253.214577370585
 11
10722.380428995701
 21
-1253.214577370585
  0
LINE
  5
207
100
AcDbEntity
  8
1
  6
CONTINUOUS
 62
           2
100
AcDbLine
 10
10714.789803995691
 20
-1250.540977370585
 11
10723.319978995691
 21
-1250.540977370585
  0
LINE
  5
206
100
AcDbEntity
  8
1
  6
CONTINUOUS
 62
           7
100
AcDbLine
 10
10827.328060117759
 20
-1269.263304229003
 11
10812.328060117759
 21
-1269.263304229003
  0
LINE
  5
205
100
AcDbEntity
  8
1
  6
CONTINUOUS
 62
           7
100
AcDbLine
 10
10827.328060117759
 20
-1290.563304229002
 11
10812.328060117759
 21
-1290.563304229002
  0
LINE
  5
204
100
AcDbEntity
  8
1
  6
CONTINUOUS
 62
           2
100
AcDbLine
 10
10812.328060117759
 20
-1269.263304229003
 11
10812.328060117759
 21
-1290.563304229002
  0
LINE
  5
203
100
AcDbEntity
  8
1
  6
CONTINUOUS
 62
           2
100
AcDbLine
 10
10753.088530854109
 20
-1288.244304229002
 11
10746.68853085411
 21
-1288.563304229002
  0
LINE
  5
202
100
AcDbEntity
  8
1
  6
CONTINUOUS
 62
           2
100
AcDbLine
 10
10737.78853085411
 20
-1271.582304229002
 11
10744.18853085411
 21
-1271.263304229003
  0
LINE
  5
201
100
AcDbEntity
  8
1
  6
CONTINUOUS
 62
           2
100
AcDbLine
 10
10744.18853085411
 20
-1288.563304229002
 11
10737.78853085411
 21
-1288.244304229002
  0
LINE
  5
200
100
AcDbEntity
  8
1
  6
CONTINUOUS
 62
           2
100
AcDbLine
 10
10746.68853085411
 20
-1271.263304229003
 11
10753.088530854109
 21
-1271.582304229002
  0
LINE
  5
1FF
100
AcDbEntity
  8
1
  6
CONTINUOUS
 62
           2
100
AcDbLine
 10
10746.68853085411
 20
-1271.263304229003
 11
10744.18853085411
 21
-1271.263304229003
  0
LINE
  5
1FE
100
AcDbEntity
  8
1
  6
CONTINUOUS
 62
           2
100
AcDbLine
 10
10744.18853085411
 20
-1288.563304229002
 11
10746.68853085411
 21
-1288.563304229002
  0
LINE
  5
1FD
100
AcDbEntity
  8
1
  6
CONTINUOUS
 62
           2
100
AcDbLine
 10
10746.68853085411
 20
-1288.563304229002
 11
10746.68853085411
 21
-1271.263304229003
  0
LINE
  5
1FC
100
AcDbEntity
  8
1
  6
CONTINUOUS
 62
           2
100
AcDbLine
 10
10744.18853085411
 20
-1271.263304229003
 11
10744.18853085411
 21
-1288.563304229002
  0
LINE
  5
1FB
100
AcDbEntity
  8
1
  6
CONTINUOUS
 62
           2
100
AcDbLine
 10
10803.42806011776
 20
-1271.263304229003
 11
10803.42806011776
 21
-1288.563304229002
  0
LINE
  5
1FA
100
AcDbEntity
  8
1
  6
CONTINUOUS
 62
           2
100
AcDbLine
 10
10805.92806011776
 20
-1288.563304229002
 11
10805.92806011776
 21
-1271.263304229003
  0
LINE
  5
1F9
100
AcDbEntity
  8
1
  6
CONTINUOUS
 62
           2
100
AcDbLine
 10
10803.42806011776
 20
-1288.563304229002
 11
10805.92806011776
 21
-1288.563304229002
  0
LINE
  5
1F8
100
AcDbEntity
  8
1
  6
CONTINUOUS
 62
           2
100
AcDbLine
 10
10805.92806011776
 20
-1271.263304229003
 11
10803.42806011776
 21
-1271.263304229003
  0
LINE
  5
1F7
100
AcDbEntity
  8
1
  6
CONTINUOUS
 62
           2
100
AcDbLine
 10
10805.92806011776
 20
-1271.263304229003
 11
10812.328060117759
 21
-1271.582304229002
  0
LINE
  5
1F6
100
AcDbEntity
  8
1
  6
CONTINUOUS
 62
           2
100
AcDbLine
 10
10803.42806011776
 20
-1288.563304229002
 11
10797.02806011776
 21
-1288.244304229002
  0
LINE
  5
1F5
100
AcDbEntity
  8
1
  6
CONTINUOUS
 62
           2
100
AcDbLine
 10
10797.02806011776
 20
-1271.582304229002
 11
10803.42806011776
 21
-1271.263304229003
  0
LINE
  5
1F4
100
AcDbEntity
  8
1
  6
CONTINUOUS
 62
           2
100
AcDbLine
 10
10812.328060117759
 20
-1288.244304229002
 11
10805.92806011776
 21
-1288.563304229002
  0
LINE
  5
1F3
100
AcDbEntity
  8
1
  6
CONTINUOUS
 62
           2
100
AcDbLine
 10
10789.57499450529
 20
-1274.351126402512
 11
10787.634023449789
 21
-1274.351126402512
  0
LINE
  5
1F2
100
AcDbEntity
  8
1
  6
CONTINUOUS
 62
           2
100
AcDbLine
 10
10789.57499450529
 20
-1285.475482055493
 11
10783.3368048353
 21
-1285.475482055493
  0
LINE
  5
1F1
100
AcDbEntity
  8
1
  6
CONTINUOUS
 62
           2
100
AcDbLine
 10
10760.339889376441
 20
-1274.351126402512
 11
10766.77485995642
 21
-1274.351126402512
  0
LINE
  5
1F0
100
AcDbEntity
  8
1
  6
CONTINUOUS
 62
           2
100
AcDbLine
 10
10760.339889376441
 20
-1285.475482055493
 11
10766.77485995642
 21
-1285.475482055493
  0
LINE
  5
1EF
100
AcDbEntity
  8
1
  6
CONTINUOUS
 62
           2
100
AcDbLine
 10
10783.588530854109
 20
-1271.413304229002
 11
10786.088530854109
 21
-1271.413304229002
  0
LINE
  5
1EE
100
AcDbEntity
  8
1
  6
CONTINUOUS
 62
           2
100
AcDbLine
 10
10783.588530854109
 20
-1274.578088332602
 11
10783.588530854109
 21
-1271.413304229002
  0
LINE
  5
1ED
100
AcDbEntity
  8
1
  6
CONTINUOUS
 62
           2
100
AcDbLine
 10
10789.72635302762
 20
-1273.851126402512
 11
10796.1507086806
 21
-1273.851126402512
  0
LINE
  5
1EC
100
AcDbEntity
  8
1
  6
CONTINUOUS
 62
           2
100
AcDbLine
 10
10789.72635302762
 20
-1285.975482055493
 11
10796.1507086806
 21
-1285.975482055493
  0
LINE
  5
1EB
100
AcDbEntity
  8
1
  6
CONTINUOUS
 62
           2
100
AcDbLine
 10
10760.18853085411
 20
-1292.037659881983
 11
10754.026353027621
 21
-1292.037659881983
  0
LINE
  5
1EA
100
AcDbEntity
  8
1
  6
CONTINUOUS
 62
           2
100
AcDbLine
 10
10788.78853085411
 20
-1290.413304229002
 11
10761.126353027619
 21
-1290.413304229002
  0
LINE
  5
1E9
100
AcDbEntity
  8
1
  6
CONTINUOUS
 62
           2
100
AcDbLine
 10
10760.18853085411
 20
-1267.788948576022
 11
10754.026353027621
 21
-1267.788948576022
  0
LINE
  5
1E8
100
AcDbEntity
  8
1
  6
CONTINUOUS
 62
           2
100
AcDbLine
 10
10788.78853085411
 20
-1269.413304229002
 11
10761.126353027619
 21
-1269.413304229002
  0
LINE
  5
1E7
100
AcDbEntity
  8
1
  6
CONTINUOUS
 62
           2
100
AcDbLine
 10
10760.18853085411
 20
-1267.788948576022
 11
10761.126353027619
 21
-1269.413304229002
  0
LINE
  5
1E6
100
AcDbEntity
  8
1
  6
CONTINUOUS
 62
           2
100
AcDbLine
 10
10761.126353027619
 20
-1290.413304229002
 11
10760.18853085411
 21
-1292.037659881983
  0
LINE
  5
1E5
100
AcDbEntity
  8
1
  6
CONTINUOUS
 62
           2
100
AcDbLine
 10
10789.72635302762
 20
-1292.037659881983
 11
10788.78853085411
 21
-1290.413304229002
  0
LINE
  5
1E4
100
AcDbEntity
  8
1
  6
CONTINUOUS
 62
           2
100
AcDbLine
 10
10788.78853085411
 20
-1269.413304229002
 11
10789.72635302762
 21
-1267.788948576022
  0
LINE
  5
1E3
100
AcDbEntity
  8
1
  6
CONTINUOUS
 62
           2
100
AcDbLine
 10
10772.85246287661
 20
-1281.913304229002
 11
10777.32459883161
 21
-1281.913304229002
  0
LINE
  5
1E2
100
AcDbEntity
  8
1
  6
CONTINUOUS
 62
           2
100
AcDbLine
 10
10772.85246287661
 20
-1277.913304229002
 11
10777.32459883161
 21
-1277.913304229002
  0
LINE
  5
1E1
100
AcDbEntity
  8
1
  6
CONTINUOUS
 62
           2
100
AcDbLine
 10
10781.338530854109
 20
-1279.913304229002
 11
10783.588530854109
 21
-1279.913304229002
  0
LINE
  5
1E0
100
AcDbEntity
  8
1
  6
CONTINUOUS
 62
           2
100
AcDbLine
 10
10775.088530854109
 20
-1273.663304229002
 11
10769.37238737728
 21
-1273.663304229002
  0
LINE
  5
1DF
100
AcDbEntity
  8
1
  6
CONTINUOUS
 62
           2
100
AcDbLine
 10
10775.088530854109
 20
-1274.139801537102
 11
10770.088530854109
 21
-1277.026552883051
  0
LINE
  5
1DE
100
AcDbEntity
  8
1
  6
CONTINUOUS
 62
           2
100
AcDbLine
 10
10780.088530854109
 20
-1277.026552883051
 11
10775.088530854109
 21
-1274.139801537102
  0
LINE
  5
1DD
100
AcDbEntity
  8
1
  6
CONTINUOUS
 62
           2
100
AcDbLine
 10
10780.088530854109
 20
-1282.80005557495
 11
10780.088530854109
 21
-1277.026552883051
  0
LINE
  5
1DC
100
AcDbEntity
  8
1
  6
CONTINUOUS
 62
           2
100
AcDbLine
 10
10775.088530854109
 20
-1285.686806920902
 11
10780.088530854109
 21
-1282.80005557495
  0
LINE
  5
1DB
100
AcDbEntity
  8
1
  6
CONTINUOUS
 62
           2
100
AcDbLine
 10
10770.088530854109
 20
-1282.80005557495
 11
10775.088530854109
 21
-1285.686806920902
  0
LINE
  5
1DA
100
AcDbEntity
  8
1
  6
CONTINUOUS
 62
           2
100
AcDbLine
 10
10770.088530854109
 20
-1277.026552883051
 11
10770.088530854109
 21
-1282.80005557495
  0
LINE
  5
1D9
100
AcDbEntity
  8
1
  6
CONTINUOUS
 62
           2
100
AcDbLine
 10
10775.088530854109
 20
-1270.913304229002
 11
10775.088530854109
 21
-1288.913304229002
  0
LINE
  5
1D8
100
AcDbEntity
  8
1
  6
DOT_CENTER
 62
           2
100
AcDbLine
 10
10775.088530854109
 20
-1264.516909878502
 11
10775.088530854109
 21
-1295.265755962701
  0
LINE
  5
1D7
100
AcDbEntity
  8
1
  6
CONTINUOUS
 62
           2
100
AcDbLine
 10
10755.088530854109
 20
-1284.263304229001
 11
10764.365774678579
 21
-1284.263304229001
  0
LINE
  5
1D6
100
AcDbEntity
  8
1
  6
CONTINUOUS
 62
           2
100
AcDbLine
 10
10755.088530854109
 20
-1275.563304229
 11
10755.088530854109
 21
-1284.263304229001
  0
LINE
  5
1D5
100
AcDbEntity
  8
1
  6
CONTINUOUS
 62
           2
100
AcDbLine
 10
10755.088530854109
 20
-1275.563304229
 11
10764.365774678579
 21
-1275.563304229
  0
LINE
  5
1D4
100
AcDbEntity
  8
1
  6
CONTINUOUS
 62
           2
100
AcDbLine
 10
10795.088530854109
 20
-1284.263304229001
 11
10785.81128702965
 21
-1284.263304229001
  0
LINE
  5
1D3
100
AcDbEntity
  8
1
  6
CONTINUOUS
 62
           2
100
AcDbLine
 10
10795.088530854109
 20
-1275.563304229
 11
10795.088530854109
 21
-1284.263304229001
  0
LINE
  5
1D2
100
AcDbEntity
  8
1
  6
CONTINUOUS
 62
           2
100
AcDbLine
 10
10795.088530854109
 20
-1275.563304229
 11
10785.81128702965
 21
-1275.563304229
  0
LINE
  5
1D1
100
AcDbEntity
  8
1
  6
CONTINUOUS
 62
           2
100
AcDbLine
 10
10796.1507086806
 20
-1267.788948576022
 11
10789.72635302762
 21
-1267.788948576022
  0
LINE
  5
1D0
100
AcDbEntity
  8
1
  6
CONTINUOUS
 62
           2
100
AcDbLine
 10
10797.088530854109
 20
-1269.413304229002
 11
10797.088530854109
 21
-1290.413304229002
  0
LINE
  5
1CF
100
AcDbEntity
  8
1
  6
CONTINUOUS
 62
           2
100
AcDbLine
 10
10796.1507086806
 20
-1292.037659881983
 11
10789.72635302762
 21
-1292.037659881983
  0
LINE
  5
1CE
100
AcDbEntity
  8
1
  6
CONTINUOUS
 62
           2
100
AcDbLine
 10
10796.1507086806
 20
-1267.788948576022
 11
10797.088530854109
 21
-1269.413304229002
  0
LINE
  5
1CD
100
AcDbEntity
  8
1
  6
CONTINUOUS
 62
           2
100
AcDbLine
 10
10797.088530854109
 20
-1290.413304229002
 11
10796.1507086806
 21
-1292.037659881983
  0
LINE
  5
1CC
100
AcDbEntity
  8
1
  6
CONTINUOUS
 62
           2
100
AcDbLine
 10
10754.026353027621
 20
-1273.851126402512
 11
10760.18853085411
 21
-1273.851126402512
  0
LINE
  5
1CB
100
AcDbEntity
  8
1
  6
CONTINUOUS
 62
           2
100
AcDbLine
 10
10754.026353027621
 20
-1285.975482055493
 11
10760.18853085411
 21
-1285.975482055493
  0
LINE
  5
1CA
100
AcDbEntity
  8
1
  6
CONTINUOUS
 62
           2
100
AcDbLine
 10
10753.088530854109
 20
-1290.413304229002
 11
10753.088530854109
 21
-1269.413304229002
  0
LINE
  5
1C9
100
AcDbEntity
  8
1
  6
CONTINUOUS
 62
           2
100
AcDbLine
 10
10753.088530854109
 20
-1269.413304229002
 11
10754.026353027621
 21
-1267.788948576022
  0
LINE
  5
1C8
100
AcDbEntity
  8
1
  6
CONTINUOUS
 62
           2
100
AcDbLine
 10
10754.026353027621
 20
-1292.037659881983
 11
10753.088530854109
 21
-1290.413304229002
  0
LINE
  5
1C7
100
AcDbEntity
  8
1
  6
CONTINUOUS
 62
           2
100
AcDbLine
 10
10726.289803995691
 20
-1302.91203108742
 11
10714.789803995691
 21
-1302.91203108742
  0
LINE
  5
1C6
100
AcDbEntity
  8
1
  6
CONTINUOUS
 62
           2
100
AcDbLine
 10
10726.289803995691
 20
-1294.413304229002
 11
10726.289803995691
 21
-1302.91203108742
  0
LINE
  5
1C5
100
AcDbEntity
  8
1
  6
CONTINUOUS
 62
           2
100
AcDbLine
 10
10729.289803995691
 20
-1291.413304229002
 11
10737.78853085411
 21
-1291.413304229002
  0
LINE
  5
1C4
100
AcDbEntity
  8
1
  6
CONTINUOUS
 62
           2
100
AcDbLine
 10
10714.789803995691
 20
-1302.91203108742
 11
10703.289803995691
 21
-1302.91203108742
  0
LINE
  5
1C3
100
AcDbEntity
  8
1
  6
CONTINUOUS
 62
           2
100
AcDbLine
 10
10737.78853085411
 20
-1279.913304229002
 11
10737.78853085411
 21
-1291.413304229002
  0
LINE
  5
1C2
100
AcDbEntity
  8
1
  6
CONTINUOUS
 62
           2
100
AcDbLine
 10
10703.289803995691
 20
-1279.913304229002
 11
10703.289803995691
 21
-1302.91203108742
  0
LINE
  5
1C1
100
AcDbEntity
  8
1
  6
CONTINUOUS
 62
           2
100
AcDbLine
 10
10703.289803995691
 20
-1256.914577370585
 11
10703.289803995691
 21
-1279.913304229002
  0
LINE
  5
1C0
100
AcDbEntity
  8
1
  6
CONTINUOUS
 62
           2
100
AcDbLine
 10
10737.78853085411
 20
-1268.413304229002
 11
10737.78853085411
 21
-1279.913304229002
  0
LINE
  5
1BF
100
AcDbEntity
  8
1
  6
CONTINUOUS
 62
           2
100
AcDbLine
 10
10703.289803995691
 20
-1256.914577370585
 11
10714.789803995691
 21
-1256.914577370585
  0
LINE
  5
1BE
100
AcDbEntity
  8
1
  6
CONTINUOUS
 62
           2
100
AcDbLine
 10
10737.78853085411
 20
-1268.413304229002
 11
10729.289803995691
 21
-1268.413304229002
  0
LINE
  5
1BD
100
AcDbEntity
  8
1
  6
CONTINUOUS
 62
           2
100
AcDbLine
 10
10726.289803995691
 20
-1256.914577370585
 11
10726.289803995691
 21
-1265.413304229002
  0
LINE
  5
1BC
100
AcDbEntity
  8
1
  6
CONTINUOUS
 62
           2
100
AcDbLine
 10
10714.789803995691
 20
-1256.914577370585
 11
10726.289803995691
 21
-1256.914577370585
  0
LINE
  5
1BB
100
AcDbEntity
  8
1
  6
DOT_CENTER
 62
           2
100
AcDbLine
 10
11222.948345848599
 20
-879.913304229002
 11
12017.701420846261
 21
-879.913304229002
  0
LINE
  5
1BA
100
AcDbEntity
  8
1
  6
CONTINUOUS
 62
           7
100
AcDbLine
 10
11927.328060117759
 20
-787.413304229002
 11
11945.328060117759
 21
-787.413304229002
  0
LINE
  5
1B9
100
AcDbEntity
  8
1
  6
CONTINUOUS
 62
           7
100
AcDbLine
 10
11927.328060117759
 20
-972.413304229002
 11
11927.328060117759
 21
-787.413304229002
  0
LINE
  5
1B8
100
AcDbEntity
  8
1
  6
CONTINUOUS
 62
           7
100
AcDbLine
 10
11945.328060117759
 20
-972.413304229002
 11
11927.328060117759
 21
-972.413304229002
  0
LINE
  5
1B7
100
AcDbEntity
  8
1
  6
CONTINUOUS
 62
           7
100
AcDbLine
 10
11945.328060117759
 20
-787.413304229002
 11
11945.328060117759
 21
-972.413304229002
  0
LINE
  5
1B6
100
AcDbEntity
  8
1
  6
CONTINUOUS
 62
           7
100
AcDbLine
 10
11845.328060117759
 20
-835.363304229001
 11
11927.328060117759
 21
-835.363304229001
  0
LINE
  5
1B5
100
AcDbEntity
  8
1
  6
CONTINUOUS
 62
           7
100
AcDbLine
 10
11845.328060117759
 20
-924.463304229002
 11
11927.328060117759
 21
-924.463304229002
  0
LINE
  5
1B4
100
AcDbEntity
  8
1
  6
CONTINUOUS
 62
           7
100
AcDbLine
 10
10745.328060117759
 20
-2074.463304229003
 11
10827.328060117759
 21
-2074.463304229003
  0
LINE
  5
1B3
100
AcDbEntity
  8
1
  6
CONTINUOUS
 62
           7
100
AcDbLine
 10
10745.328060117759
 20
-1985.363304229002
 11
10827.328060117759
 21
-1985.363304229002
  0
LINE
  5
1B2
100
AcDbEntity
  8
1
  6
CONTINUOUS
 62
           7
100
AcDbLine
 10
10727.32806011777
 20
-2122.413304229002
 11
10727.32806011777
 21
-1937.413304229002
  0
LINE
  5
1B1
100
AcDbEntity
  8
1
  6
CONTINUOUS
 62
           7
100
AcDbLine
 10
10745.328060117759
 20
-2122.413304229002
 11
10727.32806011777
 21
-2122.413304229002
  0
LINE
  5
1B0
100
AcDbEntity
  8
1
  6
CONTINUOUS
 62
           7
100
AcDbLine
 10
10745.328060117759
 20
-1937.413304229002
 11
10745.328060117759
 21
-2122.413304229002
  0
LINE
  5
1AF
100
AcDbEntity
  8
1
  6
CONTINUOUS
 62
           7
100
AcDbLine
 10
10727.32806011777
 20
-1937.413304229002
 11
10745.328060117759
 21
-1937.413304229002
  0
LINE
  5
1AE
100
AcDbEntity
  8
1
  6
DOT_CENTER
 62
           2
100
AcDbLine
 10
10654.954699389271
 20
-2029.913304229002
 11
10928.902652291779
 21
-2029.913304229002
  0
LINE
  5
1AD
100
AcDbEntity
  8
1
  6
CONTINUOUS
 62
           6
100
AcDbLine
 10
11836.328060117759
 20
-2879.913304229002
 11
11905.92568988841
 21
-2879.913304229002
  0
LINE
  5
1AC
100
AcDbEntity
  8
1
  6
CONTINUOUS
 62
           7
100
AcDbLine
 10
11236.328060117759
 20
-2670.913304229003
 11
11236.328060117759
 21
-2870.913304229003
  0
LINE
  5
1AB
100
AcDbEntity
  8
1
  6
CONTINUOUS
 62
           7
100
AcDbLine
 10
11436.328060117759
 20
-2670.913304229003
 11
11436.328060117759
 21
-2870.913304229003
  0
LINE
  5
1AA
100
AcDbEntity
  8
1
  6
CONTINUOUS
 62
           2
100
AcDbLine
 10
11348.828060117759
 20
-2626.093304229001
 11
11350.42806011776
 21
-2626.093304229001
  0
LINE
  5
1A9
100
AcDbEntity
  8
1
  6
CONTINUOUS
 62
           2
100
AcDbLine
 10
11348.828060117759
 20
-2621.093304229001
 11
11353.92806011776
 21
-2621.093304229001
  0
LINE
  5
1A8
100
AcDbEntity
  8
1
  6
CONTINUOUS
 62
           2
100
AcDbLine
 10
11353.92806011776
 20
-2621.093304229001
 11
11353.92806011776
 21
-2622.193304229003
  0
LINE
  5
1A7
100
AcDbEntity
  8
1
  6
DOT_CENTER
 62
           2
100
AcDbLine
 10
11336.328060117759
 20
-2603.880780847052
 11
11336.328060117759
 21
-2667.320884051772
  0
LINE
  5
1A6
100
AcDbEntity
  8
1
  6
CONTINUOUS
 62
           2
100
AcDbLine
 10
11336.328060117759
 20
-2654.793092530793
 11
11336.328060117759
 21
-2662.976849260539
  0
LINE
  5
1A5
100
AcDbEntity
  8
1
  6
CONTINUOUS
 62
           2
100
AcDbLine
 10
11336.328060117759
 20
-2608.709759197463
 11
11336.328060117759
 21
-2616.893515927211
  0
LINE
  5
1A4
100
AcDbEntity
  8
1
  6
DOT_CENTER
 62
           2
100
AcDbLine
 10
11316.826494941461
 20
-2635.093304229002
 11
11371.63993928216
 21
-2635.093304229002
  0
LINE
  5
1A3
100
AcDbEntity
  8
1
  6
CONTINUOUS
 62
           2
100
AcDbLine
 10
11350.42806011776
 20
-2622.193304229003
 11
11350.42806011776
 21
-2625.093304229002
  0
LINE
  5
1A2
100
AcDbEntity
  8
1
  6
CONTINUOUS
 62
           2
100
AcDbLine
 10
11350.42806011776
 20
-2647.493304229001
 11
11350.42806011776
 21
-2625.093304229002
  0
LINE
  5
1A1
100
AcDbEntity
  8
1
  6
CONTINUOUS
 62
           2
100
AcDbLine
 10
11354.62806011776
 20
-2646.593304229002
 11
11354.62806011776
 21
-2623.593304229002
  0
LINE
  5
1A0
100
AcDbEntity
  8
1
  6
CONTINUOUS
 62
           2
100
AcDbLine
 10
11367.328060117759
 20
-2605.093304229002
 11
11367.328060117759
 21
-2623.506674002745
  0
LINE
  5
19F
100
AcDbEntity
  8
1
  6
CONTINUOUS
 62
           2
100
AcDbLine
 10
11348.828060117759
 20
-2664.093304229
 11
11348.828060117759
 21
-2607.593304229002
  0
LINE
  5
19E
100
AcDbEntity
  8
1
  6
CONTINUOUS
 62
           2
100
AcDbLine
 10
11323.828060117759
 20
-2607.593304229001
 11
11348.828060117759
 21
-2607.593304229002
  0
LINE
  5
19D
100
AcDbEntity
  8
1
  6
CONTINUOUS
 62
           2
100
AcDbLine
 10
11323.828060117759
 20
-2664.093304229001
 11
11323.828060117759
 21
-2607.593304229001
  0
LINE
  5
19C
100
AcDbEntity
  8
1
  6
CONTINUOUS
 62
           2
100
AcDbLine
 10
11348.828060117759
 20
-2664.093304229
 11
11323.828060117759
 21
-2664.093304229001
  0
LINE
  5
19B
100
AcDbEntity
  8
1
  6
CONTINUOUS
 62
           2
100
AcDbLine
 10
11359.328060117759
 20
-2605.093304229002
 11
11367.328060117759
 21
-2605.093304229002
  0
LINE
  5
19A
100
AcDbEntity
  8
1
  6
CONTINUOUS
 62
           2
100
AcDbLine
 10
11354.62806011776
 20
-2623.593304229002
 11
11359.328060117759
 21
-2605.093304229002
  0
LINE
  5
199
100
AcDbEntity
  8
1
  6
CONTINUOUS
 62
           2
100
AcDbLine
 10
11350.42806011776
 20
-2622.193304229003
 11
11354.983735793439
 21
-2622.193304229003
  0
LINE
  5
198
100
AcDbEntity
  8
1
  6
CONTINUOUS
 62
           2
100
AcDbLine
 10
11350.42806011776
 20
-2622.693304229003
 11
11354.856708766411
 21
-2622.693304229003
  0
LINE
  5
197
100
AcDbEntity
  8
1
  6
CONTINUOUS
 62
           2
100
AcDbLine
 10
11367.328060117759
 20
-2646.67993445526
 11
11367.328060117759
 21
-2665.093304229002
  0
LINE
  5
196
100
AcDbEntity
  8
1
  6
CONTINUOUS
 62
           2
100
AcDbLine
 10
11359.328060117759
 20
-2665.093304229002
 11
11367.328060117759
 21
-2665.093304229002
  0
LINE
  5
195
100
AcDbEntity
  8
1
  6
CONTINUOUS
 62
           2
100
AcDbLine
 10
11359.328060117759
 20
-2665.093304229002
 11
11354.62806011776
 21
-2646.593304229002
  0
LINE
  5
194
100
AcDbEntity
  8
1
  6
CONTINUOUS
 62
           2
100
AcDbLine
 10
11354.856708766411
 20
-2647.493304229001
 11
11350.42806011776
 21
-2647.493304229001
  0
LINE
  5
193
100
AcDbEntity
  8
1
  6
CONTINUOUS
 62
           2
100
AcDbLine
 10
11348.828060117759
 20
-2628.593304229002
 11
11350.42806011776
 21
-2628.593304229002
  0
LINE
  5
192
100
AcDbEntity
  8
1
  6
CONTINUOUS
 62
           2
100
AcDbLine
 10
11348.828060117759
 20
-2641.593304229002
 11
11350.42806011776
 21
-2641.593304229002
  0
LINE
  5
191
100
AcDbEntity
  8
1
  6
CONTINUOUS
 62
           2
100
AcDbLine
 10
11347.228060117761
 20
-2617.400805147215
 11
11347.228060117761
 21
-2629.593304229001
  0
LINE
  5
190
100
AcDbEntity
  8
1
  6
CONTINUOUS
 62
           2
100
AcDbLine
 10
11347.228060117761
 20
-2654.28580331079
 11
11347.228060117761
 21
-2640.093304229001
  0
LINE
  5
18F
100
AcDbEntity
  8
1
  6
CONTINUOUS
 62
           2
100
AcDbLine
 10
11323.828060117759
 20
-2626.743304229001
 11
11324.961816847501
 21
-2628.143304229002
  0
LINE
  5
18E
100
AcDbEntity
  8
1
  6
CONTINUOUS
 62
           2
100
AcDbLine
 10
11323.828060117759
 20
-2640.543304229001
 11
11324.961816847501
 21
-2639.143304229002
  0
LINE
  5
18D
100
AcDbEntity
  8
1
  6
CONTINUOUS
 62
           2
100
AcDbLine
 10
11324.961816847501
 20
-2628.143304229002
 11
11324.961816847501
 21
-2639.143304229002
  0
LINE
  5
18C
100
AcDbEntity
  8
1
  6
CONTINUOUS
 62
           2
100
AcDbLine
 10
11347.228060117761
 20
-2626.743304229001
 11
11346.228060117761
 21
-2628.143304229002
  0
LINE
  5
18B
100
AcDbEntity
  8
1
  6
CONTINUOUS
 62
           2
100
AcDbLine
 10
11347.228060117761
 20
-2640.543304229001
 11
11346.228060117761
 21
-2639.143304229002
  0
LINE
  5
18A
100
AcDbEntity
  8
1
  6
CONTINUOUS
 62
           2
100
AcDbLine
 10
11324.961816847501
 20
-2628.143304229002
 11
11346.228060117761
 21
-2628.143304229002
  0
LINE
  5
189
100
AcDbEntity
  8
1
  6
CONTINUOUS
 62
           2
100
AcDbLine
 10
11324.961816847501
 20
-2639.143304229002
 11
11346.228060117761
 21
-2639.143304229002
  0
LINE
  5
188
100
AcDbEntity
  8
1
  6
CONTINUOUS
 62
           2
100
AcDbLine
 10
11347.17806011776
 20
-2597.253304229002
 11
11347.17806011776
 21
-2600.253304229002
  0
LINE
  5
187
100
AcDbEntity
  8
1
  6
CONTINUOUS
 62
           2
100
AcDbLine
 10
11325.478060117761
 20
-2597.253304229002
 11
11347.17806011776
 21
-2597.253304229002
  0
LINE
  5
186
100
AcDbEntity
  8
1
  6
CONTINUOUS
 62
           2
100
AcDbLine
 10
11347.17806011776
 20
-2600.253304229002
 11
11325.478060117761
 21
-2600.253304229002
  0
LINE
  5
185
100
AcDbEntity
  8
1
  6
CONTINUOUS
 62
           2
100
AcDbLine
 10
11325.478060117761
 20
-2597.253304229002
 11
11325.478060117761
 21
-2600.253304229002
  0
LINE
  5
184
100
AcDbEntity
  8
1
  6
CONTINUOUS
 62
           2
100
AcDbLine
 10
11325.478060117761
 20
-2597.253304229002
 11
11325.85056011776
 21
-2589.913304229002
  0
LINE
  5
183
100
AcDbEntity
  8
1
  6
CONTINUOUS
 62
           2
100
AcDbLine
 10
11347.17806011776
 20
-2597.253304229002
 11
11346.80556011776
 21
-2589.913304229002
  0
LINE
  5
182
100
AcDbEntity
  8
1
  6
CONTINUOUS
 62
           2
100
AcDbLine
 10
11346.80556011776
 20
-2607.593304229002
 11
11347.17806011776
 21
-2600.253304229002
  0
LINE
  5
181
100
AcDbEntity
  8
1
  6
CONTINUOUS
 62
           2
100
AcDbLine
 10
11325.85056011776
 20
-2607.593304229002
 11
11325.478060117761
 21
-2600.253304229002
  0
LINE
  5
180
100
AcDbEntity
  8
1
  6
CONTINUOUS
 62
           2
100
AcDbLine
 10
11323.12806011776
 20
-2589.913304229002
 11
11349.52806011776
 21
-2589.913304229002
  0
LINE
  5
17F
100
AcDbEntity
  8
1
  6
CONTINUOUS
 62
           2
100
AcDbLine
 10
11349.52806011776
 20
-2589.913304229002
 11
11349.52806011776
 21
-2580.788332602272
  0
LINE
  5
17E
100
AcDbEntity
  8
1
  6
CONTINUOUS
 62
           2
100
AcDbLine
 10
11323.12806011776
 20
-2589.913304229002
 11
11323.12806011776
 21
-2580.788332602272
  0
LINE
  5
17D
100
AcDbEntity
  8
1
  6
DOTTED
 62
           2
100
AcDbLine
 10
11349.52806011776
 20
-2580.788332602272
 11
11349.52806011776
 21
-2579.817457591721
  0
LINE
  5
17C
100
AcDbEntity
  8
1
  6
DOTTED
 62
           2
100
AcDbLine
 10
11323.12806011776
 20
-2580.788332602272
 11
11323.12806011776
 21
-2579.817457591721
  0
LINE
  5
17B
100
AcDbEntity
  8
1
  6
CONTINUOUS
 62
           7
100
AcDbLine
 10
10961.328060117759
 20
-2507.639518231792
 11
11711.328060117759
 21
-2507.639518231792
  0
LINE
  5
17A
100
AcDbEntity
  8
1
  6
CONTINUOUS
 62
           7
100
AcDbLine
 10
10836.328060117759
 20
-2879.913304229002
 11
10836.328060117759
 21
-2870.913304229003
  0
LINE
  5
179
100
AcDbEntity
  8
1
  6
CONTINUOUS
 62
           7
100
AcDbLine
 10
11836.328060117759
 20
-2879.913304229002
 11
10836.328060117759
 21
-2879.913304229002
  0
LINE
  5
178
100
AcDbEntity
  8
1
  6
CONTINUOUS
 62
           7
100
AcDbLine
 10
11836.328060117759
 20
-2870.913304229003
 11
11836.328060117759
 21
-2879.913304229002
  0
LINE
  5
177
100
AcDbEntity
  8
1
  6
CONTINUOUS
 62
           7
100
AcDbLine
 10
10836.328060117759
 20
-2870.913304229003
 11
11836.328060117759
 21
-2870.913304229003
  0
LINE
  5
176
100
AcDbEntity
  8
1
  6
CONTINUOUS
 62
           7
100
AcDbLine
 10
10827.328060117759
 20
-103.913304229002
 11
11845.328060117759
 21
-103.913304229002
  0
LINE
  5
175
100
AcDbEntity
  8
1
  6
CONTINUOUS
 62
           7
100
AcDbLine
 10
11845.328060117759
 20
-2356.913304229002
 11
10827.328060117759
 21
-2356.913304229002
  0
LINE
  5
174
100
AcDbEntity
  8
1
  6
CONTINUOUS
 62
           7
100
AcDbLine
 10
10827.328060117759
 20
-2356.913304229002
 11
10827.328060117759
 21
-2378.131645985237
  0
LINE
  5
173
100
AcDbEntity
  8
1
  6
DOT_CENTER
 62
           2
100
AcDbLine
 10
11336.328060117759
 20
269.659688471727
 11
11336.328060117759
 21
-2941.168354989309
  0
LINE
  5
172
100
AcDbEntity
  8
1
  6
CONTINUOUS
 62
           7
100
AcDbLine
 10
10888.7529070247
 20
-2475.208466780874
 11
10887.88361567332
 21
-2474.781978454917
  0
LINE
  5
171
100
AcDbEntity
  8
1
  6
CONTINUOUS
 62
           7
100
AcDbLine
 10
11845.328060117759
 20
-2377.139079058857
 11
11845.328060117759
 21
-2356.913304229002
  0
LINE
  5
170
100
AcDbEntity
  8
1
  6
CONTINUOUS
 62
           7
100
AcDbLine
 10
13817.127889681209
 20
-2475.208466780874
 11
13816.25859832984
 21
-2474.781978454917
  0
LINE
  5
16F
100
AcDbEntity
  8
1
  6
CONTINUOUS
 62
           7
100
AcDbLine
 10
13755.703042774279
 20
-2356.913304229002
 11
13755.703042774279
 21
-2378.131645985237
  0
LINE
  5
16E
100
AcDbEntity
  8
1
  6
CONTINUOUS
 62
           7
100
AcDbLine
 10
14773.703042774279
 20
-2377.139079058857
 11
14773.703042774279
 21
-2356.913304229002
  0
LINE
  5
16D
100
AcDbEntity
  8
1
  6
CONTINUOUS
 62
           7
100
AcDbLine
 10
10827.328060117759
 20
-103.913304229002
 11
10827.328060117759
 21
-83.687529399149
  0
LINE
  5
16C
100
AcDbEntity
  8
1
  6
CONTINUOUS
 62
           7
100
AcDbLine
 10
10888.61022450832
 20
14.315505131325
 11
10887.88361567332
 21
13.955369996912
  0
LINE
  5
16B
100
AcDbEntity
  8
1
  6
CONTINUOUS
 62
           7
100
AcDbLine
 10
11845.328060117759
 20
-103.913304229002
 11
11845.328060117759
 21
-83.687529399149
  0
LINE
  5
16A
100
AcDbEntity
  8
1
  6
CONTINUOUS
 62
           7
100
AcDbLine
 10
13816.98520716484
 20
14.315505131325
 11
13816.25859832984
 21
13.955369996912
  0
LINE
  5
169
100
AcDbEntity
  8
1
  6
CONTINUOUS
 62
           7
100
AcDbLine
 10
13755.703042774279
 20
-103.913304229002
 11
13755.703042774279
 21
-83.687529399149
  0
LINE
  5
168
100
AcDbEntity
  8
1
  6
CONTINUOUS
 62
           7
100
AcDbLine
 10
14773.703042774279
 20
-103.913304229002
 11
14773.703042774279
 21
-83.687529399149
  0
LINE
  5
167
100
AcDbEntity
  8
1
  6
CONTINUOUS
 62
           7
100
AcDbLine
 10
11697.74886748779
 20
-2670.913304229003
 11
11697.74886748779
 21
-2870.913304229003
  0
LINE
  5
166
100
AcDbEntity
  8
1
  6
CONTINUOUS
 62
           7
100
AcDbLine
 10
11711.328060117759
 20
-2570.913304229003
 11
11711.328060117759
 21
-2507.639518231792
  0
LINE
  5
165
100
AcDbEntity
  8
1
  6
CONTINUOUS
 62
           7
100
AcDbLine
 10
10961.328060117759
 20
-2507.639518231792
 11
10961.328060117759
 21
-2570.913304229003
  0
LINE
  5
164
100
AcDbEntity
  8
1
  6
CONTINUOUS
 62
           7
100
AcDbLine
 10
10974.90725274774
 20
-2870.913304229003
 11
10974.90725274774
 21
-2670.913304229003
  0
LINE
  5
163
100
AcDbEntity
  8
1
  6
CONTINUOUS
 62
           7
100
AcDbLine
 10
13889.703042774279
 20
-2507.639518231792
 11
13889.703042774279
 21
-2570.913304229003
  0
LINE
  5
162
100
AcDbEntity
  8
1
  6
CONTINUOUS
 62
           7
100
AcDbLine
 10
13903.28223540426
 20
-2870.913304229003
 11
13903.28223540426
 21
-2670.913304229003
  0
LINE
  5
161
100
AcDbEntity
  8
1
  6
CONTINUOUS
 62
           7
100
AcDbLine
 10
14639.703042774279
 20
-2570.913304229003
 11
14639.703042774279
 21
-2507.639518231792
  0
LINE
  5
160
100
AcDbEntity
  8
1
  6
CONTINUOUS
 62
           7
100
AcDbLine
 10
14639.703042774279
 20
-2570.913304229003
 11
14639.703042774279
 21
-2507.639518231792
  0
LINE
  5
15F
100
AcDbEntity
  8
1
  6
CONTINUOUS
 62
           7
100
AcDbLine
 10
14626.1238501443
 20
-2670.913304229003
 11
14626.1238501443
 21
-2870.913304229003
  0
LINE
  5
15E
100
AcDbEntity
  8
1
  6
CONTINUOUS
 62
           2
100
AcDbLine
 10
11313.328060117759
 20
-665.193304229002
 11
11313.328060117759
 21
-707.615953959812
  0
LINE
  5
15D
100
AcDbEntity
  8
1
  6
CONTINUOUS
 62
           2
100
AcDbLine
 10
11315.328060117759
 20
-665.193304229002
 11
11315.328060117759
 21
-707.193304229002
  0
LINE
  5
15C
100
AcDbEntity
  8
1
  6
CONTINUOUS
 62
           2
100
AcDbLine
 10
11327.994726784431
 20
-665.193304229002
 11
11327.994726784431
 21
-707.193304229002
  0
LINE
  5
15B
100
AcDbEntity
  8
1
  6
CONTINUOUS
 62
           2
100
AcDbLine
 10
11329.994726784431
 20
-665.193304229002
 11
11329.994726784431
 21
-707.193304229002
  0
LINE
  5
15A
100
AcDbEntity
  8
1
  6
CONTINUOUS
 62
           2
100
AcDbLine
 10
11342.661393451101
 20
-665.193304229002
 11
11342.661393451101
 21
-707.193304229002
  0
LINE
  5
159
100
AcDbEntity
  8
1
  6
CONTINUOUS
 62
           2
100
AcDbLine
 10
11344.661393451101
 20
-665.193304229002
 11
11344.661393451101
 21
-707.193304229002
  0
LINE
  5
158
100
AcDbEntity
  8
1
  6
CONTINUOUS
 62
           2
100
AcDbLine
 10
11357.328060117759
 20
-665.193304229002
 11
11357.328060117759
 21
-707.193304229002
  0
LINE
  5
157
100
AcDbEntity
  8
1
  6
CONTINUOUS
 62
           2
100
AcDbLine
 10
11359.328060117759
 20
-665.193304229002
 11
11359.328060117759
 21
-707.615953959812
  0
LINE
  5
156
100
AcDbEntity
  8
1
  6
CONTINUOUS
 62
           2
100
AcDbLine
 10
11301.328060117759
 20
-781.693304229002
 11
11301.328060117759
 21
-789.693304229002
  0
LINE
  5
155
100
AcDbEntity
  8
1
  6
CONTINUOUS
 62
           2
100
AcDbLine
 10
11371.328060117759
 20
-781.693304229002
 11
11371.328060117759
 21
-789.693304229002
  0
LINE
  5
154
100
AcDbEntity
  8
1
  6
CONTINUOUS
 62
           2
100
AcDbLine
 10
11356.828060117759
 20
-839.786016168541
 11
11356.828060117759
 21
-838.078385411266
  0
LINE
  5
153
100
AcDbEntity
  8
1
  6
CONTINUOUS
 62
           2
100
AcDbLine
 10
11356.828060117759
 20
-838.078385411266
 11
11356.828060117759
 21
-839.411759696432
  0
LINE
  5
152
100
AcDbEntity
  8
1
  6
CONTINUOUS
 62
           2
100
AcDbLine
 10
11315.828060117759
 20
-838.078385411266
 11
11315.828060117759
 21
-839.786016168541
  0
LINE
  5
151
100
AcDbEntity
  8
1
  6
CONTINUOUS
 62
           2
100
AcDbLine
 10
11305.969974552771
 20
-805.383903152244
 11
11309.969974552771
 21
-807.693304229002
  0
LINE
  5
150
100
AcDbEntity
  8
1
  6
CONTINUOUS
 62
           2
100
AcDbLine
 10
11366.969974552771
 20
-805.383903152244
 11
11362.969974552771
 21
-807.693304229002
  0
LINE
  5
14F
100
AcDbEntity
  8
1
  6
CONTINUOUS
 62
           2
100
AcDbLine
 10
11309.969974552771
 20
-807.693304229002
 11
11362.969974552771
 21
-807.693304229002
  0
LINE
  5
14E
100
AcDbEntity
  8
1
  6
CONTINUOUS
 62
           2
100
AcDbLine
 10
11357.469974552771
 20
-807.693304229002
 11
11315.469974552771
 21
-807.693304229002
  0
LINE
  5
14D
100
AcDbEntity
  8
1
  6
CONTINUOUS
 62
           2
100
AcDbLine
 10
11336.328060117759
 20
-828.913304229002
 11
11358.34097783984
 21
-828.913304229002
  0
LINE
  5
14C
100
AcDbEntity
  8
1
  6
CONTINUOUS
 62
           2
100
AcDbLine
 10
11314.31514239569
 20
-828.913304229002
 11
11336.328060117759
 21
-828.913304229002
  0
LINE
  5
14B
100
AcDbEntity
  8
1
  6
CONTINUOUS
 62
           2
100
AcDbLine
 10
11314.31514239569
 20
-828.913304229002
 11
11314.31514239569
 21
-833.913304229002
  0
LINE
  5
14A
100
AcDbEntity
  8
1
  6
CONTINUOUS
 62
           2
100
AcDbLine
 10
11358.34097783984
 20
-828.913304229002
 11
11358.34097783984
 21
-833.913304229002
  0
LINE
  5
149
100
AcDbEntity
  8
1
  6
CONTINUOUS
 62
           2
100
AcDbLine
 10
11314.31514239569
 20
-833.913304229002
 11
11358.34097783984
 21
-833.913304229002
  0
LINE
  5
148
100
AcDbEntity
  8
1
  6
CONTINUOUS
 62
           2
100
AcDbLine
 10
11319.328060117759
 20
-816.453304229001
 11
11353.328060117759
 21
-816.453304229001
  0
LINE
  5
147
100
AcDbEntity
  8
1
  6
CONTINUOUS
 62
           2
100
AcDbLine
 10
11353.328060117759
 20
-820.153304229003
 11
11319.328060117759
 21
-820.153304229003
  0
LINE
  5
146
100
AcDbEntity
  8
1
  6
CONTINUOUS
 62
           2
100
AcDbLine
 10
11319.328060117759
 20
-816.453304229001
 11
11319.328060117759
 21
-820.153304229003
  0
LINE
  5
145
100
AcDbEntity
  8
1
  6
CONTINUOUS
 62
           2
100
AcDbLine
 10
11353.328060117759
 20
-820.153304229003
 11
11353.328060117759
 21
-816.453304229001
  0
LINE
  5
144
100
AcDbEntity
  8
1
  6
CONTINUOUS
 62
           2
100
AcDbLine
 10
11319.328060117759
 20
-816.453304229001
 11
11319.703560117759
 21
-807.693304229002
  0
LINE
  5
143
100
AcDbEntity
  8
1
  6
CONTINUOUS
 62
           2
100
AcDbLine
 10
11319.328060117759
 20
-820.153304229003
 11
11319.703560117759
 21
-828.913304229002
  0
LINE
  5
142
100
AcDbEntity
  8
1
  6
CONTINUOUS
 62
           2
100
AcDbLine
 10
11352.952560117759
 20
-828.913304229002
 11
11353.328060117759
 21
-820.153304229003
  0
LINE
  5
141
100
AcDbEntity
  8
1
  6
CONTINUOUS
 62
           2
100
AcDbLine
 10
11352.952560117759
 20
-807.693304229002
 11
11353.328060117759
 21
-816.453304229001
  0
LINE
  5
140
100
AcDbEntity
  8
1
  6
CONTINUOUS
 62
           2
100
AcDbLine
 10
11383.328060117759
 20
-724.334549236974
 11
11383.328060117759
 21
-781.693304229002
  0
LINE
  5
13F
100
AcDbEntity
  8
1
  6
CONTINUOUS
 62
           2
100
AcDbLine
 10
11321.078060117759
 20
-805.383903152244
 11
11321.078060117759
 21
-792.693304229002
  0
LINE
  5
13E
100
AcDbEntity
  8
1
  6
CONTINUOUS
 62
           2
100
AcDbLine
 10
11351.578060117759
 20
-805.383903152244
 11
11351.578060117759
 21
-792.693304229002
  0
LINE
  5
13D
100
AcDbEntity
  8
1
  6
CONTINUOUS
 62
           2
100
AcDbLine
 10
11305.828060117759
 20
-805.383903152244
 11
11309.828060117759
 21
-807.693304229002
  0
LINE
  5
13C
100
AcDbEntity
  8
1
  6
CONTINUOUS
 62
           2
100
AcDbLine
 10
11366.828060117759
 20
-805.383903152244
 11
11362.828060117759
 21
-807.693304229002
  0
LINE
  5
13B
100
AcDbEntity
  8
1
  6
CONTINUOUS
 62
           2
100
AcDbLine
 10
11366.828060117759
 20
-805.383903152244
 11
11366.828060117759
 21
-792.693304229002
  0
LINE
  5
13A
100
AcDbEntity
  8
1
  6
CONTINUOUS
 62
           2
100
AcDbLine
 10
11309.828060117759
 20
-807.693304229002
 11
11362.828060117759
 21
-807.693304229002
  0
LINE
  5
139
100
AcDbEntity
  8
1
  6
CONTINUOUS
 62
           2
100
AcDbLine
 10
11371.328060117759
 20
-781.693304229002
 11
11301.328060117759
 21
-781.693304229002
  0
LINE
  5
138
100
AcDbEntity
  8
1
  6
CONTINUOUS
 62
           2
100
AcDbLine
 10
11368.328060117759
 20
-792.693304229002
 11
11304.328060117759
 21
-792.693304229002
  0
LINE
  5
137
100
AcDbEntity
  8
1
  6
CONTINUOUS
 62
           2
100
AcDbLine
 10
11305.828060117759
 20
-792.693304229002
 11
11305.828060117759
 21
-805.383903152244
  0
LINE
  5
136
100
AcDbEntity
  8
1
  6
CONTINUOUS
 62
           2
100
AcDbLine
 10
11366.828060117759
 20
-792.693304229002
 11
11305.828060117759
 21
-792.693304229002
  0
LINE
  5
135
100
AcDbEntity
  8
1
  6
CONTINUOUS
 62
           2
100
AcDbLine
 10
11371.328060117759
 20
-781.693304229002
 11
11301.328060117759
 21
-781.693304229002
  0
LINE
  5
134
100
AcDbEntity
  8
1
  6
CONTINUOUS
 62
           2
100
AcDbLine
 10
11357.328060117759
 20
-807.693304229002
 11
11315.328060117759
 21
-807.693304229002
  0
LINE
  5
133
100
AcDbEntity
  8
1
  6
CONTINUOUS
 62
           2
100
AcDbLine
 10
11362.828060117759
 20
-718.193304229002
 11
11371.328060117759
 21
-718.193304229002
  0
LINE
  5
132
100
AcDbEntity
  8
1
  6
CONTINUOUS
 62
           2
100
AcDbLine
 10
11376.328060117759
 20
-723.193304229002
 11
11376.328060117759
 21
-724.193304229002
  0
LINE
  5
131
100
AcDbEntity
  8
1
  6
CONTINUOUS
 62
           2
100
AcDbLine
 10
11377.328060117759
 20
-725.193304229002
 11
11382.328060117759
 21
-725.193304229002
  0
LINE
  5
130
100
AcDbEntity
  8
1
  6
CONTINUOUS
 62
           2
100
AcDbLine
 10
11383.328060117759
 20
-723.693304229002
 11
11383.328060117759
 21
-724.193304229002
  0
LINE
  5
12F
100
AcDbEntity
  8
1
  6
CONTINUOUS
 62
           2
100
AcDbLine
 10
11388.328060117759
 20
-723.693304229002
 11
11383.328060117759
 21
-723.693304229002
  0
LINE
  5
12E
100
AcDbEntity
  8
1
  6
CONTINUOUS
 62
           2
100
AcDbLine
 10
11388.328060117759
 20
-781.693304229002
 11
11388.328060117759
 21
-723.693304229002
  0
LINE
  5
12D
100
AcDbEntity
  8
1
  6
CONTINUOUS
 62
           2
100
AcDbLine
 10
11383.328060117759
 20
-781.693304229002
 11
11388.328060117759
 21
-781.693304229002
  0
LINE
  5
12C
100
AcDbEntity
  8
1
  6
CONTINUOUS
 62
           2
100
AcDbLine
 10
11383.328060117759
 20
-781.693304229002
 11
11383.328060117759
 21
-781.193304229002
  0
LINE
  5
12B
100
AcDbEntity
  8
1
  6
CONTINUOUS
 62
           2
100
AcDbLine
 10
11377.328060117759
 20
-780.193304229002
 11
11382.328060117759
 21
-780.193304229002
  0
LINE
  5
12A
100
AcDbEntity
  8
1
  6
CONTINUOUS
 62
           2
100
AcDbLine
 10
11376.328060117759
 20
-781.693304229002
 11
11376.328060117759
 21
-781.193304229002
  0
LINE
  5
129
100
AcDbEntity
  8
1
  6
CONTINUOUS
 62
           2
100
AcDbLine
 10
11376.328060117759
 20
-781.693304229002
 11
11301.328060117759
 21
-781.693304229002
  0
LINE
  5
128
100
AcDbEntity
  8
1
  6
CONTINUOUS
 62
           2
100
AcDbLine
 10
11296.328060117759
 20
-723.193304229002
 11
11296.328060117759
 21
-776.693304229002
  0
LINE
  5
127
100
AcDbEntity
  8
1
  6
CONTINUOUS
 62
           2
100
AcDbLine
 10
11309.828060117759
 20
-718.193304229002
 11
11301.328060117759
 21
-718.193304229002
  0
LINE
  5
126
100
AcDbEntity
  8
1
  6
CONTINUOUS
 62
           2
100
AcDbLine
 10
11314.328060117759
 20
-708.193304229002
 11
11309.828060117759
 21
-710.791380440356
  0
LINE
  5
125
100
AcDbEntity
  8
1
  6
CONTINUOUS
 62
           2
100
AcDbLine
 10
11358.328060117759
 20
-708.193304229002
 11
11314.328060117759
 21
-708.193304229002
  0
LINE
  5
124
100
AcDbEntity
  8
1
  6
CONTINUOUS
 62
           2
100
AcDbLine
 10
11358.328060117759
 20
-708.193304229002
 11
11362.828060117759
 21
-710.791380440356
  0
LINE
  5
123
100
AcDbEntity
  8
1
  6
CONTINUOUS
 62
           2
100
AcDbLine
 10
11358.328060117759
 20
-664.193304229002
 11
11356.328060117759
 21
-664.193304229002
  0
LINE
  5
122
100
AcDbEntity
  8
1
  6
CONTINUOUS
 62
           2
100
AcDbLine
 10
11356.328060117759
 20
-664.193304229002
 11
11316.328060117759
 21
-664.193304229002
  0
LINE
  5
121
100
AcDbEntity
  8
1
  6
CONTINUOUS
 62
           2
100
AcDbLine
 10
11314.328060117759
 20
-664.193304229002
 11
11316.328060117759
 21
-664.193304229002
  0
LINE
  5
120
100
AcDbEntity
  8
1
  6
CONTINUOUS
 62
           2
100
AcDbLine
 10
11359.328060117759
 20
-664.193304229002
 11
11358.328060117759
 21
-664.193304229002
  0
LINE
  5
11F
100
AcDbEntity
  8
1
  6
CONTINUOUS
 62
           2
100
AcDbLine
 10
11313.328060117759
 20
-664.193304229002
 11
11314.328060117759
 21
-664.193304229002
  0
LINE
  5
11E
100
AcDbEntity
  8
1
  6
CONTINUOUS
 62
           2
100
AcDbLine
 10
11361.328060117759
 20
-709.925355036572
 11
11361.328060117759
 21
-666.193304229002
  0
LINE
  5
11D
100
AcDbEntity
  8
1
  6
CONTINUOUS
 62
           2
100
AcDbLine
 10
11311.328060117759
 20
-709.925355036572
 11
11311.328060117759
 21
-666.193304229002
  0
LINE
  5
11C
100
AcDbEntity
  8
1
  6
CONTINUOUS
 62
           2
100
AcDbLine
 10
11323.078060117759
 20
-710.791380440356
 11
11323.078060117759
 21
-718.193304229002
  0
LINE
  5
11B
100
AcDbEntity
  8
1
  6
CONTINUOUS
 62
           2
100
AcDbLine
 10
11349.578060117759
 20
-710.791380440356
 11
11349.578060117759
 21
-718.193304229002
  0
LINE
  5
11A
100
AcDbEntity
  8
1
  6
CONTINUOUS
 62
           2
100
AcDbLine
 10
11309.828060117759
 20
-718.193304229002
 11
11309.828060117759
 21
-710.791380440356
  0
LINE
  5
119
100
AcDbEntity
  8
1
  6
CONTINUOUS
 62
           2
100
AcDbLine
 10
11362.828060117759
 20
-718.193304229002
 11
11309.828060117759
 21
-718.193304229002
  0
LINE
  5
118
100
AcDbEntity
  8
1
  6
CONTINUOUS
 62
           2
100
AcDbLine
 10
11362.828060117759
 20
-710.791380440356
 11
11362.828060117759
 21
-718.193304229002
  0
LINE
  5
117
100
AcDbEntity
  8
1
  6
CONTINUOUS
 62
           2
100
AcDbLine
 10
11316.328060117759
 20
-660.193304229002
 11
11316.328060117759
 21
-662.193304229002
  0
LINE
  5
116
100
AcDbEntity
  8
1
  6
CONTINUOUS
 62
           2
100
AcDbLine
 10
11317.328060117759
 20
-659.193304229002
 11
11355.328060117759
 21
-659.193304229002
  0
LINE
  5
115
100
AcDbEntity
  8
1
  6
CONTINUOUS
 62
           2
100
AcDbLine
 10
11356.328060117759
 20
-660.193304229002
 11
11356.328060117759
 21
-662.193304229002
  0
LINE
  5
114
100
AcDbEntity
  8
1
  6
CONTINUOUS
 62
           2
100
AcDbLine
 10
11327.078060117759
 20
-652.925355036572
 11
11327.078060117759
 21
-659.193304229002
  0
LINE
  5
113
100
AcDbEntity
  8
1
  6
CONTINUOUS
 62
           2
100
AcDbLine
 10
11345.578060117759
 20
-652.925355036572
 11
11345.578060117759
 21
-659.193304229002
  0
LINE
  5
112
100
AcDbEntity
  8
1
  6
CONTINUOUS
 62
           2
100
AcDbLine
 10
11321.328060117759
 20
-642.693304229002
 11
11321.328060117759
 21
-651.193304229002
  0
LINE
  5
111
100
AcDbEntity
  8
1
  6
CONTINUOUS
 62
           2
100
AcDbLine
 10
11351.328060117759
 20
-642.693304229002
 11
11351.328060117759
 21
-651.203603103652
  0
LINE
  5
110
100
AcDbEntity
  8
1
  6
CONTINUOUS
 62
           2
100
AcDbLine
 10
11320.828060117759
 20
-651.193304229002
 11
11351.828060117759
 21
-651.193304229002
  0
LINE
  5
10F
100
AcDbEntity
  8
1
  6
CONTINUOUS
 62
           2
100
AcDbLine
 10
11317.828060117759
 20
-652.925355036572
 11
11320.828060117759
 21
-651.193304229002
  0
LINE
  5
10E
100
AcDbEntity
  8
1
  6
CONTINUOUS
 62
           2
100
AcDbLine
 10
11317.828060117759
 20
-659.193304229002
 11
11317.828060117759
 21
-652.925355036572
  0
LINE
  5
10D
100
AcDbEntity
  8
1
  6
CONTINUOUS
 62
           2
100
AcDbLine
 10
11354.828060117759
 20
-659.193304229002
 11
11317.828060117759
 21
-659.193304229002
  0
LINE
  5
10C
100
AcDbEntity
  8
1
  6
CONTINUOUS
 62
           2
100
AcDbLine
 10
11354.828060117759
 20
-652.925355036572
 11
11354.828060117759
 21
-659.193304229002
  0
LINE
  5
10B
100
AcDbEntity
  8
1
  6
CONTINUOUS
 62
           2
100
AcDbLine
 10
11351.828060117759
 20
-651.193304229002
 11
11354.828060117759
 21
-652.925355036572
  0
LINE
  5
10A
100
AcDbEntity
  8
1
  6
DOT_CENTER
 62
           2
100
AcDbLine
 10
11354.46979284295
 20
-752.693304229002
 11
11413.218183580129
 21
-752.693304229002
  0
LINE
  5
109
100
AcDbEntity
  8
1
  6
CONTINUOUS
 62
           2
100
AcDbLine
 10
13642.60963971409
 20
-665.192632890418
 11
13642.60963971409
 21
-707.615953959812
  0
LINE
  5
108
100
AcDbEntity
  8
1
  6
CONTINUOUS
 62
           2
100
AcDbLine
 10
13644.60963971409
 20
-665.192632890418
 11
13644.60963971409
 21
-707.193304229002
  0
LINE
  5
107
100
AcDbEntity
  8
1
  6
CONTINUOUS
 62
           2
100
AcDbLine
 10
13657.276306380751
 20
-665.192632890418
 11
13657.276306380751
 21
-707.193304229002
  0
LINE
  5
106
100
AcDbEntity
  8
1
  6
CONTINUOUS
 62
           2
100
AcDbLine
 10
13659.276306380751
 20
-665.192632890418
 11
13659.276306380751
 21
-707.193304229002
  0
LINE
  5
105
100
AcDbEntity
  8
1
  6
CONTINUOUS
 62
           2
100
AcDbLine
 10
13671.94297304742
 20
-665.192632890418
 11
13671.94297304742
 21
-707.193304229002
  0
LINE
  5
104
100
AcDbEntity
  8
1
  6
CONTINUOUS
 62
           2
100
AcDbLine
 10
13673.94297304742
 20
-665.192632890418
 11
13673.94297304742
 21
-707.193304229002
  0
LINE
  5
103
100
AcDbEntity
  8
1
  6
CONTINUOUS
 62
           2
100
AcDbLine
 10
13686.60963971409
 20
-665.192632890418
 11
13686.60963971409
 21
-707.193304229002
  0
LINE
  5
102
100
AcDbEntity
  8
1
  6
CONTINUOUS
 62
           2
100
AcDbLine
 10
13688.60963971409
 20
-665.192632890418
 11
13688.60963971409
 21
-707.615953959812
  0
LINE
  5
101
100
AcDbEntity
  8
1
  6
CONTINUOUS
 62
           2
100
AcDbLine
 10
13630.60963971409
 20
-781.693304229002
 11
13630.60963971409
 21
-789.693304229002
  0
LINE
  5
100
100
AcDbEntity
  8
1
  6
CONTINUOUS
 62
           2
100
AcDbLine
 10
13700.60963971409
 20
-781.693304229002
 11
13700.60963971409
 21
-789.693304229002
  0
LINE
  5
FF
100
AcDbEntity
  8
1
  6
DOT_CENTER
 62
           2
100
AcDbLine
 10
13616.18901844305
 20
-752.693304229002
 11
13716.88489266131
 21
-752.693304229002
  0
LINE
  5
FE
100
AcDbEntity
  8
1
  6
CONTINUOUS
 62
           2
100
AcDbLine
 10
13682.092225279081
 20
-807.693304229002
 11
13682.467725279081
 21
-816.453304229001
  0
LINE
  5
FD
100
AcDbEntity
  8
1
  6
CONTINUOUS
 62
           2
100
AcDbLine
 10
13682.092225279081
 20
-828.913304229002
 11
13682.467725279081
 21
-820.153304229003
  0
LINE
  5
FC
100
AcDbEntity
  8
1
  6
CONTINUOUS
 62
           2
100
AcDbLine
 10
13648.467725279081
 20
-820.153304229003
 11
13648.843225279081
 21
-828.913304229002
  0
LINE
  5
FB
100
AcDbEntity
  8
1
  6
CONTINUOUS
 62
           2
100
AcDbLine
 10
13648.467725279081
 20
-816.453304229001
 11
13648.843225279081
 21
-807.693304229002
  0
LINE
  5
FA
100
AcDbEntity
  8
1
  6
CONTINUOUS
 62
           2
100
AcDbLine
 10
13682.467725279081
 20
-820.153304229003
 11
13682.467725279081
 21
-816.453304229001
  0
LINE
  5
F9
100
AcDbEntity
  8
1
  6
CONTINUOUS
 62
           2
100
AcDbLine
 10
13648.467725279081
 20
-816.453304229001
 11
13648.467725279081
 21
-820.153304229003
  0
LINE
  5
F8
100
AcDbEntity
  8
1
  6
CONTINUOUS
 62
           2
100
AcDbLine
 10
13682.467725279081
 20
-820.153304229003
 11
13648.467725279081
 21
-820.153304229003
  0
LINE
  5
F7
100
AcDbEntity
  8
1
  6
CONTINUOUS
 62
           2
100
AcDbLine
 10
13648.467725279081
 20
-816.453304229001
 11
13682.467725279081
 21
-816.453304229001
  0
LINE
  5
F6
100
AcDbEntity
  8
1
  6
CONTINUOUS
 62
           2
100
AcDbLine
 10
13699.07821923954
 20
-845.411759696431
 11
13691.967725279081
 21
-845.411759696431
  0
LINE
  5
F5
100
AcDbEntity
  8
1
  6
CONTINUOUS
 62
           2
100
AcDbLine
 10
13709.46304277428
 20
-879.913304229002
 11
13709.46304277428
 21
-843.911759696431
  0
LINE
  5
F4
100
AcDbEntity
  8
1
  6
CONTINUOUS
 62
           2
100
AcDbLine
 10
13704.46304277428
 20
-914.414848761574
 11
13704.46304277428
 21
-915.914848761574
  0
LINE
  5
F3
100
AcDbEntity
  8
1
  6
CONTINUOUS
 62
           2
100
AcDbLine
 10
13704.46304277428
 20
-845.411759696431
 11
13704.46304277428
 21
-843.911759696431
  0
LINE
  5
F2
100
AcDbEntity
  8
1
  6
CONTINUOUS
 62
           2
100
AcDbLine
 10
13704.46304277428
 20
-914.414848761574
 11
13704.46304277428
 21
-845.411759696431
  0
LINE
  5
F1
100
AcDbEntity
  8
1
  6
CONTINUOUS
 62
           2
100
AcDbLine
 10
13704.46304277428
 20
-843.911759696431
 11
13709.46304277428
 21
-843.911759696431
  0
LINE
  5
F0
100
AcDbEntity
  8
1
  6
CONTINUOUS
 62
           2
100
AcDbLine
 10
13704.46304277428
 20
-915.914848761574
 11
13709.46304277428
 21
-915.914848761574
  0
LINE
  5
EF
100
AcDbEntity
  8
1
  6
CONTINUOUS
 62
           2
100
AcDbLine
 10
13709.46304277428
 20
-915.914848761574
 11
13709.46304277428
 21
-879.913304229002
  0
LINE
  5
EE
100
AcDbEntity
  8
1
  6
CONTINUOUS
 62
           2
100
AcDbLine
 10
13699.07821923954
 20
-914.414848761574
 11
13689.967725279081
 21
-914.414848761574
  0
LINE
  5
ED
100
AcDbEntity
  8
1
  6
DOT_CENTER
 62
           2
100
AcDbLine
 10
13665.467725279081
 20
-921.353979319425
 11
13665.467725279081
 21
-819.505994200063
  0
LINE
  5
EC
100
AcDbEntity
  8
1
  6
CONTINUOUS
 62
           2
100
AcDbLine
 10
13643.454807557
 20
-833.913304229002
 11
13687.48064300115
 21
-833.913304229002
  0
LINE
  5
EB
100
AcDbEntity
  8
1
  6
CONTINUOUS
 62
           2
100
AcDbLine
 10
13687.48064300115
 20
-828.913304229002
 11
13687.48064300115
 21
-833.913304229002
  0
LINE
  5
EA
100
AcDbEntity
  8
1
  6
CONTINUOUS
 62
           2
100
AcDbLine
 10
13643.454807557
 20
-828.913304229002
 11
13643.454807557
 21
-833.913304229002
  0
LINE
  5
E9
100
AcDbEntity
  8
1
  6
CONTINUOUS
 62
           2
100
AcDbLine
 10
13643.454807557
 20
-828.913304229002
 11
13665.467725279081
 21
-828.913304229002
  0
LINE
  5
E8
100
AcDbEntity
  8
1
  6
CONTINUOUS
 62
           2
100
AcDbLine
 10
13685.967725279081
 20
-838.078385411266
 11
13685.967725279081
 21
-839.411759696431
  0
LINE
  5
E7
100
AcDbEntity
  8
1
  6
CONTINUOUS
 62
           2
100
AcDbLine
 10
13644.967725279081
 20
-838.078385411266
 11
13644.967725279081
 21
-869.414848761575
  0
LINE
  5
E6
100
AcDbEntity
  8
1
  6
CONTINUOUS
 62
           2
100
AcDbLine
 10
13665.467725279081
 20
-828.913304229002
 11
13687.48064300115
 21
-828.913304229002
  0
LINE
  5
E5
100
AcDbEntity
  8
1
  6
CONTINUOUS
 62
           2
100
AcDbLine
 10
13709.46304277428
 20
-850.106304229002
 11
13720.58304277428
 21
-849.663304229002
  0
LINE
  5
E4
100
AcDbEntity
  8
1
  6
CONTINUOUS
 62
           2
100
AcDbLine
 10
13720.58304277428
 20
-910.163304229002
 11
13709.46304277428
 21
-909.720304229003
  0
LINE
  5
E3
100
AcDbEntity
  8
1
  6
CONTINUOUS
 62
           7
100
AcDbLine
 10
13724.58304277428
 20
-849.663304229002
 11
13735.703042774279
 21
-850.106304229002
  0
LINE
  5
E2
100
AcDbEntity
  8
1
  6
CONTINUOUS
 62
           7
100
AcDbLine
 10
13724.58304277428
 20
-910.163304229002
 11
13735.703042774279
 21
-909.720304229003
  0
LINE
  5
E1
100
AcDbEntity
  8
1
  6
CONTINUOUS
 62
           2
100
AcDbLine
 10
13724.58304277428
 20
-849.663304229002
 11
13720.58304277428
 21
-849.663304229002
  0
LINE
  5
E0
100
AcDbEntity
  8
1
  6
CONTINUOUS
 62
           2
100
AcDbLine
 10
13720.58304277428
 20
-910.163304229002
 11
13724.58304277428
 21
-910.163304229002
  0
LINE
  5
DF
100
AcDbEntity
  8
1
  6
CONTINUOUS
 62
           2
100
AcDbLine
 10
13720.58304277428
 20
-910.163304229002
 11
13720.58304277428
 21
-849.663304229002
  0
LINE
  5
DE
100
AcDbEntity
  8
1
  6
CONTINUOUS
 62
           2
100
AcDbLine
 10
13724.58304277428
 20
-849.663304229002
 11
13724.58304277428
 21
-910.163304229002
  0
LINE
  5
DD
100
AcDbEntity
  8
1
  6
DOT_CENTER
 62
           2
100
AcDbLine
 10
13665.467725279081
 20
-920.775823901625
 11
13665.467725279081
 21
-605.01082603001
  0
LINE
  5
DC
100
AcDbEntity
  8
1
  6
CONTINUOUS
 62
           2
100
AcDbLine
 10
13681.10963971409
 20
-651.192632890418
 11
13684.10963971409
 21
-652.924683697986
  0
LINE
  5
DB
100
AcDbEntity
  8
1
  6
CONTINUOUS
 62
           2
100
AcDbLine
 10
13684.10963971409
 20
-652.924683697986
 11
13684.10963971409
 21
-659.192632890418
  0
LINE
  5
DA
100
AcDbEntity
  8
1
  6
CONTINUOUS
 62
           2
100
AcDbLine
 10
13684.10963971409
 20
-659.192632890418
 11
13647.10963971409
 21
-659.192632890418
  0
LINE
  5
D9
100
AcDbEntity
  8
1
  6
CONTINUOUS
 62
           2
100
AcDbLine
 10
13647.10963971409
 20
-659.192632890418
 11
13647.10963971409
 21
-652.924683697986
  0
LINE
  5
D8
100
AcDbEntity
  8
1
  6
CONTINUOUS
 62
           2
100
AcDbLine
 10
13647.10963971409
 20
-652.924683697986
 11
13650.10963971409
 21
-651.192632890418
  0
LINE
  5
D7
100
AcDbEntity
  8
1
  6
CONTINUOUS
 62
           2
100
AcDbLine
 10
13650.10963971409
 20
-651.192632890418
 11
13681.10963971409
 21
-651.192632890418
  0
LINE
  5
D6
100
AcDbEntity
  8
1
  6
CONTINUOUS
 62
           2
100
AcDbLine
 10
13680.60963971409
 20
-642.692632890418
 11
13680.60963971409
 21
-651.202931765069
  0
LINE
  5
D5
100
AcDbEntity
  8
1
  6
CONTINUOUS
 62
           2
100
AcDbLine
 10
13650.60963971409
 20
-642.692632890418
 11
13650.60963971409
 21
-651.192632890418
  0
LINE
  5
D4
100
AcDbEntity
  8
1
  6
CONTINUOUS
 62
           2
100
AcDbLine
 10
13674.85963971409
 20
-652.924683697986
 11
13674.85963971409
 21
-659.192632890418
  0
LINE
  5
D3
100
AcDbEntity
  8
1
  6
CONTINUOUS
 62
           2
100
AcDbLine
 10
13656.35963971409
 20
-652.924683697986
 11
13656.35963971409
 21
-659.192632890418
  0
LINE
  5
D2
100
AcDbEntity
  8
1
  6
CONTINUOUS
 62
           2
100
AcDbLine
 10
13685.60963971409
 20
-660.192632890418
 11
13685.60963971409
 21
-662.192632890418
  0
LINE
  5
D1
100
AcDbEntity
  8
1
  6
CONTINUOUS
 62
           2
100
AcDbLine
 10
13646.60963971409
 20
-659.192632890418
 11
13684.60963971409
 21
-659.192632890418
  0
LINE
  5
D0
100
AcDbEntity
  8
1
  6
CONTINUOUS
 62
           2
100
AcDbLine
 10
13645.60963971409
 20
-660.192632890418
 11
13645.60963971409
 21
-662.192632890418
  0
LINE
  5
CF
100
AcDbEntity
  8
1
  6
CONTINUOUS
 62
           2
100
AcDbLine
 10
13692.10963971409
 20
-710.791380440356
 11
13692.10963971409
 21
-718.193304229002
  0
LINE
  5
CE
100
AcDbEntity
  8
1
  6
CONTINUOUS
 62
           2
100
AcDbLine
 10
13692.10963971409
 20
-718.193304229002
 11
13639.10963971409
 21
-718.193304229002
  0
LINE
  5
CD
100
AcDbEntity
  8
1
  6
CONTINUOUS
 62
           2
100
AcDbLine
 10
13639.10963971409
 20
-718.193304229002
 11
13639.10963971409
 21
-710.791380440356
  0
LINE
  5
CC
100
AcDbEntity
  8
1
  6
CONTINUOUS
 62
           2
100
AcDbLine
 10
13678.85963971409
 20
-710.791380440356
 11
13678.85963971409
 21
-718.193304229002
  0
LINE
  5
CB
100
AcDbEntity
  8
1
  6
CONTINUOUS
 62
           2
100
AcDbLine
 10
13652.35963971409
 20
-710.791380440356
 11
13652.35963971409
 21
-718.193304229002
  0
LINE
  5
CA
100
AcDbEntity
  8
1
  6
CONTINUOUS
 62
           2
100
AcDbLine
 10
13640.60963971409
 20
-709.925355036572
 11
13640.60963971409
 21
-666.192632890418
  0
LINE
  5
C9
100
AcDbEntity
  8
1
  6
CONTINUOUS
 62
           2
100
AcDbLine
 10
13690.60963971409
 20
-709.925355036572
 11
13690.60963971409
 21
-666.192632890418
  0
LINE
  5
C8
100
AcDbEntity
  8
1
  6
CONTINUOUS
 62
           2
100
AcDbLine
 10
13642.60963971409
 20
-664.192632890418
 11
13643.60963971409
 21
-664.192632890418
  0
LINE
  5
C7
100
AcDbEntity
  8
1
  6
CONTINUOUS
 62
           2
100
AcDbLine
 10
13688.60963971409
 20
-664.192632890418
 11
13687.60963971409
 21
-664.192632890418
  0
LINE
  5
C6
100
AcDbEntity
  8
1
  6
CONTINUOUS
 62
           2
100
AcDbLine
 10
13643.60963971409
 20
-664.192632890418
 11
13645.60963971409
 21
-664.192632890418
  0
LINE
  5
C5
100
AcDbEntity
  8
1
  6
CONTINUOUS
 62
           2
100
AcDbLine
 10
13685.60963971409
 20
-664.192632890418
 11
13645.60963971409
 21
-664.192632890418
  0
LINE
  5
C4
100
AcDbEntity
  8
1
  6
CONTINUOUS
 62
           2
100
AcDbLine
 10
13687.60963971409
 20
-664.192632890418
 11
13685.60963971409
 21
-664.192632890418
  0
LINE
  5
C3
100
AcDbEntity
  8
1
  6
CONTINUOUS
 62
           2
100
AcDbLine
 10
13687.60963971409
 20
-708.193304229002
 11
13692.10963971409
 21
-710.791380440356
  0
LINE
  5
C2
100
AcDbEntity
  8
1
  6
CONTINUOUS
 62
           2
100
AcDbLine
 10
13687.60963971409
 20
-708.193304229002
 11
13643.60963971409
 21
-708.193304229002
  0
LINE
  5
C1
100
AcDbEntity
  8
1
  6
CONTINUOUS
 62
           2
100
AcDbLine
 10
13643.60963971409
 20
-708.193304229002
 11
13639.10963971409
 21
-710.791380440356
  0
LINE
  5
C0
100
AcDbEntity
  8
1
  6
CONTINUOUS
 62
           2
100
AcDbLine
 10
13639.10963971409
 20
-718.193304229002
 11
13630.60963971409
 21
-718.193304229002
  0
LINE
  5
BF
100
AcDbEntity
  8
1
  6
CONTINUOUS
 62
           2
100
AcDbLine
 10
13625.60963971409
 20
-723.193304229002
 11
13625.60963971409
 21
-776.693304229002
  0
LINE
  5
BE
100
AcDbEntity
  8
1
  6
CONTINUOUS
 62
           2
100
AcDbLine
 10
13630.60963971409
 20
-781.693304229002
 11
13700.60963971409
 21
-781.693304229002
  0
LINE
  5
BD
100
AcDbEntity
  8
1
  6
CONTINUOUS
 62
           2
100
AcDbLine
 10
13705.60963971409
 20
-723.193304229002
 11
13705.60963971409
 21
-776.693304229002
  0
LINE
  5
BC
100
AcDbEntity
  8
1
  6
CONTINUOUS
 62
           2
100
AcDbLine
 10
13692.10963971409
 20
-718.193304229002
 11
13700.60963971409
 21
-718.193304229002
  0
LINE
  5
BB
100
AcDbEntity
  8
1
  6
CONTINUOUS
 62
           2
100
AcDbLine
 10
13686.60963971409
 20
-807.693304229002
 11
13644.60963971409
 21
-807.693304229002
  0
LINE
  5
BA
100
AcDbEntity
  8
1
  6
CONTINUOUS
 62
           2
100
AcDbLine
 10
13700.60963971409
 20
-781.693304229002
 11
13630.60963971409
 21
-781.693304229002
  0
LINE
  5
B9
100
AcDbEntity
  8
1
  6
CONTINUOUS
 62
           2
100
AcDbLine
 10
13696.10963971409
 20
-792.693304229002
 11
13635.10963971409
 21
-792.693304229002
  0
LINE
  5
B8
100
AcDbEntity
  8
1
  6
CONTINUOUS
 62
           2
100
AcDbLine
 10
13635.10963971409
 20
-792.693304229002
 11
13635.10963971409
 21
-805.383903152244
  0
LINE
  5
B7
100
AcDbEntity
  8
1
  6
CONTINUOUS
 62
           2
100
AcDbLine
 10
13697.60963971409
 20
-792.693304229002
 11
13633.60963971409
 21
-792.693304229002
  0
LINE
  5
B6
100
AcDbEntity
  8
1
  6
CONTINUOUS
 62
           2
100
AcDbLine
 10
13700.60963971409
 20
-781.693304229002
 11
13630.60963971409
 21
-781.693304229002
  0
LINE
  5
B5
100
AcDbEntity
  8
1
  6
CONTINUOUS
 62
           2
100
AcDbLine
 10
13639.10963971409
 20
-807.693304229002
 11
13692.10963971409
 21
-807.693304229002
  0
LINE
  5
B4
100
AcDbEntity
  8
1
  6
CONTINUOUS
 62
           2
100
AcDbLine
 10
13696.10963971409
 20
-805.383903152244
 11
13696.10963971409
 21
-792.693304229002
  0
LINE
  5
B3
100
AcDbEntity
  8
1
  6
CONTINUOUS
 62
           2
100
AcDbLine
 10
13696.10963971409
 20
-805.383903152244
 11
13692.10963971409
 21
-807.693304229002
  0
LINE
  5
B2
100
AcDbEntity
  8
1
  6
CONTINUOUS
 62
           2
100
AcDbLine
 10
13635.10963971409
 20
-805.383903152244
 11
13639.10963971409
 21
-807.693304229002
  0
LINE
  5
B1
100
AcDbEntity
  8
1
  6
CONTINUOUS
 62
           2
100
AcDbLine
 10
13680.85963971409
 20
-805.383903152244
 11
13680.85963971409
 21
-792.693304229002
  0
LINE
  5
B0
100
AcDbEntity
  8
1
  6
CONTINUOUS
 62
           2
100
AcDbLine
 10
13650.35963971409
 20
-805.383903152244
 11
13650.35963971409
 21
-792.693304229002
  0
LINE
  5
AF
100
AcDbEntity
  8
1
  6
CONTINUOUS
 62
           7
100
AcDbLine
 10
13755.703042774279
 20
-846.763304229002
 11
13735.703042774279
 21
-846.763304229002
  0
LINE
  5
AE
100
AcDbEntity
  8
1
  6
CONTINUOUS
 62
           7
100
AcDbLine
 10
13755.703042774279
 20
-913.063304229003
 11
13735.703042774279
 21
-913.063304229003
  0
LINE
  5
AD
100
AcDbEntity
  8
1
  6
CONTINUOUS
 62
           7
100
AcDbLine
 10
13735.703042774279
 20
-913.063304229003
 11
13735.703042774279
 21
-846.763304229002
  0
LINE
  5
AC
100
AcDbEntity
  8
1
  6
DOT_CENTER
 62
           2
100
AcDbLine
 10
10237.371075075769
 20
-1992.942467503344
 11
10273.06262791683
 21
-2007.726392752265
  0
LINE
  5
AB
100
AcDbEntity
  8
1
  6
DOT_CENTER
 62
           2
100
AcDbLine
 10
10237.371075075769
 20
-2066.88414095466
 11
10273.06262791683
 21
-2052.100215705739
  0
LINE
  5
AA
100
AcDbEntity
  8
1
  6
DOT_CENTER
 62
           2
100
AcDbLine
 10
10415.8820659465
 20
-2066.88414095466
 11
10380.19051310545
 21
-2052.100215705739
  0
LINE
  5
A9
100
AcDbEntity
  8
1
  6
DOT_CENTER
 62
           2
100
AcDbLine
 10
10415.8820659465
 20
-1992.942467503344
 11
10380.19051310545
 21
-2007.726392752265
  0
LINE
  5
A8
100
AcDbEntity
  8
1
  6
DOT_CENTER
 62
           2
100
AcDbLine
 10
10289.655733785479
 20
-2119.168799664368
 11
10304.4396590344
 21
-2083.477246823311
  0
LINE
  5
A7
100
AcDbEntity
  8
1
  6
DOT_CENTER
 62
           2
100
AcDbLine
 10
10348.813481987871
 20
-2083.477246823311
 11
10363.597407236801
 21
-2119.168799664368
  0
LINE
  5
A6
100
AcDbEntity
  8
1
  6
DOT_CENTER
 62
           2
100
AcDbLine
 10
10304.4396590344
 20
-1976.349361634693
 11
10289.655733785479
 21
-1940.657808793637
  0
LINE
  5
A5
100
AcDbEntity
  8
1
  6
DOT_CENTER
 62
           2
100
AcDbLine
 10
10363.597407236801
 20
-1940.657808793637
 11
10348.813481987871
 21
-1976.349361634693
  0
LINE
  5
A4
100
AcDbEntity
  8
1
  6
DOT_CENTER
 62
           2
100
AcDbLine
 10
10202.841205466581
 20
-2029.913304229002
 11
10446.65933870552
 21
-2029.913304229002
  0
LINE
  5
A3
100
AcDbEntity
  8
1
  6
DOT_CENTER
 62
           2
100
AcDbLine
 10
10326.62657051114
 20
-1919.672676224627
 11
10326.62657051114
 21
-2149.865619809782
  0
LINE
  5
A2
100
AcDbEntity
  8
1
  6
DOT_CENTER
 62
           2
100
AcDbLine
 10
11436.328060117759
 20
-1637.317721222173
 11
11436.328060117759
 21
-2084.395086639207
  0
LINE
  5
A1
100
AcDbEntity
  8
1
  6
CONTINUOUS
 62
           7
100
AcDbLine
 10
11453.828060117759
 20
-1679.413304229002
 11
11456.32607628599
 21
-1856.631614088157
  0
LINE
  5
A0
100
AcDbEntity
  8
1
  6
CONTINUOUS
 62
           7
100
AcDbLine
 10
11418.829795970571
 20
-1679.166825355763
 11
11416.328060117759
 21
-1856.913304229002
  0
LINE
  5
9F
100
AcDbEntity
  8
1
  6
CONTINUOUS
 62
           7
100
AcDbLine
 10
11444.988314155609
 20
-1841.913304229002
 11
11427.66780607992
 21
-1841.913304229002
  0
LINE
  5
9E
100
AcDbEntity
  8
1
  6
CONTINUOUS
 62
           7
100
AcDbLine
 10
11427.66780607992
 20
-1841.913304229002
 11
11419.007552042071
 21
-1856.913304229002
  0
LINE
  5
9D
100
AcDbEntity
  8
1
  6
CONTINUOUS
 62
           7
100
AcDbLine
 10
11419.007552042071
 20
-1856.913304229002
 11
11427.66780607992
 21
-1871.913304229002
  0
LINE
  5
9C
100
AcDbEntity
  8
1
  6
CONTINUOUS
 62
           7
100
AcDbLine
 10
11427.66780607992
 20
-1871.913304229002
 11
11444.988314155609
 21
-1871.913304229002
  0
LINE
  5
9B
100
AcDbEntity
  8
1
  6
CONTINUOUS
 62
           7
100
AcDbLine
 10
11444.988314155609
 20
-1871.913304229002
 11
11453.64856819345
 21
-1856.913304229002
  0
LINE
  5
9A
100
AcDbEntity
  8
1
  6
CONTINUOUS
 62
           7
100
AcDbLine
 10
11453.64856819345
 20
-1856.913304229002
 11
11444.988314155609
 21
-1841.913304229002
  0
LINE
  5
99
100
AcDbEntity
  8
1
  6
DASH_CENTER
 62
           2
100
AcDbLine
 10
11457.97869521237
 20
-1856.913304229002
 11
11414.67742502315
 21
-1856.913304229002
  0
LINE
  5
98
100
AcDbEntity
  8
1
  6
DASH_CENTER
 62
           2
100
AcDbLine
 10
11436.328060117759
 20
-1835.262669134391
 11
11436.328060117759
 21
-1878.563939323613
  0
LINE
  5
97
100
AcDbEntity
  8
1
  6
CONTINUOUS
 62
           7
100
AcDbLine
 10
11456.32607628599
 20
-1857.194994369847
 11
11453.828060117759
 21
-2034.413304229002
  0
LINE
  5
96
100
AcDbEntity
  8
1
  6
CONTINUOUS
 62
           7
100
AcDbLine
 10
11416.328060117759
 20
-1856.913304229002
 11
11418.829795970571
 21
-2034.659783102242
  0
LINE
  5
95
100
AcDbEntity
  8
1
  6
CONTINUOUS
 62
           7
100
AcDbLine
 10
11253.826324264959
 20
-2034.659783102242
 11
11256.328060117759
 21
-1856.913304229002
  0
LINE
  5
94
100
AcDbEntity
  8
1
  6
CONTINUOUS
 62
           7
100
AcDbLine
 10
11218.828060117759
 20
-2034.413304229002
 11
11216.33004394954
 21
-1857.194994369847
  0
LINE
  5
93
100
AcDbEntity
  8
1
  6
DASH_CENTER
 62
           2
100
AcDbLine
 10
11236.328060117759
 20
-1878.563939323613
 11
11236.328060117759
 21
-1835.262669134391
  0
LINE
  5
92
100
AcDbEntity
  8
1
  6
DASH_CENTER
 62
           2
100
AcDbLine
 10
11257.97869521237
 20
-1856.913304229002
 11
11214.67742502315
 21
-1856.913304229002
  0
LINE
  5
91
100
AcDbEntity
  8
1
  6
CONTINUOUS
 62
           7
100
AcDbLine
 10
11227.66780607992
 20
-1841.913304229002
 11
11219.007552042071
 21
-1856.913304229002
  0
LINE
  5
90
100
AcDbEntity
  8
1
  6
CONTINUOUS
 62
           7
100
AcDbLine
 10
11219.007552042071
 20
-1856.913304229002
 11
11227.66780607992
 21
-1871.913304229002
  0
LINE
  5
8F
100
AcDbEntity
  8
1
  6
CONTINUOUS
 62
           7
100
AcDbLine
 10
11227.66780607992
 20
-1871.913304229002
 11
11244.988314155609
 21
-1871.913304229002
  0
LINE
  5
8E
100
AcDbEntity
  8
1
  6
CONTINUOUS
 62
           7
100
AcDbLine
 10
11244.988314155609
 20
-1871.913304229002
 11
11253.64856819345
 21
-1856.913304229002
  0
LINE
  5
8D
100
AcDbEntity
  8
1
  6
CONTINUOUS
 62
           7
100
AcDbLine
 10
11253.64856819345
 20
-1856.913304229002
 11
11244.988314155609
 21
-1841.913304229002
  0
LINE
  5
8C
100
AcDbEntity
  8
1
  6
CONTINUOUS
 62
           7
100
AcDbLine
 10
11244.988314155609
 20
-1841.913304229002
 11
11227.66780607992
 21
-1841.913304229002
  0
LINE
  5
8B
100
AcDbEntity
  8
1
  6
CONTINUOUS
 62
           7
100
AcDbLine
 10
11256.328060117759
 20
-1856.913304229002
 11
11253.826324264959
 21
-1679.166825355763
  0
LINE
  5
8A
100
AcDbEntity
  8
1
  6
CONTINUOUS
 62
           7
100
AcDbLine
 10
11216.33004394954
 20
-1856.631614088157
 11
11218.828060117759
 21
-1679.413304229002
  0
LINE
  5
89
100
AcDbEntity
  8
1
  6
DOT_CENTER
 62
           2
100
AcDbLine
 10
11236.328060117759
 20
-2084.395086639207
 11
11236.328060117759
 21
-1637.317721222173
  0
LINE
  5
88
100
AcDbEntity
  8
1
  6
CONTINUOUS
 62
           7
100
AcDbLine
 10
11423.829795970571
 20
-3295.7312507013
 11
11448.828060117759
 21
-3295.7312507013
  0
LINE
  5
87
100
AcDbEntity
  8
1
  6
CONTINUOUS
 62
           7
100
AcDbLine
 10
11453.828060117759
 20
-3300.7312507013
 11
11453.828060117759
 21
-3364.314507861574
  0
LINE
  5
86
100
AcDbEntity
  8
1
  6
CONTINUOUS
 62
           7
100
AcDbLine
 10
11418.829795970571
 20
-3300.7312507013
 11
11418.829795970571
 21
-3357.758191769437
  0
LINE
  5
85
100
AcDbEntity
  8
1
  6
CONTINUOUS
 62
           7
100
AcDbLine
 10
11421.328060117759
 20
-3270.7312507013
 11
11451.32607628599
 21
-3270.7312507013
  0
LINE
  5
84
100
AcDbEntity
  8
1
  6
CONTINUOUS
 62
           7
100
AcDbLine
 10
11456.32607628599
 20
-3275.7312507013
 11
11456.32607628599
 21
-3364.906454873766
  0
LINE
  5
83
100
AcDbEntity
  8
1
  6
CONTINUOUS
 62
           7
100
AcDbLine
 10
11416.328060117759
 20
-3275.7312507013
 11
11416.328060117759
 21
-3358.130420746814
  0
LINE
  5
82
100
AcDbEntity
  8
1
  6
CONTINUOUS
 62
           7
100
AcDbLine
 10
11419.95662299297
 20
-3295.7312507013
 11
11418.155484497731
 21
-3273.87726264167
  0
LINE
  5
81
100
AcDbEntity
  8
1
  6
CONTINUOUS
 62
           7
100
AcDbLine
 10
11454.500635737801
 20
-3273.87726264167
 11
11452.69949724256
 21
-3295.7312507013
  0
LINE
  5
80
100
AcDbEntity
  8
1
  6
CONTINUOUS
 62
           7
100
AcDbLine
 10
11419.007552042071
 20
-3270.7312507013
 11
11453.64856819345
 21
-3270.7312507013
  0
LINE
  5
7F
100
AcDbEntity
  8
1
  6
CONTINUOUS
 62
           7
100
AcDbLine
 10
11419.007552042071
 20
-3256.070996663456
 11
11421.328060117759
 21
-3254.7312507013
  0
LINE
  5
7E
100
AcDbEntity
  8
1
  6
CONTINUOUS
 62
           7
100
AcDbLine
 10
11451.328060117759
 20
-3254.7312507013
 11
11453.64856819345
 21
-3256.070996663456
  0
LINE
  5
7D
100
AcDbEntity
  8
1
  6
CONTINUOUS
 62
           7
100
AcDbLine
 10
11419.007552042071
 20
-3270.7312507013
 11
11419.007552042071
 21
-3256.070996663456
  0
LINE
  5
7C
100
AcDbEntity
  8
1
  6
CONTINUOUS
 62
           7
100
AcDbLine
 10
11421.328060117759
 20
-3254.7312507013
 11
11451.328060117759
 21
-3254.7312507013
  0
LINE
  5
7B
100
AcDbEntity
  8
1
  6
CONTINUOUS
 62
           7
100
AcDbLine
 10
11453.64856819345
 20
-3256.070996663456
 11
11453.64856819345
 21
-3270.7312507013
  0
LINE
  5
7A
100
AcDbEntity
  8
1
  6
CONTINUOUS
 62
           7
100
AcDbLine
 10
11427.66780607992
 20
-3270.7312507013
 11
11427.66780607992
 21
-3256.070996663456
  0
LINE
  5
79
100
AcDbEntity
  8
1
  6
CONTINUOUS
 62
           7
100
AcDbLine
 10
11444.988314155609
 20
-3270.7312507013
 11
11444.988314155609
 21
-3256.070996663456
  0
LINE
  5
78
100
AcDbEntity
  8
1
  6
CONTINUOUS
 62
           7
100
AcDbLine
 10
11426.328060117759
 20
-3242.2312507013
 11
11428.828060117759
 21
-3239.7312507013
  0
LINE
  5
77
100
AcDbEntity
  8
1
  6
CONTINUOUS
 62
           7
100
AcDbLine
 10
11428.828060117759
 20
-3239.7312507013
 11
11443.828060117759
 21
-3239.7312507013
  0
LINE
  5
76
100
AcDbEntity
  8
1
  6
CONTINUOUS
 62
           7
100
AcDbLine
 10
11443.828060117759
 20
-3239.7312507013
 11
11446.328060117759
 21
-3242.2312507013
  0
LINE
  5
75
100
AcDbEntity
  8
1
  6
CONTINUOUS
 62
           7
100
AcDbLine
 10
11446.328060117759
 20
-3242.2312507013
 11
11446.328060117759
 21
-3254.7312507013
  0
LINE
  5
74
100
AcDbEntity
  8
1
  6
CONTINUOUS
 62
           7
100
AcDbLine
 10
11426.328060117759
 20
-3242.2312507013
 11
11446.328060117759
 21
-3242.2312507013
  0
LINE
  5
73
100
AcDbEntity
  8
1
  6
CONTINUOUS
 62
           7
100
AcDbLine
 10
11426.328060117759
 20
-3254.7312507013
 11
11426.328060117759
 21
-3242.2312507013
  0
LINE
  5
72
100
AcDbEntity
  8
1
  6
CONTINUOUS
 62
           3
100
AcDbLine
 10
11427.68106011776
 20
-3254.7312507013
 11
11427.68106011776
 21
-3240.8782507013
  0
LINE
  5
71
100
AcDbEntity
  8
1
  6
CONTINUOUS
 62
           3
100
AcDbLine
 10
11444.97506011776
 20
-3254.7312507013
 11
11444.97506011776
 21
-3240.8782507013
  0
LINE
  5
70
100
AcDbEntity
  8
1
  6
DOT_CENTER
 62
           2
100
AcDbLine
 10
11436.328060117759
 20
-3232.614834174879
 11
11436.328060117759
 21
-3372.95248482975
  0
LINE
  5
6F
100
AcDbEntity
  8
1
  6
DOT_CENTER
 62
           2
100
AcDbLine
 10
11236.328060117759
 20
-3372.95248482975
 11
11236.328060117759
 21
-3232.614834174879
  0
LINE
  5
6E
100
AcDbEntity
  8
1
  6
CONTINUOUS
 62
           3
100
AcDbLine
 10
11227.68106011776
 20
-3240.8782507013
 11
11227.68106011776
 21
-3254.7312507013
  0
LINE
  5
6D
100
AcDbEntity
  8
1
  6
CONTINUOUS
 62
           3
100
AcDbLine
 10
11244.97506011776
 20
-3240.8782507013
 11
11244.97506011776
 21
-3254.7312507013
  0
LINE
  5
6C
100
AcDbEntity
  8
1
  6
CONTINUOUS
 62
           7
100
AcDbLine
 10
11246.328060117759
 20
-3242.2312507013
 11
11246.328060117759
 21
-3254.7312507013
  0
LINE
  5
6B
100
AcDbEntity
  8
1
  6
CONTINUOUS
 62
           7
100
AcDbLine
 10
11226.328060117759
 20
-3242.2312507013
 11
11246.328060117759
 21
-3242.2312507013
  0
LINE
  5
6A
100
AcDbEntity
  8
1
  6
CONTINUOUS
 62
           7
100
AcDbLine
 10
11226.328060117759
 20
-3254.7312507013
 11
11226.328060117759
 21
-3242.2312507013
  0
LINE
  5
69
100
AcDbEntity
  8
1
  6
CONTINUOUS
 62
           7
100
AcDbLine
 10
11226.328060117759
 20
-3242.2312507013
 11
11228.828060117759
 21
-3239.7312507013
  0
LINE
  5
68
100
AcDbEntity
  8
1
  6
CONTINUOUS
 62
           7
100
AcDbLine
 10
11228.828060117759
 20
-3239.7312507013
 11
11243.828060117759
 21
-3239.7312507013
  0
LINE
  5
67
100
AcDbEntity
  8
1
  6
CONTINUOUS
 62
           7
100
AcDbLine
 10
11243.828060117759
 20
-3239.7312507013
 11
11246.328060117759
 21
-3242.2312507013
  0
LINE
  5
66
100
AcDbEntity
  8
1
  6
CONTINUOUS
 62
           7
100
AcDbLine
 10
11227.66780607992
 20
-3256.070996663456
 11
11227.66780607992
 21
-3270.7312507013
  0
LINE
  5
65
100
AcDbEntity
  8
1
  6
CONTINUOUS
 62
           7
100
AcDbLine
 10
11244.988314155609
 20
-3256.070996663456
 11
11244.988314155609
 21
-3270.7312507013
  0
LINE
  5
64
100
AcDbEntity
  8
1
  6
CONTINUOUS
 62
           7
100
AcDbLine
 10
11219.007552042071
 20
-3270.7312507013
 11
11219.007552042071
 21
-3256.070996663456
  0
LINE
  5
63
100
AcDbEntity
  8
1
  6
CONTINUOUS
 62
           7
100
AcDbLine
 10
11221.328060117759
 20
-3254.7312507013
 11
11251.328060117759
 21
-3254.7312507013
  0
LINE
  5
62
100
AcDbEntity
  8
1
  6
CONTINUOUS
 62
           7
100
AcDbLine
 10
11253.64856819345
 20
-3256.070996663456
 11
11253.64856819345
 21
-3270.7312507013
  0
LINE
  5
61
100
AcDbEntity
  8
1
  6
CONTINUOUS
 62
           7
100
AcDbLine
 10
11219.007552042071
 20
-3256.070996663456
 11
11221.328060117759
 21
-3254.7312507013
  0
LINE
  5
60
100
AcDbEntity
  8
1
  6
CONTINUOUS
 62
           7
100
AcDbLine
 10
11251.328060117759
 20
-3254.7312507013
 11
11253.64856819345
 21
-3256.070996663456
  0
LINE
  5
5F
100
AcDbEntity
  8
1
  6
CONTINUOUS
 62
           7
100
AcDbLine
 10
11219.007552042071
 20
-3270.7312507013
 11
11253.64856819345
 21
-3270.7312507013
  0
LINE
  5
5E
100
AcDbEntity
  8
1
  6
CONTINUOUS
 62
           7
100
AcDbLine
 10
11219.95662299297
 20
-3295.7312507013
 11
11218.155484497731
 21
-3273.87726264167
  0
LINE
  5
5D
100
AcDbEntity
  8
1
  6
CONTINUOUS
 62
           7
100
AcDbLine
 10
11254.500635737801
 20
-3273.87726264167
 11
11252.69949724256
 21
-3295.7312507013
  0
LINE
  5
5C
100
AcDbEntity
  8
1
  6
CONTINUOUS
 62
           7
100
AcDbLine
 10
11256.328060117759
 20
-3358.130420746814
 11
11256.328060117759
 21
-3275.7312507013
  0
LINE
  5
5B
100
AcDbEntity
  8
1
  6
CONTINUOUS
 62
           7
100
AcDbLine
 10
11216.33004394954
 20
-3364.906454873766
 11
11216.33004394954
 21
-3275.7312507013
  0
LINE
  5
5A
100
AcDbEntity
  8
1
  6
CONTINUOUS
 62
           7
100
AcDbLine
 10
11221.33004394954
 20
-3270.7312507013
 11
11251.328060117759
 21
-3270.7312507013
  0
LINE
  5
59
100
AcDbEntity
  8
1
  6
CONTINUOUS
 62
           7
100
AcDbLine
 10
11253.826324264959
 20
-3357.758191769437
 11
11253.826324264959
 21
-3300.7312507013
  0
LINE
  5
58
100
AcDbEntity
  8
1
  6
CONTINUOUS
 62
           7
100
AcDbLine
 10
11218.828060117759
 20
-3364.314507861574
 11
11218.828060117759
 21
-3300.7312507013
  0
LINE
  5
57
100
AcDbEntity
  8
1
  6
CONTINUOUS
 62
           7
100
AcDbLine
 10
11223.828060117759
 20
-3295.7312507013
 11
11248.826324264959
 21
-3295.7312507013
  0
LINE
  5
56
100
AcDbEntity
  8
1
  6
CONTINUOUS
 62
           7
100
AcDbLine
 10
13755.703042774279
 20
-1556.913304229002
 11
13749.703042774279
 21
-1556.913304229002
  0
LINE
  5
55
100
AcDbEntity
  8
1
  6
CONTINUOUS
 62
           7
100
AcDbLine
 10
13755.703042774279
 20
-2156.913304229002
 11
13749.703042774279
 21
-2156.913304229002
  0
LINE
  5
54
100
AcDbEntity
  8
1
  6
CONTINUOUS
 62
           7
100
AcDbLine
 10
13749.703042774279
 20
-1556.913304229002
 11
13749.703042774279
 21
-1706.913304229002
  0
LINE
  5
53
100
AcDbEntity
  8
1
  6
CONTINUOUS
 62
           7
100
AcDbLine
 10
13749.703042774279
 20
-2156.913304229002
 11
13749.703042774279
 21
-2006.913304229002
  0
LINE
  5
52
100
AcDbEntity
  8
1
  6
CONTINUOUS
 62
           7
100
AcDbLine
 10
13749.703042774279
 20
-1696.790498782488
 11
13732.203042774279
 21
-1696.790498782488
  0
LINE
  5
51
100
AcDbEntity
  8
1
  6
CONTINUOUS
 62
           7
100
AcDbLine
 10
13749.703042774279
 20
-2017.036109675517
 11
13732.203042774279
 21
-2017.036109675517
  0
LINE
  5
50
100
AcDbEntity
  8
1
  6
CONTINUOUS
 62
           7
100
AcDbLine
 10
13724.703042774279
 20
-1704.290498782488
 11
13724.703042774279
 21
-2009.536109675517
  0
LINE
  5
4F
100
AcDbEntity
  8
1
  6
CONTINUOUS
 62
           7
100
AcDbLine
 10
13664.703042774279
 20
-1874.233812304691
 11
13664.703042774279
 21
-1839.592796153313
  0
LINE
  5
4E
100
AcDbEntity
  8
1
  6
CONTINUOUS
 62
           7
100
AcDbLine
 10
13650.04278873644
 20
-1874.233812304691
 11
13648.703042774279
 21
-1871.913304229002
  0
LINE
  5
4D
100
AcDbEntity
  8
1
  6
CONTINUOUS
 62
           7
100
AcDbLine
 10
13648.703042774279
 20
-1841.913304229002
 11
13650.04278873644
 21
-1839.592796153313
  0
LINE
  5
4C
100
AcDbEntity
  8
1
  6
CONTINUOUS
 62
           7
100
AcDbLine
 10
13664.703042774279
 20
-1874.233812304691
 11
13650.04278873644
 21
-1874.233812304691
  0
LINE
  5
4B
100
AcDbEntity
  8
1
  6
CONTINUOUS
 62
           7
100
AcDbLine
 10
13648.703042774279
 20
-1871.913304229002
 11
13648.703042774279
 21
-1841.913304229002
  0
LINE
  5
4A
100
AcDbEntity
  8
1
  6
CONTINUOUS
 62
           7
100
AcDbLine
 10
13650.04278873644
 20
-1839.592796153313
 11
13664.703042774279
 21
-1839.592796153313
  0
LINE
  5
49
100
AcDbEntity
  8
1
  6
CONTINUOUS
 62
           7
100
AcDbLine
 10
13664.703042774279
 20
-1865.573558266847
 11
13650.04278873644
 21
-1865.573558266847
  0
LINE
  5
48
100
AcDbEntity
  8
1
  6
CONTINUOUS
 62
           7
100
AcDbLine
 10
13664.703042774279
 20
-1848.253050191158
 11
13650.04278873644
 21
-1848.253050191158
  0
LINE
  5
47
100
AcDbEntity
  8
1
  6
DASH_CENTER
 62
           2
100
AcDbLine
 10
13668.703042774279
 20
-1856.913304229002
 11
13644.703042774279
 21
-1856.913304229002
  0
LINE
  5
46
100
AcDbEntity
  8
1
  6
CONTINUOUS
 62
           7
100
AcDbLine
 10
13749.703042774279
 20
-1661.790498782488
 11
13703.13563096072
 21
-1661.790498782488
  0
LINE
  5
45
100
AcDbEntity
  8
1
  6
CONTINUOUS
 62
           7
100
AcDbLine
 10
13664.703042774279
 20
-1836.913304229002
 11
13693.279211155061
 21
-1670.102011703859
  0
LINE
  5
44
100
AcDbEntity
  8
1
  6
CONTINUOUS
 62
           7
100
AcDbLine
 10
13664.703042774279
 20
-1836.913304229002
 11
13664.703042774279
 21
-1856.913304229002
  0
LINE
  5
43
100
AcDbEntity
  8
1
  6
CONTINUOUS
 62
           7
100
AcDbLine
 10
13703.13563096072
 20
-2052.036109675517
 11
13749.703042774279
 21
-2052.036109675517
  0
LINE
  5
42
100
AcDbEntity
  8
1
  6
CONTINUOUS
 62
           7
100
AcDbLine
 10
13693.279211155061
 20
-2043.724596754146
 11
13664.703042774279
 21
-1876.913304229002
  0
LINE
  5
41
100
AcDbEntity
  8
1
  6
CONTINUOUS
 62
           7
100
AcDbLine
 10
13664.703042774279
 20
-1856.913304229002
 11
13664.703042774279
 21
-1876.913304229002
  0
LINE
  5
40
100
AcDbEntity
  8
1
  6
CONTINUOUS
 62
           7
100
AcDbLine
 10
13693.279211155061
 20
-2043.724596754146
 11
13664.703042774279
 21
-1876.913304229002
  0
LINE
  5
3F
100
AcDbEntity
  8
1
  6
CONTINUOUS
 62
           3
100
AcDbLine
 10
13648.703042774279
 20
-1848.266304229003
 11
13634.85004277428
 21
-1848.266304229003
  0
LINE
  5
3E
100
AcDbEntity
  8
1
  6
CONTINUOUS
 62
           3
100
AcDbLine
 10
13648.703042774279
 20
-1865.560304229002
 11
13634.85004277428
 21
-1865.560304229002
  0
LINE
  5
3D
100
AcDbEntity
  8
1
  6
CONTINUOUS
 62
           7
100
AcDbLine
 10
13648.703042774279
 20
-1866.913304229002
 11
13636.203042774279
 21
-1866.913304229002
  0
LINE
  5
3C
100
AcDbEntity
  8
1
  6
CONTINUOUS
 62
           7
100
AcDbLine
 10
13636.203042774279
 20
-1866.913304229002
 11
13636.203042774279
 21
-1846.913304229002
  0
LINE
  5
3B
100
AcDbEntity
  8
1
  6
CONTINUOUS
 62
           7
100
AcDbLine
 10
13636.203042774279
 20
-1846.913304229002
 11
13648.703042774279
 21
-1846.913304229002
  0
LINE
  5
3A
100
AcDbEntity
  8
1
  6
CONTINUOUS
 62
           7
100
AcDbLine
 10
13633.703042774279
 20
-1849.413304229002
 11
13636.203042774279
 21
-1846.913304229002
  0
LINE
  5
39
100
AcDbEntity
  8
1
  6
CONTINUOUS
 62
           7
100
AcDbLine
 10
13633.703042774279
 20
-1864.413304229002
 11
13633.703042774279
 21
-1849.413304229002
  0
LINE
  5
38
100
AcDbEntity
  8
1
  6
CONTINUOUS
 62
           7
100
AcDbLine
 10
13636.203042774279
 20
-1866.913304229002
 11
13633.703042774279
 21
-1864.413304229002
  0
LINE
  5
37
100
AcDbEntity
  8
1
  6
CONTINUOUS
 62
           7
100
AcDbLine
 10
13648.703042774279
 20
-1871.913304229002
 11
13648.703042774279
 21
-1841.913304229002
  0
LINE
  5
36
100
AcDbEntity
  8
1
  6
CONTINUOUS
 62
           7
100
AcDbLine
 10
13648.703042774279
 20
-1841.913304229002
 11
13650.04278873644
 21
-1839.592796153313
  0
LINE
  5
35
100
AcDbEntity
  8
1
  6
CONTINUOUS
 62
           7
100
AcDbLine
 10
13650.04278873644
 20
-1874.233812304691
 11
13648.703042774279
 21
-1871.913304229002
  0
LINE
  5
34
100
AcDbEntity
  8
1
  6
CONTINUOUS
 62
           7
100
AcDbLine
 10
13729.703042774279
 20
-1831.913304229002
 11
13784.756149268511
 21
-1831.913304229002
  0
LINE
  5
33
100
AcDbEntity
  8
1
  6
CONTINUOUS
 62
           7
100
AcDbLine
 10
13729.703042774279
 20
-1881.913304229002
 11
13784.756149268511
 21
-1881.913304229002
  0
LINE
  5
32
100
AcDbEntity
  8
1
  6
CONTINUOUS
 62
           7
100
AcDbLine
 10
13729.703042774279
 20
-1831.913304229002
 11
13729.703042774279
 21
-1881.913304229002
  0
LINE
  5
31
100
AcDbEntity
  8
1
  6
CONTINUOUS
 62
           3
100
AcDbLine
 10
13729.58805850912
 20
-1848.266304229003
 11
13724.703042774279
 21
-1848.266304229003
  0
LINE
  5
30
100
AcDbEntity
  8
1
  6
CONTINUOUS
 62
           3
100
AcDbLine
 10
13729.58805850912
 20
-1865.560304229002
 11
13724.703042774279
 21
-1865.560304229002
  0
LINE
  5
2F
100
AcDbEntity
  8
1
  6
CONTINUOUS
 62
           7
100
AcDbLine
 10
13729.58805850912
 20
-1866.913304229002
 11
13724.703042774279
 21
-1866.913304229002
  0
LINE
  5
2E
100
AcDbEntity
  8
1
  6
CONTINUOUS
 62
           7
100
AcDbLine
 10
13724.703042774279
 20
-1846.913304229002
 11
13729.58805850912
 21
-1846.913304229002
  0
LINE
  5
2D
100
AcDbEntity
  8
1
  6
DOT_CENTER
 62
           2
100
AcDbLine
 10
13576.08482185649
 20
-1856.913304229002
 11
13896.227231411511
 21
-1856.913304229002
  0
LINE
  5
2C
100
AcDbEntity
  8
1
  6
DOT_CENTER
 62
           2
100
AcDbLine
 10
11336.328060117759
 20
-3203.44293681504
 11
11336.328060117759
 21
-4482.904262218091
  0
POINT
  5
2B
100
AcDbEntity
  8
1
 62
           6
100
AcDbPoint
 10
11562.01272541047
 20
165.508040062091
  0
POINT
  5
2A
100
AcDbEntity
  8
1
 62
           6
100
AcDbPoint
 10
10675.66950755082
 20
-1193.254474010888
  0
ENDBLK
  5
476
100
AcDbEntity
  8
0
100
AcDbBlockEnd
  0
ENDSEC
  0
SECTION
  2
ENTITIES
  0
TEXT
  5
479
100
AcDbEntity
  8
1
 62
           2
100
AcDbText
 10
16490.277128906131
 20
-4366.656868680892
 40
52.5
  1
SAT-2001C-85
 41
0.9
  7
CONVERTER_1
100
AcDbText
  0
INSERT
  5
29
100
AcDbEntity
  8
0
100
AcDbBlockReference
  2
SAT2001C85__1
 10
0.0
 20
0.0
  0
ENDSEC
  0
SECTION
  2
OBJECTS
  0
DICTIONARY
  5
19
100
AcDbDictionary
  3
ACAD_GROUP
350
1A
  3
ACAD_MLINESTYLE
350
1B
  0
DICTIONARY
  5
1A
102
{ACAD_REACTORS
330
19
102
}
100
AcDbDictionary
  0
DICTIONARY
  5
1B
102
{ACAD_REACTORS
330
19
102
}
100
AcDbDictionary
  3
STANDARD
350
1C
  0
MLINESTYLE
  5
1C
102
{ACAD_REACTORS
330
1B
102
}
100
AcDbMlineStyle
  2
STANDARD
 70
           0
  3

 62
           0
 51
90.0
 52
90.0
 71
           2
 49
0.5
 62
         256
  6
BYLAYER
 49
-0.5
 62
         256
  6
BYLAYER
  0
ENDSEC
  0
EOF
