  0
SECTION
  2
HEADER
  9
$ACADVER
  1
AC1014
  9
$ACADMAINTVER
 70
           0
  9
$DWGCODEPAGE
  3
DOS932
  9
$INSBASE
 10
0.0
 20
0.0
 30
0.0
  9
$EXTMIN
 10
1.000000000000E+20
 20
1.000000000000E+20
 30
1.000000000000E+20
  9
$EXTMAX
 10
-1.000000000000E+20
 20
-1.000000000000E+20
 30
-1.000000000000E+20
  9
$LIMMIN
 10
0.0
 20
0.0
  9
$LIMMAX
 10
0.0
 20
0.0
  9
$ORTHOMODE
 70
           0
  9
$REGENMODE
 70
           1
  9
$FILLMODE
 70
           1
  9
$QTEXTMODE
 70
           0
  9
$MIRRTEXT
 70
           1
  9
$DRAGMODE
 70
           2
  9
$LTSCALE
 40
1.0
  9
$OSMODE
 70
           0
  9
$ATTMODE
 70
           1
  9
$TEXTSIZE
 40
0.2
  9
$TRACEWID
 40
0.05
  9
$TEXTSTYLE
  7
STANDARD
  9
$CLAYER
  8
0
  9
$CELTYPE
  6
CONTINUOUS
  9
$CECOLOR
 62
         256
  9
$CELTSCALE
 40
1.0
  9
$DELOBJ
 70
           1
  9
$DISPSILH
 70
           0
  9
$DIMSCALE
 40
1.0
  9
$DIMASZ
 40
0.18
  9
$DIMEXO
 40
0.0625
  9
$DIMDLI
 40
0.38
  9
$DIMRND
 40
0.0
  9
$DIMDLE
 40
0.0
  9
$DIMEXE
 40
0.18
  9
$DIMTP
 40
0.0
  9
$DIMTM
 40
0.0
  9
$DIMTXT
 40
0.18
  9
$DIMCEN
 40
0.09
  9
$DIMTSZ
 40
0.0
  9
$DIMTOL
 70
           0
  9
$DIMLIM
 70
           0
  9
$DIMTIH
 70
           1
  9
$DIMTOH
 70
           1
  9
$DIMSE1
 70
           0
  9
$DIMSE2
 70
           0
  9
$DIMTAD
 70
           0
  9
$DIMZIN
 70
           0
  9
$DIMBLK
  1

  9
$DIMASO
 70
           1
  9
$DIMSHO
 70
           1
  9
$DIMPOST
  1

  9
$DIMAPOST
  1

  9
$DIMALT
 70
           0
  9
$DIMALTD
 70
           2
  9
$DIMALTF
 40
25.4
  9
$DIMLFAC
 40
1.0
  9
$DIMTOFL
 70
           0
  9
$DIMTVP
 40
0.0
  9
$DIMTIX
 70
           0
  9
$DIMSOXD
 70
           0
  9
$DIMSAH
 70
           0
  9
$DIMBLK1
  1

  9
$DIMBLK2
  1

  9
$DIMSTYLE
  2
STANDARD
  9
$DIMCLRD
 70
           0
  9
$DIMCLRE
 70
           0
  9
$DIMCLRT
 70
           0
  9
$DIMTFAC
 40
1.0
  9
$DIMGAP
 40
0.09
  9
$DIMJUST
 70
           0
  9
$DIMSD1
 70
           0
  9
$DIMSD2
 70
           0
  9
$DIMTOLJ
 70
           1
  9
$DIMTZIN
 70
           0
  9
$DIMALTZ
 70
           0
  9
$DIMALTTZ
 70
           0
  9
$DIMFIT
 70
           3
  9
$DIMUPT
 70
           0
  9
$DIMUNIT
 70
           2
  9
$DIMDEC
 70
           4
  9
$DIMTDEC
 70
           4
  9
$DIMALTU
 70
           2
  9
$DIMALTTD
 70
           2
  9
$DIMTXSTY
  7
STANDARD
  9
$DIMAUNIT
 70
           0
  9
$LUNITS
 70
           2
  9
$LUPREC
 70
           4
  9
$SKETCHINC
 40
0.1
  9
$FILLETRAD
 40
0.0
  9
$AUNITS
 70
           0
  9
$AUPREC
 70
           0
  9
$MENU
  1
acad
  9
$ELEVATION
 40
0.0
  9
$PELEVATION
 40
0.0
  9
$THICKNESS
 40
0.0
  9
$LIMCHECK
 70
           0
  9
$BLIPMODE
 70
           1
  9
$CHAMFERA
 40
0.0
  9
$CHAMFERB
 40
0.0
  9
$CHAMFERC
 40
0.0
  9
$CHAMFERD
 40
0.0
  9
$SKPOLY
 70
           0
  9
$TDCREATE
 40
0.000000000
  9
$TDUPDATE
 40
0.000000000
  9
$TDINDWG
 40
0.0000000000
  9
$TDUSRTIMER
 40
0.0000000000
  9
$USRTIMER
 70
           1
  9
$ANGBASE
 50
0.0
  9
$ANGDIR
 70
           0
  9
$PDMODE
 70
           0
  9
$PDSIZE
 40
0.0
  9
$PLINEWID
 40
0.0
  9
$COORDS
 70
           0
  9
$SPLFRAME
 70
           0
  9
$SPLINETYPE
 70
           6
  9
$SPLINESEGS
 70
           8
  9
$ATTDIA
 70
           0
  9
$ATTREQ
 70
           1
  9
$HANDLING
 70
           1
  9
$HANDSEED
  5
4B0
  9
$SURFTAB1
 70
           6
  9
$SURFTAB2
 70
           6
  9
$SURFTYPE
 70
           6
  9
$SURFU
 70
           6
  9
$SURFV
 70
           6
  9
$UCSNAME
  2

  9
$UCSORG
 10
0.0
 20
0.0
 30
0.0
  9
$UCSXDIR
 10
1.0
 20
0.0
 30
0.0
  9
$UCSYDIR
 10
0.0
 20
1.0
 30
0.0
  9
$PUCSNAME
  2

  9
$PUCSORG
 10
0.0
 20
0.0
 30
0.0
  9
$PUCSXDIR
 10
1.0
 20
0.0
 30
0.0
  9
$PUCSYDIR
 10
0.0
 20
1.0
 30
0.0
  9
$USERI1
 70
           0
  9
$USERI2
 70
           0
  9
$USERI3
 70
           0
  9
$USERI4
 70
           0
  9
$USERI5
 70
           0
  9
$USERR1
 40
0.0
  9
$USERR2
 40
0.0
  9
$USERR3
 40
0.0
  9
$USERR4
 40
0.0
  9
$USERR5
 40
0.0
  9
$WORLDVIEW
 70
           1
  9
$SHADEDGE
 70
           3
  9
$SHADEDIF
 70
          70
  9
$TILEMODE
 70
           1
  9
$MAXACTVP
 70
          16
  9
$PINSBASE
 10
0.0
 20
0.0
 30
0.0
  9
$PLIMCHECK
 70
           0
  9
$PEXTMIN
 10
1.000000000000E+20
 20
1.000000000000E+20
 30
1.000000000000E+20
  9
$PEXTMAX
 10
-1.000000000000E+20
 20
-1.000000000000E+20
 30
-1.000000000000E+20
  9
$PLIMMIN
 10
0.0
 20
0.0
  9
$PLIMMAX
 10
12.0
 20
9.0
  9
$UNITMODE
 70
           0
  9
$VISRETAIN
 70
           0
  9
$PLINEGEN
 70
           1
  9
$PSLTSCALE
 70
           0
  9
$TREEDEPTH
 70
        3020
  9
$PICKSTYLE
 70
           1
  9
$CMLSTYLE
  2
STANDARD
  9
$CMLJUST
 70
           0
  9
$CMLSCALE
 40
1.0
  9
$PROXYGRAPHICS
 70
           0
  9
$MEASUREMENT
 70
           0
  0
ENDSEC
  0
SECTION
  2
CLASSES
  0
CLASS
  1
LWPOLYLINE
  2
AcDbPolyline
  3
"AutoCAD"
 90
        0
280
           0
281
           1
  0
CLASS
  1
IMAGE
  2
AcDbRasterImage
  3
ISM
 90
      127
280
           0
281
           1
  0
CLASS
  1
OLE2FRAME
  2
AcDbOle2Frame
  3
""
 90
        0
280
           0
281
           1
  0
CLASS
  1
HATCH
  2
AcDbHatch
  3
"ACAD_SEDONA"
 90
        0
280
           0
281
           1
  0
CLASS
  1
DICTIONARYVAR
  2
AcDbDictionaryVar
  3
"AutoCAD"
 90
        0
280
           0
281
           0
  0
CLASS
  1
RASTERVARIABLES
  2
AcDbRasterVariables
  3
ISM
 90
        0
280
           0
281
           0
  0
CLASS
  1
IMAGEDEF
  2
AcDbRasterImageDef
  3
ISM
 90
        0
280
           0
281
           0
  0
CLASS
  1
IMAGEDEF_REACTOR
  2
AcDbRasterImageDefReactor
  3
ISM
 90
        1
280
           0
281
           0
  0
CLASS
  1
IDBUFFER
  2
AcDbIdBuffer
  3
"Acad"
 90
        0
280
           0
281
           0
  0
CLASS
  1
SPATIAL_FILTER
  2
AcDbSpatialFilter
  3
"Acad"
 90
        0
280
           0
281
           0
  0
CLASS
  1
XRECORD
  2
AcDbXrecord
  3
"<Built In>"
 90
        0
280
           0
281
           0
  0
CLASS
  1
SORTENTSTABLE
  2
AcDbSortentsTable
  3
"AutoCAD"
 90
        0
280
           0
281
           0
  0
CLASS
  1
LAYER_INDEX
  2
AcDbLayerIndex
  3
"Acad"
 90
        0
280
           0
281
           0
  0
CLASS
  1
SPATIAL_INDEX
  2
AcDbSpatialIndex
  3
"Acad"
 90
        0
280
           0
281
           0
  0
CLASS
  1
OBJECT_PTR
  2
CAseDLPNTableRecord
  3
"ASE-LPNTableRecord"
 90
        1
280
           0
281
           0
  0
CLASS
  1
LAYOUT
  2
AcDbLayout
  3
"AutoCAD 2000"
 90
        1
280
           0
281
           0
  0
CLASS
  1
PLOTSETTINGS
  2
AcDbPlotSettings
  3
"AutoCAD 2000"
 90
        1
280
           0
281
           0
  0
CLASS
  1
ACDBDICTIONARYWDFLT
  2
AcDbDictionaryWithDefault
  3
"AutoCAD 2000"
 90
        1
280
           0
281
           0
  0
CLASS
  1
ACDBPLACEHOLDER
  2
AcDbPlaceHolder
  3
"AutoCAD 2000"
 90
        1
280
           0
281
           0
  0
CLASS
  1
VBA_PROJECT
  2
AcDbVbaProject
  3
"acadvba"
 90
        1
280
           0
281
           0
  0
CLASS
  1
WIPEOUT
  2
AcDbWipeout
  3
WipeOut|AutoCAD Express Tool|expresstools@autodesk.com
 90
      127
280
           0
281
           1
  0
CLASS
  1
WIPEOUTVARIABLES
  2
AcDbWipeoutVariables
  3
WipeOut|AutoCAD Express Tool|expresstools@autodesk.com
 90
        0
280
           0
281
           0
  0
CLASS
  1
RTEXT
  2
RText
  3
RText|AutoCAD Express Tool|expresstools@autodesk.com
 90
        0
280
           0
281
           1
  0
CLASS
  1
ARCALIGNEDTEXT
  2
AcDbArcAlignedText
  3
ATEXT|AutoCAD Express Tool|expresstools@autodesk.com
 90
        0
280
           0
281
           1
  0
ENDSEC
  0
SECTION
  2
TABLES
  0
TABLE
  2
VPORT
  5
7
100
AcDbSymbolTable
 70
           1
  0
VPORT
  5
15
100
AcDbSymbolTableRecord
100
AcDbViewportTableRecord
  2
*ACTIVE
 70
           0
 10
0.0
 20
0.0
 11
1.0
 21
1.0
 12
6.591288
 22
4.579184
 13
0.0
 23
0.0
 14
1.0
 24
1.0
 15
0.0
 25
0.0
 16
0.0
 26
0.0
 36
1.0
 17
0.0
 27
0.0
 37
0.0
 40
9.158369
 41
0.688564
 42
50.0
 43
0.0
 44
0.0
 50
0.0
 51
0.0
 71
           0
 72
         100
 73
           1
 74
           1
 75
           0
 76
           0
 77
           0
 78
           0
  0
ENDTAB
  0
TABLE
  2
LTYPE
  5
4
100
AcDbSymbolTable
 70
          10
  0
LTYPE
  5
11
100
AcDbSymbolTableRecord
100
AcDbLinetypeTableRecord
  2
BYBLOCK
 70
          64
  3

 72
          65
 73
           0
 40
0.0
  0
LTYPE
  5
12
100
AcDbSymbolTableRecord
100
AcDbLinetypeTableRecord
  2
BYLAYER
 70
          64
  3

 72
          65
 73
           0
 40
0.0
  0
LTYPE
  5
13
100
AcDbSymbolTableRecord
100
AcDbLinetypeTableRecord
  2
CONTINUOUS
 70
          64
  3
Solid line
 72
          65
 73
           0
 40
0.0
  0
LTYPE
  5
1D
100
AcDbSymbolTableRecord
100
AcDbLinetypeTableRecord
  2
DASHED
 70
          64
  3
Dashed
 72
          65
 73
           2
 40
15.0
 49
12.0
 74
           0
 49
-3.0
 74
           0
  0
LTYPE
  5
1E
100
AcDbSymbolTableRecord
100
AcDbLinetypeTableRecord
  2
DOTTED
 70
          64
  3
Dotted
 72
          65
 73
           2
 40
3.5
 49
0.5
 74
           0
 49
-3.0
 74
           0
  0
LTYPE
  5
1F
100
AcDbSymbolTableRecord
100
AcDbLinetypeTableRecord
  2
DOT_CENTER
 70
          64
  3
Dot_Center
 72
          65
 73
           4
 40
2.0
 49
1.25
 74
           0
 49
-0.25
 74
           0
 49
0.25
 74
           0
 49
-0.25
 74
           0
  0
LTYPE
  5
20
100
AcDbSymbolTableRecord
100
AcDbLinetypeTableRecord
  2
LONG_DASHED
 70
          64
  3
Long_Dashed
 72
          65
 73
           2
 40
2.0
 49
1.5
 74
           0
 49
-0.5
 74
           0
  0
LTYPE
  5
21
100
AcDbSymbolTableRecord
100
AcDbLinetypeTableRecord
  2
DASH_CENTER
 70
          64
  3
Dash_Center
 72
          65
 73
           4
 40
36.0
 49
24.0
 74
           0
 49
-3.0
 74
           0
 49
6.0
 74
           0
 49
-3.0
 74
           0
  0
LTYPE
  5
22
100
AcDbSymbolTableRecord
100
AcDbLinetypeTableRecord
  2
PHANTOM
 70
          64
  3
Phantom
 72
          65
 73
           6
 40
2.5
 49
1.25
 74
           0
 49
-0.25
 74
           0
 49
0.25
 74
           0
 49
-0.25
 74
           0
 49
0.25
 74
           0
 49
-0.25
 74
           0
  0
LTYPE
  5
23
100
AcDbSymbolTableRecord
100
AcDbLinetypeTableRecord
  2
CENTER_DASH_DASH
 70
          64
  3
Center_Dash_Dash
 72
          65
 73
           6
 40
22.0
 49
12.0
 74
           0
 49
-3.0
 74
           0
 49
0.5
 74
           0
 49
-3.0
 74
           0
 49
0.5
 74
           0
 49
-3.0
 74
           0
  0
ENDTAB
  0
TABLE
  2
LAYER
  5
2
100
AcDbSymbolTable
 70
           3
  0
LAYER
  5
14
100
AcDbSymbolTableRecord
100
AcDbLayerTableRecord
  2
0
 70
           0
 62
           7
  6
CONTINUOUS
  0
LAYER
  5
24
100
AcDbSymbolTableRecord
100
AcDbLayerTableRecord
  2
976
 70
           0
 62
           7
  6
CONTINUOUS
  0
LAYER
  5
25
100
AcDbSymbolTableRecord
100
AcDbLayerTableRecord
  2
1
 70
           0
 62
           7
  6
CONTINUOUS
  0
ENDTAB
  0
TABLE
  2
STYLE
  5
3
100
AcDbSymbolTable
 70
           2
  0
STYLE
  5
17
100
AcDbSymbolTableRecord
100
AcDbTextStyleTableRecord
  2
STANDARD
 70
           0
 40
0.0
 41
1.0
 50
0.0
 71
           0
 42
0.0
  3
txt
  4

  0
STYLE
  5
4AD
100
AcDbSymbolTableRecord
100
AcDbTextStyleTableRecord
  2
CONVERTER_1
 70
           0
 40
0.0
 41
0.9
 50
0.0
 71
           0
 42
0.0
  3
txt.shx
  4

  0
ENDTAB
  0
TABLE
  2
VIEW
  5
5
100
AcDbSymbolTable
 70
           0
  0
ENDTAB
  0
TABLE
  2
UCS
  5
6
100
AcDbSymbolTable
 70
           0
  0
ENDTAB
  0
TABLE
  2
APPID
  5
8
100
AcDbSymbolTable
 70
           1
  0
APPID
  5
16
100
AcDbSymbolTableRecord
100
AcDbRegAppTableRecord
  2
ACAD
 70
           0
  0
ENDTAB
  0
TABLE
  2
DIMSTYLE
  5
9
100
AcDbSymbolTable
 70
           1
  0
DIMSTYLE
105
18
100
AcDbSymbolTableRecord
100
AcDbDimStyleTableRecord
  2
STANDARD
 70
           0
  3

  4

  5

  6

  7

 40
1.0
 41
0.18
 42
0.0625
 43
0.38
 44
0.18
 45
0.0
 46
0.0
 47
0.0
 48
0.0
 71
           0
 72
           0
 73
           1
 74
           1
 75
           0
 76
           0
 77
           0
 78
           0
140
0.18
141
0.09
142
0.0
143
25.4
144
1.0
145
0.0
146
1.0
147
0.09
170
           0
171
           2
172
           0
173
           0
174
           0
175
           0
176
           0
177
           0
178
           0
270
           2
271
           4
272
           4
273
           2
274
           2
275
           0
280
           0
281
           0
282
           0
283
           1
284
           0
285
           0
286
           0
287
           0
288
           0
340
17
  0
ENDTAB
  0
TABLE
  2
BLOCK_RECORD
  5
1
100
AcDbSymbolTable
 70
           1
  0
BLOCK_RECORD
  5
A
100
AcDbSymbolTableRecord
100
AcDbBlockTableRecord
  2
*MODEL_SPACE
  0
BLOCK_RECORD
  5
B
100
AcDbSymbolTableRecord
100
AcDbBlockTableRecord
  2
*PAPER_SPACE
  0
BLOCK_RECORD
  5
26
100
AcDbSymbolTableRecord
100
AcDbBlockTableRecord
  2
SAT3000C100__1
  0
ENDTAB
  0
ENDSEC
  0
SECTION
  2
BLOCKS
  0
BLOCK
  5
D
100
AcDbEntity
  8
0
100
AcDbBlockBegin
  2
*MODEL_SPACE
 70
           0
 10
0.0
 20
0.0
 30
0.0
  3
*MODEL_SPACE
  1

  0
ENDBLK
  5
E
100
AcDbEntity
  8
0
100
AcDbBlockEnd
  0
BLOCK
  5
F
100
AcDbEntity
 67
           1
  8
0
100
AcDbBlockBegin
  2
*PAPER_SPACE
 70
           0
 10
0.0
 20
0.0
 30
0.0
  3
*PAPER_SPACE
  1

  0
ENDBLK
  5
10
100
AcDbEntity
 67
           1
  8
0
100
AcDbBlockEnd
  0
BLOCK
  5
27
100
AcDbEntity
  8
0
100
AcDbBlockBegin
  2
SAT3000C100__1
 70
           0
 10
0.0
 20
0.0
 30
0.0
  3
SAT3000C100__1
  1

  0
ARC
  5
4AA
100
AcDbEntity
  8
1
  6
CONTINUOUS
 62
           2
100
AcDbCircle
 10
11252.083686638611
 20
-3072.69973419571
 40
1.0
100
AcDbArc
 50
0.0
 51
90.0
  0
ARC
  5
4A9
100
AcDbEntity
  8
1
  6
CONTINUOUS
 62
           2
100
AcDbCircle
 10
11252.083686638611
 20
-3015.69973419571
 40
1.0
100
AcDbArc
 50
-90.0
 51
0.0
  0
ARC
  5
4A8
100
AcDbEntity
  8
1
  6
CONTINUOUS
 62
           2
100
AcDbCircle
 10
11242.98357527989
 20
-3081.69973419571
 40
10.0
100
AcDbArc
 50
90.0
 51
140.131658449975
  0
ARC
  5
4A7
100
AcDbEntity
  8
1
  6
CONTINUOUS
 62
           2
100
AcDbCircle
 10
11242.98357527989
 20
-3006.69973419571
 40
9.999999999995
100
AcDbArc
 50
-140.131658449971
 51
-90.0
  0
ARC
  5
4A6
100
AcDbEntity
  8
1
  6
CONTINUOUS
 62
           2
100
AcDbCircle
 10
13462.23539948574
 20
-907.237438069189
 40
6.0
100
AcDbArc
 50
180.0
 51
-90.0
  0
ARC
  5
4A5
100
AcDbEntity
  8
1
  6
CONTINUOUS
 62
           2
100
AcDbCircle
 10
13384.730716980939
 20
-841.13898260176
 40
2.0
100
AcDbArc
 50
180.0
 51
-90.0
  0
ARC
  5
4A4
100
AcDbEntity
  8
1
  6
CONTINUOUS
 62
           2
100
AcDbCircle
 10
13477.730716980939
 20
-841.13898260176
 40
2.0
100
AcDbArc
 50
-90.0
 51
0.0
  0
ARC
  5
4A3
100
AcDbEntity
  8
1
  6
CONTINUOUS
 62
           2
100
AcDbCircle
 10
13405.33071698094
 20
-900.13898260176
 40
1.4
100
AcDbArc
 50
0.0
 51
90.0
  0
ARC
  5
4A2
100
AcDbEntity
  8
1
  6
CONTINUOUS
 62
           2
100
AcDbCircle
 10
13391.730716980939
 20
-846.63898260176
 40
3.75
100
AcDbArc
 50
180.0
 51
-90.0
  0
ARC
  5
4A1
100
AcDbEntity
  8
1
  6
CONTINUOUS
 62
           2
100
AcDbCircle
 10
13471.730716980939
 20
-846.63898260176
 40
3.75
100
AcDbArc
 50
-90.0
 51
0.0
  0
ARC
  5
4A0
100
AcDbEntity
  8
1
  6
CONTINUOUS
 62
           2
100
AcDbCircle
 10
13457.73539948574
 20
-900.23898260176
 40
1.5
100
AcDbArc
 50
90.0
 51
180.0
  0
ARC
  5
49F
100
AcDbEntity
  8
1
  6
CONTINUOUS
 62
           2
100
AcDbCircle
 10
13384.730716980939
 20
-841.13898260176
 40
2.0
100
AcDbArc
 50
180.0
 51
-90.0
  0
ARC
  5
49E
100
AcDbEntity
  8
1
  6
CONTINUOUS
 62
           2
100
AcDbCircle
 10
13477.730716980939
 20
-841.13898260176
 40
2.0
100
AcDbArc
 50
-90.0
 51
0.0
  0
ARC
  5
49D
100
AcDbEntity
  8
1
  6
CONTINUOUS
 62
           2
100
AcDbCircle
 10
13391.730716980939
 20
-846.63898260176
 40
3.75
100
AcDbArc
 50
180.0
 51
-90.0
  0
ARC
  5
49C
100
AcDbEntity
  8
1
  6
CONTINUOUS
 62
           2
100
AcDbCircle
 10
13471.730716980939
 20
-846.63898260176
 40
3.75
100
AcDbArc
 50
-90.0
 51
0.0
  0
ARC
  5
49B
100
AcDbEntity
  8
1
  6
CONTINUOUS
 62
           2
100
AcDbCircle
 10
13474.730716980939
 20
-777.63898260176
 40
5.0
100
AcDbArc
 50
0.0
 51
90.0
  0
ARC
  5
49A
100
AcDbEntity
  8
1
  6
CONTINUOUS
 62
           2
100
AcDbCircle
 10
13387.730716980939
 20
-777.638982601759
 40
5.0
100
AcDbArc
 50
90.0
 51
180.0
  0
ARC
  5
499
100
AcDbEntity
  8
1
  6
CONTINUOUS
 62
           2
100
AcDbCircle
 10
13411.730716980939
 20
-726.63898260176
 40
1.0
100
AcDbArc
 50
180.0
 51
-90.0
  0
ARC
  5
498
100
AcDbEntity
  8
1
  6
CONTINUOUS
 62
           2
100
AcDbCircle
 10
13406.730716980939
 20
-727.06163233257
 40
2.0
100
AcDbArc
 50
-60.000000000003
 51
0.0
  0
ARC
  5
497
100
AcDbEntity
  8
1
  6
CONTINUOUS
 62
           2
100
AcDbCircle
 10
13422.397383647611
 20
-726.63898260176
 40
1.0
100
AcDbArc
 50
-90.0
 51
0.0
  0
ARC
  5
496
100
AcDbEntity
  8
1
  6
CONTINUOUS
 62
           2
100
AcDbCircle
 10
13426.397383647611
 20
-726.63898260176
 40
1.0
100
AcDbArc
 50
180.0
 51
-90.0
  0
ARC
  5
495
100
AcDbEntity
  8
1
  6
CONTINUOUS
 62
           2
100
AcDbCircle
 10
13437.06405031428
 20
-726.63898260176
 40
1.0
100
AcDbArc
 50
-90.0
 51
0.0
  0
ARC
  5
494
100
AcDbEntity
  8
1
  6
CONTINUOUS
 62
           2
100
AcDbCircle
 10
13441.06405031428
 20
-726.63898260176
 40
1.0
100
AcDbArc
 50
180.0
 51
-90.0
  0
ARC
  5
493
100
AcDbEntity
  8
1
  6
CONTINUOUS
 62
           2
100
AcDbCircle
 10
13453.730716980939
 20
-681.63898260176
 40
2.0
100
AcDbArc
 50
180.0
 51
-90.0
  0
ARC
  5
492
100
AcDbEntity
  8
1
  6
CONTINUOUS
 62
           2
100
AcDbCircle
 10
13409.730716980939
 20
-681.63898260176
 40
2.0
100
AcDbArc
 50
-90.0
 51
0.0
  0
ARC
  5
491
100
AcDbEntity
  8
1
  6
CONTINUOUS
 62
           2
100
AcDbCircle
 10
13408.730716980939
 20
-685.63898260176
 40
2.0
100
AcDbArc
 50
90.0
 51
180.0
  0
ARC
  5
490
100
AcDbEntity
  8
1
  6
CONTINUOUS
 62
           2
100
AcDbCircle
 10
13454.730716980939
 20
-685.63898260176
 40
2.0
100
AcDbArc
 50
0.0
 51
90.0
  0
ARC
  5
48F
100
AcDbEntity
  8
1
  6
CONTINUOUS
 62
           2
100
AcDbCircle
 10
13450.730716980939
 20
-679.63898260176
 40
1.0
100
AcDbArc
 50
0.0
 51
90.0
  0
ARC
  5
48E
100
AcDbEntity
  8
1
  6
CONTINUOUS
 62
           2
100
AcDbCircle
 10
13412.730716980939
 20
-679.63898260176
 40
1.0
100
AcDbArc
 50
90.0
 51
180.0
  0
ARC
  5
48D
100
AcDbEntity
  8
1
  6
CONTINUOUS
 62
           2
100
AcDbCircle
 10
11179.083686638611
 20
-670.829151297701
 40
1.0
100
AcDbArc
 50
90.0
 51
180.0
  0
ARC
  5
48C
100
AcDbEntity
  8
1
  6
CONTINUOUS
 62
           2
100
AcDbCircle
 10
11217.083686638611
 20
-670.829151297701
 40
1.0
100
AcDbArc
 50
0.0
 51
90.0
  0
ARC
  5
48B
100
AcDbEntity
  8
1
  6
CONTINUOUS
 62
           2
100
AcDbCircle
 10
11221.083686638611
 20
-676.829151297701
 40
2.0
100
AcDbArc
 50
0.0
 51
90.0
  0
ARC
  5
48A
100
AcDbEntity
  8
1
  6
CONTINUOUS
 62
           2
100
AcDbCircle
 10
11175.083686638611
 20
-676.829151297701
 40
2.0
100
AcDbArc
 50
90.0
 51
180.0
  0
ARC
  5
489
100
AcDbEntity
  8
1
  6
CONTINUOUS
 62
           2
100
AcDbCircle
 10
11176.083686638611
 20
-672.829151297701
 40
2.0
100
AcDbArc
 50
-90.0
 51
0.0
  0
ARC
  5
488
100
AcDbEntity
  8
1
  6
CONTINUOUS
 62
           2
100
AcDbCircle
 10
11220.083686638611
 20
-672.829151297701
 40
2.0
100
AcDbArc
 50
180.0
 51
-90.0
  0
ARC
  5
487
100
AcDbEntity
  8
1
  6
CONTINUOUS
 62
           2
100
AcDbCircle
 10
11207.417019971939
 20
-717.829151297701
 40
1.0
100
AcDbArc
 50
180.0
 51
-90.0
  0
ARC
  5
486
100
AcDbEntity
  8
1
  6
CONTINUOUS
 62
           2
100
AcDbCircle
 10
11203.417019971939
 20
-717.829151297701
 40
1.0
100
AcDbArc
 50
-90.0
 51
0.0
  0
ARC
  5
485
100
AcDbEntity
  8
1
  6
CONTINUOUS
 62
           2
100
AcDbCircle
 10
11192.75035330528
 20
-717.829151297701
 40
1.0
100
AcDbArc
 50
180.0
 51
-90.0
  0
ARC
  5
484
100
AcDbEntity
  8
1
  6
CONTINUOUS
 62
           2
100
AcDbCircle
 10
11188.75035330528
 20
-717.829151297701
 40
1.0
100
AcDbArc
 50
-90.0
 51
0.0
  0
ARC
  5
483
100
AcDbEntity
  8
1
  6
CONTINUOUS
 62
           2
100
AcDbCircle
 10
11173.083686638611
 20
-718.251801028511
 40
2.0
100
AcDbArc
 50
-60.000000000003
 51
0.0
  0
ARC
  5
482
100
AcDbEntity
  8
1
  6
CONTINUOUS
 62
           2
100
AcDbCircle
 10
11178.083686638611
 20
-717.829151297701
 40
1.0
100
AcDbArc
 50
180.0
 51
-90.0
  0
ARC
  5
481
100
AcDbEntity
  8
1
  6
CONTINUOUS
 62
           2
100
AcDbCircle
 10
11154.083686638611
 20
-768.8291512977
 40
5.0
100
AcDbArc
 50
90.0
 51
180.0
  0
ARC
  5
480
100
AcDbEntity
  8
1
  6
CONTINUOUS
 62
           2
100
AcDbCircle
 10
11241.083686638611
 20
-768.829151297701
 40
5.0
100
AcDbArc
 50
0.0
 51
90.0
  0
ARC
  5
47F
100
AcDbEntity
  8
1
  6
CONTINUOUS
 62
           2
100
AcDbCircle
 10
11247.083686638611
 20
-769.829151297701
 40
1.0
100
AcDbArc
 50
180.0
 51
-90.0
  0
ARC
  5
47E
100
AcDbEntity
  8
1
  6
CONTINUOUS
 62
           2
100
AcDbCircle
 10
11252.083686638611
 20
-769.829151297701
 40
1.0
100
AcDbArc
 50
-90.0
 51
0.0
  0
ARC
  5
47D
100
AcDbEntity
  8
1
  6
CONTINUOUS
 62
           2
100
AcDbCircle
 10
11247.083686638611
 20
-826.829151297701
 40
1.0
100
AcDbArc
 50
90.0
 51
180.0
  0
ARC
  5
47C
100
AcDbEntity
  8
1
  6
CONTINUOUS
 62
           2
100
AcDbCircle
 10
11252.083686638611
 20
-826.829151297701
 40
1.0
100
AcDbArc
 50
0.0
 51
90.0
  0
ARC
  5
47B
100
AcDbEntity
  8
1
  6
CONTINUOUS
 62
           2
100
AcDbCircle
 10
11238.083686638611
 20
-837.829151297701
 40
3.75
100
AcDbArc
 50
-90.0
 51
0.0
  0
ARC
  5
47A
100
AcDbEntity
  8
1
  6
CONTINUOUS
 62
           2
100
AcDbCircle
 10
11158.083686638611
 20
-837.829151297701
 40
3.75
100
AcDbArc
 50
180.0
 51
-90.0
  0
ARC
  5
479
100
AcDbEntity
  8
1
  6
CONTINUOUS
 62
           2
100
AcDbCircle
 10
11224.48368663861
 20
-891.329151297701
 40
1.400000000001
100
AcDbArc
 50
90.0
 51
180.0
  0
ARC
  5
478
100
AcDbEntity
  8
1
  6
CONTINUOUS
 62
           2
100
AcDbCircle
 10
11243.083686638611
 20
-908.181495184822
 40
20.0
100
AcDbArc
 50
180.0
 51
-145.655937034306
  0
ARC
  5
477
100
AcDbEntity
  8
1
  6
CONTINUOUS
 62
           2
100
AcDbCircle
 10
11171.683686638609
 20
-891.329151297701
 40
1.400000000001
100
AcDbArc
 50
0.0
 51
90.0
  0
ARC
  5
476
100
AcDbEntity
  8
1
  6
CONTINUOUS
 62
           2
100
AcDbCircle
 10
11153.083686638611
 20
-908.181495184822
 40
19.999999999997
100
AcDbArc
 50
-34.344062965711
 51
0.0
  0
ARC
  5
475
100
AcDbEntity
  8
1
  6
CONTINUOUS
 62
           2
100
AcDbCircle
 10
11244.083686638611
 20
-832.329151297701
 40
2.0
100
AcDbArc
 50
-90.0
 51
0.0
  0
ARC
  5
474
100
AcDbEntity
  8
1
  6
CONTINUOUS
 62
           2
100
AcDbCircle
 10
11151.083686638611
 20
-832.329151297701
 40
2.0
100
AcDbArc
 50
180.0
 51
-90.0
  0
ARC
  5
473
100
AcDbEntity
  8
976
  6
CONTINUOUS
 62
           7
100
AcDbCircle
 10
10934.11874145285
 20
201.742089870501
 40
5.000000000006
100
AcDbArc
 50
136.112394618214
 51
-158.842837297039
  0
ARC
  5
472
100
AcDbEntity
  8
976
  6
CONTINUOUS
 62
           7
100
AcDbCircle
 10
10881.300918925381
 20
189.305143566433
 40
4.999999999992
100
AcDbArc
 50
5.342837297052
 51
70.387605381877
  0
ARC
  5
471
100
AcDbEntity
  8
976
  6
CONTINUOUS
 62
           7
100
AcDbCircle
 10
10921.79369460341
 20
211.423437093205
 40
3.000000000005
100
AcDbArc
 50
21.157162702938
 51
97.539406862483
  0
ARC
  5
470
100
AcDbEntity
  8
976
  6
CONTINUOUS
 62
           7
100
AcDbCircle
 10
10888.01123090056
 20
203.468722813326
 40
2.999999999997
100
AcDbArc
 50
108.960593137322
 51
-174.657162702934
  0
ARC
  5
46F
100
AcDbEntity
  8
976
  6
CONTINUOUS
 62
           7
100
AcDbCircle
 10
11508.156142376651
 20
203.468722813326
 40
3.000000000006
100
AcDbArc
 50
-5.342837297049
 51
71.039406862513
  0
ARC
  5
46E
100
AcDbEntity
  8
976
  6
CONTINUOUS
 62
           7
100
AcDbCircle
 10
11474.37367867381
 20
211.423437093205
 40
3.0
100
AcDbArc
 50
82.460593137517
 51
158.842837297062
  0
ARC
  5
46D
100
AcDbEntity
  8
976
  6
CONTINUOUS
 62
           7
100
AcDbCircle
 10
11514.866454351841
 20
189.305143566433
 40
4.999999999999
100
AcDbArc
 50
109.612394618143
 51
174.657162702961
  0
ARC
  5
46C
100
AcDbEntity
  8
976
  6
CONTINUOUS
 62
           7
100
AcDbCircle
 10
11462.048631824369
 20
201.742089870501
 40
5.000000000001
100
AcDbArc
 50
-21.15716270296
 51
43.887605381872
  0
ARC
  5
46B
100
AcDbEntity
  8
1
  6
CONTINUOUS
 62
           2
100
AcDbCircle
 10
10387.584959780201
 20
-3812.399734195715
 40
2.0
100
AcDbArc
 50
180.0
 51
-90.0
  0
ARC
  5
46A
100
AcDbEntity
  8
1
  6
CONTINUOUS
 62
           2
100
AcDbCircle
 10
10387.584959780201
 20
-3781.399734195715
 40
2.0
100
AcDbArc
 50
90.0
 51
180.0
  0
ARC
  5
469
100
AcDbEntity
  8
1
  6
CONTINUOUS
 62
           2
100
AcDbCircle
 10
14181.220716980941
 20
-2291.393478039441
 40
2.0
100
AcDbArc
 50
90.0
 51
180.0
  0
ARC
  5
468
100
AcDbEntity
  8
1
  6
CONTINUOUS
 62
           2
100
AcDbCircle
 10
14200.81351651998
 20
-2311.143478039442
 40
2.0
100
AcDbArc
 50
90.0
 51
148.891077489541
  0
ARC
  5
467
100
AcDbEntity
  8
1
  6
CONTINUOUS
 62
           2
100
AcDbCircle
 10
14200.81351651998
 20
-2295.643478039442
 40
2.000000000002
100
AcDbArc
 50
-148.891077489274
 51
-90.0
  0
ARC
  5
466
100
AcDbEntity
  8
1
  6
CONTINUOUS
 62
           2
100
AcDbCircle
 10
14175.1279174419
 20
-2311.143478039442
 40
1.999999999996
100
AcDbArc
 50
31.108922510458
 51
90.0
  0
ARC
  5
465
100
AcDbEntity
  8
1
  6
CONTINUOUS
 62
           2
100
AcDbCircle
 10
14175.1279174419
 20
-2295.643478039442
 40
2.0
100
AcDbArc
 50
-90.0
 51
-31.108922510726
  0
ARC
  5
464
100
AcDbEntity
  8
1
  6
CONTINUOUS
 62
           7
100
AcDbCircle
 10
10402.264758532079
 20
-882.20696551426
 40
0.144444444445
100
AcDbArc
 50
137.782165417253
 51
-47.782165416986
  0
ARC
  5
463
100
AcDbEntity
  8
1
  6
CONTINUOUS
 62
           2
100
AcDbCircle
 10
10473.12140119942
 20
-955.2791512977
 40
3.000000000007
100
AcDbArc
 50
34.429003950759
 51
90.0
  0
ARC
  5
462
100
AcDbEntity
  8
1
  6
CONTINUOUS
 62
           2
100
AcDbCircle
 10
10473.12140119942
 20
-940.5791512977
 40
3.0
100
AcDbArc
 50
-90.0
 51
-34.429003950802
  0
ARC
  5
461
100
AcDbEntity
  8
1
  6
CONTINUOUS
 62
           2
100
AcDbCircle
 10
10494.5669135505
 20
-940.5791512977
 40
3.000000000007
100
AcDbArc
 50
-145.570996049178
 51
-90.0
  0
ARC
  5
460
100
AcDbEntity
  8
1
  6
CONTINUOUS
 62
           2
100
AcDbCircle
 10
10494.5669135505
 20
-955.2791512977
 40
3.0
100
AcDbArc
 50
90.0
 51
145.570996049221
  0
ARC
  5
45F
100
AcDbEntity
  8
1
  6
CONTINUOUS
 62
           2
100
AcDbCircle
 10
10438.04543051654
 20
-962.429151297702
 40
3.0
100
AcDbArc
 50
90.0
 51
180.0
  0
ARC
  5
45E
100
AcDbEntity
  8
1
  6
CONTINUOUS
 62
           2
100
AcDbCircle
 10
10438.04543051654
 20
-933.429151297702
 40
3.0
100
AcDbArc
 50
180.0
 51
-90.0
  0
ARC
  5
45D
100
AcDbEntity
  8
1
  6
CONTINUOUS
 62
           2
100
AcDbCircle
 10
11226.083686638611
 20
-2291.522521071444
 40
3.000000000002
100
AcDbArc
 50
-38.091957105214
 51
0.0
  0
ARC
  5
45C
100
AcDbEntity
  8
1
  6
CONTINUOUS
 62
           2
100
AcDbCircle
 10
11226.083686638611
 20
-2314.695781523959
 40
3.0
100
AcDbArc
 50
0.0
 51
38.091957105221
  0
ARC
  5
45B
100
AcDbEntity
  8
1
  6
CONTINUOUS
 62
           7
100
AcDbCircle
 10
13502.293122880061
 20
-1406.306345851187
 40
7.5
100
AcDbArc
 50
90.0
 51
180.0
  0
ARC
  5
45A
100
AcDbEntity
  8
1
  6
CONTINUOUS
 62
           7
100
AcDbCircle
 10
13502.293122880061
 20
-1711.551956744216
 40
7.5
100
AcDbArc
 50
180.0
 51
-90.0
  0
ARC
  5
459
100
AcDbEntity
  8
1
  6
CONTINUOUS
 62
           7
100
AcDbCircle
 10
13473.22571106649
 20
-1373.806345851187
 40
10.0
100
AcDbArc
 50
90.0
 51
170.279112747886
  0
ARC
  5
458
100
AcDbEntity
  8
1
  6
CONTINUOUS
 62
           7
100
AcDbCircle
 10
13473.22571106649
 20
-1744.051956744216
 40
9.999999999995
100
AcDbArc
 50
-170.279112747886
 51
-90.0
  0
ARC
  5
457
100
AcDbEntity
  8
1
  6
CONTINUOUS
 62
           7
100
AcDbCircle
 10
11283.083686638611
 20
-3057.68804808197
 40
5.0
100
AcDbArc
 50
90.0
 51
180.0
  0
ARC
  5
456
100
AcDbEntity
  8
1
  6
CONTINUOUS
 62
           7
100
AcDbCircle
 10
11313.08170280683
 20
-3057.68804808197
 40
5.0
100
AcDbArc
 50
0.0
 51
90.0
  0
ARC
  5
455
100
AcDbEntity
  8
1
  6
CONTINUOUS
 62
           7
100
AcDbCircle
 10
11285.585422491409
 20
-3082.68804808197
 40
5.0
100
AcDbArc
 50
90.0
 51
180.0
  0
ARC
  5
454
100
AcDbEntity
  8
1
  6
CONTINUOUS
 62
           7
100
AcDbCircle
 10
11310.583686638611
 20
-3082.68804808197
 40
5.0
100
AcDbArc
 50
0.0
 51
90.0
  0
ARC
  5
453
100
AcDbEntity
  8
1
  6
CONTINUOUS
 62
           7
100
AcDbCircle
 10
11085.583686638611
 20
-3082.68804808197
 40
5.0
100
AcDbArc
 50
90.0
 51
180.0
  0
ARC
  5
452
100
AcDbEntity
  8
1
  6
CONTINUOUS
 62
           7
100
AcDbCircle
 10
11110.5819507858
 20
-3082.68804808197
 40
5.0
100
AcDbArc
 50
0.0
 51
90.0
  0
ARC
  5
451
100
AcDbEntity
  8
1
  6
CONTINUOUS
 62
           7
100
AcDbCircle
 10
11083.08567047038
 20
-3057.68804808197
 40
5.0
100
AcDbArc
 50
90.0
 51
180.0
  0
ARC
  5
450
100
AcDbEntity
  8
1
  6
CONTINUOUS
 62
           7
100
AcDbCircle
 10
11113.083686638611
 20
-3057.68804808197
 40
5.0
100
AcDbArc
 50
0.0
 51
90.0
  0
CIRCLE
  5
44F
100
AcDbEntity
  8
976
  6
CONTINUOUS
 62
           7
100
AcDbCircle
 10
11198.083686638611
 20
-3800.399734195714
 40
662.000000000003
  0
CIRCLE
  5
44E
100
AcDbEntity
  8
1
  6
CONTINUOUS
 62
           2
100
AcDbCircle
 10
13431.730716980939
 20
-807.13898260176
 40
22.422500000001
  0
CIRCLE
  5
44D
100
AcDbEntity
  8
1
  6
CONTINUOUS
 62
           2
100
AcDbCircle
 10
13431.730716980939
 20
-807.13898260176
 40
23.9015
  0
CIRCLE
  5
44C
100
AcDbEntity
  8
1
  6
CONTINUOUS
 62
           2
100
AcDbCircle
 10
13431.730716980939
 20
-807.13898260176
 40
29.0
  0
CIRCLE
  5
44B
100
AcDbEntity
  8
976
  6
CONTINUOUS
 62
           7
100
AcDbCircle
 10
10898.083686638611
 20
236.404386743832
 40
25.000000000005
  0
CIRCLE
  5
44A
100
AcDbEntity
  8
976
  6
CONTINUOUS
 62
           7
100
AcDbCircle
 10
11498.083686638611
 20
236.404386743832
 40
24.999999999996
  0
CIRCLE
  5
449
100
AcDbEntity
  8
976
  6
DOT_CENTER
 62
           2
100
AcDbCircle
 10
11198.083686638611
 20
-3800.399734195714
 40
549.999999999997
  0
CIRCLE
  5
448
100
AcDbEntity
  8
976
  6
CONTINUOUS
 62
           7
100
AcDbCircle
 10
11198.083686638611
 20
-3800.399734195714
 40
625.0
  0
CIRCLE
  5
447
100
AcDbEntity
  8
1
  6
CONTINUOUS
 62
           7
100
AcDbCircle
 10
14187.970716980941
 20
-947.929151297702
 40
105.0
  0
CIRCLE
  5
446
100
AcDbEntity
  8
1
  6
CONTINUOUS
 62
           7
100
AcDbCircle
 10
14187.970716980941
 20
-947.929151297702
 40
57.150000000001
  0
CIRCLE
  5
445
100
AcDbEntity
  8
1
  6
CONTINUOUS
 62
           7
100
AcDbCircle
 10
14187.970716980941
 20
-947.929151297702
 40
52.650000000001
  0
CIRCLE
  5
444
100
AcDbEntity
  8
1
  6
DOT_CENTER
 62
           2
100
AcDbCircle
 10
14187.970716980941
 20
-947.929151297702
 40
87.5
  0
CIRCLE
  5
443
100
AcDbEntity
  8
1
  6
CONTINUOUS
 62
           7
100
AcDbCircle
 10
14154.48591664899
 20
-867.089692202964
 40
9.5
  0
CIRCLE
  5
442
100
AcDbEntity
  8
1
  6
CONTINUOUS
 62
           7
100
AcDbCircle
 10
14107.1312578862
 20
-914.444350965756
 40
9.5
  0
CIRCLE
  5
441
100
AcDbEntity
  8
1
  6
CONTINUOUS
 62
           7
100
AcDbCircle
 10
14221.45551731289
 20
-867.089692202964
 40
9.5
  0
CIRCLE
  5
440
100
AcDbEntity
  8
1
  6
CONTINUOUS
 62
           7
100
AcDbCircle
 10
14268.81017607568
 20
-914.444350965756
 40
9.5
  0
CIRCLE
  5
43F
100
AcDbEntity
  8
1
  6
CONTINUOUS
 62
           7
100
AcDbCircle
 10
14268.81017607568
 20
-981.413951629647
 40
9.5
  0
CIRCLE
  5
43E
100
AcDbEntity
  8
1
  6
CONTINUOUS
 62
           7
100
AcDbCircle
 10
14221.45551731289
 20
-1028.768610392439
 40
9.5
  0
CIRCLE
  5
43D
100
AcDbEntity
  8
1
  6
CONTINUOUS
 62
           7
100
AcDbCircle
 10
14154.48591664899
 20
-1028.768610392439
 40
9.5
  0
CIRCLE
  5
43C
100
AcDbEntity
  8
1
  6
CONTINUOUS
 62
           7
100
AcDbCircle
 10
14107.1312578862
 20
-981.413951629647
 40
9.5
  0
CIRCLE
  5
43B
100
AcDbEntity
  8
1
  6
CONTINUOUS
 62
           7
100
AcDbCircle
 10
9954.542737937243
 20
-1781.413951629647
 40
9.5
  0
CIRCLE
  5
43A
100
AcDbEntity
  8
1
  6
CONTINUOUS
 62
           7
100
AcDbCircle
 10
10001.89739670004
 20
-1828.768610392439
 40
9.500000000004
  0
CIRCLE
  5
439
100
AcDbEntity
  8
1
  6
CONTINUOUS
 62
           7
100
AcDbCircle
 10
10068.86699736393
 20
-1828.768610392439
 40
9.5
  0
CIRCLE
  5
438
100
AcDbEntity
  8
1
  6
CONTINUOUS
 62
           7
100
AcDbCircle
 10
10116.22165612672
 20
-1781.413951629647
 40
9.5
  0
CIRCLE
  5
437
100
AcDbEntity
  8
1
  6
CONTINUOUS
 62
           7
100
AcDbCircle
 10
10116.22165612672
 20
-1714.444350965757
 40
9.5
  0
CIRCLE
  5
436
100
AcDbEntity
  8
1
  6
CONTINUOUS
 62
           7
100
AcDbCircle
 10
10068.86699736393
 20
-1667.089692202964
 40
9.5
  0
CIRCLE
  5
435
100
AcDbEntity
  8
1
  6
CONTINUOUS
 62
           7
100
AcDbCircle
 10
9954.542737937243
 20
-1714.444350965757
 40
9.5
  0
CIRCLE
  5
434
100
AcDbEntity
  8
1
  6
CONTINUOUS
 62
           7
100
AcDbCircle
 10
10001.89739670004
 20
-1667.089692202964
 40
9.500000000004
  0
CIRCLE
  5
433
100
AcDbEntity
  8
1
  6
DOT_CENTER
 62
           2
100
AcDbCircle
 10
10035.38219703198
 20
-1747.929151297702
 40
87.499999999998
  0
CIRCLE
  5
432
100
AcDbEntity
  8
1
  6
CONTINUOUS
 62
           7
100
AcDbCircle
 10
10035.38219703198
 20
-1747.929151297702
 40
52.649999999998
  0
CIRCLE
  5
431
100
AcDbEntity
  8
1
  6
CONTINUOUS
 62
           7
100
AcDbCircle
 10
10035.38219703198
 20
-1747.929151297702
 40
57.15
  0
CIRCLE
  5
430
100
AcDbEntity
  8
1
  6
CONTINUOUS
 62
           7
100
AcDbCircle
 10
10035.38219703198
 20
-1747.929151297702
 40
105.0
  0
CIRCLE
  5
42F
100
AcDbEntity
  8
1
  6
CONTINUOUS
 62
           7
100
AcDbCircle
 10
10809.174956986009
 20
-4189.308463848315
 40
13.5
  0
CIRCLE
  5
42E
100
AcDbEntity
  8
1
  6
CONTINUOUS
 62
           7
100
AcDbCircle
 10
10808.939992508709
 20
-3411.726111063227
 40
13.5
  0
CIRCLE
  5
42D
100
AcDbEntity
  8
1
  6
CONTINUOUS
 62
           7
100
AcDbCircle
 10
11586.99241629121
 20
-3411.491004543113
 40
13.5
  0
CIRCLE
  5
42C
100
AcDbEntity
  8
1
  6
CONTINUOUS
 62
           7
100
AcDbCircle
 10
11586.75730977109
 20
-4189.543428325615
 40
13.5
  0
CIRCLE
  5
42B
100
AcDbEntity
  8
1
  6
CONTINUOUS
 62
           2
100
AcDbCircle
 10
10424.584959780201
 20
-3800.399734195714
 40
8.331000000001
  0
CIRCLE
  5
42A
100
AcDbEntity
  8
1
  6
CONTINUOUS
 62
           2
100
AcDbCircle
 10
10424.584959780201
 20
-3800.399734195714
 40
7.475000000001
  0
CIRCLE
  5
429
100
AcDbEntity
  8
1
  6
CONTINUOUS
 62
           2
100
AcDbCircle
 10
14187.970716980941
 20
-2303.393478039442
 40
3.600000000001
  0
CIRCLE
  5
428
100
AcDbEntity
  8
1
  6
CONTINUOUS
 62
           2
100
AcDbCircle
 10
14187.970716980941
 20
-2303.393478039442
 40
7.5
  0
CIRCLE
  5
427
100
AcDbEntity
  8
1
  6
CONTINUOUS
 62
           2
100
AcDbCircle
 10
14187.970716980941
 20
-2303.393478039442
 40
6.0
  0
CIRCLE
  5
426
100
AcDbEntity
  8
1
  6
CONTINUOUS
 62
           2
100
AcDbCircle
 10
14187.970716980941
 20
-2303.393478039442
 40
11.1
  0
CIRCLE
  5
425
100
AcDbEntity
  8
1
  6
CONTINUOUS
 62
           2
100
AcDbCircle
 10
10423.54543051654
 20
-873.91820587469
 40
2.247127062104
  0
CIRCLE
  5
424
100
AcDbEntity
  8
1
  6
CONTINUOUS
 62
           7
100
AcDbCircle
 10
10407.655785843321
 20
-878.705011813999
 40
0.722222222221
  0
CIRCLE
  5
423
100
AcDbEntity
  8
1
  6
CONTINUOUS
 62
           7
100
AcDbCircle
 10
10423.54543051654
 20
-861.280424439286
 40
2.888888888891
  0
CIRCLE
  5
422
100
AcDbEntity
  8
1
  6
CONTINUOUS
 62
           7
100
AcDbCircle
 10
10423.54862003243
 20
-861.284583059215
 40
36.09209352415
  0
CIRCLE
  5
421
100
AcDbEntity
  8
1
  6
CONTINUOUS
 62
           2
100
AcDbCircle
 10
10483.844157374961
 20
-947.929151297702
 40
6.25
  0
CIRCLE
  5
420
100
AcDbEntity
  8
1
  6
CONTINUOUS
 62
           2
100
AcDbCircle
 10
10483.844157374961
 20
-947.929151297702
 40
3.0
  0
CIRCLE
  5
41F
100
AcDbEntity
  8
1
  6
CONTINUOUS
 62
           2
100
AcDbCircle
 10
10483.844157374961
 20
-947.929151297702
 40
5.0
  0
CIRCLE
  5
41E
100
AcDbEntity
  8
1
  6
CONTINUOUS
 62
           2
100
AcDbCircle
 10
10483.844157374961
 20
-947.929151297702
 40
8.5
  0
CIRCLE
  5
41D
100
AcDbEntity
  8
1
  6
CONTINUOUS
 62
           7
100
AcDbCircle
 10
11298.083686638611
 20
-1558.929151297702
 40
15.0
  0
CIRCLE
  5
41C
100
AcDbEntity
  8
1
  6
CONTINUOUS
 62
           3
100
AcDbCircle
 10
11298.083686638611
 20
-1558.929151297702
 40
10.0
  0
CIRCLE
  5
41B
100
AcDbEntity
  8
1
  6
CONTINUOUS
 62
           3
100
AcDbCircle
 10
11098.083686638611
 20
-1558.929151297702
 40
10.0
  0
CIRCLE
  5
41A
100
AcDbEntity
  8
1
  6
CONTINUOUS
 62
           7
100
AcDbCircle
 10
11098.083686638611
 20
-1558.929151297702
 40
15.0
  0
ARC
  5
419
100
AcDbEntity
  8
1
  6
CONTINUOUS
 62
           2
100
AcDbCircle
 10
11243.00067267128
 20
-3081.774910660971
 40
10.415441500099
100
AcDbArc
 50
180.0
 51
-148.868509433915
  0
ARC
  5
418
100
AcDbEntity
  8
1
  6
CONTINUOUS
 62
           2
100
AcDbCircle
 10
11153.16670060594
 20
-3081.774910660971
 40
10.415441500099
100
AcDbArc
 50
-31.131490566085
 51
0.0
  0
ARC
  5
417
100
AcDbEntity
  8
1
  6
CONTINUOUS
 62
           2
100
AcDbCircle
 10
11198.11235554246
 20
-3051.80748971306
 40
34.787361012422
100
AcDbArc
 50
7.71000821894
 51
173.029145890944
  0
ARC
  5
416
100
AcDbEntity
  8
1
  6
CONTINUOUS
 62
           2
100
AcDbCircle
 10
11198.083686638611
 20
-3044.19973419571
 40
48.499999999994
100
AcDbArc
 50
-34.542007549622
 51
-135.346659194766
  0
ARC
  5
415
100
AcDbEntity
  8
1
  6
CONTINUOUS
 62
           2
100
AcDbCircle
 10
11198.083686638611
 20
-3044.19973419571
 40
48.5
100
AcDbArc
 50
-44.653340805234
 51
-39.868341550014
  0
ARC
  5
414
100
AcDbEntity
  8
1
  6
CONTINUOUS
 62
           2
100
AcDbCircle
 10
11191.54496440193
 20
-3039.548443280712
 40
56.52348090412
100
AcDbArc
 50
-38.736479068654
 51
-34.667494258059
  0
ARC
  5
413
100
AcDbEntity
  8
1
  6
CONTINUOUS
 62
           2
100
AcDbCircle
 10
13469.3458934462
 20
-992.655968634433
 40
10.415441500099
100
AcDbArc
 50
58.868509433917
 51
90.0
  0
ARC
  5
412
100
AcDbEntity
  8
1
  6
CONTINUOUS
 62
           2
100
AcDbCircle
 10
13469.3458934462
 20
-902.821996569091
 40
10.415441500098
100
AcDbArc
 50
-90.0
 51
-58.868509433915
  0
ARC
  5
411
100
AcDbEntity
  8
1
  6
CONTINUOUS
 62
           2
100
AcDbCircle
 10
13465.0331100247
 20
-833.443625626765
 40
35.695356974995
100
AcDbArc
 50
-113.201052895934
 51
-90.0
  0
ARC
  5
410
100
AcDbEntity
  8
1
  6
CONTINUOUS
 62
           2
100
AcDbCircle
 10
13398.7831100247
 20
-833.443625626765
 40
35.695356974996
100
AcDbArc
 50
-90.0
 51
-66.798947104066
  0
ARC
  5
40F
100
AcDbEntity
  8
1
  6
CONTINUOUS
 62
           2
100
AcDbCircle
 10
13431.9081100247
 20
-804.756534126404
 40
64.382448475355
100
AcDbArc
 50
-107.222444972133
 51
-72.777555027867
  0
ARC
  5
40E
100
AcDbEntity
  8
1
  6
CONTINUOUS
 62
           2
100
AcDbCircle
 10
13464.855716980939
 20
-833.443625626765
 40
35.695356974995
100
AcDbArc
 50
-113.201052895934
 51
-90.0
  0
ARC
  5
40D
100
AcDbEntity
  8
1
  6
CONTINUOUS
 62
           2
100
AcDbCircle
 10
13398.605716980939
 20
-833.443625626765
 40
35.695356974996
100
AcDbArc
 50
-90.0
 51
-66.798947104066
  0
ARC
  5
40C
100
AcDbEntity
  8
1
  6
CONTINUOUS
 62
           2
100
AcDbCircle
 10
13431.730716980939
 20
-804.756534126404
 40
64.382448475355
100
AcDbArc
 50
-107.222444972133
 51
-72.777555027867
  0
ARC
  5
40B
100
AcDbEntity
  8
1
  6
CONTINUOUS
 62
           2
100
AcDbCircle
 10
13456.70478243744
 20
-932.364168494434
 40
50.031165077228
100
AcDbArc
 50
177.262366877252
 51
-94.50841490028
  0
ARC
  5
40A
100
AcDbEntity
  8
1
  6
CONTINUOUS
 62
           2
100
AcDbCircle
 10
13431.730716980939
 20
-818.271431077116
 40
64.382448475357
100
AcDbArc
 50
72.777555027867
 51
107.222444972132
  0
ARC
  5
409
100
AcDbEntity
  8
1
  6
CONTINUOUS
 62
           2
100
AcDbCircle
 10
13398.605716980939
 20
-789.584339576755
 40
35.695356974996
100
AcDbArc
 50
66.798947104066
 51
90.0
  0
ARC
  5
408
100
AcDbEntity
  8
1
  6
CONTINUOUS
 62
           2
100
AcDbCircle
 10
13464.855716980939
 20
-789.584339576755
 40
35.695356974996
100
AcDbArc
 50
90.0
 51
113.201052895934
  0
ARC
  5
407
100
AcDbEntity
  8
1
  6
CONTINUOUS
 62
           2
100
AcDbCircle
 10
13431.9081100247
 20
-818.271431077116
 40
64.382448475357
100
AcDbArc
 50
72.777555027867
 51
107.222444972132
  0
ARC
  5
406
100
AcDbEntity
  8
1
  6
CONTINUOUS
 62
           2
100
AcDbCircle
 10
13398.7831100247
 20
-789.584339576755
 40
35.695356974996
100
AcDbArc
 50
66.798947104066
 51
90.0
  0
ARC
  5
405
100
AcDbEntity
  8
1
  6
CONTINUOUS
 62
           2
100
AcDbCircle
 10
13465.0331100247
 20
-789.584339576755
 40
35.695356974996
100
AcDbArc
 50
90.0
 51
113.201052895934
  0
ARC
  5
404
100
AcDbEntity
  8
1
  6
CONTINUOUS
 62
           2
100
AcDbCircle
 10
13409.730716980939
 20
-684.63898260176
 40
1.0
100
AcDbArc
 50
0.0
 51
180.0
  0
ARC
  5
403
100
AcDbEntity
  8
1
  6
CONTINUOUS
 62
           2
100
AcDbCircle
 10
13424.397383647611
 20
-684.63898260176
 40
1.0
100
AcDbArc
 50
0.0
 51
180.0
  0
ARC
  5
402
100
AcDbEntity
  8
1
  6
CONTINUOUS
 62
           2
100
AcDbCircle
 10
13439.06405031428
 20
-684.63898260176
 40
1.0
100
AcDbArc
 50
0.0
 51
180.0
  0
ARC
  5
401
100
AcDbEntity
  8
1
  6
CONTINUOUS
 62
           2
100
AcDbCircle
 10
13453.730716980939
 20
-684.63898260176
 40
1.0
100
AcDbArc
 50
0.0
 51
180.0
  0
ARC
  5
400
100
AcDbEntity
  8
1
  6
CONTINUOUS
 62
           2
100
AcDbCircle
 10
13431.730716980939
 20
-662.13898260176
 40
15.0
100
AcDbArc
 50
0.0
 51
180.0
  0
ARC
  5
3FF
100
AcDbEntity
  8
1
  6
CONTINUOUS
 62
           2
100
AcDbCircle
 10
13416.230716980939
 20
-682.781380450653
 40
12.142397848893
100
AcDbArc
 50
59.020901138369
 51
90.0
  0
ARC
  5
3FE
100
AcDbEntity
  8
1
  6
CONTINUOUS
 62
           2
100
AcDbCircle
 10
13447.230716980939
 20
-682.781380450653
 40
12.142397848893
100
AcDbArc
 50
90.0
 51
120.979098861631
  0
ARC
  5
3FD
100
AcDbEntity
  8
1
  6
CONTINUOUS
 62
           2
100
AcDbCircle
 10
13431.730716980939
 20
-696.204774209312
 40
25.565791607551
100
AcDbArc
 50
68.788505585336
 51
111.211494414664
  0
ARC
  5
3FC
100
AcDbEntity
  8
976
  6
CONTINUOUS
 62
           7
100
AcDbCircle
 10
14708.650342417301
 20
-1983.981796883131
 40
141.43323110208
100
AcDbArc
 50
-64.335676254713
 51
-2.289044018796
  0
ARC
  5
3FB
100
AcDbEntity
  8
1
  6
CONTINUOUS
 62
           7
100
AcDbCircle
 10
14187.970716980941
 20
-938.929151297702
 40
1308.999999999999
100
AcDbArc
 50
-69.893033609314
 51
-63.604563329116
  0
ARC
  5
3FA
100
AcDbEntity
  8
976
  6
CONTINUOUS
 62
           7
100
AcDbCircle
 10
14708.650342417301
 20
-1983.981796883131
 40
141.43323110208
100
AcDbArc
 50
-64.335676254713
 51
-2.289044018796
  0
ARC
  5
3F9
100
AcDbEntity
  8
1
  6
CONTINUOUS
 62
           7
100
AcDbCircle
 10
14187.970716980941
 20
-938.929151297702
 40
1309.0
100
AcDbArc
 50
-116.395436670884
 51
-110.106966390686
  0
ARC
  5
3F8
100
AcDbEntity
  8
976
  6
CONTINUOUS
 62
           7
100
AcDbCircle
 10
13667.291091544579
 20
-1983.981796883131
 40
141.433231102077
100
AcDbArc
 50
-177.710955981204
 51
-115.664323745287
  0
ARC
  5
3F7
100
AcDbEntity
  8
976
  6
CONTINUOUS
 62
           7
100
AcDbCircle
 10
13667.291091544579
 20
-1983.981796883131
 40
141.433231102077
100
AcDbArc
 50
-177.710955981204
 51
-115.664323745287
  0
ARC
  5
3F6
100
AcDbEntity
  8
1
  6
CONTINUOUS
 62
           7
100
AcDbCircle
 10
14187.970716980941
 20
-1083.929151297701
 40
1309.0
100
AcDbArc
 50
69.893033609314
 51
89.562289252623
  0
ARC
  5
3F5
100
AcDbEntity
  8
1
  6
CONTINUOUS
 62
           7
100
AcDbCircle
 10
14187.970716980941
 20
-1083.929151297701
 40
1309.0
100
AcDbArc
 50
90.437710747377
 51
110.106966390686
  0
ARC
  5
3F4
100
AcDbEntity
  8
1
  6
CONTINUOUS
 62
           7
100
AcDbCircle
 10
14187.970716980941
 20
-1083.929151297701
 40
1309.0
100
AcDbArc
 50
110.106966390686
 51
116.395436670884
  0
ARC
  5
3F3
100
AcDbEntity
  8
976
  6
CONTINUOUS
 62
           7
100
AcDbCircle
 10
13667.98982138483
 20
-39.1898094859
 40
142.019104465034
100
AcDbArc
 50
115.863665151446
 51
179.998318723875
  0
ARC
  5
3F2
100
AcDbEntity
  8
976
  6
CONTINUOUS
 62
           7
100
AcDbCircle
 10
13667.98982138483
 20
-39.1898094859
 40
142.019104465034
100
AcDbArc
 50
115.863665151446
 51
179.998318723875
  0
ARC
  5
3F1
100
AcDbEntity
  8
1
  6
CONTINUOUS
 62
           7
100
AcDbCircle
 10
14187.970716980941
 20
-1083.929151297701
 40
1309.0
100
AcDbArc
 50
63.604563329116
 51
69.893033609314
  0
ARC
  5
3F0
100
AcDbEntity
  8
1
  6
CONTINUOUS
 62
           7
100
AcDbCircle
 10
14187.970716980941
 20
-1083.929151297701
 40
1309.0
100
AcDbArc
 50
63.604563329116
 51
69.893033609314
  0
ARC
  5
3EF
100
AcDbEntity
  8
1
  6
CONTINUOUS
 62
           7
100
AcDbCircle
 10
14187.970716980941
 20
-1083.929151297701
 40
1309.0
100
AcDbArc
 50
90.437710747377
 51
110.106966390686
  0
ARC
  5
3EE
100
AcDbEntity
  8
976
  6
CONTINUOUS
 62
           7
100
AcDbCircle
 10
14707.95161257705
 20
-39.1898094859
 40
142.019104465035
100
AcDbArc
 50
0.001681276125
 51
64.136334848554
  0
ARC
  5
3ED
100
AcDbEntity
  8
1
  6
CONTINUOUS
 62
           2
100
AcDbCircle
 10
11198.083686638611
 20
-687.394942905253
 40
25.565791607551
100
AcDbArc
 50
68.788505585336
 51
111.211494414664
  0
ARC
  5
3EC
100
AcDbEntity
  8
1
  6
CONTINUOUS
 62
           2
100
AcDbCircle
 10
11213.583686638611
 20
-673.971549146594
 40
12.142397848893
100
AcDbArc
 50
90.0
 51
120.979098861631
  0
ARC
  5
3EB
100
AcDbEntity
  8
1
  6
CONTINUOUS
 62
           2
100
AcDbCircle
 10
11182.583686638611
 20
-673.971549146594
 40
12.142397848893
100
AcDbArc
 50
59.020901138369
 51
90.0
  0
ARC
  5
3EA
100
AcDbEntity
  8
1
  6
CONTINUOUS
 62
           2
100
AcDbCircle
 10
11198.083686638611
 20
-653.329151297701
 40
15.0
100
AcDbArc
 50
0.0
 51
180.0
  0
ARC
  5
3E9
100
AcDbEntity
  8
1
  6
CONTINUOUS
 62
           2
100
AcDbCircle
 10
11220.083686638611
 20
-675.829151297701
 40
1.0
100
AcDbArc
 50
0.0
 51
180.0
  0
ARC
  5
3E8
100
AcDbEntity
  8
1
  6
CONTINUOUS
 62
           2
100
AcDbCircle
 10
11205.417019971939
 20
-675.829151297701
 40
1.0
100
AcDbArc
 50
0.0
 51
180.0
  0
ARC
  5
3E7
100
AcDbEntity
  8
1
  6
CONTINUOUS
 62
           2
100
AcDbCircle
 10
11190.75035330528
 20
-675.829151297701
 40
1.0
100
AcDbArc
 50
0.0
 51
180.0
  0
ARC
  5
3E6
100
AcDbEntity
  8
1
  6
CONTINUOUS
 62
           2
100
AcDbCircle
 10
11176.083686638611
 20
-675.829151297701
 40
1.0
100
AcDbArc
 50
0.0
 51
180.0
  0
ARC
  5
3E5
100
AcDbEntity
  8
1
  6
CONTINUOUS
 62
           2
100
AcDbCircle
 10
11198.083686638611
 20
-795.946702822345
 40
64.382448475355
100
AcDbArc
 50
-107.222444972133
 51
-72.777555027867
  0
ARC
  5
3E4
100
AcDbEntity
  8
1
  6
CONTINUOUS
 62
           2
100
AcDbCircle
 10
11164.958686638611
 20
-824.633794322705
 40
35.695356974996
100
AcDbArc
 50
-90.0
 51
-66.798947104066
  0
ARC
  5
3E3
100
AcDbEntity
  8
1
  6
CONTINUOUS
 62
           2
100
AcDbCircle
 10
11231.208686638611
 20
-824.633794322705
 40
35.695356974995
100
AcDbArc
 50
-113.201052895934
 51
-90.0
  0
ARC
  5
3E2
100
AcDbEntity
  8
1
  6
CONTINUOUS
 62
           2
100
AcDbCircle
 10
11198.26107968237
 20
-795.946702822345
 40
64.382448475355
100
AcDbArc
 50
-107.222444972133
 51
-72.777555027867
  0
ARC
  5
3E1
100
AcDbEntity
  8
1
  6
CONTINUOUS
 62
           2
100
AcDbCircle
 10
11165.13607968237
 20
-824.633794322705
 40
35.695356974996
100
AcDbArc
 50
-90.0
 51
-66.798947104066
  0
ARC
  5
3E0
100
AcDbEntity
  8
1
  6
CONTINUOUS
 62
           2
100
AcDbCircle
 10
11231.38607968237
 20
-824.633794322705
 40
35.695356974995
100
AcDbArc
 50
-113.201052895934
 51
-90.0
  0
ARC
  5
3DF
100
AcDbEntity
  8
1
  6
CONTINUOUS
 62
           2
100
AcDbCircle
 10
11198.083686638611
 20
-938.929151297702
 40
36.001544532577
100
AcDbArc
 50
135.814292148311
 51
-90.0
  0
ARC
  5
3DE
100
AcDbEntity
  8
1
  6
CONTINUOUS
 62
           2
100
AcDbCircle
 10
11198.083686638611
 20
-938.929151297702
 40
34.501544532573
100
AcDbArc
 50
145.061635945305
 51
-90.0
  0
ARC
  5
3DD
100
AcDbEntity
  8
1
  6
CONTINUOUS
 62
           2
100
AcDbCircle
 10
11198.083686638611
 20
-938.929151297702
 40
34.501544532572
100
AcDbArc
 50
-90.0
 51
34.344062965711
  0
ARC
  5
3DC
100
AcDbEntity
  8
1
  6
CONTINUOUS
 62
           2
100
AcDbCircle
 10
11198.083686638611
 20
-938.929151297702
 40
36.001544532572
100
AcDbArc
 50
-90.0
 51
44.185707851701
  0
ARC
  5
3DB
100
AcDbEntity
  8
1
  6
CONTINUOUS
 62
           2
100
AcDbCircle
 10
11231.38607968237
 20
-780.774508272696
 40
35.695356974996
100
AcDbArc
 50
90.0
 51
113.201052895934
  0
ARC
  5
3DA
100
AcDbEntity
  8
1
  6
CONTINUOUS
 62
           2
100
AcDbCircle
 10
11165.13607968237
 20
-780.774508272696
 40
35.695356974995
100
AcDbArc
 50
66.798947104066
 51
90.0
  0
ARC
  5
3D9
100
AcDbEntity
  8
1
  6
CONTINUOUS
 62
           2
100
AcDbCircle
 10
11198.26107968237
 20
-809.461599773057
 40
64.382448475356
100
AcDbArc
 50
72.777555027867
 51
107.222444972132
  0
ARC
  5
3D8
100
AcDbEntity
  8
1
  6
CONTINUOUS
 62
           2
100
AcDbCircle
 10
11231.208686638611
 20
-780.774508272696
 40
35.695356974996
100
AcDbArc
 50
90.0
 51
113.201052895934
  0
ARC
  5
3D7
100
AcDbEntity
  8
1
  6
CONTINUOUS
 62
           2
100
AcDbCircle
 10
11164.958686638611
 20
-780.774508272696
 40
35.695356974995
100
AcDbArc
 50
66.798947104066
 51
90.0
  0
ARC
  5
3D6
100
AcDbEntity
  8
1
  6
CONTINUOUS
 62
           2
100
AcDbCircle
 10
11198.083686638611
 20
-809.461599773057
 40
64.382448475356
100
AcDbArc
 50
72.777555027867
 51
107.222444972132
  0
ARC
  5
3D5
100
AcDbEntity
  8
976
  6
CONTINUOUS
 62
           7
100
AcDbCircle
 10
10678.1027910425
 20
-39.1898094859
 40
142.019104465034
100
AcDbArc
 50
115.863665151446
 51
179.998318723875
  0
ARC
  5
3D4
100
AcDbEntity
  8
976
  6
CONTINUOUS
 62
           7
100
AcDbCircle
 10
10678.1027910425
 20
-39.1898094859
 40
142.019104465034
100
AcDbArc
 50
115.863665151446
 51
179.998318723875
  0
ARC
  5
3D3
100
AcDbEntity
  8
976
  6
CONTINUOUS
 62
           7
100
AcDbCircle
 10
11718.06458223472
 20
-39.1898094859
 40
142.019104465035
100
AcDbArc
 50
0.001681276125
 51
64.136334848554
  0
ARC
  5
3D2
100
AcDbEntity
  8
976
  6
CONTINUOUS
 62
           7
100
AcDbCircle
 10
11718.763312074971
 20
-1983.981796883131
 40
141.43323110208
100
AcDbArc
 50
-64.335676254713
 51
-2.289044018796
  0
ARC
  5
3D1
100
AcDbEntity
  8
976
  6
CONTINUOUS
 62
           7
100
AcDbCircle
 10
10677.404061202251
 20
-1983.981796883131
 40
141.433231102079
100
AcDbArc
 50
-177.710955981204
 51
-115.664323745288
  0
ARC
  5
3D0
100
AcDbEntity
  8
976
  6
CONTINUOUS
 62
           7
100
AcDbCircle
 10
14206.6521395812
 20
209.58628299782
 40
1.318577689162
100
AcDbArc
 50
-40.492977827895
 51
40.015326049419
  0
ARC
  5
3CF
100
AcDbEntity
  8
976
  6
CONTINUOUS
 62
           7
100
AcDbCircle
 10
14204.615585606591
 20
211.160194925147
 40
3.891399451512
100
AcDbArc
 50
-64.493337848544
 51
-38.64470236153
  0
ARC
  5
3CE
100
AcDbEntity
  8
976
  6
CONTINUOUS
 62
           7
100
AcDbCircle
 10
14199.095657220991
 20
221.573592012092
 40
15.674731928617
100
AcDbArc
 50
-75.999099155553
 51
-62.673594154221
  0
ARC
  5
3CD
100
AcDbEntity
  8
976
  6
CONTINUOUS
 62
           7
100
AcDbCircle
 10
14192.46065505516
 20
246.384110483483
 40
41.355722139635
100
AcDbArc
 50
-82.343384011499
 51
-75.396003011909
  0
ARC
  5
3CC
100
AcDbEntity
  8
976
  6
CONTINUOUS
 62
           7
100
AcDbCircle
 10
14192.46065505516
 20
172.790037501526
 40
41.355722139634
100
AcDbArc
 50
75.39600301191
 51
82.343384011499
  0
ARC
  5
3CB
100
AcDbEntity
  8
976
  6
CONTINUOUS
 62
           7
100
AcDbCircle
 10
14199.095657220991
 20
197.600555972917
 40
15.674731928616
100
AcDbArc
 50
62.673594154217
 51
75.999099155553
  0
ARC
  5
3CA
100
AcDbEntity
  8
976
  6
CONTINUOUS
 62
           7
100
AcDbCircle
 10
14204.615585606591
 20
208.013953059862
 40
3.891399451511
100
AcDbArc
 50
38.64470236153
 51
64.493337848537
  0
ARC
  5
3C9
100
AcDbEntity
  8
976
  6
CONTINUOUS
 62
           7
100
AcDbCircle
 10
14171.325848355291
 20
208.013953059862
 40
3.891399451512
100
AcDbArc
 50
115.506662151487
 51
141.355297638486
  0
ARC
  5
3C8
100
AcDbEntity
  8
976
  6
CONTINUOUS
 62
           7
100
AcDbCircle
 10
14176.84577674088
 20
197.600555972917
 40
15.674731928614
100
AcDbArc
 50
104.000900844415
 51
117.326405845753
  0
ARC
  5
3C7
100
AcDbEntity
  8
976
  6
CONTINUOUS
 62
           7
100
AcDbCircle
 10
14183.48077890672
 20
172.790037501526
 40
41.355722139635
100
AcDbArc
 50
97.656615988498
 51
104.60399698809
  0
ARC
  5
3C6
100
AcDbEntity
  8
976
  6
CONTINUOUS
 62
           7
100
AcDbCircle
 10
14183.48077890672
 20
246.384110483483
 40
41.355722139633
100
AcDbArc
 50
-104.60399698809
 51
-97.656615988498
  0
ARC
  5
3C5
100
AcDbEntity
  8
976
  6
CONTINUOUS
 62
           7
100
AcDbCircle
 10
14176.84577674088
 20
221.573592012092
 40
15.674731928614
100
AcDbArc
 50
-117.326405845749
 51
-104.000900844415
  0
ARC
  5
3C4
100
AcDbEntity
  8
976
  6
CONTINUOUS
 62
           7
100
AcDbCircle
 10
14171.325848355291
 20
211.160194925147
 40
3.891399451513
100
AcDbArc
 50
-141.355297638486
 51
-115.50666215148
  0
ARC
  5
3C3
100
AcDbEntity
  8
976
  6
CONTINUOUS
 62
           7
100
AcDbCircle
 10
14169.28929438068
 20
209.58628299782
 40
1.318577689162
100
AcDbArc
 50
139.98467395058
 51
-139.507022172105
  0
ARC
  5
3C2
100
AcDbEntity
  8
976
  6
CONTINUOUS
 62
           7
100
AcDbCircle
 10
14209.200467990049
 20
193.034239660618
 40
1.270249198812
100
AcDbArc
 50
-34.837294282788
 51
-0.032782393895
  0
ARC
  5
3C1
100
AcDbEntity
  8
976
  6
CONTINUOUS
 62
           7
100
AcDbCircle
 10
14207.18977291501
 20
194.433016931968
 40
3.719631252949
100
AcDbArc
 50
-65.504737488548
 51
-34.829277745539
  0
ARC
  5
3C0
100
AcDbEntity
  8
976
  6
CONTINUOUS
 62
           7
100
AcDbCircle
 10
14197.78489179144
 20
214.882106330232
 40
26.227766274616
100
AcDbArc
 50
-81.38136828377
 51
-65.330324197005
  0
ARC
  5
3BF
100
AcDbEntity
  8
976
  6
CONTINUOUS
 62
           7
100
AcDbCircle
 10
14188.47893845539
 20
269.863695848855
 40
81.988686340928
100
AcDbArc
 50
-90.355836465928
 51
-80.70943281685
  0
ARC
  5
3BE
100
AcDbEntity
  8
976
  6
CONTINUOUS
 62
           7
100
AcDbCircle
 10
14187.46249550649
 20
269.863695848855
 40
81.988686340929
100
AcDbArc
 50
-99.29056718315
 51
-89.64416353407
  0
ARC
  5
3BD
100
AcDbEntity
  8
976
  6
CONTINUOUS
 62
           7
100
AcDbCircle
 10
14178.15654217044
 20
214.882106330232
 40
26.227766274614
100
AcDbArc
 50
-114.669675802995
 51
-98.618631716229
  0
ARC
  5
3BC
100
AcDbEntity
  8
976
  6
CONTINUOUS
 62
           7
100
AcDbCircle
 10
14168.75166104687
 20
194.433016931968
 40
3.719631252952
100
AcDbArc
 50
-145.17072225446
 51
-114.495262511452
  0
ARC
  5
3BB
100
AcDbEntity
  8
976
  6
CONTINUOUS
 62
           7
100
AcDbCircle
 10
14166.740965971831
 20
193.034239660618
 40
1.270249198809
100
AcDbArc
 50
-179.967217606105
 51
-145.162705717212
  0
ARC
  5
3BA
100
AcDbEntity
  8
976
  6
CONTINUOUS
 62
           7
100
AcDbCircle
 10
14187.970716980941
 20
271.785220851561
 40
10.0
100
AcDbArc
 50
0.0
 51
180.0
  0
ARC
  5
3B9
100
AcDbEntity
  8
976
  6
CONTINUOUS
 62
           7
100
AcDbCircle
 10
10898.083686638611
 20
236.404386743832
 40
44.999999999996
100
AcDbArc
 50
-43.887605381841
 51
-109.612394618167
  0
ARC
  5
3B8
100
AcDbEntity
  8
976
  6
CONTINUOUS
 62
           7
100
AcDbCircle
 10
11498.083686638611
 20
236.404386743832
 40
45.000000000001
100
AcDbArc
 50
-70.387605381835
 51
-136.11239461817
  0
ARC
  5
3B7
100
AcDbEntity
  8
976
  6
CONTINUOUS
 62
           7
100
AcDbCircle
 10
11198.0836866386
 20
-3797.399734195715
 40
667.999999999999
100
AcDbArc
 50
64.93458790692
 51
115.065412093078
  0
ARC
  5
3B6
100
AcDbEntity
  8
976
  6
CONTINUOUS
 62
           7
100
AcDbCircle
 10
11201.083686638631
 20
-3800.399734195714
 40
664.999999999985
100
AcDbArc
 50
-7.995639976545
 51
7.995639976545
  0
ARC
  5
3B5
100
AcDbEntity
  8
976
  6
CONTINUOUS
 62
           7
100
AcDbCircle
 10
11195.083686638611
 20
-3800.399734195714
 40
664.999999999997
100
AcDbArc
 50
172.004360023455
 51
-172.004360023455
  0
ARC
  5
3B4
100
AcDbEntity
  8
1
  6
CONTINUOUS
 62
           7
100
AcDbCircle
 10
14187.970716980941
 20
-2338.929151297702
 40
100.0
100
AcDbArc
 50
0.0
 51
180.0
  0
ARC
  5
3B3
100
AcDbEntity
  8
1
  6
CONTINUOUS
 62
           7
100
AcDbCircle
 10
13435.68068867164
 20
-2323.393126076196
 40
315.971260282126
100
AcDbArc
 50
-1.456160860872
 51
16.922170814293
  0
ARC
  5
3B2
100
AcDbEntity
  8
1
  6
CONTINUOUS
 62
           7
100
AcDbCircle
 10
13435.68068867164
 20
-2323.393126076196
 40
315.971260282126
100
AcDbArc
 50
-1.456160860872
 51
16.922170814293
  0
ARC
  5
3B1
100
AcDbEntity
  8
1
  6
CONTINUOUS
 62
           7
100
AcDbCircle
 10
13435.68068867164
 20
-2323.393126076196
 40
315.971260282126
100
AcDbArc
 50
-1.456160860872
 51
16.922170814293
  0
ARC
  5
3B0
100
AcDbEntity
  8
1
  6
CONTINUOUS
 62
           7
100
AcDbCircle
 10
13435.68068867164
 20
-2323.393126076196
 40
315.971260282126
100
AcDbArc
 50
-1.456160860872
 51
16.922170814293
  0
ARC
  5
3AF
100
AcDbEntity
  8
1
  6
CONTINUOUS
 62
           7
100
AcDbCircle
 10
14940.26074529025
 20
-2323.393126076196
 40
315.971260282132
100
AcDbArc
 50
163.077829185707
 51
-178.543839139127
  0
ARC
  5
3AE
100
AcDbEntity
  8
1
  6
CONTINUOUS
 62
           7
100
AcDbCircle
 10
14940.26074529025
 20
-2323.393126076196
 40
315.971260282132
100
AcDbArc
 50
163.077829185707
 51
-178.543839139127
  0
ARC
  5
3AD
100
AcDbEntity
  8
1
  6
DOTTED
 62
           7
100
AcDbCircle
 10
14187.970716980941
 20
-938.929151297702
 40
1308.999999999999
100
AcDbArc
 50
-110.106966390686
 51
-69.893033609314
  0
ARC
  5
3AC
100
AcDbEntity
  8
1
  6
CONTINUOUS
 62
           7
100
AcDbCircle
 10
10445.793658329299
 20
-2323.393126076196
 40
315.971260282128
100
AcDbArc
 50
-1.456160860872
 51
16.922170814292
  0
ARC
  5
3AB
100
AcDbEntity
  8
1
  6
CONTINUOUS
 62
           7
100
AcDbCircle
 10
10445.793658329299
 20
-2323.393126076196
 40
315.971260282128
100
AcDbArc
 50
-1.456160860872
 51
16.922170814292
  0
ARC
  5
3AA
100
AcDbEntity
  8
1
  6
CONTINUOUS
 62
           7
100
AcDbCircle
 10
11950.373714947909
 20
-2323.393126076196
 40
315.971260282121
100
AcDbArc
 50
163.077829185707
 51
-178.543839139127
  0
ARC
  5
3A9
100
AcDbEntity
  8
1
  6
CONTINUOUS
 62
           7
100
AcDbCircle
 10
11198.083686638611
 20
-1083.929151297701
 40
1309.0
100
AcDbArc
 50
110.106966390686
 51
116.395436670884
  0
ARC
  5
3A8
100
AcDbEntity
  8
1
  6
DOTTED
 62
           7
100
AcDbCircle
 10
11198.083686638611
 20
-1083.929151297701
 40
1309.0
100
AcDbArc
 50
69.893033609314
 51
110.106966390686
  0
ARC
  5
3A7
100
AcDbEntity
  8
1
  6
CONTINUOUS
 62
           7
100
AcDbCircle
 10
11198.083686638611
 20
-1083.929151297701
 40
1309.0
100
AcDbArc
 50
69.893033609314
 51
110.106966390686
  0
ARC
  5
3A6
100
AcDbEntity
  8
1
  6
CONTINUOUS
 62
           7
100
AcDbCircle
 10
11198.083686638611
 20
-1083.929151297701
 40
1309.0
100
AcDbArc
 50
63.604563329116
 51
69.893033609314
  0
ARC
  5
3A5
100
AcDbEntity
  8
1
  6
CONTINUOUS
 62
           7
100
AcDbCircle
 10
11198.083686638611
 20
-1083.929151297701
 40
1309.0
100
AcDbArc
 50
63.604563329116
 51
69.893033609314
  0
ARC
  5
3A4
100
AcDbEntity
  8
1
  6
CONTINUOUS
 62
           7
100
AcDbCircle
 10
11991.4952300852
 20
-947.929151297702
 40
137.819366308425
100
AcDbArc
 50
155.501260906973
 51
-155.501260906973
  0
ARC
  5
3A3
100
AcDbEntity
  8
1
  6
CONTINUOUS
 62
           7
100
AcDbCircle
 10
12106.755670398559
 20
-947.929151297702
 40
268.089663307014
100
AcDbArc
 50
156.94217047638
 51
-156.94217047638
  0
ARC
  5
3A2
100
AcDbEntity
  8
1
  6
CONTINUOUS
 62
           7
100
AcDbCircle
 10
10289.41170287865
 20
-1747.929151297702
 40
268.089663307026
100
AcDbArc
 50
-23.057829523619
 51
23.057829523619
  0
ARC
  5
3A1
100
AcDbEntity
  8
1
  6
CONTINUOUS
 62
           7
100
AcDbCircle
 10
10404.67214319201
 20
-1747.929151297702
 40
137.819366308435
100
AcDbArc
 50
-24.498739093025
 51
24.498739093025
  0
ARC
  5
3A0
100
AcDbEntity
  8
1
  6
DOTTED
 62
           7
100
AcDbCircle
 10
11198.083686638611
 20
-938.929151297702
 40
1308.999999999999
100
AcDbArc
 50
-110.106966390686
 51
-69.893033609314
  0
ARC
  5
39F
100
AcDbEntity
  8
1
  6
CONTINUOUS
 62
           7
100
AcDbCircle
 10
11198.083686638611
 20
-938.929151297702
 40
1309.0
100
AcDbArc
 50
-116.395436670884
 51
-110.106966390686
  0
ARC
  5
39E
100
AcDbEntity
  8
1
  6
CONTINUOUS
 62
           7
100
AcDbCircle
 10
11198.083686638611
 20
-938.929151297702
 40
1308.999999999999
100
AcDbArc
 50
-69.893033609314
 51
-63.604563329116
  0
ARC
  5
39D
100
AcDbEntity
  8
1
  6
CONTINUOUS
 62
           2
100
AcDbCircle
 10
10424.584959780201
 20
-3800.399734195714
 40
11.5
100
AcDbArc
 50
90.0
 51
-90.0
  0
ARC
  5
39C
100
AcDbEntity
  8
1
  6
CONTINUOUS
 62
           7
100
AcDbCircle
 10
14187.970716980941
 20
-1238.929151297702
 40
1009.0
100
AcDbArc
 50
-92.255000670213
 51
-87.744999329786
  0
ARC
  5
39B
100
AcDbEntity
  8
1
  6
CONTINUOUS
 62
           2
100
AcDbCircle
 10
14187.970716980941
 20
-2303.393478039442
 40
13.000000000004
100
AcDbArc
 50
-148.89107748946
 51
-31.108922510544
  0
ARC
  5
39A
100
AcDbEntity
  8
1
  6
CONTINUOUS
 62
           2
100
AcDbCircle
 10
14187.970716980941
 20
-2303.393478039442
 40
12.999999999997
100
AcDbArc
 50
31.108922510503
 51
148.891077489501
  0
ARC
  5
399
100
AcDbEntity
  8
1
  6
CONTINUOUS
 62
           2
100
AcDbCircle
 10
14187.970716980941
 20
-2308.509933007902
 40
23.883545031539
100
AcDbArc
 50
-107.587953773992
 51
-103.93090048415
  0
ARC
  5
398
100
AcDbEntity
  8
1
  6
CONTINUOUS
 62
           2
100
AcDbCircle
 10
14187.970716980941
 20
-2299.777023070981
 40
23.883545031543
100
AcDbArc
 50
72.412046225988
 51
76.069099515849
  0
ARC
  5
397
100
AcDbEntity
  8
1
  6
CONTINUOUS
 62
           2
100
AcDbCircle
 10
14187.970716980941
 20
-2346.277023070982
 40
23.883545031541
100
AcDbArc
 50
72.412046225986
 51
76.069099515848
  0
ARC
  5
396
100
AcDbEntity
  8
1
  6
CONTINUOUS
 62
           2
100
AcDbCircle
 10
14187.970716980941
 20
-2262.009933007904
 40
23.88354503154
100
AcDbArc
 50
-107.587953773991
 51
-103.930900484151
  0
ARC
  5
395
100
AcDbEntity
  8
1
  6
CONTINUOUS
 62
           2
100
AcDbCircle
 10
14198.813557769139
 20
-2328.839670915364
 40
6.446216693343
100
AcDbArc
 50
97.512915755716
 51
124.228495803037
  0
ARC
  5
394
100
AcDbEntity
  8
1
  6
CONTINUOUS
 62
           2
100
AcDbCircle
 10
14177.12787619275
 20
-2328.839670915365
 40
6.446216693348
100
AcDbArc
 50
100.341209638519
 51
114.020677081041
  0
ARC
  5
393
100
AcDbEntity
  8
1
  6
CONTINUOUS
 62
           2
100
AcDbCircle
 10
14187.970716980941
 20
-2346.277023070982
 40
23.883545031539
100
AcDbArc
 50
103.930900484151
 51
107.587953773993
  0
ARC
  5
392
100
AcDbEntity
  8
1
  6
CONTINUOUS
 62
           2
100
AcDbCircle
 10
14198.813557769139
 20
-2279.447285163522
 40
6.446216693345
100
AcDbArc
 50
-79.658790361543
 51
-65.97932291894
  0
ARC
  5
391
100
AcDbEntity
  8
1
  6
CONTINUOUS
 62
           2
100
AcDbCircle
 10
14177.12787619275
 20
-2279.447285163521
 40
6.446216693346
100
AcDbArc
 50
-82.487084244353
 51
-55.771504196966
  0
ARC
  5
390
100
AcDbEntity
  8
1
  6
CONTINUOUS
 62
           2
100
AcDbCircle
 10
14187.970716980941
 20
-2262.009933007904
 40
23.88354503154
100
AcDbArc
 50
-76.069099515849
 51
-72.412046225988
  0
ARC
  5
38F
100
AcDbEntity
  8
1
  6
CONTINUOUS
 62
           2
100
AcDbCircle
 10
14177.12787619275
 20
-2282.339670915363
 40
6.446216693344
100
AcDbArc
 50
55.771504196961
 51
114.020677081041
  0
ARC
  5
38E
100
AcDbEntity
  8
1
  6
CONTINUOUS
 62
           2
100
AcDbCircle
 10
14187.970716980941
 20
-2299.777023070981
 40
23.883545031541
100
AcDbArc
 50
103.93090048415
 51
107.587953773991
  0
ARC
  5
38D
100
AcDbEntity
  8
1
  6
CONTINUOUS
 62
           2
100
AcDbCircle
 10
14198.813557769139
 20
-2282.339670915362
 40
6.446216693346
100
AcDbArc
 50
65.97932291894
 51
124.22849580303
  0
ARC
  5
38C
100
AcDbEntity
  8
1
  6
CONTINUOUS
 62
           2
100
AcDbCircle
 10
14177.12787619275
 20
-2325.947285163519
 40
6.446216693345
100
AcDbArc
 50
-114.020677081046
 51
-55.771504196959
  0
ARC
  5
38B
100
AcDbEntity
  8
1
  6
CONTINUOUS
 62
           2
100
AcDbCircle
 10
14187.970716980941
 20
-2308.509933007902
 40
23.883545031541
100
AcDbArc
 50
-76.069099515849
 51
-72.412046225987
  0
ARC
  5
38A
100
AcDbEntity
  8
1
  6
CONTINUOUS
 62
           2
100
AcDbCircle
 10
14198.813557769139
 20
-2325.94728516352
 40
6.446216693342
100
AcDbArc
 50
-124.228495803032
 51
-65.979322918935
  0
ARC
  5
389
100
AcDbEntity
  8
1
  6
CONTINUOUS
 62
           2
100
AcDbCircle
 10
14177.12787619275
 20
-2279.447285163521
 40
6.446216693346
100
AcDbArc
 50
-114.020677081041
 51
-100.341209638526
  0
ARC
  5
388
100
AcDbEntity
  8
1
  6
CONTINUOUS
 62
           2
100
AcDbCircle
 10
14198.813557769139
 20
-2279.447285163522
 40
6.446216693343
100
AcDbArc
 50
-124.228495803025
 51
-97.512915755712
  0
ARC
  5
387
100
AcDbEntity
  8
1
  6
CONTINUOUS
 62
           2
100
AcDbCircle
 10
14177.12787619275
 20
-2328.839670915365
 40
6.446216693343
100
AcDbArc
 50
55.771504196954
 51
82.487084244353
  0
ARC
  5
386
100
AcDbEntity
  8
1
  6
CONTINUOUS
 62
           2
100
AcDbCircle
 10
14198.813557769139
 20
-2328.839670915364
 40
6.446216693346
100
AcDbArc
 50
65.97932291894
 51
79.658790361538
  0
ARC
  5
385
100
AcDbEntity
  8
1
  6
CONTINUOUS
 62
           2
100
AcDbCircle
 10
14187.970716980941
 20
-2299.77702307102
 40
23.88354503158
100
AcDbArc
 50
72.412046226016
 51
107.587953773963
  0
ARC
  5
384
100
AcDbEntity
  8
1
  6
CONTINUOUS
 62
           2
100
AcDbCircle
 10
14187.970716980941
 20
-2264.401543579654
 40
21.615815918786
100
AcDbArc
 50
-109.503854479457
 51
-70.49614552052
  0
ARC
  5
383
100
AcDbEntity
  8
1
  6
CONTINUOUS
 62
           2
100
AcDbCircle
 10
14187.970716980941
 20
-2308.509933007885
 40
23.883545031555
100
AcDbArc
 50
-107.58795377398
 51
-72.412046225999
  0
ARC
  5
382
100
AcDbEntity
  8
1
  6
CONTINUOUS
 62
           2
100
AcDbCircle
 10
14187.970716980941
 20
-2348.238584753727
 40
25.760231957409
100
AcDbArc
 50
73.730496507343
 51
106.269503492637
  0
ARC
  5
381
100
AcDbEntity
  8
1
  6
CONTINUOUS
 62
           7
100
AcDbCircle
 10
10425.64823364963
 20
-859.177621306199
 40
13.711205269313
100
AcDbArc
 50
30.139023485599
 51
59.860976514414
  0
ARC
  5
380
100
AcDbEntity
  8
1
  6
CONTINUOUS
 62
           7
100
AcDbCircle
 10
10432.20617303457
 20
-847.882320041922
 40
0.650179290195
100
AcDbArc
 50
59.860976513889
 51
153.417695580843
  0
ARC
  5
37F
100
AcDbEntity
  8
1
  6
CONTINUOUS
 62
           7
100
AcDbCircle
 10
10393.26181857988
 20
-828.395481665378
 40
42.897491299709
100
AcDbArc
 50
-43.266911622702
 51
-26.58230441919
  0
ARC
  5
37E
100
AcDbEntity
  8
1
  6
CONTINUOUS
 62
           7
100
AcDbCircle
 10
10436.9435349139
 20
-852.619681921252
 40
0.650179290189
100
AcDbArc
 50
-63.417695581094
 51
30.139023485516
  0
ARC
  5
37D
100
AcDbEntity
  8
1
  6
CONTINUOUS
 62
           7
100
AcDbCircle
 10
10456.43037329045
 20
-891.56403637595
 40
42.897491299717
100
AcDbArc
 50
116.582304419195
 51
133.266911622705
  0
ARC
  5
37C
100
AcDbEntity
  8
1
  6
CONTINUOUS
 62
           7
100
AcDbCircle
 10
10423.5443018839
 20
-861.279440659272
 40
32.087775151113
100
AcDbArc
 50
179.926907891322
 51
-135.444465308214
  0
ARC
  5
37B
100
AcDbEntity
  8
1
  6
CONTINUOUS
 62
           7
100
AcDbCircle
 10
10423.54543051654
 20
-860.949290348862
 40
39.342857142856
100
AcDbArc
 50
-105.026113759121
 51
-74.973886240881
  0
ARC
  5
37A
100
AcDbEntity
  8
1
  6
CONTINUOUS
 62
           7
100
AcDbCircle
 10
10423.5009860721
 20
-861.246337106447
 40
39.044459324232
100
AcDbArc
 50
-145.958605674407
 51
-105.076135211296
  0
ARC
  5
379
100
AcDbEntity
  8
1
  6
CONTINUOUS
 62
           7
100
AcDbCircle
 10
10423.589874960981
 20
-861.338372905109
 40
38.95559865625
100
AcDbArc
 50
-25.984434102922
 51
0.085230463912
  0
ARC
  5
378
100
AcDbEntity
  8
1
  6
CONTINUOUS
 62
           7
100
AcDbCircle
 10
10423.54543051654
 20
-861.280424439286
 40
3.611111111109
100
AcDbArc
 50
0.0
 51
15.30203171441
  0
ARC
  5
377
100
AcDbEntity
  8
1
  6
CONTINUOUS
 62
           7
100
AcDbCircle
 10
10423.54543051654
 20
-861.280424439286
 40
3.611111111109
100
AcDbArc
 50
-111.42182152179
 51
0.0
  0
ARC
  5
376
100
AcDbEntity
  8
1
  6
CONTINUOUS
 62
           7
100
AcDbCircle
 10
10423.54543051654
 20
-861.280424439286
 40
3.611111111113
100
AcDbArc
 50
74.697968285612
 51
-158.578178478244
  0
ARC
  5
375
100
AcDbEntity
  8
1
  6
CONTINUOUS
 62
           7
100
AcDbCircle
 10
10423.5443018839
 20
-861.279440659272
 40
32.087775151114
100
AcDbArc
 50
-45.00083118376
 51
179.926907891322
  0
ARC
  5
374
100
AcDbEntity
  8
1
  6
CONTINUOUS
 62
           7
100
AcDbCircle
 10
10423.54812080507
 20
-861.283932146371
 40
28.591593842006
100
AcDbArc
 50
-45.000000000012
 51
180.0
  0
ARC
  5
373
100
AcDbEntity
  8
1
  6
CONTINUOUS
 62
           7
100
AcDbCircle
 10
10423.54812080507
 20
-861.283932146371
 40
28.59159384202
100
AcDbArc
 50
180.0
 51
-135.510592132963
  0
ARC
  5
372
100
AcDbEntity
  8
1
  6
CONTINUOUS
 62
           7
100
AcDbCircle
 10
10423.5009860721
 20
-861.246337106447
 40
39.044459324227
100
AcDbArc
 50
-0.050021452171
 51
85.9693421508
  0
ARC
  5
371
100
AcDbEntity
  8
1
  6
CONTINUOUS
 62
           7
100
AcDbCircle
 10
10423.5009860721
 20
-861.246337106447
 40
39.04445932423
100
AcDbArc
 50
85.9693421508
 51
93.899904844102
  0
ARC
  5
370
100
AcDbEntity
  8
1
  6
CONTINUOUS
 62
           7
100
AcDbCircle
 10
10423.54543051654
 20
-823.439377782216
 40
3.637499999999
100
AcDbArc
 50
42.075022050855
 51
137.924977949164
  0
ARC
  5
36F
100
AcDbEntity
  8
1
  6
CONTINUOUS
 62
           7
100
AcDbCircle
 10
10390.774122805729
 20
-880.200947767819
 40
3.637500000004
100
AcDbArc
 50
162.075022050864
 51
-102.075022050924
  0
ARC
  5
36E
100
AcDbEntity
  8
1
  6
CONTINUOUS
 62
           7
100
AcDbCircle
 10
10456.27286663622
 20
-880.175618492869
 40
3.637500000001
100
AcDbArc
 50
-77.924977949075
 51
17.924977949179
  0
ARC
  5
36D
100
AcDbEntity
  8
1
  6
CONTINUOUS
 62
           7
100
AcDbCircle
 10
10423.589874960981
 20
-861.338372905109
 40
38.955598656247
100
AcDbArc
 50
-74.888655776962
 51
-33.933112924655
  0
ARC
  5
36C
100
AcDbEntity
  8
1
  6
CONTINUOUS
 62
           7
100
AcDbCircle
 10
10423.589874960981
 20
-861.338372905109
 40
38.955598656249
100
AcDbArc
 50
-33.933112924655
 51
-25.984434102922
  0
ARC
  5
36B
100
AcDbEntity
  8
1
  6
CONTINUOUS
 62
           7
100
AcDbCircle
 10
10423.5009860721
 20
-861.246337106447
 40
39.044459324237
100
AcDbArc
 50
-153.889170205389
 51
-145.958605674407
  0
ARC
  5
36A
100
AcDbEntity
  8
1
  6
CONTINUOUS
 62
           7
100
AcDbCircle
 10
10423.5009860721
 20
-861.246337106447
 40
39.044459324231
100
AcDbArc
 50
93.899904844102
 51
-153.889170205389
  0
ARC
  5
369
100
AcDbEntity
  8
1
  6
CONTINUOUS
 62
           2
100
AcDbCircle
 10
10517.606335201441
 20
-947.929151297702
 40
20.062177826481
100
AcDbArc
 50
162.412046225996
 51
163.904036789942
  0
ARC
  5
368
100
AcDbEntity
  8
1
  6
CONTINUOUS
 62
           2
100
AcDbCircle
 10
10449.819801721989
 20
-947.929151297702
 40
20.062177826479
100
AcDbArc
 50
-17.587953774
 51
-16.095963210053
  0
ARC
  5
367
100
AcDbEntity
  8
1
  6
CONTINUOUS
 62
           2
100
AcDbCircle
 10
10489.747035435401
 20
-943.940321730772
 40
6.806710713917
100
AcDbArc
 50
3.041596008603
 51
41.510199687884
  0
ARC
  5
366
100
AcDbEntity
  8
1
  6
CONTINUOUS
 62
           2
100
AcDbCircle
 10
10464.467177532701
 20
-957.037137559782
 40
5.414822022401
100
AcDbArc
 50
-24.020677081086
 51
34.228495803084
  0
ARC
  5
365
100
AcDbEntity
  8
1
  6
CONTINUOUS
 62
           2
100
AcDbCircle
 10
10464.467177532701
 20
-938.821165035623
 40
5.414822022402
100
AcDbArc
 50
-34.228495803068
 51
24.020677081104
  0
ARC
  5
364
100
AcDbEntity
  8
1
  6
CONTINUOUS
 62
           2
100
AcDbCircle
 10
10449.819801721989
 20
-947.929151297702
 40
20.062177826483
100
AcDbArc
 50
16.095963210058
 51
17.587953774005
  0
ARC
  5
363
100
AcDbEntity
  8
1
  6
CONTINUOUS
 62
           2
100
AcDbCircle
 10
10502.958959390729
 20
-938.821165035623
 40
5.41482202241
100
AcDbArc
 50
155.979322918935
 51
-145.771504196943
  0
ARC
  5
362
100
AcDbEntity
  8
1
  6
CONTINUOUS
 62
           2
100
AcDbCircle
 10
10502.958959390729
 20
-957.037137559782
 40
5.414822022404
100
AcDbArc
 50
145.771504196927
 51
-155.979322918952
  0
ARC
  5
361
100
AcDbEntity
  8
1
  6
CONTINUOUS
 62
           2
100
AcDbCircle
 10
10517.606335201441
 20
-947.929151297702
 40
20.062177826482
100
AcDbArc
 50
-163.904036789947
 51
-162.412046226001
  0
ARC
  5
360
100
AcDbEntity
  8
1
  6
CONTINUOUS
 62
           2
100
AcDbCircle
 10
10483.844157374961
 20
-947.929151297702
 40
9.999999999996
100
AcDbArc
 50
34.429003950735
 51
145.570996049265
  0
ARC
  5
35F
100
AcDbEntity
  8
1
  6
CONTINUOUS
 62
           2
100
AcDbCircle
 10
10483.844157374961
 20
-947.929151297702
 40
9.999999999995
100
AcDbArc
 50
-145.570996049274
 51
-34.429003950726
  0
ARC
  5
35E
100
AcDbEntity
  8
1
  6
CONTINUOUS
 62
           2
100
AcDbCircle
 10
10500.429355359191
 20
-938.821165035623
 40
5.414822022402
100
AcDbArc
 50
-34.228495803068
 51
24.020677081104
  0
ARC
  5
35D
100
AcDbEntity
  8
1
  6
CONTINUOUS
 62
           2
100
AcDbCircle
 10
10485.781979548479
 20
-947.929151297702
 40
20.062177826479
100
AcDbArc
 50
-17.587953774
 51
17.587953774005
  0
ARC
  5
35C
100
AcDbEntity
  8
1
  6
CONTINUOUS
 62
           2
100
AcDbCircle
 10
10500.429355359191
 20
-957.037137559782
 40
5.414822022401
100
AcDbArc
 50
-24.020677081086
 51
34.228495803084
  0
ARC
  5
35B
100
AcDbEntity
  8
1
  6
CONTINUOUS
 62
           2
100
AcDbCircle
 10
10467.258959390731
 20
-938.821165035623
 40
5.414822022412
100
AcDbArc
 50
155.979322918943
 51
-145.771504196943
  0
ARC
  5
35A
100
AcDbEntity
  8
1
  6
CONTINUOUS
 62
           2
100
AcDbCircle
 10
10481.90633520144
 20
-947.929151297702
 40
20.062177826479
100
AcDbArc
 50
162.412046225995
 51
-162.412046226
  0
ARC
  5
359
100
AcDbEntity
  8
1
  6
CONTINUOUS
 62
           2
100
AcDbCircle
 10
10467.258959390731
 20
-957.037137559782
 40
5.414822022404
100
AcDbArc
 50
145.771504196927
 51
-155.97932291896
  0
ARC
  5
358
100
AcDbEntity
  8
1
  6
CONTINUOUS
 62
           2
100
AcDbCircle
 10
11191.833686638611
 20
-2339.744700275739
 40
18.052215644708
100
AcDbArc
 50
98.762318068003
 51
110.256158000419
  0
ARC
  5
357
100
AcDbEntity
  8
1
  6
CONTINUOUS
 62
           2
100
AcDbCircle
 10
11204.333686638611
 20
-2267.973602319666
 40
18.052215644707
100
AcDbArc
 50
-81.237681931996
 51
-69.74384199958
  0
ARC
  5
356
100
AcDbEntity
  8
1
  6
CONTINUOUS
 62
           2
100
AcDbCircle
 10
11204.333686638611
 20
-2339.744700275739
 40
18.052215644708
100
AcDbArc
 50
98.762318068003
 51
110.256158000418
  0
ARC
  5
355
100
AcDbEntity
  8
1
  6
CONTINUOUS
 62
           2
100
AcDbCircle
 10
11191.833686638611
 20
-2267.973602319666
 40
18.052215644708
100
AcDbArc
 50
-81.237681931997
 51
-69.743841999581
  0
ARC
  5
354
100
AcDbEntity
  8
1
  6
CONTINUOUS
 62
           2
100
AcDbCircle
 10
11191.833686638611
 20
-2339.744700275739
 40
18.052215644709
100
AcDbArc
 50
69.743841999582
 51
81.237681931997
  0
ARC
  5
353
100
AcDbEntity
  8
1
  6
CONTINUOUS
 62
           2
100
AcDbCircle
 10
11204.333686638611
 20
-2339.744700275739
 40
18.052215644708
100
AcDbArc
 50
69.743841999581
 51
81.237681931997
  0
ARC
  5
352
100
AcDbEntity
  8
1
  6
CONTINUOUS
 62
           2
100
AcDbCircle
 10
11191.833686638611
 20
-2267.973602319666
 40
18.052215644707
100
AcDbArc
 50
-110.25615800042
 51
-98.762318068003
  0
ARC
  5
351
100
AcDbEntity
  8
1
  6
CONTINUOUS
 62
           2
100
AcDbCircle
 10
11204.333686638611
 20
-2267.973602319666
 40
18.052215644708
100
AcDbArc
 50
-110.256158000419
 51
-98.762318068003
  0
ARC
  5
350
100
AcDbEntity
  8
1
  6
CONTINUOUS
 62
           2
100
AcDbCircle
 10
11204.333686638611
 20
-2293.661366942408
 40
18.052215644707
100
AcDbArc
 50
69.74384199958
 51
110.256158000419
  0
ARC
  5
34F
100
AcDbEntity
  8
1
  6
CONTINUOUS
 62
           2
100
AcDbCircle
 10
11191.833686638611
 20
-2293.661366942408
 40
18.052215644708
100
AcDbArc
 50
69.743841999581
 51
110.25615800042
  0
ARC
  5
34E
100
AcDbEntity
  8
1
  6
CONTINUOUS
 62
           2
100
AcDbCircle
 10
11204.333686638611
 20
-2314.056935652995
 40
18.052215644707
100
AcDbArc
 50
-110.25615800042
 51
-69.743841999577
  0
ARC
  5
34D
100
AcDbEntity
  8
1
  6
CONTINUOUS
 62
           2
100
AcDbCircle
 10
11191.833686638611
 20
-2314.056935652995
 40
18.052215644705
100
AcDbArc
 50
-110.256158000422
 51
-69.74384199958
  0
ARC
  5
34C
100
AcDbEntity
  8
1
  6
CONTINUOUS
 62
           2
100
AcDbCircle
 10
11240.864936638611
 20
-2303.109151297702
 40
15.781249999999
100
AcDbArc
 50
141.908042894757
 51
-141.908042894761
  0
ARC
  5
34B
100
AcDbEntity
  8
1
  6
CONTINUOUS
 62
           2
100
AcDbCircle
 10
11222.23368663861
 20
-2302.859151297701
 40
14.252192813739
100
AcDbArc
 50
158.385221057213
 51
-158.385221057213
  0
ARC
  5
34A
100
AcDbEntity
  8
1
  6
CONTINUOUS
 62
           7
100
AcDbCircle
 10
11198.083686638611
 20
-1238.929151297702
 40
1009.0
100
AcDbArc
 50
-92.255000670213
 51
-87.744999329786
  0
ARC
  5
349
100
AcDbEntity
  8
1
  6
CONTINUOUS
 62
           7
100
AcDbCircle
 10
11198.083686638611
 20
-2338.929151297702
 40
100.0
100
AcDbArc
 50
0.0
 51
180.0
  0
ARC
  5
348
100
AcDbEntity
  8
1
  6
CONTINUOUS
 62
           7
100
AcDbCircle
 10
11298.08455456501
 20
-1381.305911861082
 40
17.499566031421
100
AcDbArc
 50
-0.403504746536
 51
179.596495253463
  0
ARC
  5
347
100
AcDbEntity
  8
1
  6
CONTINUOUS
 62
           7
100
AcDbCircle
 10
11298.08455456501
 20
-1736.552390734321
 40
17.499566031421
100
AcDbArc
 50
-179.596495253463
 51
0.403504746533
  0
ARC
  5
346
100
AcDbEntity
  8
1
  6
CONTINUOUS
 62
           7
100
AcDbCircle
 10
11098.082818712201
 20
-1736.552390734321
 40
17.49956603141
100
AcDbArc
 50
179.596495253466
 51
-0.403504746536
  0
ARC
  5
345
100
AcDbEntity
  8
1
  6
CONTINUOUS
 62
           7
100
AcDbCircle
 10
11098.082818712201
 20
-1381.305911861082
 40
17.499566031419
100
AcDbArc
 50
0.403504746536
 51
-179.596495253463
  0
ARC
  5
344
100
AcDbEntity
  8
1
  6
CONTINUOUS
 62
           7
100
AcDbCircle
 10
11111.73885104225
 20
-1558.928008488359
 40
113.762501224351
100
AcDbArc
 50
154.947607586389
 51
-154.984784540826
  0
ARC
  5
343
100
AcDbEntity
  8
1
  6
CONTINUOUS
 62
           7
100
AcDbCircle
 10
11147.29754704032
 20
-1541.028276593112
 40
153.559261072974
100
AcDbArc
 50
-154.542879317995
 51
-126.394531208387
  0
ARC
  5
342
100
AcDbEntity
  8
1
  6
CONTINUOUS
 62
           7
100
AcDbCircle
 10
11174.509982430051
 20
-1507.292822159535
 40
196.8699654272
100
AcDbArc
 50
-126.944010452765
 51
-118.760356672529
  0
ARC
  5
341
100
AcDbEntity
  8
1
  6
CONTINUOUS
 62
           7
100
AcDbCircle
 10
11197.47637943108
 20
-1451.154962412811
 40
257.77490931782
100
AcDbArc
 50
-108.388815607176
 51
-89.864539028135
  0
ARC
  5
340
100
AcDbEntity
  8
1
  6
CONTINUOUS
 62
           7
100
AcDbCircle
 10
11197.47637943108
 20
-1666.703340182593
 40
257.774909317819
100
AcDbArc
 50
89.864539028135
 51
108.388815607176
  0
ARC
  5
33F
100
AcDbEntity
  8
1
  6
CONTINUOUS
 62
           7
100
AcDbCircle
 10
11147.29754704032
 20
-1576.830026002292
 40
153.559261072977
100
AcDbArc
 50
126.394531208387
 51
154.542879317995
  0
ARC
  5
33E
100
AcDbEntity
  8
1
  6
CONTINUOUS
 62
           7
100
AcDbCircle
 10
11174.509982430051
 20
-1610.565480435868
 40
196.8699654272
100
AcDbArc
 50
118.760356672529
 51
126.944010452765
  0
ARC
  5
33D
100
AcDbEntity
  8
1
  6
CONTINUOUS
 62
           7
100
AcDbCircle
 10
11198.690993846139
 20
-1666.703340182593
 40
257.774909317819
100
AcDbArc
 50
71.611184392826
 51
90.135460971867
  0
ARC
  5
33C
100
AcDbEntity
  8
1
  6
CONTINUOUS
 62
           7
100
AcDbCircle
 10
11248.8698262369
 20
-1576.830026002292
 40
153.559261072974
100
AcDbArc
 50
25.457120682005
 51
53.605468791613
  0
ARC
  5
33B
100
AcDbEntity
  8
1
  6
CONTINUOUS
 62
           7
100
AcDbCircle
 10
11221.657390847169
 20
-1610.565480435868
 40
196.869965427199
100
AcDbArc
 50
53.055989547235
 51
61.239643327471
  0
ARC
  5
33A
100
AcDbEntity
  8
1
  6
CONTINUOUS
 62
           7
100
AcDbCircle
 10
11284.42852223497
 20
-1558.928008488359
 40
113.762501224349
100
AcDbArc
 50
-25.015215459173
 51
25.052392413611
  0
ARC
  5
339
100
AcDbEntity
  8
1
  6
CONTINUOUS
 62
           7
100
AcDbCircle
 10
11248.8698262369
 20
-1541.028276593112
 40
153.559261072977
100
AcDbArc
 50
-53.605468791613
 51
-25.457120682005
  0
ARC
  5
338
100
AcDbEntity
  8
1
  6
CONTINUOUS
 62
           7
100
AcDbCircle
 10
11221.657390847169
 20
-1507.292822159535
 40
196.8699654272
100
AcDbArc
 50
-61.239643327471
 51
-53.055989547235
  0
ARC
  5
337
100
AcDbEntity
  8
1
  6
CONTINUOUS
 62
           7
100
AcDbCircle
 10
11198.690993846139
 20
-1451.154962412811
 40
257.774909317819
100
AcDbArc
 50
-90.135460971867
 51
-71.611184392826
  0
ARC
  5
336
100
AcDbEntity
  8
1
  6
CONTINUOUS
 62
           7
100
AcDbCircle
 10
13225.293122880061
 20
-1558.929151297702
 40
330.5
100
AcDbArc
 50
-26.991466561592
 51
26.991466561592
  0
ARC
  5
335
100
AcDbEntity
  8
1
  6
CONTINUOUS
 62
           7
100
AcDbCircle
 10
13010.737567324501
 20
-1558.929151297702
 40
596.05555555556
100
AcDbArc
 50
-30.219150244681
 51
30.219150244681
  0
ARC
  5
334
100
AcDbEntity
  8
1
  6
CONTINUOUS
 62
           7
100
AcDbCircle
 10
13025.826476904669
 20
-1558.929151297702
 40
577.929967501408
100
AcDbArc
 50
-31.271500898696
 51
31.271500898696
  0
ARC
  5
333
100
AcDbEntity
  8
1
  6
CONTINUOUS
 62
           7
100
AcDbCircle
 10
13426.52855433116
 20
-1571.940560243534
 40
7.735460032013
100
AcDbArc
 50
145.771504196934
 51
-155.979322918984
  0
ARC
  5
332
100
AcDbEntity
  8
1
  6
CONTINUOUS
 62
           7
100
AcDbCircle
 10
13447.4533769179
 20
-1558.929151297702
 40
28.660254037845
100
AcDbArc
 50
162.412046226005
 51
-162.412046226007
  0
ARC
  5
331
100
AcDbEntity
  8
1
  6
CONTINUOUS
 62
           7
100
AcDbCircle
 10
13426.52855433116
 20
-1545.91774235187
 40
7.735460032016
100
AcDbArc
 50
155.979322918978
 51
-145.771504196939
  0
ARC
  5
330
100
AcDbEntity
  8
1
  6
CONTINUOUS
 62
           7
100
AcDbCircle
 10
13426.52855433116
 20
-1545.91774235187
 40
7.735460032016
100
AcDbArc
 50
155.979322918978
 51
-145.771504196939
  0
ARC
  5
32F
100
AcDbEntity
  8
1
  6
CONTINUOUS
 62
           7
100
AcDbCircle
 10
13447.4533769179
 20
-1558.929151297702
 40
28.660254037845
100
AcDbArc
 50
162.412046226005
 51
-162.412046226007
  0
ARC
  5
32E
100
AcDbEntity
  8
1
  6
CONTINUOUS
 62
           7
100
AcDbCircle
 10
13426.52855433116
 20
-1571.940560243534
 40
7.735460032013
100
AcDbArc
 50
145.771504196934
 51
-155.979322918984
  0
ARC
  5
32D
100
AcDbEntity
  8
1
  6
CONTINUOUS
 62
           7
100
AcDbCircle
 10
11285.07227769278
 20
-3044.423479533075
 40
7.735460032008
100
AcDbArc
 50
55.771504196974
 51
114.020677081077
  0
ARC
  5
32C
100
AcDbEntity
  8
1
  6
CONTINUOUS
 62
           7
100
AcDbCircle
 10
11298.083686638611
 20
-3065.348302119814
 40
28.660254037842
100
AcDbArc
 50
72.412046226016
 51
107.587953774005
  0
ARC
  5
32B
100
AcDbEntity
  8
1
  6
CONTINUOUS
 62
           7
100
AcDbCircle
 10
11311.09509558444
 20
-3044.423479533075
 40
7.73546003201
100
AcDbArc
 50
65.979322918984
 51
124.228495803082
  0
ARC
  5
32A
100
AcDbEntity
  8
1
  6
CONTINUOUS
 62
           7
100
AcDbCircle
 10
11085.07227769278
 20
-3044.423479533075
 40
7.735460032008
100
AcDbArc
 50
55.771504196974
 51
114.020677081077
  0
ARC
  5
329
100
AcDbEntity
  8
1
  6
CONTINUOUS
 62
           7
100
AcDbCircle
 10
11098.083686638611
 20
-3065.348302119814
 40
28.660254037842
100
AcDbArc
 50
72.412046226016
 51
107.587953774005
  0
ARC
  5
328
100
AcDbEntity
  8
1
  6
CONTINUOUS
 62
           7
100
AcDbCircle
 10
11111.09509558444
 20
-3044.423479533075
 40
7.73546003201
100
AcDbArc
 50
65.979322918984
 51
124.228495803082
  0
LINE
  5
327
100
AcDbEntity
  8
1
  6
CONTINUOUS
 62
           2
100
AcDbLine
 10
11164.933686638609
 20
-3118.39973419571
 11
11231.23368663861
 21
-3118.39973419571
  0
LINE
  5
326
100
AcDbEntity
  8
1
  6
CONTINUOUS
 62
           2
100
AcDbLine
 10
11231.23368663861
 20
-3118.39973419571
 11
11231.23368663861
 21
-3130.22278802626
  0
LINE
  5
325
100
AcDbEntity
  8
1
  6
CONTINUOUS
 62
           2
100
AcDbLine
 10
11164.933686638609
 20
-3118.39973419571
 11
11164.933686638609
 21
-3130.222788026259
  0
LINE
  5
324
100
AcDbEntity
  8
1
  6
CONTINUOUS
 62
           2
100
AcDbLine
 10
11164.933686638609
 20
-3118.39973419571
 11
11231.23368663861
 21
-3118.39973419571
  0
LINE
  5
323
100
AcDbEntity
  8
1
  6
CONTINUOUS
 62
           2
100
AcDbLine
 10
11228.333686638611
 20
-3107.279734195711
 11
11167.833686638611
 21
-3107.279734195711
  0
LINE
  5
322
100
AcDbEntity
  8
1
  6
CONTINUOUS
 62
           2
100
AcDbLine
 10
11167.833686638611
 20
-3103.279734195711
 11
11228.333686638611
 21
-3103.279734195711
  0
LINE
  5
321
100
AcDbEntity
  8
1
  6
CONTINUOUS
 62
           2
100
AcDbLine
 10
11228.333686638611
 20
-3107.279734195711
 11
11228.333686638611
 21
-3103.279734195711
  0
LINE
  5
320
100
AcDbEntity
  8
1
  6
CONTINUOUS
 62
           2
100
AcDbLine
 10
11167.833686638611
 20
-3103.279734195711
 11
11167.833686638611
 21
-3107.279734195711
  0
LINE
  5
31F
100
AcDbEntity
  8
1
  6
CONTINUOUS
 62
           2
100
AcDbLine
 10
11227.89068663861
 20
-3118.39973419571
 11
11228.333686638611
 21
-3107.279734195711
  0
LINE
  5
31E
100
AcDbEntity
  8
1
  6
CONTINUOUS
 62
           2
100
AcDbLine
 10
11168.27668663861
 20
-3118.39973419571
 11
11167.833686638611
 21
-3107.279734195711
  0
LINE
  5
31D
100
AcDbEntity
  8
1
  6
CONTINUOUS
 62
           2
100
AcDbLine
 10
11227.89068663861
 20
-3092.159734195711
 11
11228.333686638611
 21
-3103.279734195711
  0
LINE
  5
31C
100
AcDbEntity
  8
1
  6
CONTINUOUS
 62
           2
100
AcDbLine
 10
11167.833686638611
 20
-3103.279734195711
 11
11168.27668663861
 21
-3092.159734195711
  0
LINE
  5
31B
100
AcDbEntity
  8
1
  6
CONTINUOUS
 62
           2
100
AcDbLine
 10
11163.582142106039
 20
-3081.774910660971
 11
11163.582142106039
 21
-3072.664416700509
  0
LINE
  5
31A
100
AcDbEntity
  8
1
  6
CONTINUOUS
 62
           2
100
AcDbLine
 10
11198.083686638611
 20
-3092.159734195711
 11
11234.085231171181
 21
-3092.159734195711
  0
LINE
  5
319
100
AcDbEntity
  8
1
  6
CONTINUOUS
 62
           2
100
AcDbLine
 10
11234.085231171181
 20
-3092.159734195711
 11
11234.085231171181
 21
-3087.159734195711
  0
LINE
  5
318
100
AcDbEntity
  8
1
  6
CONTINUOUS
 62
           2
100
AcDbLine
 10
11162.082142106039
 20
-3092.159734195711
 11
11162.082142106039
 21
-3087.159734195711
  0
LINE
  5
317
100
AcDbEntity
  8
1
  6
CONTINUOUS
 62
           2
100
AcDbLine
 10
11163.582142106039
 20
-3087.159734195711
 11
11232.585231171181
 21
-3087.159734195711
  0
LINE
  5
316
100
AcDbEntity
  8
1
  6
CONTINUOUS
 62
           2
100
AcDbLine
 10
11162.082142106039
 20
-3087.159734195711
 11
11163.582142106039
 21
-3087.159734195711
  0
LINE
  5
315
100
AcDbEntity
  8
1
  6
CONTINUOUS
 62
           2
100
AcDbLine
 10
11234.085231171181
 20
-3087.159734195711
 11
11232.585231171181
 21
-3087.159734195711
  0
LINE
  5
314
100
AcDbEntity
  8
1
  6
CONTINUOUS
 62
           2
100
AcDbLine
 10
11162.082142106039
 20
-3092.159734195711
 11
11198.083686638611
 21
-3092.159734195711
  0
LINE
  5
313
100
AcDbEntity
  8
1
  6
CONTINUOUS
 62
           2
100
AcDbLine
 10
11232.585231171181
 20
-3081.774910660971
 11
11232.585231171181
 21
-3074.664416700509
  0
LINE
  5
312
100
AcDbEntity
  8
1
  6
CONTINUOUS
 62
           2
100
AcDbLine
 10
11232.585231171181
 20
-3047.140442242194
 11
11232.585231171181
 21
-3081.774910660971
  0
LINE
  5
311
100
AcDbEntity
  8
1
  6
CONTINUOUS
 62
           2
100
AcDbLine
 10
11163.582142106039
 20
-3081.774910660971
 11
11163.582142106039
 21
-3047.585541555731
  0
LINE
  5
310
100
AcDbEntity
  8
1
  6
DOT_CENTER
 62
           2
100
AcDbLine
 10
11139.09170042844
 20
-3044.19973419571
 11
11274.973810100981
 21
-3044.19973419571
  0
LINE
  5
30F
100
AcDbEntity
  8
1
  6
CONTINUOUS
 62
           2
100
AcDbLine
 10
11198.083686638611
 20
-3012.057819760702
 11
11210.89124199557
 21
-3019.452265293706
  0
LINE
  5
30E
100
AcDbEntity
  8
1
  6
CONTINUOUS
 62
           2
100
AcDbLine
 10
11185.276131281649
 20
-3019.452265293706
 11
11198.083686638611
 21
-3012.057819760702
  0
LINE
  5
30D
100
AcDbEntity
  8
1
  6
CONTINUOUS
 62
           2
100
AcDbLine
 10
11253.083686638611
 20
-3015.840979203682
 11
11253.083686638611
 21
-3073.19973419571
  0
LINE
  5
30C
100
AcDbEntity
  8
1
  6
CONTINUOUS
 62
           2
100
AcDbLine
 10
11253.083686638611
 20
-3015.19973419571
 11
11253.083686638611
 21
-3015.69973419571
  0
LINE
  5
30B
100
AcDbEntity
  8
1
  6
CONTINUOUS
 62
           2
100
AcDbLine
 10
11258.083686638611
 20
-3015.19973419571
 11
11253.083686638611
 21
-3015.19973419571
  0
LINE
  5
30A
100
AcDbEntity
  8
1
  6
CONTINUOUS
 62
           2
100
AcDbLine
 10
11258.083686638611
 20
-3073.19973419571
 11
11258.083686638611
 21
-3015.19973419571
  0
LINE
  5
309
100
AcDbEntity
  8
1
  6
CONTINUOUS
 62
           2
100
AcDbLine
 10
11253.083686638611
 20
-3073.19973419571
 11
11258.083686638611
 21
-3073.19973419571
  0
LINE
  5
308
100
AcDbEntity
  8
1
  6
CONTINUOUS
 62
           2
100
AcDbLine
 10
11253.083686638611
 20
-3073.19973419571
 11
11253.083686638611
 21
-3072.69973419571
  0
LINE
  5
307
100
AcDbEntity
  8
1
  6
CONTINUOUS
 62
           2
100
AcDbLine
 10
11242.98357527989
 20
-3071.69973419571
 11
11252.083686638611
 21
-3071.69973419571
  0
LINE
  5
306
100
AcDbEntity
  8
1
  6
CONTINUOUS
 62
           2
100
AcDbLine
 10
11252.083686638611
 20
-3016.69973419571
 11
11242.98357527989
 21
-3016.69973419571
  0
LINE
  5
305
100
AcDbEntity
  8
1
  6
CONTINUOUS
 62
           2
100
AcDbLine
 10
13505.970716980941
 20
-980.888982601761
 11
13505.970716980941
 21
-914.58898260176
  0
LINE
  5
304
100
AcDbEntity
  8
1
  6
CONTINUOUS
 62
           7
100
AcDbLine
 10
13525.970716980941
 20
-980.888982601761
 11
13505.970716980941
 21
-980.888982601761
  0
LINE
  5
303
100
AcDbEntity
  8
1
  6
CONTINUOUS
 62
           7
100
AcDbLine
 10
13525.970716980941
 20
-914.58898260176
 11
13505.970716980941
 21
-914.58898260176
  0
LINE
  5
302
100
AcDbEntity
  8
1
  6
DOT_CENTER
 62
           2
100
AcDbLine
 10
13431.730716980939
 20
-988.601502274382
 11
13431.730716980939
 21
-672.83650440277
  0
LINE
  5
301
100
AcDbEntity
  8
1
  6
CONTINUOUS
 62
           2
100
AcDbLine
 10
13494.85071698094
 20
-917.488982601762
 11
13494.85071698094
 21
-977.988982601762
  0
LINE
  5
300
100
AcDbEntity
  8
1
  6
CONTINUOUS
 62
           2
100
AcDbLine
 10
13490.85071698094
 20
-977.988982601762
 11
13490.85071698094
 21
-917.488982601762
  0
LINE
  5
2FF
100
AcDbEntity
  8
1
  6
CONTINUOUS
 62
           2
100
AcDbLine
 10
13490.85071698094
 20
-977.988982601762
 11
13494.85071698094
 21
-977.988982601762
  0
LINE
  5
2FE
100
AcDbEntity
  8
1
  6
CONTINUOUS
 62
           2
100
AcDbLine
 10
13494.85071698094
 20
-917.488982601762
 11
13490.85071698094
 21
-917.488982601762
  0
LINE
  5
2FD
100
AcDbEntity
  8
1
  6
CONTINUOUS
 62
           2
100
AcDbLine
 10
13494.85071698094
 20
-977.988982601762
 11
13505.970716980941
 21
-977.545982601761
  0
LINE
  5
2FC
100
AcDbEntity
  8
1
  6
CONTINUOUS
 62
           2
100
AcDbLine
 10
13494.85071698094
 20
-917.488982601762
 11
13505.970716980941
 21
-917.931982601761
  0
LINE
  5
2FB
100
AcDbEntity
  8
1
  6
CONTINUOUS
 62
           2
100
AcDbLine
 10
13490.85071698094
 20
-977.988982601762
 11
13479.730716980939
 21
-977.545982601761
  0
LINE
  5
2FA
100
AcDbEntity
  8
1
  6
CONTINUOUS
 62
           2
100
AcDbLine
 10
13479.730716980939
 20
-917.931982601761
 11
13490.85071698094
 21
-917.488982601762
  0
LINE
  5
2F9
100
AcDbEntity
  8
1
  6
CONTINUOUS
 62
           2
100
AcDbLine
 10
13456.23539948574
 20
-900.23898260176
 11
13456.23539948574
 21
-907.237438069189
  0
LINE
  5
2F8
100
AcDbEntity
  8
1
  6
CONTINUOUS
 62
           2
100
AcDbLine
 10
13469.3458934462
 20
-982.240527134333
 11
13452.772057198001
 21
-982.240527134333
  0
LINE
  5
2F7
100
AcDbEntity
  8
1
  6
CONTINUOUS
 62
           2
100
AcDbLine
 10
13479.730716980939
 20
-983.740527134333
 11
13479.730716980939
 21
-947.738982601762
  0
LINE
  5
2F6
100
AcDbEntity
  8
1
  6
CONTINUOUS
 62
           2
100
AcDbLine
 10
13474.730716980939
 20
-983.740527134333
 11
13479.730716980939
 21
-983.740527134333
  0
LINE
  5
2F5
100
AcDbEntity
  8
1
  6
CONTINUOUS
 62
           2
100
AcDbLine
 10
13474.730716980939
 20
-911.737438069189
 11
13479.730716980939
 21
-911.737438069189
  0
LINE
  5
2F4
100
AcDbEntity
  8
1
  6
CONTINUOUS
 62
           2
100
AcDbLine
 10
13474.730716980939
 20
-982.240527134333
 11
13474.730716980939
 21
-913.237438069189
  0
LINE
  5
2F3
100
AcDbEntity
  8
1
  6
CONTINUOUS
 62
           2
100
AcDbLine
 10
13474.730716980939
 20
-913.237438069189
 11
13474.730716980939
 21
-911.737438069189
  0
LINE
  5
2F2
100
AcDbEntity
  8
1
  6
CONTINUOUS
 62
           2
100
AcDbLine
 10
13474.730716980939
 20
-982.240527134333
 11
13474.730716980939
 21
-983.740527134333
  0
LINE
  5
2F1
100
AcDbEntity
  8
1
  6
CONTINUOUS
 62
           2
100
AcDbLine
 10
13479.730716980939
 20
-947.738982601762
 11
13479.730716980939
 21
-911.737438069189
  0
LINE
  5
2F0
100
AcDbEntity
  8
1
  6
CONTINUOUS
 62
           2
100
AcDbLine
 10
13469.3458934462
 20
-913.237438069189
 11
13462.23539948574
 21
-913.237438069189
  0
LINE
  5
2EF
100
AcDbEntity
  8
1
  6
CONTINUOUS
 62
           2
100
AcDbLine
 10
13477.730716980939
 20
-843.13898260176
 11
13387.980716980939
 21
-843.13898260176
  0
LINE
  5
2EE
100
AcDbEntity
  8
1
  6
CONTINUOUS
 62
           2
100
AcDbLine
 10
13453.08071698094
 20
-882.98898260176
 11
13410.380716980941
 21
-882.98898260176
  0
LINE
  5
2ED
100
AcDbEntity
  8
1
  6
CONTINUOUS
 62
           2
100
AcDbLine
 10
13453.08071698094
 20
-879.88898260176
 11
13410.380716980941
 21
-879.88898260176
  0
LINE
  5
2EC
100
AcDbEntity
  8
1
  6
CONTINUOUS
 62
           2
100
AcDbLine
 10
13410.380716980941
 20
-879.88898260176
 11
13410.380716980941
 21
-882.98898260176
  0
LINE
  5
2EB
100
AcDbEntity
  8
1
  6
CONTINUOUS
 62
           2
100
AcDbLine
 10
13453.08071698094
 20
-882.98898260176
 11
13453.08071698094
 21
-879.88898260176
  0
LINE
  5
2EA
100
AcDbEntity
  8
1
  6
CONTINUOUS
 62
           2
100
AcDbLine
 10
13410.380716980941
 20
-879.88898260176
 11
13410.775716980939
 21
-869.13898260176
  0
LINE
  5
2E9
100
AcDbEntity
  8
1
  6
CONTINUOUS
 62
           2
100
AcDbLine
 10
13452.685716980939
 20
-893.73898260176
 11
13453.08071698094
 21
-882.98898260176
  0
LINE
  5
2E8
100
AcDbEntity
  8
1
  6
CONTINUOUS
 62
           2
100
AcDbLine
 10
13410.775716980939
 20
-893.73898260176
 11
13410.380716980941
 21
-882.98898260176
  0
LINE
  5
2E7
100
AcDbEntity
  8
1
  6
CONTINUOUS
 62
           2
100
AcDbLine
 10
13452.685716980939
 20
-869.13898260176
 11
13453.08071698094
 21
-879.88898260176
  0
LINE
  5
2E6
100
AcDbEntity
  8
1
  6
CONTINUOUS
 62
           2
100
AcDbLine
 10
13406.730716980939
 20
-929.974553309068
 11
13406.730716980939
 21
-900.13898260176
  0
LINE
  5
2E5
100
AcDbEntity
  8
1
  6
CONTINUOUS
 62
           2
100
AcDbLine
 10
13405.33071698094
 20
-898.73898260176
 11
13405.230716980939
 21
-898.73898260176
  0
LINE
  5
2E4
100
AcDbEntity
  8
1
  6
CONTINUOUS
 62
           2
100
AcDbLine
 10
13458.230716980939
 20
-898.73898260176
 11
13457.73539948574
 21
-898.73898260176
  0
LINE
  5
2E3
100
AcDbEntity
  8
1
  6
CONTINUOUS
 62
           2
100
AcDbLine
 10
13405.230716980939
 20
-898.73898260176
 11
13405.230716980939
 21
-893.73898260176
  0
LINE
  5
2E2
100
AcDbEntity
  8
1
  6
CONTINUOUS
 62
           2
100
AcDbLine
 10
13458.230716980939
 20
-898.73898260176
 11
13458.130716980941
 21
-898.73898260176
  0
LINE
  5
2E1
100
AcDbEntity
  8
1
  6
CONTINUOUS
 62
           2
100
AcDbLine
 10
13458.230716980939
 20
-893.73898260176
 11
13458.230716980939
 21
-898.73898260176
  0
LINE
  5
2E0
100
AcDbEntity
  8
1
  6
CONTINUOUS
 62
           2
100
AcDbLine
 10
13405.230716980939
 20
-893.73898260176
 11
13458.230716980939
 21
-893.73898260176
  0
LINE
  5
2DF
100
AcDbEntity
  8
1
  6
CONTINUOUS
 62
           2
100
AcDbLine
 10
13387.980716980939
 20
-843.13898260176
 11
13387.980716980939
 21
-846.63898260176
  0
LINE
  5
2DE
100
AcDbEntity
  8
1
  6
CONTINUOUS
 62
           2
100
AcDbLine
 10
13475.480716980939
 20
-843.13898260176
 11
13475.480716980939
 21
-846.63898260176
  0
LINE
  5
2DD
100
AcDbEntity
  8
1
  6
CONTINUOUS
 62
           2
100
AcDbLine
 10
13393.7831100247
 20
-866.252231255811
 11
13398.7831100247
 21
-869.13898260176
  0
LINE
  5
2DC
100
AcDbEntity
  8
1
  6
CONTINUOUS
 62
           2
100
AcDbLine
 10
13470.0331100247
 20
-866.252231255811
 11
13465.0331100247
 21
-869.13898260176
  0
LINE
  5
2DB
100
AcDbEntity
  8
1
  6
CONTINUOUS
 62
           2
100
AcDbLine
 10
13398.7831100247
 20
-869.13898260176
 11
13465.0331100247
 21
-869.13898260176
  0
LINE
  5
2DA
100
AcDbEntity
  8
1
  6
CONTINUOUS
 62
           2
100
AcDbLine
 10
13458.1581100247
 20
-869.13898260176
 11
13405.6581100247
 21
-869.13898260176
  0
LINE
  5
2D9
100
AcDbEntity
  8
1
  6
CONTINUOUS
 62
           2
100
AcDbLine
 10
13412.668216980939
 20
-866.252231255811
 11
13412.668216980939
 21
-850.38898260176
  0
LINE
  5
2D8
100
AcDbEntity
  8
1
  6
CONTINUOUS
 62
           2
100
AcDbLine
 10
13450.793216980939
 20
-866.252231255811
 11
13450.793216980939
 21
-850.38898260176
  0
LINE
  5
2D7
100
AcDbEntity
  8
1
  6
CONTINUOUS
 62
           2
100
AcDbLine
 10
13393.605716980939
 20
-866.252231255811
 11
13398.605716980939
 21
-869.13898260176
  0
LINE
  5
2D6
100
AcDbEntity
  8
1
  6
CONTINUOUS
 62
           2
100
AcDbLine
 10
13469.855716980939
 20
-866.252231255811
 11
13464.855716980939
 21
-869.13898260176
  0
LINE
  5
2D5
100
AcDbEntity
  8
1
  6
CONTINUOUS
 62
           2
100
AcDbLine
 10
13469.855716980939
 20
-866.252231255811
 11
13469.855716980939
 21
-850.38898260176
  0
LINE
  5
2D4
100
AcDbEntity
  8
1
  6
CONTINUOUS
 62
           2
100
AcDbLine
 10
13398.605716980939
 20
-869.13898260176
 11
13464.855716980939
 21
-869.13898260176
  0
LINE
  5
2D3
100
AcDbEntity
  8
1
  6
CONTINUOUS
 62
           2
100
AcDbLine
 10
13475.480716980939
 20
-843.13898260176
 11
13384.730716980939
 21
-843.13898260176
  0
LINE
  5
2D2
100
AcDbEntity
  8
1
  6
CONTINUOUS
 62
           2
100
AcDbLine
 10
13471.730716980939
 20
-850.38898260176
 11
13391.730716980939
 21
-850.38898260176
  0
LINE
  5
2D1
100
AcDbEntity
  8
1
  6
CONTINUOUS
 62
           2
100
AcDbLine
 10
13393.605716980939
 20
-850.38898260176
 11
13393.605716980939
 21
-866.252231255811
  0
LINE
  5
2D0
100
AcDbEntity
  8
1
  6
CONTINUOUS
 62
           2
100
AcDbLine
 10
13469.855716980939
 20
-850.38898260176
 11
13393.605716980939
 21
-850.38898260176
  0
LINE
  5
2CF
100
AcDbEntity
  8
1
  6
CONTINUOUS
 62
           2
100
AcDbLine
 10
13475.480716980939
 20
-843.13898260176
 11
13387.980716980939
 21
-843.13898260176
  0
LINE
  5
2CE
100
AcDbEntity
  8
1
  6
CONTINUOUS
 62
           2
100
AcDbLine
 10
13457.980716980939
 20
-869.13898260176
 11
13405.480716980939
 21
-869.13898260176
  0
LINE
  5
2CD
100
AcDbEntity
  8
1
  6
CONTINUOUS
 62
           2
100
AcDbLine
 10
13456.23539948574
 20
-898.73898260176
 11
13405.230716980939
 21
-898.73898260176
  0
LINE
  5
2CC
100
AcDbEntity
  8
1
  6
CONTINUOUS
 62
           2
100
AcDbLine
 10
13405.480716980939
 20
-753.888982601759
 11
13457.980716980939
 21
-753.888982601759
  0
LINE
  5
2CB
100
AcDbEntity
  8
1
  6
CONTINUOUS
 62
           2
100
AcDbLine
 10
13393.605716980939
 20
-772.638982601759
 11
13469.855716980939
 21
-772.638982601759
  0
LINE
  5
2CA
100
AcDbEntity
  8
1
  6
CONTINUOUS
 62
           2
100
AcDbLine
 10
13393.605716980939
 20
-756.775733947708
 11
13393.605716980939
 21
-772.638982601759
  0
LINE
  5
2C9
100
AcDbEntity
  8
1
  6
CONTINUOUS
 62
           2
100
AcDbLine
 10
13464.855716980939
 20
-753.888982601759
 11
13398.605716980939
 21
-753.888982601759
  0
LINE
  5
2C8
100
AcDbEntity
  8
1
  6
CONTINUOUS
 62
           2
100
AcDbLine
 10
13469.855716980939
 20
-772.638982601759
 11
13469.855716980939
 21
-756.775733947708
  0
LINE
  5
2C7
100
AcDbEntity
  8
1
  6
CONTINUOUS
 62
           2
100
AcDbLine
 10
13464.855716980939
 20
-753.888982601759
 11
13469.855716980939
 21
-756.775733947708
  0
LINE
  5
2C6
100
AcDbEntity
  8
1
  6
CONTINUOUS
 62
           2
100
AcDbLine
 10
13398.605716980939
 20
-753.888982601759
 11
13393.605716980939
 21
-756.775733947708
  0
LINE
  5
2C5
100
AcDbEntity
  8
1
  6
CONTINUOUS
 62
           2
100
AcDbLine
 10
13450.793216980939
 20
-772.638982601759
 11
13450.793216980939
 21
-756.775733947708
  0
LINE
  5
2C4
100
AcDbEntity
  8
1
  6
CONTINUOUS
 62
           2
100
AcDbLine
 10
13412.668216980939
 20
-772.638982601759
 11
13412.668216980939
 21
-756.775733947708
  0
LINE
  5
2C3
100
AcDbEntity
  8
1
  6
CONTINUOUS
 62
           2
100
AcDbLine
 10
13405.6581100247
 20
-753.888982601759
 11
13458.1581100247
 21
-753.888982601759
  0
LINE
  5
2C2
100
AcDbEntity
  8
1
  6
CONTINUOUS
 62
           2
100
AcDbLine
 10
13465.0331100247
 20
-753.888982601759
 11
13398.7831100247
 21
-753.888982601759
  0
LINE
  5
2C1
100
AcDbEntity
  8
1
  6
CONTINUOUS
 62
           2
100
AcDbLine
 10
13465.0331100247
 20
-753.888982601759
 11
13470.0331100247
 21
-756.775733947708
  0
LINE
  5
2C0
100
AcDbEntity
  8
1
  6
CONTINUOUS
 62
           2
100
AcDbLine
 10
13398.7831100247
 20
-753.888982601759
 11
13393.7831100247
 21
-756.775733947708
  0
LINE
  5
2BF
100
AcDbEntity
  8
1
  6
CONTINUOUS
 62
           2
100
AcDbLine
 10
13477.730716980939
 20
-843.13898260176
 11
13387.980716980939
 21
-843.13898260176
  0
LINE
  5
2BE
100
AcDbEntity
  8
1
  6
CONTINUOUS
 62
           2
100
AcDbLine
 10
13479.730716980939
 20
-777.63898260176
 11
13479.730716980939
 21
-841.13898260176
  0
LINE
  5
2BD
100
AcDbEntity
  8
1
  6
CONTINUOUS
 62
           2
100
AcDbLine
 10
13382.730716980939
 20
-777.638982601759
 11
13382.730716980939
 21
-841.13898260176
  0
LINE
  5
2BC
100
AcDbEntity
  8
1
  6
CONTINUOUS
 62
           2
100
AcDbLine
 10
13466.230716980939
 20
-772.63898260176
 11
13387.730716980939
 21
-772.638982601759
  0
LINE
  5
2BB
100
AcDbEntity
  8
1
  6
CONTINUOUS
 62
           2
100
AcDbLine
 10
13408.730716980939
 20
-684.63898260176
 11
13408.730716980939
 21
-727.06163233257
  0
LINE
  5
2BA
100
AcDbEntity
  8
1
  6
CONTINUOUS
 62
           2
100
AcDbLine
 10
13410.730716980939
 20
-684.63898260176
 11
13410.730716980939
 21
-726.63898260176
  0
LINE
  5
2B9
100
AcDbEntity
  8
1
  6
CONTINUOUS
 62
           2
100
AcDbLine
 10
13423.397383647611
 20
-684.63898260176
 11
13423.397383647611
 21
-726.63898260176
  0
LINE
  5
2B8
100
AcDbEntity
  8
1
  6
CONTINUOUS
 62
           2
100
AcDbLine
 10
13425.397383647611
 20
-684.63898260176
 11
13425.397383647611
 21
-726.63898260176
  0
LINE
  5
2B7
100
AcDbEntity
  8
1
  6
CONTINUOUS
 62
           2
100
AcDbLine
 10
13438.06405031428
 20
-684.63898260176
 11
13438.06405031428
 21
-726.63898260176
  0
LINE
  5
2B6
100
AcDbEntity
  8
1
  6
CONTINUOUS
 62
           2
100
AcDbLine
 10
13440.06405031428
 20
-684.63898260176
 11
13440.06405031428
 21
-726.63898260176
  0
LINE
  5
2B5
100
AcDbEntity
  8
1
  6
CONTINUOUS
 62
           2
100
AcDbLine
 10
13452.730716980939
 20
-684.63898260176
 11
13452.730716980939
 21
-726.63898260176
  0
LINE
  5
2B4
100
AcDbEntity
  8
1
  6
CONTINUOUS
 62
           2
100
AcDbLine
 10
13454.730716980939
 20
-684.63898260176
 11
13454.730716980939
 21
-727.06163233257
  0
LINE
  5
2B3
100
AcDbEntity
  8
1
  6
CONTINUOUS
 62
           2
100
AcDbLine
 10
13387.980716980939
 20
-843.13898260176
 11
13387.980716980939
 21
-846.63898260176
  0
LINE
  5
2B2
100
AcDbEntity
  8
1
  6
CONTINUOUS
 62
           2
100
AcDbLine
 10
13475.480716980939
 20
-843.13898260176
 11
13475.480716980939
 21
-846.63898260176
  0
LINE
  5
2B1
100
AcDbEntity
  8
1
  6
CONTINUOUS
 62
           2
100
AcDbLine
 10
13475.480716980939
 20
-843.13898260176
 11
13384.730716980939
 21
-843.13898260176
  0
LINE
  5
2B0
100
AcDbEntity
  8
1
  6
CONTINUOUS
 62
           2
100
AcDbLine
 10
13471.730716980939
 20
-850.38898260176
 11
13391.730716980939
 21
-850.38898260176
  0
LINE
  5
2AF
100
AcDbEntity
  8
1
  6
CONTINUOUS
 62
           2
100
AcDbLine
 10
13469.855716980939
 20
-850.38898260176
 11
13393.605716980939
 21
-850.38898260176
  0
LINE
  5
2AE
100
AcDbEntity
  8
1
  6
CONTINUOUS
 62
           2
100
AcDbLine
 10
13475.480716980939
 20
-843.13898260176
 11
13387.980716980939
 21
-843.13898260176
  0
LINE
  5
2AD
100
AcDbEntity
  8
1
  6
CONTINUOUS
 62
           2
100
AcDbLine
 10
13466.230716980939
 20
-772.63898260176
 11
13474.730716980939
 21
-772.63898260176
  0
LINE
  5
2AC
100
AcDbEntity
  8
1
  6
CONTINUOUS
 62
           2
100
AcDbLine
 10
13479.730716980939
 20
-777.63898260176
 11
13479.730716980939
 21
-778.63898260176
  0
LINE
  5
2AB
100
AcDbEntity
  8
1
  6
CONTINUOUS
 62
           2
100
AcDbLine
 10
13405.230716980939
 20
-772.638982601759
 11
13396.730716980939
 21
-772.638982601759
  0
LINE
  5
2AA
100
AcDbEntity
  8
1
  6
CONTINUOUS
 62
           2
100
AcDbLine
 10
13453.730716980939
 20
-727.63898260176
 11
13409.730716980939
 21
-727.63898260176
  0
LINE
  5
2A9
100
AcDbEntity
  8
1
  6
CONTINUOUS
 62
           2
100
AcDbLine
 10
13453.730716980939
 20
-683.63898260176
 11
13451.730716980939
 21
-683.63898260176
  0
LINE
  5
2A8
100
AcDbEntity
  8
1
  6
CONTINUOUS
 62
           2
100
AcDbLine
 10
13451.730716980939
 20
-683.63898260176
 11
13411.730716980939
 21
-683.63898260176
  0
LINE
  5
2A7
100
AcDbEntity
  8
1
  6
CONTINUOUS
 62
           2
100
AcDbLine
 10
13409.730716980939
 20
-683.63898260176
 11
13411.730716980939
 21
-683.63898260176
  0
LINE
  5
2A6
100
AcDbEntity
  8
1
  6
CONTINUOUS
 62
           2
100
AcDbLine
 10
13454.730716980939
 20
-683.63898260176
 11
13453.730716980939
 21
-683.63898260176
  0
LINE
  5
2A5
100
AcDbEntity
  8
1
  6
CONTINUOUS
 62
           2
100
AcDbLine
 10
13408.730716980939
 20
-683.63898260176
 11
13409.730716980939
 21
-683.63898260176
  0
LINE
  5
2A4
100
AcDbEntity
  8
1
  6
CONTINUOUS
 62
           2
100
AcDbLine
 10
13456.730716980939
 20
-753.888982601759
 11
13456.730716980939
 21
-685.63898260176
  0
LINE
  5
2A3
100
AcDbEntity
  8
1
  6
CONTINUOUS
 62
           2
100
AcDbLine
 10
13406.730716980939
 20
-753.888982601759
 11
13406.730716980939
 21
-685.63898260176
  0
LINE
  5
2A2
100
AcDbEntity
  8
1
  6
CONTINUOUS
 62
           2
100
AcDbLine
 10
13411.730716980939
 20
-679.63898260176
 11
13411.730716980939
 21
-681.63898260176
  0
LINE
  5
2A1
100
AcDbEntity
  8
1
  6
CONTINUOUS
 62
           2
100
AcDbLine
 10
13412.730716980939
 20
-678.63898260176
 11
13450.730716980939
 21
-678.63898260176
  0
LINE
  5
2A0
100
AcDbEntity
  8
1
  6
CONTINUOUS
 62
           2
100
AcDbLine
 10
13451.730716980939
 20
-679.63898260176
 11
13451.730716980939
 21
-681.63898260176
  0
LINE
  5
29F
100
AcDbEntity
  8
1
  6
CONTINUOUS
 62
           2
100
AcDbLine
 10
13422.480716980939
 20
-672.371033409329
 11
13422.480716980939
 21
-678.63898260176
  0
LINE
  5
29E
100
AcDbEntity
  8
1
  6
CONTINUOUS
 62
           2
100
AcDbLine
 10
13440.980716980939
 20
-672.371033409329
 11
13440.980716980939
 21
-678.63898260176
  0
LINE
  5
29D
100
AcDbEntity
  8
1
  6
CONTINUOUS
 62
           2
100
AcDbLine
 10
13416.730716980939
 20
-662.13898260176
 11
13416.730716980939
 21
-670.63898260176
  0
LINE
  5
29C
100
AcDbEntity
  8
1
  6
CONTINUOUS
 62
           2
100
AcDbLine
 10
13446.730716980939
 20
-662.13898260176
 11
13446.730716980939
 21
-670.649281476411
  0
LINE
  5
29B
100
AcDbEntity
  8
1
  6
CONTINUOUS
 62
           2
100
AcDbLine
 10
13416.230716980939
 20
-670.63898260176
 11
13447.230716980939
 21
-670.63898260176
  0
LINE
  5
29A
100
AcDbEntity
  8
1
  6
CONTINUOUS
 62
           2
100
AcDbLine
 10
13413.230716980939
 20
-672.371033409329
 11
13416.230716980939
 21
-670.63898260176
  0
LINE
  5
299
100
AcDbEntity
  8
1
  6
CONTINUOUS
 62
           2
100
AcDbLine
 10
13413.230716980939
 20
-678.63898260176
 11
13413.230716980939
 21
-672.371033409329
  0
LINE
  5
298
100
AcDbEntity
  8
1
  6
CONTINUOUS
 62
           2
100
AcDbLine
 10
13450.230716980939
 20
-678.63898260176
 11
13413.230716980939
 21
-678.63898260176
  0
LINE
  5
297
100
AcDbEntity
  8
1
  6
CONTINUOUS
 62
           2
100
AcDbLine
 10
13450.230716980939
 20
-672.371033409329
 11
13450.230716980939
 21
-678.63898260176
  0
LINE
  5
296
100
AcDbEntity
  8
1
  6
CONTINUOUS
 62
           2
100
AcDbLine
 10
13447.230716980939
 20
-670.63898260176
 11
13450.230716980939
 21
-672.371033409329
  0
LINE
  5
295
100
AcDbEntity
  8
1
  6
DOT_CENTER
 62
           2
100
AcDbLine
 10
13389.740633949439
 20
-807.13898260176
 11
13476.24447790156
 21
-807.13898260176
  0
LINE
  5
294
100
AcDbEntity
  8
1
  6
DOT_CENTER
 62
           2
100
AcDbLine
 10
13400.65876698094
 20
-807.13898260176
 11
13462.802666980941
 21
-807.13898260176
  0
LINE
  5
293
100
AcDbEntity
  8
1
  6
DOT_CENTER
 62
           2
100
AcDbLine
 10
13431.730716980939
 20
-838.21093260176
 11
13431.730716980939
 21
-776.06703260176
  0
LINE
  5
292
100
AcDbEntity
  8
1
  6
CONTINUOUS
 62
           7
100
AcDbLine
 10
13525.970716980941
 20
-1966.929151297702
 11
13525.970716980941
 21
-1989.630743082786
  0
LINE
  5
291
100
AcDbEntity
  8
1
  6
CONTINUOUS
 62
           7
100
AcDbLine
 10
14849.970716980941
 20
-1989.630743082786
 11
14849.970716980941
 21
-1966.929151297702
  0
LINE
  5
290
100
AcDbEntity
  8
1
  6
CONTINUOUS
 62
           7
100
AcDbLine
 10
14849.970716980941
 20
-1989.630743082786
 11
14849.970716980941
 21
-1966.929151297702
  0
LINE
  5
28F
100
AcDbEntity
  8
1
  6
CONTINUOUS
 62
           7
100
AcDbLine
 10
13525.970716980941
 20
-1966.929151297702
 11
13525.970716980941
 21
-1989.630743082786
  0
LINE
  5
28E
100
AcDbEntity
  8
1
  6
DOT_CENTER
 62
           2
100
AcDbLine
 10
11224.2254193638
 20
-798.329151297701
 11
11282.973810100981
 21
-798.329151297701
  0
LINE
  5
28D
100
AcDbEntity
  8
1
  6
CONTINUOUS
 62
           2
100
AcDbLine
 10
11213.583686638611
 20
-661.829151297701
 11
11216.583686638611
 21
-663.56120210527
  0
LINE
  5
28C
100
AcDbEntity
  8
1
  6
CONTINUOUS
 62
           2
100
AcDbLine
 10
11216.583686638611
 20
-663.56120210527
 11
11216.583686638611
 21
-669.829151297701
  0
LINE
  5
28B
100
AcDbEntity
  8
1
  6
CONTINUOUS
 62
           2
100
AcDbLine
 10
11216.583686638611
 20
-669.829151297701
 11
11179.583686638611
 21
-669.829151297701
  0
LINE
  5
28A
100
AcDbEntity
  8
1
  6
CONTINUOUS
 62
           2
100
AcDbLine
 10
11179.583686638611
 20
-669.829151297701
 11
11179.583686638611
 21
-663.56120210527
  0
LINE
  5
289
100
AcDbEntity
  8
1
  6
CONTINUOUS
 62
           2
100
AcDbLine
 10
11179.583686638611
 20
-663.56120210527
 11
11182.583686638611
 21
-661.829151297701
  0
LINE
  5
288
100
AcDbEntity
  8
1
  6
CONTINUOUS
 62
           2
100
AcDbLine
 10
11182.583686638611
 20
-661.829151297701
 11
11213.583686638611
 21
-661.829151297701
  0
LINE
  5
287
100
AcDbEntity
  8
1
  6
CONTINUOUS
 62
           2
100
AcDbLine
 10
11213.083686638611
 20
-653.329151297701
 11
11213.083686638611
 21
-661.839450172351
  0
LINE
  5
286
100
AcDbEntity
  8
1
  6
CONTINUOUS
 62
           2
100
AcDbLine
 10
11183.083686638611
 20
-653.329151297701
 11
11183.083686638611
 21
-661.829151297701
  0
LINE
  5
285
100
AcDbEntity
  8
1
  6
CONTINUOUS
 62
           2
100
AcDbLine
 10
11207.333686638611
 20
-663.56120210527
 11
11207.333686638611
 21
-669.829151297701
  0
LINE
  5
284
100
AcDbEntity
  8
1
  6
CONTINUOUS
 62
           2
100
AcDbLine
 10
11188.833686638611
 20
-663.56120210527
 11
11188.833686638611
 21
-669.829151297701
  0
LINE
  5
283
100
AcDbEntity
  8
1
  6
CONTINUOUS
 62
           2
100
AcDbLine
 10
11218.083686638611
 20
-670.829151297701
 11
11218.083686638611
 21
-672.829151297701
  0
LINE
  5
282
100
AcDbEntity
  8
1
  6
CONTINUOUS
 62
           2
100
AcDbLine
 10
11179.083686638611
 20
-669.829151297701
 11
11217.083686638611
 21
-669.829151297701
  0
LINE
  5
281
100
AcDbEntity
  8
1
  6
CONTINUOUS
 62
           2
100
AcDbLine
 10
11178.083686638611
 20
-670.829151297701
 11
11178.083686638611
 21
-672.829151297701
  0
LINE
  5
280
100
AcDbEntity
  8
1
  6
CONTINUOUS
 62
           2
100
AcDbLine
 10
11173.083686638611
 20
-745.0791512977
 11
11173.083686638611
 21
-676.829151297701
  0
LINE
  5
27F
100
AcDbEntity
  8
1
  6
CONTINUOUS
 62
           2
100
AcDbLine
 10
11223.083686638611
 20
-745.0791512977
 11
11223.083686638611
 21
-676.829151297701
  0
LINE
  5
27E
100
AcDbEntity
  8
1
  6
CONTINUOUS
 62
           2
100
AcDbLine
 10
11175.083686638611
 20
-674.829151297701
 11
11176.083686638611
 21
-674.829151297701
  0
LINE
  5
27D
100
AcDbEntity
  8
1
  6
CONTINUOUS
 62
           2
100
AcDbLine
 10
11221.083686638611
 20
-674.829151297701
 11
11220.083686638611
 21
-674.829151297701
  0
LINE
  5
27C
100
AcDbEntity
  8
1
  6
CONTINUOUS
 62
           2
100
AcDbLine
 10
11176.083686638611
 20
-674.829151297701
 11
11178.083686638611
 21
-674.829151297701
  0
LINE
  5
27B
100
AcDbEntity
  8
1
  6
CONTINUOUS
 62
           2
100
AcDbLine
 10
11218.083686638611
 20
-674.829151297701
 11
11178.083686638611
 21
-674.829151297701
  0
LINE
  5
27A
100
AcDbEntity
  8
1
  6
CONTINUOUS
 62
           2
100
AcDbLine
 10
11220.083686638611
 20
-674.829151297701
 11
11218.083686638611
 21
-674.829151297701
  0
LINE
  5
279
100
AcDbEntity
  8
1
  6
CONTINUOUS
 62
           2
100
AcDbLine
 10
11220.083686638611
 20
-718.829151297701
 11
11176.083686638611
 21
-718.829151297701
  0
LINE
  5
278
100
AcDbEntity
  8
1
  6
CONTINUOUS
 62
           2
100
AcDbLine
 10
11171.583686638611
 20
-763.8291512977
 11
11163.083686638611
 21
-763.8291512977
  0
LINE
  5
277
100
AcDbEntity
  8
1
  6
CONTINUOUS
 62
           2
100
AcDbLine
 10
11246.083686638611
 20
-827.329151297701
 11
11246.083686638611
 21
-826.829151297701
  0
LINE
  5
276
100
AcDbEntity
  8
1
  6
CONTINUOUS
 62
           2
100
AcDbLine
 10
11247.083686638611
 20
-825.829151297701
 11
11252.083686638611
 21
-825.829151297701
  0
LINE
  5
275
100
AcDbEntity
  8
1
  6
CONTINUOUS
 62
           2
100
AcDbLine
 10
11253.083686638611
 20
-827.329151297701
 11
11253.083686638611
 21
-826.829151297701
  0
LINE
  5
274
100
AcDbEntity
  8
1
  6
CONTINUOUS
 62
           2
100
AcDbLine
 10
11253.083686638611
 20
-827.329151297701
 11
11258.083686638611
 21
-827.329151297701
  0
LINE
  5
273
100
AcDbEntity
  8
1
  6
CONTINUOUS
 62
           2
100
AcDbLine
 10
11258.083686638611
 20
-827.329151297701
 11
11258.083686638611
 21
-769.329151297701
  0
LINE
  5
272
100
AcDbEntity
  8
1
  6
CONTINUOUS
 62
           2
100
AcDbLine
 10
11258.083686638611
 20
-769.329151297701
 11
11253.083686638611
 21
-769.329151297701
  0
LINE
  5
271
100
AcDbEntity
  8
1
  6
CONTINUOUS
 62
           2
100
AcDbLine
 10
11253.083686638611
 20
-769.329151297701
 11
11253.083686638611
 21
-769.829151297701
  0
LINE
  5
270
100
AcDbEntity
  8
1
  6
CONTINUOUS
 62
           2
100
AcDbLine
 10
11247.083686638611
 20
-770.829151297701
 11
11252.083686638611
 21
-770.829151297701
  0
LINE
  5
26F
100
AcDbEntity
  8
1
  6
CONTINUOUS
 62
           2
100
AcDbLine
 10
11246.083686638611
 20
-768.829151297701
 11
11246.083686638611
 21
-769.829151297701
  0
LINE
  5
26E
100
AcDbEntity
  8
1
  6
CONTINUOUS
 62
           2
100
AcDbLine
 10
11232.583686638611
 20
-763.829151297701
 11
11241.083686638611
 21
-763.829151297701
  0
LINE
  5
26D
100
AcDbEntity
  8
1
  6
CONTINUOUS
 62
           2
100
AcDbLine
 10
11224.333686638611
 20
-860.329151297701
 11
11171.833686638611
 21
-860.329151297701
  0
LINE
  5
26C
100
AcDbEntity
  8
1
  6
CONTINUOUS
 62
           2
100
AcDbLine
 10
11241.833686638611
 20
-834.329151297701
 11
11154.333686638611
 21
-834.329151297701
  0
LINE
  5
26B
100
AcDbEntity
  8
1
  6
CONTINUOUS
 62
           2
100
AcDbLine
 10
11236.208686638611
 20
-841.579151297701
 11
11159.958686638611
 21
-841.579151297701
  0
LINE
  5
26A
100
AcDbEntity
  8
1
  6
CONTINUOUS
 62
           2
100
AcDbLine
 10
11159.958686638611
 20
-841.579151297701
 11
11159.958686638611
 21
-857.442399951752
  0
LINE
  5
269
100
AcDbEntity
  8
1
  6
CONTINUOUS
 62
           2
100
AcDbLine
 10
11238.083686638611
 20
-841.579151297701
 11
11158.083686638611
 21
-841.579151297701
  0
LINE
  5
268
100
AcDbEntity
  8
1
  6
CONTINUOUS
 62
           2
100
AcDbLine
 10
11241.833686638611
 20
-834.329151297701
 11
11151.083686638611
 21
-834.329151297701
  0
LINE
  5
267
100
AcDbEntity
  8
1
  6
CONTINUOUS
 62
           2
100
AcDbLine
 10
11164.958686638611
 20
-860.329151297701
 11
11231.208686638611
 21
-860.329151297701
  0
LINE
  5
266
100
AcDbEntity
  8
1
  6
CONTINUOUS
 62
           2
100
AcDbLine
 10
11236.208686638611
 20
-857.442399951752
 11
11236.208686638611
 21
-841.579151297701
  0
LINE
  5
265
100
AcDbEntity
  8
1
  6
CONTINUOUS
 62
           2
100
AcDbLine
 10
11236.208686638611
 20
-857.442399951752
 11
11231.208686638611
 21
-860.329151297701
  0
LINE
  5
264
100
AcDbEntity
  8
1
  6
CONTINUOUS
 62
           2
100
AcDbLine
 10
11159.958686638611
 20
-857.442399951752
 11
11164.958686638611
 21
-860.329151297701
  0
LINE
  5
263
100
AcDbEntity
  8
1
  6
CONTINUOUS
 62
           2
100
AcDbLine
 10
11217.146186638611
 20
-857.442399951752
 11
11217.146186638611
 21
-841.579151297701
  0
LINE
  5
262
100
AcDbEntity
  8
1
  6
CONTINUOUS
 62
           2
100
AcDbLine
 10
11179.021186638611
 20
-857.442399951752
 11
11179.021186638611
 21
-841.579151297701
  0
LINE
  5
261
100
AcDbEntity
  8
1
  6
CONTINUOUS
 62
           2
100
AcDbLine
 10
11253.083686638611
 20
-769.970396305672
 11
11253.083686638611
 21
-827.329151297701
  0
LINE
  5
260
100
AcDbEntity
  8
1
  6
CONTINUOUS
 62
           2
100
AcDbLine
 10
11224.51107968237
 20
-860.329151297701
 11
11172.01107968237
 21
-860.329151297701
  0
LINE
  5
25F
100
AcDbEntity
  8
1
  6
CONTINUOUS
 62
           2
100
AcDbLine
 10
11165.13607968237
 20
-860.329151297701
 11
11231.38607968237
 21
-860.329151297701
  0
LINE
  5
25E
100
AcDbEntity
  8
1
  6
CONTINUOUS
 62
           2
100
AcDbLine
 10
11236.38607968237
 20
-857.442399951752
 11
11231.38607968237
 21
-860.329151297701
  0
LINE
  5
25D
100
AcDbEntity
  8
1
  6
CONTINUOUS
 62
           2
100
AcDbLine
 10
11160.13607968237
 20
-857.442399951752
 11
11165.13607968237
 21
-860.329151297701
  0
LINE
  5
25C
100
AcDbEntity
  8
1
  6
CONTINUOUS
 62
           2
100
AcDbLine
 10
11241.833686638611
 20
-834.329151297701
 11
11241.833686638611
 21
-837.829151297701
  0
LINE
  5
25B
100
AcDbEntity
  8
1
  6
CONTINUOUS
 62
           2
100
AcDbLine
 10
11154.333686638611
 20
-834.329151297701
 11
11154.333686638611
 21
-837.829151297701
  0
LINE
  5
25A
100
AcDbEntity
  8
1
  6
CONTINUOUS
 62
           2
100
AcDbLine
 10
11221.083686638611
 20
-675.829151297701
 11
11221.083686638611
 21
-718.251801028511
  0
LINE
  5
259
100
AcDbEntity
  8
1
  6
CONTINUOUS
 62
           2
100
AcDbLine
 10
11219.083686638611
 20
-675.829151297701
 11
11219.083686638611
 21
-717.829151297701
  0
LINE
  5
258
100
AcDbEntity
  8
1
  6
CONTINUOUS
 62
           2
100
AcDbLine
 10
11206.417019971939
 20
-675.829151297701
 11
11206.417019971939
 21
-717.829151297701
  0
LINE
  5
257
100
AcDbEntity
  8
1
  6
CONTINUOUS
 62
           2
100
AcDbLine
 10
11204.417019971939
 20
-675.829151297701
 11
11204.417019971939
 21
-717.829151297701
  0
LINE
  5
256
100
AcDbEntity
  8
1
  6
CONTINUOUS
 62
           2
100
AcDbLine
 10
11191.75035330528
 20
-675.829151297701
 11
11191.75035330528
 21
-717.829151297701
  0
LINE
  5
255
100
AcDbEntity
  8
1
  6
CONTINUOUS
 62
           2
100
AcDbLine
 10
11189.75035330528
 20
-675.829151297701
 11
11189.75035330528
 21
-717.829151297701
  0
LINE
  5
254
100
AcDbEntity
  8
1
  6
CONTINUOUS
 62
           2
100
AcDbLine
 10
11177.083686638611
 20
-675.829151297701
 11
11177.083686638611
 21
-717.829151297701
  0
LINE
  5
253
100
AcDbEntity
  8
1
  6
CONTINUOUS
 62
           2
100
AcDbLine
 10
11175.083686638611
 20
-675.829151297701
 11
11175.083686638611
 21
-718.251801028511
  0
LINE
  5
252
100
AcDbEntity
  8
1
  6
CONTINUOUS
 62
           2
100
AcDbLine
 10
11171.583686638611
 20
-884.929151297701
 11
11224.583686638611
 21
-884.929151297701
  0
LINE
  5
251
100
AcDbEntity
  8
1
  6
CONTINUOUS
 62
           2
100
AcDbLine
 10
11224.583686638611
 20
-884.929151297701
 11
11224.583686638611
 21
-889.929151297701
  0
LINE
  5
250
100
AcDbEntity
  8
1
  6
CONTINUOUS
 62
           2
100
AcDbLine
 10
11224.583686638611
 20
-889.929151297701
 11
11224.48368663861
 21
-889.929151297701
  0
LINE
  5
24F
100
AcDbEntity
  8
1
  6
CONTINUOUS
 62
           2
100
AcDbLine
 10
11171.583686638611
 20
-889.929151297701
 11
11171.583686638611
 21
-884.929151297701
  0
LINE
  5
24E
100
AcDbEntity
  8
1
  6
CONTINUOUS
 62
           2
100
AcDbLine
 10
11223.083686638611
 20
-891.329151297701
 11
11223.083686638611
 21
-908.181495184822
  0
LINE
  5
24D
100
AcDbEntity
  8
1
  6
CONTINUOUS
 62
           2
100
AcDbLine
 10
11224.583686638611
 20
-889.929151297701
 11
11171.583686638611
 21
-889.929151297701
  0
LINE
  5
24C
100
AcDbEntity
  8
1
  6
CONTINUOUS
 62
           2
100
AcDbLine
 10
11171.683686638609
 20
-889.929151297701
 11
11171.583686638611
 21
-889.929151297701
  0
LINE
  5
24B
100
AcDbEntity
  8
1
  6
CONTINUOUS
 62
           2
100
AcDbLine
 10
11173.083686638611
 20
-908.181495184822
 11
11173.083686638611
 21
-891.329151297701
  0
LINE
  5
24A
100
AcDbEntity
  8
1
  6
CONTINUOUS
 62
           2
100
AcDbLine
 10
11219.038686638611
 20
-860.329151297701
 11
11219.433686638609
 21
-871.079151297701
  0
LINE
  5
249
100
AcDbEntity
  8
1
  6
CONTINUOUS
 62
           2
100
AcDbLine
 10
11177.128686638611
 20
-884.929151297701
 11
11176.73368663861
 21
-874.179151297701
  0
LINE
  5
248
100
AcDbEntity
  8
1
  6
CONTINUOUS
 62
           2
100
AcDbLine
 10
11219.038686638611
 20
-884.929151297701
 11
11219.433686638609
 21
-874.179151297701
  0
LINE
  5
247
100
AcDbEntity
  8
1
  6
CONTINUOUS
 62
           2
100
AcDbLine
 10
11176.73368663861
 20
-871.079151297701
 11
11177.128686638611
 21
-860.329151297701
  0
LINE
  5
246
100
AcDbEntity
  8
1
  6
CONTINUOUS
 62
           2
100
AcDbLine
 10
11219.433686638609
 20
-874.179151297701
 11
11219.433686638609
 21
-871.079151297701
  0
LINE
  5
245
100
AcDbEntity
  8
1
  6
CONTINUOUS
 62
           2
100
AcDbLine
 10
11176.73368663861
 20
-871.079151297701
 11
11176.73368663861
 21
-874.179151297701
  0
LINE
  5
244
100
AcDbEntity
  8
1
  6
CONTINUOUS
 62
           2
100
AcDbLine
 10
11219.433686638609
 20
-871.079151297701
 11
11176.73368663861
 21
-871.079151297701
  0
LINE
  5
243
100
AcDbEntity
  8
1
  6
CONTINUOUS
 62
           2
100
AcDbLine
 10
11219.433686638609
 20
-874.179151297701
 11
11176.73368663861
 21
-874.179151297701
  0
LINE
  5
242
100
AcDbEntity
  8
1
  6
CONTINUOUS
 62
           2
100
AcDbLine
 10
11232.583686638611
 20
-763.829151297701
 11
11154.083686638611
 21
-763.8291512977
  0
LINE
  5
241
100
AcDbEntity
  8
1
  6
CONTINUOUS
 62
           2
100
AcDbLine
 10
11149.083686638611
 20
-768.8291512977
 11
11149.083686638611
 21
-832.329151297701
  0
LINE
  5
240
100
AcDbEntity
  8
1
  6
CONTINUOUS
 62
           2
100
AcDbLine
 10
11246.083686638611
 20
-827.329151297701
 11
11246.083686638611
 21
-832.329151297701
  0
LINE
  5
23F
100
AcDbEntity
  8
1
  6
CONTINUOUS
 62
           2
100
AcDbLine
 10
11244.083686638611
 20
-834.329151297701
 11
11154.333686638611
 21
-834.329151297701
  0
LINE
  5
23E
100
AcDbEntity
  8
1
  6
CONTINUOUS
 62
           2
100
AcDbLine
 10
11165.13607968237
 20
-745.0791512977
 11
11160.13607968237
 21
-747.965902643649
  0
LINE
  5
23D
100
AcDbEntity
  8
1
  6
CONTINUOUS
 62
           2
100
AcDbLine
 10
11231.38607968237
 20
-745.0791512977
 11
11236.38607968237
 21
-747.965902643649
  0
LINE
  5
23C
100
AcDbEntity
  8
1
  6
CONTINUOUS
 62
           2
100
AcDbLine
 10
11231.38607968237
 20
-745.0791512977
 11
11165.13607968237
 21
-745.0791512977
  0
LINE
  5
23B
100
AcDbEntity
  8
1
  6
CONTINUOUS
 62
           2
100
AcDbLine
 10
11172.01107968237
 20
-745.0791512977
 11
11224.51107968237
 21
-745.0791512977
  0
LINE
  5
23A
100
AcDbEntity
  8
1
  6
CONTINUOUS
 62
           2
100
AcDbLine
 10
11179.021186638611
 20
-763.8291512977
 11
11179.021186638611
 21
-747.965902643649
  0
LINE
  5
239
100
AcDbEntity
  8
1
  6
CONTINUOUS
 62
           2
100
AcDbLine
 10
11217.146186638611
 20
-763.8291512977
 11
11217.146186638611
 21
-747.965902643649
  0
LINE
  5
238
100
AcDbEntity
  8
1
  6
CONTINUOUS
 62
           2
100
AcDbLine
 10
11164.958686638611
 20
-745.0791512977
 11
11159.958686638611
 21
-747.965902643649
  0
LINE
  5
237
100
AcDbEntity
  8
1
  6
CONTINUOUS
 62
           2
100
AcDbLine
 10
11231.208686638611
 20
-745.0791512977
 11
11236.208686638611
 21
-747.965902643649
  0
LINE
  5
236
100
AcDbEntity
  8
1
  6
CONTINUOUS
 62
           2
100
AcDbLine
 10
11236.208686638611
 20
-763.8291512977
 11
11236.208686638611
 21
-747.965902643649
  0
LINE
  5
235
100
AcDbEntity
  8
1
  6
CONTINUOUS
 62
           2
100
AcDbLine
 10
11231.208686638611
 20
-745.0791512977
 11
11164.958686638611
 21
-745.0791512977
  0
LINE
  5
234
100
AcDbEntity
  8
1
  6
CONTINUOUS
 62
           2
100
AcDbLine
 10
11159.958686638611
 20
-747.965902643649
 11
11159.958686638611
 21
-763.8291512977
  0
LINE
  5
233
100
AcDbEntity
  8
1
  6
CONTINUOUS
 62
           2
100
AcDbLine
 10
11159.958686638611
 20
-763.8291512977
 11
11236.208686638611
 21
-763.8291512977
  0
LINE
  5
232
100
AcDbEntity
  8
1
  6
CONTINUOUS
 62
           2
100
AcDbLine
 10
11171.833686638611
 20
-745.0791512977
 11
11224.333686638611
 21
-745.0791512977
  0
LINE
  5
231
100
AcDbEntity
  8
1
  6
CONTINUOUS
 62
           7
100
AcDbLine
 10
10536.083686638611
 20
-553.379151297701
 11
10536.083686638611
 21
-39.185642105133
  0
LINE
  5
230
100
AcDbEntity
  8
976
  6
CONTINUOUS
 62
           7
100
AcDbLine
 10
14207.970716980941
 20
209.587156642951
 11
14210.470716980941
 21
193.033512871702
  0
LINE
  5
22F
100
AcDbEntity
  8
976
  6
CONTINUOUS
 62
           7
100
AcDbLine
 10
14167.970716980941
 20
209.587156640444
 11
14165.470716980941
 21
193.033512873974
  0
LINE
  5
22E
100
AcDbEntity
  8
976
  6
CONTINUOUS
 62
           7
100
AcDbLine
 10
14177.970716980941
 20
271.785220851561
 11
14177.970716980941
 21
197.653299863832
  0
LINE
  5
22D
100
AcDbEntity
  8
976
  6
CONTINUOUS
 62
           7
100
AcDbLine
 10
14197.970716980941
 20
271.785220851561
 11
14197.970716980941
 21
197.653299863832
  0
LINE
  5
22C
100
AcDbEntity
  8
976
  6
CONTINUOUS
 62
           7
100
AcDbLine
 10
10930.29873754548
 20
197.759328908866
 11
10929.45577190334
 21
199.937452793316
  0
LINE
  5
22B
100
AcDbEntity
  8
976
  6
CONTINUOUS
 62
           7
100
AcDbLine
 10
10886.496670914759
 20
187.445311317358
 11
10886.27919571963
 21
189.770718651428
  0
LINE
  5
22A
100
AcDbEntity
  8
976
  6
CONTINUOUS
 62
           7
100
AcDbLine
 10
10921.400070433179
 20
214.397501654141
 11
10903.813696411669
 21
212.06990528232
  0
LINE
  5
229
100
AcDbEntity
  8
976
  6
CONTINUOUS
 62
           7
100
AcDbLine
 10
10887.03647759293
 20
206.305949626474
 11
10903.813696411669
 21
212.06990528232
  0
LINE
  5
228
100
AcDbEntity
  8
976
  6
CONTINUOUS
 62
           7
100
AcDbLine
 10
10886.496670914759
 20
187.445311317358
 11
10930.29873754548
 21
197.759328908866
  0
LINE
  5
227
100
AcDbEntity
  8
976
  6
DOT_CENTER
 62
           2
100
AcDbLine
 10
10844.79314482884
 20
223.856129824341
 11
10948.51660895422
 21
248.279763591682
  0
LINE
  5
226
100
AcDbEntity
  8
976
  6
DOT_CENTER
 62
           2
100
AcDbLine
 10
10911.24145931185
 20
180.525324076775
 11
10886.679578560919
 21
284.835902150031
  0
LINE
  5
225
100
AcDbEntity
  8
976
  6
CONTINUOUS
 62
           7
100
AcDbLine
 10
10929.45577190334
 20
199.937452793316
 11
10924.59147633312
 21
212.506219339517
  0
LINE
  5
224
100
AcDbEntity
  8
976
  6
CONTINUOUS
 62
           7
100
AcDbLine
 10
10886.347428610939
 20
189.041121578121
 11
10885.024264824009
 21
203.189377762328
  0
LINE
  5
223
100
AcDbEntity
  8
976
  6
CONTINUOUS
 62
           7
100
AcDbLine
 10
10890.493895525709
 20
206.878810931221
 11
10919.08677333776
 21
213.611539942198
  0
LINE
  5
222
100
AcDbEntity
  8
976
  6
CONTINUOUS
 62
           7
100
AcDbLine
 10
11477.080599939451
 20
213.611539942198
 11
11505.67347775151
 21
206.878810931221
  0
LINE
  5
221
100
AcDbEntity
  8
976
  6
CONTINUOUS
 62
           7
100
AcDbLine
 10
11511.143108453211
 20
203.189377762328
 11
11509.819944666269
 21
189.041121578121
  0
LINE
  5
220
100
AcDbEntity
  8
976
  6
CONTINUOUS
 62
           7
100
AcDbLine
 10
11471.575896944099
 20
212.506219339517
 11
11466.71160137388
 21
199.937452793316
  0
LINE
  5
21F
100
AcDbEntity
  8
976
  6
DOT_CENTER
 62
           2
100
AcDbLine
 10
11509.4877947163
 20
284.835902150031
 11
11484.92591396537
 21
180.525324076775
  0
LINE
  5
21E
100
AcDbEntity
  8
976
  6
DOT_CENTER
 62
           2
100
AcDbLine
 10
11447.650764322991
 20
248.279763591682
 11
11551.374228448371
 21
223.856129824341
  0
LINE
  5
21D
100
AcDbEntity
  8
976
  6
CONTINUOUS
 62
           7
100
AcDbLine
 10
11465.86863573174
 20
197.759328908866
 11
11509.67070236246
 21
187.445311317358
  0
LINE
  5
21C
100
AcDbEntity
  8
976
  6
CONTINUOUS
 62
           7
100
AcDbLine
 10
11492.35367686555
 20
212.06990528232
 11
11509.130895684289
 21
206.305949626474
  0
LINE
  5
21B
100
AcDbEntity
  8
976
  6
CONTINUOUS
 62
           7
100
AcDbLine
 10
11492.35367686555
 20
212.06990528232
 11
11474.76730284404
 21
214.397501654141
  0
LINE
  5
21A
100
AcDbEntity
  8
976
  6
CONTINUOUS
 62
           7
100
AcDbLine
 10
11509.888177557579
 20
189.770718651428
 11
11509.67070236246
 21
187.445311317358
  0
LINE
  5
219
100
AcDbEntity
  8
976
  6
CONTINUOUS
 62
           7
100
AcDbLine
 10
11466.71160137388
 20
199.937452793316
 11
11465.86863573174
 21
197.759328908866
  0
LINE
  5
218
100
AcDbEntity
  8
976
  6
CONTINUOUS
 62
           7
100
AcDbLine
 10
10915.08369761384
 20
-3192.308826800811
 11
10915.08369761384
 21
-3202.259409388209
  0
LINE
  5
217
100
AcDbEntity
  8
976
  6
CONTINUOUS
 62
           7
100
AcDbLine
 10
11481.083675663371
 20
-3192.308826800819
 11
11481.083675663371
 21
-3202.259409388209
  0
LINE
  5
216
100
AcDbEntity
  8
1
  6
CONTINUOUS
 62
           7
100
AcDbLine
 10
11864.589751041951
 20
-3844.949734195714
 11
11942.08368663862
 21
-3844.949734195714
  0
LINE
  5
215
100
AcDbEntity
  8
1
  6
CONTINUOUS
 62
           7
100
AcDbLine
 10
11864.589751041951
 20
-3755.849734195714
 11
11942.08368663862
 21
-3755.849734195714
  0
LINE
  5
214
100
AcDbEntity
  8
976
  6
CONTINUOUS
 62
           7
100
AcDbLine
 10
11853.559548261101
 20
-3707.899734195714
 11
11859.618993209189
 21
-3707.899734195714
  0
LINE
  5
213
100
AcDbEntity
  8
976
  6
CONTINUOUS
 62
           7
100
AcDbLine
 10
11853.559548261101
 20
-3892.899734195714
 11
11859.618993209189
 21
-3892.899734195714
  0
LINE
  5
212
100
AcDbEntity
  8
976
  6
CONTINUOUS
 62
           7
100
AcDbLine
 10
10536.548380068039
 20
-3892.899734195714
 11
10542.607825016141
 21
-3892.899734195714
  0
LINE
  5
211
100
AcDbEntity
  8
976
  6
CONTINUOUS
 62
           7
100
AcDbLine
 10
10536.548380068039
 20
-3707.899734195714
 11
10542.607825016141
 21
-3707.899734195714
  0
LINE
  5
210
100
AcDbEntity
  8
1
  6
DOT_CENTER
 62
           2
100
AcDbLine
 10
13372.703062878059
 20
-947.929151297702
 11
14477.088408932221
 21
-947.929151297702
  0
LINE
  5
20F
100
AcDbEntity
  8
1
  6
DOT_CENTER
 62
           2
100
AcDbLine
 10
14187.970716980941
 20
-813.33048521604
 11
14187.970716980941
 21
-1085.499954431127
  0
LINE
  5
20E
100
AcDbEntity
  8
1
  6
DOT_CENTER
 62
           2
100
AcDbLine
 10
14161.46992284875
 20
-883.950574690123
 11
14144.478292931761
 21
-842.929151297702
  0
LINE
  5
20D
100
AcDbEntity
  8
1
  6
DOT_CENTER
 62
           2
100
AcDbLine
 10
14125.51130047291
 20
-922.057613882164
 11
14082.55556189309
 21
-904.264764380652
  0
LINE
  5
20C
100
AcDbEntity
  8
1
  6
DOT_CENTER
 62
           2
100
AcDbLine
 10
14231.46314103011
 20
-842.929151297702
 11
14214.47151111313
 21
-883.950574690123
  0
LINE
  5
20B
100
AcDbEntity
  8
1
  6
DOT_CENTER
 62
           2
100
AcDbLine
 10
14293.385872068789
 20
-904.264764380652
 11
14250.43013348897
 21
-922.057613882164
  0
LINE
  5
20A
100
AcDbEntity
  8
1
  6
DOT_CENTER
 62
           2
100
AcDbLine
 10
14250.43013348897
 20
-973.800688713239
 11
14293.385872068789
 21
-991.59353821475
  0
LINE
  5
209
100
AcDbEntity
  8
1
  6
DOT_CENTER
 62
           2
100
AcDbLine
 10
14214.47151111313
 20
-1011.907727905279
 11
14231.46314103011
 21
-1052.929151297702
  0
LINE
  5
208
100
AcDbEntity
  8
1
  6
DOT_CENTER
 62
           2
100
AcDbLine
 10
14144.478292931761
 20
-1052.929151297702
 11
14161.46992284875
 21
-1011.907727905279
  0
LINE
  5
207
100
AcDbEntity
  8
1
  6
DOT_CENTER
 62
           2
100
AcDbLine
 10
14082.55556189309
 20
-991.59353821475
 11
14125.51130047291
 21
-973.800688713239
  0
LINE
  5
206
100
AcDbEntity
  8
1
  6
CONTINUOUS
 62
           7
100
AcDbLine
 10
13525.970716980941
 20
-1858.929151297702
 11
13525.970716980941
 21
-1966.929151297702
  0
LINE
  5
205
100
AcDbEntity
  8
1
  6
DOT_CENTER
 62
           2
100
AcDbLine
 10
14187.970716980941
 20
335.14069870597
 11
14187.970716980941
 21
-2746.278603852442
  0
LINE
  5
204
100
AcDbEntity
  8
1
  6
CONTINUOUS
 62
           7
100
AcDbLine
 10
14849.970716980941
 20
-1966.929151297702
 11
14849.970716980941
 21
-39.185642105133
  0
LINE
  5
203
100
AcDbEntity
  8
1
  6
CONTINUOUS
 62
           7
100
AcDbLine
 10
13525.970716980941
 20
-39.185642105133
 11
13525.970716980941
 21
-1259.234261778802
  0
LINE
  5
202
100
AcDbEntity
  8
1
  6
CONTINUOUS
 62
           7
100
AcDbLine
 10
14849.970716980941
 20
-63.929151297701
 11
13525.970716980941
 21
-63.929151297701
  0
LINE
  5
201
100
AcDbEntity
  8
1
  6
CONTINUOUS
 62
           7
100
AcDbLine
 10
14849.970716980941
 20
-1989.630743082786
 11
14849.970716980941
 21
-1966.929151297702
  0
LINE
  5
200
100
AcDbEntity
  8
1
  6
CONTINUOUS
 62
           7
100
AcDbLine
 10
14287.970716980941
 20
-2338.929151297702
 11
14287.970716980941
 21
-2535.929151297702
  0
LINE
  5
1FF
100
AcDbEntity
  8
1
  6
CONTINUOUS
 62
           7
100
AcDbLine
 10
14087.970716980941
 20
-2338.929151297702
 11
14087.970716980941
 21
-2535.929151297702
  0
LINE
  5
1FE
100
AcDbEntity
  8
1
  6
CONTINUOUS
 62
           7
100
AcDbLine
 10
13525.970716980941
 20
-1958.929151297702
 11
14849.970716980941
 21
-1958.929151297702
  0
LINE
  5
1FD
100
AcDbEntity
  8
1
  6
CONTINUOUS
 62
           7
100
AcDbLine
 10
13525.970716980941
 20
-1966.929151297702
 11
13525.970716980941
 21
-1989.630743082786
  0
LINE
  5
1FC
100
AcDbEntity
  8
1
  6
CONTINUOUS
 62
           7
100
AcDbLine
 10
13737.970716980941
 20
-2168.148822471247
 11
13737.970716980941
 21
-2231.422608468457
  0
LINE
  5
1FB
100
AcDbEntity
  8
1
  6
CONTINUOUS
 62
           7
100
AcDbLine
 10
13751.54990961092
 20
-2535.929151297702
 11
13751.54990961092
 21
-2331.422608468457
  0
LINE
  5
1FA
100
AcDbEntity
  8
1
  6
CONTINUOUS
 62
           7
100
AcDbLine
 10
13751.54990961092
 20
-2535.929151297702
 11
13751.54990961092
 21
-2331.422608468457
  0
LINE
  5
1F9
100
AcDbEntity
  8
1
  6
CONTINUOUS
 62
           7
100
AcDbLine
 10
14637.970716980941
 20
-2231.422608468457
 11
14637.970716980941
 21
-2168.148822471247
  0
LINE
  5
1F8
100
AcDbEntity
  8
1
  6
CONTINUOUS
 62
           7
100
AcDbLine
 10
14624.39152435096
 20
-2331.422608468457
 11
14624.39152435096
 21
-2535.929151297702
  0
LINE
  5
1F7
100
AcDbEntity
  8
1
  6
CONTINUOUS
 62
           7
100
AcDbLine
 10
14624.39152435096
 20
-2331.422608468457
 11
14624.39152435096
 21
-2535.929151297702
  0
LINE
  5
1F6
100
AcDbEntity
  8
1
  6
CONTINUOUS
 62
           7
100
AcDbLine
 10
13562.970716980941
 20
-2535.929151297702
 11
14812.970716980941
 21
-2535.929151297702
  0
LINE
  5
1F5
100
AcDbEntity
  8
1
  6
CONTINUOUS
 62
           7
100
AcDbLine
 10
14815.970716980941
 20
-2535.929151297702
 11
14815.970716980941
 21
-2547.929151297702
  0
LINE
  5
1F4
100
AcDbEntity
  8
1
  6
CONTINUOUS
 62
           7
100
AcDbLine
 10
14812.970716980941
 20
-2547.929151297702
 11
13562.970716980941
 21
-2547.929151297702
  0
LINE
  5
1F3
100
AcDbEntity
  8
1
  6
CONTINUOUS
 62
           7
100
AcDbLine
 10
13562.970716980941
 20
-2547.929151297702
 11
13562.970716980941
 21
-2535.929151297702
  0
LINE
  5
1F2
100
AcDbEntity
  8
1
  6
CONTINUOUS
 62
           7
100
AcDbLine
 10
13737.970716980941
 20
-2168.148822471247
 11
14637.970716980941
 21
-2168.148822471247
  0
LINE
  5
1F1
100
AcDbEntity
  8
1
  6
CONTINUOUS
 62
           7
100
AcDbLine
 10
10761.662879268581
 20
-2535.929151297702
 11
10761.662879268581
 21
-2331.422608468457
  0
LINE
  5
1F0
100
AcDbEntity
  8
1
  6
CONTINUOUS
 62
           7
100
AcDbLine
 10
10748.083686638611
 20
-2168.148822471247
 11
10748.083686638611
 21
-2231.422608468457
  0
LINE
  5
1EF
100
AcDbEntity
  8
1
  6
CONTINUOUS
 62
           7
100
AcDbLine
 10
11648.083686638611
 20
-2231.422608468457
 11
11648.083686638611
 21
-2168.148822471247
  0
LINE
  5
1EE
100
AcDbEntity
  8
1
  6
CONTINUOUS
 62
           7
100
AcDbLine
 10
11634.50449400863
 20
-2331.422608468457
 11
11634.50449400863
 21
-2535.929151297702
  0
LINE
  5
1ED
100
AcDbEntity
  8
1
  6
DOT_CENTER
 62
           2
100
AcDbLine
 10
11198.083686638611
 20
329.123652186012
 11
11198.083686638611
 21
-2659.184202058008
  0
LINE
  5
1EC
100
AcDbEntity
  8
1
  6
DOT_CENTER
 62
           2
100
AcDbLine
 10
10575.393207041519
 20
-947.929151297702
 11
12005.33857255504
 21
-947.929151297702
  0
LINE
  5
1EB
100
AcDbEntity
  8
1
  6
CONTINUOUS
 62
           7
100
AcDbLine
 10
11860.083686638611
 20
-842.929151297702
 11
11860.083686638611
 21
-553.379151297701
  0
LINE
  5
1EA
100
AcDbEntity
  8
1
  6
CONTINUOUS
 62
           7
100
AcDbLine
 10
10536.083686638611
 20
-51.83564401889
 11
10536.083686638611
 21
-1642.929151297702
  0
LINE
  5
1E9
100
AcDbEntity
  8
1
  6
CONTINUOUS
 62
           7
100
AcDbLine
 10
11860.083686638611
 20
-39.185642105133
 11
11860.083686638611
 21
-553.379151297701
  0
LINE
  5
1E8
100
AcDbEntity
  8
1
  6
CONTINUOUS
 62
           7
100
AcDbLine
 10
11860.083686638611
 20
-63.929151297701
 11
10536.083686638611
 21
-63.929151297701
  0
LINE
  5
1E7
100
AcDbEntity
  8
1
  6
CONTINUOUS
 62
           7
100
AcDbLine
 10
11942.083686638611
 20
-842.929151297702
 11
11960.083686638611
 21
-842.929151297702
  0
LINE
  5
1E6
100
AcDbEntity
  8
1
  6
CONTINUOUS
 62
           7
100
AcDbLine
 10
11942.083686638611
 20
-1052.929151297702
 11
11942.083686638611
 21
-842.929151297702
  0
LINE
  5
1E5
100
AcDbEntity
  8
1
  6
CONTINUOUS
 62
           7
100
AcDbLine
 10
11960.083686638611
 20
-1052.929151297702
 11
11942.083686638611
 21
-1052.929151297702
  0
LINE
  5
1E4
100
AcDbEntity
  8
1
  6
CONTINUOUS
 62
           7
100
AcDbLine
 10
11960.083686638611
 20
-842.929151297702
 11
11960.083686638611
 21
-1052.929151297702
  0
LINE
  5
1E3
100
AcDbEntity
  8
1
  6
CONTINUOUS
 62
           7
100
AcDbLine
 10
11866.083686638611
 20
-842.929151297702
 11
11860.083686638611
 21
-842.929151297702
  0
LINE
  5
1E2
100
AcDbEntity
  8
1
  6
CONTINUOUS
 62
           7
100
AcDbLine
 10
11942.083686638611
 20
-890.779151297702
 11
11866.083686638611
 21
-890.779151297702
  0
LINE
  5
1E1
100
AcDbEntity
  8
1
  6
CONTINUOUS
 62
           7
100
AcDbLine
 10
11942.083686638611
 20
-1005.079151297701
 11
11866.083686638611
 21
-1005.079151297701
  0
LINE
  5
1E0
100
AcDbEntity
  8
1
  6
CONTINUOUS
 62
           7
100
AcDbLine
 10
11866.083686638611
 20
-1052.929151297702
 11
11860.083686638611
 21
-1052.929151297702
  0
LINE
  5
1DF
100
AcDbEntity
  8
1
  6
CONTINUOUS
 62
           7
100
AcDbLine
 10
11866.083686638611
 20
-890.779151297702
 11
11866.083686638611
 21
-842.929151297702
  0
LINE
  5
1DE
100
AcDbEntity
  8
1
  6
CONTINUOUS
 62
           7
100
AcDbLine
 10
11866.083686638611
 20
-1005.079151297701
 11
11866.083686638611
 21
-1052.929151297702
  0
LINE
  5
1DD
100
AcDbEntity
  8
1
  6
DOT_CENTER
 62
           2
100
AcDbLine
 10
9929.967041944137
 20
-1791.593538214751
 11
9972.92278052395
 21
-1773.800688713239
  0
LINE
  5
1DC
100
AcDbEntity
  8
1
  6
DOT_CENTER
 62
           2
100
AcDbLine
 10
9991.889772982808
 20
-1852.929151297702
 11
10008.8814028998
 21
-1811.90772790528
  0
LINE
  5
1DB
100
AcDbEntity
  8
1
  6
DOT_CENTER
 62
           2
100
AcDbLine
 10
10061.88299116417
 20
-1811.90772790528
 11
10078.874621081161
 21
-1852.929151297702
  0
LINE
  5
1DA
100
AcDbEntity
  8
1
  6
DOT_CENTER
 62
           2
100
AcDbLine
 10
10097.84161354002
 20
-1773.800688713239
 11
10140.797352119829
 21
-1791.593538214751
  0
LINE
  5
1D9
100
AcDbEntity
  8
1
  6
DOT_CENTER
 62
           2
100
AcDbLine
 10
10140.797352119829
 20
-1704.264764380652
 11
10097.84161354002
 21
-1722.057613882164
  0
LINE
  5
1D8
100
AcDbEntity
  8
1
  6
DOT_CENTER
 62
           2
100
AcDbLine
 10
10078.874621081161
 20
-1642.929151297702
 11
10061.88299116417
 21
-1683.950574690123
  0
LINE
  5
1D7
100
AcDbEntity
  8
1
  6
DOT_CENTER
 62
           2
100
AcDbLine
 10
9972.92278052395
 20
-1722.057613882164
 11
9929.967041944137
 21
-1704.264764380652
  0
LINE
  5
1D6
100
AcDbEntity
  8
1
  6
DOT_CENTER
 62
           2
100
AcDbLine
 10
10008.8814028998
 20
-1683.950574690123
 11
9991.889772982808
 21
-1642.929151297702
  0
LINE
  5
1D5
100
AcDbEntity
  8
1
  6
CONTINUOUS
 62
           7
100
AcDbLine
 10
10536.083686638611
 20
-1966.929151297702
 11
10536.083686638611
 21
-1852.929151297702
  0
LINE
  5
1D4
100
AcDbEntity
  8
1
  6
CONTINUOUS
 62
           7
100
AcDbLine
 10
10530.083686638611
 20
-1852.929151297702
 11
10530.083686638611
 21
-1805.079151297702
  0
LINE
  5
1D3
100
AcDbEntity
  8
1
  6
CONTINUOUS
 62
           7
100
AcDbLine
 10
10530.083686638611
 20
-1642.929151297702
 11
10530.083686638611
 21
-1690.779151297702
  0
LINE
  5
1D2
100
AcDbEntity
  8
1
  6
CONTINUOUS
 62
           7
100
AcDbLine
 10
10536.083686638611
 20
-1852.929151297702
 11
10530.083686638611
 21
-1852.929151297702
  0
LINE
  5
1D1
100
AcDbEntity
  8
1
  6
CONTINUOUS
 62
           7
100
AcDbLine
 10
10530.083686638611
 20
-1805.079151297702
 11
10454.083686638611
 21
-1805.079151297702
  0
LINE
  5
1D0
100
AcDbEntity
  8
1
  6
CONTINUOUS
 62
           7
100
AcDbLine
 10
10530.083686638611
 20
-1690.779151297702
 11
10454.083686638611
 21
-1690.779151297702
  0
LINE
  5
1CF
100
AcDbEntity
  8
1
  6
CONTINUOUS
 62
           7
100
AcDbLine
 10
10536.083686638611
 20
-1642.929151297702
 11
10530.083686638611
 21
-1642.929151297702
  0
LINE
  5
1CE
100
AcDbEntity
  8
1
  6
CONTINUOUS
 62
           7
100
AcDbLine
 10
10436.083686638611
 20
-1852.929151297702
 11
10436.083686638611
 21
-1642.929151297702
  0
LINE
  5
1CD
100
AcDbEntity
  8
1
  6
CONTINUOUS
 62
           7
100
AcDbLine
 10
10454.083686638611
 20
-1852.929151297702
 11
10436.083686638611
 21
-1852.929151297702
  0
LINE
  5
1CC
100
AcDbEntity
  8
1
  6
CONTINUOUS
 62
           7
100
AcDbLine
 10
10454.083686638611
 20
-1642.929151297702
 11
10454.083686638611
 21
-1852.929151297702
  0
LINE
  5
1CB
100
AcDbEntity
  8
1
  6
CONTINUOUS
 62
           7
100
AcDbLine
 10
10436.083686638611
 20
-1642.929151297702
 11
10454.083686638611
 21
-1642.929151297702
  0
LINE
  5
1CA
100
AcDbEntity
  8
1
  6
CONTINUOUS
 62
           7
100
AcDbLine
 10
10748.083686638611
 20
-2168.148822471247
 11
11648.083686638611
 21
-2168.148822471247
  0
LINE
  5
1C9
100
AcDbEntity
  8
1
  6
CONTINUOUS
 62
           7
100
AcDbLine
 10
10573.083686638611
 20
-2547.929151297702
 11
10573.083686638611
 21
-2535.929151297702
  0
LINE
  5
1C8
100
AcDbEntity
  8
1
  6
CONTINUOUS
 62
           7
100
AcDbLine
 10
11823.083686638611
 20
-2547.929151297702
 11
10573.083686638611
 21
-2547.929151297702
  0
LINE
  5
1C7
100
AcDbEntity
  8
1
  6
CONTINUOUS
 62
           7
100
AcDbLine
 10
11823.083686638611
 20
-2535.929151297702
 11
11823.083686638611
 21
-2547.929151297702
  0
LINE
  5
1C6
100
AcDbEntity
  8
1
  6
CONTINUOUS
 62
           7
100
AcDbLine
 10
10573.083686638611
 20
-2535.929151297702
 11
11823.083686638611
 21
-2535.929151297702
  0
LINE
  5
1C5
100
AcDbEntity
  8
1
  6
CONTINUOUS
 62
           7
100
AcDbLine
 10
11860.083686638611
 20
-1989.630743082786
 11
11860.083686638611
 21
-1966.929151297702
  0
LINE
  5
1C4
100
AcDbEntity
  8
1
  6
CONTINUOUS
 62
           7
100
AcDbLine
 10
11860.083686638611
 20
-1966.929151297702
 11
11860.083686638611
 21
-1052.929151297702
  0
LINE
  5
1C3
100
AcDbEntity
  8
1
  6
CONTINUOUS
 62
           7
100
AcDbLine
 10
10536.083686638611
 20
-1966.929151297702
 11
10536.083686638611
 21
-1989.630743082786
  0
LINE
  5
1C2
100
AcDbEntity
  8
1
  6
CONTINUOUS
 62
           7
100
AcDbLine
 10
10536.083686638611
 20
-1958.929151297702
 11
11860.083686638611
 21
-1958.929151297702
  0
LINE
  5
1C1
100
AcDbEntity
  8
1
  6
DOT_CENTER
 62
           2
100
AcDbLine
 10
11198.083686638611
 20
-2978.149905329278
 11
11198.083686638611
 21
-4508.96535566252
  0
LINE
  5
1C0
100
AcDbEntity
  8
1
  6
DOT_CENTER
 62
           2
100
AcDbLine
 10
10709.285940277899
 20
-4289.197480556426
 11
11693.04974337567
 21
-3305.433677458657
  0
LINE
  5
1BF
100
AcDbEntity
  8
1
  6
DOT_CENTER
 62
           2
100
AcDbLine
 10
11695.60317086535
 20
-4298.389289419874
 11
10697.04592711949
 21
-3299.832045674014
  0
LINE
  5
1BE
100
AcDbEntity
  8
1
  6
CONTINUOUS
 62
           2
100
AcDbLine
 10
10387.584959780201
 20
-3779.399734195715
 11
10436.08368663862
 21
-3779.399734195715
  0
LINE
  5
1BD
100
AcDbEntity
  8
1
  6
CONTINUOUS
 62
           2
100
AcDbLine
 10
10424.584959780201
 20
-3811.899734195714
 11
10436.08368663862
 21
-3811.899734195714
  0
LINE
  5
1BC
100
AcDbEntity
  8
1
  6
CONTINUOUS
 62
           2
100
AcDbLine
 10
10413.273262117111
 20
-3800.399734195714
 11
10385.584959780201
 21
-3800.399734195714
  0
LINE
  5
1BB
100
AcDbEntity
  8
1
  6
CONTINUOUS
 62
           2
100
AcDbLine
 10
10436.08368663862
 20
-3814.399734195715
 11
10387.584959780201
 21
-3814.399734195715
  0
LINE
  5
1BA
100
AcDbEntity
  8
1
  6
CONTINUOUS
 62
           2
100
AcDbLine
 10
10385.584959780201
 20
-3812.399734195715
 11
10385.584959780201
 21
-3781.399734195715
  0
LINE
  5
1B9
100
AcDbEntity
  8
1
  6
DOT_CENTER
 62
           2
100
AcDbLine
 10
10413.754659780199
 20
-3800.399734195714
 11
10435.4152597802
 21
-3800.399734195714
  0
LINE
  5
1B8
100
AcDbEntity
  8
1
  6
DOT_CENTER
 62
           2
100
AcDbLine
 10
10424.584959780201
 20
-3811.230034195714
 11
10424.584959780201
 21
-3789.569434195714
  0
LINE
  5
1B7
100
AcDbEntity
  8
1
  6
CONTINUOUS
 62
           2
100
AcDbLine
 10
10418.584959780201
 20
-3794.399734195714
 11
10430.584959780201
 21
-3806.399734195714
  0
LINE
  5
1B6
100
AcDbEntity
  8
1
  6
CONTINUOUS
 62
           2
100
AcDbLine
 10
10430.584959780201
 20
-3794.399734195714
 11
10418.584959780201
 21
-3806.399734195714
  0
LINE
  5
1B5
100
AcDbEntity
  8
1
  6
CONTINUOUS
 62
           2
100
AcDbLine
 10
10418.584959780201
 20
-3794.399734195714
 11
10430.584959780201
 21
-3794.399734195714
  0
LINE
  5
1B4
100
AcDbEntity
  8
1
  6
CONTINUOUS
 62
           2
100
AcDbLine
 10
10430.584959780201
 20
-3794.399734195714
 11
10430.584959780201
 21
-3806.399734195714
  0
LINE
  5
1B3
100
AcDbEntity
  8
1
  6
CONTINUOUS
 62
           2
100
AcDbLine
 10
10430.584959780201
 20
-3806.399734195714
 11
10418.584959780201
 21
-3806.399734195714
  0
LINE
  5
1B2
100
AcDbEntity
  8
1
  6
CONTINUOUS
 62
           2
100
AcDbLine
 10
10418.584959780201
 20
-3806.399734195714
 11
10418.584959780201
 21
-3794.399734195714
  0
LINE
  5
1B1
100
AcDbEntity
  8
1
  6
DOT_CENTER
 62
           2
100
AcDbLine
 10
10424.584959780201
 20
-3822.840177680027
 11
10424.584959780201
 21
-3774.725540916962
  0
LINE
  5
1B0
100
AcDbEntity
  8
1
  6
CONTINUOUS
 62
           2
100
AcDbLine
 10
10436.08368663862
 20
-3788.899734195714
 11
10424.584959780201
 21
-3788.899734195714
  0
LINE
  5
1AF
100
AcDbEntity
  8
1
  6
DOT_CENTER
 62
           2
100
AcDbLine
 10
10363.81434306239
 20
-3800.399734195714
 11
10790.658278812631
 21
-3800.399734195714
  0
LINE
  5
1AE
100
AcDbEntity
  8
1
  6
CONTINUOUS
 62
           7
100
AcDbLine
 10
10436.08368663862
 20
-3707.899734195714
 11
10454.08368663862
 21
-3707.899734195714
  0
LINE
  5
1AD
100
AcDbEntity
  8
1
  6
CONTINUOUS
 62
           7
100
AcDbLine
 10
10454.08368663862
 20
-3707.899734195714
 11
10454.08368663862
 21
-3892.899734195714
  0
LINE
  5
1AC
100
AcDbEntity
  8
1
  6
CONTINUOUS
 62
           7
100
AcDbLine
 10
10454.08368663862
 20
-3892.899734195714
 11
10436.08368663862
 21
-3892.899734195714
  0
LINE
  5
1AB
100
AcDbEntity
  8
1
  6
CONTINUOUS
 62
           7
100
AcDbLine
 10
10436.08368663862
 20
-3892.899734195714
 11
10436.08368663862
 21
-3707.899734195714
  0
LINE
  5
1AA
100
AcDbEntity
  8
1
  6
CONTINUOUS
 62
           7
100
AcDbLine
 10
10454.08368663862
 20
-3755.849734195714
 11
10531.577622235291
 21
-3755.849734195714
  0
LINE
  5
1A9
100
AcDbEntity
  8
1
  6
CONTINUOUS
 62
           7
100
AcDbLine
 10
10454.08368663862
 20
-3844.949734195714
 11
10531.577622235291
 21
-3844.949734195715
  0
LINE
  5
1A8
100
AcDbEntity
  8
1
  6
CONTINUOUS
 62
           7
100
AcDbLine
 10
11960.08368663862
 20
-3707.899734195714
 11
11960.08368663862
 21
-3892.899734195714
  0
LINE
  5
1A7
100
AcDbEntity
  8
1
  6
CONTINUOUS
 62
           7
100
AcDbLine
 10
11960.08368663862
 20
-3892.899734195714
 11
11942.08368663862
 21
-3892.899734195714
  0
LINE
  5
1A6
100
AcDbEntity
  8
1
  6
CONTINUOUS
 62
           7
100
AcDbLine
 10
11942.08368663862
 20
-3892.899734195714
 11
11942.08368663862
 21
-3707.899734195714
  0
LINE
  5
1A5
100
AcDbEntity
  8
1
  6
CONTINUOUS
 62
           7
100
AcDbLine
 10
11942.08368663862
 20
-3707.899734195714
 11
11960.08368663862
 21
-3707.899734195714
  0
LINE
  5
1A4
100
AcDbEntity
  8
1
  6
DOT_CENTER
 62
           2
100
AcDbLine
 10
10540.339647353079
 20
-3800.399734195714
 11
12027.32454471126
 21
-3800.399734195714
  0
LINE
  5
1A3
100
AcDbEntity
  8
1
  6
DOTTED
 62
           2
100
AcDbLine
 10
14174.77071698094
 20
-2248.804179670971
 11
14174.77071698094
 21
-2247.83330466042
  0
LINE
  5
1A2
100
AcDbEntity
  8
1
  6
DOTTED
 62
           2
100
AcDbLine
 10
14201.17071698094
 20
-2248.804179670971
 11
14201.17071698094
 21
-2247.83330466042
  0
LINE
  5
1A1
100
AcDbEntity
  8
1
  6
CONTINUOUS
 62
           2
100
AcDbLine
 10
14174.77071698094
 20
-2257.929151297702
 11
14174.77071698094
 21
-2248.804179670971
  0
LINE
  5
1A0
100
AcDbEntity
  8
1
  6
CONTINUOUS
 62
           2
100
AcDbLine
 10
14201.17071698094
 20
-2257.929151297702
 11
14201.17071698094
 21
-2248.804179670971
  0
LINE
  5
19F
100
AcDbEntity
  8
1
  6
CONTINUOUS
 62
           2
100
AcDbLine
 10
14174.77071698094
 20
-2257.929151297702
 11
14201.17071698094
 21
-2257.929151297702
  0
LINE
  5
19E
100
AcDbEntity
  8
1
  6
CONTINUOUS
 62
           2
100
AcDbLine
 10
14190.470716980941
 20
-2305.98384480884
 11
14190.470716980941
 21
-2300.803111270046
  0
LINE
  5
19D
100
AcDbEntity
  8
1
  6
CONTINUOUS
 62
           2
100
AcDbLine
 10
14185.470716980941
 20
-2305.98384480884
 11
14185.470716980941
 21
-2300.803111270046
  0
LINE
  5
19C
100
AcDbEntity
  8
1
  6
CONTINUOUS
 62
           2
100
AcDbLine
 10
14195.470716980941
 20
-2303.393478039442
 11
14199.070716980939
 21
-2303.393478039442
  0
LINE
  5
19B
100
AcDbEntity
  8
1
  6
CONTINUOUS
 62
           2
100
AcDbLine
 10
14187.970716980941
 20
-2295.893478039442
 11
14179.74895711725
 21
-2295.893478039442
  0
LINE
  5
19A
100
AcDbEntity
  8
1
  6
CONTINUOUS
 62
           2
100
AcDbLine
 10
14179.220716980941
 20
-2291.393478039441
 11
14179.220716980941
 21
-2293.779035777927
  0
LINE
  5
199
100
AcDbEntity
  8
1
  6
CONTINUOUS
 62
           2
100
AcDbLine
 10
14181.220716980941
 20
-2289.393478039441
 11
14182.220716980941
 21
-2289.393478039441
  0
LINE
  5
198
100
AcDbEntity
  8
1
  6
DOT_CENTER
 62
           2
100
AcDbLine
 10
14153.46980701746
 20
-2303.393478039442
 11
14223.262239229451
 21
-2303.393478039442
  0
LINE
  5
197
100
AcDbEntity
  8
1
  6
DOT_CENTER
 62
           2
100
AcDbLine
 10
14187.970716980941
 20
-2337.331680955521
 11
14187.970716980941
 21
-2269.825421181651
  0
LINE
  5
196
100
AcDbEntity
  8
1
  6
CONTINUOUS
 62
           2
100
AcDbLine
 10
14181.04251375067
 20
-2303.393478039442
 11
14184.50661536581
 21
-2309.393478039442
  0
LINE
  5
195
100
AcDbEntity
  8
1
  6
CONTINUOUS
 62
           2
100
AcDbLine
 10
14184.50661536581
 20
-2297.393478039442
 11
14181.04251375067
 21
-2303.393478039442
  0
LINE
  5
194
100
AcDbEntity
  8
1
  6
CONTINUOUS
 62
           2
100
AcDbLine
 10
14191.434818596081
 20
-2297.393478039442
 11
14184.50661536581
 21
-2297.393478039442
  0
LINE
  5
193
100
AcDbEntity
  8
1
  6
CONTINUOUS
 62
           2
100
AcDbLine
 10
14194.898920211221
 20
-2303.393478039442
 11
14191.434818596081
 21
-2297.393478039442
  0
LINE
  5
192
100
AcDbEntity
  8
1
  6
CONTINUOUS
 62
           2
100
AcDbLine
 10
14191.434818596081
 20
-2309.393478039442
 11
14194.898920211221
 21
-2303.393478039442
  0
LINE
  5
191
100
AcDbEntity
  8
1
  6
CONTINUOUS
 62
           2
100
AcDbLine
 10
14184.50661536581
 20
-2309.393478039442
 11
14191.434818596081
 21
-2309.393478039442
  0
LINE
  5
190
100
AcDbEntity
  8
1
  6
CONTINUOUS
 62
           2
100
AcDbLine
 10
14194.72966130155
 20
-2332.393478039441
 11
14175.470716980941
 21
-2332.393478039441
  0
LINE
  5
18F
100
AcDbEntity
  8
1
  6
CONTINUOUS
 62
           2
100
AcDbLine
 10
14193.720716980941
 20
-2275.893478039441
 11
14200.470716980941
 21
-2275.893478039442
  0
LINE
  5
18E
100
AcDbEntity
  8
1
  6
CONTINUOUS
 62
           2
100
AcDbLine
 10
14176.470716980941
 20
-2296.443478039442
 11
14176.98517959226
 21
-2296.443478039442
  0
LINE
  5
18D
100
AcDbEntity
  8
1
  6
CONTINUOUS
 62
           2
100
AcDbLine
 10
14157.970716980941
 20
-2297.643478039442
 11
14175.1279174419
 21
-2297.643478039442
  0
LINE
  5
18C
100
AcDbEntity
  8
1
  6
CONTINUOUS
 62
           2
100
AcDbLine
 10
14175.1279174419
 20
-2309.143478039442
 11
14157.970716980941
 21
-2309.143478039442
  0
LINE
  5
18B
100
AcDbEntity
  8
1
  6
CONTINUOUS
 62
           2
100
AcDbLine
 10
14217.970716980941
 20
-2309.143478039442
 11
14200.81351651998
 21
-2309.143478039442
  0
LINE
  5
18A
100
AcDbEntity
  8
1
  6
CONTINUOUS
 62
           2
100
AcDbLine
 10
14217.970716980941
 20
-2297.643478039442
 11
14200.81351651998
 21
-2297.643478039442
  0
LINE
  5
189
100
AcDbEntity
  8
1
  6
CONTINUOUS
 62
           2
100
AcDbLine
 10
14176.470716980941
 20
-2297.331300212951
 11
14176.470716980941
 21
-2296.443478039442
  0
LINE
  5
188
100
AcDbEntity
  8
1
  6
CONTINUOUS
 62
           2
100
AcDbLine
 10
14198.956958376441
 20
-2296.443478039442
 11
14199.470716980941
 21
-2296.443478039442
  0
LINE
  5
187
100
AcDbEntity
  8
1
  6
CONTINUOUS
 62
           2
100
AcDbLine
 10
14199.470716980941
 20
-2297.331300212951
 11
14199.470716980941
 21
-2296.443478039442
  0
LINE
  5
186
100
AcDbEntity
  8
1
  6
CONTINUOUS
 62
           2
100
AcDbLine
 10
14200.06064324701
 20
-2308.171938343872
 11
14200.604473710689
 21
-2308.843478039441
  0
LINE
  5
185
100
AcDbEntity
  8
1
  6
CONTINUOUS
 62
           2
100
AcDbLine
 10
14157.970716980941
 20
-2297.643478039442
 11
14157.970716980941
 21
-2309.143478039442
  0
LINE
  5
184
100
AcDbEntity
  8
1
  6
CONTINUOUS
 62
           2
100
AcDbLine
 10
14217.970716980941
 20
-2297.643478039442
 11
14217.970716980941
 21
-2309.143478039442
  0
LINE
  5
183
100
AcDbEntity
  8
1
  6
CONTINUOUS
 62
           2
100
AcDbLine
 10
14175.336960251199
 20
-2308.843478039441
 11
14175.336960251199
 21
-2322.470702523367
  0
LINE
  5
182
100
AcDbEntity
  8
1
  6
CONTINUOUS
 62
           2
100
AcDbLine
 10
14200.604473710689
 20
-2295.043478039441
 11
14200.604473710689
 21
-2285.816253555521
  0
LINE
  5
181
100
AcDbEntity
  8
1
  6
CONTINUOUS
 62
           2
100
AcDbLine
 10
14199.470716980941
 20
-2296.443478039442
 11
14200.604473710689
 21
-2295.043478039441
  0
LINE
  5
180
100
AcDbEntity
  8
1
  6
CONTINUOUS
 62
           2
100
AcDbLine
 10
14175.336960251199
 20
-2308.843478039441
 11
14175.880790714869
 21
-2308.171938343869
  0
LINE
  5
17F
100
AcDbEntity
  8
1
  6
CONTINUOUS
 62
           2
100
AcDbLine
 10
14175.336960251199
 20
-2295.043478039441
 11
14176.470716980941
 21
-2296.443478039442
  0
LINE
  5
17E
100
AcDbEntity
  8
1
  6
CONTINUOUS
 62
           2
100
AcDbLine
 10
14200.604473710689
 20
-2322.470702523367
 11
14200.604473710689
 21
-2308.843478039441
  0
LINE
  5
17D
100
AcDbEntity
  8
1
  6
CONTINUOUS
 62
           2
100
AcDbLine
 10
14175.336960251199
 20
-2285.816253555518
 11
14175.336960251199
 21
-2295.043478039441
  0
LINE
  5
17C
100
AcDbEntity
  8
1
  6
CONTINUOUS
 62
           2
100
AcDbLine
 10
14200.604473710689
 20
-2322.470702523367
 11
14202.404473710691
 21
-2323.509933007907
  0
LINE
  5
17B
100
AcDbEntity
  8
1
  6
CONTINUOUS
 62
           2
100
AcDbLine
 10
14173.5369602512
 20
-2323.509933007907
 11
14175.336960251199
 21
-2322.470702523367
  0
LINE
  5
17A
100
AcDbEntity
  8
1
  6
CONTINUOUS
 62
           2
100
AcDbLine
 10
14175.336960251199
 20
-2285.816253555518
 11
14173.5369602512
 21
-2284.777023070981
  0
LINE
  5
179
100
AcDbEntity
  8
1
  6
CONTINUOUS
 62
           2
100
AcDbLine
 10
14202.404473710691
 20
-2284.777023070981
 11
14200.604473710689
 21
-2285.816253555521
  0
LINE
  5
178
100
AcDbEntity
  8
1
  6
CONTINUOUS
 62
           2
100
AcDbLine
 10
14180.75383861607
 20
-2277.009933007904
 11
14180.75383861607
 21
-2289.448735230631
  0
LINE
  5
177
100
AcDbEntity
  8
1
  6
CONTINUOUS
 62
           2
100
AcDbLine
 10
14195.18759534582
 20
-2277.009933007904
 11
14195.18759534582
 21
-2292.580676983903
  0
LINE
  5
176
100
AcDbEntity
  8
1
  6
CONTINUOUS
 62
           2
100
AcDbLine
 10
14173.5369602512
 20
-2277.009933007904
 11
14173.5369602512
 21
-2284.777023070981
  0
LINE
  5
175
100
AcDbEntity
  8
1
  6
CONTINUOUS
 62
           2
100
AcDbLine
 10
14175.470716980941
 20
-2275.893478039441
 11
14194.31688230353
 21
-2275.893478039441
  0
LINE
  5
174
100
AcDbEntity
  8
1
  6
CONTINUOUS
 62
           2
100
AcDbLine
 10
14202.404473710691
 20
-2277.009933007904
 11
14202.404473710691
 21
-2284.777023070981
  0
LINE
  5
173
100
AcDbEntity
  8
1
  6
CONTINUOUS
 62
           2
100
AcDbLine
 10
14173.5369602512
 20
-2277.009933007904
 11
14175.470716980941
 21
-2275.893478039441
  0
LINE
  5
172
100
AcDbEntity
  8
1
  6
CONTINUOUS
 62
           2
100
AcDbLine
 10
14200.470716980941
 20
-2275.893478039442
 11
14202.404473710691
 21
-2277.009933007904
  0
LINE
  5
171
100
AcDbEntity
  8
1
  6
CONTINUOUS
 62
           2
100
AcDbLine
 10
14180.75383861607
 20
-2331.277023070978
 11
14180.75383861607
 21
-2314.206279094982
  0
LINE
  5
170
100
AcDbEntity
  8
1
  6
CONTINUOUS
 62
           2
100
AcDbLine
 10
14195.18759534582
 20
-2331.277023070978
 11
14195.18759534582
 21
-2314.206279094982
  0
LINE
  5
16F
100
AcDbEntity
  8
1
  6
CONTINUOUS
 62
           2
100
AcDbLine
 10
14173.5369602512
 20
-2331.277023070978
 11
14173.5369602512
 21
-2323.509933007907
  0
LINE
  5
16E
100
AcDbEntity
  8
1
  6
CONTINUOUS
 62
           2
100
AcDbLine
 10
14200.470716980941
 20
-2332.393478039441
 11
14193.720716980941
 21
-2332.393478039441
  0
LINE
  5
16D
100
AcDbEntity
  8
1
  6
CONTINUOUS
 62
           2
100
AcDbLine
 10
14202.404473710691
 20
-2331.277023070978
 11
14202.404473710691
 21
-2323.509933007907
  0
LINE
  5
16C
100
AcDbEntity
  8
1
  6
CONTINUOUS
 62
           2
100
AcDbLine
 10
14175.470716980941
 20
-2332.393478039441
 11
14173.5369602512
 21
-2331.277023070978
  0
LINE
  5
16B
100
AcDbEntity
  8
1
  6
CONTINUOUS
 62
           2
100
AcDbLine
 10
14202.404473710691
 20
-2331.277023070978
 11
14200.470716980941
 21
-2332.393478039441
  0
LINE
  5
16A
100
AcDbEntity
  8
1
  6
CONTINUOUS
 62
           2
100
AcDbLine
 10
14174.77071698094
 20
-2258.213478039442
 11
14201.17071698094
 21
-2258.213478039442
  0
LINE
  5
169
100
AcDbEntity
  8
1
  6
CONTINUOUS
 62
           2
100
AcDbLine
 10
14177.49321698094
 20
-2275.893478039442
 11
14177.12071698094
 21
-2268.553478039442
  0
LINE
  5
168
100
AcDbEntity
  8
1
  6
CONTINUOUS
 62
           2
100
AcDbLine
 10
14198.44821698094
 20
-2275.893478039442
 11
14198.820716980939
 21
-2268.553478039442
  0
LINE
  5
167
100
AcDbEntity
  8
1
  6
CONTINUOUS
 62
           2
100
AcDbLine
 10
14198.820716980939
 20
-2265.553478039442
 11
14198.44821698094
 21
-2258.213478039442
  0
LINE
  5
166
100
AcDbEntity
  8
1
  6
CONTINUOUS
 62
           2
100
AcDbLine
 10
14177.12071698094
 20
-2265.553478039442
 11
14177.49321698094
 21
-2258.213478039442
  0
LINE
  5
165
100
AcDbEntity
  8
1
  6
CONTINUOUS
 62
           2
100
AcDbLine
 10
14177.12071698094
 20
-2265.553478039442
 11
14177.12071698094
 21
-2268.553478039442
  0
LINE
  5
164
100
AcDbEntity
  8
1
  6
CONTINUOUS
 62
           2
100
AcDbLine
 10
14198.820716980939
 20
-2268.553478039442
 11
14177.12071698094
 21
-2268.553478039442
  0
LINE
  5
163
100
AcDbEntity
  8
1
  6
CONTINUOUS
 62
           2
100
AcDbLine
 10
14177.12071698094
 20
-2265.553478039442
 11
14198.820716980939
 21
-2265.553478039442
  0
LINE
  5
162
100
AcDbEntity
  8
1
  6
CONTINUOUS
 62
           2
100
AcDbLine
 10
14198.820716980939
 20
-2265.553478039442
 11
14198.820716980939
 21
-2268.553478039442
  0
LINE
  5
161
100
AcDbEntity
  8
1
  6
CONTINUOUS
 62
           2
100
AcDbLine
 10
14175.470716980941
 20
-2275.893478039441
 11
14200.470716980941
 21
-2275.893478039442
  0
LINE
  5
160
100
AcDbEntity
  8
1
  6
CONTINUOUS
 62
           2
100
AcDbLine
 10
14187.970716980941
 20
-2285.193689737651
 11
14187.970716980941
 21
-2277.009933007903
  0
LINE
  5
15F
100
AcDbEntity
  8
1
  6
DOT_CENTER
 62
           2
100
AcDbLine
 10
14187.970716980941
 20
-2335.621057862212
 11
14187.970716980941
 21
-2272.180954657491
  0
LINE
  5
15E
100
AcDbEntity
  8
1
  6
DOTTED
 62
           2
100
AcDbLine
 10
14174.77071698094
 20
-2249.088506412712
 11
14174.77071698094
 21
-2248.11763140216
  0
LINE
  5
15D
100
AcDbEntity
  8
1
  6
DOTTED
 62
           2
100
AcDbLine
 10
14201.17071698094
 20
-2249.088506412712
 11
14201.17071698094
 21
-2248.11763140216
  0
LINE
  5
15C
100
AcDbEntity
  8
1
  6
CONTINUOUS
 62
           2
100
AcDbLine
 10
14174.77071698094
 20
-2258.213478039442
 11
14174.77071698094
 21
-2249.088506412712
  0
LINE
  5
15B
100
AcDbEntity
  8
1
  6
CONTINUOUS
 62
           2
100
AcDbLine
 10
14201.17071698094
 20
-2258.213478039442
 11
14201.17071698094
 21
-2249.088506412712
  0
LINE
  5
15A
100
AcDbEntity
  8
1
  6
CONTINUOUS
 62
           2
100
AcDbLine
 10
14174.77071698094
 20
-2258.213478039442
 11
14201.17071698094
 21
-2258.213478039442
  0
LINE
  5
159
100
AcDbEntity
  8
1
  6
DOT_CENTER
 62
           2
100
AcDbLine
 10
10397.54047507926
 20
-947.929151297702
 11
10572.393207041519
 21
-947.929151297702
  0
LINE
  5
158
100
AcDbEntity
  8
1
  6
CONTINUOUS
 62
           2
100
AcDbLine
 10
10432.084243016539
 20
-977.577878156119
 11
10415.00661801654
 21
-977.577878156119
  0
LINE
  5
157
100
AcDbEntity
  8
1
  6
DOT_CENTER
 62
           2
100
AcDbLine
 10
10423.54543051654
 20
-990.472256156605
 11
10423.54543051654
 21
-959.792529189931
  0
LINE
  5
156
100
AcDbEntity
  8
1
  6
CONTINUOUS
 62
           2
100
AcDbLine
 10
10417.54543051654
 20
-986.577878156119
 11
10417.54543051654
 21
-977.577878156119
  0
LINE
  5
155
100
AcDbEntity
  8
1
  6
CONTINUOUS
 62
           2
100
AcDbLine
 10
10429.54543051654
 20
-986.577878156119
 11
10417.54543051654
 21
-986.577878156119
  0
LINE
  5
154
100
AcDbEntity
  8
1
  6
CONTINUOUS
 62
           2
100
AcDbLine
 10
10429.54543051654
 20
-977.577878156119
 11
10429.54543051654
 21
-986.577878156119
  0
LINE
  5
153
100
AcDbEntity
  8
1
  6
CONTINUOUS
 62
           2
100
AcDbLine
 10
10431.87643051654
 20
-970.927878156119
 11
10432.084243016539
 21
-977.577878156119
  0
LINE
  5
152
100
AcDbEntity
  8
1
  6
CONTINUOUS
 62
           2
100
AcDbLine
 10
10415.21443051654
 20
-970.927878156119
 11
10415.00661801654
 21
-977.577878156119
  0
LINE
  5
151
100
AcDbEntity
  8
1
  6
CONTINUOUS
 62
           2
100
AcDbLine
 10
10425.4715943547
 20
-875.075561870836
 11
10423.54543051654
 21
-873.91820587469
  0
LINE
  5
150
100
AcDbEntity
  8
1
  6
CONTINUOUS
 62
           2
100
AcDbLine
 10
10423.54543051654
 20
-873.91820587469
 11
10425.5108121295
 21
-875.007634692316
  0
LINE
  5
14F
100
AcDbEntity
  8
1
  6
CONTINUOUS
 62
           2
100
AcDbLine
 10
10421.58004890357
 20
-875.007634692316
 11
10423.54543051654
 21
-873.91820587469
  0
LINE
  5
14E
100
AcDbEntity
  8
1
  6
CONTINUOUS
 62
           2
100
AcDbLine
 10
10423.54543051654
 20
-873.91820587469
 11
10421.619266678381
 21
-875.075561870836
  0
LINE
  5
14D
100
AcDbEntity
  8
1
  6
DOT_CENTER
 62
           2
100
AcDbLine
 10
10423.54543051654
 20
-872.248350674985
 11
10423.54543051654
 21
-959.792529189931
  0
LINE
  5
14C
100
AcDbEntity
  8
1
  6
CONTINUOUS
 62
           2
100
AcDbLine
 10
10423.54543051654
 20
-873.91820587469
 11
10423.50621274174
 21
-871.671421060921
  0
LINE
  5
14B
100
AcDbEntity
  8
1
  6
CONTINUOUS
 62
           2
100
AcDbLine
 10
10423.58464829134
 20
-871.671421060921
 11
10423.54543051654
 21
-873.91820587469
  0
LINE
  5
14A
100
AcDbEntity
  8
1
  6
DOT_CENTER
 62
           2
100
AcDbLine
 10
10423.54543051654
 20
-815.115590766568
 11
10423.54543051654
 21
-870.00122361288
  0
LINE
  5
149
100
AcDbEntity
  8
1
  6
DOT_CENTER
 62
           2
100
AcDbLine
 10
10377.90823707468
 20
-861.280424439286
 11
10471.32499858228
 21
-861.280424439286
  0
LINE
  5
148
100
AcDbEntity
  8
1
  6
CONTINUOUS
 62
           7
100
AcDbLine
 10
10422.22653950383
 20
-864.642068375423
 11
10402.361818142441
 21
-882.313940415838
  0
LINE
  5
147
100
AcDbEntity
  8
1
  6
CONTINUOUS
 62
           7
100
AcDbLine
 10
10420.183786580399
 20
-862.599315451995
 11
10402.1577836305
 21
-882.109905903899
  0
LINE
  5
146
100
AcDbEntity
  8
1
  6
CONTINUOUS
 62
           7
100
AcDbLine
 10
10443.765430695679
 20
-881.501242036989
 11
10447.90684141272
 21
-885.642652754021
  0
LINE
  5
145
100
AcDbEntity
  8
1
  6
CONTINUOUS
 62
           7
100
AcDbLine
 10
10403.15144923622
 20
-881.32027481012
 11
10399.010828718639
 21
-885.460895327696
  0
LINE
  5
144
100
AcDbEntity
  8
1
  6
CONTINUOUS
 62
           7
100
AcDbLine
 10
10420.84543051654
 20
-822.292289452668
 11
10420.84543051654
 21
-821.001877782216
  0
LINE
  5
143
100
AcDbEntity
  8
1
  6
CONTINUOUS
 62
           7
100
AcDbLine
 10
10420.84543051654
 20
-821.001877782216
 11
10426.245430516539
 21
-821.001877782216
  0
LINE
  5
142
100
AcDbEntity
  8
1
  6
CONTINUOUS
 62
           7
100
AcDbLine
 10
10426.245430516539
 20
-821.001877782216
 11
10426.245430516539
 21
-822.298451045547
  0
LINE
  5
141
100
AcDbEntity
  8
1
  6
CONTINUOUS
 62
           7
100
AcDbLine
 10
10390.013185884
 20
-883.757966358037
 11
10387.313185884001
 21
-879.081429177601
  0
LINE
  5
140
100
AcDbEntity
  8
1
  6
CONTINUOUS
 62
           7
100
AcDbLine
 10
10459.73380355794
 20
-879.056099902651
 11
10457.03380355795
 21
-883.732637083087
  0
LINE
  5
13F
100
AcDbEntity
  8
1
  6
CONTINUOUS
 62
           7
100
AcDbLine
 10
10390.013185884
 20
-883.757966358037
 11
10391.14744464439
 21
-883.103101757398
  0
LINE
  5
13E
100
AcDbEntity
  8
1
  6
CONTINUOUS
 62
           7
100
AcDbLine
 10
10459.73380355794
 20
-879.056099902651
 11
10458.6075732276
 21
-878.405870518257
  0
LINE
  5
13D
100
AcDbEntity
  8
1
  6
CONTINUOUS
 62
           7
100
AcDbLine
 10
10387.313185884001
 20
-879.081429177601
 11
10388.441232300451
 21
-878.430151275405
  0
LINE
  5
13C
100
AcDbEntity
  8
1
  6
CONTINUOUS
 62
           7
100
AcDbLine
 10
10457.03380355795
 20
-883.732637083087
 11
10455.910938174031
 21
-883.084350451422
  0
LINE
  5
13B
100
AcDbEntity
  8
1
  6
DOT_CENTER
 62
           2
100
AcDbLine
 10
10455.58642241409
 20
-879.779299736437
 11
10461.24229121303
 21
-883.04471711001
  0
LINE
  5
13A
100
AcDbEntity
  8
1
  6
DOT_CENTER
 62
           2
100
AcDbLine
 10
10385.805728777959
 20
-883.06945139719
 11
10391.738204603531
 21
-879.644334882336
  0
LINE
  5
139
100
AcDbEntity
  8
1
  6
CONTINUOUS
 62
           2
100
AcDbLine
 10
10414.53755918919
 20
-901.280424439286
 11
10416.54543051654
 21
-901.280424439286
  0
LINE
  5
138
100
AcDbEntity
  8
1
  6
CONTINUOUS
 62
           2
100
AcDbLine
 10
10414.54543051654
 20
-899.248904030507
 11
10414.54543051654
 21
-901.280424439286
  0
LINE
  5
137
100
AcDbEntity
  8
1
  6
CONTINUOUS
 62
           2
100
AcDbLine
 10
10432.54543051654
 20
-899.248904030507
 11
10432.54543051654
 21
-901.280424439286
  0
LINE
  5
136
100
AcDbEntity
  8
1
  6
CONTINUOUS
 62
           2
100
AcDbLine
 10
10430.54543051654
 20
-901.280424439286
 11
10432.54543051654
 21
-901.280424439286
  0
LINE
  5
135
100
AcDbEntity
  8
1
  6
CONTINUOUS
 62
           2
100
AcDbLine
 10
10416.54543051654
 20
-901.280424439286
 11
10416.54543051654
 21
-913.280424439286
  0
LINE
  5
134
100
AcDbEntity
  8
1
  6
CONTINUOUS
 62
           2
100
AcDbLine
 10
10430.54543051654
 20
-901.280424439286
 11
10430.54543051654
 21
-913.280424439286
  0
LINE
  5
133
100
AcDbEntity
  8
1
  6
CONTINUOUS
 62
           2
100
AcDbLine
 10
10432.240493016539
 20
-913.280424439286
 11
10432.19543051654
 21
-914.722424439284
  0
LINE
  5
132
100
AcDbEntity
  8
1
  6
CONTINUOUS
 62
           2
100
AcDbLine
 10
10414.85036801654
 20
-913.280424439286
 11
10432.240493016539
 21
-913.280424439286
  0
LINE
  5
131
100
AcDbEntity
  8
1
  6
CONTINUOUS
 62
           2
100
AcDbLine
 10
10414.85036801654
 20
-913.280424439286
 11
10414.895430516541
 21
-914.722424439285
  0
LINE
  5
130
100
AcDbEntity
  8
1
  6
CONTINUOUS
 62
           2
100
AcDbLine
 10
10415.01525551654
 20
-918.556824439285
 11
10423.54543051654
 21
-918.556824439285
  0
LINE
  5
12F
100
AcDbEntity
  8
1
  6
CONTINUOUS
 62
           2
100
AcDbLine
 10
10415.95480551654
 20
-921.230424439284
 11
10423.54543051654
 21
-921.230424439284
  0
LINE
  5
12E
100
AcDbEntity
  8
1
  6
CONTINUOUS
 62
           2
100
AcDbLine
 10
10431.87643051654
 20
-924.930424439284
 11
10432.07560551654
 21
-918.556824439285
  0
LINE
  5
12D
100
AcDbEntity
  8
1
  6
CONTINUOUS
 62
           2
100
AcDbLine
 10
10431.020430516541
 20
-924.930424439284
 11
10431.136055516539
 21
-921.230424439284
  0
LINE
  5
12C
100
AcDbEntity
  8
1
  6
CONTINUOUS
 62
           2
100
AcDbLine
 10
10416.07043051654
 20
-924.930424439284
 11
10415.95480551654
 21
-921.230424439284
  0
LINE
  5
12B
100
AcDbEntity
  8
1
  6
CONTINUOUS
 62
           2
100
AcDbLine
 10
10415.21443051654
 20
-924.930424439284
 11
10415.01525551654
 21
-918.556824439285
  0
LINE
  5
12A
100
AcDbEntity
  8
1
  6
CONTINUOUS
 62
           2
100
AcDbLine
 10
10415.95480551654
 20
-921.230424439284
 11
10415.01525551654
 21
-918.556824439285
  0
LINE
  5
129
100
AcDbEntity
  8
1
  6
CONTINUOUS
 62
           2
100
AcDbLine
 10
10415.01525551654
 20
-918.556824439285
 11
10414.895430516541
 21
-914.722424439285
  0
LINE
  5
128
100
AcDbEntity
  8
1
  6
CONTINUOUS
 62
           2
100
AcDbLine
 10
10432.07560551654
 20
-918.556824439285
 11
10432.19543051654
 21
-914.722424439284
  0
LINE
  5
127
100
AcDbEntity
  8
1
  6
CONTINUOUS
 62
           2
100
AcDbLine
 10
10432.07560551654
 20
-918.556824439285
 11
10431.136055516539
 21
-921.230424439284
  0
LINE
  5
126
100
AcDbEntity
  8
1
  6
CONTINUOUS
 62
           2
100
AcDbLine
 10
10423.54543051654
 20
-921.230424439284
 11
10431.136055516539
 21
-921.230424439284
  0
LINE
  5
125
100
AcDbEntity
  8
1
  6
CONTINUOUS
 62
           2
100
AcDbLine
 10
10423.54543051654
 20
-918.556824439285
 11
10432.07560551654
 21
-918.556824439285
  0
LINE
  5
124
100
AcDbEntity
  8
1
  6
CONTINUOUS
 62
           7
100
AcDbLine
 10
10536.083686638611
 20
-937.279151297702
 11
10521.083686638611
 21
-937.279151297702
  0
LINE
  5
123
100
AcDbEntity
  8
1
  6
CONTINUOUS
 62
           7
100
AcDbLine
 10
10536.083686638611
 20
-958.579151297701
 11
10521.083686638611
 21
-958.579151297701
  0
LINE
  5
122
100
AcDbEntity
  8
1
  6
CONTINUOUS
 62
           2
100
AcDbLine
 10
10521.083686638611
 20
-937.279151297702
 11
10521.083686638611
 21
-958.579151297701
  0
LINE
  5
121
100
AcDbEntity
  8
1
  6
CONTINUOUS
 62
           2
100
AcDbLine
 10
10461.844157374961
 20
-956.260151297702
 11
10455.444157374959
 21
-956.579151297701
  0
LINE
  5
120
100
AcDbEntity
  8
1
  6
CONTINUOUS
 62
           2
100
AcDbLine
 10
10446.544157374959
 20
-939.598151297702
 11
10452.944157374959
 21
-939.279151297702
  0
LINE
  5
11F
100
AcDbEntity
  8
1
  6
CONTINUOUS
 62
           2
100
AcDbLine
 10
10452.944157374959
 20
-956.579151297701
 11
10446.544157374959
 21
-956.260151297702
  0
LINE
  5
11E
100
AcDbEntity
  8
1
  6
CONTINUOUS
 62
           2
100
AcDbLine
 10
10455.444157374959
 20
-939.279151297702
 11
10461.844157374961
 21
-939.598151297702
  0
LINE
  5
11D
100
AcDbEntity
  8
1
  6
CONTINUOUS
 62
           2
100
AcDbLine
 10
10455.444157374959
 20
-939.279151297702
 11
10452.944157374959
 21
-939.279151297702
  0
LINE
  5
11C
100
AcDbEntity
  8
1
  6
CONTINUOUS
 62
           2
100
AcDbLine
 10
10452.944157374959
 20
-956.579151297701
 11
10455.444157374959
 21
-956.579151297701
  0
LINE
  5
11B
100
AcDbEntity
  8
1
  6
CONTINUOUS
 62
           2
100
AcDbLine
 10
10455.444157374959
 20
-956.579151297701
 11
10455.444157374959
 21
-939.279151297702
  0
LINE
  5
11A
100
AcDbEntity
  8
1
  6
CONTINUOUS
 62
           2
100
AcDbLine
 10
10452.944157374959
 20
-939.279151297702
 11
10452.944157374959
 21
-956.579151297701
  0
LINE
  5
119
100
AcDbEntity
  8
1
  6
CONTINUOUS
 62
           2
100
AcDbLine
 10
10512.183686638609
 20
-939.279151297702
 11
10512.183686638609
 21
-956.579151297701
  0
LINE
  5
118
100
AcDbEntity
  8
1
  6
CONTINUOUS
 62
           2
100
AcDbLine
 10
10514.683686638609
 20
-956.579151297701
 11
10514.683686638609
 21
-939.279151297702
  0
LINE
  5
117
100
AcDbEntity
  8
1
  6
CONTINUOUS
 62
           2
100
AcDbLine
 10
10512.183686638609
 20
-956.579151297701
 11
10514.683686638609
 21
-956.579151297701
  0
LINE
  5
116
100
AcDbEntity
  8
1
  6
CONTINUOUS
 62
           2
100
AcDbLine
 10
10514.683686638609
 20
-939.279151297702
 11
10512.183686638609
 21
-939.279151297702
  0
LINE
  5
115
100
AcDbEntity
  8
1
  6
CONTINUOUS
 62
           2
100
AcDbLine
 10
10514.683686638609
 20
-939.279151297702
 11
10521.083686638611
 21
-939.598151297702
  0
LINE
  5
114
100
AcDbEntity
  8
1
  6
CONTINUOUS
 62
           2
100
AcDbLine
 10
10512.183686638609
 20
-956.579151297701
 11
10505.78368663861
 21
-956.260151297702
  0
LINE
  5
113
100
AcDbEntity
  8
1
  6
CONTINUOUS
 62
           2
100
AcDbLine
 10
10505.78368663861
 20
-939.598151297702
 11
10512.183686638609
 21
-939.279151297702
  0
LINE
  5
112
100
AcDbEntity
  8
1
  6
CONTINUOUS
 62
           2
100
AcDbLine
 10
10521.083686638611
 20
-956.260151297702
 11
10514.683686638609
 21
-956.579151297701
  0
LINE
  5
111
100
AcDbEntity
  8
1
  6
CONTINUOUS
 62
           2
100
AcDbLine
 10
10498.33062102614
 20
-942.366973471211
 11
10496.38964997063
 21
-942.366973471211
  0
LINE
  5
110
100
AcDbEntity
  8
1
  6
CONTINUOUS
 62
           2
100
AcDbLine
 10
10498.33062102614
 20
-953.491329124192
 11
10492.092431356141
 21
-953.491329124192
  0
LINE
  5
10F
100
AcDbEntity
  8
1
  6
CONTINUOUS
 62
           2
100
AcDbLine
 10
10469.09551589729
 20
-942.366973471211
 11
10475.53048647727
 21
-942.366973471211
  0
LINE
  5
10E
100
AcDbEntity
  8
1
  6
CONTINUOUS
 62
           2
100
AcDbLine
 10
10469.09551589729
 20
-953.491329124192
 11
10475.530486477261
 21
-953.491329124192
  0
LINE
  5
10D
100
AcDbEntity
  8
1
  6
CONTINUOUS
 62
           2
100
AcDbLine
 10
10492.344157374961
 20
-939.429151297702
 11
10494.844157374961
 21
-939.429151297702
  0
LINE
  5
10C
100
AcDbEntity
  8
1
  6
CONTINUOUS
 62
           2
100
AcDbLine
 10
10492.344157374961
 20
-942.593935401301
 11
10492.344157374961
 21
-939.429151297702
  0
LINE
  5
10B
100
AcDbEntity
  8
1
  6
CONTINUOUS
 62
           2
100
AcDbLine
 10
10498.481979548469
 20
-941.866973471211
 11
10504.906335201449
 21
-941.866973471211
  0
LINE
  5
10A
100
AcDbEntity
  8
1
  6
CONTINUOUS
 62
           2
100
AcDbLine
 10
10498.481979548469
 20
-953.991329124192
 11
10504.906335201449
 21
-953.991329124192
  0
LINE
  5
109
100
AcDbEntity
  8
1
  6
CONTINUOUS
 62
           2
100
AcDbLine
 10
10468.944157374959
 20
-960.053506950682
 11
10462.78197954847
 21
-960.053506950682
  0
LINE
  5
108
100
AcDbEntity
  8
1
  6
CONTINUOUS
 62
           2
100
AcDbLine
 10
10497.544157374959
 20
-958.429151297702
 11
10469.881979548471
 21
-958.429151297702
  0
LINE
  5
107
100
AcDbEntity
  8
1
  6
CONTINUOUS
 62
           2
100
AcDbLine
 10
10468.944157374959
 20
-935.804795644721
 11
10462.78197954847
 21
-935.804795644721
  0
LINE
  5
106
100
AcDbEntity
  8
1
  6
CONTINUOUS
 62
           2
100
AcDbLine
 10
10497.544157374959
 20
-937.429151297702
 11
10469.881979548471
 21
-937.429151297702
  0
LINE
  5
105
100
AcDbEntity
  8
1
  6
CONTINUOUS
 62
           2
100
AcDbLine
 10
10468.944157374959
 20
-935.804795644721
 11
10469.881979548471
 21
-937.429151297702
  0
LINE
  5
104
100
AcDbEntity
  8
1
  6
CONTINUOUS
 62
           2
100
AcDbLine
 10
10469.881979548471
 20
-958.429151297702
 11
10468.944157374959
 21
-960.053506950682
  0
LINE
  5
103
100
AcDbEntity
  8
1
  6
CONTINUOUS
 62
           2
100
AcDbLine
 10
10498.481979548469
 20
-960.053506950682
 11
10497.544157374959
 21
-958.429151297702
  0
LINE
  5
102
100
AcDbEntity
  8
1
  6
CONTINUOUS
 62
           2
100
AcDbLine
 10
10497.544157374959
 20
-937.429151297702
 11
10498.481979548469
 21
-935.804795644721
  0
LINE
  5
101
100
AcDbEntity
  8
1
  6
CONTINUOUS
 62
           2
100
AcDbLine
 10
10481.608089397459
 20
-949.929151297702
 11
10486.08022535246
 21
-949.929151297702
  0
LINE
  5
100
100
AcDbEntity
  8
1
  6
CONTINUOUS
 62
           2
100
AcDbLine
 10
10481.608089397459
 20
-945.929151297702
 11
10486.08022535246
 21
-945.929151297702
  0
LINE
  5
FF
100
AcDbEntity
  8
1
  6
CONTINUOUS
 62
           2
100
AcDbLine
 10
10490.094157374961
 20
-947.929151297702
 11
10492.344157374961
 21
-947.929151297702
  0
LINE
  5
FE
100
AcDbEntity
  8
1
  6
CONTINUOUS
 62
           2
100
AcDbLine
 10
10483.844157374961
 20
-941.679151297702
 11
10478.12801389812
 21
-941.679151297702
  0
LINE
  5
FD
100
AcDbEntity
  8
1
  6
CONTINUOUS
 62
           2
100
AcDbLine
 10
10483.844157374961
 20
-942.155648605803
 11
10478.844157374961
 21
-945.04239995175
  0
LINE
  5
FC
100
AcDbEntity
  8
1
  6
CONTINUOUS
 62
           2
100
AcDbLine
 10
10488.844157374961
 20
-945.04239995175
 11
10483.844157374961
 21
-942.155648605803
  0
LINE
  5
FB
100
AcDbEntity
  8
1
  6
CONTINUOUS
 62
           2
100
AcDbLine
 10
10488.844157374961
 20
-950.81590264365
 11
10488.844157374961
 21
-945.04239995175
  0
LINE
  5
FA
100
AcDbEntity
  8
1
  6
CONTINUOUS
 62
           2
100
AcDbLine
 10
10483.844157374961
 20
-953.702653989602
 11
10488.844157374961
 21
-950.81590264365
  0
LINE
  5
F9
100
AcDbEntity
  8
1
  6
CONTINUOUS
 62
           2
100
AcDbLine
 10
10478.844157374961
 20
-950.81590264365
 11
10483.844157374961
 21
-953.702653989602
  0
LINE
  5
F8
100
AcDbEntity
  8
1
  6
CONTINUOUS
 62
           2
100
AcDbLine
 10
10478.844157374961
 20
-945.04239995175
 11
10478.844157374961
 21
-950.81590264365
  0
LINE
  5
F7
100
AcDbEntity
  8
1
  6
CONTINUOUS
 62
           2
100
AcDbLine
 10
10483.844157374961
 20
-938.929151297702
 11
10483.844157374961
 21
-956.929151297702
  0
LINE
  5
F6
100
AcDbEntity
  8
1
  6
DOT_CENTER
 62
           2
100
AcDbLine
 10
10483.844157374961
 20
-932.532756947201
 11
10483.844157374961
 21
-963.281603031401
  0
LINE
  5
F5
100
AcDbEntity
  8
1
  6
CONTINUOUS
 62
           2
100
AcDbLine
 10
10463.844157374961
 20
-952.2791512977
 11
10473.12140119942
 21
-952.2791512977
  0
LINE
  5
F4
100
AcDbEntity
  8
1
  6
CONTINUOUS
 62
           2
100
AcDbLine
 10
10463.844157374961
 20
-943.5791512977
 11
10463.844157374961
 21
-952.2791512977
  0
LINE
  5
F3
100
AcDbEntity
  8
1
  6
CONTINUOUS
 62
           2
100
AcDbLine
 10
10463.844157374961
 20
-943.5791512977
 11
10473.12140119942
 21
-943.5791512977
  0
LINE
  5
F2
100
AcDbEntity
  8
1
  6
CONTINUOUS
 62
           2
100
AcDbLine
 10
10503.844157374961
 20
-952.2791512977
 11
10494.5669135505
 21
-952.2791512977
  0
LINE
  5
F1
100
AcDbEntity
  8
1
  6
CONTINUOUS
 62
           2
100
AcDbLine
 10
10503.844157374961
 20
-943.5791512977
 11
10503.844157374961
 21
-952.2791512977
  0
LINE
  5
F0
100
AcDbEntity
  8
1
  6
CONTINUOUS
 62
           2
100
AcDbLine
 10
10503.844157374961
 20
-943.5791512977
 11
10494.5669135505
 21
-943.5791512977
  0
LINE
  5
EF
100
AcDbEntity
  8
1
  6
CONTINUOUS
 62
           2
100
AcDbLine
 10
10504.906335201449
 20
-935.804795644721
 11
10498.481979548469
 21
-935.804795644721
  0
LINE
  5
EE
100
AcDbEntity
  8
1
  6
CONTINUOUS
 62
           2
100
AcDbLine
 10
10505.844157374961
 20
-937.429151297702
 11
10505.844157374961
 21
-958.429151297702
  0
LINE
  5
ED
100
AcDbEntity
  8
1
  6
CONTINUOUS
 62
           2
100
AcDbLine
 10
10504.906335201449
 20
-960.053506950682
 11
10498.481979548469
 21
-960.053506950682
  0
LINE
  5
EC
100
AcDbEntity
  8
1
  6
CONTINUOUS
 62
           2
100
AcDbLine
 10
10504.906335201449
 20
-935.804795644721
 11
10505.844157374961
 21
-937.429151297702
  0
LINE
  5
EB
100
AcDbEntity
  8
1
  6
CONTINUOUS
 62
           2
100
AcDbLine
 10
10505.844157374961
 20
-958.429151297702
 11
10504.906335201449
 21
-960.053506950682
  0
LINE
  5
EA
100
AcDbEntity
  8
1
  6
CONTINUOUS
 62
           2
100
AcDbLine
 10
10462.78197954847
 20
-941.866973471211
 11
10468.944157374959
 21
-941.866973471211
  0
LINE
  5
E9
100
AcDbEntity
  8
1
  6
CONTINUOUS
 62
           2
100
AcDbLine
 10
10462.78197954847
 20
-953.991329124192
 11
10468.944157374959
 21
-953.991329124192
  0
LINE
  5
E8
100
AcDbEntity
  8
1
  6
CONTINUOUS
 62
           2
100
AcDbLine
 10
10461.844157374961
 20
-958.429151297702
 11
10461.844157374961
 21
-937.429151297702
  0
LINE
  5
E7
100
AcDbEntity
  8
1
  6
CONTINUOUS
 62
           2
100
AcDbLine
 10
10461.844157374961
 20
-937.429151297702
 11
10462.78197954847
 21
-935.804795644721
  0
LINE
  5
E6
100
AcDbEntity
  8
1
  6
CONTINUOUS
 62
           2
100
AcDbLine
 10
10462.78197954847
 20
-960.053506950682
 11
10461.844157374961
 21
-958.429151297702
  0
LINE
  5
E5
100
AcDbEntity
  8
1
  6
CONTINUOUS
 62
           2
100
AcDbLine
 10
10435.04543051654
 20
-970.927878156119
 11
10423.54543051654
 21
-970.927878156119
  0
LINE
  5
E4
100
AcDbEntity
  8
1
  6
CONTINUOUS
 62
           2
100
AcDbLine
 10
10435.04543051654
 20
-962.429151297702
 11
10435.04543051654
 21
-970.927878156119
  0
LINE
  5
E3
100
AcDbEntity
  8
1
  6
CONTINUOUS
 62
           2
100
AcDbLine
 10
10438.04543051654
 20
-959.429151297702
 11
10446.544157374959
 21
-959.429151297702
  0
LINE
  5
E2
100
AcDbEntity
  8
1
  6
CONTINUOUS
 62
           2
100
AcDbLine
 10
10423.54543051654
 20
-970.927878156119
 11
10412.04543051654
 21
-970.927878156119
  0
LINE
  5
E1
100
AcDbEntity
  8
1
  6
CONTINUOUS
 62
           2
100
AcDbLine
 10
10446.544157374959
 20
-947.929151297702
 11
10446.544157374959
 21
-959.429151297702
  0
LINE
  5
E0
100
AcDbEntity
  8
1
  6
CONTINUOUS
 62
           2
100
AcDbLine
 10
10412.04543051654
 20
-947.929151297702
 11
10412.04543051654
 21
-970.927878156119
  0
LINE
  5
DF
100
AcDbEntity
  8
1
  6
CONTINUOUS
 62
           2
100
AcDbLine
 10
10412.04543051654
 20
-924.930424439284
 11
10412.04543051654
 21
-947.929151297702
  0
LINE
  5
DE
100
AcDbEntity
  8
1
  6
CONTINUOUS
 62
           2
100
AcDbLine
 10
10446.544157374959
 20
-936.429151297702
 11
10446.544157374959
 21
-947.929151297702
  0
LINE
  5
DD
100
AcDbEntity
  8
1
  6
CONTINUOUS
 62
           2
100
AcDbLine
 10
10412.04543051654
 20
-924.930424439284
 11
10423.54543051654
 21
-924.930424439284
  0
LINE
  5
DC
100
AcDbEntity
  8
1
  6
CONTINUOUS
 62
           2
100
AcDbLine
 10
10446.544157374959
 20
-936.429151297702
 11
10438.04543051654
 21
-936.429151297702
  0
LINE
  5
DB
100
AcDbEntity
  8
1
  6
CONTINUOUS
 62
           2
100
AcDbLine
 10
10435.04543051654
 20
-924.930424439284
 11
10435.04543051654
 21
-933.429151297702
  0
LINE
  5
DA
100
AcDbEntity
  8
1
  6
CONTINUOUS
 62
           2
100
AcDbLine
 10
10423.54543051654
 20
-924.930424439284
 11
10435.04543051654
 21
-924.930424439284
  0
LINE
  5
D9
100
AcDbEntity
  8
1
  6
DOT_CENTER
 62
           2
100
AcDbLine
 10
10363.71032591012
 20
-1747.929151297702
 11
10637.658278812631
 21
-1747.929151297702
  0
LINE
  5
D8
100
AcDbEntity
  8
1
  6
CONTINUOUS
 62
           7
100
AcDbLine
 10
11098.083686638611
 20
-2338.929151297702
 11
11098.083686638611
 21
-2535.929151297702
  0
LINE
  5
D7
100
AcDbEntity
  8
1
  6
CONTINUOUS
 62
           7
100
AcDbLine
 10
11298.083686638611
 20
-2338.929151297702
 11
11298.083686638611
 21
-2535.929151297702
  0
LINE
  5
D6
100
AcDbEntity
  8
1
  6
CONTINUOUS
 62
           2
100
AcDbLine
 10
11210.583686638611
 20
-2294.109151297701
 11
11212.183686638609
 21
-2294.109151297701
  0
LINE
  5
D5
100
AcDbEntity
  8
1
  6
CONTINUOUS
 62
           2
100
AcDbLine
 10
11210.583686638611
 20
-2289.109151297701
 11
11215.683686638609
 21
-2289.109151297701
  0
LINE
  5
D4
100
AcDbEntity
  8
1
  6
CONTINUOUS
 62
           2
100
AcDbLine
 10
11215.683686638609
 20
-2289.109151297701
 11
11215.683686638609
 21
-2290.209151297702
  0
LINE
  5
D3
100
AcDbEntity
  8
1
  6
DOT_CENTER
 62
           2
100
AcDbLine
 10
11198.083686638611
 20
-2271.896627915751
 11
11198.083686638611
 21
-2335.336731120472
  0
LINE
  5
D2
100
AcDbEntity
  8
1
  6
CONTINUOUS
 62
           2
100
AcDbLine
 10
11198.083686638611
 20
-2322.808939599493
 11
11198.083686638611
 21
-2330.992696329239
  0
LINE
  5
D1
100
AcDbEntity
  8
1
  6
CONTINUOUS
 62
           2
100
AcDbLine
 10
11198.083686638611
 20
-2276.725606266163
 11
11198.083686638611
 21
-2284.909362995911
  0
LINE
  5
D0
100
AcDbEntity
  8
1
  6
DOT_CENTER
 62
           2
100
AcDbLine
 10
11178.58212146231
 20
-2303.109151297702
 11
11233.39556580301
 21
-2303.109151297702
  0
LINE
  5
CF
100
AcDbEntity
  8
1
  6
CONTINUOUS
 62
           2
100
AcDbLine
 10
11212.183686638609
 20
-2290.209151297702
 11
11212.183686638609
 21
-2293.109151297702
  0
LINE
  5
CE
100
AcDbEntity
  8
1
  6
CONTINUOUS
 62
           2
100
AcDbLine
 10
11212.183686638609
 20
-2315.509151297701
 11
11212.183686638609
 21
-2293.109151297702
  0
LINE
  5
CD
100
AcDbEntity
  8
1
  6
CONTINUOUS
 62
           2
100
AcDbLine
 10
11216.38368663861
 20
-2314.609151297702
 11
11216.38368663861
 21
-2291.609151297702
  0
LINE
  5
CC
100
AcDbEntity
  8
1
  6
CONTINUOUS
 62
           2
100
AcDbLine
 10
11229.083686638611
 20
-2273.109151297702
 11
11229.083686638611
 21
-2291.522521071444
  0
LINE
  5
CB
100
AcDbEntity
  8
1
  6
CONTINUOUS
 62
           2
100
AcDbLine
 10
11210.583686638611
 20
-2332.1091512977
 11
11210.583686638611
 21
-2275.609151297702
  0
LINE
  5
CA
100
AcDbEntity
  8
1
  6
CONTINUOUS
 62
           2
100
AcDbLine
 10
11185.583686638611
 20
-2275.609151297701
 11
11210.583686638611
 21
-2275.609151297702
  0
LINE
  5
C9
100
AcDbEntity
  8
1
  6
CONTINUOUS
 62
           2
100
AcDbLine
 10
11185.583686638611
 20
-2332.109151297701
 11
11185.583686638611
 21
-2275.609151297701
  0
LINE
  5
C8
100
AcDbEntity
  8
1
  6
CONTINUOUS
 62
           2
100
AcDbLine
 10
11210.583686638611
 20
-2332.1091512977
 11
11185.583686638611
 21
-2332.109151297701
  0
LINE
  5
C7
100
AcDbEntity
  8
1
  6
CONTINUOUS
 62
           2
100
AcDbLine
 10
11221.083686638611
 20
-2273.109151297702
 11
11229.083686638611
 21
-2273.109151297702
  0
LINE
  5
C6
100
AcDbEntity
  8
1
  6
CONTINUOUS
 62
           2
100
AcDbLine
 10
11216.38368663861
 20
-2291.609151297702
 11
11221.083686638611
 21
-2273.109151297702
  0
LINE
  5
C5
100
AcDbEntity
  8
1
  6
CONTINUOUS
 62
           2
100
AcDbLine
 10
11212.183686638609
 20
-2290.209151297702
 11
11216.739362314291
 21
-2290.209151297702
  0
LINE
  5
C4
100
AcDbEntity
  8
1
  6
CONTINUOUS
 62
           2
100
AcDbLine
 10
11212.183686638609
 20
-2290.709151297702
 11
11216.61233528726
 21
-2290.709151297702
  0
LINE
  5
C3
100
AcDbEntity
  8
1
  6
CONTINUOUS
 62
           2
100
AcDbLine
 10
11229.083686638611
 20
-2314.695781523959
 11
11229.083686638611
 21
-2333.109151297702
  0
LINE
  5
C2
100
AcDbEntity
  8
1
  6
CONTINUOUS
 62
           2
100
AcDbLine
 10
11221.083686638611
 20
-2333.109151297702
 11
11229.083686638611
 21
-2333.109151297702
  0
LINE
  5
C1
100
AcDbEntity
  8
1
  6
CONTINUOUS
 62
           2
100
AcDbLine
 10
11221.083686638611
 20
-2333.109151297702
 11
11216.38368663861
 21
-2314.609151297702
  0
LINE
  5
C0
100
AcDbEntity
  8
1
  6
CONTINUOUS
 62
           2
100
AcDbLine
 10
11216.61233528726
 20
-2315.509151297701
 11
11212.183686638609
 21
-2315.509151297701
  0
LINE
  5
BF
100
AcDbEntity
  8
1
  6
CONTINUOUS
 62
           2
100
AcDbLine
 10
11210.583686638611
 20
-2296.609151297702
 11
11212.183686638609
 21
-2296.609151297702
  0
LINE
  5
BE
100
AcDbEntity
  8
1
  6
CONTINUOUS
 62
           2
100
AcDbLine
 10
11210.583686638611
 20
-2309.609151297702
 11
11212.183686638609
 21
-2309.609151297702
  0
LINE
  5
BD
100
AcDbEntity
  8
1
  6
CONTINUOUS
 62
           2
100
AcDbLine
 10
11208.98368663861
 20
-2285.416652215915
 11
11208.98368663861
 21
-2297.609151297701
  0
LINE
  5
BC
100
AcDbEntity
  8
1
  6
CONTINUOUS
 62
           2
100
AcDbLine
 10
11208.98368663861
 20
-2322.30165037949
 11
11208.98368663861
 21
-2308.109151297701
  0
LINE
  5
BB
100
AcDbEntity
  8
1
  6
CONTINUOUS
 62
           2
100
AcDbLine
 10
11185.583686638611
 20
-2294.759151297701
 11
11186.71744336835
 21
-2296.159151297702
  0
LINE
  5
BA
100
AcDbEntity
  8
1
  6
CONTINUOUS
 62
           2
100
AcDbLine
 10
11185.583686638611
 20
-2308.559151297701
 11
11186.71744336835
 21
-2307.159151297702
  0
LINE
  5
B9
100
AcDbEntity
  8
1
  6
CONTINUOUS
 62
           2
100
AcDbLine
 10
11186.71744336835
 20
-2296.159151297702
 11
11186.71744336835
 21
-2307.159151297702
  0
LINE
  5
B8
100
AcDbEntity
  8
1
  6
CONTINUOUS
 62
           2
100
AcDbLine
 10
11208.98368663861
 20
-2294.759151297701
 11
11207.98368663861
 21
-2296.159151297702
  0
LINE
  5
B7
100
AcDbEntity
  8
1
  6
CONTINUOUS
 62
           2
100
AcDbLine
 10
11208.98368663861
 20
-2308.559151297701
 11
11207.98368663861
 21
-2307.159151297702
  0
LINE
  5
B6
100
AcDbEntity
  8
1
  6
CONTINUOUS
 62
           2
100
AcDbLine
 10
11186.71744336835
 20
-2296.159151297702
 11
11207.98368663861
 21
-2296.159151297702
  0
LINE
  5
B5
100
AcDbEntity
  8
1
  6
CONTINUOUS
 62
           2
100
AcDbLine
 10
11186.71744336835
 20
-2307.159151297702
 11
11207.98368663861
 21
-2307.159151297702
  0
LINE
  5
B4
100
AcDbEntity
  8
1
  6
CONTINUOUS
 62
           2
100
AcDbLine
 10
11208.933686638609
 20
-2265.269151297702
 11
11208.933686638609
 21
-2268.269151297702
  0
LINE
  5
B3
100
AcDbEntity
  8
1
  6
CONTINUOUS
 62
           2
100
AcDbLine
 10
11187.23368663861
 20
-2265.269151297702
 11
11208.933686638609
 21
-2265.269151297702
  0
LINE
  5
B2
100
AcDbEntity
  8
1
  6
CONTINUOUS
 62
           2
100
AcDbLine
 10
11208.933686638609
 20
-2268.269151297702
 11
11187.23368663861
 21
-2268.269151297702
  0
LINE
  5
B1
100
AcDbEntity
  8
1
  6
CONTINUOUS
 62
           2
100
AcDbLine
 10
11187.23368663861
 20
-2265.269151297702
 11
11187.23368663861
 21
-2268.269151297702
  0
LINE
  5
B0
100
AcDbEntity
  8
1
  6
CONTINUOUS
 62
           2
100
AcDbLine
 10
11187.23368663861
 20
-2265.269151297702
 11
11187.60618663861
 21
-2257.929151297702
  0
LINE
  5
AF
100
AcDbEntity
  8
1
  6
CONTINUOUS
 62
           2
100
AcDbLine
 10
11208.933686638609
 20
-2265.269151297702
 11
11208.56118663861
 21
-2257.929151297702
  0
LINE
  5
AE
100
AcDbEntity
  8
1
  6
CONTINUOUS
 62
           2
100
AcDbLine
 10
11208.56118663861
 20
-2275.609151297702
 11
11208.933686638609
 21
-2268.269151297702
  0
LINE
  5
AD
100
AcDbEntity
  8
1
  6
CONTINUOUS
 62
           2
100
AcDbLine
 10
11187.60618663861
 20
-2275.609151297702
 11
11187.23368663861
 21
-2268.269151297702
  0
LINE
  5
AC
100
AcDbEntity
  8
1
  6
CONTINUOUS
 62
           2
100
AcDbLine
 10
11184.88368663861
 20
-2257.929151297702
 11
11211.28368663861
 21
-2257.929151297702
  0
LINE
  5
AB
100
AcDbEntity
  8
1
  6
CONTINUOUS
 62
           2
100
AcDbLine
 10
11211.28368663861
 20
-2257.929151297702
 11
11211.28368663861
 21
-2248.804179670971
  0
LINE
  5
AA
100
AcDbEntity
  8
1
  6
CONTINUOUS
 62
           2
100
AcDbLine
 10
11184.88368663861
 20
-2257.929151297702
 11
11184.88368663861
 21
-2248.804179670971
  0
LINE
  5
A9
100
AcDbEntity
  8
1
  6
DOTTED
 62
           2
100
AcDbLine
 10
11211.28368663861
 20
-2248.804179670971
 11
11211.28368663861
 21
-2247.83330466042
  0
LINE
  5
A8
100
AcDbEntity
  8
1
  6
DOTTED
 62
           2
100
AcDbLine
 10
11184.88368663861
 20
-2248.804179670971
 11
11184.88368663861
 21
-2247.83330466042
  0
LINE
  5
A7
100
AcDbEntity
  8
1
  6
CONTINUOUS
 62
           7
100
AcDbLine
 10
13525.970716980941
 20
-171.929151297703
 11
13525.970716980941
 21
-151.703376467849
  0
LINE
  5
A6
100
AcDbEntity
  8
1
  6
DOT_CENTER
 62
           2
100
AcDbLine
 10
9881.965161914284
 20
-1747.929151297702
 11
10166.006430063569
 21
-1747.929151297702
  0
LINE
  5
A5
100
AcDbEntity
  8
1
  6
DOT_CENTER
 62
           2
100
AcDbLine
 10
10035.38219703198
 20
-1613.33048521604
 11
10035.38219703198
 21
-1885.499954431127
  0
LINE
  5
A4
100
AcDbEntity
  8
1
  6
DOT_CENTER
 62
           2
100
AcDbLine
 10
10853.099198569669
 20
-1558.929151297702
 11
11552.6051955447
 21
-1558.929151297702
  0
LINE
  5
A3
100
AcDbEntity
  8
1
  6
DOT_CENTER
 62
           2
100
AcDbLine
 10
10851.15107761049
 20
-1558.929151297702
 11
11546.461046841659
 21
-1558.929151297702
  0
LINE
  5
A2
100
AcDbEntity
  8
1
  6
DOT_CENTER
 62
           2
100
AcDbLine
 10
11298.083686638611
 20
-1339.333568290872
 11
11298.083686638611
 21
-1786.410933707906
  0
LINE
  5
A1
100
AcDbEntity
  8
1
  6
CONTINUOUS
 62
           7
100
AcDbLine
 10
11315.583686638611
 20
-1381.429151297702
 11
11318.08170280683
 21
-1558.647461156857
  0
LINE
  5
A0
100
AcDbEntity
  8
1
  6
CONTINUOUS
 62
           7
100
AcDbLine
 10
11280.585422491409
 20
-1381.182672424462
 11
11278.083686638611
 21
-1558.929151297702
  0
LINE
  5
9F
100
AcDbEntity
  8
1
  6
CONTINUOUS
 62
           7
100
AcDbLine
 10
11306.74394067645
 20
-1543.929151297702
 11
11289.423432600761
 21
-1543.929151297702
  0
LINE
  5
9E
100
AcDbEntity
  8
1
  6
CONTINUOUS
 62
           7
100
AcDbLine
 10
11289.423432600761
 20
-1543.929151297702
 11
11280.76317856292
 21
-1558.929151297702
  0
LINE
  5
9D
100
AcDbEntity
  8
1
  6
CONTINUOUS
 62
           7
100
AcDbLine
 10
11280.76317856292
 20
-1558.929151297702
 11
11289.423432600761
 21
-1573.929151297702
  0
LINE
  5
9C
100
AcDbEntity
  8
1
  6
CONTINUOUS
 62
           7
100
AcDbLine
 10
11289.423432600761
 20
-1573.929151297702
 11
11306.74394067645
 21
-1573.929151297702
  0
LINE
  5
9B
100
AcDbEntity
  8
1
  6
CONTINUOUS
 62
           7
100
AcDbLine
 10
11306.74394067645
 20
-1573.929151297702
 11
11315.4041947143
 21
-1558.929151297702
  0
LINE
  5
9A
100
AcDbEntity
  8
1
  6
CONTINUOUS
 62
           7
100
AcDbLine
 10
11315.4041947143
 20
-1558.929151297702
 11
11306.74394067645
 21
-1543.929151297702
  0
LINE
  5
99
100
AcDbEntity
  8
1
  6
DASH_CENTER
 62
           2
100
AcDbLine
 10
11319.73432173322
 20
-1558.929151297702
 11
11276.433051544
 21
-1558.929151297702
  0
LINE
  5
98
100
AcDbEntity
  8
1
  6
DASH_CENTER
 62
           2
100
AcDbLine
 10
11298.083686638611
 20
-1537.278516203091
 11
11298.083686638611
 21
-1580.579786392313
  0
LINE
  5
97
100
AcDbEntity
  8
1
  6
CONTINUOUS
 62
           7
100
AcDbLine
 10
11318.08170280683
 20
-1559.210841438547
 11
11315.583686638611
 21
-1736.429151297702
  0
LINE
  5
96
100
AcDbEntity
  8
1
  6
CONTINUOUS
 62
           7
100
AcDbLine
 10
11278.083686638611
 20
-1558.929151297702
 11
11280.585422491409
 21
-1736.675630170941
  0
LINE
  5
95
100
AcDbEntity
  8
1
  6
CONTINUOUS
 62
           7
100
AcDbLine
 10
11115.5819507858
 20
-1736.675630170941
 11
11118.083686638611
 21
-1558.929151297702
  0
LINE
  5
94
100
AcDbEntity
  8
1
  6
CONTINUOUS
 62
           7
100
AcDbLine
 10
11080.583686638611
 20
-1736.429151297702
 11
11078.08567047038
 21
-1559.210841438547
  0
LINE
  5
93
100
AcDbEntity
  8
1
  6
DASH_CENTER
 62
           2
100
AcDbLine
 10
11098.083686638611
 20
-1580.579786392313
 11
11098.083686638611
 21
-1537.278516203091
  0
LINE
  5
92
100
AcDbEntity
  8
1
  6
DASH_CENTER
 62
           2
100
AcDbLine
 10
11119.73432173322
 20
-1558.929151297702
 11
11076.433051544
 21
-1558.929151297702
  0
LINE
  5
91
100
AcDbEntity
  8
1
  6
CONTINUOUS
 62
           7
100
AcDbLine
 10
11089.423432600761
 20
-1543.929151297702
 11
11080.76317856292
 21
-1558.929151297702
  0
LINE
  5
90
100
AcDbEntity
  8
1
  6
CONTINUOUS
 62
           7
100
AcDbLine
 10
11080.76317856292
 20
-1558.929151297702
 11
11089.423432600761
 21
-1573.929151297702
  0
LINE
  5
8F
100
AcDbEntity
  8
1
  6
CONTINUOUS
 62
           7
100
AcDbLine
 10
11089.423432600761
 20
-1573.929151297702
 11
11106.74394067645
 21
-1573.929151297702
  0
LINE
  5
8E
100
AcDbEntity
  8
1
  6
CONTINUOUS
 62
           7
100
AcDbLine
 10
11106.74394067645
 20
-1573.929151297702
 11
11115.4041947143
 21
-1558.929151297702
  0
LINE
  5
8D
100
AcDbEntity
  8
1
  6
CONTINUOUS
 62
           7
100
AcDbLine
 10
11115.4041947143
 20
-1558.929151297702
 11
11106.74394067645
 21
-1543.929151297702
  0
LINE
  5
8C
100
AcDbEntity
  8
1
  6
CONTINUOUS
 62
           7
100
AcDbLine
 10
11106.74394067645
 20
-1543.929151297702
 11
11089.423432600761
 21
-1543.929151297702
  0
LINE
  5
8B
100
AcDbEntity
  8
1
  6
CONTINUOUS
 62
           7
100
AcDbLine
 10
11118.083686638611
 20
-1558.929151297702
 11
11115.5819507858
 21
-1381.182672424462
  0
LINE
  5
8A
100
AcDbEntity
  8
1
  6
CONTINUOUS
 62
           7
100
AcDbLine
 10
11078.08567047038
 20
-1558.647461156857
 11
11080.583686638611
 21
-1381.429151297702
  0
LINE
  5
89
100
AcDbEntity
  8
1
  6
DOT_CENTER
 62
           2
100
AcDbLine
 10
11098.083686638611
 20
-1786.410933707906
 11
11098.083686638611
 21
-1339.333568290872
  0
LINE
  5
88
100
AcDbEntity
  8
1
  6
CONTINUOUS
 62
           7
100
AcDbLine
 10
13525.793122880061
 20
-1258.929151297702
 11
13519.793122880061
 21
-1258.929151297702
  0
LINE
  5
87
100
AcDbEntity
  8
1
  6
CONTINUOUS
 62
           7
100
AcDbLine
 10
13525.793122880061
 20
-1858.929151297702
 11
13519.793122880061
 21
-1858.929151297702
  0
LINE
  5
86
100
AcDbEntity
  8
1
  6
CONTINUOUS
 62
           7
100
AcDbLine
 10
13519.793122880061
 20
-1258.929151297702
 11
13519.793122880061
 21
-1408.929151297702
  0
LINE
  5
85
100
AcDbEntity
  8
1
  6
CONTINUOUS
 62
           7
100
AcDbLine
 10
13519.793122880061
 20
-1858.929151297702
 11
13519.793122880061
 21
-1708.929151297702
  0
LINE
  5
84
100
AcDbEntity
  8
1
  6
CONTINUOUS
 62
           7
100
AcDbLine
 10
13519.793122880061
 20
-1398.806345851187
 11
13502.293122880061
 21
-1398.806345851187
  0
LINE
  5
83
100
AcDbEntity
  8
1
  6
CONTINUOUS
 62
           7
100
AcDbLine
 10
13519.793122880061
 20
-1719.051956744216
 11
13502.293122880061
 21
-1719.051956744216
  0
LINE
  5
82
100
AcDbEntity
  8
1
  6
CONTINUOUS
 62
           7
100
AcDbLine
 10
13494.793122880061
 20
-1406.306345851187
 11
13494.793122880061
 21
-1711.551956744216
  0
LINE
  5
81
100
AcDbEntity
  8
1
  6
CONTINUOUS
 62
           7
100
AcDbLine
 10
13434.793122880061
 20
-1576.24965937339
 11
13434.793122880061
 21
-1541.608643222013
  0
LINE
  5
80
100
AcDbEntity
  8
1
  6
CONTINUOUS
 62
           7
100
AcDbLine
 10
13420.132868842211
 20
-1576.24965937339
 11
13418.793122880061
 21
-1573.929151297702
  0
LINE
  5
7F
100
AcDbEntity
  8
1
  6
CONTINUOUS
 62
           7
100
AcDbLine
 10
13418.793122880061
 20
-1543.929151297702
 11
13420.132868842211
 21
-1541.608643222013
  0
LINE
  5
7E
100
AcDbEntity
  8
1
  6
CONTINUOUS
 62
           7
100
AcDbLine
 10
13434.793122880061
 20
-1576.24965937339
 11
13420.132868842211
 21
-1576.24965937339
  0
LINE
  5
7D
100
AcDbEntity
  8
1
  6
CONTINUOUS
 62
           7
100
AcDbLine
 10
13418.793122880061
 20
-1573.929151297702
 11
13418.793122880061
 21
-1543.929151297702
  0
LINE
  5
7C
100
AcDbEntity
  8
1
  6
CONTINUOUS
 62
           7
100
AcDbLine
 10
13420.132868842211
 20
-1541.608643222013
 11
13434.793122880061
 21
-1541.608643222013
  0
LINE
  5
7B
100
AcDbEntity
  8
1
  6
CONTINUOUS
 62
           7
100
AcDbLine
 10
13434.793122880061
 20
-1567.589405335546
 11
13420.132868842211
 21
-1567.589405335546
  0
LINE
  5
7A
100
AcDbEntity
  8
1
  6
CONTINUOUS
 62
           7
100
AcDbLine
 10
13434.793122880061
 20
-1550.268897259857
 11
13420.132868842211
 21
-1550.268897259857
  0
LINE
  5
79
100
AcDbEntity
  8
1
  6
DASH_CENTER
 62
           2
100
AcDbLine
 10
13438.793122880061
 20
-1558.929151297702
 11
13414.793122880061
 21
-1558.929151297702
  0
LINE
  5
78
100
AcDbEntity
  8
1
  6
CONTINUOUS
 62
           7
100
AcDbLine
 10
13519.793122880061
 20
-1363.806345851187
 11
13473.22571106649
 21
-1363.806345851187
  0
LINE
  5
77
100
AcDbEntity
  8
1
  6
CONTINUOUS
 62
           7
100
AcDbLine
 10
13434.793122880061
 20
-1538.929151297702
 11
13463.36929126084
 21
-1372.117858772558
  0
LINE
  5
76
100
AcDbEntity
  8
1
  6
CONTINUOUS
 62
           7
100
AcDbLine
 10
13434.793122880061
 20
-1538.929151297702
 11
13434.793122880061
 21
-1558.929151297702
  0
LINE
  5
75
100
AcDbEntity
  8
1
  6
CONTINUOUS
 62
           7
100
AcDbLine
 10
13473.22571106649
 20
-1754.051956744216
 11
13519.793122880061
 21
-1754.051956744216
  0
LINE
  5
74
100
AcDbEntity
  8
1
  6
CONTINUOUS
 62
           7
100
AcDbLine
 10
13463.36929126084
 20
-1745.740443822845
 11
13434.793122880061
 21
-1578.929151297702
  0
LINE
  5
73
100
AcDbEntity
  8
1
  6
CONTINUOUS
 62
           7
100
AcDbLine
 10
13434.793122880061
 20
-1558.929151297702
 11
13434.793122880061
 21
-1578.929151297702
  0
LINE
  5
72
100
AcDbEntity
  8
1
  6
CONTINUOUS
 62
           7
100
AcDbLine
 10
13463.36929126084
 20
-1745.740443822845
 11
13434.793122880061
 21
-1578.929151297702
  0
LINE
  5
71
100
AcDbEntity
  8
1
  6
CONTINUOUS
 62
           3
100
AcDbLine
 10
13418.793122880061
 20
-1550.282151297703
 11
13404.940122880051
 21
-1550.282151297703
  0
LINE
  5
70
100
AcDbEntity
  8
1
  6
CONTINUOUS
 62
           3
100
AcDbLine
 10
13418.793122880061
 20
-1567.576151297702
 11
13404.940122880051
 21
-1567.576151297702
  0
LINE
  5
6F
100
AcDbEntity
  8
1
  6
CONTINUOUS
 62
           7
100
AcDbLine
 10
13418.793122880061
 20
-1568.929151297702
 11
13406.293122880061
 21
-1568.929151297702
  0
LINE
  5
6E
100
AcDbEntity
  8
1
  6
CONTINUOUS
 62
           7
100
AcDbLine
 10
13406.293122880061
 20
-1568.929151297702
 11
13406.293122880061
 21
-1548.929151297702
  0
LINE
  5
6D
100
AcDbEntity
  8
1
  6
CONTINUOUS
 62
           7
100
AcDbLine
 10
13406.293122880061
 20
-1548.929151297702
 11
13418.793122880061
 21
-1548.929151297702
  0
LINE
  5
6C
100
AcDbEntity
  8
1
  6
CONTINUOUS
 62
           7
100
AcDbLine
 10
13403.793122880061
 20
-1551.429151297702
 11
13406.293122880061
 21
-1548.929151297702
  0
LINE
  5
6B
100
AcDbEntity
  8
1
  6
CONTINUOUS
 62
           7
100
AcDbLine
 10
13403.793122880061
 20
-1566.429151297702
 11
13403.793122880061
 21
-1551.429151297702
  0
LINE
  5
6A
100
AcDbEntity
  8
1
  6
CONTINUOUS
 62
           7
100
AcDbLine
 10
13406.293122880061
 20
-1568.929151297702
 11
13403.793122880061
 21
-1566.429151297702
  0
LINE
  5
69
100
AcDbEntity
  8
1
  6
CONTINUOUS
 62
           7
100
AcDbLine
 10
13418.793122880061
 20
-1573.929151297702
 11
13418.793122880061
 21
-1543.929151297702
  0
LINE
  5
68
100
AcDbEntity
  8
1
  6
CONTINUOUS
 62
           7
100
AcDbLine
 10
13418.793122880061
 20
-1543.929151297702
 11
13420.132868842211
 21
-1541.608643222013
  0
LINE
  5
67
100
AcDbEntity
  8
1
  6
CONTINUOUS
 62
           7
100
AcDbLine
 10
13420.132868842211
 20
-1576.24965937339
 11
13418.793122880061
 21
-1573.929151297702
  0
LINE
  5
66
100
AcDbEntity
  8
1
  6
CONTINUOUS
 62
           7
100
AcDbLine
 10
13499.793122880061
 20
-1533.929151297702
 11
13554.84622937429
 21
-1533.929151297702
  0
LINE
  5
65
100
AcDbEntity
  8
1
  6
CONTINUOUS
 62
           7
100
AcDbLine
 10
13499.793122880061
 20
-1583.929151297702
 11
13554.84622937429
 21
-1583.929151297702
  0
LINE
  5
64
100
AcDbEntity
  8
1
  6
CONTINUOUS
 62
           7
100
AcDbLine
 10
13499.793122880061
 20
-1533.929151297702
 11
13499.793122880061
 21
-1583.929151297702
  0
LINE
  5
63
100
AcDbEntity
  8
1
  6
CONTINUOUS
 62
           3
100
AcDbLine
 10
13499.67813861489
 20
-1550.282151297703
 11
13494.793122880061
 21
-1550.282151297703
  0
LINE
  5
62
100
AcDbEntity
  8
1
  6
CONTINUOUS
 62
           3
100
AcDbLine
 10
13499.67813861489
 20
-1567.576151297702
 11
13494.793122880061
 21
-1567.576151297702
  0
LINE
  5
61
100
AcDbEntity
  8
1
  6
CONTINUOUS
 62
           7
100
AcDbLine
 10
13499.67813861489
 20
-1568.929151297702
 11
13494.793122880061
 21
-1568.929151297702
  0
LINE
  5
60
100
AcDbEntity
  8
1
  6
CONTINUOUS
 62
           7
100
AcDbLine
 10
13494.793122880061
 20
-1548.929151297702
 11
13499.67813861489
 21
-1548.929151297702
  0
LINE
  5
5F
100
AcDbEntity
  8
1
  6
DOT_CENTER
 62
           2
100
AcDbLine
 10
13346.17490196226
 20
-1558.929151297702
 11
13666.317311517279
 21
-1558.929151297702
  0
LINE
  5
5E
100
AcDbEntity
  8
1
  6
CONTINUOUS
 62
           7
100
AcDbLine
 10
11285.585422491409
 20
-3077.68804808197
 11
11310.583686638611
 21
-3077.68804808197
  0
LINE
  5
5D
100
AcDbEntity
  8
1
  6
CONTINUOUS
 62
           7
100
AcDbLine
 10
11315.583686638611
 20
-3082.68804808197
 11
11315.583686638611
 21
-3139.814948787781
  0
LINE
  5
5C
100
AcDbEntity
  8
1
  6
CONTINUOUS
 62
           7
100
AcDbLine
 10
11280.585422491409
 20
-3082.68804808197
 11
11280.585422491409
 21
-3134.514024905438
  0
LINE
  5
5B
100
AcDbEntity
  8
1
  6
CONTINUOUS
 62
           7
100
AcDbLine
 10
11283.083686638611
 20
-3052.68804808197
 11
11313.08170280683
 21
-3052.68804808197
  0
LINE
  5
5A
100
AcDbEntity
  8
1
  6
CONTINUOUS
 62
           7
100
AcDbLine
 10
11318.08170280683
 20
-3057.68804808197
 11
11318.08170280683
 21
-3140.266204298108
  0
LINE
  5
59
100
AcDbEntity
  8
1
  6
CONTINUOUS
 62
           7
100
AcDbLine
 10
11278.083686638611
 20
-3057.68804808197
 11
11278.083686638611
 21
-3134.207454385403
  0
LINE
  5
58
100
AcDbEntity
  8
1
  6
CONTINUOUS
 62
           7
100
AcDbLine
 10
11281.71224951381
 20
-3077.68804808197
 11
11279.911111018569
 21
-3055.834060022339
  0
LINE
  5
57
100
AcDbEntity
  8
1
  6
CONTINUOUS
 62
           7
100
AcDbLine
 10
11316.256262258639
 20
-3055.834060022339
 11
11314.4551237634
 21
-3077.68804808197
  0
LINE
  5
56
100
AcDbEntity
  8
1
  6
CONTINUOUS
 62
           7
100
AcDbLine
 10
11280.76317856292
 20
-3052.68804808197
 11
11315.4041947143
 21
-3052.68804808197
  0
LINE
  5
55
100
AcDbEntity
  8
1
  6
CONTINUOUS
 62
           7
100
AcDbLine
 10
11280.76317856292
 20
-3038.027794044126
 11
11283.083686638611
 21
-3036.68804808197
  0
LINE
  5
54
100
AcDbEntity
  8
1
  6
CONTINUOUS
 62
           7
100
AcDbLine
 10
11313.083686638611
 20
-3036.68804808197
 11
11315.4041947143
 21
-3038.027794044126
  0
LINE
  5
53
100
AcDbEntity
  8
1
  6
CONTINUOUS
 62
           7
100
AcDbLine
 10
11280.76317856292
 20
-3052.68804808197
 11
11280.76317856292
 21
-3038.027794044126
  0
LINE
  5
52
100
AcDbEntity
  8
1
  6
CONTINUOUS
 62
           7
100
AcDbLine
 10
11283.083686638611
 20
-3036.68804808197
 11
11313.083686638611
 21
-3036.68804808197
  0
LINE
  5
51
100
AcDbEntity
  8
1
  6
CONTINUOUS
 62
           7
100
AcDbLine
 10
11315.4041947143
 20
-3038.027794044126
 11
11315.4041947143
 21
-3052.68804808197
  0
LINE
  5
50
100
AcDbEntity
  8
1
  6
CONTINUOUS
 62
           7
100
AcDbLine
 10
11289.423432600761
 20
-3052.68804808197
 11
11289.423432600761
 21
-3038.027794044126
  0
LINE
  5
4F
100
AcDbEntity
  8
1
  6
CONTINUOUS
 62
           7
100
AcDbLine
 10
11306.74394067645
 20
-3052.68804808197
 11
11306.74394067645
 21
-3038.027794044126
  0
LINE
  5
4E
100
AcDbEntity
  8
1
  6
CONTINUOUS
 62
           7
100
AcDbLine
 10
11288.083686638611
 20
-3024.18804808197
 11
11290.583686638611
 21
-3021.68804808197
  0
LINE
  5
4D
100
AcDbEntity
  8
1
  6
CONTINUOUS
 62
           7
100
AcDbLine
 10
11290.583686638611
 20
-3021.68804808197
 11
11305.583686638611
 21
-3021.68804808197
  0
LINE
  5
4C
100
AcDbEntity
  8
1
  6
CONTINUOUS
 62
           7
100
AcDbLine
 10
11305.583686638611
 20
-3021.68804808197
 11
11308.083686638611
 21
-3024.18804808197
  0
LINE
  5
4B
100
AcDbEntity
  8
1
  6
CONTINUOUS
 62
           7
100
AcDbLine
 10
11308.083686638611
 20
-3024.18804808197
 11
11308.083686638611
 21
-3036.68804808197
  0
LINE
  5
4A
100
AcDbEntity
  8
1
  6
CONTINUOUS
 62
           7
100
AcDbLine
 10
11288.083686638611
 20
-3024.18804808197
 11
11308.083686638611
 21
-3024.18804808197
  0
LINE
  5
49
100
AcDbEntity
  8
1
  6
CONTINUOUS
 62
           7
100
AcDbLine
 10
11288.083686638611
 20
-3036.68804808197
 11
11288.083686638611
 21
-3024.18804808197
  0
LINE
  5
48
100
AcDbEntity
  8
1
  6
CONTINUOUS
 62
           3
100
AcDbLine
 10
11289.43668663861
 20
-3036.68804808197
 11
11289.43668663861
 21
-3022.835048081969
  0
LINE
  5
47
100
AcDbEntity
  8
1
  6
CONTINUOUS
 62
           3
100
AcDbLine
 10
11306.73068663861
 20
-3036.68804808197
 11
11306.73068663861
 21
-3022.835048081969
  0
LINE
  5
46
100
AcDbEntity
  8
1
  6
DOT_CENTER
 62
           2
100
AcDbLine
 10
11298.083686638611
 20
-3014.571631555549
 11
11298.083686638611
 21
-3154.90928221042
  0
LINE
  5
45
100
AcDbEntity
  8
1
  6
DOT_CENTER
 62
           2
100
AcDbLine
 10
11098.083686638611
 20
-3154.90928221042
 11
11098.083686638611
 21
-3014.571631555549
  0
LINE
  5
44
100
AcDbEntity
  8
1
  6
CONTINUOUS
 62
           3
100
AcDbLine
 10
11089.43668663861
 20
-3022.835048081969
 11
11089.43668663861
 21
-3036.68804808197
  0
LINE
  5
43
100
AcDbEntity
  8
1
  6
CONTINUOUS
 62
           3
100
AcDbLine
 10
11106.73068663861
 20
-3022.835048081969
 11
11106.73068663861
 21
-3036.68804808197
  0
LINE
  5
42
100
AcDbEntity
  8
1
  6
CONTINUOUS
 62
           7
100
AcDbLine
 10
11108.083686638611
 20
-3024.18804808197
 11
11108.083686638611
 21
-3036.68804808197
  0
LINE
  5
41
100
AcDbEntity
  8
1
  6
CONTINUOUS
 62
           7
100
AcDbLine
 10
11088.083686638611
 20
-3024.18804808197
 11
11108.083686638611
 21
-3024.18804808197
  0
LINE
  5
40
100
AcDbEntity
  8
1
  6
CONTINUOUS
 62
           7
100
AcDbLine
 10
11088.083686638611
 20
-3036.68804808197
 11
11088.083686638611
 21
-3024.18804808197
  0
LINE
  5
3F
100
AcDbEntity
  8
1
  6
CONTINUOUS
 62
           7
100
AcDbLine
 10
11088.083686638611
 20
-3024.18804808197
 11
11090.583686638611
 21
-3021.68804808197
  0
LINE
  5
3E
100
AcDbEntity
  8
1
  6
CONTINUOUS
 62
           7
100
AcDbLine
 10
11090.583686638611
 20
-3021.68804808197
 11
11105.583686638611
 21
-3021.68804808197
  0
LINE
  5
3D
100
AcDbEntity
  8
1
  6
CONTINUOUS
 62
           7
100
AcDbLine
 10
11105.583686638611
 20
-3021.68804808197
 11
11108.083686638611
 21
-3024.18804808197
  0
LINE
  5
3C
100
AcDbEntity
  8
1
  6
CONTINUOUS
 62
           7
100
AcDbLine
 10
11089.423432600761
 20
-3038.027794044126
 11
11089.423432600761
 21
-3052.68804808197
  0
LINE
  5
3B
100
AcDbEntity
  8
1
  6
CONTINUOUS
 62
           7
100
AcDbLine
 10
11106.74394067645
 20
-3038.027794044126
 11
11106.74394067645
 21
-3052.68804808197
  0
LINE
  5
3A
100
AcDbEntity
  8
1
  6
CONTINUOUS
 62
           7
100
AcDbLine
 10
11080.76317856292
 20
-3052.68804808197
 11
11080.76317856292
 21
-3038.027794044126
  0
LINE
  5
39
100
AcDbEntity
  8
1
  6
CONTINUOUS
 62
           7
100
AcDbLine
 10
11083.083686638611
 20
-3036.68804808197
 11
11113.083686638611
 21
-3036.68804808197
  0
LINE
  5
38
100
AcDbEntity
  8
1
  6
CONTINUOUS
 62
           7
100
AcDbLine
 10
11115.4041947143
 20
-3038.027794044126
 11
11115.4041947143
 21
-3052.68804808197
  0
LINE
  5
37
100
AcDbEntity
  8
1
  6
CONTINUOUS
 62
           7
100
AcDbLine
 10
11080.76317856292
 20
-3038.027794044126
 11
11083.083686638611
 21
-3036.68804808197
  0
LINE
  5
36
100
AcDbEntity
  8
1
  6
CONTINUOUS
 62
           7
100
AcDbLine
 10
11113.083686638611
 20
-3036.68804808197
 11
11115.4041947143
 21
-3038.027794044126
  0
LINE
  5
35
100
AcDbEntity
  8
1
  6
CONTINUOUS
 62
           7
100
AcDbLine
 10
11080.76317856292
 20
-3052.68804808197
 11
11115.4041947143
 21
-3052.68804808197
  0
LINE
  5
34
100
AcDbEntity
  8
1
  6
CONTINUOUS
 62
           7
100
AcDbLine
 10
11081.71224951381
 20
-3077.68804808197
 11
11079.911111018569
 21
-3055.834060022339
  0
LINE
  5
33
100
AcDbEntity
  8
1
  6
CONTINUOUS
 62
           7
100
AcDbLine
 10
11116.256262258639
 20
-3055.834060022339
 11
11114.4551237634
 21
-3077.68804808197
  0
LINE
  5
32
100
AcDbEntity
  8
1
  6
CONTINUOUS
 62
           7
100
AcDbLine
 10
11083.08567047038
 20
-3052.68804808197
 11
11113.083686638611
 21
-3052.68804808197
  0
LINE
  5
31
100
AcDbEntity
  8
1
  6
CONTINUOUS
 62
           7
100
AcDbLine
 10
11085.583686638611
 20
-3077.68804808197
 11
11110.5819507858
 21
-3077.68804808197
  0
LINE
  5
30
100
AcDbEntity
  8
1
  6
CONTINUOUS
 62
           7
100
AcDbLine
 10
11118.083686638611
 20
-3134.207454385401
 11
11118.083686638611
 21
-3057.68804808197
  0
LINE
  5
2F
100
AcDbEntity
  8
1
  6
CONTINUOUS
 62
           7
100
AcDbLine
 10
11115.5819507858
 20
-3134.514024905436
 11
11115.5819507858
 21
-3082.68804808197
  0
LINE
  5
2E
100
AcDbEntity
  8
1
  6
CONTINUOUS
 62
           7
100
AcDbLine
 10
11080.583686638611
 20
-3139.814948787778
 11
11080.583686638611
 21
-3082.68804808197
  0
LINE
  5
2D
100
AcDbEntity
  8
1
  6
CONTINUOUS
 62
           7
100
AcDbLine
 10
11078.08567047038
 20
-3140.266204298105
 11
11078.08567047038
 21
-3057.68804808197
  0
POINT
  5
2C
100
AcDbEntity
  8
976
 62
           6
100
AcDbPoint
 10
11485.315058190759
 20
281.95315785028
  0
POINT
  5
2B
100
AcDbEntity
  8
1
 62
           6
100
AcDbPoint
 10
10384.425134071669
 20
-861.270321079587
  0
ENDBLK
  5
4AB
100
AcDbEntity
  8
0
100
AcDbBlockEnd
  0
ENDSEC
  0
SECTION
  2
ENTITIES
  0
TEXT
  5
4AE
100
AcDbEntity
  8
1
 62
           2
100
AcDbText
 10
16490.277128906131
 20
-4366.656868680892
 40
52.5
  1
SAT-3000C-100
 41
0.9
  7
CONVERTER_1
100
AcDbText
  0
INSERT
  5
2A
100
AcDbEntity
  8
0
100
AcDbBlockReference
  2
SAT3000C100__1
 10
0.0
 20
0.0
  0
ENDSEC
  0
SECTION
  2
OBJECTS
  0
DICTIONARY
  5
19
100
AcDbDictionary
  3
ACAD_GROUP
350
1A
  3
ACAD_MLINESTYLE
350
1B
  0
DICTIONARY
  5
1A
102
{ACAD_REACTORS
330
19
102
}
100
AcDbDictionary
  0
DICTIONARY
  5
1B
102
{ACAD_REACTORS
330
19
102
}
100
AcDbDictionary
  3
STANDARD
350
1C
  0
MLINESTYLE
  5
1C
102
{ACAD_REACTORS
330
1B
102
}
100
AcDbMlineStyle
  2
STANDARD
 70
           0
  3

 62
           0
 51
90.0
 52
90.0
 71
           2
 49
0.5
 62
         256
  6
BYLAYER
 49
-0.5
 62
         256
  6
BYLAYER
  0
ENDSEC
  0
EOF
