  0
SECTION
  2
HEADER
  9
$ACADVER
  1
AC1014
  9
$ACADMAINTVER
 70
           0
  9
$DWGCODEPAGE
  3
DOS932
  9
$INSBASE
 10
0.0
 20
0.0
 30
0.0
  9
$EXTMIN
 10
1.000000000000E+20
 20
1.000000000000E+20
 30
1.000000000000E+20
  9
$EXTMAX
 10
-1.000000000000E+20
 20
-1.000000000000E+20
 30
-1.000000000000E+20
  9
$LIMMIN
 10
0.0
 20
0.0
  9
$LIMMAX
 10
0.0
 20
0.0
  9
$ORTHOMODE
 70
           0
  9
$REGENMODE
 70
           1
  9
$FILLMODE
 70
           1
  9
$QTEXTMODE
 70
           0
  9
$MIRRTEXT
 70
           1
  9
$DRAGMODE
 70
           2
  9
$LTSCALE
 40
1.0
  9
$OSMODE
 70
           0
  9
$ATTMODE
 70
           1
  9
$TEXTSIZE
 40
0.2
  9
$TRACEWID
 40
0.05
  9
$TEXTSTYLE
  7
STANDARD
  9
$CLAYER
  8
0
  9
$CELTYPE
  6
CONTINUOUS
  9
$CECOLOR
 62
         256
  9
$CELTSCALE
 40
1.0
  9
$DELOBJ
 70
           1
  9
$DISPSILH
 70
           0
  9
$DIMSCALE
 40
1.0
  9
$DIMASZ
 40
0.18
  9
$DIMEXO
 40
0.0625
  9
$DIMDLI
 40
0.38
  9
$DIMRND
 40
0.0
  9
$DIMDLE
 40
0.0
  9
$DIMEXE
 40
0.18
  9
$DIMTP
 40
0.0
  9
$DIMTM
 40
0.0
  9
$DIMTXT
 40
0.18
  9
$DIMCEN
 40
0.09
  9
$DIMTSZ
 40
0.0
  9
$DIMTOL
 70
           0
  9
$DIMLIM
 70
           0
  9
$DIMTIH
 70
           1
  9
$DIMTOH
 70
           1
  9
$DIMSE1
 70
           0
  9
$DIMSE2
 70
           0
  9
$DIMTAD
 70
           0
  9
$DIMZIN
 70
           0
  9
$DIMBLK
  1

  9
$DIMASO
 70
           1
  9
$DIMSHO
 70
           1
  9
$DIMPOST
  1

  9
$DIMAPOST
  1

  9
$DIMALT
 70
           0
  9
$DIMALTD
 70
           2
  9
$DIMALTF
 40
25.4
  9
$DIMLFAC
 40
1.0
  9
$DIMTOFL
 70
           0
  9
$DIMTVP
 40
0.0
  9
$DIMTIX
 70
           0
  9
$DIMSOXD
 70
           0
  9
$DIMSAH
 70
           0
  9
$DIMBLK1
  1

  9
$DIMBLK2
  1

  9
$DIMSTYLE
  2
STANDARD
  9
$DIMCLRD
 70
           0
  9
$DIMCLRE
 70
           0
  9
$DIMCLRT
 70
           0
  9
$DIMTFAC
 40
1.0
  9
$DIMGAP
 40
0.09
  9
$DIMJUST
 70
           0
  9
$DIMSD1
 70
           0
  9
$DIMSD2
 70
           0
  9
$DIMTOLJ
 70
           1
  9
$DIMTZIN
 70
           0
  9
$DIMALTZ
 70
           0
  9
$DIMALTTZ
 70
           0
  9
$DIMFIT
 70
           3
  9
$DIMUPT
 70
           0
  9
$DIMUNIT
 70
           2
  9
$DIMDEC
 70
           4
  9
$DIMTDEC
 70
           4
  9
$DIMALTU
 70
           2
  9
$DIMALTTD
 70
           2
  9
$DIMTXSTY
  7
STANDARD
  9
$DIMAUNIT
 70
           0
  9
$LUNITS
 70
           2
  9
$LUPREC
 70
           4
  9
$SKETCHINC
 40
0.1
  9
$FILLETRAD
 40
0.0
  9
$AUNITS
 70
           0
  9
$AUPREC
 70
           0
  9
$MENU
  1
acad
  9
$ELEVATION
 40
0.0
  9
$PELEVATION
 40
0.0
  9
$THICKNESS
 40
0.0
  9
$LIMCHECK
 70
           0
  9
$BLIPMODE
 70
           1
  9
$CHAMFERA
 40
0.0
  9
$CHAMFERB
 40
0.0
  9
$CHAMFERC
 40
0.0
  9
$CHAMFERD
 40
0.0
  9
$SKPOLY
 70
           0
  9
$TDCREATE
 40
0.000000000
  9
$TDUPDATE
 40
0.000000000
  9
$TDINDWG
 40
0.0000000000
  9
$TDUSRTIMER
 40
0.0000000000
  9
$USRTIMER
 70
           1
  9
$ANGBASE
 50
0.0
  9
$ANGDIR
 70
           0
  9
$PDMODE
 70
           0
  9
$PDSIZE
 40
0.0
  9
$PLINEWID
 40
0.0
  9
$COORDS
 70
           0
  9
$SPLFRAME
 70
           0
  9
$SPLINETYPE
 70
           6
  9
$SPLINESEGS
 70
           8
  9
$ATTDIA
 70
           0
  9
$ATTREQ
 70
           1
  9
$HANDLING
 70
           1
  9
$HANDSEED
  5
4B3
  9
$SURFTAB1
 70
           6
  9
$SURFTAB2
 70
           6
  9
$SURFTYPE
 70
           6
  9
$SURFU
 70
           6
  9
$SURFV
 70
           6
  9
$UCSNAME
  2

  9
$UCSORG
 10
0.0
 20
0.0
 30
0.0
  9
$UCSXDIR
 10
1.0
 20
0.0
 30
0.0
  9
$UCSYDIR
 10
0.0
 20
1.0
 30
0.0
  9
$PUCSNAME
  2

  9
$PUCSORG
 10
0.0
 20
0.0
 30
0.0
  9
$PUCSXDIR
 10
1.0
 20
0.0
 30
0.0
  9
$PUCSYDIR
 10
0.0
 20
1.0
 30
0.0
  9
$USERI1
 70
           0
  9
$USERI2
 70
           0
  9
$USERI3
 70
           0
  9
$USERI4
 70
           0
  9
$USERI5
 70
           0
  9
$USERR1
 40
0.0
  9
$USERR2
 40
0.0
  9
$USERR3
 40
0.0
  9
$USERR4
 40
0.0
  9
$USERR5
 40
0.0
  9
$WORLDVIEW
 70
           1
  9
$SHADEDGE
 70
           3
  9
$SHADEDIF
 70
          70
  9
$TILEMODE
 70
           1
  9
$MAXACTVP
 70
          16
  9
$PINSBASE
 10
0.0
 20
0.0
 30
0.0
  9
$PLIMCHECK
 70
           0
  9
$PEXTMIN
 10
1.000000000000E+20
 20
1.000000000000E+20
 30
1.000000000000E+20
  9
$PEXTMAX
 10
-1.000000000000E+20
 20
-1.000000000000E+20
 30
-1.000000000000E+20
  9
$PLIMMIN
 10
0.0
 20
0.0
  9
$PLIMMAX
 10
12.0
 20
9.0
  9
$UNITMODE
 70
           0
  9
$VISRETAIN
 70
           0
  9
$PLINEGEN
 70
           1
  9
$PSLTSCALE
 70
           0
  9
$TREEDEPTH
 70
        3020
  9
$PICKSTYLE
 70
           1
  9
$CMLSTYLE
  2
STANDARD
  9
$CMLJUST
 70
           0
  9
$CMLSCALE
 40
1.0
  9
$PROXYGRAPHICS
 70
           0
  9
$MEASUREMENT
 70
           0
  0
ENDSEC
  0
SECTION
  2
CLASSES
  0
CLASS
  1
LWPOLYLINE
  2
AcDbPolyline
  3
"AutoCAD"
 90
        0
280
           0
281
           1
  0
CLASS
  1
IMAGE
  2
AcDbRasterImage
  3
ISM
 90
      127
280
           0
281
           1
  0
CLASS
  1
OLE2FRAME
  2
AcDbOle2Frame
  3
""
 90
        0
280
           0
281
           1
  0
CLASS
  1
HATCH
  2
AcDbHatch
  3
"ACAD_SEDONA"
 90
        0
280
           0
281
           1
  0
CLASS
  1
DICTIONARYVAR
  2
AcDbDictionaryVar
  3
"AutoCAD"
 90
        0
280
           0
281
           0
  0
CLASS
  1
RASTERVARIABLES
  2
AcDbRasterVariables
  3
ISM
 90
        0
280
           0
281
           0
  0
CLASS
  1
IMAGEDEF
  2
AcDbRasterImageDef
  3
ISM
 90
        0
280
           0
281
           0
  0
CLASS
  1
IMAGEDEF_REACTOR
  2
AcDbRasterImageDefReactor
  3
ISM
 90
        1
280
           0
281
           0
  0
CLASS
  1
IDBUFFER
  2
AcDbIdBuffer
  3
"Acad"
 90
        0
280
           0
281
           0
  0
CLASS
  1
SPATIAL_FILTER
  2
AcDbSpatialFilter
  3
"Acad"
 90
        0
280
           0
281
           0
  0
CLASS
  1
XRECORD
  2
AcDbXrecord
  3
"<Built In>"
 90
        0
280
           0
281
           0
  0
CLASS
  1
SORTENTSTABLE
  2
AcDbSortentsTable
  3
"AutoCAD"
 90
        0
280
           0
281
           0
  0
CLASS
  1
LAYER_INDEX
  2
AcDbLayerIndex
  3
"Acad"
 90
        0
280
           0
281
           0
  0
CLASS
  1
SPATIAL_INDEX
  2
AcDbSpatialIndex
  3
"Acad"
 90
        0
280
           0
281
           0
  0
CLASS
  1
OBJECT_PTR
  2
CAseDLPNTableRecord
  3
"ASE-LPNTableRecord"
 90
        1
280
           0
281
           0
  0
CLASS
  1
LAYOUT
  2
AcDbLayout
  3
"AutoCAD 2000"
 90
        1
280
           0
281
           0
  0
CLASS
  1
PLOTSETTINGS
  2
AcDbPlotSettings
  3
"AutoCAD 2000"
 90
        1
280
           0
281
           0
  0
CLASS
  1
ACDBDICTIONARYWDFLT
  2
AcDbDictionaryWithDefault
  3
"AutoCAD 2000"
 90
        1
280
           0
281
           0
  0
CLASS
  1
ACDBPLACEHOLDER
  2
AcDbPlaceHolder
  3
"AutoCAD 2000"
 90
        1
280
           0
281
           0
  0
CLASS
  1
VBA_PROJECT
  2
AcDbVbaProject
  3
"acadvba"
 90
        1
280
           0
281
           0
  0
CLASS
  1
WIPEOUT
  2
AcDbWipeout
  3
WipeOut|AutoCAD Express Tool|expresstools@autodesk.com
 90
      127
280
           0
281
           1
  0
CLASS
  1
WIPEOUTVARIABLES
  2
AcDbWipeoutVariables
  3
WipeOut|AutoCAD Express Tool|expresstools@autodesk.com
 90
        0
280
           0
281
           0
  0
CLASS
  1
RTEXT
  2
RText
  3
RText|AutoCAD Express Tool|expresstools@autodesk.com
 90
        0
280
           0
281
           1
  0
CLASS
  1
ARCALIGNEDTEXT
  2
AcDbArcAlignedText
  3
ATEXT|AutoCAD Express Tool|expresstools@autodesk.com
 90
        0
280
           0
281
           1
  0
ENDSEC
  0
SECTION
  2
TABLES
  0
TABLE
  2
VPORT
  5
7
100
AcDbSymbolTable
 70
           1
  0
VPORT
  5
15
100
AcDbSymbolTableRecord
100
AcDbViewportTableRecord
  2
*ACTIVE
 70
           0
 10
0.0
 20
0.0
 11
1.0
 21
1.0
 12
6.591288
 22
4.579184
 13
0.0
 23
0.0
 14
1.0
 24
1.0
 15
0.0
 25
0.0
 16
0.0
 26
0.0
 36
1.0
 17
0.0
 27
0.0
 37
0.0
 40
9.158369
 41
0.688564
 42
50.0
 43
0.0
 44
0.0
 50
0.0
 51
0.0
 71
           0
 72
         100
 73
           1
 74
           1
 75
           0
 76
           0
 77
           0
 78
           0
  0
ENDTAB
  0
TABLE
  2
LTYPE
  5
4
100
AcDbSymbolTable
 70
          10
  0
LTYPE
  5
11
100
AcDbSymbolTableRecord
100
AcDbLinetypeTableRecord
  2
BYBLOCK
 70
          64
  3

 72
          65
 73
           0
 40
0.0
  0
LTYPE
  5
12
100
AcDbSymbolTableRecord
100
AcDbLinetypeTableRecord
  2
BYLAYER
 70
          64
  3

 72
          65
 73
           0
 40
0.0
  0
LTYPE
  5
13
100
AcDbSymbolTableRecord
100
AcDbLinetypeTableRecord
  2
CONTINUOUS
 70
          64
  3
Solid line
 72
          65
 73
           0
 40
0.0
  0
LTYPE
  5
1D
100
AcDbSymbolTableRecord
100
AcDbLinetypeTableRecord
  2
DASHED
 70
          64
  3
Dashed
 72
          65
 73
           2
 40
15.0
 49
12.0
 74
           0
 49
-3.0
 74
           0
  0
LTYPE
  5
1E
100
AcDbSymbolTableRecord
100
AcDbLinetypeTableRecord
  2
DOTTED
 70
          64
  3
Dotted
 72
          65
 73
           2
 40
3.5
 49
0.5
 74
           0
 49
-3.0
 74
           0
  0
LTYPE
  5
1F
100
AcDbSymbolTableRecord
100
AcDbLinetypeTableRecord
  2
DOT_CENTER
 70
          64
  3
Dot_Center
 72
          65
 73
           4
 40
2.0
 49
1.25
 74
           0
 49
-0.25
 74
           0
 49
0.25
 74
           0
 49
-0.25
 74
           0
  0
LTYPE
  5
20
100
AcDbSymbolTableRecord
100
AcDbLinetypeTableRecord
  2
LONG_DASHED
 70
          64
  3
Long_Dashed
 72
          65
 73
           2
 40
2.0
 49
1.5
 74
           0
 49
-0.5
 74
           0
  0
LTYPE
  5
21
100
AcDbSymbolTableRecord
100
AcDbLinetypeTableRecord
  2
DASH_CENTER
 70
          64
  3
Dash_Center
 72
          65
 73
           4
 40
36.0
 49
24.0
 74
           0
 49
-3.0
 74
           0
 49
6.0
 74
           0
 49
-3.0
 74
           0
  0
LTYPE
  5
22
100
AcDbSymbolTableRecord
100
AcDbLinetypeTableRecord
  2
PHANTOM
 70
          64
  3
Phantom
 72
          65
 73
           6
 40
2.5
 49
1.25
 74
           0
 49
-0.25
 74
           0
 49
0.25
 74
           0
 49
-0.25
 74
           0
 49
0.25
 74
           0
 49
-0.25
 74
           0
  0
LTYPE
  5
23
100
AcDbSymbolTableRecord
100
AcDbLinetypeTableRecord
  2
CENTER_DASH_DASH
 70
          64
  3
Center_Dash_Dash
 72
          65
 73
           6
 40
22.0
 49
12.0
 74
           0
 49
-3.0
 74
           0
 49
0.5
 74
           0
 49
-3.0
 74
           0
 49
0.5
 74
           0
 49
-3.0
 74
           0
  0
ENDTAB
  0
TABLE
  2
LAYER
  5
2
100
AcDbSymbolTable
 70
           3
  0
LAYER
  5
14
100
AcDbSymbolTableRecord
100
AcDbLayerTableRecord
  2
0
 70
           0
 62
           7
  6
CONTINUOUS
  0
LAYER
  5
24
100
AcDbSymbolTableRecord
100
AcDbLayerTableRecord
  2
976
 70
           0
 62
           7
  6
CONTINUOUS
  0
LAYER
  5
25
100
AcDbSymbolTableRecord
100
AcDbLayerTableRecord
  2
1
 70
           0
 62
           7
  6
CONTINUOUS
  0
ENDTAB
  0
TABLE
  2
STYLE
  5
3
100
AcDbSymbolTable
 70
           2
  0
STYLE
  5
17
100
AcDbSymbolTableRecord
100
AcDbTextStyleTableRecord
  2
STANDARD
 70
           0
 40
0.0
 41
1.0
 50
0.0
 71
           0
 42
0.0
  3
txt
  4

  0
STYLE
  5
4B0
100
AcDbSymbolTableRecord
100
AcDbTextStyleTableRecord
  2
CONVERTER_1
 70
           0
 40
0.0
 41
0.9
 50
0.0
 71
           0
 42
0.0
  3
txt.shx
  4

  0
ENDTAB
  0
TABLE
  2
VIEW
  5
5
100
AcDbSymbolTable
 70
           0
  0
ENDTAB
  0
TABLE
  2
UCS
  5
6
100
AcDbSymbolTable
 70
           0
  0
ENDTAB
  0
TABLE
  2
APPID
  5
8
100
AcDbSymbolTable
 70
           1
  0
APPID
  5
16
100
AcDbSymbolTableRecord
100
AcDbRegAppTableRecord
  2
ACAD
 70
           0
  0
ENDTAB
  0
TABLE
  2
DIMSTYLE
  5
9
100
AcDbSymbolTable
 70
           1
  0
DIMSTYLE
105
18
100
AcDbSymbolTableRecord
100
AcDbDimStyleTableRecord
  2
STANDARD
 70
           0
  3

  4

  5

  6

  7

 40
1.0
 41
0.18
 42
0.0625
 43
0.38
 44
0.18
 45
0.0
 46
0.0
 47
0.0
 48
0.0
 71
           0
 72
           0
 73
           1
 74
           1
 75
           0
 76
           0
 77
           0
 78
           0
140
0.18
141
0.09
142
0.0
143
25.4
144
1.0
145
0.0
146
1.0
147
0.09
170
           0
171
           2
172
           0
173
           0
174
           0
175
           0
176
           0
177
           0
178
           0
270
           2
271
           4
272
           4
273
           2
274
           2
275
           0
280
           0
281
           0
282
           0
283
           1
284
           0
285
           0
286
           0
287
           0
288
           0
340
17
  0
ENDTAB
  0
TABLE
  2
BLOCK_RECORD
  5
1
100
AcDbSymbolTable
 70
           1
  0
BLOCK_RECORD
  5
A
100
AcDbSymbolTableRecord
100
AcDbBlockTableRecord
  2
*MODEL_SPACE
  0
BLOCK_RECORD
  5
B
100
AcDbSymbolTableRecord
100
AcDbBlockTableRecord
  2
*PAPER_SPACE
  0
BLOCK_RECORD
  5
26
100
AcDbSymbolTableRecord
100
AcDbBlockTableRecord
  2
SAT3000C125__1
  0
ENDTAB
  0
ENDSEC
  0
SECTION
  2
BLOCKS
  0
BLOCK
  5
D
100
AcDbEntity
  8
0
100
AcDbBlockBegin
  2
*MODEL_SPACE
 70
           0
 10
0.0
 20
0.0
 30
0.0
  3
*MODEL_SPACE
  1

  0
ENDBLK
  5
E
100
AcDbEntity
  8
0
100
AcDbBlockEnd
  0
BLOCK
  5
F
100
AcDbEntity
 67
           1
  8
0
100
AcDbBlockBegin
  2
*PAPER_SPACE
 70
           0
 10
0.0
 20
0.0
 30
0.0
  3
*PAPER_SPACE
  1

  0
ENDBLK
  5
10
100
AcDbEntity
 67
           1
  8
0
100
AcDbBlockEnd
  0
BLOCK
  5
27
100
AcDbEntity
  8
0
100
AcDbBlockBegin
  2
SAT3000C125__1
 70
           0
 10
0.0
 20
0.0
 30
0.0
  3
SAT3000C125__1
  1

  0
ARC
  5
4AD
100
AcDbEntity
  8
1
  6
CONTINUOUS
 62
           2
100
AcDbCircle
 10
11324.47191656551
 20
-3024.440914244372
 40
1.0
100
AcDbArc
 50
0.0
 51
90.0
  0
ARC
  5
4AC
100
AcDbEntity
  8
1
  6
CONTINUOUS
 62
           2
100
AcDbCircle
 10
11324.47191656551
 20
-2967.440914244372
 40
1.0
100
AcDbArc
 50
-90.0
 51
0.0
  0
ARC
  5
4AB
100
AcDbEntity
  8
1
  6
CONTINUOUS
 62
           2
100
AcDbCircle
 10
11315.3718052068
 20
-3033.440914244372
 40
10.0
100
AcDbArc
 50
90.0
 51
140.131658450008
  0
ARC
  5
4AA
100
AcDbEntity
  8
1
  6
CONTINUOUS
 62
           2
100
AcDbCircle
 10
11315.3718052068
 20
-2958.440914244372
 40
10.000000000002
100
AcDbArc
 50
-140.131658450004
 51
-90.0
  0
ARC
  5
4A9
100
AcDbEntity
  8
1
  6
CONTINUOUS
 62
           2
100
AcDbCircle
 10
13534.623629412639
 20
-858.978618117851
 40
6.0
100
AcDbArc
 50
180.0
 51
-90.0
  0
ARC
  5
4A8
100
AcDbEntity
  8
1
  6
CONTINUOUS
 62
           2
100
AcDbCircle
 10
13457.11894690784
 20
-792.880162650422
 40
2.0
100
AcDbArc
 50
180.0
 51
-90.0
  0
ARC
  5
4A7
100
AcDbEntity
  8
1
  6
CONTINUOUS
 62
           2
100
AcDbCircle
 10
13550.11894690784
 20
-792.880162650422
 40
2.0
100
AcDbArc
 50
-90.0
 51
0.0
  0
ARC
  5
4A6
100
AcDbEntity
  8
1
  6
CONTINUOUS
 62
           2
100
AcDbCircle
 10
13477.71894690784
 20
-851.880162650422
 40
1.4
100
AcDbArc
 50
0.0
 51
90.0
  0
ARC
  5
4A5
100
AcDbEntity
  8
1
  6
CONTINUOUS
 62
           2
100
AcDbCircle
 10
13464.11894690784
 20
-798.380162650422
 40
3.75
100
AcDbArc
 50
180.0
 51
-90.0
  0
ARC
  5
4A4
100
AcDbEntity
  8
1
  6
CONTINUOUS
 62
           2
100
AcDbCircle
 10
13544.11894690784
 20
-798.380162650422
 40
3.75
100
AcDbArc
 50
-90.0
 51
0.0
  0
ARC
  5
4A3
100
AcDbEntity
  8
1
  6
CONTINUOUS
 62
           2
100
AcDbCircle
 10
13530.123629412639
 20
-851.980162650421
 40
1.5
100
AcDbArc
 50
90.0
 51
180.0
  0
ARC
  5
4A2
100
AcDbEntity
  8
1
  6
CONTINUOUS
 62
           2
100
AcDbCircle
 10
13457.11894690784
 20
-792.880162650422
 40
2.0
100
AcDbArc
 50
180.0
 51
-90.0
  0
ARC
  5
4A1
100
AcDbEntity
  8
1
  6
CONTINUOUS
 62
           2
100
AcDbCircle
 10
13550.11894690784
 20
-792.880162650422
 40
2.0
100
AcDbArc
 50
-90.0
 51
0.0
  0
ARC
  5
4A0
100
AcDbEntity
  8
1
  6
CONTINUOUS
 62
           2
100
AcDbCircle
 10
13464.11894690784
 20
-798.380162650422
 40
3.75
100
AcDbArc
 50
180.0
 51
-90.0
  0
ARC
  5
49F
100
AcDbEntity
  8
1
  6
CONTINUOUS
 62
           2
100
AcDbCircle
 10
13544.11894690784
 20
-798.380162650422
 40
3.75
100
AcDbArc
 50
-90.0
 51
0.0
  0
ARC
  5
49E
100
AcDbEntity
  8
1
  6
CONTINUOUS
 62
           2
100
AcDbCircle
 10
13547.11894690784
 20
-729.380162650422
 40
5.0
100
AcDbArc
 50
0.0
 51
90.0
  0
ARC
  5
49D
100
AcDbEntity
  8
1
  6
CONTINUOUS
 62
           2
100
AcDbCircle
 10
13460.11894690784
 20
-729.38016265042
 40
5.0
100
AcDbArc
 50
90.0
 51
180.0
  0
ARC
  5
49C
100
AcDbEntity
  8
1
  6
CONTINUOUS
 62
           2
100
AcDbCircle
 10
13484.11894690784
 20
-678.380162650422
 40
1.0
100
AcDbArc
 50
180.0
 51
-90.0
  0
ARC
  5
49B
100
AcDbEntity
  8
1
  6
CONTINUOUS
 62
           2
100
AcDbCircle
 10
13479.11894690784
 20
-678.802812381232
 40
1.999999999999
100
AcDbArc
 50
-59.99999999999
 51
0.0
  0
ARC
  5
49A
100
AcDbEntity
  8
1
  6
CONTINUOUS
 62
           2
100
AcDbCircle
 10
13494.78561357451
 20
-678.380162650422
 40
1.0
100
AcDbArc
 50
-90.0
 51
0.0
  0
ARC
  5
499
100
AcDbEntity
  8
1
  6
CONTINUOUS
 62
           2
100
AcDbCircle
 10
13498.78561357451
 20
-678.380162650422
 40
1.0
100
AcDbArc
 50
180.0
 51
-90.0
  0
ARC
  5
498
100
AcDbEntity
  8
1
  6
CONTINUOUS
 62
           2
100
AcDbCircle
 10
13509.452280241179
 20
-678.380162650422
 40
1.0
100
AcDbArc
 50
-90.0
 51
0.0
  0
ARC
  5
497
100
AcDbEntity
  8
1
  6
CONTINUOUS
 62
           2
100
AcDbCircle
 10
13513.452280241179
 20
-678.380162650422
 40
1.0
100
AcDbArc
 50
180.0
 51
-90.0
  0
ARC
  5
496
100
AcDbEntity
  8
1
  6
CONTINUOUS
 62
           2
100
AcDbCircle
 10
13526.11894690784
 20
-633.380162650422
 40
2.0
100
AcDbArc
 50
180.0
 51
-90.0
  0
ARC
  5
495
100
AcDbEntity
  8
1
  6
CONTINUOUS
 62
           2
100
AcDbCircle
 10
13482.11894690784
 20
-633.380162650422
 40
2.0
100
AcDbArc
 50
-90.0
 51
0.0
  0
ARC
  5
494
100
AcDbEntity
  8
1
  6
CONTINUOUS
 62
           2
100
AcDbCircle
 10
13481.11894690784
 20
-637.380162650422
 40
2.0
100
AcDbArc
 50
90.0
 51
180.0
  0
ARC
  5
493
100
AcDbEntity
  8
1
  6
CONTINUOUS
 62
           2
100
AcDbCircle
 10
13527.11894690784
 20
-637.380162650422
 40
2.0
100
AcDbArc
 50
0.0
 51
90.0
  0
ARC
  5
492
100
AcDbEntity
  8
1
  6
CONTINUOUS
 62
           2
100
AcDbCircle
 10
13523.11894690784
 20
-631.380162650422
 40
1.0
100
AcDbArc
 50
0.0
 51
90.0
  0
ARC
  5
491
100
AcDbEntity
  8
1
  6
CONTINUOUS
 62
           2
100
AcDbCircle
 10
13485.11894690784
 20
-631.380162650422
 40
1.0
100
AcDbArc
 50
90.0
 51
180.0
  0
ARC
  5
490
100
AcDbEntity
  8
1
  6
CONTINUOUS
 62
           2
100
AcDbCircle
 10
11251.47191656551
 20
-622.570331346363
 40
1.0
100
AcDbArc
 50
90.0
 51
180.0
  0
ARC
  5
48F
100
AcDbEntity
  8
1
  6
CONTINUOUS
 62
           2
100
AcDbCircle
 10
11289.47191656551
 20
-622.570331346363
 40
1.0
100
AcDbArc
 50
0.0
 51
90.0
  0
ARC
  5
48E
100
AcDbEntity
  8
1
  6
CONTINUOUS
 62
           2
100
AcDbCircle
 10
11293.47191656551
 20
-628.570331346363
 40
2.0
100
AcDbArc
 50
0.0
 51
90.0
  0
ARC
  5
48D
100
AcDbEntity
  8
1
  6
CONTINUOUS
 62
           2
100
AcDbCircle
 10
11247.47191656551
 20
-628.570331346363
 40
2.0
100
AcDbArc
 50
90.0
 51
180.0
  0
ARC
  5
48C
100
AcDbEntity
  8
1
  6
CONTINUOUS
 62
           2
100
AcDbCircle
 10
11248.47191656551
 20
-624.570331346363
 40
2.0
100
AcDbArc
 50
-90.0
 51
0.0
  0
ARC
  5
48B
100
AcDbEntity
  8
1
  6
CONTINUOUS
 62
           2
100
AcDbCircle
 10
11292.47191656551
 20
-624.570331346363
 40
2.0
100
AcDbArc
 50
180.0
 51
-90.0
  0
ARC
  5
48A
100
AcDbEntity
  8
1
  6
CONTINUOUS
 62
           2
100
AcDbCircle
 10
11279.80524989884
 20
-669.570331346363
 40
1.0
100
AcDbArc
 50
180.0
 51
-90.0
  0
ARC
  5
489
100
AcDbEntity
  8
1
  6
CONTINUOUS
 62
           2
100
AcDbCircle
 10
11275.80524989884
 20
-669.570331346363
 40
1.0
100
AcDbArc
 50
-90.0
 51
0.0
  0
ARC
  5
488
100
AcDbEntity
  8
1
  6
CONTINUOUS
 62
           2
100
AcDbCircle
 10
11265.138583232179
 20
-669.570331346363
 40
1.0
100
AcDbArc
 50
180.0
 51
-90.0
  0
ARC
  5
487
100
AcDbEntity
  8
1
  6
CONTINUOUS
 62
           2
100
AcDbCircle
 10
11261.138583232179
 20
-669.570331346363
 40
1.0
100
AcDbArc
 50
-90.0
 51
0.0
  0
ARC
  5
486
100
AcDbEntity
  8
1
  6
CONTINUOUS
 62
           2
100
AcDbCircle
 10
11245.47191656551
 20
-669.992981077173
 40
2.0
100
AcDbArc
 50
-60.000000000003
 51
0.0
  0
ARC
  5
485
100
AcDbEntity
  8
1
  6
CONTINUOUS
 62
           2
100
AcDbCircle
 10
11250.47191656551
 20
-669.570331346363
 40
1.0
100
AcDbArc
 50
180.0
 51
-90.0
  0
ARC
  5
484
100
AcDbEntity
  8
1
  6
CONTINUOUS
 62
           2
100
AcDbCircle
 10
11226.47191656551
 20
-720.570331346362
 40
5.0
100
AcDbArc
 50
90.0
 51
180.0
  0
ARC
  5
483
100
AcDbEntity
  8
1
  6
CONTINUOUS
 62
           2
100
AcDbCircle
 10
11313.47191656551
 20
-720.570331346363
 40
5.0
100
AcDbArc
 50
0.0
 51
90.0
  0
ARC
  5
482
100
AcDbEntity
  8
1
  6
CONTINUOUS
 62
           2
100
AcDbCircle
 10
11319.47191656551
 20
-721.570331346363
 40
1.0
100
AcDbArc
 50
180.0
 51
-90.0
  0
ARC
  5
481
100
AcDbEntity
  8
1
  6
CONTINUOUS
 62
           2
100
AcDbCircle
 10
11324.47191656551
 20
-721.570331346363
 40
1.0
100
AcDbArc
 50
-90.0
 51
0.0
  0
ARC
  5
480
100
AcDbEntity
  8
1
  6
CONTINUOUS
 62
           2
100
AcDbCircle
 10
11319.47191656551
 20
-778.570331346363
 40
1.0
100
AcDbArc
 50
90.0
 51
180.0
  0
ARC
  5
47F
100
AcDbEntity
  8
1
  6
CONTINUOUS
 62
           2
100
AcDbCircle
 10
11324.47191656551
 20
-778.570331346363
 40
1.0
100
AcDbArc
 50
0.0
 51
90.0
  0
ARC
  5
47E
100
AcDbEntity
  8
1
  6
CONTINUOUS
 62
           2
100
AcDbCircle
 10
11310.47191656551
 20
-789.570331346363
 40
3.75
100
AcDbArc
 50
-90.0
 51
0.0
  0
ARC
  5
47D
100
AcDbEntity
  8
1
  6
CONTINUOUS
 62
           2
100
AcDbCircle
 10
11230.47191656551
 20
-789.570331346363
 40
3.75
100
AcDbArc
 50
180.0
 51
-90.0
  0
ARC
  5
47C
100
AcDbEntity
  8
1
  6
CONTINUOUS
 62
           2
100
AcDbCircle
 10
11296.871916565509
 20
-843.070331346363
 40
1.4
100
AcDbArc
 50
90.0
 51
180.0
  0
ARC
  5
47B
100
AcDbEntity
  8
1
  6
CONTINUOUS
 62
           2
100
AcDbCircle
 10
11315.47191656551
 20
-859.922675233483
 40
20.0
100
AcDbArc
 50
180.0
 51
-145.655937034289
  0
ARC
  5
47A
100
AcDbEntity
  8
1
  6
CONTINUOUS
 62
           2
100
AcDbCircle
 10
11244.07191656551
 20
-843.070331346363
 40
1.4
100
AcDbArc
 50
0.0
 51
90.0
  0
ARC
  5
479
100
AcDbEntity
  8
1
  6
CONTINUOUS
 62
           2
100
AcDbCircle
 10
11225.47191656551
 20
-859.922675233483
 40
19.999999999997
100
AcDbArc
 50
-34.344062965711
 51
0.0
  0
ARC
  5
478
100
AcDbEntity
  8
1
  6
CONTINUOUS
 62
           2
100
AcDbCircle
 10
11316.47191656551
 20
-784.070331346363
 40
2.0
100
AcDbArc
 50
-90.0
 51
0.0
  0
ARC
  5
477
100
AcDbEntity
  8
1
  6
CONTINUOUS
 62
           2
100
AcDbCircle
 10
11223.47191656551
 20
-784.070331346363
 40
2.0
100
AcDbArc
 50
180.0
 51
-90.0
  0
ARC
  5
476
100
AcDbEntity
  8
976
  6
CONTINUOUS
 62
           7
100
AcDbCircle
 10
11006.506971379749
 20
250.000909821839
 40
5.000000000005
100
AcDbArc
 50
136.112394618191
 51
-158.842837297041
  0
ARC
  5
475
100
AcDbEntity
  8
976
  6
CONTINUOUS
 62
           7
100
AcDbCircle
 10
10953.68914885228
 20
237.563963517771
 40
4.999999999994
100
AcDbArc
 50
5.34283729705
 51
70.387605381857
  0
ARC
  5
474
100
AcDbEntity
  8
976
  6
CONTINUOUS
 62
           7
100
AcDbCircle
 10
10994.18192453031
 20
259.682257044545
 40
3.000000000003
100
AcDbArc
 50
21.157162702934
 51
97.539406862485
  0
ARC
  5
473
100
AcDbEntity
  8
976
  6
CONTINUOUS
 62
           7
100
AcDbCircle
 10
10960.39946082747
 20
251.727542764665
 40
3.0
100
AcDbArc
 50
108.960593137519
 51
-174.65716270295
  0
ARC
  5
472
100
AcDbEntity
  8
976
  6
CONTINUOUS
 62
           7
100
AcDbCircle
 10
11580.54437230355
 20
251.727542764665
 40
3.000000000006
100
AcDbArc
 50
-5.34283729705
 51
71.03940686248
  0
ARC
  5
471
100
AcDbEntity
  8
976
  6
CONTINUOUS
 62
           7
100
AcDbCircle
 10
11546.761908600711
 20
259.682257044545
 40
2.999999999999
100
AcDbArc
 50
82.460593137549
 51
158.842837297078
  0
ARC
  5
470
100
AcDbEntity
  8
976
  6
CONTINUOUS
 62
           7
100
AcDbCircle
 10
11587.25468427874
 20
237.563963517771
 40
4.999999999999
100
AcDbArc
 50
109.612394618123
 51
174.657162702948
  0
ARC
  5
46F
100
AcDbEntity
  8
976
  6
CONTINUOUS
 62
           7
100
AcDbCircle
 10
11534.43686175127
 20
250.000909821839
 40
5.000000000001
100
AcDbArc
 50
-21.157162702951
 51
43.887605381881
  0
ARC
  5
46E
100
AcDbEntity
  8
1
  6
CONTINUOUS
 62
           2
100
AcDbCircle
 10
10459.9731897071
 20
-3764.140914244376
 40
2.0
100
AcDbArc
 50
180.0
 51
-90.0
  0
ARC
  5
46D
100
AcDbEntity
  8
1
  6
CONTINUOUS
 62
           2
100
AcDbCircle
 10
10459.9731897071
 20
-3733.140914244376
 40
2.0
100
AcDbArc
 50
90.0
 51
180.0
  0
ARC
  5
46C
100
AcDbEntity
  8
1
  6
CONTINUOUS
 62
           2
100
AcDbCircle
 10
14253.60894690784
 20
-2243.134658088103
 40
2.0
100
AcDbArc
 50
90.0
 51
180.0
  0
ARC
  5
46B
100
AcDbEntity
  8
1
  6
CONTINUOUS
 62
           2
100
AcDbCircle
 10
14273.201746446881
 20
-2262.884658088104
 40
2.0
100
AcDbArc
 50
90.0
 51
148.891077489519
  0
ARC
  5
46A
100
AcDbEntity
  8
1
  6
CONTINUOUS
 62
           2
100
AcDbCircle
 10
14273.201746446881
 20
-2247.384658088104
 40
2.000000000002
100
AcDbArc
 50
-148.891077489274
 51
-90.0
  0
ARC
  5
469
100
AcDbEntity
  8
1
  6
CONTINUOUS
 62
           2
100
AcDbCircle
 10
14247.5161473688
 20
-2262.884658088104
 40
1.999999999997
100
AcDbArc
 50
31.10892251048
 51
90.0
  0
ARC
  5
468
100
AcDbEntity
  8
1
  6
CONTINUOUS
 62
           2
100
AcDbCircle
 10
14247.5161473688
 20
-2247.384658088104
 40
2.0
100
AcDbArc
 50
-90.0
 51
-31.108922510726
  0
ARC
  5
467
100
AcDbEntity
  8
1
  6
CONTINUOUS
 62
           7
100
AcDbCircle
 10
10474.65298845898
 20
-833.94814556292
 40
0.144444444446
100
AcDbArc
 50
137.782165418005
 51
-47.782165417762
  0
ARC
  5
466
100
AcDbEntity
  8
1
  6
CONTINUOUS
 62
           2
100
AcDbCircle
 10
10545.509631126321
 20
-907.020331346362
 40
3.000000000006
100
AcDbArc
 50
34.429003950779
 51
90.0
  0
ARC
  5
465
100
AcDbEntity
  8
1
  6
CONTINUOUS
 62
           2
100
AcDbCircle
 10
10545.509631126321
 20
-892.320331346362
 40
3.0
100
AcDbArc
 50
-90.0
 51
-34.429003950822
  0
ARC
  5
464
100
AcDbEntity
  8
1
  6
CONTINUOUS
 62
           2
100
AcDbCircle
 10
10566.9551434774
 20
-892.320331346362
 40
3.000000000009
100
AcDbArc
 50
-145.570996049198
 51
-90.0
  0
ARC
  5
463
100
AcDbEntity
  8
1
  6
CONTINUOUS
 62
           2
100
AcDbCircle
 10
10566.9551434774
 20
-907.020331346362
 40
3.0
100
AcDbArc
 50
90.0
 51
145.570996049241
  0
ARC
  5
462
100
AcDbEntity
  8
1
  6
CONTINUOUS
 62
           2
100
AcDbCircle
 10
10510.433660443439
 20
-914.170331346363
 40
3.0
100
AcDbArc
 50
90.0
 51
180.0
  0
ARC
  5
461
100
AcDbEntity
  8
1
  6
CONTINUOUS
 62
           2
100
AcDbCircle
 10
10510.433660443439
 20
-885.170331346363
 40
3.0
100
AcDbArc
 50
180.0
 51
-90.0
  0
ARC
  5
460
100
AcDbEntity
  8
1
  6
CONTINUOUS
 62
           2
100
AcDbCircle
 10
11298.47191656551
 20
-2243.263701120106
 40
3.000000000004
100
AcDbArc
 50
-38.091957105193
 51
0.0
  0
ARC
  5
45F
100
AcDbEntity
  8
1
  6
CONTINUOUS
 62
           2
100
AcDbCircle
 10
11298.47191656551
 20
-2266.436961572621
 40
3.0
100
AcDbArc
 50
0.0
 51
38.09195710522
  0
ARC
  5
45E
100
AcDbEntity
  8
1
  6
CONTINUOUS
 62
           7
100
AcDbCircle
 10
13574.68135280696
 20
-1358.047525899849
 40
7.5
100
AcDbArc
 50
90.0
 51
180.0
  0
ARC
  5
45D
100
AcDbEntity
  8
1
  6
CONTINUOUS
 62
           7
100
AcDbCircle
 10
13574.68135280696
 20
-1663.293136792878
 40
7.5
100
AcDbArc
 50
180.0
 51
-90.0
  0
ARC
  5
45C
100
AcDbEntity
  8
1
  6
CONTINUOUS
 62
           7
100
AcDbCircle
 10
13545.613940993389
 20
-1325.547525899849
 40
10.0
100
AcDbArc
 50
90.0
 51
170.279112747886
  0
ARC
  5
45B
100
AcDbEntity
  8
1
  6
CONTINUOUS
 62
           7
100
AcDbCircle
 10
13545.613940993389
 20
-1695.793136792878
 40
9.999999999996
100
AcDbArc
 50
-170.279112747885
 51
-90.0
  0
ARC
  5
45A
100
AcDbEntity
  8
1
  6
CONTINUOUS
 62
           7
100
AcDbCircle
 10
11355.47191656551
 20
-3009.429228130632
 40
5.0
100
AcDbArc
 50
90.0
 51
180.0
  0
ARC
  5
459
100
AcDbEntity
  8
1
  6
CONTINUOUS
 62
           7
100
AcDbCircle
 10
11385.469932733729
 20
-3009.429228130632
 40
5.0
100
AcDbArc
 50
0.0
 51
90.0
  0
ARC
  5
458
100
AcDbEntity
  8
1
  6
CONTINUOUS
 62
           7
100
AcDbCircle
 10
11357.97365241831
 20
-3034.429228130632
 40
5.0
100
AcDbArc
 50
90.0
 51
180.0
  0
ARC
  5
457
100
AcDbEntity
  8
1
  6
CONTINUOUS
 62
           7
100
AcDbCircle
 10
11382.97191656551
 20
-3034.429228130632
 40
5.0
100
AcDbArc
 50
0.0
 51
90.0
  0
ARC
  5
456
100
AcDbEntity
  8
1
  6
CONTINUOUS
 62
           7
100
AcDbCircle
 10
11157.97191656551
 20
-3034.429228130632
 40
5.0
100
AcDbArc
 50
90.0
 51
180.0
  0
ARC
  5
455
100
AcDbEntity
  8
1
  6
CONTINUOUS
 62
           7
100
AcDbCircle
 10
11182.970180712709
 20
-3034.429228130632
 40
5.0
100
AcDbArc
 50
0.0
 51
90.0
  0
ARC
  5
454
100
AcDbEntity
  8
1
  6
CONTINUOUS
 62
           7
100
AcDbCircle
 10
11155.47390039729
 20
-3009.429228130632
 40
5.0
100
AcDbArc
 50
90.0
 51
180.0
  0
ARC
  5
453
100
AcDbEntity
  8
1
  6
CONTINUOUS
 62
           7
100
AcDbCircle
 10
11185.47191656551
 20
-3009.429228130632
 40
5.0
100
AcDbArc
 50
0.0
 51
90.0
  0
CIRCLE
  5
452
100
AcDbEntity
  8
976
  6
CONTINUOUS
 62
           7
100
AcDbCircle
 10
11270.47191656551
 20
-3752.140914244375
 40
662.000000000003
  0
CIRCLE
  5
451
100
AcDbEntity
  8
1
  6
CONTINUOUS
 62
           2
100
AcDbCircle
 10
13504.11894690784
 20
-758.880162650422
 40
22.422500000001
  0
CIRCLE
  5
450
100
AcDbEntity
  8
1
  6
CONTINUOUS
 62
           2
100
AcDbCircle
 10
13504.11894690784
 20
-758.880162650422
 40
23.9015
  0
CIRCLE
  5
44F
100
AcDbEntity
  8
1
  6
CONTINUOUS
 62
           2
100
AcDbCircle
 10
13504.11894690784
 20
-758.880162650422
 40
29.0
  0
CIRCLE
  5
44E
100
AcDbEntity
  8
976
  6
CONTINUOUS
 62
           7
100
AcDbCircle
 10
10970.47191656551
 20
284.663206695171
 40
24.999999999995
  0
CIRCLE
  5
44D
100
AcDbEntity
  8
976
  6
CONTINUOUS
 62
           7
100
AcDbCircle
 10
11570.47191656551
 20
284.663206695171
 40
24.999999999995
  0
CIRCLE
  5
44C
100
AcDbEntity
  8
976
  6
DOT_CENTER
 62
           2
100
AcDbCircle
 10
11270.47191656551
 20
-3752.140914244375
 40
549.999999999997
  0
CIRCLE
  5
44B
100
AcDbEntity
  8
976
  6
CONTINUOUS
 62
           7
100
AcDbCircle
 10
11270.47191656551
 20
-3752.140914244375
 40
625.000000000001
  0
CIRCLE
  5
44A
100
AcDbEntity
  8
1
  6
CONTINUOUS
 62
           7
100
AcDbCircle
 10
10107.770426958879
 20
-1699.670331346363
 40
52.649999999989
  0
CIRCLE
  5
449
100
AcDbEntity
  8
1
  6
CONTINUOUS
 62
           7
100
AcDbCircle
 10
10107.770426958879
 20
-1699.670331346363
 40
57.149999999999
  0
CIRCLE
  5
448
100
AcDbEntity
  8
1
  6
CONTINUOUS
 62
           7
100
AcDbCircle
 10
10881.56318691291
 20
-4141.049643896977
 40
13.5
  0
CIRCLE
  5
447
100
AcDbEntity
  8
1
  6
CONTINUOUS
 62
           7
100
AcDbCircle
 10
10881.32822243561
 20
-3363.467291111889
 40
13.5
  0
CIRCLE
  5
446
100
AcDbEntity
  8
1
  6
CONTINUOUS
 62
           7
100
AcDbCircle
 10
11659.380646218109
 20
-3363.232184591775
 40
13.5
  0
CIRCLE
  5
445
100
AcDbEntity
  8
1
  6
CONTINUOUS
 62
           7
100
AcDbCircle
 10
11659.145539698
 20
-4141.284608374277
 40
13.5
  0
CIRCLE
  5
444
100
AcDbEntity
  8
1
  6
CONTINUOUS
 62
           2
100
AcDbCircle
 10
10496.9731897071
 20
-3752.140914244375
 40
8.331000000001
  0
CIRCLE
  5
443
100
AcDbEntity
  8
1
  6
CONTINUOUS
 62
           2
100
AcDbCircle
 10
10496.9731897071
 20
-3752.140914244375
 40
7.475000000002
  0
CIRCLE
  5
442
100
AcDbEntity
  8
1
  6
CONTINUOUS
 62
           2
100
AcDbCircle
 10
14260.35894690784
 20
-2255.134658088104
 40
3.600000000002
  0
CIRCLE
  5
441
100
AcDbEntity
  8
1
  6
CONTINUOUS
 62
           2
100
AcDbCircle
 10
14260.35894690784
 20
-2255.134658088104
 40
7.5
  0
CIRCLE
  5
440
100
AcDbEntity
  8
1
  6
CONTINUOUS
 62
           2
100
AcDbCircle
 10
14260.35894690784
 20
-2255.134658088104
 40
6.0
  0
CIRCLE
  5
43F
100
AcDbEntity
  8
1
  6
CONTINUOUS
 62
           2
100
AcDbCircle
 10
14260.35894690784
 20
-2255.134658088104
 40
11.1
  0
CIRCLE
  5
43E
100
AcDbEntity
  8
1
  6
CONTINUOUS
 62
           2
100
AcDbCircle
 10
10495.933660443439
 20
-825.659385923352
 40
2.247127062104
  0
CIRCLE
  5
43D
100
AcDbEntity
  8
1
  6
CONTINUOUS
 62
           7
100
AcDbCircle
 10
10480.044015770231
 20
-830.44619186266
 40
0.72222222223
  0
CIRCLE
  5
43C
100
AcDbEntity
  8
1
  6
CONTINUOUS
 62
           7
100
AcDbCircle
 10
10495.933660443439
 20
-813.021604487946
 40
2.888888888891
  0
CIRCLE
  5
43B
100
AcDbEntity
  8
1
  6
CONTINUOUS
 62
           7
100
AcDbCircle
 10
10495.936849959329
 20
-813.025763107877
 40
36.092093524148
  0
CIRCLE
  5
43A
100
AcDbEntity
  8
1
  6
CONTINUOUS
 62
           2
100
AcDbCircle
 10
10556.232387301859
 20
-899.670331346363
 40
6.25
  0
CIRCLE
  5
439
100
AcDbEntity
  8
1
  6
CONTINUOUS
 62
           2
100
AcDbCircle
 10
10556.232387301859
 20
-899.670331346363
 40
3.0
  0
CIRCLE
  5
438
100
AcDbEntity
  8
1
  6
CONTINUOUS
 62
           2
100
AcDbCircle
 10
10556.232387301859
 20
-899.670331346363
 40
5.0
  0
CIRCLE
  5
437
100
AcDbEntity
  8
1
  6
CONTINUOUS
 62
           2
100
AcDbCircle
 10
10556.232387301859
 20
-899.670331346363
 40
8.5
  0
CIRCLE
  5
436
100
AcDbEntity
  8
1
  6
CONTINUOUS
 62
           7
100
AcDbCircle
 10
11370.47191656551
 20
-1510.670331346363
 40
15.0
  0
CIRCLE
  5
435
100
AcDbEntity
  8
1
  6
CONTINUOUS
 62
           3
100
AcDbCircle
 10
11370.47191656551
 20
-1510.670331346363
 40
10.0
  0
CIRCLE
  5
434
100
AcDbEntity
  8
1
  6
CONTINUOUS
 62
           3
100
AcDbCircle
 10
11170.47191656551
 20
-1510.670331346363
 40
10.0
  0
CIRCLE
  5
433
100
AcDbEntity
  8
1
  6
CONTINUOUS
 62
           7
100
AcDbCircle
 10
11170.47191656551
 20
-1510.670331346363
 40
15.0
  0
CIRCLE
  5
432
100
AcDbEntity
  8
1
  6
CONTINUOUS
 62
           7
100
AcDbCircle
 10
10107.770426958879
 20
-1699.670331346363
 40
112.5
  0
CIRCLE
  5
431
100
AcDbEntity
  8
1
  6
DOT_CENTER
 62
           2
100
AcDbCircle
 10
10107.770426958879
 20
-1699.670331346363
 40
92.5
  0
CIRCLE
  5
430
100
AcDbEntity
  8
1
  6
CONTINUOUS
 62
           7
100
AcDbCircle
 10
10072.372209465109
 20
-1614.211474589069
 40
11.5
  0
CIRCLE
  5
42F
100
AcDbEntity
  8
1
  6
CONTINUOUS
 62
           7
100
AcDbCircle
 10
10022.311570201589
 20
-1664.272113852592
 40
11.5
  0
CIRCLE
  5
42E
100
AcDbEntity
  8
1
  6
CONTINUOUS
 62
           7
100
AcDbCircle
 10
10143.16864445266
 20
-1614.211474589069
 40
11.5
  0
CIRCLE
  5
42D
100
AcDbEntity
  8
1
  6
CONTINUOUS
 62
           7
100
AcDbCircle
 10
10193.22928371618
 20
-1664.272113852592
 40
11.5
  0
CIRCLE
  5
42C
100
AcDbEntity
  8
1
  6
CONTINUOUS
 62
           7
100
AcDbCircle
 10
10193.22928371618
 20
-1735.068548840134
 40
11.5
  0
CIRCLE
  5
42B
100
AcDbEntity
  8
1
  6
CONTINUOUS
 62
           7
100
AcDbCircle
 10
10143.16864445266
 20
-1785.129188103657
 40
11.5
  0
CIRCLE
  5
42A
100
AcDbEntity
  8
1
  6
CONTINUOUS
 62
           7
100
AcDbCircle
 10
10072.372209465109
 20
-1785.129188103657
 40
11.5
  0
CIRCLE
  5
429
100
AcDbEntity
  8
1
  6
CONTINUOUS
 62
           7
100
AcDbCircle
 10
10022.311570201589
 20
-1735.068548840134
 40
11.5
  0
CIRCLE
  5
428
100
AcDbEntity
  8
1
  6
CONTINUOUS
 62
           7
100
AcDbCircle
 10
14174.90009015055
 20
-935.068548840133
 40
11.5
  0
CIRCLE
  5
427
100
AcDbEntity
  8
1
  6
CONTINUOUS
 62
           7
100
AcDbCircle
 10
14224.96072941407
 20
-985.129188103657
 40
11.5
  0
CIRCLE
  5
426
100
AcDbEntity
  8
1
  6
CONTINUOUS
 62
           7
100
AcDbCircle
 10
14295.75716440161
 20
-985.129188103657
 40
11.5
  0
CIRCLE
  5
425
100
AcDbEntity
  8
1
  6
CONTINUOUS
 62
           7
100
AcDbCircle
 10
14345.81780366513
 20
-935.068548840133
 40
11.5
  0
CIRCLE
  5
424
100
AcDbEntity
  8
1
  6
CONTINUOUS
 62
           7
100
AcDbCircle
 10
14345.81780366513
 20
-864.272113852593
 40
11.5
  0
CIRCLE
  5
423
100
AcDbEntity
  8
1
  6
CONTINUOUS
 62
           7
100
AcDbCircle
 10
14295.75716440161
 20
-814.211474589069
 40
11.5
  0
CIRCLE
  5
422
100
AcDbEntity
  8
1
  6
CONTINUOUS
 62
           7
100
AcDbCircle
 10
14174.90009015055
 20
-864.272113852593
 40
11.5
  0
CIRCLE
  5
421
100
AcDbEntity
  8
1
  6
CONTINUOUS
 62
           7
100
AcDbCircle
 10
14224.96072941407
 20
-814.211474589069
 40
11.5
  0
CIRCLE
  5
420
100
AcDbEntity
  8
1
  6
DOT_CENTER
 62
           2
100
AcDbCircle
 10
14260.35894690784
 20
-899.670331346363
 40
92.5
  0
CIRCLE
  5
41F
100
AcDbEntity
  8
1
  6
CONTINUOUS
 62
           7
100
AcDbCircle
 10
14260.35894690784
 20
-899.670331346363
 40
112.5
  0
CIRCLE
  5
41E
100
AcDbEntity
  8
1
  6
CONTINUOUS
 62
           7
100
AcDbCircle
 10
14260.35894690784
 20
-899.670331346363
 40
57.15
  0
CIRCLE
  5
41D
100
AcDbEntity
  8
1
  6
CONTINUOUS
 62
           7
100
AcDbCircle
 10
14260.35894690784
 20
-899.670331346363
 40
52.65
  0
ARC
  5
41C
100
AcDbEntity
  8
1
  6
CONTINUOUS
 62
           2
100
AcDbCircle
 10
11315.388902598181
 20
-3033.516090709632
 40
10.415441500101
100
AcDbArc
 50
180.0
 51
-148.868509433916
  0
ARC
  5
41B
100
AcDbEntity
  8
1
  6
CONTINUOUS
 62
           2
100
AcDbCircle
 10
11225.55493053284
 20
-3033.516090709632
 40
10.415441500099
100
AcDbArc
 50
-31.131490566089
 51
0.0
  0
ARC
  5
41A
100
AcDbEntity
  8
1
  6
CONTINUOUS
 62
           2
100
AcDbCircle
 10
11270.50058546937
 20
-3003.548669761722
 40
34.787361012411
100
AcDbArc
 50
7.710008218944
 51
173.029145890944
  0
ARC
  5
419
100
AcDbEntity
  8
1
  6
CONTINUOUS
 62
           2
100
AcDbCircle
 10
11270.47191656551
 20
-2995.940914244372
 40
48.499999999996
100
AcDbArc
 50
-34.542007549621
 51
-135.346659194765
  0
ARC
  5
418
100
AcDbEntity
  8
1
  6
CONTINUOUS
 62
           2
100
AcDbCircle
 10
11270.47191656551
 20
-2995.940914244372
 40
48.5
100
AcDbArc
 50
-44.653340805234
 51
-39.868341550012
  0
ARC
  5
417
100
AcDbEntity
  8
1
  6
CONTINUOUS
 62
           2
100
AcDbCircle
 10
11263.933194328831
 20
-2991.289623329374
 40
56.52348090412
100
AcDbArc
 50
-38.736479068654
 51
-34.667494258059
  0
ARC
  5
416
100
AcDbEntity
  8
1
  6
CONTINUOUS
 62
           2
100
AcDbCircle
 10
13541.7341233731
 20
-944.397148683094
 40
10.415441500099
100
AcDbArc
 50
58.868509433917
 51
90.0
  0
ARC
  5
415
100
AcDbEntity
  8
1
  6
CONTINUOUS
 62
           2
100
AcDbCircle
 10
13541.7341233731
 20
-854.563176617751
 40
10.415441500099
100
AcDbArc
 50
-90.0
 51
-58.868509433917
  0
ARC
  5
414
100
AcDbEntity
  8
1
  6
CONTINUOUS
 62
           2
100
AcDbCircle
 10
13537.42133995161
 20
-785.184805675425
 40
35.695356974996
100
AcDbArc
 50
-113.201052895934
 51
-90.0
  0
ARC
  5
413
100
AcDbEntity
  8
1
  6
CONTINUOUS
 62
           2
100
AcDbCircle
 10
13471.17133995161
 20
-785.184805675425
 40
35.695356974997
100
AcDbArc
 50
-90.0
 51
-66.798947104066
  0
ARC
  5
412
100
AcDbEntity
  8
1
  6
CONTINUOUS
 62
           2
100
AcDbCircle
 10
13504.29633995161
 20
-756.497714175065
 40
64.382448475356
100
AcDbArc
 50
-107.222444972132
 51
-72.777555027867
  0
ARC
  5
411
100
AcDbEntity
  8
1
  6
CONTINUOUS
 62
           2
100
AcDbCircle
 10
13537.24394690784
 20
-785.184805675425
 40
35.695356974996
100
AcDbArc
 50
-113.201052895934
 51
-90.0
  0
ARC
  5
410
100
AcDbEntity
  8
1
  6
CONTINUOUS
 62
           2
100
AcDbCircle
 10
13470.99394690784
 20
-785.184805675425
 40
35.695356974997
100
AcDbArc
 50
-90.0
 51
-66.798947104066
  0
ARC
  5
40F
100
AcDbEntity
  8
1
  6
CONTINUOUS
 62
           2
100
AcDbCircle
 10
13504.11894690784
 20
-756.497714175065
 40
64.382448475356
100
AcDbArc
 50
-107.222444972132
 51
-72.777555027867
  0
ARC
  5
40E
100
AcDbEntity
  8
1
  6
CONTINUOUS
 62
           2
100
AcDbCircle
 10
13529.093012364339
 20
-884.105348543096
 40
50.031165077226
100
AcDbArc
 50
177.262366877252
 51
-94.50841490028
  0
ARC
  5
40D
100
AcDbEntity
  8
1
  6
CONTINUOUS
 62
           2
100
AcDbCircle
 10
13504.11894690784
 20
-770.012611125778
 40
64.382448475356
100
AcDbArc
 50
72.777555027867
 51
107.222444972132
  0
ARC
  5
40C
100
AcDbEntity
  8
1
  6
CONTINUOUS
 62
           2
100
AcDbCircle
 10
13470.99394690784
 20
-741.325519625417
 40
35.695356974995
100
AcDbArc
 50
66.798947104066
 51
90.0
  0
ARC
  5
40B
100
AcDbEntity
  8
1
  6
CONTINUOUS
 62
           2
100
AcDbCircle
 10
13537.24394690784
 20
-741.325519625417
 40
35.695356974997
100
AcDbArc
 50
90.0
 51
113.201052895934
  0
ARC
  5
40A
100
AcDbEntity
  8
1
  6
CONTINUOUS
 62
           2
100
AcDbCircle
 10
13504.29633995161
 20
-770.012611125778
 40
64.382448475356
100
AcDbArc
 50
72.777555027867
 51
107.222444972132
  0
ARC
  5
409
100
AcDbEntity
  8
1
  6
CONTINUOUS
 62
           2
100
AcDbCircle
 10
13471.17133995161
 20
-741.325519625417
 40
35.695356974995
100
AcDbArc
 50
66.798947104066
 51
90.0
  0
ARC
  5
408
100
AcDbEntity
  8
1
  6
CONTINUOUS
 62
           2
100
AcDbCircle
 10
13537.42133995161
 20
-741.325519625417
 40
35.695356974997
100
AcDbArc
 50
90.0
 51
113.201052895934
  0
ARC
  5
407
100
AcDbEntity
  8
1
  6
CONTINUOUS
 62
           2
100
AcDbCircle
 10
13482.11894690784
 20
-636.380162650422
 40
1.0
100
AcDbArc
 50
0.0
 51
180.0
  0
ARC
  5
406
100
AcDbEntity
  8
1
  6
CONTINUOUS
 62
           2
100
AcDbCircle
 10
13496.78561357451
 20
-636.380162650422
 40
1.0
100
AcDbArc
 50
0.0
 51
180.0
  0
ARC
  5
405
100
AcDbEntity
  8
1
  6
CONTINUOUS
 62
           2
100
AcDbCircle
 10
13511.452280241179
 20
-636.380162650422
 40
1.0
100
AcDbArc
 50
0.0
 51
180.0
  0
ARC
  5
404
100
AcDbEntity
  8
1
  6
CONTINUOUS
 62
           2
100
AcDbCircle
 10
13526.11894690784
 20
-636.380162650422
 40
1.0
100
AcDbArc
 50
0.0
 51
180.0
  0
ARC
  5
403
100
AcDbEntity
  8
1
  6
CONTINUOUS
 62
           2
100
AcDbCircle
 10
13504.11894690784
 20
-613.880162650422
 40
15.0
100
AcDbArc
 50
0.0
 51
180.0
  0
ARC
  5
402
100
AcDbEntity
  8
1
  6
CONTINUOUS
 62
           2
100
AcDbCircle
 10
13488.61894690784
 20
-634.522560499315
 40
12.142397848894
100
AcDbArc
 50
59.020901138371
 51
90.0
  0
ARC
  5
401
100
AcDbEntity
  8
1
  6
CONTINUOUS
 62
           2
100
AcDbCircle
 10
13519.61894690784
 20
-634.522560499315
 40
12.142397848893
100
AcDbArc
 50
90.0
 51
120.979098861629
  0
ARC
  5
400
100
AcDbEntity
  8
1
  6
CONTINUOUS
 62
           2
100
AcDbCircle
 10
13504.11894690784
 20
-647.945954257973
 40
25.565791607552
100
AcDbArc
 50
68.788505585336
 51
111.211494414663
  0
ARC
  5
3FF
100
AcDbEntity
  8
976
  6
CONTINUOUS
 62
           7
100
AcDbCircle
 10
14781.0385723442
 20
-1935.722976931793
 40
141.433231102079
100
AcDbArc
 50
-64.335676254712
 51
-2.289044018795
  0
ARC
  5
3FE
100
AcDbEntity
  8
1
  6
CONTINUOUS
 62
           7
100
AcDbCircle
 10
14260.35894690784
 20
-890.670331346363
 40
1308.999999999999
100
AcDbArc
 50
-69.893033609314
 51
-63.604563329116
  0
ARC
  5
3FD
100
AcDbEntity
  8
976
  6
CONTINUOUS
 62
           7
100
AcDbCircle
 10
14781.0385723442
 20
-1935.722976931793
 40
141.433231102079
100
AcDbArc
 50
-64.335676254712
 51
-2.289044018795
  0
ARC
  5
3FC
100
AcDbEntity
  8
1
  6
CONTINUOUS
 62
           7
100
AcDbCircle
 10
14260.35894690784
 20
-890.670331346363
 40
1308.999999999999
100
AcDbArc
 50
-116.395436670884
 51
-110.106966390686
  0
ARC
  5
3FB
100
AcDbEntity
  8
976
  6
CONTINUOUS
 62
           7
100
AcDbCircle
 10
13739.67932147148
 20
-1935.722976931793
 40
141.433231102079
100
AcDbArc
 50
-177.710955981204
 51
-115.664323745287
  0
ARC
  5
3FA
100
AcDbEntity
  8
976
  6
CONTINUOUS
 62
           7
100
AcDbCircle
 10
13739.67932147148
 20
-1935.722976931793
 40
141.433231102079
100
AcDbArc
 50
-177.710955981204
 51
-115.664323745287
  0
ARC
  5
3F9
100
AcDbEntity
  8
1
  6
CONTINUOUS
 62
           7
100
AcDbCircle
 10
14260.35894690784
 20
-1035.670331346362
 40
1308.999999999998
100
AcDbArc
 50
69.893033609314
 51
89.562289252623
  0
ARC
  5
3F8
100
AcDbEntity
  8
1
  6
CONTINUOUS
 62
           7
100
AcDbCircle
 10
14260.35894690784
 20
-1035.670331346362
 40
1308.999999999999
100
AcDbArc
 50
90.437710747377
 51
110.106966390686
  0
ARC
  5
3F7
100
AcDbEntity
  8
1
  6
CONTINUOUS
 62
           7
100
AcDbCircle
 10
14260.35894690784
 20
-1035.670331346362
 40
1308.999999999998
100
AcDbArc
 50
110.106966390686
 51
116.395436670884
  0
ARC
  5
3F6
100
AcDbEntity
  8
976
  6
CONTINUOUS
 62
           7
100
AcDbCircle
 10
13740.378051311731
 20
9.069010465439
 40
142.019104465035
100
AcDbArc
 50
115.863665151446
 51
179.998318723875
  0
ARC
  5
3F5
100
AcDbEntity
  8
976
  6
CONTINUOUS
 62
           7
100
AcDbCircle
 10
13740.378051311731
 20
9.069010465439
 40
142.019104465035
100
AcDbArc
 50
115.863665151446
 51
179.998318723875
  0
ARC
  5
3F4
100
AcDbEntity
  8
1
  6
CONTINUOUS
 62
           7
100
AcDbCircle
 10
14260.35894690784
 20
-1035.670331346362
 40
1309.000000000001
100
AcDbArc
 50
63.604563329116
 51
69.893033609314
  0
ARC
  5
3F3
100
AcDbEntity
  8
1
  6
CONTINUOUS
 62
           7
100
AcDbCircle
 10
14260.35894690784
 20
-1035.670331346362
 40
1309.000000000001
100
AcDbArc
 50
63.604563329116
 51
69.893033609314
  0
ARC
  5
3F2
100
AcDbEntity
  8
1
  6
CONTINUOUS
 62
           7
100
AcDbCircle
 10
14260.35894690784
 20
-1035.670331346362
 40
1308.999999999999
100
AcDbArc
 50
90.437710747377
 51
110.106966390686
  0
ARC
  5
3F1
100
AcDbEntity
  8
976
  6
CONTINUOUS
 62
           7
100
AcDbCircle
 10
14780.33984250395
 20
9.069010465439
 40
142.019104465033
100
AcDbArc
 50
0.001681276124
 51
64.136334848554
  0
ARC
  5
3F0
100
AcDbEntity
  8
1
  6
CONTINUOUS
 62
           2
100
AcDbCircle
 10
11270.47191656551
 20
-639.136122953914
 40
25.565791607551
100
AcDbArc
 50
68.788505585336
 51
111.211494414664
  0
ARC
  5
3EF
100
AcDbEntity
  8
1
  6
CONTINUOUS
 62
           2
100
AcDbCircle
 10
11285.97191656551
 20
-625.712729195256
 40
12.142397848893
100
AcDbArc
 50
90.0
 51
120.979098861631
  0
ARC
  5
3EE
100
AcDbEntity
  8
1
  6
CONTINUOUS
 62
           2
100
AcDbCircle
 10
11254.97191656551
 20
-625.712729195256
 40
12.142397848893
100
AcDbArc
 50
59.020901138369
 51
90.0
  0
ARC
  5
3ED
100
AcDbEntity
  8
1
  6
CONTINUOUS
 62
           2
100
AcDbCircle
 10
11270.47191656551
 20
-605.070331346363
 40
15.0
100
AcDbArc
 50
0.0
 51
180.0
  0
ARC
  5
3EC
100
AcDbEntity
  8
1
  6
CONTINUOUS
 62
           2
100
AcDbCircle
 10
11292.47191656551
 20
-627.570331346363
 40
1.0
100
AcDbArc
 50
0.0
 51
180.0
  0
ARC
  5
3EB
100
AcDbEntity
  8
1
  6
CONTINUOUS
 62
           2
100
AcDbCircle
 10
11277.80524989884
 20
-627.570331346363
 40
1.0
100
AcDbArc
 50
0.0
 51
180.0
  0
ARC
  5
3EA
100
AcDbEntity
  8
1
  6
CONTINUOUS
 62
           2
100
AcDbCircle
 10
11263.138583232179
 20
-627.570331346363
 40
1.0
100
AcDbArc
 50
0.0
 51
180.0
  0
ARC
  5
3E9
100
AcDbEntity
  8
1
  6
CONTINUOUS
 62
           2
100
AcDbCircle
 10
11248.47191656551
 20
-627.570331346363
 40
1.0
100
AcDbArc
 50
0.0
 51
180.0
  0
ARC
  5
3E8
100
AcDbEntity
  8
1
  6
CONTINUOUS
 62
           2
100
AcDbCircle
 10
11270.47191656551
 20
-747.687882871007
 40
64.382448475355
100
AcDbArc
 50
-107.222444972133
 51
-72.777555027867
  0
ARC
  5
3E7
100
AcDbEntity
  8
1
  6
CONTINUOUS
 62
           2
100
AcDbCircle
 10
11237.34691656551
 20
-776.374974371366
 40
35.695356974997
100
AcDbArc
 50
-90.0
 51
-66.798947104066
  0
ARC
  5
3E6
100
AcDbEntity
  8
1
  6
CONTINUOUS
 62
           2
100
AcDbCircle
 10
11303.59691656551
 20
-776.374974371366
 40
35.695356974996
100
AcDbArc
 50
-113.201052895934
 51
-90.0
  0
ARC
  5
3E5
100
AcDbEntity
  8
1
  6
CONTINUOUS
 62
           2
100
AcDbCircle
 10
11270.649309609271
 20
-747.687882871007
 40
64.382448475355
100
AcDbArc
 50
-107.222444972133
 51
-72.777555027867
  0
ARC
  5
3E4
100
AcDbEntity
  8
1
  6
CONTINUOUS
 62
           2
100
AcDbCircle
 10
11237.524309609271
 20
-776.374974371366
 40
35.695356974997
100
AcDbArc
 50
-90.0
 51
-66.798947104066
  0
ARC
  5
3E3
100
AcDbEntity
  8
1
  6
CONTINUOUS
 62
           2
100
AcDbCircle
 10
11303.774309609271
 20
-776.374974371366
 40
35.695356974996
100
AcDbArc
 50
-113.201052895934
 51
-90.0
  0
ARC
  5
3E2
100
AcDbEntity
  8
1
  6
CONTINUOUS
 62
           2
100
AcDbCircle
 10
11270.47191656551
 20
-890.670331346363
 40
36.001544532575
100
AcDbArc
 50
135.81429214831
 51
-90.0
  0
ARC
  5
3E1
100
AcDbEntity
  8
1
  6
CONTINUOUS
 62
           2
100
AcDbCircle
 10
11270.47191656551
 20
-890.670331346363
 40
34.501544532571
100
AcDbArc
 50
145.061635945305
 51
-90.0
  0
ARC
  5
3E0
100
AcDbEntity
  8
1
  6
CONTINUOUS
 62
           2
100
AcDbCircle
 10
11270.47191656551
 20
-890.670331346363
 40
34.501544532573
100
AcDbArc
 50
-90.0
 51
34.344062965699
  0
ARC
  5
3DF
100
AcDbEntity
  8
1
  6
CONTINUOUS
 62
           2
100
AcDbCircle
 10
11270.47191656551
 20
-890.670331346363
 40
36.001544532573
100
AcDbArc
 50
-90.0
 51
44.185707851686
  0
ARC
  5
3DE
100
AcDbEntity
  8
1
  6
CONTINUOUS
 62
           2
100
AcDbCircle
 10
11303.774309609271
 20
-732.515688321358
 40
35.695356974996
100
AcDbArc
 50
90.0
 51
113.201052895934
  0
ARC
  5
3DD
100
AcDbEntity
  8
1
  6
CONTINUOUS
 62
           2
100
AcDbCircle
 10
11237.524309609271
 20
-732.515688321358
 40
35.695356974995
100
AcDbArc
 50
66.798947104066
 51
90.0
  0
ARC
  5
3DC
100
AcDbEntity
  8
1
  6
CONTINUOUS
 62
           2
100
AcDbCircle
 10
11270.649309609271
 20
-761.202779821719
 40
64.382448475356
100
AcDbArc
 50
72.777555027867
 51
107.222444972132
  0
ARC
  5
3DB
100
AcDbEntity
  8
1
  6
CONTINUOUS
 62
           2
100
AcDbCircle
 10
11303.59691656551
 20
-732.515688321358
 40
35.695356974996
100
AcDbArc
 50
90.0
 51
113.201052895934
  0
ARC
  5
3DA
100
AcDbEntity
  8
1
  6
CONTINUOUS
 62
           2
100
AcDbCircle
 10
11237.34691656551
 20
-732.515688321358
 40
35.695356974995
100
AcDbArc
 50
66.798947104066
 51
90.0
  0
ARC
  5
3D9
100
AcDbEntity
  8
1
  6
CONTINUOUS
 62
           2
100
AcDbCircle
 10
11270.47191656551
 20
-761.202779821719
 40
64.382448475356
100
AcDbArc
 50
72.777555027867
 51
107.222444972132
  0
ARC
  5
3D8
100
AcDbEntity
  8
976
  6
CONTINUOUS
 62
           7
100
AcDbCircle
 10
10750.491020969401
 20
9.069010465439
 40
142.019104465035
100
AcDbArc
 50
115.863665151446
 51
179.998318723875
  0
ARC
  5
3D7
100
AcDbEntity
  8
976
  6
CONTINUOUS
 62
           7
100
AcDbCircle
 10
10750.491020969401
 20
9.069010465439
 40
142.019104465035
100
AcDbArc
 50
115.863665151446
 51
179.998318723875
  0
ARC
  5
3D6
100
AcDbEntity
  8
976
  6
CONTINUOUS
 62
           7
100
AcDbCircle
 10
11790.45281216162
 20
9.069010465439
 40
142.019104465033
100
AcDbArc
 50
0.001681276124
 51
64.136334848554
  0
ARC
  5
3D5
100
AcDbEntity
  8
976
  6
CONTINUOUS
 62
           7
100
AcDbCircle
 10
11791.15154200187
 20
-1935.722976931793
 40
141.433231102079
100
AcDbArc
 50
-64.335676254712
 51
-2.289044018795
  0
ARC
  5
3D4
100
AcDbEntity
  8
976
  6
CONTINUOUS
 62
           7
100
AcDbCircle
 10
10749.79229112915
 20
-1935.722976931793
 40
141.433231102079
100
AcDbArc
 50
-177.710955981204
 51
-115.664323745287
  0
ARC
  5
3D3
100
AcDbEntity
  8
976
  6
CONTINUOUS
 62
           7
100
AcDbCircle
 10
14279.0403695081
 20
257.845102949158
 40
1.318577689161
100
AcDbArc
 50
-40.492977827865
 51
40.01532604947
  0
ARC
  5
3D2
100
AcDbEntity
  8
976
  6
CONTINUOUS
 62
           7
100
AcDbCircle
 10
14277.00381553349
 20
259.419014876486
 40
3.891399451517
100
AcDbArc
 50
-64.493337848398
 51
-38.644702361514
  0
ARC
  5
3D1
100
AcDbEntity
  8
976
  6
CONTINUOUS
 62
           7
100
AcDbCircle
 10
14271.483887147901
 20
269.83241196343
 40
15.674731928616
100
AcDbArc
 50
-75.999099155553
 51
-62.673594154219
  0
ARC
  5
3D0
100
AcDbEntity
  8
976
  6
CONTINUOUS
 62
           7
100
AcDbCircle
 10
14264.848884982061
 20
294.642930434821
 40
41.355722139635
100
AcDbArc
 50
-82.343384011502
 51
-75.396003011898
  0
ARC
  5
3CF
100
AcDbEntity
  8
976
  6
CONTINUOUS
 62
           7
100
AcDbCircle
 10
14264.848884982061
 20
221.048857452865
 40
41.355722139636
100
AcDbArc
 50
75.396003011897
 51
82.343384011502
  0
ARC
  5
3CE
100
AcDbEntity
  8
976
  6
CONTINUOUS
 62
           7
100
AcDbCircle
 10
14271.483887147901
 20
245.859375924255
 40
15.674731928617
100
AcDbArc
 50
62.673594154219
 51
75.999099155553
  0
ARC
  5
3CD
100
AcDbEntity
  8
976
  6
CONTINUOUS
 62
           7
100
AcDbCircle
 10
14277.00381553349
 20
256.272773011201
 40
3.891399451512
100
AcDbArc
 50
38.644702361502
 51
64.493337848386
  0
ARC
  5
3CC
100
AcDbEntity
  8
976
  6
CONTINUOUS
 62
           7
100
AcDbCircle
 10
14243.71407828219
 20
256.272773011201
 40
3.89139945151
100
AcDbArc
 50
115.506662151468
 51
141.35529763848
  0
ARC
  5
3CB
100
AcDbEntity
  8
976
  6
CONTINUOUS
 62
           7
100
AcDbCircle
 10
14249.23400666779
 20
245.859375924255
 40
15.674731928616
100
AcDbArc
 50
104.000900844447
 51
117.326405845781
  0
ARC
  5
3CA
100
AcDbEntity
  8
976
  6
CONTINUOUS
 62
           7
100
AcDbCircle
 10
14255.86900883363
 20
221.048857452865
 40
41.355722139636
100
AcDbArc
 50
97.656615988513
 51
104.603996988102
  0
ARC
  5
3C9
100
AcDbEntity
  8
976
  6
CONTINUOUS
 62
           7
100
AcDbCircle
 10
14255.86900883363
 20
294.642930434821
 40
41.355722139637
100
AcDbArc
 50
-104.603996988102
 51
-97.656615988513
  0
ARC
  5
3C8
100
AcDbEntity
  8
976
  6
CONTINUOUS
 62
           7
100
AcDbCircle
 10
14249.23400666779
 20
269.83241196343
 40
15.674731928617
100
AcDbArc
 50
-117.326405845781
 51
-104.000900844447
  0
ARC
  5
3C7
100
AcDbEntity
  8
976
  6
CONTINUOUS
 62
           7
100
AcDbCircle
 10
14243.71407828219
 20
259.419014876486
 40
3.891399451511
100
AcDbArc
 50
-141.355297638469
 51
-115.506662151457
  0
ARC
  5
3C6
100
AcDbEntity
  8
976
  6
CONTINUOUS
 62
           7
100
AcDbCircle
 10
14241.677524307581
 20
257.845102949158
 40
1.318577689162
100
AcDbArc
 50
139.98467395058
 51
-139.507022172134
  0
ARC
  5
3C5
100
AcDbEntity
  8
976
  6
CONTINUOUS
 62
           7
100
AcDbCircle
 10
14281.588697916961
 20
241.293059611958
 40
1.270249198802
100
AcDbArc
 50
-34.837294283145
 51
-0.032782393894
  0
ARC
  5
3C4
100
AcDbEntity
  8
976
  6
CONTINUOUS
 62
           7
100
AcDbCircle
 10
14279.57800284191
 20
242.691836883306
 40
3.719631252949
100
AcDbArc
 50
-65.504737488548
 51
-34.829277745543
  0
ARC
  5
3C3
100
AcDbEntity
  8
976
  6
CONTINUOUS
 62
           7
100
AcDbCircle
 10
14270.173121718341
 20
263.140926281571
 40
26.227766274616
100
AcDbArc
 50
-81.38136828377
 51
-65.330324197006
  0
ARC
  5
3C2
100
AcDbEntity
  8
976
  6
CONTINUOUS
 62
           7
100
AcDbCircle
 10
14260.86716838229
 20
318.122515800194
 40
81.988686340929
100
AcDbArc
 50
-90.35583646593
 51
-80.70943281685
  0
ARC
  5
3C1
100
AcDbEntity
  8
976
  6
CONTINUOUS
 62
           7
100
AcDbCircle
 10
14259.850725433391
 20
318.122515800194
 40
81.988686340929
100
AcDbArc
 50
-99.290567183151
 51
-89.644163534071
  0
ARC
  5
3C0
100
AcDbEntity
  8
976
  6
CONTINUOUS
 62
           7
100
AcDbCircle
 10
14250.54477209735
 20
263.140926281571
 40
26.227766274619
100
AcDbArc
 50
-114.669675803012
 51
-98.618631716253
  0
ARC
  5
3BF
100
AcDbEntity
  8
976
  6
CONTINUOUS
 62
           7
100
AcDbCircle
 10
14241.139890973771
 20
242.691836883306
 40
3.719631252943
100
AcDbArc
 50
-145.170722254393
 51
-114.495262511452
  0
ARC
  5
3BE
100
AcDbEntity
  8
976
  6
CONTINUOUS
 62
           7
100
AcDbCircle
 10
14239.129195898729
 20
241.293059611958
 40
1.270249198809
100
AcDbArc
 50
-179.967217606106
 51
-145.162705716901
  0
ARC
  5
3BD
100
AcDbEntity
  8
976
  6
CONTINUOUS
 62
           7
100
AcDbCircle
 10
14260.35894690784
 20
320.0440408029
 40
10.0
100
AcDbArc
 50
0.0
 51
180.0
  0
ARC
  5
3BC
100
AcDbEntity
  8
976
  6
CONTINUOUS
 62
           7
100
AcDbCircle
 10
10970.47191656551
 20
284.663206695171
 40
44.999999999997
100
AcDbArc
 50
-43.887605381839
 51
-109.612394618164
  0
ARC
  5
3BB
100
AcDbEntity
  8
976
  6
CONTINUOUS
 62
           7
100
AcDbCircle
 10
11570.47191656551
 20
284.663206695171
 40
45.000000000001
100
AcDbArc
 50
-70.387605381833
 51
-136.112394618169
  0
ARC
  5
3BA
100
AcDbEntity
  8
976
  6
CONTINUOUS
 62
           7
100
AcDbCircle
 10
11270.471916565501
 20
-3749.140914244376
 40
668.000000000003
100
AcDbArc
 50
64.934587906919
 51
115.065412093078
  0
ARC
  5
3B9
100
AcDbEntity
  8
976
  6
CONTINUOUS
 62
           7
100
AcDbCircle
 10
11273.47191656553
 20
-3752.140914244375
 40
664.999999999986
100
AcDbArc
 50
-7.995639976545
 51
7.995639976545
  0
ARC
  5
3B8
100
AcDbEntity
  8
976
  6
CONTINUOUS
 62
           7
100
AcDbCircle
 10
11267.47191656551
 20
-3752.140914244375
 40
664.999999999995
100
AcDbArc
 50
172.004360023455
 51
-172.004360023455
  0
ARC
  5
3B7
100
AcDbEntity
  8
1
  6
CONTINUOUS
 62
           7
100
AcDbCircle
 10
14260.35894690784
 20
-2290.670331346364
 40
100.0
100
AcDbArc
 50
0.0
 51
180.0
  0
ARC
  5
3B6
100
AcDbEntity
  8
1
  6
CONTINUOUS
 62
           7
100
AcDbCircle
 10
13508.068918598539
 20
-2275.134306124857
 40
315.971260282128
100
AcDbArc
 50
-1.456160860872
 51
16.922170814293
  0
ARC
  5
3B5
100
AcDbEntity
  8
1
  6
CONTINUOUS
 62
           7
100
AcDbCircle
 10
13508.068918598539
 20
-2275.134306124857
 40
315.971260282128
100
AcDbArc
 50
-1.456160860872
 51
16.922170814293
  0
ARC
  5
3B4
100
AcDbEntity
  8
1
  6
CONTINUOUS
 62
           7
100
AcDbCircle
 10
13508.068918598539
 20
-2275.134306124857
 40
315.971260282128
100
AcDbArc
 50
-1.456160860872
 51
16.922170814293
  0
ARC
  5
3B3
100
AcDbEntity
  8
1
  6
CONTINUOUS
 62
           7
100
AcDbCircle
 10
13508.068918598539
 20
-2275.134306124857
 40
315.971260282128
100
AcDbArc
 50
-1.456160860872
 51
16.922170814293
  0
ARC
  5
3B2
100
AcDbEntity
  8
1
  6
CONTINUOUS
 62
           7
100
AcDbCircle
 10
15012.648975217149
 20
-2275.134306124857
 40
315.971260282131
100
AcDbArc
 50
163.077829185707
 51
-178.543839139127
  0
ARC
  5
3B1
100
AcDbEntity
  8
1
  6
CONTINUOUS
 62
           7
100
AcDbCircle
 10
15012.648975217149
 20
-2275.134306124857
 40
315.971260282131
100
AcDbArc
 50
163.077829185707
 51
-178.543839139127
  0
ARC
  5
3B0
100
AcDbEntity
  8
1
  6
DOTTED
 62
           7
100
AcDbCircle
 10
14260.35894690784
 20
-890.670331346363
 40
1308.999999999999
100
AcDbArc
 50
-110.106966390686
 51
-69.893033609314
  0
ARC
  5
3AF
100
AcDbEntity
  8
1
  6
CONTINUOUS
 62
           7
100
AcDbCircle
 10
10518.1818882562
 20
-2275.134306124857
 40
315.971260282137
100
AcDbArc
 50
-1.456160860872
 51
16.922170814292
  0
ARC
  5
3AE
100
AcDbEntity
  8
1
  6
CONTINUOUS
 62
           7
100
AcDbCircle
 10
10518.1818882562
 20
-2275.134306124857
 40
315.971260282137
100
AcDbArc
 50
-1.456160860872
 51
16.922170814292
  0
ARC
  5
3AD
100
AcDbEntity
  8
1
  6
CONTINUOUS
 62
           7
100
AcDbCircle
 10
12022.76194487481
 20
-2275.134306124857
 40
315.971260282123
100
AcDbArc
 50
163.077829185707
 51
-178.543839139127
  0
ARC
  5
3AC
100
AcDbEntity
  8
1
  6
CONTINUOUS
 62
           7
100
AcDbCircle
 10
11270.47191656551
 20
-1035.670331346362
 40
1308.999999999998
100
AcDbArc
 50
110.106966390686
 51
116.395436670884
  0
ARC
  5
3AB
100
AcDbEntity
  8
1
  6
DOTTED
 62
           7
100
AcDbCircle
 10
11270.47191656551
 20
-1035.670331346362
 40
1308.999999999998
100
AcDbArc
 50
69.893033609314
 51
110.106966390686
  0
ARC
  5
3AA
100
AcDbEntity
  8
1
  6
CONTINUOUS
 62
           7
100
AcDbCircle
 10
11270.47191656551
 20
-1035.670331346362
 40
1308.999999999998
100
AcDbArc
 50
69.893033609314
 51
110.106966390686
  0
ARC
  5
3A9
100
AcDbEntity
  8
1
  6
CONTINUOUS
 62
           7
100
AcDbCircle
 10
11270.47191656551
 20
-1035.670331346362
 40
1309.000000000001
100
AcDbArc
 50
63.604563329116
 51
69.893033609314
  0
ARC
  5
3A8
100
AcDbEntity
  8
1
  6
CONTINUOUS
 62
           7
100
AcDbCircle
 10
11270.47191656551
 20
-1035.670331346362
 40
1309.000000000001
100
AcDbArc
 50
63.604563329116
 51
69.893033609314
  0
ARC
  5
3A7
100
AcDbEntity
  8
1
  6
CONTINUOUS
 62
           7
100
AcDbCircle
 10
12063.883460012101
 20
-899.670331346363
 40
137.819366308426
100
AcDbArc
 50
155.501260906973
 51
-155.501260906973
  0
ARC
  5
3A6
100
AcDbEntity
  8
1
  6
CONTINUOUS
 62
           7
100
AcDbCircle
 10
12179.14390032546
 20
-899.670331346363
 40
268.089663307016
100
AcDbArc
 50
156.94217047638
 51
-156.94217047638
  0
ARC
  5
3A5
100
AcDbEntity
  8
1
  6
CONTINUOUS
 62
           7
100
AcDbCircle
 10
10361.79993280555
 20
-1699.670331346363
 40
268.089663307024
100
AcDbArc
 50
-23.057829523619
 51
23.057829523619
  0
ARC
  5
3A4
100
AcDbEntity
  8
1
  6
CONTINUOUS
 62
           7
100
AcDbCircle
 10
10477.06037311892
 20
-1699.670331346363
 40
137.819366308425
100
AcDbArc
 50
-24.498739093027
 51
24.498739093026
  0
ARC
  5
3A3
100
AcDbEntity
  8
1
  6
DOTTED
 62
           7
100
AcDbCircle
 10
11270.47191656551
 20
-890.670331346363
 40
1308.999999999999
100
AcDbArc
 50
-110.106966390686
 51
-69.893033609314
  0
ARC
  5
3A2
100
AcDbEntity
  8
1
  6
CONTINUOUS
 62
           7
100
AcDbCircle
 10
11270.47191656551
 20
-890.670331346363
 40
1308.999999999999
100
AcDbArc
 50
-116.395436670884
 51
-110.106966390686
  0
ARC
  5
3A1
100
AcDbEntity
  8
1
  6
CONTINUOUS
 62
           7
100
AcDbCircle
 10
11270.47191656551
 20
-890.670331346363
 40
1308.999999999999
100
AcDbArc
 50
-69.893033609314
 51
-63.604563329116
  0
ARC
  5
3A0
100
AcDbEntity
  8
1
  6
CONTINUOUS
 62
           2
100
AcDbCircle
 10
10496.9731897071
 20
-3752.140914244375
 40
11.5
100
AcDbArc
 50
90.0
 51
-90.0
  0
ARC
  5
39F
100
AcDbEntity
  8
1
  6
CONTINUOUS
 62
           7
100
AcDbCircle
 10
14260.35894690784
 20
-1190.670331346363
 40
1009.000000000001
100
AcDbArc
 50
-92.255000670213
 51
-87.744999329786
  0
ARC
  5
39E
100
AcDbEntity
  8
1
  6
CONTINUOUS
 62
           2
100
AcDbCircle
 10
14260.35894690784
 20
-2255.134658088104
 40
13.000000000002
100
AcDbArc
 50
-148.891077489459
 51
-31.108922510536
  0
ARC
  5
39D
100
AcDbEntity
  8
1
  6
CONTINUOUS
 62
           2
100
AcDbCircle
 10
14260.35894690784
 20
-2255.134658088104
 40
12.999999999998
100
AcDbArc
 50
31.108922510498
 51
148.891077489497
  0
ARC
  5
39C
100
AcDbEntity
  8
1
  6
CONTINUOUS
 62
           2
100
AcDbCircle
 10
14260.35894690784
 20
-2260.251113056564
 40
23.883545031538
100
AcDbArc
 50
-107.587953773993
 51
-103.93090048415
  0
ARC
  5
39B
100
AcDbEntity
  8
1
  6
CONTINUOUS
 62
           2
100
AcDbCircle
 10
14260.35894690784
 20
-2251.518203119643
 40
23.883545031544
100
AcDbArc
 50
72.412046225988
 51
76.069099515849
  0
ARC
  5
39A
100
AcDbEntity
  8
1
  6
CONTINUOUS
 62
           2
100
AcDbCircle
 10
14260.35894690784
 20
-2298.018203119644
 40
23.883545031542
100
AcDbArc
 50
72.412046225987
 51
76.069099515849
  0
ARC
  5
399
100
AcDbEntity
  8
1
  6
CONTINUOUS
 62
           2
100
AcDbCircle
 10
14260.35894690784
 20
-2213.751113056565
 40
23.883545031541
100
AcDbArc
 50
-107.58795377399
 51
-103.93090048415
  0
ARC
  5
398
100
AcDbEntity
  8
1
  6
CONTINUOUS
 62
           2
100
AcDbCircle
 10
14271.201787696051
 20
-2280.580850964026
 40
6.446216693345
100
AcDbArc
 50
97.512915755828
 51
124.228495803126
  0
ARC
  5
397
100
AcDbEntity
  8
1
  6
CONTINUOUS
 62
           2
100
AcDbCircle
 10
14249.51610611965
 20
-2280.580850964027
 40
6.446216693349
100
AcDbArc
 50
100.341209638534
 51
114.020677081053
  0
ARC
  5
396
100
AcDbEntity
  8
1
  6
CONTINUOUS
 62
           2
100
AcDbCircle
 10
14260.35894690784
 20
-2298.018203119644
 40
23.883545031541
100
AcDbArc
 50
103.93090048415
 51
107.587953773992
  0
ARC
  5
395
100
AcDbEntity
  8
1
  6
CONTINUOUS
 62
           2
100
AcDbCircle
 10
14271.201787696051
 20
-2231.188465212184
 40
6.446216693343
100
AcDbArc
 50
-79.658790361654
 51
-65.979322919044
  0
ARC
  5
394
100
AcDbEntity
  8
1
  6
CONTINUOUS
 62
           2
100
AcDbCircle
 10
14249.51610611965
 20
-2231.188465212183
 40
6.446216693345
100
AcDbArc
 50
-82.487084244368
 51
-55.771504196979
  0
ARC
  5
393
100
AcDbEntity
  8
1
  6
CONTINUOUS
 62
           2
100
AcDbCircle
 10
14260.35894690784
 20
-2213.751113056565
 40
23.883545031541
100
AcDbArc
 50
-76.069099515849
 51
-72.412046225988
  0
ARC
  5
392
100
AcDbEntity
  8
1
  6
CONTINUOUS
 62
           2
100
AcDbCircle
 10
14249.51610611965
 20
-2234.080850964025
 40
6.446216693343
100
AcDbArc
 50
55.771504196979
 51
114.020677081056
  0
ARC
  5
391
100
AcDbEntity
  8
1
  6
CONTINUOUS
 62
           2
100
AcDbCircle
 10
14260.35894690784
 20
-2251.518203119643
 40
23.883545031541
100
AcDbArc
 50
103.93090048415
 51
107.58795377399
  0
ARC
  5
390
100
AcDbEntity
  8
1
  6
CONTINUOUS
 62
           2
100
AcDbCircle
 10
14271.201787696051
 20
-2234.080850964024
 40
6.446216693341
100
AcDbArc
 50
65.979322919044
 51
124.228495803119
  0
ARC
  5
38F
100
AcDbEntity
  8
1
  6
CONTINUOUS
 62
           2
100
AcDbCircle
 10
14249.51610611965
 20
-2277.688465212181
 40
6.446216693346
100
AcDbArc
 50
-114.020677081061
 51
-55.771504196968
  0
ARC
  5
38E
100
AcDbEntity
  8
1
  6
CONTINUOUS
 62
           2
100
AcDbCircle
 10
14260.35894690784
 20
-2260.251113056564
 40
23.883545031541
100
AcDbArc
 50
-76.069099515849
 51
-72.412046225986
  0
ARC
  5
38D
100
AcDbEntity
  8
1
  6
CONTINUOUS
 62
           2
100
AcDbCircle
 10
14271.201787696051
 20
-2277.688465212182
 40
6.446216693348
100
AcDbArc
 50
-124.22849580313
 51
-65.979322919039
  0
ARC
  5
38C
100
AcDbEntity
  8
1
  6
CONTINUOUS
 62
           2
100
AcDbCircle
 10
14249.51610611965
 20
-2231.188465212183
 40
6.446216693347
100
AcDbArc
 50
-114.020677081056
 51
-100.341209638543
  0
ARC
  5
38B
100
AcDbEntity
  8
1
  6
CONTINUOUS
 62
           2
100
AcDbCircle
 10
14271.201787696051
 20
-2231.188465212184
 40
6.44621669335
100
AcDbArc
 50
-124.228495803119
 51
-97.512915755825
  0
ARC
  5
38A
100
AcDbEntity
  8
1
  6
CONTINUOUS
 62
           2
100
AcDbCircle
 10
14249.51610611965
 20
-2280.580850964027
 40
6.446216693342
100
AcDbArc
 50
55.771504196972
 51
82.487084244369
  0
ARC
  5
389
100
AcDbEntity
  8
1
  6
CONTINUOUS
 62
           2
100
AcDbCircle
 10
14271.201787696051
 20
-2280.580850964026
 40
6.446216693342
100
AcDbArc
 50
65.979322919047
 51
79.65879036165
  0
ARC
  5
388
100
AcDbEntity
  8
1
  6
CONTINUOUS
 62
           2
100
AcDbCircle
 10
14260.358946907851
 20
-2251.518203119682
 40
23.883545031577
100
AcDbArc
 50
72.412046226041
 51
107.587953773987
  0
ARC
  5
387
100
AcDbEntity
  8
1
  6
CONTINUOUS
 62
           2
100
AcDbCircle
 10
14260.358946907851
 20
-2216.142723628315
 40
21.61581591879
100
AcDbArc
 50
-109.503854479483
 51
-70.496145520549
  0
ARC
  5
386
100
AcDbEntity
  8
1
  6
CONTINUOUS
 62
           2
100
AcDbCircle
 10
14260.358946907851
 20
-2260.251113056546
 40
23.883545031559
100
AcDbArc
 50
-107.587953774005
 51
-72.412046226024
  0
ARC
  5
385
100
AcDbEntity
  8
1
  6
CONTINUOUS
 62
           2
100
AcDbCircle
 10
14260.358946907851
 20
-2299.979764802389
 40
25.760231957407
100
AcDbArc
 50
73.730496507367
 51
106.26950349266
  0
ARC
  5
384
100
AcDbEntity
  8
1
  6
CONTINUOUS
 62
           7
100
AcDbCircle
 10
10498.036463576531
 20
-810.91880135486
 40
13.711205269312
100
AcDbArc
 50
30.139023485596
 51
59.860976514419
  0
ARC
  5
383
100
AcDbEntity
  8
1
  6
CONTINUOUS
 62
           7
100
AcDbCircle
 10
10504.594402961469
 20
-799.623500090584
 40
0.650179290195
100
AcDbArc
 50
59.860976513889
 51
153.417695580771
  0
ARC
  5
382
100
AcDbEntity
  8
1
  6
CONTINUOUS
 62
           7
100
AcDbCircle
 10
10465.650048506781
 20
-780.136661714039
 40
42.897491299709
100
AcDbArc
 50
-43.266911622702
 51
-26.58230441919
  0
ARC
  5
381
100
AcDbEntity
  8
1
  6
CONTINUOUS
 62
           7
100
AcDbCircle
 10
10509.331764840799
 20
-804.360861969913
 40
0.650179290194
100
AcDbArc
 50
-63.417695580234
 51
30.139023485436
  0
ARC
  5
380
100
AcDbEntity
  8
1
  6
CONTINUOUS
 62
           7
100
AcDbCircle
 10
10528.818603217351
 20
-843.305216424612
 40
42.897491299713
100
AcDbArc
 50
116.582304419184
 51
133.266911622705
  0
ARC
  5
37F
100
AcDbEntity
  8
1
  6
CONTINUOUS
 62
           7
100
AcDbCircle
 10
10495.9325318108
 20
-813.020620707934
 40
32.087775151113
100
AcDbArc
 50
179.92690789132
 51
-135.444465308214
  0
ARC
  5
37E
100
AcDbEntity
  8
1
  6
CONTINUOUS
 62
           7
100
AcDbCircle
 10
10495.933660443439
 20
-812.690470397523
 40
39.342857142856
100
AcDbArc
 50
-105.026113759118
 51
-74.973886240879
  0
ARC
  5
37D
100
AcDbEntity
  8
1
  6
CONTINUOUS
 62
           7
100
AcDbCircle
 10
10495.889215998999
 20
-812.987517155108
 40
39.044459324231
100
AcDbArc
 50
-145.958605674406
 51
-105.076135211293
  0
ARC
  5
37C
100
AcDbEntity
  8
1
  6
CONTINUOUS
 62
           7
100
AcDbCircle
 10
10495.978104887879
 20
-813.079552953771
 40
38.95559865625
100
AcDbArc
 50
-25.984434102922
 51
0.085230463914
  0
ARC
  5
37B
100
AcDbEntity
  8
1
  6
CONTINUOUS
 62
           7
100
AcDbCircle
 10
10495.933660443439
 20
-813.021604487946
 40
3.611111111111
100
AcDbArc
 50
0.0
 51
15.302031714375
  0
ARC
  5
37A
100
AcDbEntity
  8
1
  6
CONTINUOUS
 62
           7
100
AcDbCircle
 10
10495.933660443439
 20
-813.021604487946
 40
3.61111111111
100
AcDbArc
 50
-111.421821521785
 51
0.0
  0
ARC
  5
379
100
AcDbEntity
  8
1
  6
CONTINUOUS
 62
           7
100
AcDbCircle
 10
10495.933660443439
 20
-813.021604487946
 40
3.611111111112
100
AcDbArc
 50
74.697968285581
 51
-158.57817847822
  0
ARC
  5
378
100
AcDbEntity
  8
1
  6
CONTINUOUS
 62
           7
100
AcDbCircle
 10
10495.9325318108
 20
-813.020620707934
 40
32.087775151114
100
AcDbArc
 50
-45.00083118376
 51
179.92690789132
  0
ARC
  5
377
100
AcDbEntity
  8
1
  6
CONTINUOUS
 62
           7
100
AcDbCircle
 10
10495.93635073197
 20
-813.025112195032
 40
28.591593842006
100
AcDbArc
 50
-45.000000000013
 51
180.0
  0
ARC
  5
376
100
AcDbEntity
  8
1
  6
CONTINUOUS
 62
           7
100
AcDbCircle
 10
10495.93635073197
 20
-813.025112195032
 40
28.59159384202
100
AcDbArc
 50
180.0
 51
-135.510592132966
  0
ARC
  5
375
100
AcDbEntity
  8
1
  6
CONTINUOUS
 62
           7
100
AcDbCircle
 10
10495.889215998999
 20
-812.987517155108
 40
39.044459324227
100
AcDbArc
 50
-0.050021452169
 51
85.969342150797
  0
ARC
  5
374
100
AcDbEntity
  8
1
  6
CONTINUOUS
 62
           7
100
AcDbCircle
 10
10495.889215998999
 20
-812.987517155108
 40
39.04445932423
100
AcDbArc
 50
85.969342150797
 51
93.899904844099
  0
ARC
  5
373
100
AcDbEntity
  8
1
  6
CONTINUOUS
 62
           7
100
AcDbCircle
 10
10495.933660443439
 20
-775.180557830878
 40
3.637500000001
100
AcDbArc
 50
42.075022050836
 51
137.924977949145
  0
ARC
  5
372
100
AcDbEntity
  8
1
  6
CONTINUOUS
 62
           7
100
AcDbCircle
 10
10463.16235273263
 20
-831.94212781648
 40
3.637500000005
100
AcDbArc
 50
162.0750220509
 51
-102.075022050921
  0
ARC
  5
371
100
AcDbEntity
  8
1
  6
CONTINUOUS
 62
           7
100
AcDbCircle
 10
10528.661096563121
 20
-831.916798541531
 40
3.637500000001
100
AcDbArc
 50
-77.924977949075
 51
17.924977949179
  0
ARC
  5
370
100
AcDbEntity
  8
1
  6
CONTINUOUS
 62
           7
100
AcDbCircle
 10
10495.978104887879
 20
-813.079552953771
 40
38.955598656248
100
AcDbArc
 50
-74.88865577696
 51
-33.933112924654
  0
ARC
  5
36F
100
AcDbEntity
  8
1
  6
CONTINUOUS
 62
           7
100
AcDbCircle
 10
10495.978104887879
 20
-813.079552953771
 40
38.955598656248
100
AcDbArc
 50
-33.933112924654
 51
-25.984434102922
  0
ARC
  5
36E
100
AcDbEntity
  8
1
  6
CONTINUOUS
 62
           7
100
AcDbCircle
 10
10495.889215998999
 20
-812.987517155108
 40
39.044459324237
100
AcDbArc
 50
-153.889170205387
 51
-145.958605674406
  0
ARC
  5
36D
100
AcDbEntity
  8
1
  6
CONTINUOUS
 62
           7
100
AcDbCircle
 10
10495.889215998999
 20
-812.987517155108
 40
39.044459324231
100
AcDbArc
 50
93.899904844099
 51
-153.889170205387
  0
ARC
  5
36C
100
AcDbEntity
  8
1
  6
CONTINUOUS
 62
           2
100
AcDbCircle
 10
10589.99456512834
 20
-899.670331346363
 40
20.062177826479
100
AcDbArc
 50
162.412046225997
 51
163.904036789943
  0
ARC
  5
36B
100
AcDbEntity
  8
1
  6
CONTINUOUS
 62
           2
100
AcDbCircle
 10
10522.20803164889
 20
-899.670331346363
 40
20.062177826479
100
AcDbArc
 50
-17.587953774002
 51
-16.095963210056
  0
ARC
  5
36A
100
AcDbEntity
  8
1
  6
CONTINUOUS
 62
           2
100
AcDbCircle
 10
10562.1352653623
 20
-895.681501779433
 40
6.806710713919
100
AcDbArc
 50
3.041596008603
 51
41.51019968789
  0
ARC
  5
369
100
AcDbEntity
  8
1
  6
CONTINUOUS
 62
           2
100
AcDbCircle
 10
10536.8554074596
 20
-908.778317608442
 40
5.414822022401
100
AcDbArc
 50
-24.020677081095
 51
34.228495803065
  0
ARC
  5
368
100
AcDbEntity
  8
1
  6
CONTINUOUS
 62
           2
100
AcDbCircle
 10
10536.8554074596
 20
-890.562345084284
 40
5.414822022404
100
AcDbArc
 50
-34.228495803065
 51
24.020677081095
  0
ARC
  5
367
100
AcDbEntity
  8
1
  6
CONTINUOUS
 62
           2
100
AcDbCircle
 10
10522.20803164889
 20
-899.670331346363
 40
20.062177826481
100
AcDbArc
 50
16.095963210056
 51
17.587953774002
  0
ARC
  5
366
100
AcDbEntity
  8
1
  6
CONTINUOUS
 62
           2
100
AcDbCircle
 10
10575.34718931763
 20
-890.562345084284
 40
5.414822022411
100
AcDbArc
 50
155.979322918951
 51
-145.771504196935
  0
ARC
  5
365
100
AcDbEntity
  8
1
  6
CONTINUOUS
 62
           2
100
AcDbCircle
 10
10575.34718931763
 20
-908.778317608442
 40
5.414822022404
100
AcDbArc
 50
145.771504196935
 51
-155.979322918951
  0
ARC
  5
364
100
AcDbEntity
  8
1
  6
CONTINUOUS
 62
           2
100
AcDbCircle
 10
10589.99456512834
 20
-899.670331346363
 40
20.062177826481
100
AcDbArc
 50
-163.904036789943
 51
-162.412046225997
  0
ARC
  5
363
100
AcDbEntity
  8
1
  6
CONTINUOUS
 62
           2
100
AcDbCircle
 10
10556.232387301859
 20
-899.670331346363
 40
9.999999999996
100
AcDbArc
 50
34.42900395073
 51
145.570996049269
  0
ARC
  5
362
100
AcDbEntity
  8
1
  6
CONTINUOUS
 62
           2
100
AcDbCircle
 10
10556.232387301859
 20
-899.670331346363
 40
9.999999999996
100
AcDbArc
 50
-145.570996049269
 51
-34.42900395073
  0
ARC
  5
361
100
AcDbEntity
  8
1
  6
CONTINUOUS
 62
           2
100
AcDbCircle
 10
10572.81758528609
 20
-890.562345084284
 40
5.414822022404
100
AcDbArc
 50
-34.228495803065
 51
24.020677081048
  0
ARC
  5
360
100
AcDbEntity
  8
1
  6
CONTINUOUS
 62
           2
100
AcDbCircle
 10
10558.17020947538
 20
-899.670331346363
 40
20.062177826479
100
AcDbArc
 50
-17.587953774002
 51
17.587953774002
  0
ARC
  5
35F
100
AcDbEntity
  8
1
  6
CONTINUOUS
 62
           2
100
AcDbCircle
 10
10572.81758528609
 20
-908.778317608442
 40
5.414822022411
100
AcDbArc
 50
-24.020677081048
 51
34.228495803065
  0
ARC
  5
35E
100
AcDbEntity
  8
1
  6
CONTINUOUS
 62
           2
100
AcDbCircle
 10
10539.647189317629
 20
-890.562345084284
 40
5.41482202241
100
AcDbArc
 50
155.979322918944
 51
-145.771504196935
  0
ARC
  5
35D
100
AcDbEntity
  8
1
  6
CONTINUOUS
 62
           2
100
AcDbCircle
 10
10554.294565128341
 20
-899.670331346363
 40
20.062177826481
100
AcDbArc
 50
162.412046225999
 51
-162.412046225999
  0
ARC
  5
35C
100
AcDbEntity
  8
1
  6
CONTINUOUS
 62
           2
100
AcDbCircle
 10
10539.647189317629
 20
-908.778317608442
 40
5.414822022404
100
AcDbArc
 50
145.771504196935
 51
-155.979322918944
  0
ARC
  5
35B
100
AcDbEntity
  8
1
  6
CONTINUOUS
 62
           2
100
AcDbCircle
 10
11264.22191656551
 20
-2291.485880324401
 40
18.052215644709
100
AcDbArc
 50
98.762318068002
 51
110.256158000419
  0
ARC
  5
35A
100
AcDbEntity
  8
1
  6
CONTINUOUS
 62
           2
100
AcDbCircle
 10
11276.72191656551
 20
-2219.714782368327
 40
18.052215644707
100
AcDbArc
 50
-81.237681931996
 51
-69.743841999579
  0
ARC
  5
359
100
AcDbEntity
  8
1
  6
CONTINUOUS
 62
           2
100
AcDbCircle
 10
11276.72191656551
 20
-2291.485880324401
 40
18.052215644709
100
AcDbArc
 50
98.762318068002
 51
110.256158000418
  0
ARC
  5
358
100
AcDbEntity
  8
1
  6
CONTINUOUS
 62
           2
100
AcDbCircle
 10
11264.22191656551
 20
-2219.714782368327
 40
18.052215644708
100
AcDbArc
 50
-81.237681931997
 51
-69.74384199958
  0
ARC
  5
357
100
AcDbEntity
  8
1
  6
CONTINUOUS
 62
           2
100
AcDbCircle
 10
11264.22191656551
 20
-2291.485880324401
 40
18.052215644709
100
AcDbArc
 50
69.743841999582
 51
81.237681931997
  0
ARC
  5
356
100
AcDbEntity
  8
1
  6
CONTINUOUS
 62
           2
100
AcDbCircle
 10
11276.72191656551
 20
-2291.485880324401
 40
18.052215644708
100
AcDbArc
 50
69.743841999581
 51
81.237681931997
  0
ARC
  5
355
100
AcDbEntity
  8
1
  6
CONTINUOUS
 62
           2
100
AcDbCircle
 10
11264.22191656551
 20
-2219.714782368327
 40
18.052215644707
100
AcDbArc
 50
-110.25615800042
 51
-98.762318068003
  0
ARC
  5
354
100
AcDbEntity
  8
1
  6
CONTINUOUS
 62
           2
100
AcDbCircle
 10
11276.72191656551
 20
-2219.714782368327
 40
18.052215644708
100
AcDbArc
 50
-110.256158000419
 51
-98.762318068003
  0
ARC
  5
353
100
AcDbEntity
  8
1
  6
CONTINUOUS
 62
           2
100
AcDbCircle
 10
11276.72191656551
 20
-2245.402546991069
 40
18.052215644707
100
AcDbArc
 50
69.743841999579
 51
110.256158000419
  0
ARC
  5
352
100
AcDbEntity
  8
1
  6
CONTINUOUS
 62
           2
100
AcDbCircle
 10
11264.22191656551
 20
-2245.402546991069
 40
18.052215644708
100
AcDbArc
 50
69.743841999581
 51
110.25615800042
  0
ARC
  5
351
100
AcDbEntity
  8
1
  6
CONTINUOUS
 62
           2
100
AcDbCircle
 10
11276.72191656551
 20
-2265.798115701657
 40
18.052215644707
100
AcDbArc
 50
-110.25615800042
 51
-69.743841999577
  0
ARC
  5
350
100
AcDbEntity
  8
1
  6
CONTINUOUS
 62
           2
100
AcDbCircle
 10
11264.22191656551
 20
-2265.798115701657
 40
18.052215644705
100
AcDbArc
 50
-110.256158000422
 51
-69.74384199958
  0
ARC
  5
34F
100
AcDbEntity
  8
1
  6
CONTINUOUS
 62
           2
100
AcDbCircle
 10
11313.25316656551
 20
-2254.850331346363
 40
15.781249999997
100
AcDbArc
 50
141.908042894756
 51
-141.908042894758
  0
ARC
  5
34E
100
AcDbEntity
  8
1
  6
CONTINUOUS
 62
           2
100
AcDbCircle
 10
11294.621916565509
 20
-2254.600331346363
 40
14.252192813739
100
AcDbArc
 50
158.385221057213
 51
-158.385221057213
  0
ARC
  5
34D
100
AcDbEntity
  8
1
  6
CONTINUOUS
 62
           7
100
AcDbCircle
 10
11270.47191656551
 20
-1190.670331346363
 40
1009.000000000001
100
AcDbArc
 50
-92.255000670213
 51
-87.744999329786
  0
ARC
  5
34C
100
AcDbEntity
  8
1
  6
CONTINUOUS
 62
           7
100
AcDbCircle
 10
11270.47191656551
 20
-2290.670331346364
 40
100.0
100
AcDbArc
 50
0.0
 51
180.0
  0
ARC
  5
34B
100
AcDbEntity
  8
1
  6
CONTINUOUS
 62
           7
100
AcDbCircle
 10
11370.472784491911
 20
-1333.047091909743
 40
17.499566031419
100
AcDbArc
 50
-0.403504746536
 51
179.596495253467
  0
ARC
  5
34A
100
AcDbEntity
  8
1
  6
CONTINUOUS
 62
           7
100
AcDbCircle
 10
11370.472784491911
 20
-1688.293570782983
 40
17.499566031421
100
AcDbArc
 50
-179.596495253463
 51
0.403504746536
  0
ARC
  5
349
100
AcDbEntity
  8
1
  6
CONTINUOUS
 62
           7
100
AcDbCircle
 10
11170.47104863911
 20
-1688.293570782983
 40
17.499566031421
100
AcDbArc
 50
179.596495253463
 51
-0.403504746536
  0
ARC
  5
348
100
AcDbEntity
  8
1
  6
CONTINUOUS
 62
           7
100
AcDbCircle
 10
11170.47104863911
 20
-1333.047091909743
 40
17.499566031419
100
AcDbArc
 50
0.403504746533
 51
-179.596495253463
  0
ARC
  5
347
100
AcDbEntity
  8
1
  6
CONTINUOUS
 62
           7
100
AcDbCircle
 10
11184.12708096915
 20
-1510.669188537021
 40
113.762501224351
100
AcDbArc
 50
154.947607586388
 51
-154.984784540826
  0
ARC
  5
346
100
AcDbEntity
  8
1
  6
CONTINUOUS
 62
           7
100
AcDbCircle
 10
11219.685776967221
 20
-1492.769456641773
 40
153.559261072974
100
AcDbArc
 50
-154.542879317995
 51
-126.394531208387
  0
ARC
  5
345
100
AcDbEntity
  8
1
  6
CONTINUOUS
 62
           7
100
AcDbCircle
 10
11246.898212356949
 20
-1459.034002208196
 40
196.869965427201
100
AcDbArc
 50
-126.944010452765
 51
-118.760356672528
  0
ARC
  5
344
100
AcDbEntity
  8
1
  6
CONTINUOUS
 62
           7
100
AcDbCircle
 10
11269.864609357979
 20
-1402.896142461473
 40
257.774909317817
100
AcDbArc
 50
-108.388815607174
 51
-89.864539028132
  0
ARC
  5
343
100
AcDbEntity
  8
1
  6
CONTINUOUS
 62
           7
100
AcDbCircle
 10
11269.864609357979
 20
-1618.444520231255
 40
257.77490931782
100
AcDbArc
 50
89.864539028132
 51
108.388815607173
  0
ARC
  5
342
100
AcDbEntity
  8
1
  6
CONTINUOUS
 62
           7
100
AcDbCircle
 10
11219.685776967221
 20
-1528.571206050953
 40
153.559261072978
100
AcDbArc
 50
126.394531208387
 51
154.542879317995
  0
ARC
  5
341
100
AcDbEntity
  8
1
  6
CONTINUOUS
 62
           7
100
AcDbCircle
 10
11246.898212356949
 20
-1562.30666048453
 40
196.869965427199
100
AcDbArc
 50
118.760356672528
 51
126.944010452765
  0
ARC
  5
340
100
AcDbEntity
  8
1
  6
CONTINUOUS
 62
           7
100
AcDbCircle
 10
11271.07922377304
 20
-1618.444520231255
 40
257.774909317818
100
AcDbArc
 50
71.611184392826
 51
90.135460971867
  0
ARC
  5
33F
100
AcDbEntity
  8
1
  6
CONTINUOUS
 62
           7
100
AcDbCircle
 10
11321.258056163801
 20
-1528.571206050953
 40
153.559261072974
100
AcDbArc
 50
25.457120682005
 51
53.605468791613
  0
ARC
  5
33E
100
AcDbEntity
  8
1
  6
CONTINUOUS
 62
           7
100
AcDbCircle
 10
11294.04562077407
 20
-1562.30666048453
 40
196.8699654272
100
AcDbArc
 50
53.055989547235
 51
61.239643327471
  0
ARC
  5
33D
100
AcDbEntity
  8
1
  6
CONTINUOUS
 62
           7
100
AcDbCircle
 10
11356.816752161871
 20
-1510.669188537021
 40
113.762501224349
100
AcDbArc
 50
-25.015215459173
 51
25.052392413611
  0
ARC
  5
33C
100
AcDbEntity
  8
1
  6
CONTINUOUS
 62
           7
100
AcDbCircle
 10
11321.258056163801
 20
-1492.769456641773
 40
153.559261072978
100
AcDbArc
 50
-53.605468791613
 51
-25.457120682005
  0
ARC
  5
33B
100
AcDbEntity
  8
1
  6
CONTINUOUS
 62
           7
100
AcDbCircle
 10
11294.04562077407
 20
-1459.034002208196
 40
196.869965427199
100
AcDbArc
 50
-61.239643327471
 51
-53.055989547235
  0
ARC
  5
33A
100
AcDbEntity
  8
1
  6
CONTINUOUS
 62
           7
100
AcDbCircle
 10
11271.07922377304
 20
-1402.896142461473
 40
257.774909317818
100
AcDbArc
 50
-90.135460971867
 51
-71.611184392826
  0
ARC
  5
339
100
AcDbEntity
  8
1
  6
CONTINUOUS
 62
           7
100
AcDbCircle
 10
13297.68135280696
 20
-1510.670331346363
 40
330.5
100
AcDbArc
 50
-26.991466561592
 51
26.991466561592
  0
ARC
  5
338
100
AcDbEntity
  8
1
  6
CONTINUOUS
 62
           7
100
AcDbCircle
 10
13083.125797251399
 20
-1510.670331346363
 40
596.05555555556
100
AcDbArc
 50
-30.219150244681
 51
30.219150244681
  0
ARC
  5
337
100
AcDbEntity
  8
1
  6
CONTINUOUS
 62
           7
100
AcDbCircle
 10
13098.21470683157
 20
-1510.670331346363
 40
577.929967501406
100
AcDbArc
 50
-31.271500898696
 51
31.271500898696
  0
ARC
  5
336
100
AcDbEntity
  8
1
  6
CONTINUOUS
 62
           7
100
AcDbCircle
 10
13498.916784258059
 20
-1523.681740292195
 40
7.735460032012
100
AcDbArc
 50
145.771504196941
 51
-155.979322918943
  0
ARC
  5
335
100
AcDbEntity
  8
1
  6
CONTINUOUS
 62
           7
100
AcDbCircle
 10
13519.8416068448
 20
-1510.670331346363
 40
28.660254037846
100
AcDbArc
 50
162.412046226008
 51
-162.412046226006
  0
ARC
  5
334
100
AcDbEntity
  8
1
  6
CONTINUOUS
 62
           7
100
AcDbCircle
 10
13498.916784258059
 20
-1497.658922400531
 40
7.735460032006
100
AcDbArc
 50
155.97932291895
 51
-145.771504196935
  0
ARC
  5
333
100
AcDbEntity
  8
1
  6
CONTINUOUS
 62
           7
100
AcDbCircle
 10
13498.916784258059
 20
-1497.658922400531
 40
7.735460032006
100
AcDbArc
 50
155.97932291895
 51
-145.771504196935
  0
ARC
  5
332
100
AcDbEntity
  8
1
  6
CONTINUOUS
 62
           7
100
AcDbCircle
 10
13519.8416068448
 20
-1510.670331346363
 40
28.660254037846
100
AcDbArc
 50
162.412046226008
 51
-162.412046226006
  0
ARC
  5
331
100
AcDbEntity
  8
1
  6
CONTINUOUS
 62
           7
100
AcDbCircle
 10
13498.916784258059
 20
-1523.681740292195
 40
7.735460032012
100
AcDbArc
 50
145.771504196941
 51
-155.979322918943
  0
ARC
  5
330
100
AcDbEntity
  8
1
  6
CONTINUOUS
 62
           7
100
AcDbCircle
 10
11357.46050761968
 20
-2996.164659581737
 40
7.735460032007
100
AcDbArc
 50
55.771504196985
 51
114.020677081085
  0
ARC
  5
32F
100
AcDbEntity
  8
1
  6
CONTINUOUS
 62
           7
100
AcDbCircle
 10
11370.47191656551
 20
-3017.089482168476
 40
28.660254037843
100
AcDbArc
 50
72.412046226012
 51
107.587953774005
  0
ARC
  5
32E
100
AcDbEntity
  8
1
  6
CONTINUOUS
 62
           7
100
AcDbCircle
 10
11383.483325511341
 20
-2996.164659581737
 40
7.735460032011
100
AcDbArc
 50
65.979322918989
 51
124.228495803082
  0
ARC
  5
32D
100
AcDbEntity
  8
1
  6
CONTINUOUS
 62
           7
100
AcDbCircle
 10
11157.46050761968
 20
-2996.164659581737
 40
7.735460032007
100
AcDbArc
 50
55.771504196985
 51
114.020677081085
  0
ARC
  5
32C
100
AcDbEntity
  8
1
  6
CONTINUOUS
 62
           7
100
AcDbCircle
 10
11170.47191656551
 20
-3017.089482168476
 40
28.660254037843
100
AcDbArc
 50
72.412046226012
 51
107.587953774005
  0
ARC
  5
32B
100
AcDbEntity
  8
1
  6
CONTINUOUS
 62
           7
100
AcDbCircle
 10
11183.483325511341
 20
-2996.164659581737
 40
7.735460032011
100
AcDbArc
 50
65.979322918989
 51
124.228495803082
  0
LINE
  5
32A
100
AcDbEntity
  8
1
  6
CONTINUOUS
 62
           2
100
AcDbLine
 10
11237.32191656551
 20
-3070.140914244372
 11
11303.621916565509
 21
-3070.140914244372
  0
LINE
  5
329
100
AcDbEntity
  8
1
  6
CONTINUOUS
 62
           2
100
AcDbLine
 10
11303.621916565509
 20
-3070.140914244372
 11
11303.621916565509
 21
-3081.963968074922
  0
LINE
  5
328
100
AcDbEntity
  8
1
  6
CONTINUOUS
 62
           2
100
AcDbLine
 10
11237.32191656551
 20
-3070.140914244372
 11
11237.32191656551
 21
-3081.963968074921
  0
LINE
  5
327
100
AcDbEntity
  8
1
  6
CONTINUOUS
 62
           2
100
AcDbLine
 10
11237.32191656551
 20
-3070.140914244372
 11
11303.621916565509
 21
-3070.140914244372
  0
LINE
  5
326
100
AcDbEntity
  8
1
  6
CONTINUOUS
 62
           2
100
AcDbLine
 10
11300.72191656551
 20
-3059.020914244373
 11
11240.22191656551
 21
-3059.020914244373
  0
LINE
  5
325
100
AcDbEntity
  8
1
  6
CONTINUOUS
 62
           2
100
AcDbLine
 10
11240.22191656551
 20
-3055.020914244373
 11
11300.72191656551
 21
-3055.020914244373
  0
LINE
  5
324
100
AcDbEntity
  8
1
  6
CONTINUOUS
 62
           2
100
AcDbLine
 10
11300.72191656551
 20
-3059.020914244373
 11
11300.72191656551
 21
-3055.020914244373
  0
LINE
  5
323
100
AcDbEntity
  8
1
  6
CONTINUOUS
 62
           2
100
AcDbLine
 10
11240.22191656551
 20
-3055.020914244373
 11
11240.22191656551
 21
-3059.020914244373
  0
LINE
  5
322
100
AcDbEntity
  8
1
  6
CONTINUOUS
 62
           2
100
AcDbLine
 10
11300.27891656551
 20
-3070.140914244372
 11
11300.72191656551
 21
-3059.020914244373
  0
LINE
  5
321
100
AcDbEntity
  8
1
  6
CONTINUOUS
 62
           2
100
AcDbLine
 10
11240.664916565511
 20
-3070.140914244372
 11
11240.22191656551
 21
-3059.020914244373
  0
LINE
  5
320
100
AcDbEntity
  8
1
  6
CONTINUOUS
 62
           2
100
AcDbLine
 10
11300.27891656551
 20
-3043.900914244373
 11
11300.72191656551
 21
-3055.020914244373
  0
LINE
  5
31F
100
AcDbEntity
  8
1
  6
CONTINUOUS
 62
           2
100
AcDbLine
 10
11240.22191656551
 20
-3055.020914244373
 11
11240.664916565511
 21
-3043.900914244373
  0
LINE
  5
31E
100
AcDbEntity
  8
1
  6
CONTINUOUS
 62
           2
100
AcDbLine
 10
11235.97037203294
 20
-3033.516090709632
 11
11235.97037203294
 21
-3024.40559674917
  0
LINE
  5
31D
100
AcDbEntity
  8
1
  6
CONTINUOUS
 62
           2
100
AcDbLine
 10
11270.47191656551
 20
-3043.900914244373
 11
11306.473461098079
 21
-3043.900914244373
  0
LINE
  5
31C
100
AcDbEntity
  8
1
  6
CONTINUOUS
 62
           2
100
AcDbLine
 10
11306.473461098079
 20
-3043.900914244373
 11
11306.473461098079
 21
-3038.900914244373
  0
LINE
  5
31B
100
AcDbEntity
  8
1
  6
CONTINUOUS
 62
           2
100
AcDbLine
 10
11234.47037203294
 20
-3043.900914244373
 11
11234.47037203294
 21
-3038.900914244373
  0
LINE
  5
31A
100
AcDbEntity
  8
1
  6
CONTINUOUS
 62
           2
100
AcDbLine
 10
11235.97037203294
 20
-3038.900914244373
 11
11304.973461098079
 21
-3038.900914244373
  0
LINE
  5
319
100
AcDbEntity
  8
1
  6
CONTINUOUS
 62
           2
100
AcDbLine
 10
11234.47037203294
 20
-3038.900914244373
 11
11235.97037203294
 21
-3038.900914244373
  0
LINE
  5
318
100
AcDbEntity
  8
1
  6
CONTINUOUS
 62
           2
100
AcDbLine
 10
11306.473461098079
 20
-3038.900914244373
 11
11304.973461098079
 21
-3038.900914244373
  0
LINE
  5
317
100
AcDbEntity
  8
1
  6
CONTINUOUS
 62
           2
100
AcDbLine
 10
11234.47037203294
 20
-3043.900914244373
 11
11270.47191656551
 21
-3043.900914244373
  0
LINE
  5
316
100
AcDbEntity
  8
1
  6
CONTINUOUS
 62
           2
100
AcDbLine
 10
11304.973461098079
 20
-3033.516090709632
 11
11304.973461098079
 21
-3026.40559674917
  0
LINE
  5
315
100
AcDbEntity
  8
1
  6
CONTINUOUS
 62
           2
100
AcDbLine
 10
11304.973461098079
 20
-2998.881622290855
 11
11304.973461098079
 21
-3033.516090709632
  0
LINE
  5
314
100
AcDbEntity
  8
1
  6
CONTINUOUS
 62
           2
100
AcDbLine
 10
11235.97037203294
 20
-3033.516090709632
 11
11235.97037203294
 21
-2999.326721604392
  0
LINE
  5
313
100
AcDbEntity
  8
1
  6
DOT_CENTER
 62
           2
100
AcDbLine
 10
11211.47993035535
 20
-2995.940914244372
 11
11347.36204002788
 21
-2995.940914244372
  0
LINE
  5
312
100
AcDbEntity
  8
1
  6
CONTINUOUS
 62
           2
100
AcDbLine
 10
11270.47191656551
 20
-2963.798999809364
 11
11283.279471922469
 21
-2971.193445342367
  0
LINE
  5
311
100
AcDbEntity
  8
1
  6
CONTINUOUS
 62
           2
100
AcDbLine
 10
11257.66436120855
 20
-2971.193445342367
 11
11270.47191656551
 21
-2963.798999809364
  0
LINE
  5
310
100
AcDbEntity
  8
1
  6
CONTINUOUS
 62
           2
100
AcDbLine
 10
11325.47191656551
 20
-2967.582159252343
 11
11325.47191656551
 21
-3024.940914244372
  0
LINE
  5
30F
100
AcDbEntity
  8
1
  6
CONTINUOUS
 62
           2
100
AcDbLine
 10
11325.47191656551
 20
-2966.940914244372
 11
11325.47191656551
 21
-2967.440914244372
  0
LINE
  5
30E
100
AcDbEntity
  8
1
  6
CONTINUOUS
 62
           2
100
AcDbLine
 10
11330.47191656551
 20
-2966.940914244372
 11
11325.47191656551
 21
-2966.940914244372
  0
LINE
  5
30D
100
AcDbEntity
  8
1
  6
CONTINUOUS
 62
           2
100
AcDbLine
 10
11330.47191656551
 20
-3024.940914244372
 11
11330.47191656551
 21
-2966.940914244372
  0
LINE
  5
30C
100
AcDbEntity
  8
1
  6
CONTINUOUS
 62
           2
100
AcDbLine
 10
11325.47191656551
 20
-3024.940914244372
 11
11330.47191656551
 21
-3024.940914244372
  0
LINE
  5
30B
100
AcDbEntity
  8
1
  6
CONTINUOUS
 62
           2
100
AcDbLine
 10
11325.47191656551
 20
-3024.940914244372
 11
11325.47191656551
 21
-3024.440914244372
  0
LINE
  5
30A
100
AcDbEntity
  8
1
  6
CONTINUOUS
 62
           2
100
AcDbLine
 10
11315.3718052068
 20
-3023.440914244372
 11
11324.47191656551
 21
-3023.440914244372
  0
LINE
  5
309
100
AcDbEntity
  8
1
  6
CONTINUOUS
 62
           2
100
AcDbLine
 10
11324.47191656551
 20
-2968.440914244372
 11
11315.3718052068
 21
-2968.440914244372
  0
LINE
  5
308
100
AcDbEntity
  8
1
  6
CONTINUOUS
 62
           2
100
AcDbLine
 10
13578.35894690784
 20
-932.630162650423
 11
13578.35894690784
 21
-866.330162650422
  0
LINE
  5
307
100
AcDbEntity
  8
1
  6
CONTINUOUS
 62
           7
100
AcDbLine
 10
13598.35894690784
 20
-932.630162650423
 11
13578.35894690784
 21
-932.630162650423
  0
LINE
  5
306
100
AcDbEntity
  8
1
  6
CONTINUOUS
 62
           7
100
AcDbLine
 10
13598.35894690784
 20
-866.330162650422
 11
13578.35894690784
 21
-866.330162650422
  0
LINE
  5
305
100
AcDbEntity
  8
1
  6
DOT_CENTER
 62
           2
100
AcDbLine
 10
13504.11894690784
 20
-940.342682323044
 11
13504.11894690784
 21
-624.577684451432
  0
LINE
  5
304
100
AcDbEntity
  8
1
  6
CONTINUOUS
 62
           2
100
AcDbLine
 10
13567.238946907841
 20
-869.230162650424
 11
13567.238946907841
 21
-929.730162650424
  0
LINE
  5
303
100
AcDbEntity
  8
1
  6
CONTINUOUS
 62
           2
100
AcDbLine
 10
13563.238946907841
 20
-929.730162650424
 11
13563.238946907841
 21
-869.230162650424
  0
LINE
  5
302
100
AcDbEntity
  8
1
  6
CONTINUOUS
 62
           2
100
AcDbLine
 10
13563.238946907841
 20
-929.730162650424
 11
13567.238946907841
 21
-929.730162650424
  0
LINE
  5
301
100
AcDbEntity
  8
1
  6
CONTINUOUS
 62
           2
100
AcDbLine
 10
13567.238946907841
 20
-869.230162650424
 11
13563.238946907841
 21
-869.230162650424
  0
LINE
  5
300
100
AcDbEntity
  8
1
  6
CONTINUOUS
 62
           2
100
AcDbLine
 10
13567.238946907841
 20
-929.730162650424
 11
13578.35894690784
 21
-929.287162650423
  0
LINE
  5
2FF
100
AcDbEntity
  8
1
  6
CONTINUOUS
 62
           2
100
AcDbLine
 10
13567.238946907841
 20
-869.230162650424
 11
13578.35894690784
 21
-869.673162650422
  0
LINE
  5
2FE
100
AcDbEntity
  8
1
  6
CONTINUOUS
 62
           2
100
AcDbLine
 10
13563.238946907841
 20
-929.730162650424
 11
13552.11894690784
 21
-929.287162650423
  0
LINE
  5
2FD
100
AcDbEntity
  8
1
  6
CONTINUOUS
 62
           2
100
AcDbLine
 10
13552.11894690784
 20
-869.673162650422
 11
13563.238946907841
 21
-869.230162650424
  0
LINE
  5
2FC
100
AcDbEntity
  8
1
  6
CONTINUOUS
 62
           2
100
AcDbLine
 10
13528.623629412639
 20
-851.980162650421
 11
13528.623629412639
 21
-858.978618117851
  0
LINE
  5
2FB
100
AcDbEntity
  8
1
  6
CONTINUOUS
 62
           2
100
AcDbLine
 10
13541.7341233731
 20
-933.981707182995
 11
13525.1602871249
 21
-933.981707182995
  0
LINE
  5
2FA
100
AcDbEntity
  8
1
  6
CONTINUOUS
 62
           2
100
AcDbLine
 10
13552.11894690784
 20
-935.481707182995
 11
13552.11894690784
 21
-899.480162650424
  0
LINE
  5
2F9
100
AcDbEntity
  8
1
  6
CONTINUOUS
 62
           2
100
AcDbLine
 10
13547.11894690784
 20
-935.481707182995
 11
13552.11894690784
 21
-935.481707182995
  0
LINE
  5
2F8
100
AcDbEntity
  8
1
  6
CONTINUOUS
 62
           2
100
AcDbLine
 10
13547.11894690784
 20
-863.478618117851
 11
13552.11894690784
 21
-863.478618117851
  0
LINE
  5
2F7
100
AcDbEntity
  8
1
  6
CONTINUOUS
 62
           2
100
AcDbLine
 10
13547.11894690784
 20
-933.981707182995
 11
13547.11894690784
 21
-864.978618117851
  0
LINE
  5
2F6
100
AcDbEntity
  8
1
  6
CONTINUOUS
 62
           2
100
AcDbLine
 10
13547.11894690784
 20
-864.978618117851
 11
13547.11894690784
 21
-863.478618117851
  0
LINE
  5
2F5
100
AcDbEntity
  8
1
  6
CONTINUOUS
 62
           2
100
AcDbLine
 10
13547.11894690784
 20
-933.981707182995
 11
13547.11894690784
 21
-935.481707182995
  0
LINE
  5
2F4
100
AcDbEntity
  8
1
  6
CONTINUOUS
 62
           2
100
AcDbLine
 10
13552.11894690784
 20
-899.480162650424
 11
13552.11894690784
 21
-863.478618117851
  0
LINE
  5
2F3
100
AcDbEntity
  8
1
  6
CONTINUOUS
 62
           2
100
AcDbLine
 10
13541.7341233731
 20
-864.978618117851
 11
13534.623629412639
 21
-864.978618117851
  0
LINE
  5
2F2
100
AcDbEntity
  8
1
  6
CONTINUOUS
 62
           2
100
AcDbLine
 10
13550.11894690784
 20
-794.880162650422
 11
13460.36894690784
 21
-794.880162650422
  0
LINE
  5
2F1
100
AcDbEntity
  8
1
  6
CONTINUOUS
 62
           2
100
AcDbLine
 10
13525.46894690784
 20
-834.730162650421
 11
13482.76894690784
 21
-834.730162650421
  0
LINE
  5
2F0
100
AcDbEntity
  8
1
  6
CONTINUOUS
 62
           2
100
AcDbLine
 10
13525.46894690784
 20
-831.630162650422
 11
13482.76894690784
 21
-831.630162650422
  0
LINE
  5
2EF
100
AcDbEntity
  8
1
  6
CONTINUOUS
 62
           2
100
AcDbLine
 10
13482.76894690784
 20
-831.630162650422
 11
13482.76894690784
 21
-834.730162650421
  0
LINE
  5
2EE
100
AcDbEntity
  8
1
  6
CONTINUOUS
 62
           2
100
AcDbLine
 10
13525.46894690784
 20
-834.730162650421
 11
13525.46894690784
 21
-831.630162650422
  0
LINE
  5
2ED
100
AcDbEntity
  8
1
  6
CONTINUOUS
 62
           2
100
AcDbLine
 10
13482.76894690784
 20
-831.630162650422
 11
13483.16394690784
 21
-820.880162650422
  0
LINE
  5
2EC
100
AcDbEntity
  8
1
  6
CONTINUOUS
 62
           2
100
AcDbLine
 10
13525.07394690784
 20
-845.480162650421
 11
13525.46894690784
 21
-834.730162650421
  0
LINE
  5
2EB
100
AcDbEntity
  8
1
  6
CONTINUOUS
 62
           2
100
AcDbLine
 10
13483.16394690784
 20
-845.480162650421
 11
13482.76894690784
 21
-834.730162650421
  0
LINE
  5
2EA
100
AcDbEntity
  8
1
  6
CONTINUOUS
 62
           2
100
AcDbLine
 10
13525.07394690784
 20
-820.880162650422
 11
13525.46894690784
 21
-831.630162650422
  0
LINE
  5
2E9
100
AcDbEntity
  8
1
  6
CONTINUOUS
 62
           2
100
AcDbLine
 10
13479.11894690784
 20
-881.71573335773
 11
13479.11894690784
 21
-851.880162650422
  0
LINE
  5
2E8
100
AcDbEntity
  8
1
  6
CONTINUOUS
 62
           2
100
AcDbLine
 10
13477.71894690784
 20
-850.480162650421
 11
13477.61894690784
 21
-850.480162650421
  0
LINE
  5
2E7
100
AcDbEntity
  8
1
  6
CONTINUOUS
 62
           2
100
AcDbLine
 10
13530.61894690784
 20
-850.480162650421
 11
13530.123629412639
 21
-850.480162650421
  0
LINE
  5
2E6
100
AcDbEntity
  8
1
  6
CONTINUOUS
 62
           2
100
AcDbLine
 10
13477.61894690784
 20
-850.480162650421
 11
13477.61894690784
 21
-845.480162650421
  0
LINE
  5
2E5
100
AcDbEntity
  8
1
  6
CONTINUOUS
 62
           2
100
AcDbLine
 10
13530.61894690784
 20
-850.480162650421
 11
13530.51894690784
 21
-850.480162650421
  0
LINE
  5
2E4
100
AcDbEntity
  8
1
  6
CONTINUOUS
 62
           2
100
AcDbLine
 10
13530.61894690784
 20
-845.480162650421
 11
13530.61894690784
 21
-850.480162650421
  0
LINE
  5
2E3
100
AcDbEntity
  8
1
  6
CONTINUOUS
 62
           2
100
AcDbLine
 10
13477.61894690784
 20
-845.480162650421
 11
13530.61894690784
 21
-845.480162650421
  0
LINE
  5
2E2
100
AcDbEntity
  8
1
  6
CONTINUOUS
 62
           2
100
AcDbLine
 10
13460.36894690784
 20
-794.880162650422
 11
13460.36894690784
 21
-798.380162650422
  0
LINE
  5
2E1
100
AcDbEntity
  8
1
  6
CONTINUOUS
 62
           2
100
AcDbLine
 10
13547.86894690784
 20
-794.880162650422
 11
13547.86894690784
 21
-798.380162650422
  0
LINE
  5
2E0
100
AcDbEntity
  8
1
  6
CONTINUOUS
 62
           2
100
AcDbLine
 10
13466.17133995161
 20
-817.993411304473
 11
13471.17133995161
 21
-820.880162650422
  0
LINE
  5
2DF
100
AcDbEntity
  8
1
  6
CONTINUOUS
 62
           2
100
AcDbLine
 10
13542.42133995161
 20
-817.993411304473
 11
13537.42133995161
 21
-820.880162650422
  0
LINE
  5
2DE
100
AcDbEntity
  8
1
  6
CONTINUOUS
 62
           2
100
AcDbLine
 10
13471.17133995161
 20
-820.880162650422
 11
13537.42133995161
 21
-820.880162650422
  0
LINE
  5
2DD
100
AcDbEntity
  8
1
  6
CONTINUOUS
 62
           2
100
AcDbLine
 10
13530.54633995161
 20
-820.880162650422
 11
13478.04633995161
 21
-820.880162650422
  0
LINE
  5
2DC
100
AcDbEntity
  8
1
  6
CONTINUOUS
 62
           2
100
AcDbLine
 10
13485.05644690784
 20
-817.993411304473
 11
13485.05644690784
 21
-802.130162650422
  0
LINE
  5
2DB
100
AcDbEntity
  8
1
  6
CONTINUOUS
 62
           2
100
AcDbLine
 10
13523.18144690784
 20
-817.993411304473
 11
13523.18144690784
 21
-802.130162650422
  0
LINE
  5
2DA
100
AcDbEntity
  8
1
  6
CONTINUOUS
 62
           2
100
AcDbLine
 10
13465.99394690784
 20
-817.993411304473
 11
13470.99394690784
 21
-820.880162650422
  0
LINE
  5
2D9
100
AcDbEntity
  8
1
  6
CONTINUOUS
 62
           2
100
AcDbLine
 10
13542.24394690784
 20
-817.993411304473
 11
13537.24394690784
 21
-820.880162650422
  0
LINE
  5
2D8
100
AcDbEntity
  8
1
  6
CONTINUOUS
 62
           2
100
AcDbLine
 10
13542.24394690784
 20
-817.993411304473
 11
13542.24394690784
 21
-802.130162650422
  0
LINE
  5
2D7
100
AcDbEntity
  8
1
  6
CONTINUOUS
 62
           2
100
AcDbLine
 10
13470.99394690784
 20
-820.880162650422
 11
13537.24394690784
 21
-820.880162650422
  0
LINE
  5
2D6
100
AcDbEntity
  8
1
  6
CONTINUOUS
 62
           2
100
AcDbLine
 10
13547.86894690784
 20
-794.880162650422
 11
13457.11894690784
 21
-794.880162650422
  0
LINE
  5
2D5
100
AcDbEntity
  8
1
  6
CONTINUOUS
 62
           2
100
AcDbLine
 10
13544.11894690784
 20
-802.130162650422
 11
13464.11894690784
 21
-802.130162650422
  0
LINE
  5
2D4
100
AcDbEntity
  8
1
  6
CONTINUOUS
 62
           2
100
AcDbLine
 10
13465.99394690784
 20
-802.130162650422
 11
13465.99394690784
 21
-817.993411304473
  0
LINE
  5
2D3
100
AcDbEntity
  8
1
  6
CONTINUOUS
 62
           2
100
AcDbLine
 10
13542.24394690784
 20
-802.130162650422
 11
13465.99394690784
 21
-802.130162650422
  0
LINE
  5
2D2
100
AcDbEntity
  8
1
  6
CONTINUOUS
 62
           2
100
AcDbLine
 10
13547.86894690784
 20
-794.880162650422
 11
13460.36894690784
 21
-794.880162650422
  0
LINE
  5
2D1
100
AcDbEntity
  8
1
  6
CONTINUOUS
 62
           2
100
AcDbLine
 10
13530.36894690784
 20
-820.880162650422
 11
13477.86894690784
 21
-820.880162650422
  0
LINE
  5
2D0
100
AcDbEntity
  8
1
  6
CONTINUOUS
 62
           2
100
AcDbLine
 10
13528.623629412639
 20
-850.480162650421
 11
13477.61894690784
 21
-850.480162650421
  0
LINE
  5
2CF
100
AcDbEntity
  8
1
  6
CONTINUOUS
 62
           2
100
AcDbLine
 10
13477.86894690784
 20
-705.63016265042
 11
13530.36894690784
 21
-705.63016265042
  0
LINE
  5
2CE
100
AcDbEntity
  8
1
  6
CONTINUOUS
 62
           2
100
AcDbLine
 10
13465.99394690784
 20
-724.38016265042
 11
13542.24394690784
 21
-724.38016265042
  0
LINE
  5
2CD
100
AcDbEntity
  8
1
  6
CONTINUOUS
 62
           2
100
AcDbLine
 10
13465.99394690784
 20
-708.51691399637
 11
13465.99394690784
 21
-724.38016265042
  0
LINE
  5
2CC
100
AcDbEntity
  8
1
  6
CONTINUOUS
 62
           2
100
AcDbLine
 10
13537.24394690784
 20
-705.63016265042
 11
13470.99394690784
 21
-705.63016265042
  0
LINE
  5
2CB
100
AcDbEntity
  8
1
  6
CONTINUOUS
 62
           2
100
AcDbLine
 10
13542.24394690784
 20
-724.38016265042
 11
13542.24394690784
 21
-708.51691399637
  0
LINE
  5
2CA
100
AcDbEntity
  8
1
  6
CONTINUOUS
 62
           2
100
AcDbLine
 10
13537.24394690784
 20
-705.63016265042
 11
13542.24394690784
 21
-708.51691399637
  0
LINE
  5
2C9
100
AcDbEntity
  8
1
  6
CONTINUOUS
 62
           2
100
AcDbLine
 10
13470.99394690784
 20
-705.63016265042
 11
13465.99394690784
 21
-708.51691399637
  0
LINE
  5
2C8
100
AcDbEntity
  8
1
  6
CONTINUOUS
 62
           2
100
AcDbLine
 10
13523.18144690784
 20
-724.38016265042
 11
13523.18144690784
 21
-708.51691399637
  0
LINE
  5
2C7
100
AcDbEntity
  8
1
  6
CONTINUOUS
 62
           2
100
AcDbLine
 10
13485.05644690784
 20
-724.38016265042
 11
13485.05644690784
 21
-708.51691399637
  0
LINE
  5
2C6
100
AcDbEntity
  8
1
  6
CONTINUOUS
 62
           2
100
AcDbLine
 10
13478.04633995161
 20
-705.63016265042
 11
13530.54633995161
 21
-705.63016265042
  0
LINE
  5
2C5
100
AcDbEntity
  8
1
  6
CONTINUOUS
 62
           2
100
AcDbLine
 10
13537.42133995161
 20
-705.63016265042
 11
13471.17133995161
 21
-705.63016265042
  0
LINE
  5
2C4
100
AcDbEntity
  8
1
  6
CONTINUOUS
 62
           2
100
AcDbLine
 10
13537.42133995161
 20
-705.63016265042
 11
13542.42133995161
 21
-708.51691399637
  0
LINE
  5
2C3
100
AcDbEntity
  8
1
  6
CONTINUOUS
 62
           2
100
AcDbLine
 10
13471.17133995161
 20
-705.63016265042
 11
13466.17133995161
 21
-708.51691399637
  0
LINE
  5
2C2
100
AcDbEntity
  8
1
  6
CONTINUOUS
 62
           2
100
AcDbLine
 10
13550.11894690784
 20
-794.880162650422
 11
13460.36894690784
 21
-794.880162650422
  0
LINE
  5
2C1
100
AcDbEntity
  8
1
  6
CONTINUOUS
 62
           2
100
AcDbLine
 10
13552.11894690784
 20
-729.380162650422
 11
13552.11894690784
 21
-792.880162650422
  0
LINE
  5
2C0
100
AcDbEntity
  8
1
  6
CONTINUOUS
 62
           2
100
AcDbLine
 10
13455.11894690784
 20
-729.38016265042
 11
13455.11894690784
 21
-792.880162650422
  0
LINE
  5
2BF
100
AcDbEntity
  8
1
  6
CONTINUOUS
 62
           2
100
AcDbLine
 10
13538.61894690784
 20
-724.380162650422
 11
13460.11894690784
 21
-724.38016265042
  0
LINE
  5
2BE
100
AcDbEntity
  8
1
  6
CONTINUOUS
 62
           2
100
AcDbLine
 10
13481.11894690784
 20
-636.380162650422
 11
13481.11894690784
 21
-678.802812381232
  0
LINE
  5
2BD
100
AcDbEntity
  8
1
  6
CONTINUOUS
 62
           2
100
AcDbLine
 10
13483.11894690784
 20
-636.380162650422
 11
13483.11894690784
 21
-678.380162650422
  0
LINE
  5
2BC
100
AcDbEntity
  8
1
  6
CONTINUOUS
 62
           2
100
AcDbLine
 10
13495.78561357451
 20
-636.380162650422
 11
13495.78561357451
 21
-678.380162650422
  0
LINE
  5
2BB
100
AcDbEntity
  8
1
  6
CONTINUOUS
 62
           2
100
AcDbLine
 10
13497.78561357451
 20
-636.380162650422
 11
13497.78561357451
 21
-678.380162650422
  0
LINE
  5
2BA
100
AcDbEntity
  8
1
  6
CONTINUOUS
 62
           2
100
AcDbLine
 10
13510.452280241179
 20
-636.380162650422
 11
13510.452280241179
 21
-678.380162650422
  0
LINE
  5
2B9
100
AcDbEntity
  8
1
  6
CONTINUOUS
 62
           2
100
AcDbLine
 10
13512.452280241179
 20
-636.380162650422
 11
13512.452280241179
 21
-678.380162650422
  0
LINE
  5
2B8
100
AcDbEntity
  8
1
  6
CONTINUOUS
 62
           2
100
AcDbLine
 10
13525.11894690784
 20
-636.380162650422
 11
13525.11894690784
 21
-678.380162650422
  0
LINE
  5
2B7
100
AcDbEntity
  8
1
  6
CONTINUOUS
 62
           2
100
AcDbLine
 10
13527.11894690784
 20
-636.380162650422
 11
13527.11894690784
 21
-678.802812381232
  0
LINE
  5
2B6
100
AcDbEntity
  8
1
  6
CONTINUOUS
 62
           2
100
AcDbLine
 10
13460.36894690784
 20
-794.880162650422
 11
13460.36894690784
 21
-798.380162650422
  0
LINE
  5
2B5
100
AcDbEntity
  8
1
  6
CONTINUOUS
 62
           2
100
AcDbLine
 10
13547.86894690784
 20
-794.880162650422
 11
13547.86894690784
 21
-798.380162650422
  0
LINE
  5
2B4
100
AcDbEntity
  8
1
  6
CONTINUOUS
 62
           2
100
AcDbLine
 10
13547.86894690784
 20
-794.880162650422
 11
13457.11894690784
 21
-794.880162650422
  0
LINE
  5
2B3
100
AcDbEntity
  8
1
  6
CONTINUOUS
 62
           2
100
AcDbLine
 10
13544.11894690784
 20
-802.130162650422
 11
13464.11894690784
 21
-802.130162650422
  0
LINE
  5
2B2
100
AcDbEntity
  8
1
  6
CONTINUOUS
 62
           2
100
AcDbLine
 10
13542.24394690784
 20
-802.130162650422
 11
13465.99394690784
 21
-802.130162650422
  0
LINE
  5
2B1
100
AcDbEntity
  8
1
  6
CONTINUOUS
 62
           2
100
AcDbLine
 10
13547.86894690784
 20
-794.880162650422
 11
13460.36894690784
 21
-794.880162650422
  0
LINE
  5
2B0
100
AcDbEntity
  8
1
  6
CONTINUOUS
 62
           2
100
AcDbLine
 10
13538.61894690784
 20
-724.380162650422
 11
13547.11894690784
 21
-724.380162650422
  0
LINE
  5
2AF
100
AcDbEntity
  8
1
  6
CONTINUOUS
 62
           2
100
AcDbLine
 10
13552.11894690784
 20
-729.380162650422
 11
13552.11894690784
 21
-730.380162650422
  0
LINE
  5
2AE
100
AcDbEntity
  8
1
  6
CONTINUOUS
 62
           2
100
AcDbLine
 10
13477.61894690784
 20
-724.38016265042
 11
13469.11894690784
 21
-724.38016265042
  0
LINE
  5
2AD
100
AcDbEntity
  8
1
  6
CONTINUOUS
 62
           2
100
AcDbLine
 10
13526.11894690784
 20
-679.380162650422
 11
13482.11894690784
 21
-679.380162650422
  0
LINE
  5
2AC
100
AcDbEntity
  8
1
  6
CONTINUOUS
 62
           2
100
AcDbLine
 10
13526.11894690784
 20
-635.380162650422
 11
13524.11894690784
 21
-635.380162650422
  0
LINE
  5
2AB
100
AcDbEntity
  8
1
  6
CONTINUOUS
 62
           2
100
AcDbLine
 10
13524.11894690784
 20
-635.380162650422
 11
13484.11894690784
 21
-635.380162650422
  0
LINE
  5
2AA
100
AcDbEntity
  8
1
  6
CONTINUOUS
 62
           2
100
AcDbLine
 10
13482.11894690784
 20
-635.380162650422
 11
13484.11894690784
 21
-635.380162650422
  0
LINE
  5
2A9
100
AcDbEntity
  8
1
  6
CONTINUOUS
 62
           2
100
AcDbLine
 10
13527.11894690784
 20
-635.380162650422
 11
13526.11894690784
 21
-635.380162650422
  0
LINE
  5
2A8
100
AcDbEntity
  8
1
  6
CONTINUOUS
 62
           2
100
AcDbLine
 10
13481.11894690784
 20
-635.380162650422
 11
13482.11894690784
 21
-635.380162650422
  0
LINE
  5
2A7
100
AcDbEntity
  8
1
  6
CONTINUOUS
 62
           2
100
AcDbLine
 10
13529.11894690784
 20
-705.63016265042
 11
13529.11894690784
 21
-637.380162650422
  0
LINE
  5
2A6
100
AcDbEntity
  8
1
  6
CONTINUOUS
 62
           2
100
AcDbLine
 10
13479.11894690784
 20
-705.63016265042
 11
13479.11894690784
 21
-637.380162650422
  0
LINE
  5
2A5
100
AcDbEntity
  8
1
  6
CONTINUOUS
 62
           2
100
AcDbLine
 10
13484.11894690784
 20
-631.380162650422
 11
13484.11894690784
 21
-633.380162650422
  0
LINE
  5
2A4
100
AcDbEntity
  8
1
  6
CONTINUOUS
 62
           2
100
AcDbLine
 10
13485.11894690784
 20
-630.380162650422
 11
13523.11894690784
 21
-630.380162650422
  0
LINE
  5
2A3
100
AcDbEntity
  8
1
  6
CONTINUOUS
 62
           2
100
AcDbLine
 10
13524.11894690784
 20
-631.380162650422
 11
13524.11894690784
 21
-633.380162650422
  0
LINE
  5
2A2
100
AcDbEntity
  8
1
  6
CONTINUOUS
 62
           2
100
AcDbLine
 10
13494.86894690784
 20
-624.11221345799
 11
13494.86894690784
 21
-630.380162650422
  0
LINE
  5
2A1
100
AcDbEntity
  8
1
  6
CONTINUOUS
 62
           2
100
AcDbLine
 10
13513.36894690784
 20
-624.11221345799
 11
13513.36894690784
 21
-630.380162650422
  0
LINE
  5
2A0
100
AcDbEntity
  8
1
  6
CONTINUOUS
 62
           2
100
AcDbLine
 10
13489.11894690784
 20
-613.880162650422
 11
13489.11894690784
 21
-622.380162650422
  0
LINE
  5
29F
100
AcDbEntity
  8
1
  6
CONTINUOUS
 62
           2
100
AcDbLine
 10
13519.11894690784
 20
-613.880162650422
 11
13519.11894690784
 21
-622.390461525073
  0
LINE
  5
29E
100
AcDbEntity
  8
1
  6
CONTINUOUS
 62
           2
100
AcDbLine
 10
13488.61894690784
 20
-622.380162650422
 11
13519.61894690784
 21
-622.380162650422
  0
LINE
  5
29D
100
AcDbEntity
  8
1
  6
CONTINUOUS
 62
           2
100
AcDbLine
 10
13485.61894690784
 20
-624.11221345799
 11
13488.61894690784
 21
-622.380162650422
  0
LINE
  5
29C
100
AcDbEntity
  8
1
  6
CONTINUOUS
 62
           2
100
AcDbLine
 10
13485.61894690784
 20
-630.380162650422
 11
13485.61894690784
 21
-624.11221345799
  0
LINE
  5
29B
100
AcDbEntity
  8
1
  6
CONTINUOUS
 62
           2
100
AcDbLine
 10
13522.61894690784
 20
-630.380162650422
 11
13485.61894690784
 21
-630.380162650422
  0
LINE
  5
29A
100
AcDbEntity
  8
1
  6
CONTINUOUS
 62
           2
100
AcDbLine
 10
13522.61894690784
 20
-624.11221345799
 11
13522.61894690784
 21
-630.380162650422
  0
LINE
  5
299
100
AcDbEntity
  8
1
  6
CONTINUOUS
 62
           2
100
AcDbLine
 10
13519.61894690784
 20
-622.380162650422
 11
13522.61894690784
 21
-624.11221345799
  0
LINE
  5
298
100
AcDbEntity
  8
1
  6
DOT_CENTER
 62
           2
100
AcDbLine
 10
13462.12886387634
 20
-758.880162650422
 11
13548.632707828459
 21
-758.880162650422
  0
LINE
  5
297
100
AcDbEntity
  8
1
  6
DOT_CENTER
 62
           2
100
AcDbLine
 10
13473.04699690784
 20
-758.880162650422
 11
13535.190896907839
 21
-758.880162650422
  0
LINE
  5
296
100
AcDbEntity
  8
1
  6
DOT_CENTER
 62
           2
100
AcDbLine
 10
13504.11894690784
 20
-789.952112650421
 11
13504.11894690784
 21
-727.808212650421
  0
LINE
  5
295
100
AcDbEntity
  8
1
  6
CONTINUOUS
 62
           7
100
AcDbLine
 10
13598.35894690784
 20
-1918.670331346363
 11
13598.35894690784
 21
-1941.371923131447
  0
LINE
  5
294
100
AcDbEntity
  8
1
  6
CONTINUOUS
 62
           7
100
AcDbLine
 10
14922.35894690784
 20
-1941.371923131447
 11
14922.35894690784
 21
-1918.670331346363
  0
LINE
  5
293
100
AcDbEntity
  8
1
  6
CONTINUOUS
 62
           7
100
AcDbLine
 10
14922.35894690784
 20
-1941.371923131447
 11
14922.35894690784
 21
-1918.670331346363
  0
LINE
  5
292
100
AcDbEntity
  8
1
  6
CONTINUOUS
 62
           7
100
AcDbLine
 10
13598.35894690784
 20
-1918.670331346363
 11
13598.35894690784
 21
-1941.371923131447
  0
LINE
  5
291
100
AcDbEntity
  8
1
  6
DOT_CENTER
 62
           2
100
AcDbLine
 10
11296.613649290701
 20
-750.070331346363
 11
11355.36204002788
 21
-750.070331346363
  0
LINE
  5
290
100
AcDbEntity
  8
1
  6
CONTINUOUS
 62
           2
100
AcDbLine
 10
11285.97191656551
 20
-613.570331346363
 11
11288.97191656551
 21
-615.302382153932
  0
LINE
  5
28F
100
AcDbEntity
  8
1
  6
CONTINUOUS
 62
           2
100
AcDbLine
 10
11288.97191656551
 20
-615.302382153932
 11
11288.97191656551
 21
-621.570331346363
  0
LINE
  5
28E
100
AcDbEntity
  8
1
  6
CONTINUOUS
 62
           2
100
AcDbLine
 10
11288.97191656551
 20
-621.570331346363
 11
11251.97191656551
 21
-621.570331346363
  0
LINE
  5
28D
100
AcDbEntity
  8
1
  6
CONTINUOUS
 62
           2
100
AcDbLine
 10
11251.97191656551
 20
-621.570331346363
 11
11251.97191656551
 21
-615.302382153932
  0
LINE
  5
28C
100
AcDbEntity
  8
1
  6
CONTINUOUS
 62
           2
100
AcDbLine
 10
11251.97191656551
 20
-615.302382153932
 11
11254.97191656551
 21
-613.570331346363
  0
LINE
  5
28B
100
AcDbEntity
  8
1
  6
CONTINUOUS
 62
           2
100
AcDbLine
 10
11254.97191656551
 20
-613.570331346363
 11
11285.97191656551
 21
-613.570331346363
  0
LINE
  5
28A
100
AcDbEntity
  8
1
  6
CONTINUOUS
 62
           2
100
AcDbLine
 10
11285.47191656551
 20
-605.070331346363
 11
11285.47191656551
 21
-613.580630221012
  0
LINE
  5
289
100
AcDbEntity
  8
1
  6
CONTINUOUS
 62
           2
100
AcDbLine
 10
11255.47191656551
 20
-605.070331346363
 11
11255.47191656551
 21
-613.570331346363
  0
LINE
  5
288
100
AcDbEntity
  8
1
  6
CONTINUOUS
 62
           2
100
AcDbLine
 10
11279.72191656551
 20
-615.302382153932
 11
11279.72191656551
 21
-621.570331346363
  0
LINE
  5
287
100
AcDbEntity
  8
1
  6
CONTINUOUS
 62
           2
100
AcDbLine
 10
11261.22191656551
 20
-615.302382153932
 11
11261.22191656551
 21
-621.570331346363
  0
LINE
  5
286
100
AcDbEntity
  8
1
  6
CONTINUOUS
 62
           2
100
AcDbLine
 10
11290.47191656551
 20
-622.570331346363
 11
11290.47191656551
 21
-624.570331346363
  0
LINE
  5
285
100
AcDbEntity
  8
1
  6
CONTINUOUS
 62
           2
100
AcDbLine
 10
11251.47191656551
 20
-621.570331346363
 11
11289.47191656551
 21
-621.570331346363
  0
LINE
  5
284
100
AcDbEntity
  8
1
  6
CONTINUOUS
 62
           2
100
AcDbLine
 10
11250.47191656551
 20
-622.570331346363
 11
11250.47191656551
 21
-624.570331346363
  0
LINE
  5
283
100
AcDbEntity
  8
1
  6
CONTINUOUS
 62
           2
100
AcDbLine
 10
11245.47191656551
 20
-696.820331346362
 11
11245.47191656551
 21
-628.570331346363
  0
LINE
  5
282
100
AcDbEntity
  8
1
  6
CONTINUOUS
 62
           2
100
AcDbLine
 10
11295.47191656551
 20
-696.820331346362
 11
11295.47191656551
 21
-628.570331346363
  0
LINE
  5
281
100
AcDbEntity
  8
1
  6
CONTINUOUS
 62
           2
100
AcDbLine
 10
11247.47191656551
 20
-626.570331346363
 11
11248.47191656551
 21
-626.570331346363
  0
LINE
  5
280
100
AcDbEntity
  8
1
  6
CONTINUOUS
 62
           2
100
AcDbLine
 10
11293.47191656551
 20
-626.570331346363
 11
11292.47191656551
 21
-626.570331346363
  0
LINE
  5
27F
100
AcDbEntity
  8
1
  6
CONTINUOUS
 62
           2
100
AcDbLine
 10
11248.47191656551
 20
-626.570331346363
 11
11250.47191656551
 21
-626.570331346363
  0
LINE
  5
27E
100
AcDbEntity
  8
1
  6
CONTINUOUS
 62
           2
100
AcDbLine
 10
11290.47191656551
 20
-626.570331346363
 11
11250.47191656551
 21
-626.570331346363
  0
LINE
  5
27D
100
AcDbEntity
  8
1
  6
CONTINUOUS
 62
           2
100
AcDbLine
 10
11292.47191656551
 20
-626.570331346363
 11
11290.47191656551
 21
-626.570331346363
  0
LINE
  5
27C
100
AcDbEntity
  8
1
  6
CONTINUOUS
 62
           2
100
AcDbLine
 10
11292.47191656551
 20
-670.570331346363
 11
11248.47191656551
 21
-670.570331346363
  0
LINE
  5
27B
100
AcDbEntity
  8
1
  6
CONTINUOUS
 62
           2
100
AcDbLine
 10
11243.97191656551
 20
-715.570331346362
 11
11235.47191656551
 21
-715.570331346362
  0
LINE
  5
27A
100
AcDbEntity
  8
1
  6
CONTINUOUS
 62
           2
100
AcDbLine
 10
11318.47191656551
 20
-779.070331346363
 11
11318.47191656551
 21
-778.570331346363
  0
LINE
  5
279
100
AcDbEntity
  8
1
  6
CONTINUOUS
 62
           2
100
AcDbLine
 10
11319.47191656551
 20
-777.570331346363
 11
11324.47191656551
 21
-777.570331346363
  0
LINE
  5
278
100
AcDbEntity
  8
1
  6
CONTINUOUS
 62
           2
100
AcDbLine
 10
11325.47191656551
 20
-779.070331346363
 11
11325.47191656551
 21
-778.570331346363
  0
LINE
  5
277
100
AcDbEntity
  8
1
  6
CONTINUOUS
 62
           2
100
AcDbLine
 10
11325.47191656551
 20
-779.070331346363
 11
11330.47191656551
 21
-779.070331346363
  0
LINE
  5
276
100
AcDbEntity
  8
1
  6
CONTINUOUS
 62
           2
100
AcDbLine
 10
11330.47191656551
 20
-779.070331346363
 11
11330.47191656551
 21
-721.070331346363
  0
LINE
  5
275
100
AcDbEntity
  8
1
  6
CONTINUOUS
 62
           2
100
AcDbLine
 10
11330.47191656551
 20
-721.070331346363
 11
11325.47191656551
 21
-721.070331346363
  0
LINE
  5
274
100
AcDbEntity
  8
1
  6
CONTINUOUS
 62
           2
100
AcDbLine
 10
11325.47191656551
 20
-721.070331346363
 11
11325.47191656551
 21
-721.570331346363
  0
LINE
  5
273
100
AcDbEntity
  8
1
  6
CONTINUOUS
 62
           2
100
AcDbLine
 10
11319.47191656551
 20
-722.570331346363
 11
11324.47191656551
 21
-722.570331346363
  0
LINE
  5
272
100
AcDbEntity
  8
1
  6
CONTINUOUS
 62
           2
100
AcDbLine
 10
11318.47191656551
 20
-720.570331346363
 11
11318.47191656551
 21
-721.570331346363
  0
LINE
  5
271
100
AcDbEntity
  8
1
  6
CONTINUOUS
 62
           2
100
AcDbLine
 10
11304.97191656551
 20
-715.570331346363
 11
11313.47191656551
 21
-715.570331346363
  0
LINE
  5
270
100
AcDbEntity
  8
1
  6
CONTINUOUS
 62
           2
100
AcDbLine
 10
11296.72191656551
 20
-812.070331346363
 11
11244.22191656551
 21
-812.070331346363
  0
LINE
  5
26F
100
AcDbEntity
  8
1
  6
CONTINUOUS
 62
           2
100
AcDbLine
 10
11314.22191656551
 20
-786.070331346363
 11
11226.72191656551
 21
-786.070331346363
  0
LINE
  5
26E
100
AcDbEntity
  8
1
  6
CONTINUOUS
 62
           2
100
AcDbLine
 10
11308.59691656551
 20
-793.320331346363
 11
11232.34691656551
 21
-793.320331346363
  0
LINE
  5
26D
100
AcDbEntity
  8
1
  6
CONTINUOUS
 62
           2
100
AcDbLine
 10
11232.34691656551
 20
-793.320331346363
 11
11232.34691656551
 21
-809.183580000414
  0
LINE
  5
26C
100
AcDbEntity
  8
1
  6
CONTINUOUS
 62
           2
100
AcDbLine
 10
11310.47191656551
 20
-793.320331346363
 11
11230.47191656551
 21
-793.320331346363
  0
LINE
  5
26B
100
AcDbEntity
  8
1
  6
CONTINUOUS
 62
           2
100
AcDbLine
 10
11314.22191656551
 20
-786.070331346363
 11
11223.47191656551
 21
-786.070331346363
  0
LINE
  5
26A
100
AcDbEntity
  8
1
  6
CONTINUOUS
 62
           2
100
AcDbLine
 10
11237.34691656551
 20
-812.070331346363
 11
11303.59691656551
 21
-812.070331346363
  0
LINE
  5
269
100
AcDbEntity
  8
1
  6
CONTINUOUS
 62
           2
100
AcDbLine
 10
11308.59691656551
 20
-809.183580000414
 11
11308.59691656551
 21
-793.320331346363
  0
LINE
  5
268
100
AcDbEntity
  8
1
  6
CONTINUOUS
 62
           2
100
AcDbLine
 10
11308.59691656551
 20
-809.183580000414
 11
11303.59691656551
 21
-812.070331346363
  0
LINE
  5
267
100
AcDbEntity
  8
1
  6
CONTINUOUS
 62
           2
100
AcDbLine
 10
11232.34691656551
 20
-809.183580000414
 11
11237.34691656551
 21
-812.070331346363
  0
LINE
  5
266
100
AcDbEntity
  8
1
  6
CONTINUOUS
 62
           2
100
AcDbLine
 10
11289.53441656551
 20
-809.183580000414
 11
11289.53441656551
 21
-793.320331346363
  0
LINE
  5
265
100
AcDbEntity
  8
1
  6
CONTINUOUS
 62
           2
100
AcDbLine
 10
11251.40941656551
 20
-809.183580000414
 11
11251.40941656551
 21
-793.320331346363
  0
LINE
  5
264
100
AcDbEntity
  8
1
  6
CONTINUOUS
 62
           2
100
AcDbLine
 10
11325.47191656551
 20
-721.711576354333
 11
11325.47191656551
 21
-779.070331346363
  0
LINE
  5
263
100
AcDbEntity
  8
1
  6
CONTINUOUS
 62
           2
100
AcDbLine
 10
11296.899309609271
 20
-812.070331346363
 11
11244.399309609271
 21
-812.070331346363
  0
LINE
  5
262
100
AcDbEntity
  8
1
  6
CONTINUOUS
 62
           2
100
AcDbLine
 10
11237.524309609271
 20
-812.070331346363
 11
11303.774309609271
 21
-812.070331346363
  0
LINE
  5
261
100
AcDbEntity
  8
1
  6
CONTINUOUS
 62
           2
100
AcDbLine
 10
11308.774309609271
 20
-809.183580000414
 11
11303.774309609271
 21
-812.070331346363
  0
LINE
  5
260
100
AcDbEntity
  8
1
  6
CONTINUOUS
 62
           2
100
AcDbLine
 10
11232.524309609271
 20
-809.183580000414
 11
11237.524309609271
 21
-812.070331346363
  0
LINE
  5
25F
100
AcDbEntity
  8
1
  6
CONTINUOUS
 62
           2
100
AcDbLine
 10
11314.22191656551
 20
-786.070331346363
 11
11314.22191656551
 21
-789.570331346363
  0
LINE
  5
25E
100
AcDbEntity
  8
1
  6
CONTINUOUS
 62
           2
100
AcDbLine
 10
11226.72191656551
 20
-786.070331346363
 11
11226.72191656551
 21
-789.570331346363
  0
LINE
  5
25D
100
AcDbEntity
  8
1
  6
CONTINUOUS
 62
           2
100
AcDbLine
 10
11293.47191656551
 20
-627.570331346363
 11
11293.47191656551
 21
-669.992981077173
  0
LINE
  5
25C
100
AcDbEntity
  8
1
  6
CONTINUOUS
 62
           2
100
AcDbLine
 10
11291.47191656551
 20
-627.570331346363
 11
11291.47191656551
 21
-669.570331346363
  0
LINE
  5
25B
100
AcDbEntity
  8
1
  6
CONTINUOUS
 62
           2
100
AcDbLine
 10
11278.80524989884
 20
-627.570331346363
 11
11278.80524989884
 21
-669.570331346363
  0
LINE
  5
25A
100
AcDbEntity
  8
1
  6
CONTINUOUS
 62
           2
100
AcDbLine
 10
11276.80524989884
 20
-627.570331346363
 11
11276.80524989884
 21
-669.570331346363
  0
LINE
  5
259
100
AcDbEntity
  8
1
  6
CONTINUOUS
 62
           2
100
AcDbLine
 10
11264.138583232179
 20
-627.570331346363
 11
11264.138583232179
 21
-669.570331346363
  0
LINE
  5
258
100
AcDbEntity
  8
1
  6
CONTINUOUS
 62
           2
100
AcDbLine
 10
11262.138583232179
 20
-627.570331346363
 11
11262.138583232179
 21
-669.570331346363
  0
LINE
  5
257
100
AcDbEntity
  8
1
  6
CONTINUOUS
 62
           2
100
AcDbLine
 10
11249.47191656551
 20
-627.570331346363
 11
11249.47191656551
 21
-669.570331346363
  0
LINE
  5
256
100
AcDbEntity
  8
1
  6
CONTINUOUS
 62
           2
100
AcDbLine
 10
11247.47191656551
 20
-627.570331346363
 11
11247.47191656551
 21
-669.992981077173
  0
LINE
  5
255
100
AcDbEntity
  8
1
  6
CONTINUOUS
 62
           2
100
AcDbLine
 10
11243.97191656551
 20
-836.670331346363
 11
11296.97191656551
 21
-836.670331346363
  0
LINE
  5
254
100
AcDbEntity
  8
1
  6
CONTINUOUS
 62
           2
100
AcDbLine
 10
11296.97191656551
 20
-836.670331346363
 11
11296.97191656551
 21
-841.670331346363
  0
LINE
  5
253
100
AcDbEntity
  8
1
  6
CONTINUOUS
 62
           2
100
AcDbLine
 10
11296.97191656551
 20
-841.670331346363
 11
11296.871916565509
 21
-841.670331346363
  0
LINE
  5
252
100
AcDbEntity
  8
1
  6
CONTINUOUS
 62
           2
100
AcDbLine
 10
11243.97191656551
 20
-841.670331346363
 11
11243.97191656551
 21
-836.670331346363
  0
LINE
  5
251
100
AcDbEntity
  8
1
  6
CONTINUOUS
 62
           2
100
AcDbLine
 10
11295.47191656551
 20
-843.070331346363
 11
11295.47191656551
 21
-859.922675233483
  0
LINE
  5
250
100
AcDbEntity
  8
1
  6
CONTINUOUS
 62
           2
100
AcDbLine
 10
11296.97191656551
 20
-841.670331346363
 11
11243.97191656551
 21
-841.670331346363
  0
LINE
  5
24F
100
AcDbEntity
  8
1
  6
CONTINUOUS
 62
           2
100
AcDbLine
 10
11244.07191656551
 20
-841.670331346363
 11
11243.97191656551
 21
-841.670331346363
  0
LINE
  5
24E
100
AcDbEntity
  8
1
  6
CONTINUOUS
 62
           2
100
AcDbLine
 10
11245.47191656551
 20
-859.922675233483
 11
11245.47191656551
 21
-843.070331346363
  0
LINE
  5
24D
100
AcDbEntity
  8
1
  6
CONTINUOUS
 62
           2
100
AcDbLine
 10
11291.42691656551
 20
-812.070331346363
 11
11291.82191656551
 21
-822.820331346363
  0
LINE
  5
24C
100
AcDbEntity
  8
1
  6
CONTINUOUS
 62
           2
100
AcDbLine
 10
11249.51691656551
 20
-836.670331346363
 11
11249.121916565509
 21
-825.920331346363
  0
LINE
  5
24B
100
AcDbEntity
  8
1
  6
CONTINUOUS
 62
           2
100
AcDbLine
 10
11291.42691656551
 20
-836.670331346363
 11
11291.82191656551
 21
-825.920331346363
  0
LINE
  5
24A
100
AcDbEntity
  8
1
  6
CONTINUOUS
 62
           2
100
AcDbLine
 10
11249.121916565509
 20
-822.820331346363
 11
11249.51691656551
 21
-812.070331346363
  0
LINE
  5
249
100
AcDbEntity
  8
1
  6
CONTINUOUS
 62
           2
100
AcDbLine
 10
11291.82191656551
 20
-825.920331346363
 11
11291.82191656551
 21
-822.820331346363
  0
LINE
  5
248
100
AcDbEntity
  8
1
  6
CONTINUOUS
 62
           2
100
AcDbLine
 10
11249.121916565509
 20
-822.820331346363
 11
11249.121916565509
 21
-825.920331346363
  0
LINE
  5
247
100
AcDbEntity
  8
1
  6
CONTINUOUS
 62
           2
100
AcDbLine
 10
11291.82191656551
 20
-822.820331346363
 11
11249.121916565509
 21
-822.820331346363
  0
LINE
  5
246
100
AcDbEntity
  8
1
  6
CONTINUOUS
 62
           2
100
AcDbLine
 10
11291.82191656551
 20
-825.920331346363
 11
11249.121916565509
 21
-825.920331346363
  0
LINE
  5
245
100
AcDbEntity
  8
1
  6
CONTINUOUS
 62
           2
100
AcDbLine
 10
11304.97191656551
 20
-715.570331346363
 11
11226.47191656551
 21
-715.570331346362
  0
LINE
  5
244
100
AcDbEntity
  8
1
  6
CONTINUOUS
 62
           2
100
AcDbLine
 10
11221.47191656551
 20
-720.570331346362
 11
11221.47191656551
 21
-784.070331346363
  0
LINE
  5
243
100
AcDbEntity
  8
1
  6
CONTINUOUS
 62
           2
100
AcDbLine
 10
11318.47191656551
 20
-779.070331346363
 11
11318.47191656551
 21
-784.070331346363
  0
LINE
  5
242
100
AcDbEntity
  8
1
  6
CONTINUOUS
 62
           2
100
AcDbLine
 10
11316.47191656551
 20
-786.070331346363
 11
11226.72191656551
 21
-786.070331346363
  0
LINE
  5
241
100
AcDbEntity
  8
1
  6
CONTINUOUS
 62
           2
100
AcDbLine
 10
11237.524309609271
 20
-696.820331346362
 11
11232.524309609271
 21
-699.707082692311
  0
LINE
  5
240
100
AcDbEntity
  8
1
  6
CONTINUOUS
 62
           2
100
AcDbLine
 10
11303.774309609271
 20
-696.820331346362
 11
11308.774309609271
 21
-699.707082692311
  0
LINE
  5
23F
100
AcDbEntity
  8
1
  6
CONTINUOUS
 62
           2
100
AcDbLine
 10
11303.774309609271
 20
-696.820331346362
 11
11237.524309609271
 21
-696.820331346362
  0
LINE
  5
23E
100
AcDbEntity
  8
1
  6
CONTINUOUS
 62
           2
100
AcDbLine
 10
11244.399309609271
 20
-696.820331346362
 11
11296.899309609271
 21
-696.820331346362
  0
LINE
  5
23D
100
AcDbEntity
  8
1
  6
CONTINUOUS
 62
           2
100
AcDbLine
 10
11251.40941656551
 20
-715.570331346362
 11
11251.40941656551
 21
-699.707082692311
  0
LINE
  5
23C
100
AcDbEntity
  8
1
  6
CONTINUOUS
 62
           2
100
AcDbLine
 10
11289.53441656551
 20
-715.570331346362
 11
11289.53441656551
 21
-699.707082692311
  0
LINE
  5
23B
100
AcDbEntity
  8
1
  6
CONTINUOUS
 62
           2
100
AcDbLine
 10
11237.34691656551
 20
-696.820331346362
 11
11232.34691656551
 21
-699.707082692311
  0
LINE
  5
23A
100
AcDbEntity
  8
1
  6
CONTINUOUS
 62
           2
100
AcDbLine
 10
11303.59691656551
 20
-696.820331346362
 11
11308.59691656551
 21
-699.707082692311
  0
LINE
  5
239
100
AcDbEntity
  8
1
  6
CONTINUOUS
 62
           2
100
AcDbLine
 10
11308.59691656551
 20
-715.570331346362
 11
11308.59691656551
 21
-699.707082692311
  0
LINE
  5
238
100
AcDbEntity
  8
1
  6
CONTINUOUS
 62
           2
100
AcDbLine
 10
11303.59691656551
 20
-696.820331346362
 11
11237.34691656551
 21
-696.820331346362
  0
LINE
  5
237
100
AcDbEntity
  8
1
  6
CONTINUOUS
 62
           2
100
AcDbLine
 10
11232.34691656551
 20
-699.707082692311
 11
11232.34691656551
 21
-715.570331346362
  0
LINE
  5
236
100
AcDbEntity
  8
1
  6
CONTINUOUS
 62
           2
100
AcDbLine
 10
11232.34691656551
 20
-715.570331346362
 11
11308.59691656551
 21
-715.570331346362
  0
LINE
  5
235
100
AcDbEntity
  8
1
  6
CONTINUOUS
 62
           2
100
AcDbLine
 10
11244.22191656551
 20
-696.820331346362
 11
11296.72191656551
 21
-696.820331346362
  0
LINE
  5
234
100
AcDbEntity
  8
1
  6
CONTINUOUS
 62
           7
100
AcDbLine
 10
10608.47191656551
 20
-505.120331346362
 11
10608.47191656551
 21
9.073177846204
  0
LINE
  5
233
100
AcDbEntity
  8
976
  6
CONTINUOUS
 62
           7
100
AcDbLine
 10
14280.35894690784
 20
257.845976594291
 11
14282.85894690784
 21
241.292332823042
  0
LINE
  5
232
100
AcDbEntity
  8
976
  6
CONTINUOUS
 62
           7
100
AcDbLine
 10
14240.35894690784
 20
257.845976591782
 11
14237.85894690784
 21
241.292332825314
  0
LINE
  5
231
100
AcDbEntity
  8
976
  6
CONTINUOUS
 62
           7
100
AcDbLine
 10
14250.35894690784
 20
320.0440408029
 11
14250.35894690784
 21
245.912119815171
  0
LINE
  5
230
100
AcDbEntity
  8
976
  6
CONTINUOUS
 62
           7
100
AcDbLine
 10
14270.35894690784
 20
320.0440408029
 11
14270.35894690784
 21
245.912119815171
  0
LINE
  5
22F
100
AcDbEntity
  8
976
  6
CONTINUOUS
 62
           7
100
AcDbLine
 10
11002.68696747238
 20
246.018148860204
 11
11001.844001830241
 21
248.196272744654
  0
LINE
  5
22E
100
AcDbEntity
  8
976
  6
CONTINUOUS
 62
           7
100
AcDbLine
 10
10958.88490084166
 20
235.704131268697
 11
10958.66742564653
 21
238.029538602767
  0
LINE
  5
22D
100
AcDbEntity
  8
976
  6
CONTINUOUS
 62
           7
100
AcDbLine
 10
10993.78830036008
 20
262.656321605479
 11
10976.20192633857
 21
260.328725233659
  0
LINE
  5
22C
100
AcDbEntity
  8
976
  6
CONTINUOUS
 62
           7
100
AcDbLine
 10
10959.424707519829
 20
254.564769577813
 11
10976.20192633857
 21
260.328725233659
  0
LINE
  5
22B
100
AcDbEntity
  8
976
  6
CONTINUOUS
 62
           7
100
AcDbLine
 10
10958.88490084166
 20
235.704131268697
 11
11002.68696747238
 21
246.018148860204
  0
LINE
  5
22A
100
AcDbEntity
  8
976
  6
DOT_CENTER
 62
           2
100
AcDbLine
 10
10917.18137475575
 20
272.11494977568
 11
11020.904838881121
 21
296.538583543021
  0
LINE
  5
229
100
AcDbEntity
  8
976
  6
DOT_CENTER
 62
           2
100
AcDbLine
 10
10983.629689238751
 20
228.784144028114
 11
10959.06780848782
 21
333.094722101369
  0
LINE
  5
228
100
AcDbEntity
  8
976
  6
CONTINUOUS
 62
           7
100
AcDbLine
 10
11001.844001830241
 20
248.196272744654
 11
10996.979706260019
 21
260.765039290855
  0
LINE
  5
227
100
AcDbEntity
  8
976
  6
CONTINUOUS
 62
           7
100
AcDbLine
 10
10958.73565853784
 20
237.299941529459
 11
10957.41249475091
 21
251.448197713667
  0
LINE
  5
226
100
AcDbEntity
  8
976
  6
CONTINUOUS
 62
           7
100
AcDbLine
 10
10962.88212545261
 20
255.137630882559
 11
10991.475003264661
 21
261.870359893536
  0
LINE
  5
225
100
AcDbEntity
  8
976
  6
CONTINUOUS
 62
           7
100
AcDbLine
 10
11549.46882986635
 20
261.870359893536
 11
11578.061707678409
 21
255.137630882559
  0
LINE
  5
224
100
AcDbEntity
  8
976
  6
CONTINUOUS
 62
           7
100
AcDbLine
 10
11583.531338380109
 20
251.448197713667
 11
11582.20817459317
 21
237.299941529459
  0
LINE
  5
223
100
AcDbEntity
  8
976
  6
CONTINUOUS
 62
           7
100
AcDbLine
 10
11543.964126871
 20
260.765039290855
 11
11539.09983130078
 21
248.196272744654
  0
LINE
  5
222
100
AcDbEntity
  8
976
  6
DOT_CENTER
 62
           2
100
AcDbLine
 10
11581.876024643199
 20
333.094722101369
 11
11557.31414389227
 21
228.784144028114
  0
LINE
  5
221
100
AcDbEntity
  8
976
  6
DOT_CENTER
 62
           2
100
AcDbLine
 10
11520.0389942499
 20
296.538583543021
 11
11623.762458375269
 21
272.11494977568
  0
LINE
  5
220
100
AcDbEntity
  8
976
  6
CONTINUOUS
 62
           7
100
AcDbLine
 10
11538.256865658641
 20
246.018148860204
 11
11582.058932289359
 21
235.704131268697
  0
LINE
  5
21F
100
AcDbEntity
  8
976
  6
CONTINUOUS
 62
           7
100
AcDbLine
 10
11564.741906792449
 20
260.328725233659
 11
11581.51912561119
 21
254.564769577813
  0
LINE
  5
21E
100
AcDbEntity
  8
976
  6
CONTINUOUS
 62
           7
100
AcDbLine
 10
11564.741906792449
 20
260.328725233659
 11
11547.155532770939
 21
262.656321605479
  0
LINE
  5
21D
100
AcDbEntity
  8
976
  6
CONTINUOUS
 62
           7
100
AcDbLine
 10
11582.276407484491
 20
238.029538602767
 11
11582.058932289359
 21
235.704131268697
  0
LINE
  5
21C
100
AcDbEntity
  8
976
  6
CONTINUOUS
 62
           7
100
AcDbLine
 10
11539.09983130078
 20
248.196272744654
 11
11538.256865658641
 21
246.018148860204
  0
LINE
  5
21B
100
AcDbEntity
  8
976
  6
CONTINUOUS
 62
           7
100
AcDbLine
 10
10987.471927540741
 20
-3144.050006849473
 11
10987.471927540741
 21
-3154.000589436871
  0
LINE
  5
21A
100
AcDbEntity
  8
976
  6
CONTINUOUS
 62
           7
100
AcDbLine
 10
11553.471905590281
 20
-3144.05000684948
 11
11553.471905590281
 21
-3154.000589436871
  0
LINE
  5
219
100
AcDbEntity
  8
1
  6
CONTINUOUS
 62
           7
100
AcDbLine
 10
11936.97798096885
 20
-3796.690914244376
 11
12010.471916565521
 21
-3796.690914244377
  0
LINE
  5
218
100
AcDbEntity
  8
1
  6
CONTINUOUS
 62
           7
100
AcDbLine
 10
11936.97798096885
 20
-3707.590914244376
 11
12010.471916565521
 21
-3707.590914244376
  0
LINE
  5
217
100
AcDbEntity
  8
976
  6
CONTINUOUS
 62
           7
100
AcDbLine
 10
11925.947778188
 20
-3659.640914244375
 11
11932.00722313609
 21
-3659.640914244375
  0
LINE
  5
216
100
AcDbEntity
  8
976
  6
CONTINUOUS
 62
           7
100
AcDbLine
 10
11925.947778188
 20
-3844.640914244375
 11
11932.00722313609
 21
-3844.640914244375
  0
LINE
  5
215
100
AcDbEntity
  8
976
  6
CONTINUOUS
 62
           7
100
AcDbLine
 10
10608.93660999494
 20
-3844.640914244375
 11
10614.99605494304
 21
-3844.640914244375
  0
LINE
  5
214
100
AcDbEntity
  8
976
  6
CONTINUOUS
 62
           7
100
AcDbLine
 10
10608.93660999494
 20
-3659.640914244375
 11
10614.99605494304
 21
-3659.640914244375
  0
LINE
  5
213
100
AcDbEntity
  8
1
  6
DOT_CENTER
 62
           2
100
AcDbLine
 10
13445.09129280496
 20
-899.670331346363
 11
14549.47663885912
 21
-899.670331346363
  0
LINE
  5
212
100
AcDbEntity
  8
1
  6
CONTINUOUS
 62
           7
100
AcDbLine
 10
13598.35894690784
 20
-1810.670331346363
 11
13598.35894690784
 21
-1918.670331346363
  0
LINE
  5
211
100
AcDbEntity
  8
1
  6
DOT_CENTER
 62
           2
100
AcDbLine
 10
14260.35894690784
 20
383.399518657308
 11
14260.35894690784
 21
-2698.019783901103
  0
LINE
  5
210
100
AcDbEntity
  8
1
  6
CONTINUOUS
 62
           7
100
AcDbLine
 10
14922.35894690784
 20
-1918.670331346363
 11
14922.35894690784
 21
9.073177846204
  0
LINE
  5
20F
100
AcDbEntity
  8
1
  6
CONTINUOUS
 62
           7
100
AcDbLine
 10
13598.35894690784
 20
9.073177846204
 11
13598.35894690784
 21
-1210.975441827463
  0
LINE
  5
20E
100
AcDbEntity
  8
1
  6
CONTINUOUS
 62
           7
100
AcDbLine
 10
14922.35894690784
 20
-15.670331346363
 11
13598.35894690784
 21
-15.670331346363
  0
LINE
  5
20D
100
AcDbEntity
  8
1
  6
CONTINUOUS
 62
           7
100
AcDbLine
 10
14922.35894690784
 20
-1941.371923131447
 11
14922.35894690784
 21
-1918.670331346363
  0
LINE
  5
20C
100
AcDbEntity
  8
1
  6
CONTINUOUS
 62
           7
100
AcDbLine
 10
14360.35894690784
 20
-2290.670331346364
 11
14360.35894690784
 21
-2487.670331346363
  0
LINE
  5
20B
100
AcDbEntity
  8
1
  6
CONTINUOUS
 62
           7
100
AcDbLine
 10
14160.35894690784
 20
-2290.670331346364
 11
14160.35894690784
 21
-2487.670331346363
  0
LINE
  5
20A
100
AcDbEntity
  8
1
  6
CONTINUOUS
 62
           7
100
AcDbLine
 10
13598.35894690784
 20
-1910.670331346363
 11
14922.35894690784
 21
-1910.670331346363
  0
LINE
  5
209
100
AcDbEntity
  8
1
  6
CONTINUOUS
 62
           7
100
AcDbLine
 10
13598.35894690784
 20
-1918.670331346363
 11
13598.35894690784
 21
-1941.371923131447
  0
LINE
  5
208
100
AcDbEntity
  8
1
  6
CONTINUOUS
 62
           7
100
AcDbLine
 10
13810.35894690784
 20
-2119.890002519908
 11
13810.35894690784
 21
-2183.163788517119
  0
LINE
  5
207
100
AcDbEntity
  8
1
  6
CONTINUOUS
 62
           7
100
AcDbLine
 10
13823.93813953782
 20
-2487.670331346363
 11
13823.93813953782
 21
-2283.163788517119
  0
LINE
  5
206
100
AcDbEntity
  8
1
  6
CONTINUOUS
 62
           7
100
AcDbLine
 10
13823.93813953782
 20
-2487.670331346363
 11
13823.93813953782
 21
-2283.163788517119
  0
LINE
  5
205
100
AcDbEntity
  8
1
  6
CONTINUOUS
 62
           7
100
AcDbLine
 10
14710.35894690784
 20
-2183.163788517119
 11
14710.35894690784
 21
-2119.890002519908
  0
LINE
  5
204
100
AcDbEntity
  8
1
  6
CONTINUOUS
 62
           7
100
AcDbLine
 10
14696.779754277861
 20
-2283.163788517119
 11
14696.779754277861
 21
-2487.670331346363
  0
LINE
  5
203
100
AcDbEntity
  8
1
  6
CONTINUOUS
 62
           7
100
AcDbLine
 10
14696.779754277861
 20
-2283.163788517119
 11
14696.779754277861
 21
-2487.670331346363
  0
LINE
  5
202
100
AcDbEntity
  8
1
  6
CONTINUOUS
 62
           7
100
AcDbLine
 10
13635.35894690784
 20
-2487.670331346363
 11
14885.35894690784
 21
-2487.670331346363
  0
LINE
  5
201
100
AcDbEntity
  8
1
  6
CONTINUOUS
 62
           7
100
AcDbLine
 10
14888.35894690784
 20
-2487.670331346363
 11
14888.35894690784
 21
-2499.670331346363
  0
LINE
  5
200
100
AcDbEntity
  8
1
  6
CONTINUOUS
 62
           7
100
AcDbLine
 10
14885.35894690784
 20
-2499.670331346363
 11
13635.35894690784
 21
-2499.670331346363
  0
LINE
  5
1FF
100
AcDbEntity
  8
1
  6
CONTINUOUS
 62
           7
100
AcDbLine
 10
13635.35894690784
 20
-2499.670331346363
 11
13635.35894690784
 21
-2487.670331346363
  0
LINE
  5
1FE
100
AcDbEntity
  8
1
  6
CONTINUOUS
 62
           7
100
AcDbLine
 10
13810.35894690784
 20
-2119.890002519908
 11
14710.35894690784
 21
-2119.890002519908
  0
LINE
  5
1FD
100
AcDbEntity
  8
1
  6
CONTINUOUS
 62
           7
100
AcDbLine
 10
10834.05110919549
 20
-2487.670331346363
 11
10834.05110919549
 21
-2283.163788517119
  0
LINE
  5
1FC
100
AcDbEntity
  8
1
  6
CONTINUOUS
 62
           7
100
AcDbLine
 10
10820.47191656551
 20
-2119.890002519908
 11
10820.47191656551
 21
-2183.163788517119
  0
LINE
  5
1FB
100
AcDbEntity
  8
1
  6
CONTINUOUS
 62
           7
100
AcDbLine
 10
11720.47191656551
 20
-2183.163788517119
 11
11720.47191656551
 21
-2119.890002519908
  0
LINE
  5
1FA
100
AcDbEntity
  8
1
  6
CONTINUOUS
 62
           7
100
AcDbLine
 10
11706.892723935531
 20
-2283.163788517119
 11
11706.892723935531
 21
-2487.670331346363
  0
LINE
  5
1F9
100
AcDbEntity
  8
1
  6
DOT_CENTER
 62
           2
100
AcDbLine
 10
11270.47191656551
 20
377.38247213735
 11
11270.47191656551
 21
-2610.92538210667
  0
LINE
  5
1F8
100
AcDbEntity
  8
1
  6
DOT_CENTER
 62
           2
100
AcDbLine
 10
10647.78143696842
 20
-899.670331346363
 11
12077.72680248194
 21
-899.670331346363
  0
LINE
  5
1F7
100
AcDbEntity
  8
1
  6
CONTINUOUS
 62
           7
100
AcDbLine
 10
11932.47191656551
 20
-794.670331346363
 11
11932.47191656551
 21
-505.120331346362
  0
LINE
  5
1F6
100
AcDbEntity
  8
1
  6
CONTINUOUS
 62
           7
100
AcDbLine
 10
10608.47191656551
 20
-3.576824067552
 11
10608.47191656551
 21
-1594.670331346363
  0
LINE
  5
1F5
100
AcDbEntity
  8
1
  6
CONTINUOUS
 62
           7
100
AcDbLine
 10
11932.47191656551
 20
9.073177846204
 11
11932.47191656551
 21
-505.120331346362
  0
LINE
  5
1F4
100
AcDbEntity
  8
1
  6
CONTINUOUS
 62
           7
100
AcDbLine
 10
11932.47191656551
 20
-15.670331346363
 11
10608.47191656551
 21
-15.670331346363
  0
LINE
  5
1F3
100
AcDbEntity
  8
1
  6
CONTINUOUS
 62
           7
100
AcDbLine
 10
12032.47191656551
 20
-794.670331346363
 11
12032.47191656551
 21
-1004.670331346363
  0
LINE
  5
1F2
100
AcDbEntity
  8
1
  6
CONTINUOUS
 62
           7
100
AcDbLine
 10
11938.47191656551
 20
-794.670331346363
 11
11932.47191656551
 21
-794.670331346363
  0
LINE
  5
1F1
100
AcDbEntity
  8
1
  6
CONTINUOUS
 62
           7
100
AcDbLine
 10
11938.47191656551
 20
-1004.670331346363
 11
11932.47191656551
 21
-1004.670331346363
  0
LINE
  5
1F0
100
AcDbEntity
  8
1
  6
CONTINUOUS
 62
           7
100
AcDbLine
 10
11938.47191656551
 20
-842.520331346363
 11
11938.47191656551
 21
-794.670331346363
  0
LINE
  5
1EF
100
AcDbEntity
  8
1
  6
CONTINUOUS
 62
           7
100
AcDbLine
 10
11938.47191656551
 20
-956.820331346363
 11
11938.47191656551
 21
-1004.670331346363
  0
LINE
  5
1EE
100
AcDbEntity
  8
1
  6
DOT_CENTER
 62
           2
100
AcDbLine
 10
10002.35527187104
 20
-1743.334718263413
 11
10045.311010450851
 21
-1725.5418687619
  0
LINE
  5
1ED
100
AcDbEntity
  8
1
  6
DOT_CENTER
 62
           2
100
AcDbLine
 10
10064.27800290971
 20
-1804.670331346363
 11
10081.269632826699
 21
-1763.648907953942
  0
LINE
  5
1EC
100
AcDbEntity
  8
1
  6
DOT_CENTER
 62
           2
100
AcDbLine
 10
10134.27122109107
 20
-1763.648907953942
 11
10151.262851008059
 21
-1804.670331346363
  0
LINE
  5
1EB
100
AcDbEntity
  8
1
  6
DOT_CENTER
 62
           2
100
AcDbLine
 10
10170.229843466919
 20
-1725.5418687619
 11
10213.18558204673
 21
-1743.334718263413
  0
LINE
  5
1EA
100
AcDbEntity
  8
1
  6
DOT_CENTER
 62
           2
100
AcDbLine
 10
10213.18558204673
 20
-1656.005944429314
 11
10170.229843466919
 21
-1673.798793930826
  0
LINE
  5
1E9
100
AcDbEntity
  8
1
  6
DOT_CENTER
 62
           2
100
AcDbLine
 10
10151.262851008059
 20
-1594.670331346363
 11
10134.27122109107
 21
-1635.691754738785
  0
LINE
  5
1E8
100
AcDbEntity
  8
1
  6
DOT_CENTER
 62
           2
100
AcDbLine
 10
10045.311010450851
 20
-1673.798793930826
 11
10002.35527187104
 21
-1656.005944429314
  0
LINE
  5
1E7
100
AcDbEntity
  8
1
  6
DOT_CENTER
 62
           2
100
AcDbLine
 10
10081.269632826699
 20
-1635.691754738785
 11
10064.27800290971
 21
-1594.670331346363
  0
LINE
  5
1E6
100
AcDbEntity
  8
1
  6
CONTINUOUS
 62
           7
100
AcDbLine
 10
10608.47191656551
 20
-1918.670331346363
 11
10608.47191656551
 21
-1804.670331346363
  0
LINE
  5
1E5
100
AcDbEntity
  8
1
  6
CONTINUOUS
 62
           7
100
AcDbLine
 10
10602.47191656551
 20
-1804.670331346363
 11
10602.47191656551
 21
-1756.820331346364
  0
LINE
  5
1E4
100
AcDbEntity
  8
1
  6
CONTINUOUS
 62
           7
100
AcDbLine
 10
10602.47191656551
 20
-1594.670331346363
 11
10602.47191656551
 21
-1642.520331346364
  0
LINE
  5
1E3
100
AcDbEntity
  8
1
  6
CONTINUOUS
 62
           7
100
AcDbLine
 10
10608.47191656551
 20
-1804.670331346363
 11
10602.47191656551
 21
-1804.670331346363
  0
LINE
  5
1E2
100
AcDbEntity
  8
1
  6
CONTINUOUS
 62
           7
100
AcDbLine
 10
10602.47191656551
 20
-1756.820331346364
 11
10530.47191656551
 21
-1756.820331346364
  0
LINE
  5
1E1
100
AcDbEntity
  8
1
  6
CONTINUOUS
 62
           7
100
AcDbLine
 10
10602.47191656551
 20
-1642.520331346364
 11
10530.47191656551
 21
-1642.520331346364
  0
LINE
  5
1E0
100
AcDbEntity
  8
1
  6
CONTINUOUS
 62
           7
100
AcDbLine
 10
10608.47191656551
 20
-1594.670331346363
 11
10602.47191656551
 21
-1594.670331346363
  0
LINE
  5
1DF
100
AcDbEntity
  8
1
  6
CONTINUOUS
 62
           7
100
AcDbLine
 10
10508.47191656551
 20
-1804.670331346363
 11
10508.47191656551
 21
-1594.670331346363
  0
LINE
  5
1DE
100
AcDbEntity
  8
1
  6
CONTINUOUS
 62
           7
100
AcDbLine
 10
10820.47191656551
 20
-2119.890002519908
 11
11720.47191656551
 21
-2119.890002519908
  0
LINE
  5
1DD
100
AcDbEntity
  8
1
  6
CONTINUOUS
 62
           7
100
AcDbLine
 10
10645.47191656551
 20
-2499.670331346363
 11
10645.47191656551
 21
-2487.670331346363
  0
LINE
  5
1DC
100
AcDbEntity
  8
1
  6
CONTINUOUS
 62
           7
100
AcDbLine
 10
11895.47191656551
 20
-2499.670331346363
 11
10645.47191656551
 21
-2499.670331346363
  0
LINE
  5
1DB
100
AcDbEntity
  8
1
  6
CONTINUOUS
 62
           7
100
AcDbLine
 10
11895.47191656551
 20
-2487.670331346363
 11
11895.47191656551
 21
-2499.670331346363
  0
LINE
  5
1DA
100
AcDbEntity
  8
1
  6
CONTINUOUS
 62
           7
100
AcDbLine
 10
10645.47191656551
 20
-2487.670331346363
 11
11895.47191656551
 21
-2487.670331346363
  0
LINE
  5
1D9
100
AcDbEntity
  8
1
  6
CONTINUOUS
 62
           7
100
AcDbLine
 10
11932.47191656551
 20
-1941.371923131447
 11
11932.47191656551
 21
-1918.670331346363
  0
LINE
  5
1D8
100
AcDbEntity
  8
1
  6
CONTINUOUS
 62
           7
100
AcDbLine
 10
11932.47191656551
 20
-1918.670331346363
 11
11932.47191656551
 21
-1004.670331346363
  0
LINE
  5
1D7
100
AcDbEntity
  8
1
  6
CONTINUOUS
 62
           7
100
AcDbLine
 10
10608.47191656551
 20
-1918.670331346363
 11
10608.47191656551
 21
-1941.371923131447
  0
LINE
  5
1D6
100
AcDbEntity
  8
1
  6
CONTINUOUS
 62
           7
100
AcDbLine
 10
10608.47191656551
 20
-1910.670331346363
 11
11932.47191656551
 21
-1910.670331346363
  0
LINE
  5
1D5
100
AcDbEntity
  8
1
  6
DOT_CENTER
 62
           2
100
AcDbLine
 10
11270.47191656551
 20
-2929.89108537794
 11
11270.47191656551
 21
-4457.460123306702
  0
LINE
  5
1D4
100
AcDbEntity
  8
1
  6
DOT_CENTER
 62
           2
100
AcDbLine
 10
10781.6741702048
 20
-4240.938660605088
 11
11765.437973302571
 21
-3257.174857507319
  0
LINE
  5
1D3
100
AcDbEntity
  8
1
  6
DOT_CENTER
 62
           2
100
AcDbLine
 10
11767.991400792251
 20
-4250.130469468535
 11
10769.4341570464
 21
-3251.573225722676
  0
LINE
  5
1D2
100
AcDbEntity
  8
1
  6
CONTINUOUS
 62
           2
100
AcDbLine
 10
10459.9731897071
 20
-3731.140914244376
 11
10508.471916565521
 21
-3731.140914244376
  0
LINE
  5
1D1
100
AcDbEntity
  8
1
  6
CONTINUOUS
 62
           2
100
AcDbLine
 10
10496.9731897071
 20
-3763.640914244375
 11
10508.471916565521
 21
-3763.640914244375
  0
LINE
  5
1D0
100
AcDbEntity
  8
1
  6
CONTINUOUS
 62
           2
100
AcDbLine
 10
10485.66149204401
 20
-3752.140914244375
 11
10457.9731897071
 21
-3752.140914244375
  0
LINE
  5
1CF
100
AcDbEntity
  8
1
  6
CONTINUOUS
 62
           2
100
AcDbLine
 10
10508.471916565521
 20
-3766.140914244376
 11
10459.9731897071
 21
-3766.140914244376
  0
LINE
  5
1CE
100
AcDbEntity
  8
1
  6
CONTINUOUS
 62
           2
100
AcDbLine
 10
10457.9731897071
 20
-3764.140914244376
 11
10457.9731897071
 21
-3733.140914244376
  0
LINE
  5
1CD
100
AcDbEntity
  8
1
  6
DOT_CENTER
 62
           2
100
AcDbLine
 10
10486.1428897071
 20
-3752.140914244375
 11
10507.803489707099
 21
-3752.140914244375
  0
LINE
  5
1CC
100
AcDbEntity
  8
1
  6
DOT_CENTER
 62
           2
100
AcDbLine
 10
10496.9731897071
 20
-3762.971214244376
 11
10496.9731897071
 21
-3741.310614244376
  0
LINE
  5
1CB
100
AcDbEntity
  8
1
  6
CONTINUOUS
 62
           2
100
AcDbLine
 10
10490.9731897071
 20
-3746.140914244375
 11
10502.9731897071
 21
-3758.140914244375
  0
LINE
  5
1CA
100
AcDbEntity
  8
1
  6
CONTINUOUS
 62
           2
100
AcDbLine
 10
10502.9731897071
 20
-3746.140914244375
 11
10490.9731897071
 21
-3758.140914244375
  0
LINE
  5
1C9
100
AcDbEntity
  8
1
  6
CONTINUOUS
 62
           2
100
AcDbLine
 10
10490.9731897071
 20
-3746.140914244375
 11
10502.9731897071
 21
-3746.140914244375
  0
LINE
  5
1C8
100
AcDbEntity
  8
1
  6
CONTINUOUS
 62
           2
100
AcDbLine
 10
10502.9731897071
 20
-3746.140914244375
 11
10502.9731897071
 21
-3758.140914244375
  0
LINE
  5
1C7
100
AcDbEntity
  8
1
  6
CONTINUOUS
 62
           2
100
AcDbLine
 10
10502.9731897071
 20
-3758.140914244375
 11
10490.9731897071
 21
-3758.140914244375
  0
LINE
  5
1C6
100
AcDbEntity
  8
1
  6
CONTINUOUS
 62
           2
100
AcDbLine
 10
10490.9731897071
 20
-3758.140914244375
 11
10490.9731897071
 21
-3746.140914244375
  0
LINE
  5
1C5
100
AcDbEntity
  8
1
  6
DOT_CENTER
 62
           2
100
AcDbLine
 10
10496.9731897071
 20
-3774.581357728689
 11
10496.9731897071
 21
-3726.466720965624
  0
LINE
  5
1C4
100
AcDbEntity
  8
1
  6
CONTINUOUS
 62
           2
100
AcDbLine
 10
10508.471916565521
 20
-3740.640914244375
 11
10496.9731897071
 21
-3740.640914244375
  0
LINE
  5
1C3
100
AcDbEntity
  8
1
  6
DOT_CENTER
 62
           2
100
AcDbLine
 10
10436.20257298929
 20
-3752.140914244375
 11
10863.04650873953
 21
-3752.140914244375
  0
LINE
  5
1C2
100
AcDbEntity
  8
1
  6
CONTINUOUS
 62
           7
100
AcDbLine
 10
10508.471916565521
 20
-3844.640914244375
 11
10508.471916565521
 21
-3659.640914244375
  0
LINE
  5
1C1
100
AcDbEntity
  8
1
  6
CONTINUOUS
 62
           7
100
AcDbLine
 10
12032.471916565521
 20
-3659.640914244375
 11
12032.471916565521
 21
-3844.640914244375
  0
LINE
  5
1C0
100
AcDbEntity
  8
1
  6
DOT_CENTER
 62
           2
100
AcDbLine
 10
10612.72787727998
 20
-3752.140914244375
 11
12099.712774638159
 21
-3752.140914244375
  0
LINE
  5
1BF
100
AcDbEntity
  8
1
  6
DOTTED
 62
           2
100
AcDbLine
 10
14247.158946907841
 20
-2200.545359719633
 11
14247.158946907841
 21
-2199.574484709082
  0
LINE
  5
1BE
100
AcDbEntity
  8
1
  6
DOTTED
 62
           2
100
AcDbLine
 10
14273.55894690784
 20
-2200.545359719633
 11
14273.55894690784
 21
-2199.574484709082
  0
LINE
  5
1BD
100
AcDbEntity
  8
1
  6
CONTINUOUS
 62
           2
100
AcDbLine
 10
14247.158946907841
 20
-2209.670331346363
 11
14247.158946907841
 21
-2200.545359719633
  0
LINE
  5
1BC
100
AcDbEntity
  8
1
  6
CONTINUOUS
 62
           2
100
AcDbLine
 10
14273.55894690784
 20
-2209.670331346363
 11
14273.55894690784
 21
-2200.545359719633
  0
LINE
  5
1BB
100
AcDbEntity
  8
1
  6
CONTINUOUS
 62
           2
100
AcDbLine
 10
14247.158946907841
 20
-2209.670331346363
 11
14273.55894690784
 21
-2209.670331346363
  0
LINE
  5
1BA
100
AcDbEntity
  8
1
  6
CONTINUOUS
 62
           2
100
AcDbLine
 10
14262.85894690784
 20
-2257.725024857502
 11
14262.85894690784
 21
-2252.544291318707
  0
LINE
  5
1B9
100
AcDbEntity
  8
1
  6
CONTINUOUS
 62
           2
100
AcDbLine
 10
14257.85894690784
 20
-2257.725024857502
 11
14257.85894690784
 21
-2252.544291318707
  0
LINE
  5
1B8
100
AcDbEntity
  8
1
  6
CONTINUOUS
 62
           2
100
AcDbLine
 10
14267.85894690784
 20
-2255.134658088104
 11
14271.45894690784
 21
-2255.134658088104
  0
LINE
  5
1B7
100
AcDbEntity
  8
1
  6
CONTINUOUS
 62
           2
100
AcDbLine
 10
14260.35894690784
 20
-2247.634658088104
 11
14252.137187044151
 21
-2247.634658088104
  0
LINE
  5
1B6
100
AcDbEntity
  8
1
  6
CONTINUOUS
 62
           2
100
AcDbLine
 10
14251.60894690784
 20
-2243.134658088103
 11
14251.60894690784
 21
-2245.520215826588
  0
LINE
  5
1B5
100
AcDbEntity
  8
1
  6
CONTINUOUS
 62
           2
100
AcDbLine
 10
14253.60894690784
 20
-2241.134658088103
 11
14254.60894690784
 21
-2241.134658088103
  0
LINE
  5
1B4
100
AcDbEntity
  8
1
  6
DOT_CENTER
 62
           2
100
AcDbLine
 10
14225.85803694437
 20
-2255.134658088104
 11
14295.65046915635
 21
-2255.134658088104
  0
LINE
  5
1B3
100
AcDbEntity
  8
1
  6
DOT_CENTER
 62
           2
100
AcDbLine
 10
14260.35894690784
 20
-2289.072861004182
 11
14260.35894690784
 21
-2221.566601230313
  0
LINE
  5
1B2
100
AcDbEntity
  8
1
  6
CONTINUOUS
 62
           2
100
AcDbLine
 10
14253.430743677571
 20
-2255.134658088104
 11
14256.894845292711
 21
-2261.134658088104
  0
LINE
  5
1B1
100
AcDbEntity
  8
1
  6
CONTINUOUS
 62
           2
100
AcDbLine
 10
14256.894845292711
 20
-2249.134658088104
 11
14253.430743677571
 21
-2255.134658088104
  0
LINE
  5
1B0
100
AcDbEntity
  8
1
  6
CONTINUOUS
 62
           2
100
AcDbLine
 10
14263.82304852298
 20
-2249.134658088104
 11
14256.894845292711
 21
-2249.134658088104
  0
LINE
  5
1AF
100
AcDbEntity
  8
1
  6
CONTINUOUS
 62
           2
100
AcDbLine
 10
14267.28715013812
 20
-2255.134658088104
 11
14263.82304852298
 21
-2249.134658088104
  0
LINE
  5
1AE
100
AcDbEntity
  8
1
  6
CONTINUOUS
 62
           2
100
AcDbLine
 10
14263.82304852298
 20
-2261.134658088104
 11
14267.28715013812
 21
-2255.134658088104
  0
LINE
  5
1AD
100
AcDbEntity
  8
1
  6
CONTINUOUS
 62
           2
100
AcDbLine
 10
14256.894845292711
 20
-2261.134658088104
 11
14263.82304852298
 21
-2261.134658088104
  0
LINE
  5
1AC
100
AcDbEntity
  8
1
  6
CONTINUOUS
 62
           2
100
AcDbLine
 10
14267.11789122845
 20
-2284.134658088103
 11
14247.85894690784
 21
-2284.134658088103
  0
LINE
  5
1AB
100
AcDbEntity
  8
1
  6
CONTINUOUS
 62
           2
100
AcDbLine
 10
14266.10894690784
 20
-2227.634658088103
 11
14272.85894690784
 21
-2227.634658088104
  0
LINE
  5
1AA
100
AcDbEntity
  8
1
  6
CONTINUOUS
 62
           2
100
AcDbLine
 10
14248.85894690784
 20
-2248.184658088104
 11
14249.373409519159
 21
-2248.184658088104
  0
LINE
  5
1A9
100
AcDbEntity
  8
1
  6
CONTINUOUS
 62
           2
100
AcDbLine
 10
14230.35894690784
 20
-2249.384658088104
 11
14247.5161473688
 21
-2249.384658088104
  0
LINE
  5
1A8
100
AcDbEntity
  8
1
  6
CONTINUOUS
 62
           2
100
AcDbLine
 10
14247.5161473688
 20
-2260.884658088104
 11
14230.35894690784
 21
-2260.884658088104
  0
LINE
  5
1A7
100
AcDbEntity
  8
1
  6
CONTINUOUS
 62
           2
100
AcDbLine
 10
14290.35894690784
 20
-2260.884658088104
 11
14273.201746446881
 21
-2260.884658088104
  0
LINE
  5
1A6
100
AcDbEntity
  8
1
  6
CONTINUOUS
 62
           2
100
AcDbLine
 10
14290.35894690784
 20
-2249.384658088104
 11
14273.201746446881
 21
-2249.384658088104
  0
LINE
  5
1A5
100
AcDbEntity
  8
1
  6
CONTINUOUS
 62
           2
100
AcDbLine
 10
14248.85894690784
 20
-2249.072480261612
 11
14248.85894690784
 21
-2248.184658088104
  0
LINE
  5
1A4
100
AcDbEntity
  8
1
  6
CONTINUOUS
 62
           2
100
AcDbLine
 10
14271.34518830335
 20
-2248.184658088104
 11
14271.85894690784
 21
-2248.184658088104
  0
LINE
  5
1A3
100
AcDbEntity
  8
1
  6
CONTINUOUS
 62
           2
100
AcDbLine
 10
14271.85894690784
 20
-2249.072480261612
 11
14271.85894690784
 21
-2248.184658088104
  0
LINE
  5
1A2
100
AcDbEntity
  8
1
  6
CONTINUOUS
 62
           2
100
AcDbLine
 10
14272.44887317392
 20
-2259.913118392534
 11
14272.99270363759
 21
-2260.584658088103
  0
LINE
  5
1A1
100
AcDbEntity
  8
1
  6
CONTINUOUS
 62
           2
100
AcDbLine
 10
14230.35894690784
 20
-2249.384658088104
 11
14230.35894690784
 21
-2260.884658088104
  0
LINE
  5
1A0
100
AcDbEntity
  8
1
  6
CONTINUOUS
 62
           2
100
AcDbLine
 10
14290.35894690784
 20
-2249.384658088104
 11
14290.35894690784
 21
-2260.884658088104
  0
LINE
  5
19F
100
AcDbEntity
  8
1
  6
CONTINUOUS
 62
           2
100
AcDbLine
 10
14247.7251901781
 20
-2260.584658088103
 11
14247.7251901781
 21
-2274.211882572028
  0
LINE
  5
19E
100
AcDbEntity
  8
1
  6
CONTINUOUS
 62
           2
100
AcDbLine
 10
14272.99270363759
 20
-2246.784658088102
 11
14272.99270363759
 21
-2237.557433604183
  0
LINE
  5
19D
100
AcDbEntity
  8
1
  6
CONTINUOUS
 62
           2
100
AcDbLine
 10
14271.85894690784
 20
-2248.184658088104
 11
14272.99270363759
 21
-2246.784658088102
  0
LINE
  5
19C
100
AcDbEntity
  8
1
  6
CONTINUOUS
 62
           2
100
AcDbLine
 10
14247.7251901781
 20
-2260.584658088103
 11
14248.26902064177
 21
-2259.91311839253
  0
LINE
  5
19B
100
AcDbEntity
  8
1
  6
CONTINUOUS
 62
           2
100
AcDbLine
 10
14247.7251901781
 20
-2246.784658088102
 11
14248.85894690784
 21
-2248.184658088104
  0
LINE
  5
19A
100
AcDbEntity
  8
1
  6
CONTINUOUS
 62
           2
100
AcDbLine
 10
14272.99270363759
 20
-2274.211882572028
 11
14272.99270363759
 21
-2260.584658088103
  0
LINE
  5
199
100
AcDbEntity
  8
1
  6
CONTINUOUS
 62
           2
100
AcDbLine
 10
14247.7251901781
 20
-2237.557433604179
 11
14247.7251901781
 21
-2246.784658088102
  0
LINE
  5
198
100
AcDbEntity
  8
1
  6
CONTINUOUS
 62
           2
100
AcDbLine
 10
14272.99270363759
 20
-2274.211882572028
 11
14274.7927036376
 21
-2275.251113056568
  0
LINE
  5
197
100
AcDbEntity
  8
1
  6
CONTINUOUS
 62
           2
100
AcDbLine
 10
14245.925190178101
 20
-2275.251113056568
 11
14247.7251901781
 21
-2274.211882572028
  0
LINE
  5
196
100
AcDbEntity
  8
1
  6
CONTINUOUS
 62
           2
100
AcDbLine
 10
14247.7251901781
 20
-2237.557433604179
 11
14245.925190178101
 21
-2236.518203119643
  0
LINE
  5
195
100
AcDbEntity
  8
1
  6
CONTINUOUS
 62
           2
100
AcDbLine
 10
14274.7927036376
 20
-2236.518203119643
 11
14272.99270363759
 21
-2237.557433604183
  0
LINE
  5
194
100
AcDbEntity
  8
1
  6
CONTINUOUS
 62
           2
100
AcDbLine
 10
14253.142068542969
 20
-2228.751113056565
 11
14253.142068542969
 21
-2241.189915279292
  0
LINE
  5
193
100
AcDbEntity
  8
1
  6
CONTINUOUS
 62
           2
100
AcDbLine
 10
14267.575825272719
 20
-2228.751113056565
 11
14267.575825272719
 21
-2244.321857032564
  0
LINE
  5
192
100
AcDbEntity
  8
1
  6
CONTINUOUS
 62
           2
100
AcDbLine
 10
14245.925190178101
 20
-2228.751113056565
 11
14245.925190178101
 21
-2236.518203119643
  0
LINE
  5
191
100
AcDbEntity
  8
1
  6
CONTINUOUS
 62
           2
100
AcDbLine
 10
14247.85894690784
 20
-2227.634658088103
 11
14266.70511223044
 21
-2227.634658088103
  0
LINE
  5
190
100
AcDbEntity
  8
1
  6
CONTINUOUS
 62
           2
100
AcDbLine
 10
14274.7927036376
 20
-2228.751113056565
 11
14274.7927036376
 21
-2236.518203119643
  0
LINE
  5
18F
100
AcDbEntity
  8
1
  6
CONTINUOUS
 62
           2
100
AcDbLine
 10
14245.925190178101
 20
-2228.751113056565
 11
14247.85894690784
 21
-2227.634658088103
  0
LINE
  5
18E
100
AcDbEntity
  8
1
  6
CONTINUOUS
 62
           2
100
AcDbLine
 10
14272.85894690784
 20
-2227.634658088104
 11
14274.7927036376
 21
-2228.751113056565
  0
LINE
  5
18D
100
AcDbEntity
  8
1
  6
CONTINUOUS
 62
           2
100
AcDbLine
 10
14253.142068542969
 20
-2283.018203119639
 11
14253.142068542969
 21
-2265.947459143644
  0
LINE
  5
18C
100
AcDbEntity
  8
1
  6
CONTINUOUS
 62
           2
100
AcDbLine
 10
14267.575825272719
 20
-2283.018203119639
 11
14267.575825272719
 21
-2265.947459143644
  0
LINE
  5
18B
100
AcDbEntity
  8
1
  6
CONTINUOUS
 62
           2
100
AcDbLine
 10
14245.925190178101
 20
-2283.018203119639
 11
14245.925190178101
 21
-2275.251113056568
  0
LINE
  5
18A
100
AcDbEntity
  8
1
  6
CONTINUOUS
 62
           2
100
AcDbLine
 10
14272.85894690784
 20
-2284.134658088103
 11
14266.10894690784
 21
-2284.134658088103
  0
LINE
  5
189
100
AcDbEntity
  8
1
  6
CONTINUOUS
 62
           2
100
AcDbLine
 10
14274.7927036376
 20
-2283.018203119639
 11
14274.7927036376
 21
-2275.251113056568
  0
LINE
  5
188
100
AcDbEntity
  8
1
  6
CONTINUOUS
 62
           2
100
AcDbLine
 10
14247.85894690784
 20
-2284.134658088103
 11
14245.925190178101
 21
-2283.018203119639
  0
LINE
  5
187
100
AcDbEntity
  8
1
  6
CONTINUOUS
 62
           2
100
AcDbLine
 10
14274.7927036376
 20
-2283.018203119639
 11
14272.85894690784
 21
-2284.134658088103
  0
LINE
  5
186
100
AcDbEntity
  8
1
  6
CONTINUOUS
 62
           2
100
AcDbLine
 10
14247.158946907841
 20
-2209.954658088103
 11
14273.55894690784
 21
-2209.954658088103
  0
LINE
  5
185
100
AcDbEntity
  8
1
  6
CONTINUOUS
 62
           2
100
AcDbLine
 10
14249.881446907841
 20
-2227.634658088104
 11
14249.508946907839
 21
-2220.294658088104
  0
LINE
  5
184
100
AcDbEntity
  8
1
  6
CONTINUOUS
 62
           2
100
AcDbLine
 10
14270.836446907841
 20
-2227.634658088104
 11
14271.20894690784
 21
-2220.294658088104
  0
LINE
  5
183
100
AcDbEntity
  8
1
  6
CONTINUOUS
 62
           2
100
AcDbLine
 10
14271.20894690784
 20
-2217.294658088104
 11
14270.836446907841
 21
-2209.954658088103
  0
LINE
  5
182
100
AcDbEntity
  8
1
  6
CONTINUOUS
 62
           2
100
AcDbLine
 10
14249.508946907839
 20
-2217.294658088104
 11
14249.881446907841
 21
-2209.954658088103
  0
LINE
  5
181
100
AcDbEntity
  8
1
  6
CONTINUOUS
 62
           2
100
AcDbLine
 10
14249.508946907839
 20
-2217.294658088104
 11
14249.508946907839
 21
-2220.294658088104
  0
LINE
  5
180
100
AcDbEntity
  8
1
  6
CONTINUOUS
 62
           2
100
AcDbLine
 10
14271.20894690784
 20
-2220.294658088104
 11
14249.508946907839
 21
-2220.294658088104
  0
LINE
  5
17F
100
AcDbEntity
  8
1
  6
CONTINUOUS
 62
           2
100
AcDbLine
 10
14249.508946907839
 20
-2217.294658088104
 11
14271.20894690784
 21
-2217.294658088104
  0
LINE
  5
17E
100
AcDbEntity
  8
1
  6
CONTINUOUS
 62
           2
100
AcDbLine
 10
14271.20894690784
 20
-2217.294658088104
 11
14271.20894690784
 21
-2220.294658088104
  0
LINE
  5
17D
100
AcDbEntity
  8
1
  6
CONTINUOUS
 62
           2
100
AcDbLine
 10
14247.85894690784
 20
-2227.634658088103
 11
14272.85894690784
 21
-2227.634658088104
  0
LINE
  5
17C
100
AcDbEntity
  8
1
  6
CONTINUOUS
 62
           2
100
AcDbLine
 10
14260.35894690784
 20
-2236.934869786312
 11
14260.35894690784
 21
-2228.751113056565
  0
LINE
  5
17B
100
AcDbEntity
  8
1
  6
DOT_CENTER
 62
           2
100
AcDbLine
 10
14260.35894690784
 20
-2287.362237910874
 11
14260.35894690784
 21
-2223.922134706153
  0
LINE
  5
17A
100
AcDbEntity
  8
1
  6
DOTTED
 62
           2
100
AcDbLine
 10
14247.158946907841
 20
-2200.829686461373
 11
14247.158946907841
 21
-2199.858811450822
  0
LINE
  5
179
100
AcDbEntity
  8
1
  6
DOTTED
 62
           2
100
AcDbLine
 10
14273.55894690784
 20
-2200.829686461373
 11
14273.55894690784
 21
-2199.858811450822
  0
LINE
  5
178
100
AcDbEntity
  8
1
  6
CONTINUOUS
 62
           2
100
AcDbLine
 10
14247.158946907841
 20
-2209.954658088103
 11
14247.158946907841
 21
-2200.829686461373
  0
LINE
  5
177
100
AcDbEntity
  8
1
  6
CONTINUOUS
 62
           2
100
AcDbLine
 10
14273.55894690784
 20
-2209.954658088103
 11
14273.55894690784
 21
-2200.829686461373
  0
LINE
  5
176
100
AcDbEntity
  8
1
  6
CONTINUOUS
 62
           2
100
AcDbLine
 10
14247.158946907841
 20
-2209.954658088103
 11
14273.55894690784
 21
-2209.954658088103
  0
LINE
  5
175
100
AcDbEntity
  8
1
  6
DOT_CENTER
 62
           2
100
AcDbLine
 10
10469.928705006159
 20
-899.670331346363
 11
10644.78143696842
 21
-899.670331346363
  0
LINE
  5
174
100
AcDbEntity
  8
1
  6
CONTINUOUS
 62
           2
100
AcDbLine
 10
10504.47247294344
 20
-929.319058204781
 11
10487.39484794344
 21
-929.319058204781
  0
LINE
  5
173
100
AcDbEntity
  8
1
  6
DOT_CENTER
 62
           2
100
AcDbLine
 10
10495.933660443439
 20
-942.213436205267
 11
10495.933660443439
 21
-911.533709238593
  0
LINE
  5
172
100
AcDbEntity
  8
1
  6
CONTINUOUS
 62
           2
100
AcDbLine
 10
10489.933660443439
 20
-938.319058204781
 11
10489.933660443439
 21
-929.319058204781
  0
LINE
  5
171
100
AcDbEntity
  8
1
  6
CONTINUOUS
 62
           2
100
AcDbLine
 10
10501.933660443439
 20
-938.319058204781
 11
10489.933660443439
 21
-938.319058204781
  0
LINE
  5
170
100
AcDbEntity
  8
1
  6
CONTINUOUS
 62
           2
100
AcDbLine
 10
10501.933660443439
 20
-929.319058204781
 11
10501.933660443439
 21
-938.319058204781
  0
LINE
  5
16F
100
AcDbEntity
  8
1
  6
CONTINUOUS
 62
           2
100
AcDbLine
 10
10504.264660443439
 20
-922.66905820478
 11
10504.47247294344
 21
-929.319058204781
  0
LINE
  5
16E
100
AcDbEntity
  8
1
  6
CONTINUOUS
 62
           2
100
AcDbLine
 10
10487.602660443439
 20
-922.66905820478
 11
10487.39484794344
 21
-929.319058204781
  0
LINE
  5
16D
100
AcDbEntity
  8
1
  6
CONTINUOUS
 62
           2
100
AcDbLine
 10
10497.859824281601
 20
-826.816741919498
 11
10495.933660443439
 21
-825.659385923352
  0
LINE
  5
16C
100
AcDbEntity
  8
1
  6
CONTINUOUS
 62
           2
100
AcDbLine
 10
10495.933660443439
 20
-825.659385923352
 11
10497.899042056401
 21
-826.748814740978
  0
LINE
  5
16B
100
AcDbEntity
  8
1
  6
CONTINUOUS
 62
           2
100
AcDbLine
 10
10493.968278830471
 20
-826.748814740978
 11
10495.933660443439
 21
-825.659385923352
  0
LINE
  5
16A
100
AcDbEntity
  8
1
  6
CONTINUOUS
 62
           2
100
AcDbLine
 10
10495.933660443439
 20
-825.659385923352
 11
10494.00749660528
 21
-826.816741919498
  0
LINE
  5
169
100
AcDbEntity
  8
1
  6
DOT_CENTER
 62
           2
100
AcDbLine
 10
10495.933660443439
 20
-823.989530723647
 11
10495.933660443439
 21
-911.533709238593
  0
LINE
  5
168
100
AcDbEntity
  8
1
  6
CONTINUOUS
 62
           2
100
AcDbLine
 10
10495.933660443439
 20
-825.659385923352
 11
10495.894442668639
 21
-823.412601109582
  0
LINE
  5
167
100
AcDbEntity
  8
1
  6
CONTINUOUS
 62
           2
100
AcDbLine
 10
10495.972878218239
 20
-823.412601109582
 11
10495.933660443439
 21
-825.659385923352
  0
LINE
  5
166
100
AcDbEntity
  8
1
  6
DOT_CENTER
 62
           2
100
AcDbLine
 10
10495.933660443439
 20
-766.85677081523
 11
10495.933660443439
 21
-821.742403661542
  0
LINE
  5
165
100
AcDbEntity
  8
1
  6
DOT_CENTER
 62
           2
100
AcDbLine
 10
10450.296467001581
 20
-813.021604487946
 11
10543.713228509179
 21
-813.021604487946
  0
LINE
  5
164
100
AcDbEntity
  8
1
  6
CONTINUOUS
 62
           7
100
AcDbLine
 10
10494.614769430729
 20
-816.383248424085
 11
10474.75004806934
 21
-834.0551204645
  0
LINE
  5
163
100
AcDbEntity
  8
1
  6
CONTINUOUS
 62
           7
100
AcDbLine
 10
10492.5720165073
 20
-814.340495500656
 11
10474.546013557399
 21
-833.85108595256
  0
LINE
  5
162
100
AcDbEntity
  8
1
  6
CONTINUOUS
 62
           7
100
AcDbLine
 10
10516.15366062258
 20
-833.242422085651
 11
10520.29507133962
 21
-837.383832802682
  0
LINE
  5
161
100
AcDbEntity
  8
1
  6
CONTINUOUS
 62
           7
100
AcDbLine
 10
10475.539679163119
 20
-833.061454858782
 11
10471.39905864554
 21
-837.202075376357
  0
LINE
  5
160
100
AcDbEntity
  8
1
  6
CONTINUOUS
 62
           7
100
AcDbLine
 10
10493.23366044344
 20
-774.03346950133
 11
10493.23366044344
 21
-772.743057830878
  0
LINE
  5
15F
100
AcDbEntity
  8
1
  6
CONTINUOUS
 62
           7
100
AcDbLine
 10
10493.23366044344
 20
-772.743057830878
 11
10498.63366044344
 21
-772.743057830878
  0
LINE
  5
15E
100
AcDbEntity
  8
1
  6
CONTINUOUS
 62
           7
100
AcDbLine
 10
10498.63366044344
 20
-772.743057830878
 11
10498.63366044344
 21
-774.039631094209
  0
LINE
  5
15D
100
AcDbEntity
  8
1
  6
CONTINUOUS
 62
           7
100
AcDbLine
 10
10462.4014158109
 20
-835.499146406699
 11
10459.7014158109
 21
-830.822609226264
  0
LINE
  5
15C
100
AcDbEntity
  8
1
  6
CONTINUOUS
 62
           7
100
AcDbLine
 10
10532.12203348484
 20
-830.797279951313
 11
10529.422033484851
 21
-835.473817131749
  0
LINE
  5
15B
100
AcDbEntity
  8
1
  6
CONTINUOUS
 62
           7
100
AcDbLine
 10
10462.4014158109
 20
-835.499146406699
 11
10463.535674571291
 21
-834.844281806059
  0
LINE
  5
15A
100
AcDbEntity
  8
1
  6
CONTINUOUS
 62
           7
100
AcDbLine
 10
10532.12203348484
 20
-830.797279951313
 11
10530.995803154499
 21
-830.147050566919
  0
LINE
  5
159
100
AcDbEntity
  8
1
  6
CONTINUOUS
 62
           7
100
AcDbLine
 10
10459.7014158109
 20
-830.822609226264
 11
10460.82946222735
 21
-830.171331324068
  0
LINE
  5
158
100
AcDbEntity
  8
1
  6
CONTINUOUS
 62
           7
100
AcDbLine
 10
10529.422033484851
 20
-835.473817131749
 11
10528.29916810093
 21
-834.825530500083
  0
LINE
  5
157
100
AcDbEntity
  8
1
  6
DOT_CENTER
 62
           2
100
AcDbLine
 10
10527.97465234099
 20
-831.520479785098
 11
10533.63052113993
 21
-834.785897158673
  0
LINE
  5
156
100
AcDbEntity
  8
1
  6
DOT_CENTER
 62
           2
100
AcDbLine
 10
10458.19395870486
 20
-834.810631445852
 11
10464.12643453043
 21
-831.385514930997
  0
LINE
  5
155
100
AcDbEntity
  8
1
  6
CONTINUOUS
 62
           2
100
AcDbLine
 10
10486.925789116091
 20
-853.021604487946
 11
10488.933660443439
 21
-853.021604487946
  0
LINE
  5
154
100
AcDbEntity
  8
1
  6
CONTINUOUS
 62
           2
100
AcDbLine
 10
10486.933660443439
 20
-850.990084079169
 11
10486.933660443439
 21
-853.021604487946
  0
LINE
  5
153
100
AcDbEntity
  8
1
  6
CONTINUOUS
 62
           2
100
AcDbLine
 10
10504.933660443439
 20
-850.990084079169
 11
10504.933660443439
 21
-853.021604487946
  0
LINE
  5
152
100
AcDbEntity
  8
1
  6
CONTINUOUS
 62
           2
100
AcDbLine
 10
10502.933660443439
 20
-853.021604487946
 11
10504.933660443439
 21
-853.021604487946
  0
LINE
  5
151
100
AcDbEntity
  8
1
  6
CONTINUOUS
 62
           2
100
AcDbLine
 10
10488.933660443439
 20
-853.021604487946
 11
10488.933660443439
 21
-865.021604487946
  0
LINE
  5
150
100
AcDbEntity
  8
1
  6
CONTINUOUS
 62
           2
100
AcDbLine
 10
10502.933660443439
 20
-853.021604487946
 11
10502.933660443439
 21
-865.021604487946
  0
LINE
  5
14F
100
AcDbEntity
  8
1
  6
CONTINUOUS
 62
           2
100
AcDbLine
 10
10504.62872294344
 20
-865.021604487946
 11
10504.583660443441
 21
-866.463604487945
  0
LINE
  5
14E
100
AcDbEntity
  8
1
  6
CONTINUOUS
 62
           2
100
AcDbLine
 10
10487.23859794344
 20
-865.021604487946
 11
10504.62872294344
 21
-865.021604487946
  0
LINE
  5
14D
100
AcDbEntity
  8
1
  6
CONTINUOUS
 62
           2
100
AcDbLine
 10
10487.23859794344
 20
-865.021604487946
 11
10487.28366044344
 21
-866.463604487947
  0
LINE
  5
14C
100
AcDbEntity
  8
1
  6
CONTINUOUS
 62
           2
100
AcDbLine
 10
10487.403485443439
 20
-870.298004487947
 11
10495.933660443439
 21
-870.298004487947
  0
LINE
  5
14B
100
AcDbEntity
  8
1
  6
CONTINUOUS
 62
           2
100
AcDbLine
 10
10488.34303544344
 20
-872.971604487947
 11
10495.933660443439
 21
-872.971604487947
  0
LINE
  5
14A
100
AcDbEntity
  8
1
  6
CONTINUOUS
 62
           2
100
AcDbLine
 10
10504.264660443439
 20
-876.671604487946
 11
10504.463835443439
 21
-870.298004487947
  0
LINE
  5
149
100
AcDbEntity
  8
1
  6
CONTINUOUS
 62
           2
100
AcDbLine
 10
10503.40866044344
 20
-876.671604487946
 11
10503.52428544344
 21
-872.971604487947
  0
LINE
  5
148
100
AcDbEntity
  8
1
  6
CONTINUOUS
 62
           2
100
AcDbLine
 10
10488.458660443441
 20
-876.671604487946
 11
10488.34303544344
 21
-872.971604487947
  0
LINE
  5
147
100
AcDbEntity
  8
1
  6
CONTINUOUS
 62
           2
100
AcDbLine
 10
10487.602660443439
 20
-876.671604487946
 11
10487.403485443439
 21
-870.298004487947
  0
LINE
  5
146
100
AcDbEntity
  8
1
  6
CONTINUOUS
 62
           2
100
AcDbLine
 10
10488.34303544344
 20
-872.971604487947
 11
10487.403485443439
 21
-870.298004487947
  0
LINE
  5
145
100
AcDbEntity
  8
1
  6
CONTINUOUS
 62
           2
100
AcDbLine
 10
10487.403485443439
 20
-870.298004487947
 11
10487.28366044344
 21
-866.463604487947
  0
LINE
  5
144
100
AcDbEntity
  8
1
  6
CONTINUOUS
 62
           2
100
AcDbLine
 10
10504.463835443439
 20
-870.298004487947
 11
10504.583660443441
 21
-866.463604487945
  0
LINE
  5
143
100
AcDbEntity
  8
1
  6
CONTINUOUS
 62
           2
100
AcDbLine
 10
10504.463835443439
 20
-870.298004487947
 11
10503.52428544344
 21
-872.971604487947
  0
LINE
  5
142
100
AcDbEntity
  8
1
  6
CONTINUOUS
 62
           2
100
AcDbLine
 10
10495.933660443439
 20
-872.971604487947
 11
10503.52428544344
 21
-872.971604487947
  0
LINE
  5
141
100
AcDbEntity
  8
1
  6
CONTINUOUS
 62
           2
100
AcDbLine
 10
10495.933660443439
 20
-870.298004487947
 11
10504.463835443439
 21
-870.298004487947
  0
LINE
  5
140
100
AcDbEntity
  8
1
  6
CONTINUOUS
 62
           7
100
AcDbLine
 10
10608.47191656551
 20
-889.020331346363
 11
10593.47191656551
 21
-889.020331346363
  0
LINE
  5
13F
100
AcDbEntity
  8
1
  6
CONTINUOUS
 62
           7
100
AcDbLine
 10
10608.47191656551
 20
-910.320331346363
 11
10593.47191656551
 21
-910.320331346363
  0
LINE
  5
13E
100
AcDbEntity
  8
1
  6
CONTINUOUS
 62
           2
100
AcDbLine
 10
10593.47191656551
 20
-889.020331346363
 11
10593.47191656551
 21
-910.320331346363
  0
LINE
  5
13D
100
AcDbEntity
  8
1
  6
CONTINUOUS
 62
           2
100
AcDbLine
 10
10534.232387301859
 20
-908.001331346363
 11
10527.83238730186
 21
-908.320331346363
  0
LINE
  5
13C
100
AcDbEntity
  8
1
  6
CONTINUOUS
 62
           2
100
AcDbLine
 10
10518.93238730186
 20
-891.339331346364
 11
10525.33238730186
 21
-891.020331346363
  0
LINE
  5
13B
100
AcDbEntity
  8
1
  6
CONTINUOUS
 62
           2
100
AcDbLine
 10
10525.33238730186
 20
-908.320331346363
 11
10518.93238730186
 21
-908.001331346363
  0
LINE
  5
13A
100
AcDbEntity
  8
1
  6
CONTINUOUS
 62
           2
100
AcDbLine
 10
10527.83238730186
 20
-891.020331346363
 11
10534.232387301859
 21
-891.339331346364
  0
LINE
  5
139
100
AcDbEntity
  8
1
  6
CONTINUOUS
 62
           2
100
AcDbLine
 10
10527.83238730186
 20
-891.020331346363
 11
10525.33238730186
 21
-891.020331346363
  0
LINE
  5
138
100
AcDbEntity
  8
1
  6
CONTINUOUS
 62
           2
100
AcDbLine
 10
10525.33238730186
 20
-908.320331346363
 11
10527.83238730186
 21
-908.320331346363
  0
LINE
  5
137
100
AcDbEntity
  8
1
  6
CONTINUOUS
 62
           2
100
AcDbLine
 10
10527.83238730186
 20
-908.320331346363
 11
10527.83238730186
 21
-891.020331346363
  0
LINE
  5
136
100
AcDbEntity
  8
1
  6
CONTINUOUS
 62
           2
100
AcDbLine
 10
10525.33238730186
 20
-891.020331346363
 11
10525.33238730186
 21
-908.320331346363
  0
LINE
  5
135
100
AcDbEntity
  8
1
  6
CONTINUOUS
 62
           2
100
AcDbLine
 10
10584.57191656551
 20
-891.020331346363
 11
10584.57191656551
 21
-908.320331346363
  0
LINE
  5
134
100
AcDbEntity
  8
1
  6
CONTINUOUS
 62
           2
100
AcDbLine
 10
10587.07191656551
 20
-908.320331346363
 11
10587.07191656551
 21
-891.020331346363
  0
LINE
  5
133
100
AcDbEntity
  8
1
  6
CONTINUOUS
 62
           2
100
AcDbLine
 10
10584.57191656551
 20
-908.320331346363
 11
10587.07191656551
 21
-908.320331346363
  0
LINE
  5
132
100
AcDbEntity
  8
1
  6
CONTINUOUS
 62
           2
100
AcDbLine
 10
10587.07191656551
 20
-891.020331346363
 11
10584.57191656551
 21
-891.020331346363
  0
LINE
  5
131
100
AcDbEntity
  8
1
  6
CONTINUOUS
 62
           2
100
AcDbLine
 10
10587.07191656551
 20
-891.020331346363
 11
10593.47191656551
 21
-891.339331346364
  0
LINE
  5
130
100
AcDbEntity
  8
1
  6
CONTINUOUS
 62
           2
100
AcDbLine
 10
10584.57191656551
 20
-908.320331346363
 11
10578.17191656551
 21
-908.001331346363
  0
LINE
  5
12F
100
AcDbEntity
  8
1
  6
CONTINUOUS
 62
           2
100
AcDbLine
 10
10578.17191656551
 20
-891.339331346364
 11
10584.57191656551
 21
-891.020331346363
  0
LINE
  5
12E
100
AcDbEntity
  8
1
  6
CONTINUOUS
 62
           2
100
AcDbLine
 10
10593.47191656551
 20
-908.001331346363
 11
10587.07191656551
 21
-908.320331346363
  0
LINE
  5
12D
100
AcDbEntity
  8
1
  6
CONTINUOUS
 62
           2
100
AcDbLine
 10
10570.718850953041
 20
-894.108153519873
 11
10568.777879897531
 21
-894.108153519873
  0
LINE
  5
12C
100
AcDbEntity
  8
1
  6
CONTINUOUS
 62
           2
100
AcDbLine
 10
10570.718850953041
 20
-905.232509172854
 11
10564.48066128304
 21
-905.232509172854
  0
LINE
  5
12B
100
AcDbEntity
  8
1
  6
CONTINUOUS
 62
           2
100
AcDbLine
 10
10541.483745824189
 20
-894.108153519873
 11
10547.91871640417
 21
-894.108153519873
  0
LINE
  5
12A
100
AcDbEntity
  8
1
  6
CONTINUOUS
 62
           2
100
AcDbLine
 10
10541.483745824189
 20
-905.232509172854
 11
10547.91871640417
 21
-905.232509172854
  0
LINE
  5
129
100
AcDbEntity
  8
1
  6
CONTINUOUS
 62
           2
100
AcDbLine
 10
10564.732387301859
 20
-891.170331346363
 11
10567.232387301859
 21
-891.170331346363
  0
LINE
  5
128
100
AcDbEntity
  8
1
  6
CONTINUOUS
 62
           2
100
AcDbLine
 10
10564.732387301859
 20
-894.335115449962
 11
10564.732387301859
 21
-891.170331346363
  0
LINE
  5
127
100
AcDbEntity
  8
1
  6
CONTINUOUS
 62
           2
100
AcDbLine
 10
10570.87020947537
 20
-893.608153519873
 11
10577.29456512835
 21
-893.608153519873
  0
LINE
  5
126
100
AcDbEntity
  8
1
  6
CONTINUOUS
 62
           2
100
AcDbLine
 10
10570.87020947537
 20
-905.732509172854
 11
10577.29456512835
 21
-905.732509172854
  0
LINE
  5
125
100
AcDbEntity
  8
1
  6
CONTINUOUS
 62
           2
100
AcDbLine
 10
10541.33238730186
 20
-911.794686999344
 11
10535.170209475369
 21
-911.794686999344
  0
LINE
  5
124
100
AcDbEntity
  8
1
  6
CONTINUOUS
 62
           2
100
AcDbLine
 10
10569.93238730186
 20
-910.170331346363
 11
10542.270209475369
 21
-910.170331346363
  0
LINE
  5
123
100
AcDbEntity
  8
1
  6
CONTINUOUS
 62
           2
100
AcDbLine
 10
10541.33238730186
 20
-887.545975693382
 11
10535.170209475369
 21
-887.545975693382
  0
LINE
  5
122
100
AcDbEntity
  8
1
  6
CONTINUOUS
 62
           2
100
AcDbLine
 10
10569.93238730186
 20
-889.170331346363
 11
10542.270209475369
 21
-889.170331346363
  0
LINE
  5
121
100
AcDbEntity
  8
1
  6
CONTINUOUS
 62
           2
100
AcDbLine
 10
10541.33238730186
 20
-887.545975693382
 11
10542.270209475369
 21
-889.170331346363
  0
LINE
  5
120
100
AcDbEntity
  8
1
  6
CONTINUOUS
 62
           2
100
AcDbLine
 10
10542.270209475369
 20
-910.170331346363
 11
10541.33238730186
 21
-911.794686999344
  0
LINE
  5
11F
100
AcDbEntity
  8
1
  6
CONTINUOUS
 62
           2
100
AcDbLine
 10
10570.87020947537
 20
-911.794686999344
 11
10569.93238730186
 21
-910.170331346363
  0
LINE
  5
11E
100
AcDbEntity
  8
1
  6
CONTINUOUS
 62
           2
100
AcDbLine
 10
10569.93238730186
 20
-889.170331346363
 11
10570.87020947537
 21
-887.545975693382
  0
LINE
  5
11D
100
AcDbEntity
  8
1
  6
CONTINUOUS
 62
           2
100
AcDbLine
 10
10553.99631932436
 20
-901.670331346363
 11
10558.468455279361
 21
-901.670331346363
  0
LINE
  5
11C
100
AcDbEntity
  8
1
  6
CONTINUOUS
 62
           2
100
AcDbLine
 10
10553.99631932436
 20
-897.670331346363
 11
10558.468455279361
 21
-897.670331346363
  0
LINE
  5
11B
100
AcDbEntity
  8
1
  6
CONTINUOUS
 62
           2
100
AcDbLine
 10
10562.482387301859
 20
-899.670331346363
 11
10564.732387301859
 21
-899.670331346363
  0
LINE
  5
11A
100
AcDbEntity
  8
1
  6
CONTINUOUS
 62
           2
100
AcDbLine
 10
10556.232387301859
 20
-893.420331346363
 11
10550.51624382503
 21
-893.420331346363
  0
LINE
  5
119
100
AcDbEntity
  8
1
  6
CONTINUOUS
 62
           2
100
AcDbLine
 10
10556.232387301859
 20
-893.896828654463
 11
10551.232387301859
 21
-896.783580000411
  0
LINE
  5
118
100
AcDbEntity
  8
1
  6
CONTINUOUS
 62
           2
100
AcDbLine
 10
10561.232387301859
 20
-896.783580000411
 11
10556.232387301859
 21
-893.896828654463
  0
LINE
  5
117
100
AcDbEntity
  8
1
  6
CONTINUOUS
 62
           2
100
AcDbLine
 10
10561.232387301859
 20
-902.557082692311
 11
10561.232387301859
 21
-896.783580000411
  0
LINE
  5
116
100
AcDbEntity
  8
1
  6
CONTINUOUS
 62
           2
100
AcDbLine
 10
10556.232387301859
 20
-905.443834038263
 11
10561.232387301859
 21
-902.557082692311
  0
LINE
  5
115
100
AcDbEntity
  8
1
  6
CONTINUOUS
 62
           2
100
AcDbLine
 10
10551.232387301859
 20
-902.557082692311
 11
10556.232387301859
 21
-905.443834038263
  0
LINE
  5
114
100
AcDbEntity
  8
1
  6
CONTINUOUS
 62
           2
100
AcDbLine
 10
10551.232387301859
 20
-896.783580000411
 11
10551.232387301859
 21
-902.557082692311
  0
LINE
  5
113
100
AcDbEntity
  8
1
  6
CONTINUOUS
 62
           2
100
AcDbLine
 10
10556.232387301859
 20
-890.670331346363
 11
10556.232387301859
 21
-908.670331346363
  0
LINE
  5
112
100
AcDbEntity
  8
1
  6
DOT_CENTER
 62
           2
100
AcDbLine
 10
10556.232387301859
 20
-884.273936995863
 11
10556.232387301859
 21
-915.022783080062
  0
LINE
  5
111
100
AcDbEntity
  8
1
  6
CONTINUOUS
 62
           2
100
AcDbLine
 10
10536.232387301859
 20
-904.020331346362
 11
10545.509631126321
 21
-904.020331346362
  0
LINE
  5
110
100
AcDbEntity
  8
1
  6
CONTINUOUS
 62
           2
100
AcDbLine
 10
10536.232387301859
 20
-895.320331346362
 11
10536.232387301859
 21
-904.020331346362
  0
LINE
  5
10F
100
AcDbEntity
  8
1
  6
CONTINUOUS
 62
           2
100
AcDbLine
 10
10536.232387301859
 20
-895.320331346362
 11
10545.509631126321
 21
-895.320331346362
  0
LINE
  5
10E
100
AcDbEntity
  8
1
  6
CONTINUOUS
 62
           2
100
AcDbLine
 10
10576.232387301859
 20
-904.020331346362
 11
10566.9551434774
 21
-904.020331346362
  0
LINE
  5
10D
100
AcDbEntity
  8
1
  6
CONTINUOUS
 62
           2
100
AcDbLine
 10
10576.232387301859
 20
-895.320331346362
 11
10576.232387301859
 21
-904.020331346362
  0
LINE
  5
10C
100
AcDbEntity
  8
1
  6
CONTINUOUS
 62
           2
100
AcDbLine
 10
10576.232387301859
 20
-895.320331346362
 11
10566.9551434774
 21
-895.320331346362
  0
LINE
  5
10B
100
AcDbEntity
  8
1
  6
CONTINUOUS
 62
           2
100
AcDbLine
 10
10577.29456512835
 20
-887.545975693382
 11
10570.87020947537
 21
-887.545975693382
  0
LINE
  5
10A
100
AcDbEntity
  8
1
  6
CONTINUOUS
 62
           2
100
AcDbLine
 10
10578.232387301859
 20
-889.170331346363
 11
10578.232387301859
 21
-910.170331346363
  0
LINE
  5
109
100
AcDbEntity
  8
1
  6
CONTINUOUS
 62
           2
100
AcDbLine
 10
10577.29456512835
 20
-911.794686999344
 11
10570.87020947537
 21
-911.794686999344
  0
LINE
  5
108
100
AcDbEntity
  8
1
  6
CONTINUOUS
 62
           2
100
AcDbLine
 10
10577.29456512835
 20
-887.545975693382
 11
10578.232387301859
 21
-889.170331346363
  0
LINE
  5
107
100
AcDbEntity
  8
1
  6
CONTINUOUS
 62
           2
100
AcDbLine
 10
10578.232387301859
 20
-910.170331346363
 11
10577.29456512835
 21
-911.794686999344
  0
LINE
  5
106
100
AcDbEntity
  8
1
  6
CONTINUOUS
 62
           2
100
AcDbLine
 10
10535.170209475369
 20
-893.608153519873
 11
10541.33238730186
 21
-893.608153519873
  0
LINE
  5
105
100
AcDbEntity
  8
1
  6
CONTINUOUS
 62
           2
100
AcDbLine
 10
10535.170209475369
 20
-905.732509172854
 11
10541.33238730186
 21
-905.732509172854
  0
LINE
  5
104
100
AcDbEntity
  8
1
  6
CONTINUOUS
 62
           2
100
AcDbLine
 10
10534.232387301859
 20
-910.170331346363
 11
10534.232387301859
 21
-889.170331346363
  0
LINE
  5
103
100
AcDbEntity
  8
1
  6
CONTINUOUS
 62
           2
100
AcDbLine
 10
10534.232387301859
 20
-889.170331346363
 11
10535.170209475369
 21
-887.545975693382
  0
LINE
  5
102
100
AcDbEntity
  8
1
  6
CONTINUOUS
 62
           2
100
AcDbLine
 10
10535.170209475369
 20
-911.794686999344
 11
10534.232387301859
 21
-910.170331346363
  0
LINE
  5
101
100
AcDbEntity
  8
1
  6
CONTINUOUS
 62
           2
100
AcDbLine
 10
10507.433660443439
 20
-922.66905820478
 11
10495.933660443439
 21
-922.66905820478
  0
LINE
  5
100
100
AcDbEntity
  8
1
  6
CONTINUOUS
 62
           2
100
AcDbLine
 10
10507.433660443439
 20
-914.170331346363
 11
10507.433660443439
 21
-922.66905820478
  0
LINE
  5
FF
100
AcDbEntity
  8
1
  6
CONTINUOUS
 62
           2
100
AcDbLine
 10
10510.433660443439
 20
-911.170331346363
 11
10518.93238730186
 21
-911.170331346363
  0
LINE
  5
FE
100
AcDbEntity
  8
1
  6
CONTINUOUS
 62
           2
100
AcDbLine
 10
10495.933660443439
 20
-922.66905820478
 11
10484.433660443439
 21
-922.66905820478
  0
LINE
  5
FD
100
AcDbEntity
  8
1
  6
CONTINUOUS
 62
           2
100
AcDbLine
 10
10518.93238730186
 20
-899.670331346363
 11
10518.93238730186
 21
-911.170331346363
  0
LINE
  5
FC
100
AcDbEntity
  8
1
  6
CONTINUOUS
 62
           2
100
AcDbLine
 10
10484.433660443439
 20
-899.670331346363
 11
10484.433660443439
 21
-922.66905820478
  0
LINE
  5
FB
100
AcDbEntity
  8
1
  6
CONTINUOUS
 62
           2
100
AcDbLine
 10
10484.433660443439
 20
-876.671604487946
 11
10484.433660443439
 21
-899.670331346363
  0
LINE
  5
FA
100
AcDbEntity
  8
1
  6
CONTINUOUS
 62
           2
100
AcDbLine
 10
10518.93238730186
 20
-888.170331346363
 11
10518.93238730186
 21
-899.670331346363
  0
LINE
  5
F9
100
AcDbEntity
  8
1
  6
CONTINUOUS
 62
           2
100
AcDbLine
 10
10484.433660443439
 20
-876.671604487946
 11
10495.933660443439
 21
-876.671604487946
  0
LINE
  5
F8
100
AcDbEntity
  8
1
  6
CONTINUOUS
 62
           2
100
AcDbLine
 10
10518.93238730186
 20
-888.170331346363
 11
10510.433660443439
 21
-888.170331346363
  0
LINE
  5
F7
100
AcDbEntity
  8
1
  6
CONTINUOUS
 62
           2
100
AcDbLine
 10
10507.433660443439
 20
-876.671604487946
 11
10507.433660443439
 21
-885.170331346363
  0
LINE
  5
F6
100
AcDbEntity
  8
1
  6
CONTINUOUS
 62
           2
100
AcDbLine
 10
10495.933660443439
 20
-876.671604487946
 11
10507.433660443439
 21
-876.671604487946
  0
LINE
  5
F5
100
AcDbEntity
  8
1
  6
DOT_CENTER
 62
           2
100
AcDbLine
 10
10436.098555837019
 20
-1699.670331346363
 11
10710.04650873953
 21
-1699.670331346363
  0
LINE
  5
F4
100
AcDbEntity
  8
1
  6
CONTINUOUS
 62
           7
100
AcDbLine
 10
11170.47191656551
 20
-2290.670331346364
 11
11170.47191656551
 21
-2487.670331346363
  0
LINE
  5
F3
100
AcDbEntity
  8
1
  6
CONTINUOUS
 62
           7
100
AcDbLine
 10
11370.47191656551
 20
-2290.670331346364
 11
11370.47191656551
 21
-2487.670331346363
  0
LINE
  5
F2
100
AcDbEntity
  8
1
  6
CONTINUOUS
 62
           2
100
AcDbLine
 10
11282.97191656551
 20
-2245.850331346363
 11
11284.57191656551
 21
-2245.850331346363
  0
LINE
  5
F1
100
AcDbEntity
  8
1
  6
CONTINUOUS
 62
           2
100
AcDbLine
 10
11282.97191656551
 20
-2240.850331346363
 11
11288.07191656551
 21
-2240.850331346363
  0
LINE
  5
F0
100
AcDbEntity
  8
1
  6
CONTINUOUS
 62
           2
100
AcDbLine
 10
11288.07191656551
 20
-2240.850331346363
 11
11288.07191656551
 21
-2241.950331346364
  0
LINE
  5
EF
100
AcDbEntity
  8
1
  6
DOT_CENTER
 62
           2
100
AcDbLine
 10
11270.47191656551
 20
-2223.637807964413
 11
11270.47191656551
 21
-2287.077911169134
  0
LINE
  5
EE
100
AcDbEntity
  8
1
  6
CONTINUOUS
 62
           2
100
AcDbLine
 10
11270.47191656551
 20
-2274.550119648155
 11
11270.47191656551
 21
-2282.733876377901
  0
LINE
  5
ED
100
AcDbEntity
  8
1
  6
CONTINUOUS
 62
           2
100
AcDbLine
 10
11270.47191656551
 20
-2228.466786314824
 11
11270.47191656551
 21
-2236.650543044572
  0
LINE
  5
EC
100
AcDbEntity
  8
1
  6
DOT_CENTER
 62
           2
100
AcDbLine
 10
11250.970351389209
 20
-2254.850331346363
 11
11305.783795729911
 21
-2254.850331346363
  0
LINE
  5
EB
100
AcDbEntity
  8
1
  6
CONTINUOUS
 62
           2
100
AcDbLine
 10
11284.57191656551
 20
-2241.950331346364
 11
11284.57191656551
 21
-2244.850331346363
  0
LINE
  5
EA
100
AcDbEntity
  8
1
  6
CONTINUOUS
 62
           2
100
AcDbLine
 10
11284.57191656551
 20
-2267.250331346362
 11
11284.57191656551
 21
-2244.850331346363
  0
LINE
  5
E9
100
AcDbEntity
  8
1
  6
CONTINUOUS
 62
           2
100
AcDbLine
 10
11288.771916565511
 20
-2266.350331346363
 11
11288.771916565511
 21
-2243.350331346363
  0
LINE
  5
E8
100
AcDbEntity
  8
1
  6
CONTINUOUS
 62
           2
100
AcDbLine
 10
11301.47191656551
 20
-2224.850331346363
 11
11301.47191656551
 21
-2243.263701120106
  0
LINE
  5
E7
100
AcDbEntity
  8
1
  6
CONTINUOUS
 62
           2
100
AcDbLine
 10
11282.97191656551
 20
-2283.850331346362
 11
11282.97191656551
 21
-2227.350331346363
  0
LINE
  5
E6
100
AcDbEntity
  8
1
  6
CONTINUOUS
 62
           2
100
AcDbLine
 10
11257.97191656551
 20
-2227.350331346363
 11
11282.97191656551
 21
-2227.350331346363
  0
LINE
  5
E5
100
AcDbEntity
  8
1
  6
CONTINUOUS
 62
           2
100
AcDbLine
 10
11257.97191656551
 20
-2283.850331346363
 11
11257.97191656551
 21
-2227.350331346363
  0
LINE
  5
E4
100
AcDbEntity
  8
1
  6
CONTINUOUS
 62
           2
100
AcDbLine
 10
11282.97191656551
 20
-2283.850331346362
 11
11257.97191656551
 21
-2283.850331346363
  0
LINE
  5
E3
100
AcDbEntity
  8
1
  6
CONTINUOUS
 62
           2
100
AcDbLine
 10
11293.47191656551
 20
-2224.850331346363
 11
11301.47191656551
 21
-2224.850331346363
  0
LINE
  5
E2
100
AcDbEntity
  8
1
  6
CONTINUOUS
 62
           2
100
AcDbLine
 10
11288.771916565511
 20
-2243.350331346363
 11
11293.47191656551
 21
-2224.850331346363
  0
LINE
  5
E1
100
AcDbEntity
  8
1
  6
CONTINUOUS
 62
           2
100
AcDbLine
 10
11284.57191656551
 20
-2241.950331346364
 11
11289.12759224119
 21
-2241.950331346364
  0
LINE
  5
E0
100
AcDbEntity
  8
1
  6
CONTINUOUS
 62
           2
100
AcDbLine
 10
11284.57191656551
 20
-2242.450331346364
 11
11289.000565214161
 21
-2242.450331346364
  0
LINE
  5
DF
100
AcDbEntity
  8
1
  6
CONTINUOUS
 62
           2
100
AcDbLine
 10
11301.47191656551
 20
-2266.436961572621
 11
11301.47191656551
 21
-2284.850331346363
  0
LINE
  5
DE
100
AcDbEntity
  8
1
  6
CONTINUOUS
 62
           2
100
AcDbLine
 10
11293.47191656551
 20
-2284.850331346363
 11
11301.47191656551
 21
-2284.850331346363
  0
LINE
  5
DD
100
AcDbEntity
  8
1
  6
CONTINUOUS
 62
           2
100
AcDbLine
 10
11293.47191656551
 20
-2284.850331346363
 11
11288.771916565511
 21
-2266.350331346363
  0
LINE
  5
DC
100
AcDbEntity
  8
1
  6
CONTINUOUS
 62
           2
100
AcDbLine
 10
11289.000565214161
 20
-2267.250331346362
 11
11284.57191656551
 21
-2267.250331346362
  0
LINE
  5
DB
100
AcDbEntity
  8
1
  6
CONTINUOUS
 62
           2
100
AcDbLine
 10
11282.97191656551
 20
-2248.350331346363
 11
11284.57191656551
 21
-2248.350331346363
  0
LINE
  5
DA
100
AcDbEntity
  8
1
  6
CONTINUOUS
 62
           2
100
AcDbLine
 10
11282.97191656551
 20
-2261.350331346363
 11
11284.57191656551
 21
-2261.350331346363
  0
LINE
  5
D9
100
AcDbEntity
  8
1
  6
CONTINUOUS
 62
           2
100
AcDbLine
 10
11281.371916565509
 20
-2237.157832264576
 11
11281.371916565509
 21
-2249.350331346363
  0
LINE
  5
D8
100
AcDbEntity
  8
1
  6
CONTINUOUS
 62
           2
100
AcDbLine
 10
11281.371916565509
 20
-2274.042830428151
 11
11281.371916565509
 21
-2259.850331346363
  0
LINE
  5
D7
100
AcDbEntity
  8
1
  6
CONTINUOUS
 62
           2
100
AcDbLine
 10
11257.97191656551
 20
-2246.500331346362
 11
11259.105673295249
 21
-2247.900331346364
  0
LINE
  5
D6
100
AcDbEntity
  8
1
  6
CONTINUOUS
 62
           2
100
AcDbLine
 10
11257.97191656551
 20
-2260.300331346362
 11
11259.105673295249
 21
-2258.900331346364
  0
LINE
  5
D5
100
AcDbEntity
  8
1
  6
CONTINUOUS
 62
           2
100
AcDbLine
 10
11259.105673295249
 20
-2247.900331346364
 11
11259.105673295249
 21
-2258.900331346364
  0
LINE
  5
D4
100
AcDbEntity
  8
1
  6
CONTINUOUS
 62
           2
100
AcDbLine
 10
11281.371916565509
 20
-2246.500331346362
 11
11280.371916565509
 21
-2247.900331346364
  0
LINE
  5
D3
100
AcDbEntity
  8
1
  6
CONTINUOUS
 62
           2
100
AcDbLine
 10
11281.371916565509
 20
-2260.300331346362
 11
11280.371916565509
 21
-2258.900331346364
  0
LINE
  5
D2
100
AcDbEntity
  8
1
  6
CONTINUOUS
 62
           2
100
AcDbLine
 10
11259.105673295249
 20
-2247.900331346364
 11
11280.371916565509
 21
-2247.900331346364
  0
LINE
  5
D1
100
AcDbEntity
  8
1
  6
CONTINUOUS
 62
           2
100
AcDbLine
 10
11259.105673295249
 20
-2258.900331346364
 11
11280.371916565509
 21
-2258.900331346364
  0
LINE
  5
D0
100
AcDbEntity
  8
1
  6
CONTINUOUS
 62
           2
100
AcDbLine
 10
11281.32191656551
 20
-2217.010331346363
 11
11281.32191656551
 21
-2220.010331346363
  0
LINE
  5
CF
100
AcDbEntity
  8
1
  6
CONTINUOUS
 62
           2
100
AcDbLine
 10
11259.621916565509
 20
-2217.010331346363
 11
11281.32191656551
 21
-2217.010331346363
  0
LINE
  5
CE
100
AcDbEntity
  8
1
  6
CONTINUOUS
 62
           2
100
AcDbLine
 10
11281.32191656551
 20
-2220.010331346363
 11
11259.621916565509
 21
-2220.010331346363
  0
LINE
  5
CD
100
AcDbEntity
  8
1
  6
CONTINUOUS
 62
           2
100
AcDbLine
 10
11259.621916565509
 20
-2217.010331346363
 11
11259.621916565509
 21
-2220.010331346363
  0
LINE
  5
CC
100
AcDbEntity
  8
1
  6
CONTINUOUS
 62
           2
100
AcDbLine
 10
11259.621916565509
 20
-2217.010331346363
 11
11259.994416565511
 21
-2209.670331346363
  0
LINE
  5
CB
100
AcDbEntity
  8
1
  6
CONTINUOUS
 62
           2
100
AcDbLine
 10
11281.32191656551
 20
-2217.010331346363
 11
11280.949416565511
 21
-2209.670331346363
  0
LINE
  5
CA
100
AcDbEntity
  8
1
  6
CONTINUOUS
 62
           2
100
AcDbLine
 10
11280.949416565511
 20
-2227.350331346363
 11
11281.32191656551
 21
-2220.010331346363
  0
LINE
  5
C9
100
AcDbEntity
  8
1
  6
CONTINUOUS
 62
           2
100
AcDbLine
 10
11259.994416565511
 20
-2227.350331346363
 11
11259.621916565509
 21
-2220.010331346363
  0
LINE
  5
C8
100
AcDbEntity
  8
1
  6
CONTINUOUS
 62
           2
100
AcDbLine
 10
11257.271916565511
 20
-2209.670331346363
 11
11283.67191656551
 21
-2209.670331346363
  0
LINE
  5
C7
100
AcDbEntity
  8
1
  6
CONTINUOUS
 62
           2
100
AcDbLine
 10
11283.67191656551
 20
-2209.670331346363
 11
11283.67191656551
 21
-2200.545359719633
  0
LINE
  5
C6
100
AcDbEntity
  8
1
  6
CONTINUOUS
 62
           2
100
AcDbLine
 10
11257.271916565511
 20
-2209.670331346363
 11
11257.271916565511
 21
-2200.545359719633
  0
LINE
  5
C5
100
AcDbEntity
  8
1
  6
DOTTED
 62
           2
100
AcDbLine
 10
11283.67191656551
 20
-2200.545359719633
 11
11283.67191656551
 21
-2199.574484709082
  0
LINE
  5
C4
100
AcDbEntity
  8
1
  6
DOTTED
 62
           2
100
AcDbLine
 10
11257.271916565511
 20
-2200.545359719633
 11
11257.271916565511
 21
-2199.574484709082
  0
LINE
  5
C3
100
AcDbEntity
  8
1
  6
CONTINUOUS
 62
           7
100
AcDbLine
 10
13598.35894690784
 20
-123.670331346363
 11
13598.35894690784
 21
-103.444556516511
  0
LINE
  5
C2
100
AcDbEntity
  8
1
  6
DOT_CENTER
 62
           2
100
AcDbLine
 10
9954.353391841185
 20
-1699.670331346363
 11
10250.377546190461
 21
-1699.670331346363
  0
LINE
  5
C1
100
AcDbEntity
  8
1
  6
DOT_CENTER
 62
           2
100
AcDbLine
 10
10107.770426958879
 20
-1565.071665264702
 11
10107.770426958879
 21
-1837.241134479788
  0
LINE
  5
C0
100
AcDbEntity
  8
1
  6
DOT_CENTER
 62
           2
100
AcDbLine
 10
10925.48742849657
 20
-1510.670331346364
 11
11624.993425471601
 21
-1510.670331346363
  0
LINE
  5
BF
100
AcDbEntity
  8
1
  6
DOT_CENTER
 62
           2
100
AcDbLine
 10
10923.53930753739
 20
-1510.670331346363
 11
11618.84927676856
 21
-1510.670331346363
  0
LINE
  5
BE
100
AcDbEntity
  8
1
  6
DOT_CENTER
 62
           2
100
AcDbLine
 10
11370.47191656551
 20
-1291.074748339534
 11
11370.47191656551
 21
-1738.152113756568
  0
LINE
  5
BD
100
AcDbEntity
  8
1
  6
CONTINUOUS
 62
           7
100
AcDbLine
 10
11387.97191656551
 20
-1333.170331346363
 11
11390.469932733729
 21
-1510.388641205518
  0
LINE
  5
BC
100
AcDbEntity
  8
1
  6
CONTINUOUS
 62
           7
100
AcDbLine
 10
11352.97365241831
 20
-1332.923852473124
 11
11350.47191656551
 21
-1510.670331346363
  0
LINE
  5
BB
100
AcDbEntity
  8
1
  6
CONTINUOUS
 62
           7
100
AcDbLine
 10
11379.13217060335
 20
-1495.670331346363
 11
11361.81166252766
 21
-1495.670331346363
  0
LINE
  5
BA
100
AcDbEntity
  8
1
  6
CONTINUOUS
 62
           7
100
AcDbLine
 10
11361.81166252766
 20
-1495.670331346363
 11
11353.151408489821
 21
-1510.670331346363
  0
LINE
  5
B9
100
AcDbEntity
  8
1
  6
CONTINUOUS
 62
           7
100
AcDbLine
 10
11353.151408489821
 20
-1510.670331346363
 11
11361.81166252766
 21
-1525.670331346363
  0
LINE
  5
B8
100
AcDbEntity
  8
1
  6
CONTINUOUS
 62
           7
100
AcDbLine
 10
11361.81166252766
 20
-1525.670331346363
 11
11379.13217060335
 21
-1525.670331346363
  0
LINE
  5
B7
100
AcDbEntity
  8
1
  6
CONTINUOUS
 62
           7
100
AcDbLine
 10
11379.13217060335
 20
-1525.670331346363
 11
11387.7924246412
 21
-1510.670331346363
  0
LINE
  5
B6
100
AcDbEntity
  8
1
  6
CONTINUOUS
 62
           7
100
AcDbLine
 10
11387.7924246412
 20
-1510.670331346363
 11
11379.13217060335
 21
-1495.670331346363
  0
LINE
  5
B5
100
AcDbEntity
  8
1
  6
DASH_CENTER
 62
           2
100
AcDbLine
 10
11392.122551660121
 20
-1510.670331346363
 11
11348.8212814709
 21
-1510.670331346363
  0
LINE
  5
B4
100
AcDbEntity
  8
1
  6
DASH_CENTER
 62
           2
100
AcDbLine
 10
11370.47191656551
 20
-1489.019696251752
 11
11370.47191656551
 21
-1532.320966440974
  0
LINE
  5
B3
100
AcDbEntity
  8
1
  6
CONTINUOUS
 62
           7
100
AcDbLine
 10
11390.469932733729
 20
-1510.952021487208
 11
11387.97191656551
 21
-1688.170331346363
  0
LINE
  5
B2
100
AcDbEntity
  8
1
  6
CONTINUOUS
 62
           7
100
AcDbLine
 10
11350.47191656551
 20
-1510.670331346363
 11
11352.97365241831
 21
-1688.416810219603
  0
LINE
  5
B1
100
AcDbEntity
  8
1
  6
CONTINUOUS
 62
           7
100
AcDbLine
 10
11187.970180712709
 20
-1688.416810219603
 11
11190.47191656551
 21
-1510.670331346363
  0
LINE
  5
B0
100
AcDbEntity
  8
1
  6
CONTINUOUS
 62
           7
100
AcDbLine
 10
11152.97191656551
 20
-1688.170331346363
 11
11150.47390039729
 21
-1510.952021487208
  0
LINE
  5
AF
100
AcDbEntity
  8
1
  6
DASH_CENTER
 62
           2
100
AcDbLine
 10
11170.47191656551
 20
-1532.320966440974
 11
11170.47191656551
 21
-1489.019696251752
  0
LINE
  5
AE
100
AcDbEntity
  8
1
  6
DASH_CENTER
 62
           2
100
AcDbLine
 10
11192.122551660121
 20
-1510.670331346363
 11
11148.8212814709
 21
-1510.670331346363
  0
LINE
  5
AD
100
AcDbEntity
  8
1
  6
CONTINUOUS
 62
           7
100
AcDbLine
 10
11161.81166252766
 20
-1495.670331346363
 11
11153.151408489821
 21
-1510.670331346363
  0
LINE
  5
AC
100
AcDbEntity
  8
1
  6
CONTINUOUS
 62
           7
100
AcDbLine
 10
11153.151408489821
 20
-1510.670331346363
 11
11161.81166252766
 21
-1525.670331346363
  0
LINE
  5
AB
100
AcDbEntity
  8
1
  6
CONTINUOUS
 62
           7
100
AcDbLine
 10
11161.81166252766
 20
-1525.670331346363
 11
11179.13217060335
 21
-1525.670331346363
  0
LINE
  5
AA
100
AcDbEntity
  8
1
  6
CONTINUOUS
 62
           7
100
AcDbLine
 10
11179.13217060335
 20
-1525.670331346363
 11
11187.7924246412
 21
-1510.670331346363
  0
LINE
  5
A9
100
AcDbEntity
  8
1
  6
CONTINUOUS
 62
           7
100
AcDbLine
 10
11187.7924246412
 20
-1510.670331346363
 11
11179.13217060335
 21
-1495.670331346363
  0
LINE
  5
A8
100
AcDbEntity
  8
1
  6
CONTINUOUS
 62
           7
100
AcDbLine
 10
11179.13217060335
 20
-1495.670331346363
 11
11161.81166252766
 21
-1495.670331346363
  0
LINE
  5
A7
100
AcDbEntity
  8
1
  6
CONTINUOUS
 62
           7
100
AcDbLine
 10
11190.47191656551
 20
-1510.670331346363
 11
11187.970180712709
 21
-1332.923852473124
  0
LINE
  5
A6
100
AcDbEntity
  8
1
  6
CONTINUOUS
 62
           7
100
AcDbLine
 10
11150.47390039729
 20
-1510.388641205518
 11
11152.97191656551
 21
-1333.170331346363
  0
LINE
  5
A5
100
AcDbEntity
  8
1
  6
DOT_CENTER
 62
           2
100
AcDbLine
 10
11170.47191656551
 20
-1738.152113756568
 11
11170.47191656551
 21
-1291.074748339534
  0
LINE
  5
A4
100
AcDbEntity
  8
1
  6
CONTINUOUS
 62
           7
100
AcDbLine
 10
13598.18135280696
 20
-1210.670331346363
 11
13592.18135280696
 21
-1210.670331346363
  0
LINE
  5
A3
100
AcDbEntity
  8
1
  6
CONTINUOUS
 62
           7
100
AcDbLine
 10
13598.18135280696
 20
-1810.670331346363
 11
13592.18135280696
 21
-1810.670331346363
  0
LINE
  5
A2
100
AcDbEntity
  8
1
  6
CONTINUOUS
 62
           7
100
AcDbLine
 10
13592.18135280696
 20
-1210.670331346363
 11
13592.18135280696
 21
-1360.670331346363
  0
LINE
  5
A1
100
AcDbEntity
  8
1
  6
CONTINUOUS
 62
           7
100
AcDbLine
 10
13592.18135280696
 20
-1810.670331346363
 11
13592.18135280696
 21
-1660.670331346363
  0
LINE
  5
A0
100
AcDbEntity
  8
1
  6
CONTINUOUS
 62
           7
100
AcDbLine
 10
13592.18135280696
 20
-1350.547525899849
 11
13574.68135280696
 21
-1350.547525899849
  0
LINE
  5
9F
100
AcDbEntity
  8
1
  6
CONTINUOUS
 62
           7
100
AcDbLine
 10
13592.18135280696
 20
-1670.793136792878
 11
13574.68135280696
 21
-1670.793136792878
  0
LINE
  5
9E
100
AcDbEntity
  8
1
  6
CONTINUOUS
 62
           7
100
AcDbLine
 10
13567.18135280696
 20
-1358.047525899849
 11
13567.18135280696
 21
-1663.293136792878
  0
LINE
  5
9D
100
AcDbEntity
  8
1
  6
CONTINUOUS
 62
           7
100
AcDbLine
 10
13507.18135280696
 20
-1527.990839422052
 11
13507.18135280696
 21
-1493.349823270674
  0
LINE
  5
9C
100
AcDbEntity
  8
1
  6
CONTINUOUS
 62
           7
100
AcDbLine
 10
13492.52109876911
 20
-1527.990839422052
 11
13491.18135280696
 21
-1525.670331346363
  0
LINE
  5
9B
100
AcDbEntity
  8
1
  6
CONTINUOUS
 62
           7
100
AcDbLine
 10
13491.18135280696
 20
-1495.670331346363
 11
13492.52109876911
 21
-1493.349823270674
  0
LINE
  5
9A
100
AcDbEntity
  8
1
  6
CONTINUOUS
 62
           7
100
AcDbLine
 10
13507.18135280696
 20
-1527.990839422052
 11
13492.52109876911
 21
-1527.990839422052
  0
LINE
  5
99
100
AcDbEntity
  8
1
  6
CONTINUOUS
 62
           7
100
AcDbLine
 10
13491.18135280696
 20
-1525.670331346363
 11
13491.18135280696
 21
-1495.670331346363
  0
LINE
  5
98
100
AcDbEntity
  8
1
  6
CONTINUOUS
 62
           7
100
AcDbLine
 10
13492.52109876911
 20
-1493.349823270674
 11
13507.18135280696
 21
-1493.349823270674
  0
LINE
  5
97
100
AcDbEntity
  8
1
  6
CONTINUOUS
 62
           7
100
AcDbLine
 10
13507.18135280696
 20
-1519.330585384208
 11
13492.52109876911
 21
-1519.330585384208
  0
LINE
  5
96
100
AcDbEntity
  8
1
  6
CONTINUOUS
 62
           7
100
AcDbLine
 10
13507.18135280696
 20
-1502.010077308519
 11
13492.52109876911
 21
-1502.010077308519
  0
LINE
  5
95
100
AcDbEntity
  8
1
  6
DASH_CENTER
 62
           2
100
AcDbLine
 10
13511.18135280696
 20
-1510.670331346363
 11
13487.18135280696
 21
-1510.670331346363
  0
LINE
  5
94
100
AcDbEntity
  8
1
  6
CONTINUOUS
 62
           7
100
AcDbLine
 10
13592.18135280696
 20
-1315.547525899849
 11
13545.613940993389
 21
-1315.547525899849
  0
LINE
  5
93
100
AcDbEntity
  8
1
  6
CONTINUOUS
 62
           7
100
AcDbLine
 10
13507.18135280696
 20
-1490.670331346363
 11
13535.757521187739
 21
-1323.85903882122
  0
LINE
  5
92
100
AcDbEntity
  8
1
  6
CONTINUOUS
 62
           7
100
AcDbLine
 10
13507.18135280696
 20
-1490.670331346363
 11
13507.18135280696
 21
-1510.670331346363
  0
LINE
  5
91
100
AcDbEntity
  8
1
  6
CONTINUOUS
 62
           7
100
AcDbLine
 10
13545.613940993389
 20
-1705.793136792878
 11
13592.18135280696
 21
-1705.793136792878
  0
LINE
  5
90
100
AcDbEntity
  8
1
  6
CONTINUOUS
 62
           7
100
AcDbLine
 10
13535.757521187739
 20
-1697.481623871507
 11
13507.18135280696
 21
-1530.670331346363
  0
LINE
  5
8F
100
AcDbEntity
  8
1
  6
CONTINUOUS
 62
           7
100
AcDbLine
 10
13507.18135280696
 20
-1510.670331346363
 11
13507.18135280696
 21
-1530.670331346363
  0
LINE
  5
8E
100
AcDbEntity
  8
1
  6
CONTINUOUS
 62
           7
100
AcDbLine
 10
13535.757521187739
 20
-1697.481623871507
 11
13507.18135280696
 21
-1530.670331346363
  0
LINE
  5
8D
100
AcDbEntity
  8
1
  6
CONTINUOUS
 62
           3
100
AcDbLine
 10
13491.18135280696
 20
-1502.023331346364
 11
13477.328352806961
 21
-1502.023331346364
  0
LINE
  5
8C
100
AcDbEntity
  8
1
  6
CONTINUOUS
 62
           3
100
AcDbLine
 10
13491.18135280696
 20
-1519.317331346363
 11
13477.328352806961
 21
-1519.317331346363
  0
LINE
  5
8B
100
AcDbEntity
  8
1
  6
CONTINUOUS
 62
           7
100
AcDbLine
 10
13491.18135280696
 20
-1520.670331346363
 11
13478.68135280696
 21
-1520.670331346363
  0
LINE
  5
8A
100
AcDbEntity
  8
1
  6
CONTINUOUS
 62
           7
100
AcDbLine
 10
13478.68135280696
 20
-1520.670331346363
 11
13478.68135280696
 21
-1500.670331346363
  0
LINE
  5
89
100
AcDbEntity
  8
1
  6
CONTINUOUS
 62
           7
100
AcDbLine
 10
13478.68135280696
 20
-1500.670331346363
 11
13491.18135280696
 21
-1500.670331346363
  0
LINE
  5
88
100
AcDbEntity
  8
1
  6
CONTINUOUS
 62
           7
100
AcDbLine
 10
13476.18135280696
 20
-1503.170331346363
 11
13478.68135280696
 21
-1500.670331346363
  0
LINE
  5
87
100
AcDbEntity
  8
1
  6
CONTINUOUS
 62
           7
100
AcDbLine
 10
13476.18135280696
 20
-1518.170331346363
 11
13476.18135280696
 21
-1503.170331346363
  0
LINE
  5
86
100
AcDbEntity
  8
1
  6
CONTINUOUS
 62
           7
100
AcDbLine
 10
13478.68135280696
 20
-1520.670331346363
 11
13476.18135280696
 21
-1518.170331346363
  0
LINE
  5
85
100
AcDbEntity
  8
1
  6
CONTINUOUS
 62
           7
100
AcDbLine
 10
13491.18135280696
 20
-1525.670331346363
 11
13491.18135280696
 21
-1495.670331346363
  0
LINE
  5
84
100
AcDbEntity
  8
1
  6
CONTINUOUS
 62
           7
100
AcDbLine
 10
13491.18135280696
 20
-1495.670331346363
 11
13492.52109876911
 21
-1493.349823270674
  0
LINE
  5
83
100
AcDbEntity
  8
1
  6
CONTINUOUS
 62
           7
100
AcDbLine
 10
13492.52109876911
 20
-1527.990839422052
 11
13491.18135280696
 21
-1525.670331346363
  0
LINE
  5
82
100
AcDbEntity
  8
1
  6
CONTINUOUS
 62
           7
100
AcDbLine
 10
13572.18135280696
 20
-1485.670331346363
 11
13627.234459301189
 21
-1485.670331346363
  0
LINE
  5
81
100
AcDbEntity
  8
1
  6
CONTINUOUS
 62
           7
100
AcDbLine
 10
13572.18135280696
 20
-1535.670331346363
 11
13627.234459301189
 21
-1535.670331346363
  0
LINE
  5
80
100
AcDbEntity
  8
1
  6
CONTINUOUS
 62
           7
100
AcDbLine
 10
13572.18135280696
 20
-1485.670331346363
 11
13572.18135280696
 21
-1535.670331346363
  0
LINE
  5
7F
100
AcDbEntity
  8
1
  6
CONTINUOUS
 62
           3
100
AcDbLine
 10
13572.066368541789
 20
-1502.023331346364
 11
13567.18135280696
 21
-1502.023331346364
  0
LINE
  5
7E
100
AcDbEntity
  8
1
  6
CONTINUOUS
 62
           3
100
AcDbLine
 10
13572.066368541789
 20
-1519.317331346363
 11
13567.18135280696
 21
-1519.317331346363
  0
LINE
  5
7D
100
AcDbEntity
  8
1
  6
CONTINUOUS
 62
           7
100
AcDbLine
 10
13572.066368541789
 20
-1520.670331346363
 11
13567.18135280696
 21
-1520.670331346363
  0
LINE
  5
7C
100
AcDbEntity
  8
1
  6
CONTINUOUS
 62
           7
100
AcDbLine
 10
13567.18135280696
 20
-1500.670331346363
 11
13572.066368541789
 21
-1500.670331346363
  0
LINE
  5
7B
100
AcDbEntity
  8
1
  6
DOT_CENTER
 62
           2
100
AcDbLine
 10
13418.56313188917
 20
-1510.670331346363
 11
13738.70554144418
 21
-1510.670331346363
  0
LINE
  5
7A
100
AcDbEntity
  8
1
  6
CONTINUOUS
 62
           7
100
AcDbLine
 10
11357.97365241831
 20
-3029.429228130632
 11
11382.97191656551
 21
-3029.429228130632
  0
LINE
  5
79
100
AcDbEntity
  8
1
  6
CONTINUOUS
 62
           7
100
AcDbLine
 10
11387.97191656551
 20
-3034.429228130632
 11
11387.97191656551
 21
-3091.556128836442
  0
LINE
  5
78
100
AcDbEntity
  8
1
  6
CONTINUOUS
 62
           7
100
AcDbLine
 10
11352.97365241831
 20
-3034.429228130632
 11
11352.97365241831
 21
-3086.2552049541
  0
LINE
  5
77
100
AcDbEntity
  8
1
  6
CONTINUOUS
 62
           7
100
AcDbLine
 10
11355.47191656551
 20
-3004.429228130632
 11
11385.469932733729
 21
-3004.429228130632
  0
LINE
  5
76
100
AcDbEntity
  8
1
  6
CONTINUOUS
 62
           7
100
AcDbLine
 10
11390.469932733729
 20
-3009.429228130632
 11
11390.469932733729
 21
-3092.00738434677
  0
LINE
  5
75
100
AcDbEntity
  8
1
  6
CONTINUOUS
 62
           7
100
AcDbLine
 10
11350.47191656551
 20
-3009.429228130632
 11
11350.47191656551
 21
-3085.948634434065
  0
LINE
  5
74
100
AcDbEntity
  8
1
  6
CONTINUOUS
 62
           7
100
AcDbLine
 10
11354.100479440711
 20
-3029.429228130632
 11
11352.29934094547
 21
-3007.575240071001
  0
LINE
  5
73
100
AcDbEntity
  8
1
  6
CONTINUOUS
 62
           7
100
AcDbLine
 10
11388.64449218554
 20
-3007.575240071001
 11
11386.843353690299
 21
-3029.429228130632
  0
LINE
  5
72
100
AcDbEntity
  8
1
  6
CONTINUOUS
 62
           7
100
AcDbLine
 10
11353.151408489821
 20
-3004.429228130632
 11
11387.7924246412
 21
-3004.429228130632
  0
LINE
  5
71
100
AcDbEntity
  8
1
  6
CONTINUOUS
 62
           7
100
AcDbLine
 10
11353.151408489821
 20
-2989.768974092788
 11
11355.47191656551
 21
-2988.429228130632
  0
LINE
  5
70
100
AcDbEntity
  8
1
  6
CONTINUOUS
 62
           7
100
AcDbLine
 10
11385.47191656551
 20
-2988.429228130632
 11
11387.7924246412
 21
-2989.768974092788
  0
LINE
  5
6F
100
AcDbEntity
  8
1
  6
CONTINUOUS
 62
           7
100
AcDbLine
 10
11353.151408489821
 20
-3004.429228130632
 11
11353.151408489821
 21
-2989.768974092788
  0
LINE
  5
6E
100
AcDbEntity
  8
1
  6
CONTINUOUS
 62
           7
100
AcDbLine
 10
11355.47191656551
 20
-2988.429228130632
 11
11385.47191656551
 21
-2988.429228130632
  0
LINE
  5
6D
100
AcDbEntity
  8
1
  6
CONTINUOUS
 62
           7
100
AcDbLine
 10
11387.7924246412
 20
-2989.768974092788
 11
11387.7924246412
 21
-3004.429228130632
  0
LINE
  5
6C
100
AcDbEntity
  8
1
  6
CONTINUOUS
 62
           7
100
AcDbLine
 10
11361.81166252766
 20
-3004.429228130632
 11
11361.81166252766
 21
-2989.768974092788
  0
LINE
  5
6B
100
AcDbEntity
  8
1
  6
CONTINUOUS
 62
           7
100
AcDbLine
 10
11379.13217060335
 20
-3004.429228130632
 11
11379.13217060335
 21
-2989.768974092788
  0
LINE
  5
6A
100
AcDbEntity
  8
1
  6
CONTINUOUS
 62
           7
100
AcDbLine
 10
11360.47191656551
 20
-2975.929228130632
 11
11362.97191656551
 21
-2973.429228130632
  0
LINE
  5
69
100
AcDbEntity
  8
1
  6
CONTINUOUS
 62
           7
100
AcDbLine
 10
11362.97191656551
 20
-2973.429228130632
 11
11377.97191656551
 21
-2973.429228130632
  0
LINE
  5
68
100
AcDbEntity
  8
1
  6
CONTINUOUS
 62
           7
100
AcDbLine
 10
11377.97191656551
 20
-2973.429228130632
 11
11380.47191656551
 21
-2975.929228130632
  0
LINE
  5
67
100
AcDbEntity
  8
1
  6
CONTINUOUS
 62
           7
100
AcDbLine
 10
11380.47191656551
 20
-2975.929228130632
 11
11380.47191656551
 21
-2988.429228130632
  0
LINE
  5
66
100
AcDbEntity
  8
1
  6
CONTINUOUS
 62
           7
100
AcDbLine
 10
11360.47191656551
 20
-2975.929228130632
 11
11380.47191656551
 21
-2975.929228130632
  0
LINE
  5
65
100
AcDbEntity
  8
1
  6
CONTINUOUS
 62
           7
100
AcDbLine
 10
11360.47191656551
 20
-2988.429228130632
 11
11360.47191656551
 21
-2975.929228130632
  0
LINE
  5
64
100
AcDbEntity
  8
1
  6
CONTINUOUS
 62
           3
100
AcDbLine
 10
11361.824916565511
 20
-2988.429228130632
 11
11361.824916565511
 21
-2974.576228130631
  0
LINE
  5
63
100
AcDbEntity
  8
1
  6
CONTINUOUS
 62
           3
100
AcDbLine
 10
11379.118916565511
 20
-2988.429228130632
 11
11379.118916565511
 21
-2974.576228130631
  0
LINE
  5
62
100
AcDbEntity
  8
1
  6
DOT_CENTER
 62
           2
100
AcDbLine
 10
11370.47191656551
 20
-2966.312811604211
 11
11370.47191656551
 21
-3106.650462259082
  0
LINE
  5
61
100
AcDbEntity
  8
1
  6
DOT_CENTER
 62
           2
100
AcDbLine
 10
11170.47191656551
 20
-3106.650462259082
 11
11170.47191656551
 21
-2966.312811604211
  0
LINE
  5
60
100
AcDbEntity
  8
1
  6
CONTINUOUS
 62
           3
100
AcDbLine
 10
11161.824916565511
 20
-2974.576228130631
 11
11161.824916565511
 21
-2988.429228130632
  0
LINE
  5
5F
100
AcDbEntity
  8
1
  6
CONTINUOUS
 62
           3
100
AcDbLine
 10
11179.118916565511
 20
-2974.576228130631
 11
11179.118916565511
 21
-2988.429228130632
  0
LINE
  5
5E
100
AcDbEntity
  8
1
  6
CONTINUOUS
 62
           7
100
AcDbLine
 10
11180.47191656551
 20
-2975.929228130632
 11
11180.47191656551
 21
-2988.429228130632
  0
LINE
  5
5D
100
AcDbEntity
  8
1
  6
CONTINUOUS
 62
           7
100
AcDbLine
 10
11160.47191656551
 20
-2975.929228130632
 11
11180.47191656551
 21
-2975.929228130632
  0
LINE
  5
5C
100
AcDbEntity
  8
1
  6
CONTINUOUS
 62
           7
100
AcDbLine
 10
11160.47191656551
 20
-2988.429228130632
 11
11160.47191656551
 21
-2975.929228130632
  0
LINE
  5
5B
100
AcDbEntity
  8
1
  6
CONTINUOUS
 62
           7
100
AcDbLine
 10
11160.47191656551
 20
-2975.929228130632
 11
11162.97191656551
 21
-2973.429228130632
  0
LINE
  5
5A
100
AcDbEntity
  8
1
  6
CONTINUOUS
 62
           7
100
AcDbLine
 10
11162.97191656551
 20
-2973.429228130632
 11
11177.97191656551
 21
-2973.429228130632
  0
LINE
  5
59
100
AcDbEntity
  8
1
  6
CONTINUOUS
 62
           7
100
AcDbLine
 10
11177.97191656551
 20
-2973.429228130632
 11
11180.47191656551
 21
-2975.929228130632
  0
LINE
  5
58
100
AcDbEntity
  8
1
  6
CONTINUOUS
 62
           7
100
AcDbLine
 10
11161.81166252766
 20
-2989.768974092788
 11
11161.81166252766
 21
-3004.429228130632
  0
LINE
  5
57
100
AcDbEntity
  8
1
  6
CONTINUOUS
 62
           7
100
AcDbLine
 10
11179.13217060335
 20
-2989.768974092788
 11
11179.13217060335
 21
-3004.429228130632
  0
LINE
  5
56
100
AcDbEntity
  8
1
  6
CONTINUOUS
 62
           7
100
AcDbLine
 10
11153.151408489821
 20
-3004.429228130632
 11
11153.151408489821
 21
-2989.768974092788
  0
LINE
  5
55
100
AcDbEntity
  8
1
  6
CONTINUOUS
 62
           7
100
AcDbLine
 10
11155.47191656551
 20
-2988.429228130632
 11
11185.47191656551
 21
-2988.429228130632
  0
LINE
  5
54
100
AcDbEntity
  8
1
  6
CONTINUOUS
 62
           7
100
AcDbLine
 10
11187.7924246412
 20
-2989.768974092788
 11
11187.7924246412
 21
-3004.429228130632
  0
LINE
  5
53
100
AcDbEntity
  8
1
  6
CONTINUOUS
 62
           7
100
AcDbLine
 10
11153.151408489821
 20
-2989.768974092788
 11
11155.47191656551
 21
-2988.429228130632
  0
LINE
  5
52
100
AcDbEntity
  8
1
  6
CONTINUOUS
 62
           7
100
AcDbLine
 10
11185.47191656551
 20
-2988.429228130632
 11
11187.7924246412
 21
-2989.768974092788
  0
LINE
  5
51
100
AcDbEntity
  8
1
  6
CONTINUOUS
 62
           7
100
AcDbLine
 10
11153.151408489821
 20
-3004.429228130632
 11
11187.7924246412
 21
-3004.429228130632
  0
LINE
  5
50
100
AcDbEntity
  8
1
  6
CONTINUOUS
 62
           7
100
AcDbLine
 10
11154.10047944072
 20
-3029.429228130632
 11
11152.29934094547
 21
-3007.575240071001
  0
LINE
  5
4F
100
AcDbEntity
  8
1
  6
CONTINUOUS
 62
           7
100
AcDbLine
 10
11188.64449218554
 20
-3007.575240071001
 11
11186.843353690299
 21
-3029.429228130632
  0
LINE
  5
4E
100
AcDbEntity
  8
1
  6
CONTINUOUS
 62
           7
100
AcDbLine
 10
11155.47390039729
 20
-3004.429228130632
 11
11185.47191656551
 21
-3004.429228130632
  0
LINE
  5
4D
100
AcDbEntity
  8
1
  6
CONTINUOUS
 62
           7
100
AcDbLine
 10
11157.97191656551
 20
-3029.429228130632
 11
11182.970180712709
 21
-3029.429228130632
  0
LINE
  5
4C
100
AcDbEntity
  8
1
  6
CONTINUOUS
 62
           7
100
AcDbLine
 10
11190.47191656551
 20
-3085.948634434063
 11
11190.47191656551
 21
-3009.429228130632
  0
LINE
  5
4B
100
AcDbEntity
  8
1
  6
CONTINUOUS
 62
           7
100
AcDbLine
 10
11187.970180712709
 20
-3086.255204954097
 11
11187.970180712709
 21
-3034.429228130632
  0
LINE
  5
4A
100
AcDbEntity
  8
1
  6
CONTINUOUS
 62
           7
100
AcDbLine
 10
11152.97191656551
 20
-3091.55612883644
 11
11152.97191656551
 21
-3034.429228130632
  0
LINE
  5
49
100
AcDbEntity
  8
1
  6
CONTINUOUS
 62
           7
100
AcDbLine
 10
11150.47390039729
 20
-3092.007384346766
 11
11150.47390039729
 21
-3009.429228130632
  0
LINE
  5
48
100
AcDbEntity
  8
1
  6
CONTINUOUS
 62
           7
100
AcDbLine
 10
10508.47191656551
 20
-1587.170331346363
 11
10530.47191656551
 21
-1587.170331346363
  0
LINE
  5
47
100
AcDbEntity
  8
1
  6
CONTINUOUS
 62
           7
100
AcDbLine
 10
10530.47191656551
 20
-1587.170331346363
 11
10530.47191656551
 21
-1812.170331346363
  0
LINE
  5
46
100
AcDbEntity
  8
1
  6
CONTINUOUS
 62
           7
100
AcDbLine
 10
10530.47191656551
 20
-1812.170331346363
 11
10508.47191656551
 21
-1812.170331346363
  0
LINE
  5
45
100
AcDbEntity
  8
1
  6
CONTINUOUS
 62
           7
100
AcDbLine
 10
10508.47191656551
 20
-1812.170331346363
 11
10508.47191656551
 21
-1587.170331346363
  0
LINE
  5
44
100
AcDbEntity
  8
1
  6
CONTINUOUS
 62
           7
100
AcDbLine
 10
12032.47191656551
 20
-1012.170331346363
 11
12010.47191656551
 21
-1012.170331346363
  0
LINE
  5
43
100
AcDbEntity
  8
1
  6
CONTINUOUS
 62
           7
100
AcDbLine
 10
12010.47191656551
 20
-1012.170331346363
 11
12010.47191656551
 21
-787.170331346363
  0
LINE
  5
42
100
AcDbEntity
  8
1
  6
CONTINUOUS
 62
           7
100
AcDbLine
 10
12010.47191656551
 20
-787.170331346363
 11
12032.47191656551
 21
-787.170331346363
  0
LINE
  5
41
100
AcDbEntity
  8
1
  6
CONTINUOUS
 62
           7
100
AcDbLine
 10
12032.47191656551
 20
-787.170331346363
 11
12032.47191656551
 21
-1012.170331346363
  0
LINE
  5
40
100
AcDbEntity
  8
1
  6
CONTINUOUS
 62
           7
100
AcDbLine
 10
12010.47191656551
 20
-842.520331346363
 11
11938.47191656551
 21
-842.520331346363
  0
LINE
  5
3F
100
AcDbEntity
  8
1
  6
CONTINUOUS
 62
           7
100
AcDbLine
 10
12010.47191656551
 20
-956.820331346363
 11
11938.47191656551
 21
-956.820331346363
  0
LINE
  5
3E
100
AcDbEntity
  8
1
  6
DOT_CENTER
 62
           2
100
AcDbLine
 10
14233.858152775651
 20
-835.691754738786
 11
14216.866522858671
 21
-794.670331346363
  0
LINE
  5
3D
100
AcDbEntity
  8
1
  6
DOT_CENTER
 62
           2
100
AcDbLine
 10
14197.899530399811
 20
-873.798793930825
 11
14154.94379182
 21
-856.005944429315
  0
LINE
  5
3C
100
AcDbEntity
  8
1
  6
DOT_CENTER
 62
           2
100
AcDbLine
 10
14303.85137095702
 20
-794.670331346363
 11
14286.859741040031
 21
-835.691754738786
  0
LINE
  5
3B
100
AcDbEntity
  8
1
  6
DOT_CENTER
 62
           2
100
AcDbLine
 10
14365.77410199569
 20
-856.005944429315
 11
14322.81836341587
 21
-873.798793930825
  0
LINE
  5
3A
100
AcDbEntity
  8
1
  6
DOT_CENTER
 62
           2
100
AcDbLine
 10
14322.81836341587
 20
-925.5418687619
 11
14365.77410199569
 21
-943.334718263412
  0
LINE
  5
39
100
AcDbEntity
  8
1
  6
DOT_CENTER
 62
           2
100
AcDbLine
 10
14286.859741040031
 20
-963.648907953941
 11
14303.85137095702
 21
-1004.670331346363
  0
LINE
  5
38
100
AcDbEntity
  8
1
  6
DOT_CENTER
 62
           2
100
AcDbLine
 10
14216.866522858671
 20
-1004.670331346363
 11
14233.858152775651
 21
-963.648907953941
  0
LINE
  5
37
100
AcDbEntity
  8
1
  6
DOT_CENTER
 62
           2
100
AcDbLine
 10
14154.94379182
 20
-943.334718263412
 11
14197.899530399811
 21
-925.5418687619
  0
LINE
  5
36
100
AcDbEntity
  8
1
  6
CONTINUOUS
 62
           7
100
AcDbLine
 10
12032.471916565521
 20
-3864.640914244375
 11
12010.471916565521
 21
-3864.640914244375
  0
LINE
  5
35
100
AcDbEntity
  8
1
  6
CONTINUOUS
 62
           7
100
AcDbLine
 10
12010.471916565521
 20
-3864.640914244375
 11
12010.471916565521
 21
-3639.640914244375
  0
LINE
  5
34
100
AcDbEntity
  8
1
  6
CONTINUOUS
 62
           7
100
AcDbLine
 10
12010.471916565521
 20
-3639.640914244375
 11
12032.471916565521
 21
-3639.640914244375
  0
LINE
  5
33
100
AcDbEntity
  8
1
  6
CONTINUOUS
 62
           7
100
AcDbLine
 10
12032.471916565521
 20
-3639.640914244375
 11
12032.471916565521
 21
-3864.640914244375
  0
LINE
  5
32
100
AcDbEntity
  8
1
  6
CONTINUOUS
 62
           7
100
AcDbLine
 10
10508.471916565521
 20
-3864.640914244375
 11
10530.471916565521
 21
-3864.640914244375
  0
LINE
  5
31
100
AcDbEntity
  8
1
  6
CONTINUOUS
 62
           7
100
AcDbLine
 10
10530.471916565521
 20
-3864.640914244375
 11
10530.471916565521
 21
-3639.640914244375
  0
LINE
  5
30
100
AcDbEntity
  8
1
  6
CONTINUOUS
 62
           7
100
AcDbLine
 10
10530.471916565521
 20
-3639.640914244375
 11
10508.471916565521
 21
-3639.640914244375
  0
LINE
  5
2F
100
AcDbEntity
  8
1
  6
CONTINUOUS
 62
           7
100
AcDbLine
 10
10508.471916565521
 20
-3639.640914244375
 11
10508.471916565521
 21
-3864.640914244375
  0
LINE
  5
2E
100
AcDbEntity
  8
1
  6
CONTINUOUS
 62
           7
100
AcDbLine
 10
10530.471916565521
 20
-3707.590914244376
 11
10603.96585216219
 21
-3707.590914244376
  0
LINE
  5
2D
100
AcDbEntity
  8
1
  6
CONTINUOUS
 62
           7
100
AcDbLine
 10
10530.471916565521
 20
-3796.690914244377
 11
10603.96585216219
 21
-3796.690914244377
  0
POINT
  5
2C
100
AcDbEntity
  8
976
 62
           6
100
AcDbPoint
 10
11557.70328811766
 20
330.211977801619
  0
POINT
  5
2B
100
AcDbEntity
  8
1
 62
           6
100
AcDbPoint
 10
10456.81336399857
 20
-813.011501128249
  0
ENDBLK
  5
4AE
100
AcDbEntity
  8
0
100
AcDbBlockEnd
  0
ENDSEC
  0
SECTION
  2
ENTITIES
  0
TEXT
  5
4B1
100
AcDbEntity
  8
1
 62
           2
100
AcDbText
 10
16490.277128906131
 20
-4366.656868680892
 40
52.5
  1
SAT-3000C-125
 41
0.9
  7
CONVERTER_1
100
AcDbText
  0
INSERT
  5
2A
100
AcDbEntity
  8
0
100
AcDbBlockReference
  2
SAT3000C125__1
 10
0.0
 20
0.0
  0
ENDSEC
  0
SECTION
  2
OBJECTS
  0
DICTIONARY
  5
19
100
AcDbDictionary
  3
ACAD_GROUP
350
1A
  3
ACAD_MLINESTYLE
350
1B
  0
DICTIONARY
  5
1A
102
{ACAD_REACTORS
330
19
102
}
100
AcDbDictionary
  0
DICTIONARY
  5
1B
102
{ACAD_REACTORS
330
19
102
}
100
AcDbDictionary
  3
STANDARD
350
1C
  0
MLINESTYLE
  5
1C
102
{ACAD_REACTORS
330
1B
102
}
100
AcDbMlineStyle
  2
STANDARD
 70
           0
  3

 62
           0
 51
90.0
 52
90.0
 71
           2
 49
0.5
 62
         256
  6
BYLAYER
 49
-0.5
 62
         256
  6
BYLAYER
  0
ENDSEC
  0
EOF
