  0
SECTION
  2
HEADER
  9
$ACADVER
  1
AC1032
  9
$ACADMAINTVER
 90
       73
  9
$DWGCODEPAGE
  3
ANSI_932
  9
$LASTSAVEDBY
  1
uedai
  9
$REQUIREDVERSIONS
160
                 0
  9
$INSBASE
 10
0.0
 20
0.0
 30
0.0
  9
$EXTMIN
 10
9859.877226572564
 20
-4480.622379879631
 30
-0.0015258207003583
  9
$EXTMAX
 10
17018.3328458294
 20
359.4178172403481
 30
0.0000000349246037
  9
$LIMMIN
 10
0.0
 20
0.0
  9
$LIMMAX
 10
0.0
 20
0.0
  9
$ORTHOMODE
 70
     0
  9
$REGENMODE
 70
     1
  9
$FILLMODE
 70
     1
  9
$QTEXTMODE
 70
     0
  9
$MIRRTEXT
 70
     1
  9
$LTSCALE
 40
1.0
  9
$ATTMODE
 70
     1
  9
$TEXTSIZE
 40
0.0
  9
$TRACEWID
 40
0.05
  9
$TEXTSTYLE
  7
STANDARD
  9
$CLAYER
  8
0
  9
$CELTYPE
  6
CONTINUOUS
  9
$CECOLOR
 62
   256
  9
$CELTSCALE
 40
1.0
  9
$DISPSILH
 70
     0
  9
$DIMSCALE
 40
1.0
  9
$DIMASZ
 40
0.18
  9
$DIMEXO
 40
0.0625
  9
$DIMDLI
 40
0.38
  9
$DIMRND
 40
0.0
  9
$DIMDLE
 40
0.0
  9
$DIMEXE
 40
0.18
  9
$DIMTP
 40
0.0
  9
$DIMTM
 40
0.0
  9
$DIMTXT
 40
0.18
  9
$DIMCEN
 40
0.09
  9
$DIMTSZ
 40
0.0
  9
$DIMTOL
 70
     0
  9
$DIMLIM
 70
     0
  9
$DIMTIH
 70
     1
  9
$DIMTOH
 70
     1
  9
$DIMSE1
 70
     0
  9
$DIMSE2
 70
     0
  9
$DIMTAD
 70
     0
  9
$DIMZIN
 70
     0
  9
$DIMBLK
  1

  9
$DIMASO
 70
     1
  9
$DIMSHO
 70
     1
  9
$DIMPOST
  1

  9
$DIMAPOST
  1

  9
$DIMALT
 70
     0
  9
$DIMALTD
 70
     2
  9
$DIMALTF
 40
25.4
  9
$DIMLFAC
 40
1.0
  9
$DIMTOFL
 70
     0
  9
$DIMTVP
 40
0.0
  9
$DIMTIX
 70
     0
  9
$DIMSOXD
 70
     0
  9
$DIMSAH
 70
     0
  9
$DIMBLK1
  1

  9
$DIMBLK2
  1

  9
$DIMSTYLE
  2
STANDARD
  9
$DIMCLRD
 70
     0
  9
$DIMCLRE
 70
     0
  9
$DIMCLRT
 70
     0
  9
$DIMTFAC
 40
1.0
  9
$DIMGAP
 40
0.09
  9
$DIMJUST
 70
     0
  9
$DIMSD1
 70
     0
  9
$DIMSD2
 70
     0
  9
$DIMTOLJ
 70
     1
  9
$DIMTZIN
 70
     0
  9
$DIMALTZ
 70
     0
  9
$DIMALTTZ
 70
     0
  9
$DIMUPT
 70
     0
  9
$DIMDEC
 70
     4
  9
$DIMTDEC
 70
     4
  9
$DIMALTU
 70
     2
  9
$DIMALTTD
 70
     2
  9
$DIMTXSTY
  7
STANDARD
  9
$DIMAUNIT
 70
     0
  9
$DIMADEC
 70
     0
  9
$DIMALTRND
 40
0.0
  9
$DIMAZIN
 70
     0
  9
$DIMDSEP
 70
    46
  9
$DIMATFIT
 70
     3
  9
$DIMFRAC
 70
     0
  9
$DIMLDRBLK
  1

  9
$DIMLUNIT
 70
     2
  9
$DIMLWD
 70
    -2
  9
$DIMLWE
 70
    -2
  9
$DIMTMOVE
 70
     0
  9
$DIMFXL
 40
1.0
  9
$DIMFXLON
 70
     0
  9
$DIMJOGANG
 40
0.7853981633974483
  9
$DIMTFILL
 70
     0
  9
$DIMTFILLCLR
 70
     0
  9
$DIMARCSYM
 70
     0
  9
$DIMLTYPE
  6

  9
$DIMLTEX1
  6

  9
$DIMLTEX2
  6

  9
$DIMTXTDIRECTION
 70
     0
  9
$LUNITS
 70
     2
  9
$LUPREC
 70
     4
  9
$SKETCHINC
 40
0.1
  9
$FILLETRAD
 40
0.0
  9
$AUNITS
 70
     0
  9
$AUPREC
 70
     0
  9
$MENU
  1
acad
  9
$ELEVATION
 40
0.0
  9
$PELEVATION
 40
0.0
  9
$THICKNESS
 40
0.0
  9
$LIMCHECK
 70
     0
  9
$CHAMFERA
 40
0.0
  9
$CHAMFERB
 40
0.0
  9
$CHAMFERC
 40
0.0
  9
$CHAMFERD
 40
0.0
  9
$SKPOLY
 70
     0
  9
$TDCREATE
 40
2440588.749988426
  9
$TDUCREATE
 40
2440587.999988426
  9
$TDUPDATE
 40
2458932.661099537
  9
$TDUUPDATE
 40
2458932.286099537
  9
$TDINDWG
 40
0.0007986111
  9
$TDUSRTIMER
 40
0.0007986111
  9
$USRTIMER
 70
     1
  9
$ANGBASE
 50
0.0
  9
$ANGDIR
 70
     0
  9
$PDMODE
 70
     0
  9
$PDSIZE
 40
0.0
  9
$PLINEWID
 40
0.0
  9
$SPLFRAME
 70
     0
  9
$SPLINETYPE
 70
     6
  9
$SPLINESEGS
 70
     8
  9
$HANDSEED
  5
587
  9
$SURFTAB1
 70
     6
  9
$SURFTAB2
 70
     6
  9
$SURFTYPE
 70
     6
  9
$SURFU
 70
     6
  9
$SURFV
 70
     6
  9
$UCSBASE
  2

  9
$UCSNAME
  2

  9
$UCSORG
 10
0.0
 20
0.0
 30
0.0
  9
$UCSXDIR
 10
1.0
 20
0.0
 30
0.0
  9
$UCSYDIR
 10
0.0
 20
1.0
 30
0.0
  9
$UCSORTHOREF
  2

  9
$UCSORTHOVIEW
 70
     0
  9
$UCSORGTOP
 10
0.0
 20
0.0
 30
0.0
  9
$UCSORGBOTTOM
 10
0.0
 20
0.0
 30
0.0
  9
$UCSORGLEFT
 10
0.0
 20
0.0
 30
0.0
  9
$UCSORGRIGHT
 10
0.0
 20
0.0
 30
0.0
  9
$UCSORGFRONT
 10
0.0
 20
0.0
 30
0.0
  9
$UCSORGBACK
 10
0.0
 20
0.0
 30
0.0
  9
$PUCSBASE
  2

  9
$PUCSNAME
  2

  9
$PUCSORG
 10
0.0
 20
0.0
 30
0.0
  9
$PUCSXDIR
 10
1.0
 20
0.0
 30
0.0
  9
$PUCSYDIR
 10
0.0
 20
1.0
 30
0.0
  9
$PUCSORTHOREF
  2

  9
$PUCSORTHOVIEW
 70
     0
  9
$PUCSORGTOP
 10
0.0
 20
0.0
 30
0.0
  9
$PUCSORGBOTTOM
 10
0.0
 20
0.0
 30
0.0
  9
$PUCSORGLEFT
 10
0.0
 20
0.0
 30
0.0
  9
$PUCSORGRIGHT
 10
0.0
 20
0.0
 30
0.0
  9
$PUCSORGFRONT
 10
0.0
 20
0.0
 30
0.0
  9
$PUCSORGBACK
 10
0.0
 20
0.0
 30
0.0
  9
$USERI1
 70
     0
  9
$USERI2
 70
     0
  9
$USERI3
 70
     0
  9
$USERI4
 70
     0
  9
$USERI5
 70
     0
  9
$USERR1
 40
0.0
  9
$USERR2
 40
0.0
  9
$USERR3
 40
0.0
  9
$USERR4
 40
0.0
  9
$USERR5
 40
0.0
  9
$WORLDVIEW
 70
     1
  9
$SHADEDGE
 70
     3
  9
$SHADEDIF
 70
    70
  9
$TILEMODE
 70
     1
  9
$MAXACTVP
 70
    16
  9
$PINSBASE
 10
0.0
 20
0.0
 30
0.0
  9
$PLIMCHECK
 70
     0
  9
$PEXTMIN
 10
1.000000000000000E+20
 20
1.000000000000000E+20
 30
1.000000000000000E+20
  9
$PEXTMAX
 10
-1.000000000000000E+20
 20
-1.000000000000000E+20
 30
-1.000000000000000E+20
  9
$PLIMMIN
 10
0.0
 20
0.0
  9
$PLIMMAX
 10
12.0
 20
9.0
  9
$UNITMODE
 70
     0
  9
$VISRETAIN
 70
     0
  9
$PLINEGEN
 70
     1
  9
$PSLTSCALE
 70
     0
  9
$TREEDEPTH
 70
  3020
  9
$CMLSTYLE
  2
STANDARD
  9
$CMLJUST
 70
     0
  9
$CMLSCALE
 40
1.0
  9
$PROXYGRAPHICS
 70
     1
  9
$MEASUREMENT
 70
     0
  9
$CELWEIGHT
370
    -1
  9
$ENDCAPS
280
     0
  9
$JOINSTYLE
280
     0
  9
$LWDISPLAY
290
     0
  9
$INSUNITS
 70
     0
  9
$HYPERLINKBASE
  1

  9
$STYLESHEET
  1

  9
$XEDIT
290
     1
  9
$CEPSNTYPE
380
     0
  9
$PSTYLEMODE
290
     1
  9
$FINGERPRINTGUID
  2
{BFF8BE9C-6D5E-FD46-AA45-458183A6E614}
  9
$VERSIONGUID
  2
{BC434C5C-8695-714B-BE6E-116665F87DCF}
  9
$EXTNAMES
290
     1
  9
$PSVPSCALE
 40
0.0
  9
$OLESTARTUP
290
     0
  9
$SORTENTS
280
   127
  9
$INDEXCTL
280
     0
  9
$HIDETEXT
280
     0
  9
$XCLIPFRAME
280
     2
  9
$HALOGAP
280
     0
  9
$OBSCOLOR
 70
   257
  9
$OBSLTYPE
280
     0
  9
$INTERSECTIONDISPLAY
280
     0
  9
$INTERSECTIONCOLOR
 70
   257
  9
$DIMASSOC
280
     1
  9
$PROJECTNAME
  1

  9
$CAMERADISPLAY
290
     0
  9
$LENSLENGTH
 40
50.0
  9
$CAMERAHEIGHT
 40
0.0
  9
$STEPSPERSEC
 40
2.0
  9
$STEPSIZE
 40
6.0
  9
$3DDWFPREC
 40
2.0
  9
$PSOLWIDTH
 40
0.25
  9
$PSOLHEIGHT
 40
4.0
  9
$LOFTANG1
 40
1.570796326794896
  9
$LOFTANG2
 40
1.570796326794896
  9
$LOFTMAG1
 40
0.0
  9
$LOFTMAG2
 40
0.0
  9
$LOFTPARAM
 70
     7
  9
$LOFTNORMALS
280
     1
  9
$LATITUDE
 40
37.795
  9
$LONGITUDE
 40
-122.394
  9
$NORTHDIRECTION
 40
0.0
  9
$TIMEZONE
 70
 -8000
  9
$LIGHTGLYPHDISPLAY
280
     1
  9
$TILEMODELIGHTSYNCH
280
     1
  9
$CMATERIAL
347
494
  9
$SOLIDHIST
280
     0
  9
$SHOWHIST
280
     1
  9
$DWFFRAME
280
     2
  9
$DGNFRAME
280
     0
  9
$REALWORLDSCALE
290
     1
  9
$INTERFERECOLOR
 62
     1
  9
$INTERFEREOBJVS
345
4B6
  9
$INTERFEREVPVS
346
4B3
  9
$CSHADOW
280
     0
  9
$SHADOWPLANELOCATION
 40
0.0
  0
ENDSEC
  0
SECTION
  2
CLASSES
  0
CLASS
  1
IMAGE
  2
AcDbRasterImage
  3
ISM
 90
     2175
 91
        0
280
     0
281
     1
  0
CLASS
  1
DICTIONARYVAR
  2
AcDbDictionaryVar
  3
ObjectDBX Classes
 90
        0
 91
        9
280
     0
281
     0
  0
CLASS
  1
RASTERVARIABLES
  2
AcDbRasterVariables
  3
ISM
 90
        0
 91
        0
280
     0
281
     0
  0
CLASS
  1
IMAGEDEF
  2
AcDbRasterImageDef
  3
ISM
 90
        0
 91
        0
280
     0
281
     0
  0
CLASS
  1
IMAGEDEF_REACTOR
  2
AcDbRasterImageDefReactor
  3
ISM
 90
        1
 91
        0
280
     0
281
     0
  0
CLASS
  1
IDBUFFER
  2
AcDbIdBuffer
  3
ObjectDBX Classes
 90
        0
 91
        0
280
     0
281
     0
  0
CLASS
  1
SPATIAL_FILTER
  2
AcDbSpatialFilter
  3
ObjectDBX Classes
 90
        0
 91
        0
280
     0
281
     0
  0
CLASS
  1
SORTENTSTABLE
  2
AcDbSortentsTable
  3
ObjectDBX Classes
 90
        0
 91
        0
280
     0
281
     0
  0
CLASS
  1
LAYER_INDEX
  2
AcDbLayerIndex
  3
ObjectDBX Classes
 90
        0
 91
        0
280
     0
281
     0
  0
CLASS
  1
SPATIAL_INDEX
  2
AcDbSpatialIndex
  3
ObjectDBX Classes
 90
        0
 91
        0
280
     0
281
     0
  0
CLASS
  1
OBJECT_PTR
  2
CAseDLPNTableRecord
  3
ASE-LPNTableRecord
 90
        1
 91
        0
280
     0
281
     0
  0
CLASS
  1
PLOTSETTINGS
  2
AcDbPlotSettings
  3
ObjectDBX Classes
 90
        0
 91
        0
280
     0
281
     0
  0
CLASS
  1
ACDBDICTIONARYWDFLT
  2
AcDbDictionaryWithDefault
  3
ObjectDBX Classes
 90
        0
 91
        1
280
     0
281
     0
  0
CLASS
  1
WIPEOUT
  2
AcDbWipeout
  3
WipeOut|Product Desc: Object Enabler for WipeOut entity | Company: Autodesk, Inc. | WEB Address: www.autodesk.com
 90
     2175
 91
        0
280
     0
281
     1
  0
CLASS
  1
WIPEOUTVARIABLES
  2
AcDbWipeoutVariables
  3
"WipeOut|Product Desc:     WipeOut Dbx Application|Company:          Autodesk, Inc.|WEB Address:      www.autodesk.com"
 90
        0
 91
        0
280
     0
281
     0
  0
CLASS
  1
RTEXT
  2
RText
  3
RText|AutoCAD Express Tool|expresstools@autodesk.com
 90
     3071
 91
        0
280
     0
281
     1
  0
CLASS
  1
ARCALIGNEDTEXT
  2
AcDbArcAlignedText
  3
ATEXT|AutoCAD Express Tool|expresstools@autodesk.com
 90
        0
 91
        0
280
     0
281
     1
  0
CLASS
  1
MATERIAL
  2
AcDbMaterial
  3
ObjectDBX Classes
 90
     1153
 91
        3
280
     0
281
     0
  0
CLASS
  1
VISUALSTYLE
  2
AcDbVisualStyle
  3
ObjectDBX Classes
 90
     4095
 91
       24
280
     0
281
     0
  0
CLASS
  1
TABLESTYLE
  2
AcDbTableStyle
  3
ObjectDBX Classes
 90
     4095
 91
        1
280
     0
281
     0
  0
CLASS
  1
SCALE
  2
AcDbScale
  3
ObjectDBX Classes
 90
     1153
 91
       17
280
     0
281
     0
  0
CLASS
  1
MLEADERSTYLE
  2
AcDbMLeaderStyle
  3
ACDB_MLEADERSTYLE_CLASS
 90
     4095
 91
        1
280
     0
281
     0
  0
CLASS
  1
ACDBSECTIONVIEWSTYLE
  2
AcDbSectionViewStyle
  3
ObjectDBX Classes
 90
     1025
 91
        2
280
     0
281
     0
  0
CLASS
  1
ACDBDETAILVIEWSTYLE
  2
AcDbDetailViewStyle
  3
ObjectDBX Classes
 90
     1025
 91
        2
280
     0
281
     0
  0
CLASS
  1
AMGSETTINGSOBJ
  2
AmgSettingsObj
  3
"AcadM|Product Description: AutoCAD Mechanical|Company: Autodesk, Inc."
 90
     1024
 91
        2
280
     0
281
     0
  0
CLASS
  1
ACME_DOCUMENT
  2
AcMeDbDoc
  3
AcMeServices
 90
     1024
 91
        1
280
     0
281
     0
  0
CLASS
  1
ACMESCOPE
  2
AcMeScope
  3
AcMeServices
 90
     1024
 91
        1
280
     0
281
     0
  0
CLASS
  1
ACMECOMMANDHISTORY
  2
AcMeCommandHistory
  3
AcMeServices
 90
     1024
 91
        1
280
     0
281
     0
  0
CLASS
  1
ACIMSYSVARMAN
  2
AcImSysVarManager
  3
AcMeServices
 90
     1024
 91
        3
280
     0
281
     0
  0
CLASS
  1
ACIMINTSYSVAR
  2
AcImIntSysVar
  3
AcMeServices
 90
     1024
 91
        2
280
     0
281
     0
  0
CLASS
  1
ACMESTATEMGR
  2
AcMeStateMgr
  3
AcMeServices
 90
     1024
 91
        1
280
     0
281
     0
  0
CLASS
  1
ACDBENTITYCACHE
  2
AcMeEntityCache
  3
AcMeServices
 90
     1024
 91
        1
280
     0
281
     0
  0
CLASS
  1
ACGREFMASTER
  2
AcGrefMaster
  3
AcAttribServices
 90
     1024
 91
        1
280
     0
281
     0
  0
CLASS
  1
ACME_DATABASE
  2
AcMeDbDatabase
  3
AcMeServices
 90
     1024
 91
        1
280
     0
281
     0
  0
CLASS
  1
ACRFINSADJUSTERMGR
  2
AcRfInsAdjusterMgr
  3
AcMeServices
 90
     1024
 91
        1
280
     0
281
     0
  0
CLASS
  1
ACGREFACADMASTER
  2
AcGrefacadMaster
  3
AcGrefServices
 90
     1024
 91
        1
280
     0
281
     0
  0
CLASS
  1
AMIMASTER
  2
AmiMaster
  3
AmiServices
 90
     1024
 91
        1
280
     0
281
     0
  0
CLASS
  1
AMDTMENUSTATEMGR
  2
AmdtMenuStateMgr
  3
McadcomServices
 90
     1024
 91
        1
280
     0
281
     0
  0
CLASS
  1
AMDTMCOMMENUSTATE
  2
AmdtMcomMenuState
  3
McadcomServices
 90
     1024
 91
        1
280
     0
281
     0
  0
CLASS
  1
MAPIAMMOUDLE
  2
MApiAmModule
  3
MApiAmServices
 90
     1024
 91
        1
280
     0
281
     0
  0
CLASS
  1
ACIMSTRSYSVAR
  2
AcImStrSysVar
  3
AcMeServices
 90
     1024
 91
        5
280
     0
281
     0
  0
CLASS
  1
AMDTAMMENUSTATE
  2
AmdtAmMenuState
  3
DesignerAssemblies_arx
 90
     1024
 91
        1
280
     0
281
     0
  0
CLASS
  1
ACAMPROJECT
  2
AcAmProject
  3
DesignerAssemblies
 90
     1024
 91
        1
280
     0
281
     0
  0
CLASS
  1
ACAMGRCOMPDEF
  2
AcAmGrCompDef
  3
DesignerAssemblies
 90
     1024
 91
        1
280
     0
281
     0
  0
CLASS
  1
ACAMCOMPDEF
  2
AcAmCompDef
  3
DesignerAssemblies
 90
     1024
 91
        1
280
     0
281
     0
  0
CLASS
  1
ACAMCOMPDEFMGR
  2
AcAmCompDefMgr
  3
DesignerAssemblies
 90
     1024
 91
        1
280
     0
281
     0
  0
CLASS
  1
AMCONTEXTMGR
  2
AcAmContextMgr
  3
DesignerAssemblies
 90
     1024
 91
        1
280
     0
281
     0
  0
CLASS
  1
ACAMCONTEXTMODELER
  2
AcAmContextModeler
  3
DesignerAssemblies
 90
     1024
 91
        1
280
     0
281
     0
  0
CLASS
  1
ACMDATADICTIONARY
  2
AcmDataDictionary
  3
"AcmSymBB|Product Description: AutoCAD Mechanical|Company: Autodesk, Inc."
 90
     1024
 91
        1
280
     0
281
     0
  0
CLASS
  1
ACAMGRCOMPDEFSET
  2
AcAmGrCompDefSet
  3
DesignerAssemblies
 90
     1024
 91
        1
280
     0
281
     0
  0
CLASS
  1
AMDTBROWSERDBTAB
  2
AmdtBrowserDbTab
  3
McadcomServices
 90
     1024
 91
        1
280
     0
281
     0
  0
CLASS
  1
CBROWSERAPPOBJECT
  2
CBrowserAppObject
  3
McadcomServices
 90
     1024
 91
        2
280
     0
281
     0
  0
CLASS
  1
DM_PLACEHOLDER
  2
AcDmSelsetPlaceholder
  3
McadcomServices
 90
     1024
 91
        1
280
     0
281
     0
  0
CLASS
  1
ACMSTANDARDANSI
  2
AcmStandardANSI
  3
"Amdt_StdImp|Product Description: AutoCAD Mechanical|Company: Autodesk, Inc."
 90
     1024
 91
        1
280
     0
281
     0
  0
CLASS
  1
ACMSURFSTANDARDANSI
  2
AcmSurfTextStdANSI
  3
"Amdt_StdImp|Product Description: AutoCAD Mechanical|Company: Autodesk, Inc."
 90
     1024
 91
        1
280
     0
281
     0
  0
CLASS
  1
ACMFCFSTANDARDANSI
  2
AcmFCFStdANSI
  3
"Amdt_StdImp|Product Description: AutoCAD Mechanical|Company: Autodesk, Inc."
 90
     1024
 91
        1
280
     0
281
     0
  0
CLASS
  1
ACMWELDSTANDARDANSI
  2
AcmWeldingStdANSI
  3
"Amdt_StdImp|Product Description: AutoCAD Mechanical|Company: Autodesk, Inc."
 90
     1024
 91
        1
280
     0
281
     0
  0
CLASS
  1
ACMIDSTANDARDANSI
  2
AcmIdStdANSI
  3
"Amdt_StdImp|Product Description: AutoCAD Mechanical|Company: Autodesk, Inc."
 90
     1024
 91
        1
280
     0
281
     0
  0
CLASS
  1
ACMDATUMSTANDARDANSI
  2
AcmDatumStdANSI
  3
"Amdt_StdImp|Product Description: AutoCAD Mechanical|Company: Autodesk, Inc."
 90
     1024
 91
        1
280
     0
281
     0
  0
CLASS
  1
ACMBOMSTANDARDANSI
  2
AcmBOMStdANSI
  3
"Amdt_StdImp|Product Description: AutoCAD Mechanical|Company: Autodesk, Inc."
 90
     1024
 91
        1
280
     0
281
     0
  0
CLASS
  1
ACMDETAILSTANDARDANSI
  2
AmdtDetailSymStdANSI
  3
"Amdt_StdImp|Product Description: AutoCAD Mechanical|Company: Autodesk, Inc."
 90
     1024
 91
        1
280
     0
281
     0
  0
CLASS
  1
ACMSECTIONSTANDARDANSI
  2
AmdtSectionSymStdANSI
  3
"Amdt_StdImp|Product Description: AutoCAD Mechanical|Company: Autodesk, Inc."
 90
     1024
 91
        1
280
     0
281
     0
  0
CLASS
  1
ACMCENTERLINESTANDARDANSI
  2
AmdtCenterLineStdANSI
  3
"Amdt_StdImp|Product Description: AutoCAD Mechanical|Company: Autodesk, Inc."
 90
     1024
 91
        1
280
     0
281
     0
  0
CLASS
  1
ACMTHREADLINESTANDARDANSI
  2
AmdtThreadLineStdANSI
  3
"Amdt_StdImp|Product Description: AutoCAD Mechanical|Company: Autodesk, Inc."
 90
     1024
 91
        1
280
     0
281
     0
  0
CLASS
  1
ACMNOTESTANDARDANSI
  2
AmdtNoteStdANSI
  3
"Amdt_StdImp|Product Description: AutoCAD Mechanical|Company: Autodesk, Inc."
 90
     1024
 91
        1
280
     0
281
     0
  0
CLASS
  1
ACMTAPERSTANDARDANSI
  2
AcmTaperStdANSI
  3
"Amdt_StdImp|Product Description: AutoCAD Mechanical|Company: Autodesk, Inc."
 90
     1024
 91
        1
280
     0
281
     0
  0
CLASS
  1
ACMANOOTATIONVIEWSTANDARDANSI
  2
AmdtAnViewStdANSI
  3
"Amdt_StdImp|Product Description: AutoCAD Mechanical|Company: Autodesk, Inc."
 90
     1024
 91
        1
280
     0
281
     0
  0
CLASS
  1
ACAMGLAYSTD
  2
AcAmgLayStd
  3
"AmgLay|Product Description: AutoCAD Mechanical|Company: Autodesk, Inc."
 90
     1024
 91
        1
280
     0
281
     0
  0
CLASS
  1
ACAMGTITLESTD
  2
AcAmgTitleStd
  3
"AmgTitle|Product Description: AutoCAD Mechanical|Company: Autodesk, Inc."
 90
     1024
 91
        1
280
     0
281
     0
  0
CLASS
  1
ACAMGDIMSTD
  2
AcAmgDimStd
  3
"AmgDim|Product Description: AutoCAD Mechanical|Company: Autodesk, Inc."
 90
     1024
 91
        1
280
     0
281
     0
  0
CLASS
  1
AMGOBJPROPCFG
  2
AmgObjPropCfg
  3
"AmgLay|Product Description: AutoCAD Mechanical|Company: Autodesk, Inc."
 90
     1024
 91
        1
280
     0
281
     0
  0
CLASS
  1
ACAMGHOLECHARTSTDANSI
  2
AcAmgHoleChartStdANSI
  3
"AmgDim" "Product Description: AutoCAD Mechanical|Company: Autodesk, Inc."
 90
     1024
 91
        1
280
     0
281
     0
  0
CLASS
  1
ACMSECTIONSTANDARDCUSTOM
  2
AmdtSectionSymStdCustom
  3
"Amdt_StdImp|Product Description: AutoCAD Mechanical|Company: Autodesk, Inc."
 90
     1024
 91
        1
280
     0
281
     0
  0
CLASS
  1
ACMDETAILTANDARDCUSTOM
  2
AmdtDetailSymStdCustom
  3
"Amdt_StdImp|Product Description: AutoCAD Mechanical|Company: Autodesk, Inc."
 90
     1024
 91
        1
280
     0
281
     0
  0
CLASS
  1
FIELD
  2
AcDbField
  3
ObjectDBX Classes
 90
     1152
 91
        8
280
     0
281
     0
  0
CLASS
  1
FIELDLIST
  2
AcDbFieldList
  3
ObjectDBX Classes
 90
     1152
 91
        1
280
     0
281
     0
  0
CLASS
  1
AMDTNOTETEMPLATEDB
  2
AmdtNoteTemplateDB
  3
"AcmSymBB" "Product Description: AutoCAD Mechanical|Company: Autodesk, Inc."
 90
     1024
 91
        7
280
     0
281
     0
  0
CLASS
  1
ACAMGFILTERDAT
  2
AcAmgFilterDat
  3
"AcadM|Product Description: AutoCAD Mechanical|Company: Autodesk, Inc."
 90
     1024
 91
        6
280
     0
281
     0
  0
CLASS
  1
CELLSTYLEMAP
  2
AcDbCellStyleMap
  3
ObjectDBX Classes
 90
     1152
 91
        1
280
     0
281
     0
  0
ENDSEC
  0
SECTION
  2
TABLES
  0
TABLE
  2
VPORT
  5
7
330
0
100
AcDbSymbolTable
 70
     1
  0
VPORT
  5
15
330
7
100
AcDbSymbolTableRecord
100
AcDbViewportTableRecord
  2
*ACTIVE
 70
     0
 10
0.0
 20
0.0
 11
1.0
 21
1.0
 12
13439.10503620098
 22
-2060.602281319642
 13
0.0
 23
0.0
 14
1.0
 24
1.0
 15
0.0
 25
0.0
 16
0.0
 26
0.0
 36
1.0
 17
0.0
 27
0.0
 37
0.0
 40
4875.498367062249
 41
2.315403422982885
 42
50.0
 43
0.0
 44
0.0
 50
0.0
 51
0.0
 71
     0
 72
   100
 73
     1
 74
     1
 75
     0
 76
     0
 77
     0
 78
     0
281
     0
 65
     0
110
0.0
120
0.0
130
0.0
111
1.0
121
0.0
131
0.0
112
0.0
122
1.0
132
0.0
 79
     0
146
0.0
348
4B2
 60
     3
 61
     5
292
     1
282
     1
141
0.0
142
0.0
 63
   250
421
  3355443
1001
ACAD_NAV_VCDISPLAY
1070
     3
  0
ENDTAB
  0
TABLE
  2
LTYPE
  5
4
330
0
100
AcDbSymbolTable
 70
    24
  0
LTYPE
  5
11
330
4
100
AcDbSymbolTableRecord
100
AcDbLinetypeTableRecord
  2
BYBLOCK
 70
     0
  3

 72
    65
 73
     0
 40
0.0
  0
LTYPE
  5
12
330
4
100
AcDbSymbolTableRecord
100
AcDbLinetypeTableRecord
  2
BYLAYER
 70
     0
  3

 72
    65
 73
     0
 40
0.0
  0
LTYPE
  5
13
330
4
100
AcDbSymbolTableRecord
100
AcDbLinetypeTableRecord
  2
CONTINUOUS
 70
     0
  3
Solid line
 72
    65
 73
     0
 40
0.0
  0
LTYPE
  5
1D
330
4
100
AcDbSymbolTableRecord
100
AcDbLinetypeTableRecord
  2
DASHED
 70
     0
  3
Dashed
 72
    65
 73
     2
 40
15.0
 49
12.0
 74
     0
 49
-3.0
 74
     0
  0
LTYPE
  5
1E
330
4
100
AcDbSymbolTableRecord
100
AcDbLinetypeTableRecord
  2
DOTTED
 70
     0
  3
Dotted
 72
    65
 73
     2
 40
3.5
 49
0.5
 74
     0
 49
-3.0
 74
     0
  0
LTYPE
  5
1F
330
4
100
AcDbSymbolTableRecord
100
AcDbLinetypeTableRecord
  2
DOT_CENTER
 70
     0
  3
Dot_Center
 72
    65
 73
     4
 40
2.0
 49
1.25
 74
     0
 49
-0.25
 74
     0
 49
0.25
 74
     0
 49
-0.25
 74
     0
  0
LTYPE
  5
20
330
4
100
AcDbSymbolTableRecord
100
AcDbLinetypeTableRecord
  2
LONG_DASHED
 70
     0
  3
Long_Dashed
 72
    65
 73
     2
 40
2.0
 49
1.5
 74
     0
 49
-0.5
 74
     0
  0
LTYPE
  5
21
330
4
100
AcDbSymbolTableRecord
100
AcDbLinetypeTableRecord
  2
DASH_CENTER
 70
     0
  3
Dash_Center
 72
    65
 73
     4
 40
36.0
 49
24.0
 74
     0
 49
-3.0
 74
     0
 49
6.0
 74
     0
 49
-3.0
 74
     0
  0
LTYPE
  5
22
330
4
100
AcDbSymbolTableRecord
100
AcDbLinetypeTableRecord
  2
PHANTOM
 70
     0
  3
Phantom
 72
    65
 73
     6
 40
2.5
 49
1.25
 74
     0
 49
-0.25
 74
     0
 49
0.25
 74
     0
 49
-0.25
 74
     0
 49
0.25
 74
     0
 49
-0.25
 74
     0
  0
LTYPE
  5
23
330
4
100
AcDbSymbolTableRecord
100
AcDbLinetypeTableRecord
  2
CENTER_DASH_DASH
 70
     0
  3
Center_Dash_Dash
 72
    65
 73
     6
 40
22.0
 49
12.0
 74
     0
 49
-3.0
 74
     0
 49
0.5
 74
     0
 49
-3.0
 74
     0
 49
0.5
 74
     0
 49
-3.0
 74
     0
  0
LTYPE
  5
4F2
330
4
100
AcDbSymbolTableRecord
100
AcDbLinetypeTableRecord
  2
HIDDEN
 70
     0
  3
Hidden __ __ __ __ __ __ __ __ __ __ __ __ __ _
 72
    65
 73
     2
 40
0.375
 49
0.25
 74
     0
 49
-0.125
 74
     0
  0
LTYPE
  5
4F3
330
4
100
AcDbSymbolTableRecord
100
AcDbLinetypeTableRecord
  2
PHANTOM2
 70
     0
  3
Phantom (.5x) ___ _ _ ___ _ _ ___ _ _ ___ _ _
 72
    65
 73
     6
 40
1.25
 49
0.625
 74
     0
 49
-0.125
 74
     0
 49
0.125
 74
     0
 49
-0.125
 74
     0
 49
0.125
 74
     0
 49
-0.125
 74
     0
  0
LTYPE
  5
4F4
330
4
100
AcDbSymbolTableRecord
100
AcDbLinetypeTableRecord
  2
CENTER
 70
     0
  3
Center ____ _ ____ _ ____ _ ____ _ ____ _ ____
 72
    65
 73
     4
 40
2.0
 49
1.25
 74
     0
 49
-0.25
 74
     0
 49
0.25
 74
     0
 49
-0.25
 74
     0
  0
LTYPE
  5
52F
330
4
100
AcDbSymbolTableRecord
100
AcDbLinetypeTableRecord
  2
AM_ISO02W050
 70
     0
  3
__ __ __ __ __ __ __ __ __ __ __ __ __ __ __
 72
    65
 73
     2
 40
7.5
 49
6.0
 74
     0
 49
-1.5
 74
     0
  0
LTYPE
  5
530
330
4
100
AcDbSymbolTableRecord
100
AcDbLinetypeTableRecord
  2
AM_ISO08W050
 70
     0
  3
____ . ____ . ____ . ____ . ____ . ____ . ____
 72
    65
 73
     4
 40
18.0
 49
12.0
 74
     0
 49
-1.5
 74
     0
 49
3.0
 74
     0
 49
-1.5
 74
     0
  0
LTYPE
  5
531
330
4
100
AcDbSymbolTableRecord
100
AcDbLinetypeTableRecord
  2
AM_ISO09W050
 70
     0
  3
_____ . . _____ . . _____ . . ____ .. ____
 72
    65
 73
     6
 40
22.5
 49
12.0
 74
     0
 49
-1.5
 74
     0
 49
3.0
 74
     0
 49
-1.5
 74
     0
 49
3.0
 74
     0
 49
-1.5
 74
     0
  0
LTYPE
  5
532
330
4
100
AcDbSymbolTableRecord
100
AcDbLinetypeTableRecord
  2
Amconstr
 70
     0
  3
_______________________
 72
    65
 73
     2
 40
9999.0
 49
9999.0
 74
     0
 49
0.0
 74
     0
  0
LTYPE
  5
533
330
4
100
AcDbSymbolTableRecord
100
AcDbLinetypeTableRecord
  2
AM_ISO08W050x2
 70
     0
  3
__ . __ . __ . __ . __ . __
 72
    65
 73
     4
 40
9.0
 49
6.0
 74
     0
 49
-0.75
 74
     0
 49
1.5
 74
     0
 49
-0.75
 74
     0
  0
LTYPE
  5
534
330
4
100
AcDbSymbolTableRecord
100
AcDbLinetypeTableRecord
  2
AM_ISO02W050x2
 70
     0
  3
 _ _ _ _ _ _ _ _ _ _ _ _
 72
    65
 73
     2
 40
3.75
 49
3.0
 74
     0
 49
-0.75
 74
     0
  0
LTYPE
  5
537
330
4
100
AcDbSymbolTableRecord
100
AcDbLinetypeTableRecord
  2
Amzigzag
 70
     0
  3
/\/-/\/-/\/-/\/-/\/-/\/
 72
    65
 73
     2
 40
11.0001
 49
0.0001
 74
     4
 75
   136
340
536
 46
0.04
 50
0.0
 44
0.0
 45
0.0
 49
-11.0
 74
     0
  0
LTYPE
  5
538
330
4
100
AcDbSymbolTableRecord
100
AcDbLinetypeTableRecord
  2
CENTER2
 70
     0
  3
Center (.5x) ___ _ ___ _ ___ _ ___ _ ___ _ ___
 72
    65
 73
     4
 40
1.125
 49
0.75
 74
     0
 49
-0.125
 74
     0
 49
0.125
 74
     0
 49
-0.125
 74
     0
  0
LTYPE
  5
539
330
4
100
AcDbSymbolTableRecord
100
AcDbLinetypeTableRecord
  2
HIDDEN2
 70
     0
  3
Hidden (.5x) _ _ _ _ _ _ _ _ _ _ _ _ _ _ _ _ _
 72
    65
 73
     2
 40
0.1875
 49
0.125
 74
     0
 49
-0.0625
 74
     0
  0
LTYPE
  5
53A
330
4
100
AcDbSymbolTableRecord
100
AcDbLinetypeTableRecord
  2
Amzigzag2
 70
     0
  3
/\/-/\/-/\/-/\/-/\/-/\/
 72
    65
 73
     2
 40
0.4401
 49
0.0001
 74
     4
 75
   136
340
536
 46
0.0016
 50
0.0
 44
0.0
 45
0.0
 49
-0.4400000000000001
 74
     0
  0
LTYPE
  5
549
330
4
100
AcDbSymbolTableRecord
100
AcDbLinetypeTableRecord
  2
ACANSTGB
 70
     0
  3
__ . . __ . .
 72
    65
 73
     6
 40
0.35433070866
 49
0.15748031496
 74
     0
 49
-0.03937007874
 74
     0
 49
0.03937007874
 74
     0
 49
-0.03937007874
 74
     0
 49
0.03937007874
 74
     0
 49
-0.03937007874
 74
     0
  0
LTYPE
  5
54A
330
4
100
AcDbSymbolTableRecord
100
AcDbLinetypeTableRecord
  2
ACANSTGL
 70
     0
  3
_ _ _ _ _
 72
    65
 73
     2
 40
0.11811023622
 49
0.07874015748
 74
     0
 49
-0.03937007874
 74
     0
  0
ENDTAB
  0
TABLE
  2
LAYER
  5
2
330
0
100
AcDbSymbolTable
 70
     3
  0
LAYER
  5
14
102
{ACAD_XDICTIONARY
360
570
102
}
330
2
100
AcDbSymbolTableRecord
100
AcDbLayerTableRecord
  2
0
 70
     0
 62
     7
  6
CONTINUOUS
370
    -3
390
492
347
4A4
348
0
  0
LAYER
  5
24
102
{ACAD_XDICTIONARY
360
572
102
}
330
2
100
AcDbSymbolTableRecord
100
AcDbLayerTableRecord
  2
976
 70
     0
 62
     7
  6
CONTINUOUS
370
    -3
390
492
347
4A4
348
0
  0
LAYER
  5
25
102
{ACAD_XDICTIONARY
360
574
102
}
330
2
100
AcDbSymbolTableRecord
100
AcDbLayerTableRecord
  2
1
 70
     0
 62
     7
  6
CONTINUOUS
370
    -3
390
492
347
4A4
348
0
  0
ENDTAB
  0
TABLE
  2
STYLE
  5
3
330
0
100
AcDbSymbolTable
 70
     5
  0
STYLE
  5
17
330
3
100
AcDbSymbolTableRecord
100
AcDbTextStyleTableRecord
  2
STANDARD
 70
     0
 40
0.0
 41
1.0
 50
0.0
 71
     0
 42
0.0
  3
txt
  4

  0
STYLE
  5
48B
330
3
100
AcDbSymbolTableRecord
100
AcDbTextStyleTableRecord
  2
CONVERTER_1
 70
     0
 40
0.0
 41
0.9
 50
0.0
 71
     0
 42
0.0
  3
txt.shx
  4

  0
STYLE
  5
536
330
3
100
AcDbSymbolTableRecord
100
AcDbTextStyleTableRecord
  2

 70
     1
 40
0.0
 41
1.0
 50
0.0
 71
     0
 42
0.2
  3
genltshp.shx
  4

  0
STYLE
  5
547
330
3
100
AcDbSymbolTableRecord
100
AcDbTextStyleTableRecord
  2
ACANSTS
 70
     0
 40
0.0
 41
1.0
 50
0.0
 71
     0
 42
0.2
  3
romans.shx
  4

  0
STYLE
  5
548
330
3
100
AcDbSymbolTableRecord
100
AcDbTextStyleTableRecord
  2
ACANSGDT
 70
     0
 40
0.0
 41
1.0
 50
0.0
 71
     0
 42
0.2
  3
amgdt.shx
  4

  0
ENDTAB
  0
TABLE
  2
VIEW
  5
5
330
0
100
AcDbSymbolTable
 70
     0
  0
ENDTAB
  0
TABLE
  2
UCS
  5
6
330
0
100
AcDbSymbolTable
 70
     0
  0
ENDTAB
  0
TABLE
  2
APPID
  5
8
330
0
100
AcDbSymbolTable
 70
    10
  0
APPID
  5
16
330
8
100
AcDbSymbolTableRecord
100
AcDbRegAppTableRecord
  2
ACAD
 70
     0
  0
APPID
  5
4EB
330
8
100
AcDbSymbolTableRecord
100
AcDbRegAppTableRecord
  2
MCAD_NO_VIS
 70
     0
  0
APPID
  5
4EC
330
8
100
AcDbSymbolTableRecord
100
AcDbRegAppTableRecord
  2
ACAD_TEMP_GRAPHIC
 70
     0
  0
APPID
  5
4F9
330
8
100
AcDbSymbolTableRecord
100
AcDbRegAppTableRecord
  2
ACATTRIBSERVICES
 70
     0
  0
APPID
  5
511
330
8
100
AcDbSymbolTableRecord
100
AcDbRegAppTableRecord
  2
DESIGNERASSEMBLIES
 70
     0
  0
APPID
  5
52C
330
8
100
AcDbSymbolTableRecord
100
AcDbRegAppTableRecord
  2
ACAD_DSTYLE_DIMJAG
 70
     0
  0
APPID
  5
52D
330
8
100
AcDbSymbolTableRecord
100
AcDbRegAppTableRecord
  2
ACAD_DSTYLE_DIMBREAK
 70
     0
  0
APPID
  5
566
330
8
100
AcDbSymbolTableRecord
100
AcDbRegAppTableRecord
  2
ACAD_NAV_VCDISPLAY
 70
     0
  0
APPID
  5
56E
330
8
100
AcDbSymbolTableRecord
100
AcDbRegAppTableRecord
  2
ACAD_EXEMPT_FROM_CAD_STANDARDS
 70
     0
  0
APPID
  5
578
330
8
100
AcDbSymbolTableRecord
100
AcDbRegAppTableRecord
  2
DCO15
 70
     0
  0
ENDTAB
  0
TABLE
  2
DIMSTYLE
  5
9
330
0
100
AcDbSymbolTable
 70
     7
100
AcDbDimStyleTable
 71
     0
  0
DIMSTYLE
105
18
330
9
100
AcDbSymbolTableRecord
100
AcDbDimStyleTableRecord
  2
STANDARD
 70
     0
340
17
  0
DIMSTYLE
105
52B
102
{ACAD_REACTORS
330
51A
102
}
330
9
100
AcDbSymbolTableRecord
100
AcDbDimStyleTableRecord
  2
AM_ANSI
 70
     0
  4
mm
 41
0.12
 42
0.05
 43
0.5
 44
0.1
 47
0.1
 48
0.1
 78
     7
 79
     2
 90
     1
140
0.12
141
0.0
146
0.71
147
0.06
176
   256
177
   256
178
     2
274
     4
284
     7
340
17
345
11
346
11
347
11
371
    -1
372
    -1
1001
ACAD_DSTYLE_DIMJAG
1070
   388
1040
1.5
1001
ACAD_DSTYLE_DIMBREAK
1070
   391
1040
0.125
  0
DIMSTYLE
105
53B
330
9
100
AcDbSymbolTableRecord
100
AcDbDimStyleTableRecord
  2
AM_ANSI$3
 70
     0
  4
mm
 41
0.12
 42
0.05
 43
0.5
 44
0.1
 47
0.1
 48
0.1
 78
     7
 79
     2
 90
     1
140
0.12
141
0.0
146
0.71
147
0.06
176
   256
177
   256
178
     2
274
     4
284
     7
288
     1
289
     0
340
17
345
11
346
11
347
11
371
    -1
372
    -1
1001
ACAD_DSTYLE_DIMBREAK
1070
   391
1040
0.125
1001
ACAD_DSTYLE_DIMJAG
1070
   388
1040
1.5
  0
DIMSTYLE
105
53C
330
9
100
AcDbSymbolTableRecord
100
AcDbDimStyleTableRecord
  2
AM_ANSI$4
 70
     0
  4
mm
 41
0.12
 42
0.05
 43
0.5
 44
0.1
 47
0.1
 48
0.1
 78
     7
 79
     2
 90
     1
140
0.12
141
0.0
146
0.71
147
0.06
176
   256
177
   256
178
     2
274
     4
284
     7
288
     1
289
     0
340
17
345
11
346
11
347
11
371
    -1
372
    -1
1001
ACAD_DSTYLE_DIMBREAK
1070
   391
1040
0.125
1001
ACAD_DSTYLE_DIMJAG
1070
   388
1040
1.5
  0
DIMSTYLE
105
53D
330
9
100
AcDbSymbolTableRecord
100
AcDbDimStyleTableRecord
  2
AM_ANSI$7
 70
     0
  4
mm
 41
0.12
 42
0.05
 43
0.5
 44
0.1
 47
0.1
 48
0.1
 78
     7
 79
     2
 90
     1
140
0.12
141
0.0
146
0.71
147
0.06
176
   256
177
   256
178
     2
274
     4
284
     7
340
17
345
11
346
11
347
11
371
    -1
372
    -1
1001
ACAD_DSTYLE_DIMBREAK
1070
   391
1040
0.125
1001
ACAD_DSTYLE_DIMJAG
1070
   388
1040
1.5
  0
DIMSTYLE
105
53E
330
9
100
AcDbSymbolTableRecord
100
AcDbDimStyleTableRecord
  2
AM_ANSI$SF
 70
     0
  4
mm
 41
0.12
 42
0.05
 43
0.5
 44
0.1
 47
0.1
 48
0.1
 75
     1
 76
     1
 78
     7
 79
     2
 90
     1
140
0.12
141
0.0
146
0.71
147
0.06
176
   256
177
   256
178
     2
274
     4
284
     7
340
17
345
11
346
11
347
11
371
    -1
372
    -1
1001
ACAD_DSTYLE_DIMBREAK
1070
   391
1040
0.125
1001
ACAD_DSTYLE_DIMJAG
1070
   388
1040
1.5
  0
DIMSTYLE
105
543
330
9
100
AcDbSymbolTableRecord
100
AcDbDimStyleTableRecord
  2
AM_ANSI$SH
 70
     0
  4
mm
 41
0.12
 42
0.05
 43
0.5
 44
0.1
 47
0.1
 48
0.1
 75
     1
 76
     1
 78
     7
 79
     2
 90
     1
140
0.12
141
0.0
146
0.71
147
0.06
173
     1
176
   256
177
   256
178
     2
274
     4
284
     7
340
17
343
53F
345
11
346
11
347
11
371
    -1
372
    -1
1001
ACAD_DSTYLE_DIMBREAK
1070
   391
1040
0.125
1001
ACAD_DSTYLE_DIMJAG
1070
   388
1040
1.5
  0
ENDTAB
  0
TABLE
  2
BLOCK_RECORD
  5
1
330
0
100
AcDbSymbolTable
 70
     4
  0
BLOCK_RECORD
  5
A
330
1
100
AcDbSymbolTableRecord
100
AcDbBlockTableRecord
  2
*MODEL_SPACE
340
4E2
 70
     0
280
     1
281
     0
  0
BLOCK_RECORD
  5
B
330
1
100
AcDbSymbolTableRecord
100
AcDbBlockTableRecord
  2
*PAPER_SPACE
340
4E3
 70
     0
280
     1
281
     0
  0
BLOCK_RECORD
  5
26
330
1
100
AcDbSymbolTableRecord
100
AcDbBlockTableRecord
  2
SAT3001C85__1
340
0
102
{BLKREFS
331
2A
102
}
 70
     0
280
     1
281
     0
  0
BLOCK_RECORD
  5
53F
330
1
100
AcDbSymbolTableRecord
100
AcDbBlockTableRecord
  2
GENAXEH
340
0
 70
     0
280
     1
281
     0
  0
BLOCK_RECORD
  5
54C
330
1
100
AcDbSymbolTableRecord
100
AcDbBlockTableRecord
  2
_ACMFILLEDHALF
340
0
 70
     0
280
     1
281
     0
  0
ENDTAB
  0
ENDSEC
  0
SECTION
  2
BLOCKS
  0
BLOCK
  5
D
330
A
100
AcDbEntity
  8
0
100
AcDbBlockBegin
  2
*MODEL_SPACE
 70
     0
 10
0.0
 20
0.0
 30
0.0
  3
*MODEL_SPACE
  1

  0
ENDBLK
  5
E
330
A
100
AcDbEntity
  8
0
100
AcDbBlockEnd
  0
BLOCK
  5
F
330
B
100
AcDbEntity
 67
     1
  8
0
100
AcDbBlockBegin
  2
*PAPER_SPACE
 70
     0
 10
0.0
 20
0.0
 30
0.0
  3
*PAPER_SPACE
  1

  0
ENDBLK
  5
10
330
B
100
AcDbEntity
 67
     1
  8
0
100
AcDbBlockEnd
  0
BLOCK
  5
27
330
26
100
AcDbEntity
  8
0
100
AcDbBlockBegin
  2
SAT3001C85__1
 70
     0
 10
0.0
 20
0.0
 30
0.0
  3
SAT3001C85__1
  1

  0
ARC
  5
488
330
26
100
AcDbEntity
  8
1
  6
Continuous
 62
     7
100
AcDbCircle
 10
10381.13534855628
 20
-858.07755553858
 30
0.0
 40
0.144444444445
100
AcDbArc
 50
137.782165417253
 51
-47.78216541752
  0
ARC
  5
487
330
26
100
AcDbEntity
  8
1
  6
Continuous
 62
     2
100
AcDbCircle
 10
13449.74790394495
 20
-820.579741322023
 30
0.0
 40
5.0
100
AcDbArc
 50
-90.0
 51
0.0
  0
ARC
  5
486
330
26
100
AcDbEntity
  8
1
  6
Continuous
 62
     2
100
AcDbCircle
 10
13382.74790394495
 20
-833.579741322023
 30
0.0
 40
3.0
100
AcDbArc
 50
180.0
 51
-90.0
  0
ARC
  5
485
330
26
100
AcDbEntity
  8
1
  6
Continuous
 62
     2
100
AcDbCircle
 10
13446.74790394495
 20
-833.579741322023
 30
0.0
 40
3.0
100
AcDbArc
 50
-90.0
 51
0.0
  0
ARC
  5
484
330
26
100
AcDbEntity
  8
1
  6
Continuous
 62
     2
100
AcDbCircle
 10
13379.74790394495
 20
-820.579741322023
 30
0.0
 40
5.0
100
AcDbArc
 50
180.0
 51
-90.0
  0
ARC
  5
483
330
26
100
AcDbEntity
  8
1
  6
Continuous
 62
     2
100
AcDbCircle
 10
13449.74790394495
 20
-767.0797413220229
 30
0.0
 40
5.0
100
AcDbArc
 50
0.0
 51
90.0
  0
ARC
  5
482
330
26
100
AcDbEntity
  8
1
  6
Continuous
 62
     2
100
AcDbCircle
 10
13379.74790394495
 20
-767.0797413220229
 30
0.0
 40
5.0
100
AcDbArc
 50
90.0
 51
180.0
  0
ARC
  5
481
330
26
100
AcDbEntity
  8
1
  6
Continuous
 62
     2
100
AcDbCircle
 10
13394.74790394495
 20
-751.0797413220229
 30
0.0
 40
1.0
100
AcDbArc
 50
180.0
 51
-90.0
  0
ARC
  5
480
330
26
100
AcDbEntity
  8
1
  6
Continuous
 62
     2
100
AcDbCircle
 10
13389.74790394495
 20
-751.502391052833
 30
0.0
 40
2.000000000001
100
AcDbArc
 50
-60.000000000016
 51
0.0
  0
ARC
  5
47F
330
26
100
AcDbEntity
  8
1
  6
Continuous
 62
     2
100
AcDbCircle
 10
13405.41457061162
 20
-751.0797413220229
 30
0.0
 40
1.0
100
AcDbArc
 50
-90.0
 51
0.0
  0
ARC
  5
47E
330
26
100
AcDbEntity
  8
1
  6
Continuous
 62
     2
100
AcDbCircle
 10
13409.41457061162
 20
-751.0797413220229
 30
0.0
 40
1.0
100
AcDbArc
 50
180.0
 51
-90.0
  0
ARC
  5
47D
330
26
100
AcDbEntity
  8
1
  6
Continuous
 62
     2
100
AcDbCircle
 10
13420.08123727829
 20
-751.0797413220229
 30
0.0
 40
1.0
100
AcDbArc
 50
-90.0
 51
0.0
  0
ARC
  5
47C
330
26
100
AcDbEntity
  8
1
  6
Continuous
 62
     2
100
AcDbCircle
 10
13424.08123727829
 20
-751.0797413220229
 30
0.0
 40
1.0
100
AcDbArc
 50
180.0
 51
-90.0
  0
ARC
  5
47B
330
26
100
AcDbEntity
  8
1
  6
Continuous
 62
     2
100
AcDbCircle
 10
13434.74790394495
 20
-751.0797413220229
 30
0.0
 40
1.0
100
AcDbArc
 50
-90.0
 51
0.0
  0
ARC
  5
47A
330
26
100
AcDbEntity
  8
1
  6
Continuous
 62
     2
100
AcDbCircle
 10
13439.74790394495
 20
-751.502391052833
 30
0.0
 40
2.0
100
AcDbArc
 50
180.0
 51
-119.999999999984
  0
ARC
  5
479
330
26
100
AcDbEntity
  8
1
  6
Continuous
 62
     2
100
AcDbCircle
 10
13436.74790394495
 20
-706.079069983439
 30
0.0
 40
2.0
100
AcDbArc
 50
180.0
 51
-90.0
  0
ARC
  5
478
330
26
100
AcDbEntity
  8
1
  6
Continuous
 62
     2
100
AcDbCircle
 10
13392.74790394495
 20
-706.079069983439
 30
0.0
 40
2.0
100
AcDbArc
 50
-90.0
 51
0.0
  0
ARC
  5
477
330
26
100
AcDbEntity
  8
1
  6
Continuous
 62
     2
100
AcDbCircle
 10
13391.74790394495
 20
-710.079069983439
 30
0.0
 40
2.0
100
AcDbArc
 50
90.0
 51
180.0
  0
ARC
  5
476
330
26
100
AcDbEntity
  8
1
  6
Continuous
 62
     2
100
AcDbCircle
 10
13437.74790394495
 20
-710.079069983439
 30
0.0
 40
2.0
100
AcDbArc
 50
0.0
 51
90.0
  0
ARC
  5
475
330
26
100
AcDbEntity
  8
1
  6
Continuous
 62
     2
100
AcDbCircle
 10
13433.74790394495
 20
-704.0790699834389
 30
0.0
 40
1.0
100
AcDbArc
 50
0.0
 51
90.0
  0
ARC
  5
474
330
26
100
AcDbEntity
  8
1
  6
Continuous
 62
     2
100
AcDbCircle
 10
13395.74790394495
 20
-704.0790699834389
 30
0.0
 40
1.0
100
AcDbArc
 50
90.0
 51
180.0
  0
ARC
  5
473
330
26
100
AcDbEntity
  8
1
  6
Continuous
 62
     2
100
AcDbCircle
 10
13439.10598950994
 20
-913.3012858545939
 30
0.0
 40
45.0
100
AcDbArc
 50
-179.999999999998
 51
-90.0
  0
ARC
  5
472
330
26
100
AcDbEntity
  8
1
  6
Continuous
 62
     2
100
AcDbCircle
 10
13441.10598950994
 20
-883.29819678945
 30
0.0
 40
6.0
100
AcDbArc
 50
180.0
 51
-90.0
  0
ARC
  5
471
330
26
100
AcDbEntity
  8
1
  6
Continuous
 62
     2
100
AcDbCircle
 10
11154.95427666282
 20
-704.0797413220219
 30
0.0
 40
1.0
100
AcDbArc
 50
90.0
 51
180.0
  0
ARC
  5
470
330
26
100
AcDbEntity
  8
1
  6
Continuous
 62
     2
100
AcDbCircle
 10
11192.95427666282
 20
-704.0797413220219
 30
0.0
 40
1.0
100
AcDbArc
 50
0.0
 51
90.0
  0
ARC
  5
46F
330
26
100
AcDbEntity
  8
1
  6
Continuous
 62
     2
100
AcDbCircle
 10
11196.95427666282
 20
-710.0797413220219
 30
0.0
 40
2.0
100
AcDbArc
 50
0.0
 51
90.0
  0
ARC
  5
46E
330
26
100
AcDbEntity
  8
1
  6
Continuous
 62
     2
100
AcDbCircle
 10
11150.95427666282
 20
-710.0797413220219
 30
0.0
 40
2.0
100
AcDbArc
 50
90.0
 51
180.0
  0
ARC
  5
46D
330
26
100
AcDbEntity
  8
1
  6
Continuous
 62
     2
100
AcDbCircle
 10
11151.95427666282
 20
-706.0797413220219
 30
0.0
 40
2.0
100
AcDbArc
 50
-90.0
 51
0.0
  0
ARC
  5
46C
330
26
100
AcDbEntity
  8
1
  6
Continuous
 62
     2
100
AcDbCircle
 10
11195.95427666282
 20
-706.0797413220219
 30
0.0
 40
2.0
100
AcDbArc
 50
180.0
 51
-90.0
  0
ARC
  5
46B
330
26
100
AcDbEntity
  8
1
  6
Continuous
 62
     2
100
AcDbCircle
 10
11198.95427666282
 20
-751.502391052832
 30
0.0
 40
2.0
100
AcDbArc
 50
180.0
 51
-119.999999999984
  0
ARC
  5
46A
330
26
100
AcDbEntity
  8
1
  6
Continuous
 62
     2
100
AcDbCircle
 10
11193.95427666282
 20
-751.0797413220219
 30
0.0
 40
1.0
100
AcDbArc
 50
-90.0
 51
0.0
  0
ARC
  5
469
330
26
100
AcDbEntity
  8
1
  6
Continuous
 62
     2
100
AcDbCircle
 10
11183.28760999615
 20
-751.0797413220219
 30
0.0
 40
1.0
100
AcDbArc
 50
180.0
 51
-90.0
  0
ARC
  5
468
330
26
100
AcDbEntity
  8
1
  6
Continuous
 62
     2
100
AcDbCircle
 10
11179.28760999615
 20
-751.0797413220219
 30
0.0
 40
1.0
100
AcDbArc
 50
-90.0
 51
0.0
  0
ARC
  5
467
330
26
100
AcDbEntity
  8
1
  6
Continuous
 62
     2
100
AcDbCircle
 10
11168.62094332948
 20
-751.0797413220219
 30
0.0
 40
1.0
100
AcDbArc
 50
180.0
 51
-90.0
  0
ARC
  5
466
330
26
100
AcDbEntity
  8
1
  6
Continuous
 62
     2
100
AcDbCircle
 10
11164.62094332948
 20
-751.0797413220219
 30
0.0
 40
1.0
100
AcDbArc
 50
-90.0
 51
0.0
  0
ARC
  5
465
330
26
100
AcDbEntity
  8
1
  6
Continuous
 62
     2
100
AcDbCircle
 10
11148.95427666282
 20
-751.502391052832
 30
0.0
 40
2.000000000001
100
AcDbArc
 50
-60.000000000016
 51
0.0
  0
ARC
  5
464
330
26
100
AcDbEntity
  8
1
  6
Continuous
 62
     2
100
AcDbCircle
 10
11153.95427666282
 20
-751.0797413220219
 30
0.0
 40
1.0
100
AcDbArc
 50
180.0
 51
-90.0
  0
ARC
  5
463
330
26
100
AcDbEntity
  8
1
  6
Continuous
 62
     2
100
AcDbCircle
 10
11138.95427666282
 20
-767.079741322022
 30
0.0
 40
5.0
100
AcDbArc
 50
90.0
 51
180.0
  0
ARC
  5
462
330
26
100
AcDbEntity
  8
1
  6
Continuous
 62
     2
100
AcDbCircle
 10
11208.95427666282
 20
-767.079741322022
 30
0.0
 40
5.0
100
AcDbArc
 50
0.0
 51
90.0
  0
ARC
  5
461
330
26
100
AcDbEntity
  8
1
  6
Continuous
 62
     2
100
AcDbCircle
 10
11138.95427666282
 20
-820.5797413220219
 30
0.0
 40
5.0
100
AcDbArc
 50
180.0
 51
-90.0
  0
ARC
  5
460
330
26
100
AcDbEntity
  8
1
  6
Continuous
 62
     2
100
AcDbCircle
 10
11214.95427666282
 20
-768.0797413220219
 30
0.0
 40
1.0
100
AcDbArc
 50
180.0
 51
-90.0
  0
ARC
  5
45F
330
26
100
AcDbEntity
  8
1
  6
Continuous
 62
     2
100
AcDbCircle
 10
11219.95427666282
 20
-768.0797413220219
 30
0.0
 40
1.0
100
AcDbArc
 50
-90.0
 51
0.0
  0
ARC
  5
45E
330
26
100
AcDbEntity
  8
1
  6
Continuous
 62
     2
100
AcDbCircle
 10
11214.95427666282
 20
-825.0797413220219
 30
0.0
 40
1.0
100
AcDbArc
 50
90.0
 51
180.0
  0
ARC
  5
45D
330
26
100
AcDbEntity
  8
1
  6
Continuous
 62
     2
100
AcDbCircle
 10
11219.95427666282
 20
-825.0797413220219
 30
0.0
 40
1.0
100
AcDbArc
 50
0.0
 51
90.0
  0
ARC
  5
45C
330
26
100
AcDbEntity
  8
1
  6
Continuous
 62
     2
100
AcDbCircle
 10
11205.95427666282
 20
-833.579741322022
 30
0.0
 40
3.0
100
AcDbArc
 50
-90.0
 51
0.0
  0
ARC
  5
45B
330
26
100
AcDbEntity
  8
1
  6
Continuous
 62
     2
100
AcDbCircle
 10
11141.95427666282
 20
-833.579741322022
 30
0.0
 40
3.0
100
AcDbArc
 50
180.0
 51
-90.0
  0
ARC
  5
45A
330
26
100
AcDbEntity
  8
1
  6
Continuous
 62
     2
100
AcDbCircle
 10
11123.45427666282
 20
-883.6724532615621
 30
0.0
 40
29.99999999999801
100
AcDbArc
 50
-38.470645540603
 51
0.0
  0
ARC
  5
459
330
26
100
AcDbEntity
  8
1
  6
Continuous
 62
     2
100
AcDbCircle
 10
11224.45427666282
 20
-883.6724532615621
 30
0.0
 40
30.0
100
AcDbArc
 50
180.0
 51
-141.529354459407
  0
ARC
  5
458
330
26
100
AcDbEntity
  8
1
  6
Continuous
 62
     2
100
AcDbCircle
 10
11201.95427666282
 20
-2290.56637154828
 30
0.0
 40
3.0
100
AcDbArc
 50
0.0
 51
38.09195710534901
  0
ARC
  5
457
330
26
100
AcDbEntity
  8
1
  6
Continuous
 62
     2
100
AcDbCircle
 10
11201.95427666282
 20
-2267.393111095765
 30
0.0
 40
2.999999999994999
100
AcDbArc
 50
-38.091957105315
 51
0.0
  0
ARC
  5
456
330
26
100
AcDbEntity
  8
1
  6
Continuous
 62
     2
100
AcDbCircle
 10
10416.91602054075
 20
-909.299741322023
 30
0.0
 40
3.0
100
AcDbArc
 50
180.0
 51
-90.0
  0
ARC
  5
455
330
26
100
AcDbEntity
  8
1
  6
Continuous
 62
     2
100
AcDbCircle
 10
10416.91602054075
 20
-938.299741322023
 30
0.0
 40
3.0
100
AcDbArc
 50
90.0
 51
180.0
  0
ARC
  5
454
330
26
100
AcDbEntity
  8
1
  6
Continuous
 62
     2
100
AcDbCircle
 10
10473.4375035747
 20
-931.14974132202
 30
0.0
 40
3.0
100
AcDbArc
 50
90.0
 51
145.570996049241
  0
ARC
  5
453
330
26
100
AcDbEntity
  8
1
  6
Continuous
 62
     2
100
AcDbCircle
 10
10473.4375035747
 20
-916.449741322021
 30
0.0
 40
3.000000000008999
100
AcDbArc
 50
-145.570996049198
 51
-90.0
  0
ARC
  5
452
330
26
100
AcDbEntity
  8
1
  6
Continuous
 62
     2
100
AcDbCircle
 10
10451.99199122363
 20
-916.449741322021
 30
0.0
 40
3.0
100
AcDbArc
 50
-90.0
 51
-34.42900395090001
  0
ARC
  5
451
330
26
100
AcDbEntity
  8
1
  6
Continuous
 62
     2
100
AcDbCircle
 10
10451.99199122363
 20
-931.14974132202
 30
0.0
 40
3.0
100
AcDbArc
 50
34.429003950857
 51
90.0
  0
ARC
  5
450
330
26
100
AcDbEntity
  8
1
  6
Continuous
 62
     2
100
AcDbCircle
 10
14150.99850746611
 20
-2271.514068063762
 30
0.0
 40
2.0
100
AcDbArc
 50
-90.0
 51
-31.10892251091
  0
ARC
  5
44F
330
26
100
AcDbEntity
  8
1
  6
Continuous
 62
     2
100
AcDbCircle
 10
14150.99850746611
 20
-2287.014068063762
 30
0.0
 40
1.999999999986999
100
AcDbArc
 50
31.108922510609
 51
90.0
  0
ARC
  5
44E
330
26
100
AcDbEntity
  8
1
  6
Continuous
 62
     2
100
AcDbCircle
 10
14176.68410654419
 20
-2271.514068063762
 30
0.0
 40
2.00000000001
100
AcDbArc
 50
-148.891077489386
 51
-90.0
  0
ARC
  5
44D
330
26
100
AcDbEntity
  8
1
  6
Continuous
 62
     2
100
AcDbCircle
 10
14176.68410654418
 20
-2287.014068063762
 30
0.0
 40
2.0
100
AcDbArc
 50
90.0
 51
148.891077489553
  0
ARC
  5
44C
330
26
100
AcDbEntity
  8
1
  6
Continuous
 62
     2
100
AcDbCircle
 10
14157.09130700515
 20
-2267.264068063761
 30
0.0
 40
2.0
100
AcDbArc
 50
90.0
 51
180.0
  0
ARC
  5
44B
330
26
100
AcDbEntity
  8
1
  6
Continuous
 62
     2
100
AcDbCircle
 10
10366.4555498044
 20
-3757.270324220035
 30
0.0
 40
2.0
100
AcDbArc
 50
90.0
 51
180.0
  0
ARC
  5
44A
330
26
100
AcDbEntity
  8
1
  6
Continuous
 62
     2
100
AcDbCircle
 10
10366.4555498044
 20
-3788.270324220035
 30
0.0
 40
2.0
100
AcDbArc
 50
180.0
 51
-90.0
  0
ARC
  5
449
330
26
100
AcDbEntity
  8
1
  6
Continuous
 62
     2
100
AcDbCircle
 10
11227.95427666282
 20
-3048.282010333775
 30
0.0
 40
1.0
100
AcDbArc
 50
0.0
 51
90.0
  0
ARC
  5
448
330
26
100
AcDbEntity
  8
1
  6
Continuous
 62
     2
100
AcDbCircle
 10
11227.95427666282
 20
-2991.282010333775
 30
0.0
 40
1.0
100
AcDbArc
 50
-90.0
 51
0.0
  0
ARC
  5
447
330
26
100
AcDbEntity
  8
1
  6
Continuous
 62
     2
100
AcDbCircle
 10
11218.8541653041
 20
-3057.282010333775
 30
0.0
 40
10.0
100
AcDbArc
 50
90.0
 51
140.131658449964
  0
ARC
  5
446
330
26
100
AcDbEntity
  8
1
  6
Continuous
 62
     2
100
AcDbCircle
 10
11218.8541653041
 20
-2982.282010333775
 30
0.0
 40
9.999999999992999
100
AcDbArc
 50
-140.131658449968
 51
-90.0
  0
ARC
  5
445
330
26
100
AcDbEntity
  8
976
  6
Continuous
 62
     7
100
AcDbCircle
 10
11437.91922184857
 20
209.871499846179
 30
0.0
 40
5.000000000001
100
AcDbArc
 50
-21.157162702952
 51
43.887605381786
  0
ARC
  5
444
330
26
100
AcDbEntity
  8
976
  6
Continuous
 62
     7
100
AcDbCircle
 10
11490.73704437605
 20
197.434553542112
 30
0.0
 40
5.000000000002
100
AcDbArc
 50
109.612394618244
 51
174.6571627029589
  0
ARC
  5
443
330
26
100
AcDbEntity
  8
976
  6
Continuous
 62
     7
100
AcDbCircle
 10
11450.24426869801
 20
219.552847068885
 30
0.0
 40
2.999999999998999
100
AcDbArc
 50
82.460593137515
 51
158.842837297096
  0
ARC
  5
442
330
26
100
AcDbEntity
  8
976
  6
Continuous
 62
     7
100
AcDbCircle
 10
11484.02673240086
 20
211.598132789005
 30
0.0
 40
2.999999999997
100
AcDbArc
 50
-5.342837297066
 51
71.03940686246899
  0
ARC
  5
441
330
26
100
AcDbEntity
  8
976
  6
Continuous
 62
     7
100
AcDbCircle
 10
10863.88182092477
 20
211.598132789005
 30
0.0
 40
2.999999999998
100
AcDbArc
 50
108.960593137497
 51
-174.6571627029309
  0
ARC
  5
440
330
26
100
AcDbEntity
  8
976
  6
Continuous
 62
     7
100
AcDbCircle
 10
10897.66428462762
 20
219.552847068885
 30
0.0
 40
2.999999999994
100
AcDbArc
 50
21.157162702979
 51
97.53940686269199
  0
ARC
  5
43F
330
26
100
AcDbEntity
  8
976
  6
Continuous
 62
     7
100
AcDbCircle
 10
10857.17150894958
 20
197.434553542112
 30
0.0
 40
5.000000000005
100
AcDbArc
 50
5.342837297037999
 51
70.387605381854
  0
ARC
  5
43E
330
26
100
AcDbEntity
  8
976
  6
Continuous
 62
     7
100
AcDbCircle
 10
10909.98933147705
 20
209.871499846179
 30
0.0
 40
4.999999999997999
100
AcDbArc
 50
136.112394618127
 51
-158.842837297048
  0
ARC
  5
43D
330
26
100
AcDbEntity
  8
1
  6
Continuous
 62
     7
100
AcDbCircle
 10
13481.46084034765
 20
-1390.176935875506
 30
0.0
 40
7.5
100
AcDbArc
 50
90.0
 51
180.0
  0
ARC
  5
43C
330
26
100
AcDbEntity
  8
1
  6
Continuous
 62
     7
100
AcDbCircle
 10
13481.46084034765
 20
-1695.422546768535
 30
0.0
 40
7.5
100
AcDbArc
 50
180.0
 51
-90.0
  0
ARC
  5
43B
330
26
100
AcDbEntity
  8
1
  6
Continuous
 62
     7
100
AcDbCircle
 10
13452.39342853408
 20
-1357.676935875506
 30
0.0
 40
10.0
100
AcDbArc
 50
90.0
 51
170.279112747886
  0
ARC
  5
43A
330
26
100
AcDbEntity
  8
1
  6
Continuous
 62
     7
100
AcDbCircle
 10
13452.39342853408
 20
-1727.922546768535
 30
0.0
 40
9.999999999994999
100
AcDbArc
 50
-170.279112747886
 51
-90.0
  0
ARC
  5
439
330
26
100
AcDbEntity
  8
1
  6
Continuous
 62
     7
100
AcDbCircle
 10
11286.4542766628
 20
-3058.270324220034
 30
0.0
 40
5.0
100
AcDbArc
 50
0.0
 51
90.0
  0
ARC
  5
438
330
26
100
AcDbEntity
  8
1
  6
Continuous
 62
     7
100
AcDbCircle
 10
11261.45601251562
 20
-3058.270324220034
 30
0.0
 40
5.0
100
AcDbArc
 50
90.0
 51
180.0
  0
ARC
  5
437
330
26
100
AcDbEntity
  8
1
  6
Continuous
 62
     7
100
AcDbCircle
 10
11288.95229283104
 20
-3033.270324220034
 30
0.0
 40
5.0
100
AcDbArc
 50
0.0
 51
90.0
  0
ARC
  5
436
330
26
100
AcDbEntity
  8
1
  6
Continuous
 62
     7
100
AcDbCircle
 10
11258.9542766628
 20
-3033.270324220034
 30
0.0
 40
5.0
100
AcDbArc
 50
90.0
 51
180.0
  0
ARC
  5
435
330
26
100
AcDbEntity
  8
1
  6
Continuous
 62
     7
100
AcDbCircle
 10
11088.95427666281
 20
-3033.270324220034
 30
0.0
 40
5.0
100
AcDbArc
 50
0.0
 51
90.0
  0
ARC
  5
434
330
26
100
AcDbEntity
  8
1
  6
Continuous
 62
     7
100
AcDbCircle
 10
11058.95626049459
 20
-3033.270324220034
 30
0.0
 40
5.0
100
AcDbArc
 50
90.0
 51
180.0
  0
ARC
  5
433
330
26
100
AcDbEntity
  8
1
  6
Continuous
 62
     7
100
AcDbCircle
 10
11086.45254081001
 20
-3058.270324220034
 30
0.0
 40
5.0
100
AcDbArc
 50
0.0
 51
90.0
  0
ARC
  5
432
330
26
100
AcDbEntity
  8
1
  6
Continuous
 62
     7
100
AcDbCircle
 10
11061.4542766628
 20
-3058.270324220034
 30
0.0
 40
5.0
100
AcDbArc
 50
90.0
 51
180.0
  0
CIRCLE
  5
431
330
26
100
AcDbEntity
  8
1
  6
Continuous
 62
     7
100
AcDbCircle
 10
10386.52637586753
 20
-854.5756018383189
 30
0.0
 40
0.7222222222210001
  0
CIRCLE
  5
430
330
26
100
AcDbEntity
  8
1
  6
Continuous
 62
     2
100
AcDbCircle
 10
13414.60598950994
 20
-796.5797413220229
 30
0.0
 40
19.5
  0
CIRCLE
  5
42F
330
26
100
AcDbEntity
  8
1
  6
Continuous
 62
     2
100
AcDbCircle
 10
13414.60598950994
 20
-796.5797413220229
 30
0.0
 40
21.0
  0
CIRCLE
  5
42E
330
26
100
AcDbEntity
  8
1
  6
Continuous
 62
     2
100
AcDbCircle
 10
13414.60598950994
 20
-796.5797413220229
 30
0.0
 40
29.0
  0
CIRCLE
  5
42D
330
26
100
AcDbEntity
  8
1
  6
Continuous
 62
     2
100
AcDbCircle
 10
10462.71474739916
 20
-923.7997413220229
 30
0.0
 40
8.5
  0
CIRCLE
  5
42C
330
26
100
AcDbEntity
  8
1
  6
Continuous
 62
     2
100
AcDbCircle
 10
10462.71474739916
 20
-923.7997413220229
 30
0.0
 40
5.0
  0
CIRCLE
  5
42B
330
26
100
AcDbEntity
  8
1
  6
Continuous
 62
     2
100
AcDbCircle
 10
10462.71474739916
 20
-923.7997413220229
 30
0.0
 40
3.0
  0
CIRCLE
  5
42A
330
26
100
AcDbEntity
  8
1
  6
Continuous
 62
     2
100
AcDbCircle
 10
10462.71474739916
 20
-923.7997413220229
 30
0.0
 40
6.25
  0
CIRCLE
  5
429
330
26
100
AcDbEntity
  8
1
  6
Continuous
 62
     7
100
AcDbCircle
 10
10402.41921005663
 20
-837.1551730835349
 30
0.0
 40
36.09209352415
  0
CIRCLE
  5
428
330
26
100
AcDbEntity
  8
1
  6
Continuous
 62
     7
100
AcDbCircle
 10
10402.41602054075
 20
-837.151014463606
 30
0.0
 40
2.88888888888
  0
CIRCLE
  5
427
330
26
100
AcDbEntity
  8
1
  6
Continuous
 62
     2
100
AcDbCircle
 10
10402.41602054075
 20
-849.78879589901
 30
0.0
 40
2.247127062104
  0
CIRCLE
  5
426
330
26
100
AcDbEntity
  8
1
  6
Continuous
 62
     2
100
AcDbCircle
 10
14163.84130700515
 20
-2279.264068063762
 30
0.0
 40
11.100000000001
  0
CIRCLE
  5
425
330
26
100
AcDbEntity
  8
1
  6
Continuous
 62
     2
100
AcDbCircle
 10
14163.84130700515
 20
-2279.264068063762
 30
0.0
 40
6.0
  0
CIRCLE
  5
424
330
26
100
AcDbEntity
  8
1
  6
Continuous
 62
     2
100
AcDbCircle
 10
14163.84130700515
 20
-2279.264068063762
 30
0.0
 40
7.5
  0
CIRCLE
  5
423
330
26
100
AcDbEntity
  8
1
  6
Continuous
 62
     2
100
AcDbCircle
 10
14163.84130700515
 20
-2279.264068063762
 30
0.0
 40
3.600000000001
  0
CIRCLE
  5
422
330
26
100
AcDbEntity
  8
1
  6
Continuous
 62
     2
100
AcDbCircle
 10
10403.4555498044
 20
-3776.270324220035
 30
0.0
 40
7.475000000000999
  0
CIRCLE
  5
421
330
26
100
AcDbEntity
  8
1
  6
Continuous
 62
     2
100
AcDbCircle
 10
10403.4555498044
 20
-3776.270324220035
 30
0.0
 40
8.331000000000999
  0
CIRCLE
  5
420
330
26
100
AcDbEntity
  8
1
  6
Continuous
 62
     7
100
AcDbCircle
 10
11562.6278997953
 20
-4165.414018349935
 30
0.0
 40
13.5
  0
CIRCLE
  5
41F
330
26
100
AcDbEntity
  8
1
  6
Continuous
 62
     7
100
AcDbCircle
 10
11562.86300631541
 20
-3387.361594567433
 30
0.0
 40
13.5
  0
CIRCLE
  5
41E
330
26
100
AcDbEntity
  8
1
  6
Continuous
 62
     7
100
AcDbCircle
 10
10784.81058253291
 20
-3387.596701087547
 30
0.0
 40
13.5
  0
CIRCLE
  5
41D
330
26
100
AcDbEntity
  8
1
  6
Continuous
 62
     7
100
AcDbCircle
 10
10785.04554701021
 20
-4165.179053872634
 30
0.0
 40
13.5
  0
CIRCLE
  5
41C
330
26
100
AcDbEntity
  8
1
  6
Continuous
 62
     7
100
AcDbCircle
 10
10014.25278705619
 20
-1723.799741322022
 30
0.0
 40
105.0
  0
CIRCLE
  5
41B
330
26
100
AcDbEntity
  8
1
  6
Continuous
 62
     7
100
AcDbCircle
 10
10014.25278705619
 20
-1723.799741322022
 30
0.0
 40
57.14999999999999
  0
CIRCLE
  5
41A
330
26
100
AcDbEntity
  8
1
  6
Continuous
 62
     7
100
AcDbCircle
 10
10014.25278705619
 20
-1723.799741322022
 30
0.0
 40
52.650000000001
  0
CIRCLE
  5
419
330
26
100
AcDbEntity
  8
1
  6
DOT_CENTER
 62
     2
100
AcDbCircle
 10
10014.25278705619
 20
-1723.799741322022
 30
0.0
 40
87.50000000000401
  0
CIRCLE
  5
418
330
26
100
AcDbEntity
  8
1
  6
Continuous
 62
     7
100
AcDbCircle
 10
9980.767986724238
 20
-1642.960282227285
 30
0.0
 40
9.5
  0
CIRCLE
  5
417
330
26
100
AcDbEntity
  8
1
  6
Continuous
 62
     7
100
AcDbCircle
 10
9933.413327961448
 20
-1690.314940990077
 30
0.0
 40
9.5
  0
CIRCLE
  5
416
330
26
100
AcDbEntity
  8
1
  6
Continuous
 62
     7
100
AcDbCircle
 10
10047.73758738813
 20
-1642.960282227285
 30
0.0
 40
9.5
  0
CIRCLE
  5
415
330
26
100
AcDbEntity
  8
1
  6
Continuous
 62
     7
100
AcDbCircle
 10
10095.09224615093
 20
-1690.314940990077
 30
0.0
 40
9.5
  0
CIRCLE
  5
414
330
26
100
AcDbEntity
  8
1
  6
Continuous
 62
     7
100
AcDbCircle
 10
10095.09224615093
 20
-1757.284541653968
 30
0.0
 40
9.5
  0
CIRCLE
  5
413
330
26
100
AcDbEntity
  8
1
  6
Continuous
 62
     7
100
AcDbCircle
 10
10047.73758738813
 20
-1804.639200416759
 30
0.0
 40
9.5
  0
CIRCLE
  5
412
330
26
100
AcDbEntity
  8
1
  6
Continuous
 62
     7
100
AcDbCircle
 10
9980.767986724238
 20
-1804.639200416759
 30
0.0
 40
9.5
  0
CIRCLE
  5
411
330
26
100
AcDbEntity
  8
1
  6
Continuous
 62
     7
100
AcDbCircle
 10
9933.413327961448
 20
-1757.284541653968
 30
0.0
 40
9.5
  0
CIRCLE
  5
410
330
26
100
AcDbEntity
  8
1
  6
Continuous
 62
     7
100
AcDbCircle
 10
14083.0018479104
 20
-957.284541653968
 30
0.0
 40
9.5
  0
CIRCLE
  5
40F
330
26
100
AcDbEntity
  8
1
  6
Continuous
 62
     7
100
AcDbCircle
 10
14130.3565066732
 20
-1004.639200416759
 30
0.0
 40
9.5
  0
CIRCLE
  5
40E
330
26
100
AcDbEntity
  8
1
  6
Continuous
 62
     7
100
AcDbCircle
 10
14197.32610733709
 20
-1004.639200416759
 30
0.0
 40
9.5
  0
CIRCLE
  5
40D
330
26
100
AcDbEntity
  8
1
  6
Continuous
 62
     7
100
AcDbCircle
 10
14244.68076609988
 20
-957.284541653968
 30
0.0
 40
9.5
  0
CIRCLE
  5
40C
330
26
100
AcDbEntity
  8
1
  6
Continuous
 62
     7
100
AcDbCircle
 10
14244.68076609988
 20
-890.3149409900761
 30
0.0
 40
9.5
  0
CIRCLE
  5
40B
330
26
100
AcDbEntity
  8
1
  6
Continuous
 62
     7
100
AcDbCircle
 10
14197.32610733709
 20
-842.9602822272849
 30
0.0
 40
9.5
  0
CIRCLE
  5
40A
330
26
100
AcDbEntity
  8
1
  6
Continuous
 62
     7
100
AcDbCircle
 10
14083.0018479104
 20
-890.3149409900761
 30
0.0
 40
9.5
  0
CIRCLE
  5
409
330
26
100
AcDbEntity
  8
1
  6
Continuous
 62
     7
100
AcDbCircle
 10
14130.3565066732
 20
-842.9602822272849
 30
0.0
 40
9.5
  0
CIRCLE
  5
408
330
26
100
AcDbEntity
  8
1
  6
DOT_CENTER
 62
     2
100
AcDbCircle
 10
14163.84130700515
 20
-923.7997413220229
 30
0.0
 40
87.50000000001099
  0
CIRCLE
  5
407
330
26
100
AcDbEntity
  8
1
  6
Continuous
 62
     7
100
AcDbCircle
 10
14163.84130700515
 20
-923.7997413220229
 30
0.0
 40
52.65
  0
CIRCLE
  5
406
330
26
100
AcDbEntity
  8
1
  6
Continuous
 62
     7
100
AcDbCircle
 10
14163.84130700515
 20
-923.7997413220229
 30
0.0
 40
57.150000000001
  0
CIRCLE
  5
405
330
26
100
AcDbEntity
  8
1
  6
Continuous
 62
     7
100
AcDbCircle
 10
14163.84130700515
 20
-923.7997413220229
 30
0.0
 40
105.0
  0
CIRCLE
  5
404
330
26
100
AcDbEntity
  8
976
  6
Continuous
 62
     7
100
AcDbCircle
 10
11173.95427666282
 20
-3776.270324220035
 30
0.0
 40
658.99999999999
  0
CIRCLE
  5
403
330
26
100
AcDbEntity
  8
976
  6
Continuous
 62
     7
100
AcDbCircle
 10
11173.95427666282
 20
-3776.270324220035
 30
0.0
 40
624.999999999991
  0
CIRCLE
  5
402
330
26
100
AcDbEntity
  8
976
  6
DOT_CENTER
 62
     2
100
AcDbCircle
 10
11173.95427666282
 20
-3776.270324220035
 30
0.0
 40
549.999999999997
  0
CIRCLE
  5
401
330
26
100
AcDbEntity
  8
976
  6
Continuous
 62
     7
100
AcDbCircle
 10
11473.9542766628
 20
244.533796719509
 30
0.0
 40
25.000000000005
  0
CIRCLE
  5
400
330
26
100
AcDbEntity
  8
976
  6
Continuous
 62
     7
100
AcDbCircle
 10
10873.9542766628
 20
244.533796719509
 30
0.0
 40
24.999999999996
  0
CIRCLE
  5
3FF
330
26
100
AcDbEntity
  8
1
  6
Continuous
 62
     7
100
AcDbCircle
 10
11273.9542766628
 20
-1542.79974132202
 30
0.0
 40
15.0
  0
CIRCLE
  5
3FE
330
26
100
AcDbEntity
  8
1
  6
Continuous
 62
     3
100
AcDbCircle
 10
11273.9542766628
 20
-1542.79974132202
 30
0.0
 40
10.0
  0
CIRCLE
  5
3FD
330
26
100
AcDbEntity
  8
1
  6
Continuous
 62
     3
100
AcDbCircle
 10
11073.9542766628
 20
-1542.79974132202
 30
0.0
 40
10.0
  0
CIRCLE
  5
3FC
330
26
100
AcDbEntity
  8
1
  6
Continuous
 62
     7
100
AcDbCircle
 10
11073.9542766628
 20
-1542.79974132202
 30
0.0
 40
15.0
  0
ARC
  5
3FB
330
26
100
AcDbEntity
  8
1
  6
Continuous
 62
     7
100
AcDbCircle
 10
10402.4148919081
 20
-837.1500306835921
 30
0.0
 40
32.087775151113
100
AcDbArc
 50
179.9269078913219
 51
-135.4444653082
  0
ARC
  5
3FA
330
26
100
AcDbEntity
  8
1
  6
Continuous
 62
     7
100
AcDbCircle
 10
10402.3715760963
 20
-837.1169271307671
 30
0.0
 40
39.044459324232
100
AcDbArc
 50
-145.958605674407
 51
-105.07613521128
  0
ARC
  5
3F9
330
26
100
AcDbEntity
  8
1
  6
Continuous
 62
     7
100
AcDbCircle
 10
10402.41871082927
 20
-837.1545221706909
 30
0.0
 40
28.591593842009
100
AcDbArc
 50
180.0
 51
-135.510592132963
  0
ARC
  5
3F8
330
26
100
AcDbEntity
  8
1
  6
Continuous
 62
     7
100
AcDbCircle
 10
10369.64471282993
 20
-856.07153779214
 30
0.0
 40
3.637499999994999
100
AcDbArc
 50
162.07502205082
 51
-102.075022050756
  0
ARC
  5
3F7
330
26
100
AcDbEntity
  8
1
  6
Continuous
 62
     7
100
AcDbCircle
 10
10402.3715760963
 20
-837.1169271307671
 30
0.0
 40
39.044459324229
100
AcDbArc
 50
-153.8891702053829
 51
-145.958605674407
  0
ARC
  5
3F6
330
26
100
AcDbEntity
  8
1
  6
Continuous
 62
     7
100
AcDbCircle
 10
10402.3715760963
 20
-837.1169271307671
 30
0.0
 40
39.044459324231
100
AcDbArc
 50
93.899904844102
 51
-153.8891702053829
  0
ARC
  5
3F5
330
26
100
AcDbEntity
  8
1
  6
Continuous
 62
     2
100
AcDbCircle
 10
13441.24790394495
 20
-823.0234557420249
 30
0.0
 40
28.556285579997
100
AcDbArc
 50
-113.201052895933
 51
-90.0
  0
ARC
  5
3F4
330
26
100
AcDbEntity
  8
1
  6
Continuous
 62
     2
100
AcDbCircle
 10
13388.24790394495
 20
-823.0234557420249
 30
0.0
 40
28.556285579997
100
AcDbArc
 50
-90.0
 51
-66.79894710406699
  0
ARC
  5
3F3
330
26
100
AcDbEntity
  8
1
  6
Continuous
 62
     2
100
AcDbCircle
 10
13414.74790394495
 20
-800.073782541737
 30
0.0
 40
51.505958780286
100
AcDbArc
 50
-107.222444972132
 51
-72.77755502786701
  0
ARC
  5
3F2
330
26
100
AcDbEntity
  8
1
  6
Continuous
 62
     2
100
AcDbCircle
 10
13436.74790394495
 20
-768.1132394226421
 30
0.0
 40
16.03349810062
100
AcDbArc
 50
90.0
 51
123.074730067206
  0
ARC
  5
3F1
330
26
100
AcDbEntity
  8
1
  6
Continuous
 62
     2
100
AcDbCircle
 10
13392.74790394495
 20
-709.079069983439
 30
0.0
 40
1.0
100
AcDbArc
 50
0.0
 51
180.0
  0
ARC
  5
3F0
330
26
100
AcDbEntity
  8
1
  6
Continuous
 62
     2
100
AcDbCircle
 10
13407.41457061162
 20
-709.079069983439
 30
0.0
 40
1.0
100
AcDbArc
 50
0.0
 51
180.0
  0
ARC
  5
3EF
330
26
100
AcDbEntity
  8
1
  6
Continuous
 62
     2
100
AcDbCircle
 10
13422.08123727829
 20
-709.079069983439
 30
0.0
 40
1.0
100
AcDbArc
 50
0.0
 51
180.0
  0
ARC
  5
3EE
330
26
100
AcDbEntity
  8
1
  6
Continuous
 62
     2
100
AcDbCircle
 10
13436.74790394495
 20
-709.079069983439
 30
0.0
 40
1.0
100
AcDbArc
 50
0.0
 51
180.0
  0
ARC
  5
3ED
330
26
100
AcDbEntity
  8
1
  6
Continuous
 62
     2
100
AcDbCircle
 10
13392.74790394495
 20
-768.1132394226421
 30
0.0
 40
16.033498100619
100
AcDbArc
 50
56.925269932794
 51
90.0
  0
ARC
  5
3EC
330
26
100
AcDbEntity
  8
1
  6
Continuous
 62
     2
100
AcDbCircle
 10
13414.74790394495
 20
-787.1657983058991
 30
0.0
 40
35.086056983876
100
AcDbArc
 50
67.812245868758
 51
112.187754131241
  0
ARC
  5
3EB
330
26
100
AcDbEntity
  8
1
  6
Continuous
 62
     2
100
AcDbCircle
 10
13414.74790394495
 20
-686.579069983439
 30
0.0
 40
15.0
100
AcDbArc
 50
0.0
 51
180.0
  0
ARC
  5
3EA
330
26
100
AcDbEntity
  8
1
  6
Continuous
 62
     2
100
AcDbCircle
 10
13399.24790394495
 20
-707.22146783233
 30
0.0
 40
12.142397848892
100
AcDbArc
 50
59.02090113836699
 51
90.0
  0
ARC
  5
3E9
330
26
100
AcDbEntity
  8
1
  6
Continuous
 62
     2
100
AcDbCircle
 10
13430.24790394495
 20
-707.22146783233
 30
0.0
 40
12.142397848891
100
AcDbArc
 50
90.0
 51
120.979098861633
  0
ARC
  5
3E8
330
26
100
AcDbEntity
  8
1
  6
Continuous
 62
     2
100
AcDbCircle
 10
13414.74790394495
 20
-720.6448615909899
 30
0.0
 40
25.565791607552
100
AcDbArc
 50
68.78850558533599
 51
111.211494414663
  0
ARC
  5
3E7
330
26
100
AcDbEntity
  8
1
  6
Continuous
 62
     2
100
AcDbCircle
 10
13387.61627066995
 20
-881.964822504287
 30
0.0
 40
6.48971883999
100
AcDbArc
 50
0.0
 51
39.925937785384
  0
ARC
  5
3E6
330
26
100
AcDbEntity
  8
1
  6
Continuous
 62
     2
100
AcDbCircle
 10
13441.59570834993
 20
-881.964822504287
 30
0.0
 40
6.489718839988
100
AcDbArc
 50
140.074062214574
 51
180.0
  0
ARC
  5
3E5
330
26
100
AcDbEntity
  8
1
  6
Continuous
 62
     2
100
AcDbCircle
 10
13448.21648347041
 20
-968.716727354694
 30
0.0
 40
10.4154415001
100
AcDbArc
 50
58.86850943391999
 51
90.0
  0
ARC
  5
3E4
330
26
100
AcDbEntity
  8
1
  6
Continuous
 62
     2
100
AcDbCircle
 10
13448.21648347041
 20
-878.882755289352
 30
0.0
 40
10.415441500098
100
AcDbArc
 50
-90.0
 51
-58.868509433915
  0
ARC
  5
3E3
330
26
100
AcDbEntity
  8
1
  6
Continuous
 62
     2
100
AcDbCircle
 10
11173.95427666282
 20
-720.645532929574
 30
0.0
 40
25.565791607551
100
AcDbArc
 50
68.78850558533599
 51
111.211494414664
  0
ARC
  5
3E2
330
26
100
AcDbEntity
  8
1
  6
Continuous
 62
     2
100
AcDbCircle
 10
11189.45427666282
 20
-707.222139170917
 30
0.0
 40
12.142397848896
100
AcDbArc
 50
90.0
 51
120.979098861626
  0
ARC
  5
3E1
330
26
100
AcDbEntity
  8
1
  6
Continuous
 62
     2
100
AcDbCircle
 10
11158.45427666282
 20
-707.222139170917
 30
0.0
 40
12.142397848894
100
AcDbArc
 50
59.02090113837299
 51
90.0
  0
ARC
  5
3E0
330
26
100
AcDbEntity
  8
1
  6
Continuous
 62
     2
100
AcDbCircle
 10
11173.95427666282
 20
-686.5797413220221
 30
0.0
 40
15.0
100
AcDbArc
 50
0.0
 51
180.0
  0
ARC
  5
3DF
330
26
100
AcDbEntity
  8
1
  6
Continuous
 62
     2
100
AcDbCircle
 10
11173.95427666282
 20
-787.1657983058991
 30
0.0
 40
35.086056983875
100
AcDbArc
 50
67.812245868758
 51
112.187754131242
  0
ARC
  5
3DE
330
26
100
AcDbEntity
  8
1
  6
Continuous
 62
     2
100
AcDbCircle
 10
11151.95427666282
 20
-768.1132394226421
 30
0.0
 40
16.033498100619
100
AcDbArc
 50
56.925269932792
 51
90.0
  0
ARC
  5
3DD
330
26
100
AcDbEntity
  8
1
  6
Continuous
 62
     2
100
AcDbCircle
 10
11195.95427666282
 20
-709.079741322022
 30
0.0
 40
1.0
100
AcDbArc
 50
0.0
 51
180.0
  0
ARC
  5
3DC
330
26
100
AcDbEntity
  8
1
  6
Continuous
 62
     2
100
AcDbCircle
 10
11181.28760999615
 20
-709.079741322022
 30
0.0
 40
1.0
100
AcDbArc
 50
0.0
 51
180.0
  0
ARC
  5
3DB
330
26
100
AcDbEntity
  8
1
  6
Continuous
 62
     2
100
AcDbCircle
 10
11166.62094332948
 20
-709.079741322022
 30
0.0
 40
1.0
100
AcDbArc
 50
0.0
 51
180.0
  0
ARC
  5
3DA
330
26
100
AcDbEntity
  8
1
  6
Continuous
 62
     2
100
AcDbCircle
 10
11151.95427666282
 20
-709.079741322022
 30
0.0
 40
1.0
100
AcDbArc
 50
0.0
 51
180.0
  0
ARC
  5
3D9
330
26
100
AcDbEntity
  8
1
  6
Continuous
 62
     2
100
AcDbCircle
 10
11195.95427666282
 20
-768.1132394226421
 30
0.0
 40
16.03349810062
100
AcDbArc
 50
90.0
 51
123.074730067208
  0
ARC
  5
3D8
330
26
100
AcDbEntity
  8
1
  6
Continuous
 62
     2
100
AcDbCircle
 10
11173.95427666282
 20
-800.0737825417379
 30
0.0
 40
51.50595878028401
100
AcDbArc
 50
-107.222444972133
 51
-72.77755502786701
  0
ARC
  5
3D7
330
26
100
AcDbEntity
  8
1
  6
Continuous
 62
     2
100
AcDbCircle
 10
11147.45427666282
 20
-823.023455742026
 30
0.0
 40
28.556285579995
100
AcDbArc
 50
-90.0
 51
-66.79894710406499
  0
ARC
  5
3D6
330
26
100
AcDbEntity
  8
1
  6
Continuous
 62
     2
100
AcDbCircle
 10
11200.45427666282
 20
-823.023455742026
 30
0.0
 40
28.556285579996
100
AcDbArc
 50
-113.201052895934
 51
-90.0
  0
ARC
  5
3D5
330
26
100
AcDbEntity
  8
1
  6
Continuous
 62
     2
100
AcDbCircle
 10
11174.09619109782
 20
-800.0737825417379
 30
0.0
 40
51.50595878028401
100
AcDbArc
 50
-107.222444972133
 51
-72.77755502786701
  0
ARC
  5
3D4
330
26
100
AcDbEntity
  8
1
  6
Continuous
 62
     2
100
AcDbCircle
 10
11147.59619109782
 20
-823.023455742026
 30
0.0
 40
28.556285579995
100
AcDbArc
 50
-90.0
 51
-66.79894710406499
  0
ARC
  5
3D3
330
26
100
AcDbEntity
  8
1
  6
Continuous
 62
     2
100
AcDbCircle
 10
11200.59619109782
 20
-823.023455742026
 30
0.0
 40
28.556285579996
100
AcDbArc
 50
-113.201052895934
 51
-90.0
  0
ARC
  5
3D2
330
26
100
AcDbEntity
  8
1
  6
Continuous
 62
     2
100
AcDbCircle
 10
11146.96455782283
 20
-881.9648225042861
 30
0.0
 40
6.48971883999
100
AcDbArc
 50
0.0
 51
39.925937785429
  0
ARC
  5
3D1
330
26
100
AcDbEntity
  8
1
  6
Continuous
 62
     2
100
AcDbCircle
 10
11200.9439955028
 20
-881.9648225042861
 30
0.0
 40
6.489718839985999
100
AcDbArc
 50
140.0740622145699
 51
180.0
  0
ARC
  5
3D0
330
26
100
AcDbEntity
  8
1
  6
Continuous
 62
     2
100
AcDbCircle
 10
11173.95427666282
 20
-923.7997413220229
 30
0.0
 40
36.00154453257501
100
AcDbArc
 50
130.373913242255
 51
-90.0
  0
ARC
  5
3CF
330
26
100
AcDbEntity
  8
1
  6
Continuous
 62
     2
100
AcDbCircle
 10
11173.95427666282
 20
-923.7997413220229
 30
0.0
 40
34.501544532573
100
AcDbArc
 50
141.5293544594
 51
-90.0
  0
ARC
  5
3CE
330
26
100
AcDbEntity
  8
1
  6
Continuous
 62
     2
100
AcDbCircle
 10
11173.95427666282
 20
-923.7997413220229
 30
0.0
 40
34.50154453257101
100
AcDbArc
 50
-90.0
 51
38.470645540609
  0
ARC
  5
3CD
330
26
100
AcDbEntity
  8
1
  6
Continuous
 62
     2
100
AcDbCircle
 10
11173.95427666282
 20
-923.7997413220229
 30
0.0
 40
36.001544532573
100
AcDbArc
 50
-90.0
 51
49.62608675775601
  0
ARC
  5
3CC
330
26
100
AcDbEntity
  8
1
  6
Continuous
 62
     7
100
AcDbCircle
 10
11173.95427666282
 20
-2314.799741322023
 30
0.0
 40
100.0
100
AcDbArc
 50
0.0
 51
180.0
  0
ARC
  5
3CB
330
26
100
AcDbEntity
  8
1
  6
Continuous
 62
     7
100
AcDbCircle
 10
11173.95427666282
 20
-1214.799741322022
 30
0.0
 40
1009.0
100
AcDbArc
 50
-92.255000670214
 51
-87.74499932978599
  0
ARC
  5
3CA
330
26
100
AcDbEntity
  8
1
  6
Continuous
 62
     2
100
AcDbCircle
 10
11198.10427666281
 20
-2278.729741322021
 30
0.0
 40
14.252192813739
100
AcDbArc
 50
158.385221057213
 51
-158.385221057213
  0
ARC
  5
3C9
330
26
100
AcDbEntity
  8
1
  6
Continuous
 62
     2
100
AcDbCircle
 10
11216.73552666281
 20
-2278.979741322022
 30
0.0
 40
15.781249999997
100
AcDbArc
 50
141.908042894755
 51
-141.9080428947579
  0
ARC
  5
3C8
330
26
100
AcDbEntity
  8
1
  6
Continuous
 62
     2
100
AcDbCircle
 10
11167.70427666282
 20
-2289.927525677315
 30
0.0
 40
18.052215644707
100
AcDbArc
 50
-110.256158000421
 51
-69.74384199958101
  0
ARC
  5
3C7
330
26
100
AcDbEntity
  8
1
  6
Continuous
 62
     2
100
AcDbCircle
 10
11180.20427666282
 20
-2289.927525677315
 30
0.0
 40
18.052215644708
100
AcDbArc
 50
-110.256158000419
 51
-69.743841999579
  0
ARC
  5
3C6
330
26
100
AcDbEntity
  8
1
  6
Continuous
 62
     2
100
AcDbCircle
 10
11167.70427666282
 20
-2269.531956966728
 30
0.0
 40
18.052215644708
100
AcDbArc
 50
69.74384199958101
 51
110.25615800042
  0
ARC
  5
3C5
330
26
100
AcDbEntity
  8
1
  6
Continuous
 62
     2
100
AcDbCircle
 10
11180.20427666282
 20
-2269.531956966728
 30
0.0
 40
18.052215644707
100
AcDbArc
 50
69.74384199958
 51
110.256158000419
  0
ARC
  5
3C4
330
26
100
AcDbEntity
  8
1
  6
Continuous
 62
     2
100
AcDbCircle
 10
11180.20427666282
 20
-2243.844192343986
 30
0.0
 40
18.052215644708
100
AcDbArc
 50
-110.256158000419
 51
-98.76231806800301
  0
ARC
  5
3C3
330
26
100
AcDbEntity
  8
1
  6
Continuous
 62
     2
100
AcDbCircle
 10
11167.70427666282
 20
-2243.844192343986
 30
0.0
 40
18.052215644707
100
AcDbArc
 50
-110.25615800042
 51
-98.76231806800301
  0
ARC
  5
3C2
330
26
100
AcDbEntity
  8
1
  6
Continuous
 62
     2
100
AcDbCircle
 10
11180.20427666282
 20
-2315.615290300059
 30
0.0
 40
18.052215644708
100
AcDbArc
 50
69.74384199958101
 51
81.23768193199699
  0
ARC
  5
3C1
330
26
100
AcDbEntity
  8
1
  6
Continuous
 62
     2
100
AcDbCircle
 10
11167.70427666282
 20
-2315.615290300059
 30
0.0
 40
18.052215644709
100
AcDbArc
 50
69.743841999582
 51
81.23768193199699
  0
ARC
  5
3C0
330
26
100
AcDbEntity
  8
1
  6
Continuous
 62
     2
100
AcDbCircle
 10
11167.70427666282
 20
-2243.844192343986
 30
0.0
 40
18.052215644708
100
AcDbArc
 50
-81.23768193199699
 51
-69.74384199958101
  0
ARC
  5
3BF
330
26
100
AcDbEntity
  8
1
  6
Continuous
 62
     2
100
AcDbCircle
 10
11180.20427666282
 20
-2315.615290300059
 30
0.0
 40
18.052215644708
100
AcDbArc
 50
98.76231806800301
 51
110.256158000418
  0
ARC
  5
3BE
330
26
100
AcDbEntity
  8
1
  6
Continuous
 62
     2
100
AcDbCircle
 10
11180.20427666282
 20
-2243.844192343986
 30
0.0
 40
18.052215644708
100
AcDbArc
 50
-81.237681931996
 51
-69.74384199958
  0
ARC
  5
3BD
330
26
100
AcDbEntity
  8
1
  6
Continuous
 62
     2
100
AcDbCircle
 10
11167.70427666282
 20
-2315.615290300059
 30
0.0
 40
18.052215644708
100
AcDbArc
 50
98.76231806800301
 51
110.256158000419
  0
ARC
  5
3BC
330
26
100
AcDbEntity
  8
1
  6
Continuous
 62
     2
100
AcDbCircle
 10
10446.12954941493
 20
-932.907727584102
 30
0.0
 40
5.414822022403999
100
AcDbArc
 50
145.771504196927
 51
-155.9793229189209
  0
ARC
  5
3BB
330
26
100
AcDbEntity
  8
1
  6
Continuous
 62
     2
100
AcDbCircle
 10
10460.77692522564
 20
-923.7997413220229
 30
0.0
 40
20.062177826479
100
AcDbArc
 50
162.412046225995
 51
-162.412046226
  0
ARC
  5
3BA
330
26
100
AcDbEntity
  8
1
  6
Continuous
 62
     2
100
AcDbCircle
 10
10446.12954941493
 20
-914.691755059944
 30
0.0
 40
5.414822022403
100
AcDbArc
 50
155.979322918904
 51
-145.771504196943
  0
ARC
  5
3B9
330
26
100
AcDbEntity
  8
1
  6
Continuous
 62
     2
100
AcDbCircle
 10
10479.29994538339
 20
-932.907727584102
 30
0.0
 40
5.414822022409
100
AcDbArc
 50
-24.020677081047
 51
34.228495803084
  0
ARC
  5
3B8
330
26
100
AcDbEntity
  8
1
  6
Continuous
 62
     2
100
AcDbCircle
 10
10464.65256957269
 20
-923.7997413220229
 30
0.0
 40
20.062177826468
100
AcDbArc
 50
-17.587953774009
 51
17.587953774014
  0
ARC
  5
3B7
330
26
100
AcDbEntity
  8
1
  6
Continuous
 62
     2
100
AcDbCircle
 10
10479.29994538339
 20
-914.691755059944
 30
0.0
 40
5.414822022402
100
AcDbArc
 50
-34.228495803068
 51
24.020677081065
  0
ARC
  5
3B6
330
26
100
AcDbEntity
  8
1
  6
Continuous
 62
     2
100
AcDbCircle
 10
10462.71474739916
 20
-923.7997413220229
 30
0.0
 40
9.999999999994999
100
AcDbArc
 50
-145.570996049274
 51
-34.42900395073201
  0
ARC
  5
3B5
330
26
100
AcDbEntity
  8
1
  6
Continuous
 62
     2
100
AcDbCircle
 10
10462.71474739916
 20
-923.7997413220229
 30
0.0
 40
9.999999999994999
100
AcDbArc
 50
34.42900395074
 51
145.570996049265
  0
ARC
  5
3B4
330
26
100
AcDbEntity
  8
1
  6
Continuous
 62
     2
100
AcDbCircle
 10
10496.47692522564
 20
-923.7997413220229
 30
0.0
 40
20.06217782648
100
AcDbArc
 50
-163.904036789946
 51
-162.412046226
  0
ARC
  5
3B3
330
26
100
AcDbEntity
  8
1
  6
Continuous
 62
     2
100
AcDbCircle
 10
10481.82954941494
 20
-932.907727584102
 30
0.0
 40
5.414822022412999
100
AcDbArc
 50
145.771504196992
 51
-155.97932291896
  0
ARC
  5
3B2
330
26
100
AcDbEntity
  8
1
  6
Continuous
 62
     2
100
AcDbCircle
 10
10481.82954941494
 20
-914.691755059944
 30
0.0
 40
5.414822022411999
100
AcDbArc
 50
155.979322918943
 51
-145.771504197008
  0
ARC
  5
3B1
330
26
100
AcDbEntity
  8
1
  6
Continuous
 62
     2
100
AcDbCircle
 10
10428.69039174619
 20
-923.7997413220229
 30
0.0
 40
20.062177826483
100
AcDbArc
 50
16.095963210058
 51
17.587953774005
  0
ARC
  5
3B0
330
26
100
AcDbEntity
  8
1
  6
Continuous
 62
     2
100
AcDbCircle
 10
10443.3377675569
 20
-914.691755059944
 30
0.0
 40
5.414822022402
100
AcDbArc
 50
-34.228495803068
 51
24.020677081104
  0
ARC
  5
3AF
330
26
100
AcDbEntity
  8
1
  6
Continuous
 62
     2
100
AcDbCircle
 10
10443.3377675569
 20
-932.907727584102
 30
0.0
 40
5.414822022401
100
AcDbArc
 50
-24.020677081086
 51
34.228495803084
  0
ARC
  5
3AE
330
26
100
AcDbEntity
  8
1
  6
Continuous
 62
     2
100
AcDbCircle
 10
10468.61762545961
 20
-919.810911755092
 30
0.0
 40
6.806710713908
100
AcDbArc
 50
3.041596008608
 51
41.510199687935
  0
ARC
  5
3AD
330
26
100
AcDbEntity
  8
1
  6
Continuous
 62
     2
100
AcDbCircle
 10
10428.69039174619
 20
-923.7997413220229
 30
0.0
 40
20.062177826479
100
AcDbArc
 50
-17.587953774
 51
-16.095963210053
  0
ARC
  5
3AC
330
26
100
AcDbEntity
  8
1
  6
Continuous
 62
     2
100
AcDbCircle
 10
10496.47692522564
 20
-923.7997413220229
 30
0.0
 40
20.062177826479
100
AcDbArc
 50
162.412046225995
 51
163.904036789941
  0
ARC
  5
3AB
330
26
100
AcDbEntity
  8
1
  6
Continuous
 62
     7
100
AcDbCircle
 10
10402.46046498519
 20
-837.2089629294299
 30
0.0
 40
38.955598656249
100
AcDbArc
 50
-33.933112924655
 51
-25.984434102922
  0
ARC
  5
3AA
330
26
100
AcDbEntity
  8
1
  6
Continuous
 62
     7
100
AcDbCircle
 10
10402.46046498519
 20
-837.2089629294299
 30
0.0
 40
38.955598656245
100
AcDbArc
 50
-74.888655776975
 51
-33.933112924655
  0
ARC
  5
3A9
330
26
100
AcDbEntity
  8
1
  6
Continuous
 62
     7
100
AcDbCircle
 10
10435.14345666043
 20
-856.046208517189
 30
0.0
 40
3.637499999998999
100
AcDbArc
 50
-77.92497794921501
 51
17.924977949171
  0
ARC
  5
3A8
330
26
100
AcDbEntity
  8
1
  6
Continuous
 62
     7
100
AcDbCircle
 10
10402.41602054075
 20
-799.3099678065359
 30
0.0
 40
3.637499999991999
100
AcDbArc
 50
42.07502205095099
 51
137.92497794926
  0
ARC
  5
3A7
330
26
100
AcDbEntity
  8
1
  6
Continuous
 62
     7
100
AcDbCircle
 10
10402.3715760963
 20
-837.1169271307671
 30
0.0
 40
39.04445932423
100
AcDbArc
 50
85.9693421508
 51
93.899904844102
  0
ARC
  5
3A6
330
26
100
AcDbEntity
  8
1
  6
Continuous
 62
     7
100
AcDbCircle
 10
10402.3715760963
 20
-837.1169271307671
 30
0.0
 40
39.044459324236
100
AcDbArc
 50
-0.050021452171
 51
85.9693421508
  0
ARC
  5
3A5
330
26
100
AcDbEntity
  8
1
  6
Continuous
 62
     7
100
AcDbCircle
 10
10402.41871082927
 20
-837.1545221706909
 30
0.0
 40
28.591593842013
100
AcDbArc
 50
-44.99999999999601
 51
180.0
  0
ARC
  5
3A4
330
26
100
AcDbEntity
  8
1
  6
Continuous
 62
     7
100
AcDbCircle
 10
10402.4148919081
 20
-837.1500306835921
 30
0.0
 40
32.087775151114
100
AcDbArc
 50
-45.00083118375999
 51
179.9269078913219
  0
ARC
  5
3A3
330
26
100
AcDbEntity
  8
1
  6
Continuous
 62
     7
100
AcDbCircle
 10
10402.41602054075
 20
-837.151014463606
 30
0.0
 40
3.61111111111
100
AcDbArc
 50
74.697968285751
 51
-158.578178478234
  0
ARC
  5
3A2
330
26
100
AcDbEntity
  8
1
  6
Continuous
 62
     7
100
AcDbCircle
 10
10402.41602054075
 20
-837.151014463606
 30
0.0
 40
3.611111111112999
100
AcDbArc
 50
-111.421821521924
 51
0.0
  0
ARC
  5
3A1
330
26
100
AcDbEntity
  8
1
  6
Continuous
 62
     7
100
AcDbCircle
 10
10402.41602054075
 20
-837.151014463606
 30
0.0
 40
3.611111111108999
100
AcDbArc
 50
0.0
 51
15.302031714403
  0
ARC
  5
3A0
330
26
100
AcDbEntity
  8
1
  6
Continuous
 62
     7
100
AcDbCircle
 10
10402.46046498519
 20
-837.2089629294299
 30
0.0
 40
38.95559865625
100
AcDbArc
 50
-25.984434102922
 51
0.085230463912
  0
ARC
  5
39F
330
26
100
AcDbEntity
  8
1
  6
Continuous
 62
     7
100
AcDbCircle
 10
10402.41602054075
 20
-836.819880373182
 30
0.0
 40
39.342857142856
100
AcDbArc
 50
-105.026113759118
 51
-74.973886240894
  0
ARC
  5
39E
330
26
100
AcDbEntity
  8
1
  6
Continuous
 62
     7
100
AcDbCircle
 10
10435.30096331465
 20
-867.4346264002709
 30
0.0
 40
42.897491299713
100
AcDbArc
 50
116.582304419184
 51
133.266911622694
  0
ARC
  5
39D
330
26
100
AcDbEntity
  8
1
  6
Continuous
 62
     7
100
AcDbCircle
 10
10415.8141249381
 20
-828.490271945572
 30
0.0
 40
0.650179290193
100
AcDbArc
 50
-63.417695580377
 51
30.139023485033
  0
ARC
  5
39C
330
26
100
AcDbEntity
  8
1
  6
Continuous
 62
     7
100
AcDbCircle
 10
10372.13240860408
 20
-804.266071689698
 30
0.0
 40
42.897491299709
100
AcDbArc
 50
-43.266911622702
 51
-26.582304419183
  0
ARC
  5
39B
330
26
100
AcDbEntity
  8
1
  6
Continuous
 62
     7
100
AcDbCircle
 10
10411.07676305878
 20
-823.752910066242
 30
0.0
 40
0.65017929019
100
AcDbArc
 50
59.860976514582
 51
153.417695580771
  0
ARC
  5
39A
330
26
100
AcDbEntity
  8
1
  6
Continuous
 62
     7
100
AcDbCircle
 10
10404.51882367383
 20
-835.0482113305201
 30
0.0
 40
13.711205269322
100
AcDbArc
 50
30.139023485576
 51
59.86097651441401
  0
ARC
  5
399
330
26
100
AcDbEntity
  8
1
  6
Continuous
 62
     2
100
AcDbCircle
 10
14163.84130700515
 20
-2324.109174778047
 30
0.0
 40
25.760231957406
100
AcDbArc
 50
73.730496507363
 51
106.269503492637
  0
ARC
  5
398
330
26
100
AcDbEntity
  8
1
  6
Continuous
 62
     2
100
AcDbCircle
 10
14163.84130700515
 20
-2284.380523032205
 30
0.0
 40
23.883545031555
100
AcDbArc
 50
-107.58795377398
 51
-72.41204622601999
  0
ARC
  5
397
330
26
100
AcDbEntity
  8
1
  6
Continuous
 62
     2
100
AcDbCircle
 10
14163.84130700515
 20
-2240.272133603974
 30
0.0
 40
21.615815918786
100
AcDbArc
 50
-109.503854479456
 51
-70.496145520544
  0
ARC
  5
396
330
26
100
AcDbEntity
  8
1
  6
Continuous
 62
     2
100
AcDbCircle
 10
14163.84130700515
 20
-2275.647613095341
 30
0.0
 40
23.883545031578
100
AcDbArc
 50
72.41204622603699
 51
107.587953773962
  0
ARC
  5
395
330
26
100
AcDbEntity
  8
1
  6
Continuous
 62
     2
100
AcDbCircle
 10
14174.68414779335
 20
-2304.710260939685
 30
0.0
 40
6.446216693341
100
AcDbArc
 50
65.979322919027
 51
79.658790361553
  0
ARC
  5
394
330
26
100
AcDbEntity
  8
1
  6
Continuous
 62
     2
100
AcDbCircle
 10
14152.99846621696
 20
-2304.710260939685
 30
0.0
 40
6.446216693342
100
AcDbArc
 50
55.77150419696999
 51
82.487084244368
  0
ARC
  5
393
330
26
100
AcDbEntity
  8
1
  6
Continuous
 62
     2
100
AcDbCircle
 10
14174.68414779335
 20
-2255.317875187842
 30
0.0
 40
6.446216693349
100
AcDbArc
 50
-124.228495803103
 51
-97.51291575572901
  0
ARC
  5
392
330
26
100
AcDbEntity
  8
1
  6
Continuous
 62
     2
100
AcDbCircle
 10
14152.99846621696
 20
-2255.317875187841
 30
0.0
 40
6.446216693346999
100
AcDbArc
 50
-114.020677081056
 51
-100.341209638542
  0
ARC
  5
391
330
26
100
AcDbEntity
  8
1
  6
Continuous
 62
     2
100
AcDbCircle
 10
14174.68414779335
 20
-2301.81787518784
 30
0.0
 40
6.446216693348
100
AcDbArc
 50
-124.228495803112
 51
-65.979322919029
  0
ARC
  5
390
330
26
100
AcDbEntity
  8
1
  6
Continuous
 62
     2
100
AcDbCircle
 10
14163.84130700515
 20
-2284.380523032222
 30
0.0
 40
23.883545031542
100
AcDbArc
 50
-76.06909951585
 51
-72.41204622600701
  0
ARC
  5
38F
330
26
100
AcDbEntity
  8
1
  6
Continuous
 62
     2
100
AcDbCircle
 10
14152.99846621696
 20
-2301.81787518784
 30
0.0
 40
6.446216693345999
100
AcDbArc
 50
-114.020677081059
 51
-55.771504196968
  0
ARC
  5
38E
330
26
100
AcDbEntity
  8
1
  6
Continuous
 62
     2
100
AcDbCircle
 10
14174.68414779335
 20
-2258.210260939683
 30
0.0
 40
6.446216693343
100
AcDbArc
 50
65.979322919032
 51
124.228495803108
  0
ARC
  5
38D
330
26
100
AcDbEntity
  8
1
  6
Continuous
 62
     2
100
AcDbCircle
 10
14163.84130700515
 20
-2275.647613095302
 30
0.0
 40
23.883545031542
100
AcDbArc
 50
103.93090048415
 51
107.587953773991
  0
ARC
  5
38C
330
26
100
AcDbEntity
  8
1
  6
Continuous
 62
     2
100
AcDbCircle
 10
14152.99846621696
 20
-2258.210260939683
 30
0.0
 40
6.446216693342
100
AcDbArc
 50
55.771504196972
 51
114.020677081056
  0
ARC
  5
38B
330
26
100
AcDbEntity
  8
1
  6
Continuous
 62
     2
100
AcDbCircle
 10
14163.84130700515
 20
-2237.880523032224
 30
0.0
 40
23.883545031539
100
AcDbArc
 50
-76.069099515848
 51
-72.412046226009
  0
ARC
  5
38A
330
26
100
AcDbEntity
  8
1
  6
Continuous
 62
     2
100
AcDbCircle
 10
14152.99846621696
 20
-2255.317875187841
 30
0.0
 40
6.446216693345999
100
AcDbArc
 50
-82.487084244369
 51
-55.771504196983
  0
ARC
  5
389
330
26
100
AcDbEntity
  8
1
  6
Continuous
 62
     2
100
AcDbCircle
 10
14174.68414779335
 20
-2255.317875187842
 30
0.0
 40
6.446216693344999
100
AcDbArc
 50
-79.65879036155801
 51
-65.979322919027
  0
ARC
  5
388
330
26
100
AcDbEntity
  8
1
  6
Continuous
 62
     2
100
AcDbCircle
 10
14163.84130700515
 20
-2322.147613095302
 30
0.0
 40
23.883545031539
100
AcDbArc
 50
103.930900484151
 51
107.587953773993
  0
ARC
  5
387
330
26
100
AcDbEntity
  8
1
  6
Continuous
 62
     2
100
AcDbCircle
 10
14152.99846621696
 20
-2304.710260939685
 30
0.0
 40
6.446216693348
100
AcDbArc
 50
100.341209638535
 51
114.020677081056
  0
ARC
  5
386
330
26
100
AcDbEntity
  8
1
  6
Continuous
 62
     2
100
AcDbCircle
 10
14174.68414779335
 20
-2304.710260939685
 30
0.0
 40
6.446216693343
100
AcDbArc
 50
97.51291575573199
 51
124.228495803117
  0
ARC
  5
385
330
26
100
AcDbEntity
  8
1
  6
Continuous
 62
     2
100
AcDbCircle
 10
14163.84130700515
 20
-2237.880523032224
 30
0.0
 40
23.883545031541
100
AcDbArc
 50
-107.587953773991
 51
-103.930900484151
  0
ARC
  5
384
330
26
100
AcDbEntity
  8
1
  6
Continuous
 62
     2
100
AcDbCircle
 10
14163.84130700515
 20
-2322.147613095302
 30
0.0
 40
23.883545031538
100
AcDbArc
 50
72.41204622600701
 51
76.069099515848
  0
ARC
  5
383
330
26
100
AcDbEntity
  8
1
  6
Continuous
 62
     2
100
AcDbCircle
 10
14163.84130700515
 20
-2275.647613095302
 30
0.0
 40
23.883545031541
100
AcDbArc
 50
72.412046226009
 51
76.06909951585
  0
ARC
  5
382
330
26
100
AcDbEntity
  8
1
  6
Continuous
 62
     2
100
AcDbCircle
 10
14163.84130700515
 20
-2284.380523032222
 30
0.0
 40
23.883545031539
100
AcDbArc
 50
-107.587953773992
 51
-103.93090048415
  0
ARC
  5
381
330
26
100
AcDbEntity
  8
1
  6
Continuous
 62
     2
100
AcDbCircle
 10
14163.84130700515
 20
-2279.264068063762
 30
0.0
 40
12.999999999988
100
AcDbArc
 50
31.10892251052
 51
148.891077489525
  0
ARC
  5
380
330
26
100
AcDbEntity
  8
1
  6
Continuous
 62
     2
100
AcDbCircle
 10
14163.84130700515
 20
-2279.264068063762
 30
0.0
 40
13.000000000012
100
AcDbArc
 50
-148.891077489479
 51
-31.108922510566
  0
ARC
  5
37F
330
26
100
AcDbEntity
  8
1
  6
Continuous
 62
     7
100
AcDbCircle
 10
14163.84130700515
 20
-1214.799741322023
 30
0.0
 40
1008.999999999999
100
AcDbArc
 50
-92.255000670214
 51
-87.74499932978599
  0
ARC
  5
37E
330
26
100
AcDbEntity
  8
1
  6
Continuous
 62
     2
100
AcDbCircle
 10
10403.4555498044
 20
-3776.270324220035
 30
0.0
 40
11.5
100
AcDbArc
 50
90.0
 51
-90.0
  0
ARC
  5
37D
330
26
100
AcDbEntity
  8
1
  6
Continuous
 62
     2
100
AcDbCircle
 10
11218.87126269548
 20
-3057.357186799035
 30
0.0
 40
10.415441500099
100
AcDbArc
 50
180.0
 51
-148.868509433911
  0
ARC
  5
37C
330
26
100
AcDbEntity
  8
1
  6
Continuous
 62
     2
100
AcDbCircle
 10
11129.03729063015
 20
-3057.357186799035
 30
0.0
 40
10.41544150009
100
AcDbArc
 50
-31.13149056612
 51
0.0
  0
ARC
  5
37B
330
26
100
AcDbEntity
  8
1
  6
Continuous
 62
     2
100
AcDbCircle
 10
11173.98294556667
 20
-3027.389765851123
 30
0.0
 40
34.787361012412
100
AcDbArc
 50
7.710008218940998
 51
173.029145890946
  0
ARC
  5
37A
330
26
100
AcDbEntity
  8
1
  6
Continuous
 62
     2
100
AcDbCircle
 10
11173.95427666282
 20
-3019.782010333775
 30
0.0
 40
48.49999999999401
100
AcDbArc
 50
-34.542007549622
 51
-135.346659194774
  0
ARC
  5
379
330
26
100
AcDbEntity
  8
1
  6
Continuous
 62
     2
100
AcDbCircle
 10
11173.95427666282
 20
-3019.782010333775
 30
0.0
 40
48.499999999993
100
AcDbArc
 50
-44.653340805241
 51
-39.868341550011
  0
ARC
  5
378
330
26
100
AcDbEntity
  8
1
  6
Continuous
 62
     2
100
AcDbCircle
 10
11167.41555442614
 20
-3015.130719418775
 30
0.0
 40
56.523480904114
100
AcDbArc
 50
-38.73647906866
 51
-34.667494258061
  0
ARC
  5
377
330
26
100
AcDbEntity
  8
1
  6
Continuous
 62
     7
100
AcDbCircle
 10
10653.95458260963
 20
-1962.893168447878
 30
0.0
 40
139.000305946843
100
AcDbArc
 50
-179.999966961036
 51
-116.459815036203
  0
ARC
  5
376
330
26
100
AcDbEntity
  8
1
  6
Continuous
 62
     7
100
AcDbCircle
 10
11173.9542766628
 20
-914.7997413220229
 30
0.0
 40
1308.999999999998
100
AcDbArc
 50
-69.893033609314
 51
-63.604563329116
  0
ARC
  5
375
330
26
100
AcDbEntity
  8
1
  6
Continuous
 62
     7
100
AcDbCircle
 10
11693.953970716
 20
-1962.893168447878
 30
0.0
 40
139.000305946834
100
AcDbArc
 50
-63.54018496380001
 51
-0.000033038964
  0
ARC
  5
374
330
26
100
AcDbEntity
  8
1
  6
Continuous
 62
     7
100
AcDbCircle
 10
11173.9542766628
 20
-914.7997413220229
 30
0.0
 40
1308.999999999998
100
AcDbArc
 50
-116.395436670884
 51
-110.106966390686
  0
ARC
  5
373
330
26
100
AcDbEntity
  8
1
  6
DOTTED
 62
     7
100
AcDbCircle
 10
11173.9542766628
 20
-914.7997413220229
 30
0.0
 40
1308.999999999998
100
AcDbArc
 50
-110.106966390686
 51
-69.893033609314
  0
ARC
  5
372
330
26
100
AcDbEntity
  8
1
  6
Continuous
 62
     7
100
AcDbCircle
 10
10383.54273321622
 20
-1723.799741322022
 30
0.0
 40
137.819366308425
100
AcDbArc
 50
-24.498739093027
 51
24.498739093027
  0
ARC
  5
371
330
26
100
AcDbEntity
  8
1
  6
Continuous
 62
     7
100
AcDbCircle
 10
10268.28229290286
 20
-1723.799741322022
 30
0.0
 40
268.089663307014
100
AcDbArc
 50
-23.05782952362
 51
23.05782952362
  0
ARC
  5
370
330
26
100
AcDbEntity
  8
1
  6
Continuous
 62
     7
100
AcDbCircle
 10
12079.62626042277
 20
-923.7997413220229
 30
0.0
 40
268.089663307026
100
AcDbArc
 50
156.942170476381
 51
-156.942170476381
  0
ARC
  5
36F
330
26
100
AcDbEntity
  8
1
  6
Continuous
 62
     7
100
AcDbCircle
 10
11964.36582010941
 20
-923.7997413220229
 30
0.0
 40
137.819366308435
100
AcDbArc
 50
155.501260906974
 51
-155.501260906975
  0
ARC
  5
36E
330
26
100
AcDbEntity
  8
1
  6
Continuous
 62
     7
100
AcDbCircle
 10
11693.953970716
 20
-27.706314196166
 30
0.0
 40
139.000305946832
100
AcDbArc
 50
0.000033038964
 51
63.54018496380001
  0
ARC
  5
36D
330
26
100
AcDbEntity
  8
1
  6
Continuous
 62
     7
100
AcDbCircle
 10
11173.9542766628
 20
-1075.799741322022
 30
0.0
 40
1309.000000000001
100
AcDbArc
 50
63.604563329116
 51
69.893033609314
  0
ARC
  5
36C
330
26
100
AcDbEntity
  8
1
  6
Continuous
 62
     7
100
AcDbCircle
 10
11693.953970716
 20
-27.706314196166
 30
0.0
 40
139.000305946832
100
AcDbArc
 50
0.000033038964
 51
63.54018496380001
  0
ARC
  5
36B
330
26
100
AcDbEntity
  8
1
  6
Continuous
 62
     7
100
AcDbCircle
 10
11173.9542766628
 20
-1075.799741322022
 30
0.0
 40
1309.000000000001
100
AcDbArc
 50
63.604563329116
 51
69.893033609314
  0
ARC
  5
36A
330
26
100
AcDbEntity
  8
1
  6
Continuous
 62
     7
100
AcDbCircle
 10
11173.9542766628
 20
-1075.799741322022
 30
0.0
 40
1308.999999999999
100
AcDbArc
 50
69.893033609314
 51
110.106966390686
  0
ARC
  5
369
330
26
100
AcDbEntity
  8
1
  6
DOTTED
 62
     7
100
AcDbCircle
 10
11173.9542766628
 20
-1075.799741322022
 30
0.0
 40
1308.999999999999
100
AcDbArc
 50
69.893033609314
 51
110.106966390686
  0
ARC
  5
368
330
26
100
AcDbEntity
  8
1
  6
Continuous
 62
     7
100
AcDbCircle
 10
11173.9542766628
 20
-1075.799741322022
 30
0.0
 40
1308.999999999999
100
AcDbArc
 50
110.106966390686
 51
116.395436670884
  0
ARC
  5
367
330
26
100
AcDbEntity
  8
1
  6
Continuous
 62
     7
100
AcDbCircle
 10
10653.95458260963
 20
-27.706314196166
 30
0.0
 40
139.000305946839
100
AcDbArc
 50
116.459815036203
 51
179.999966961036
  0
ARC
  5
366
330
26
100
AcDbEntity
  8
1
  6
Continuous
 62
     7
100
AcDbCircle
 10
11926.24430497212
 20
-2299.263716100516
 30
0.0
 40
315.971260282133
100
AcDbArc
 50
163.077829185707
 51
-178.543839139127
  0
ARC
  5
365
330
26
100
AcDbEntity
  8
1
  6
Continuous
 62
     7
100
AcDbCircle
 10
10421.66424835351
 20
-2299.263716100516
 30
0.0
 40
315.971260282126
100
AcDbArc
 50
-1.456160860871999
 51
16.922170814293
  0
ARC
  5
364
330
26
100
AcDbEntity
  8
1
  6
Continuous
 62
     7
100
AcDbCircle
 10
10421.66424835351
 20
-2299.263716100516
 30
0.0
 40
315.971260282126
100
AcDbArc
 50
-1.456160860871999
 51
16.922170814293
  0
ARC
  5
363
330
26
100
AcDbEntity
  8
1
  6
DOTTED
 62
     7
100
AcDbCircle
 10
14163.84130700515
 20
-914.7997413220229
 30
0.0
 40
1309.000000000002
100
AcDbArc
 50
-110.106966390686
 51
-69.893033609314
  0
ARC
  5
362
330
26
100
AcDbEntity
  8
1
  6
Continuous
 62
     7
100
AcDbCircle
 10
14916.13133531445
 20
-2299.263716100516
 30
0.0
 40
315.971260282123
100
AcDbArc
 50
163.077829185707
 51
-178.543839139127
  0
ARC
  5
361
330
26
100
AcDbEntity
  8
1
  6
Continuous
 62
     7
100
AcDbCircle
 10
14916.13133531445
 20
-2299.263716100516
 30
0.0
 40
315.971260282123
100
AcDbArc
 50
163.077829185707
 51
-178.543839139127
  0
ARC
  5
360
330
26
100
AcDbEntity
  8
1
  6
Continuous
 62
     7
100
AcDbCircle
 10
13411.55127869584
 20
-2299.263716100516
 30
0.0
 40
315.971260282126
100
AcDbArc
 50
-1.456160860871999
 51
16.922170814293
  0
ARC
  5
35F
330
26
100
AcDbEntity
  8
1
  6
Continuous
 62
     7
100
AcDbCircle
 10
13411.55127869584
 20
-2299.263716100516
 30
0.0
 40
315.971260282126
100
AcDbArc
 50
-1.456160860871999
 51
16.922170814293
  0
ARC
  5
35E
330
26
100
AcDbEntity
  8
1
  6
Continuous
 62
     7
100
AcDbCircle
 10
13411.55127869584
 20
-2299.263716100516
 30
0.0
 40
315.971260282126
100
AcDbArc
 50
-1.456160860871999
 51
16.922170814293
  0
ARC
  5
35D
330
26
100
AcDbEntity
  8
1
  6
Continuous
 62
     7
100
AcDbCircle
 10
13411.55127869584
 20
-2299.263716100516
 30
0.0
 40
315.971260282126
100
AcDbArc
 50
-1.456160860871999
 51
16.922170814293
  0
ARC
  5
35C
330
26
100
AcDbEntity
  8
1
  6
Continuous
 62
     7
100
AcDbCircle
 10
14163.84130700515
 20
-914.7997413220229
 30
0.0
 40
1309.000000000003
100
AcDbArc
 50
-116.395436670884
 51
-110.106966390686
  0
ARC
  5
35B
330
26
100
AcDbEntity
  8
1
  6
Continuous
 62
     7
100
AcDbCircle
 10
13643.84161295196
 20
-1962.893168447878
 30
0.0
 40
139.000305946843
100
AcDbArc
 50
-179.999966961036
 51
-116.459815036203
  0
ARC
  5
35A
330
26
100
AcDbEntity
  8
1
  6
Continuous
 62
     7
100
AcDbCircle
 10
13643.84161295196
 20
-1962.893168447878
 30
0.0
 40
139.000305946843
100
AcDbArc
 50
-179.999966961036
 51
-116.459815036203
  0
ARC
  5
359
330
26
100
AcDbEntity
  8
1
  6
Continuous
 62
     7
100
AcDbCircle
 10
14683.84100105833
 20
-1962.893168447878
 30
0.0
 40
139.000305946838
100
AcDbArc
 50
-63.54018496379699
 51
-0.000033038964
  0
ARC
  5
358
330
26
100
AcDbEntity
  8
1
  6
Continuous
 62
     7
100
AcDbCircle
 10
14683.84100105833
 20
-1962.893168447878
 30
0.0
 40
139.000305946838
100
AcDbArc
 50
-63.54018496379699
 51
-0.000033038964
  0
ARC
  5
357
330
26
100
AcDbEntity
  8
1
  6
Continuous
 62
     7
100
AcDbCircle
 10
14163.84130700515
 20
-914.7997413220229
 30
0.0
 40
1308.999999999998
100
AcDbArc
 50
-69.893033609314
 51
-63.604563329116
  0
ARC
  5
356
330
26
100
AcDbEntity
  8
1
  6
Continuous
 62
     7
100
AcDbCircle
 10
14163.84130700515
 20
-2314.799741322023
 30
0.0
 40
100.0
100
AcDbArc
 50
0.0
 51
180.0
  0
ARC
  5
355
330
26
100
AcDbEntity
  8
1
  6
Continuous
 62
     7
100
AcDbCircle
 10
13643.84161295196
 20
-27.706314196166
 30
0.0
 40
139.000305946839
100
AcDbArc
 50
116.459815036203
 51
179.999966961036
  0
ARC
  5
354
330
26
100
AcDbEntity
  8
1
  6
Continuous
 62
     7
100
AcDbCircle
 10
14163.84130700515
 20
-1075.799741322022
 30
0.0
 40
1309.000000000003
100
AcDbArc
 50
110.106966390686
 51
116.395436670884
  0
ARC
  5
353
330
26
100
AcDbEntity
  8
1
  6
Continuous
 62
     7
100
AcDbCircle
 10
14163.84130700515
 20
-1075.799741322022
 30
0.0
 40
1308.999999999999
100
AcDbArc
 50
90.437710747377
 51
110.106966390686
  0
ARC
  5
352
330
26
100
AcDbEntity
  8
1
  6
Continuous
 62
     7
100
AcDbCircle
 10
14163.84130700515
 20
-1075.799741322022
 30
0.0
 40
1309.0
100
AcDbArc
 50
63.604563329116
 51
69.893033609314
  0
ARC
  5
351
330
26
100
AcDbEntity
  8
1
  6
Continuous
 62
     7
100
AcDbCircle
 10
14683.84100105833
 20
-27.706314196166
 30
0.0
 40
139.000305946843
100
AcDbArc
 50
0.000033038964
 51
63.54018496379699
  0
ARC
  5
350
330
26
100
AcDbEntity
  8
1
  6
Continuous
 62
     7
100
AcDbCircle
 10
14163.84130700515
 20
-1075.799741322022
 30
0.0
 40
1309.0
100
AcDbArc
 50
63.604563329116
 51
69.893033609314
  0
ARC
  5
34F
330
26
100
AcDbEntity
  8
1
  6
Continuous
 62
     7
100
AcDbCircle
 10
14683.84100105833
 20
-27.706314196166
 30
0.0
 40
139.000305946843
100
AcDbArc
 50
0.000033038964
 51
63.54018496379699
  0
ARC
  5
34E
330
26
100
AcDbEntity
  8
976
  6
Continuous
 62
     7
100
AcDbCircle
 10
11173.9542766628
 20
-3776.270324220035
 30
0.0
 40
664.999999999986
100
AcDbArc
 50
172.004360023455
 51
-172.004360023455
  0
ARC
  5
34D
330
26
100
AcDbEntity
  8
976
  6
Continuous
 62
     7
100
AcDbCircle
 10
11173.95427666282
 20
-3776.270324220035
 30
0.0
 40
664.9999999999949
100
AcDbArc
 50
-7.995639976544
 51
7.995639976544
  0
ARC
  5
34C
330
26
100
AcDbEntity
  8
976
  6
Continuous
 62
     7
100
AcDbCircle
 10
11173.9542766628
 20
-3776.270324220035
 30
0.0
 40
668.0000000000029
100
AcDbArc
 50
64.934587906919
 51
115.065412093078
  0
ARC
  5
34B
330
26
100
AcDbEntity
  8
976
  6
Continuous
 62
     7
100
AcDbCircle
 10
11473.9542766628
 20
244.533796719509
 30
0.0
 40
45.000000000001
100
AcDbArc
 50
-70.387605381833
 51
-136.11239461816
  0
ARC
  5
34A
330
26
100
AcDbEntity
  8
976
  6
Continuous
 62
     7
100
AcDbCircle
 10
10873.9542766628
 20
244.533796719509
 30
0.0
 40
45.00000000000399
100
AcDbArc
 50
-43.887605381829
 51
-109.612394618165
  0
ARC
  5
349
330
26
100
AcDbEntity
  8
976
  6
Continuous
 62
     7
100
AcDbCircle
 10
14163.84130700515
 20
279.483351468088
 30
0.0
 40
10.0
100
AcDbArc
 50
0.0
 51
180.0
  0
ARC
  5
348
330
26
100
AcDbEntity
  8
976
  6
Continuous
 62
     7
100
AcDbCircle
 10
14142.61155599603
 20
200.732370277147
 30
0.0
 40
1.270249198799999
100
AcDbArc
 50
-179.967217606104
 51
-145.162705716867
  0
ARC
  5
347
330
26
100
AcDbEntity
  8
976
  6
Continuous
 62
     7
100
AcDbCircle
 10
14144.62225107108
 20
202.131147548495
 30
0.0
 40
3.71963125295
100
AcDbArc
 50
-145.170722254445
 51
-114.495262511426
  0
ARC
  5
346
330
26
100
AcDbEntity
  8
976
  6
Continuous
 62
     7
100
AcDbCircle
 10
14154.02713219465
 20
222.580236946759
 30
0.0
 40
26.227766274614
100
AcDbArc
 50
-114.669675802991
 51
-98.61863171624902
  0
ARC
  5
345
330
26
100
AcDbEntity
  8
976
  6
Continuous
 62
     7
100
AcDbCircle
 10
14163.3330855307
 20
277.561826465383
 30
0.0
 40
81.98868634093001
100
AcDbArc
 50
-99.29056718315599
 51
-89.64416353406999
  0
ARC
  5
344
330
26
100
AcDbEntity
  8
976
  6
Continuous
 62
     7
100
AcDbCircle
 10
14164.34952847959
 20
277.561826465383
 30
0.0
 40
81.98868634092901
100
AcDbArc
 50
-90.35583646593002
 51
-80.70943281684199
  0
ARC
  5
343
330
26
100
AcDbEntity
  8
976
  6
Continuous
 62
     7
100
AcDbCircle
 10
14173.65548181564
 20
222.580236946759
 30
0.0
 40
26.227766274616
100
AcDbArc
 50
-81.381368283746
 51
-65.330324197005
  0
ARC
  5
342
330
26
100
AcDbEntity
  8
976
  6
Continuous
 62
     7
100
AcDbCircle
 10
14183.06036293921
 20
202.131147548495
 30
0.0
 40
3.719631252949
100
AcDbArc
 50
-65.504737488548
 51
-34.829277745538
  0
ARC
  5
341
330
26
100
AcDbEntity
  8
976
  6
Continuous
 62
     7
100
AcDbCircle
 10
14185.07105801426
 20
200.732370277147
 30
0.0
 40
1.270249198804
100
AcDbArc
 50
-34.837294283133
 51
-0.032782393895
  0
ARC
  5
340
330
26
100
AcDbEntity
  8
976
  6
Continuous
 62
     7
100
AcDbCircle
 10
14145.15988440489
 20
217.284413614348
 30
0.0
 40
1.318577689160999
100
AcDbArc
 50
139.984673950527
 51
-139.507022172361
  0
ARC
  5
33F
330
26
100
AcDbEntity
  8
976
  6
Continuous
 62
     7
100
AcDbCircle
 10
14147.1964383795
 20
218.858325541675
 30
0.0
 40
3.891399451519999
100
AcDbArc
 50
-141.35529763856
 51
-115.506662151602
  0
ARC
  5
33E
330
26
100
AcDbEntity
  8
976
  6
Continuous
 62
     7
100
AcDbCircle
 10
14152.71636676509
 20
229.2717226286201
 30
0.0
 40
15.674731928617
100
AcDbArc
 50
-117.326405845781
 51
-104.000900844447
  0
ARC
  5
33D
330
26
100
AcDbEntity
  8
976
  6
Continuous
 62
     7
100
AcDbCircle
 10
14159.35136893093
 20
254.082241100011
 30
0.0
 40
41.355722139636
100
AcDbArc
 50
-104.603996988102
 51
-97.65661598849801
  0
ARC
  5
33C
330
26
100
AcDbEntity
  8
976
  6
Continuous
 62
     7
100
AcDbCircle
 10
14159.35136893093
 20
180.488168118053
 30
0.0
 40
41.355722139636
100
AcDbArc
 50
97.65661598849801
 51
104.603996988102
  0
ARC
  5
33B
330
26
100
AcDbEntity
  8
976
  6
Continuous
 62
     7
100
AcDbCircle
 10
14152.71636676509
 20
205.298686589444
 30
0.0
 40
15.674731928617
100
AcDbArc
 50
104.000900844447
 51
117.326405845781
  0
ARC
  5
33A
330
26
100
AcDbEntity
  8
976
  6
Continuous
 62
     7
100
AcDbCircle
 10
14147.1964383795
 20
215.71208367639
 30
0.0
 40
3.891399451515999
100
AcDbArc
 50
115.506662151607
 51
141.35529763857
  0
ARC
  5
339
330
26
100
AcDbEntity
  8
976
  6
Continuous
 62
     7
100
AcDbCircle
 10
14180.4861756308
 20
215.71208367639
 30
0.0
 40
3.891399451510999
100
AcDbArc
 50
38.64470236153
 51
64.49333784853699
  0
ARC
  5
338
330
26
100
AcDbEntity
  8
976
  6
Continuous
 62
     7
100
AcDbCircle
 10
14174.9662472452
 20
205.298686589444
 30
0.0
 40
15.674731928617
100
AcDbArc
 50
62.673594154219
 51
75.999099155553
  0
ARC
  5
337
330
26
100
AcDbEntity
  8
976
  6
Continuous
 62
     7
100
AcDbCircle
 10
14168.33124507936
 20
180.488168118053
 30
0.0
 40
41.35572213963699
100
AcDbArc
 50
75.396003011898
 51
82.343384011502
  0
ARC
  5
336
330
26
100
AcDbEntity
  8
976
  6
Continuous
 62
     7
100
AcDbCircle
 10
14168.33124507936
 20
254.082241100011
 30
0.0
 40
41.355722139635
100
AcDbArc
 50
-82.343384011502
 51
-75.396003011898
  0
ARC
  5
335
330
26
100
AcDbEntity
  8
976
  6
Continuous
 62
     7
100
AcDbCircle
 10
14174.9662472452
 20
229.2717226286201
 30
0.0
 40
15.674731928616
100
AcDbArc
 50
-75.999099155553
 51
-62.673594154219
  0
ARC
  5
334
330
26
100
AcDbEntity
  8
976
  6
Continuous
 62
     7
100
AcDbCircle
 10
14180.4861756308
 20
218.858325541675
 30
0.0
 40
3.891399451512
100
AcDbArc
 50
-64.49333784854299
 51
-38.64470236154001
  0
ARC
  5
333
330
26
100
AcDbEntity
  8
976
  6
Continuous
 62
     7
100
AcDbCircle
 10
14182.5227296054
 20
217.284413614348
 30
0.0
 40
1.318577689168999
100
AcDbArc
 50
-40.492977827639
 51
40.015326049422
  0
ARC
  5
332
330
26
100
AcDbEntity
  8
1
  6
Continuous
 62
     7
100
AcDbCircle
 10
14163.84130700515
 20
-1075.799741322022
 30
0.0
 40
1308.999999999999
100
AcDbArc
 50
69.893033609314
 51
89.56228925262299
  0
ARC
  5
331
330
26
100
AcDbEntity
  8
1
  6
Continuous
 62
     7
100
AcDbCircle
 10
11273.95514458921
 20
-1365.1765018854
 30
0.0
 40
17.499566031419
100
AcDbArc
 50
-0.403504746536
 51
179.596495253466
  0
ARC
  5
330
330
26
100
AcDbEntity
  8
1
  6
Continuous
 62
     7
100
AcDbCircle
 10
11273.95514458921
 20
-1720.42298075864
 30
0.0
 40
17.49956603141
100
AcDbArc
 50
-179.596495253463
 51
0.403504746536
  0
ARC
  5
32F
330
26
100
AcDbEntity
  8
1
  6
Continuous
 62
     7
100
AcDbCircle
 10
11073.9534087364
 20
-1720.42298075864
 30
0.0
 40
17.499566031421
100
AcDbArc
 50
179.596495253463
 51
-0.403504746536
  0
ARC
  5
32E
330
26
100
AcDbEntity
  8
1
  6
Continuous
 62
     7
100
AcDbCircle
 10
11073.9534087364
 20
-1365.1765018854
 30
0.0
 40
17.499566031421
100
AcDbArc
 50
0.403504746533
 51
-179.596495253463
  0
ARC
  5
32D
330
26
100
AcDbEntity
  8
1
  6
Continuous
 62
     7
100
AcDbCircle
 10
11087.60944106646
 20
-1542.798598512678
 30
0.0
 40
113.76250122436
100
AcDbArc
 50
154.94760758639
 51
-154.984784540828
  0
ARC
  5
32C
330
26
100
AcDbEntity
  8
1
  6
Continuous
 62
     7
100
AcDbCircle
 10
11123.16813706452
 20
-1524.89886661743
 30
0.0
 40
153.559261072974
100
AcDbArc
 50
-154.542879317995
 51
-126.394531208387
  0
ARC
  5
32B
330
26
100
AcDbEntity
  8
1
  6
Continuous
 62
     7
100
AcDbCircle
 10
11150.38057245425
 20
-1491.163412183853
 30
0.0
 40
196.869965427201
100
AcDbArc
 50
-126.944010452765
 51
-118.760356672526
  0
ARC
  5
32A
330
26
100
AcDbEntity
  8
1
  6
Continuous
 62
     7
100
AcDbCircle
 10
11173.34696945528
 20
-1435.02555243713
 30
0.0
 40
257.774909317818
100
AcDbArc
 50
-108.388815607174
 51
-89.864539028133
  0
ARC
  5
329
330
26
100
AcDbEntity
  8
1
  6
Continuous
 62
     7
100
AcDbCircle
 10
11173.34696945528
 20
-1650.573930206911
 30
0.0
 40
257.774909317819
100
AcDbArc
 50
89.864539028133
 51
108.388815607174
  0
ARC
  5
328
330
26
100
AcDbEntity
  8
1
  6
Continuous
 62
     7
100
AcDbCircle
 10
11123.16813706452
 20
-1560.70061602661
 30
0.0
 40
153.559261072977
100
AcDbArc
 50
126.394531208387
 51
154.542879317995
  0
ARC
  5
327
330
26
100
AcDbEntity
  8
1
  6
Continuous
 62
     7
100
AcDbCircle
 10
11150.38057245425
 20
-1594.436070460187
 30
0.0
 40
196.869965427194
100
AcDbArc
 50
118.760356672526
 51
126.944010452765
  0
ARC
  5
326
330
26
100
AcDbEntity
  8
1
  6
Continuous
 62
     7
100
AcDbCircle
 10
11174.56158387035
 20
-1650.573930206911
 30
0.0
 40
257.774909317818
100
AcDbArc
 50
71.611184392826
 51
90.13546097187001
  0
ARC
  5
325
330
26
100
AcDbEntity
  8
1
  6
Continuous
 62
     7
100
AcDbCircle
 10
11224.7404162611
 20
-1560.70061602661
 30
0.0
 40
153.559261072974
100
AcDbArc
 50
25.457120682005
 51
53.605468791613
  0
ARC
  5
324
330
26
100
AcDbEntity
  8
1
  6
Continuous
 62
     7
100
AcDbCircle
 10
11197.52798087137
 20
-1594.436070460187
 30
0.0
 40
196.8699654272
100
AcDbArc
 50
53.055989547235
 51
61.239643327471
  0
ARC
  5
323
330
26
100
AcDbEntity
  8
1
  6
Continuous
 62
     7
100
AcDbCircle
 10
11260.29911225917
 20
-1542.798598512678
 30
0.0
 40
113.762501224349
100
AcDbArc
 50
-25.01521545917301
 51
25.052392413611
  0
ARC
  5
322
330
26
100
AcDbEntity
  8
1
  6
Continuous
 62
     7
100
AcDbCircle
 10
11224.7404162611
 20
-1524.89886661743
 30
0.0
 40
153.559261072978
100
AcDbArc
 50
-53.605468791613
 51
-25.457120682005
  0
ARC
  5
321
330
26
100
AcDbEntity
  8
1
  6
Continuous
 62
     7
100
AcDbCircle
 10
11197.52798087137
 20
-1491.163412183853
 30
0.0
 40
196.8699654272
100
AcDbArc
 50
-61.239643327471
 51
-53.055989547235
  0
ARC
  5
320
330
26
100
AcDbEntity
  8
1
  6
Continuous
 62
     7
100
AcDbCircle
 10
11174.56158387035
 20
-1435.02555243713
 30
0.0
 40
257.774909317818
100
AcDbArc
 50
-90.13546097187001
 51
-71.611184392826
  0
ARC
  5
31F
330
26
100
AcDbEntity
  8
1
  6
Continuous
 62
     7
100
AcDbCircle
 10
13204.46084034765
 20
-1542.79974132202
 30
0.0
 40
330.5
100
AcDbArc
 50
-26.99146656159201
 51
26.99146656159201
  0
ARC
  5
31E
330
26
100
AcDbEntity
  8
1
  6
Continuous
 62
     7
100
AcDbCircle
 10
12989.90528479209
 20
-1542.79974132202
 30
0.0
 40
596.05555555556
100
AcDbArc
 50
-30.219150244681
 51
30.219150244681
  0
ARC
  5
31D
330
26
100
AcDbEntity
  8
1
  6
Continuous
 62
     7
100
AcDbCircle
 10
13004.99419437227
 20
-1542.79974132202
 30
0.0
 40
577.9299675013979
100
AcDbArc
 50
-31.271500898697
 51
31.271500898697
  0
ARC
  5
31C
330
26
100
AcDbEntity
  8
1
  6
Continuous
 62
     7
100
AcDbCircle
 10
13405.69627179875
 20
-1555.811150267852
 30
0.0
 40
7.735460032011999
100
AcDbArc
 50
145.771504196939
 51
-155.979322918945
  0
ARC
  5
31B
330
26
100
AcDbEntity
  8
1
  6
Continuous
 62
     7
100
AcDbCircle
 10
13426.62109438549
 20
-1542.79974132202
 30
0.0
 40
28.660254037844
100
AcDbArc
 50
162.412046226007
 51
-162.412046226005
  0
ARC
  5
31A
330
26
100
AcDbEntity
  8
1
  6
Continuous
 62
     7
100
AcDbCircle
 10
13405.69627179876
 20
-1529.788332376188
 30
0.0
 40
7.735460032015999
100
AcDbArc
 50
155.979322918984
 51
-145.771504196979
  0
ARC
  5
319
330
26
100
AcDbEntity
  8
1
  6
Continuous
 62
     7
100
AcDbCircle
 10
13405.69627179875
 20
-1529.788332376189
 30
0.0
 40
7.735460032006
100
AcDbArc
 50
155.979322918945
 51
-145.771504196939
  0
ARC
  5
318
330
26
100
AcDbEntity
  8
1
  6
Continuous
 62
     7
100
AcDbCircle
 10
13426.62109438549
 20
-1542.79974132202
 30
0.0
 40
28.660254037844
100
AcDbArc
 50
162.412046226007
 51
-162.412046226005
  0
ARC
  5
317
330
26
100
AcDbEntity
  8
1
  6
Continuous
 62
     7
100
AcDbCircle
 10
13405.69627179875
 20
-1555.811150267852
 30
0.0
 40
7.735460032011999
100
AcDbArc
 50
145.771504196939
 51
-155.979322918945
  0
ARC
  5
316
330
26
100
AcDbEntity
  8
1
  6
Continuous
 62
     7
100
AcDbCircle
 10
11286.96568560864
 20
-3020.005755671139
 30
0.0
 40
7.735460032015999
100
AcDbArc
 50
65.979322918915
 51
124.228495803018
  0
ARC
  5
315
330
26
100
AcDbEntity
  8
1
  6
Continuous
 62
     7
100
AcDbCircle
 10
11273.9542766628
 20
-3040.930578257879
 30
0.0
 40
28.660254037846
100
AcDbArc
 50
72.412046225992
 51
107.587953773984
  0
ARC
  5
314
330
26
100
AcDbEntity
  8
1
  6
Continuous
 62
     7
100
AcDbCircle
 10
11260.94286771698
 20
-3020.005755671139
 30
0.0
 40
7.735460032013
100
AcDbArc
 50
55.77150419691399
 51
114.020677081011
  0
ARC
  5
313
330
26
100
AcDbEntity
  8
1
  6
Continuous
 62
     7
100
AcDbCircle
 10
11086.96568560864
 20
-3020.005755671139
 30
0.0
 40
7.735460032015999
100
AcDbArc
 50
65.979322918915
 51
124.228495803018
  0
ARC
  5
312
330
26
100
AcDbEntity
  8
1
  6
Continuous
 62
     7
100
AcDbCircle
 10
11073.9542766628
 20
-3040.930578257879
 30
0.0
 40
28.660254037846
100
AcDbArc
 50
72.412046225992
 51
107.587953773984
  0
ARC
  5
311
330
26
100
AcDbEntity
  8
1
  6
Continuous
 62
     7
100
AcDbCircle
 10
11060.94286771698
 20
-3020.005755671139
 30
0.0
 40
7.735460032013
100
AcDbArc
 50
55.77150419691399
 51
114.020677081011
  0
LINE
  5
310
330
26
100
AcDbEntity
  8
1
  6
DOT_CENTER
 62
     2
100
AcDbLine
 10
10402.41602054075
 20
-966.342846180925
 30
0.0
 11
10402.41602054075
 21
-935.663119214251
 31
0.0
  0
LINE
  5
30F
330
26
100
AcDbEntity
  8
1
  6
Continuous
 62
     2
100
AcDbLine
 10
10396.41602054075
 20
-962.44846818044
 30
0.0
 11
10396.41602054075
 21
-953.44846818044
 31
0.0
  0
LINE
  5
30E
330
26
100
AcDbEntity
  8
1
  6
Continuous
 62
     2
100
AcDbLine
 10
10394.08502054074
 20
-946.798468180439
 30
0.0
 11
10393.87720804074
 21
-953.44846818044
 31
0.0
  0
LINE
  5
30D
330
26
100
AcDbEntity
  8
1
  6
Continuous
 62
     2
100
AcDbLine
 10
10400.45063892778
 20
-850.878224716636
 30
0.0
 11
10402.41602054075
 21
-849.78879589901
 31
0.0
  0
LINE
  5
30C
330
26
100
AcDbEntity
  8
1
  6
Continuous
 62
     2
100
AcDbLine
 10
10402.41602054075
 20
-849.78879589901
 30
0.0
 11
10400.48985670259
 21
-850.9461518951569
 31
0.0
  0
LINE
  5
30B
330
26
100
AcDbEntity
  8
1
  6
DOT_CENTER
 62
     2
100
AcDbLine
 10
10402.41602054075
 20
-848.1189406993049
 30
0.0
 11
10402.41602054075
 21
-935.663119214251
 31
0.0
  0
LINE
  5
30A
330
26
100
AcDbEntity
  8
1
  6
Continuous
 62
     2
100
AcDbLine
 10
10402.41602054075
 20
-849.78879589901
 30
0.0
 11
10402.37680276594
 21
-847.5420110852409
 31
0.0
  0
LINE
  5
309
330
26
100
AcDbEntity
  8
1
  6
Continuous
 62
     2
100
AcDbLine
 10
10402.45523831555
 20
-847.5420110852409
 30
0.0
 11
10402.41602054075
 21
-849.78879589901
 31
0.0
  0
LINE
  5
308
330
26
100
AcDbEntity
  8
1
  6
DOT_CENTER
 62
     2
100
AcDbLine
 10
10402.41602054075
 20
-790.986180790888
 30
0.0
 11
10402.41602054075
 21
-845.8718136372
 31
0.0
  0
LINE
  5
307
330
26
100
AcDbEntity
  8
1
  6
Continuous
 62
     7
100
AcDbLine
 10
10401.09712952803
 20
-840.512658399743
 30
0.0
 11
10381.23240816664
 21
-858.1845304401591
 31
0.0
  0
LINE
  5
306
330
26
100
AcDbEntity
  8
1
  6
Continuous
 62
     7
100
AcDbLine
 10
10399.05437660461
 20
-838.4699054763149
 30
0.0
 11
10381.0283736547
 21
-857.9804959282189
 31
0.0
  0
LINE
  5
305
330
26
100
AcDbEntity
  8
1
  6
Continuous
 62
     7
100
AcDbLine
 10
10382.02203926042
 20
-857.1908648344411
 30
0.0
 11
10377.88141874284
 21
-861.331485352016
 31
0.0
  0
LINE
  5
304
330
26
100
AcDbEntity
  8
1
  6
Continuous
 62
     7
100
AcDbLine
 10
10399.71602054074
 20
-798.162879476989
 30
0.0
 11
10399.71602054074
 21
-796.8724678065359
 31
0.0
  0
LINE
  5
303
330
26
100
AcDbEntity
  8
1
  6
Continuous
 62
     7
100
AcDbLine
 10
10368.88377590821
 20
-859.6285563823579
 30
0.0
 11
10366.18377590821
 21
-854.9520192019219
 31
0.0
  0
LINE
  5
302
330
26
100
AcDbEntity
  8
1
  6
Continuous
 62
     7
100
AcDbLine
 10
10368.88377590821
 20
-859.6285563823579
 30
0.0
 11
10370.01803466859
 21
-858.973691781718
 31
0.0
  0
LINE
  5
301
330
26
100
AcDbEntity
  8
1
  6
Continuous
 62
     7
100
AcDbLine
 10
10366.18377590821
 20
-854.9520192019219
 30
0.0
 11
10367.31182232466
 21
-854.3007412997258
 31
0.0
  0
LINE
  5
300
330
26
100
AcDbEntity
  8
1
  6
DOT_CENTER
 62
     2
100
AcDbLine
 10
10364.67631880217
 20
-858.9400414215109
 30
0.0
 11
10370.60879462772
 21
-855.5149249066559
 31
0.0
  0
LINE
  5
2FF
330
26
100
AcDbEntity
  8
1
  6
Continuous
 62
     2
100
AcDbLine
 10
10393.40814921339
 20
-877.151014463606
 30
0.0
 11
10395.41602054075
 21
-877.151014463606
 31
0.0
  0
LINE
  5
2FE
330
26
100
AcDbEntity
  8
1
  6
Continuous
 62
     2
100
AcDbLine
 10
10393.41602054075
 20
-875.119494054828
 30
0.0
 11
10393.41602054075
 21
-877.151014463606
 31
0.0
  0
LINE
  5
2FD
330
26
100
AcDbEntity
  8
1
  6
Continuous
 62
     2
100
AcDbLine
 10
10395.41602054075
 20
-877.151014463606
 30
0.0
 11
10395.41602054075
 21
-889.1510144636059
 31
0.0
  0
LINE
  5
2FC
330
26
100
AcDbEntity
  8
1
  6
Continuous
 62
     2
100
AcDbLine
 10
10393.72095804074
 20
-889.1510144636059
 30
0.0
 11
10393.76602054075
 21
-890.593014463605
 31
0.0
  0
LINE
  5
2FB
330
26
100
AcDbEntity
  8
1
  6
Continuous
 62
     2
100
AcDbLine
 10
10393.88584554074
 20
-894.4274144636059
 30
0.0
 11
10402.41602054075
 21
-894.4274144636059
 31
0.0
  0
LINE
  5
2FA
330
26
100
AcDbEntity
  8
1
  6
Continuous
 62
     2
100
AcDbLine
 10
10394.82539554075
 20
-897.101014463605
 30
0.0
 11
10402.41602054075
 21
-897.101014463605
 31
0.0
  0
LINE
  5
2F9
330
26
100
AcDbEntity
  8
1
  6
Continuous
 62
     2
100
AcDbLine
 10
10394.94102054074
 20
-900.8010144636051
 30
0.0
 11
10394.82539554075
 21
-897.101014463605
 31
0.0
  0
LINE
  5
2F8
330
26
100
AcDbEntity
  8
1
  6
Continuous
 62
     2
100
AcDbLine
 10
10394.08502054074
 20
-900.8010144636051
 30
0.0
 11
10393.88584554074
 21
-894.4274144636059
 31
0.0
  0
LINE
  5
2F7
330
26
100
AcDbEntity
  8
1
  6
Continuous
 62
     2
100
AcDbLine
 10
10394.82539554075
 20
-897.101014463605
 30
0.0
 11
10393.88584554074
 21
-894.4274144636059
 31
0.0
  0
LINE
  5
2F6
330
26
100
AcDbEntity
  8
1
  6
Continuous
 62
     2
100
AcDbLine
 10
10393.88584554074
 20
-894.4274144636059
 30
0.0
 11
10393.76602054075
 21
-890.593014463605
 31
0.0
  0
LINE
  5
2F5
330
26
100
AcDbEntity
  8
1
  6
Continuous
 62
     2
100
AcDbLine
 10
10402.41602054075
 20
-946.798468180439
 30
0.0
 11
10390.91602054075
 21
-946.798468180439
 31
0.0
  0
LINE
  5
2F4
330
26
100
AcDbEntity
  8
1
  6
Continuous
 62
     2
100
AcDbLine
 10
10390.91602054075
 20
-923.7997413220229
 30
0.0
 11
10390.91602054075
 21
-946.798468180439
 31
0.0
  0
LINE
  5
2F3
330
26
100
AcDbEntity
  8
1
  6
Continuous
 62
     2
100
AcDbLine
 10
10390.91602054075
 20
-900.8010144636051
 30
0.0
 11
10390.91602054075
 21
-923.7997413220229
 31
0.0
  0
LINE
  5
2F2
330
26
100
AcDbEntity
  8
1
  6
Continuous
 62
     2
100
AcDbLine
 10
10390.91602054075
 20
-900.8010144636051
 30
0.0
 11
10402.41602054075
 21
-900.8010144636051
 31
0.0
  0
LINE
  5
2F1
330
26
100
AcDbEntity
  8
1
  6
DOT_CENTER
 62
     2
100
AcDbLine
 10
10014.25278705619
 20
-1589.20107524036
 30
0.0
 11
10014.25278705619
 21
-1861.370544455447
 31
0.0
  0
LINE
  5
2F0
330
26
100
AcDbEntity
  8
1
  6
DOT_CENTER
 62
     2
100
AcDbLine
 10
9860.835751938488
 20
-1723.799741322022
 30
0.0
 11
10144.87702008778
 21
-1723.799741322022
 31
0.0
  0
LINE
  5
2EF
330
26
100
AcDbEntity
  8
1
  6
Continuous
 62
     7
100
AcDbLine
 10
13484.84130700515
 20
-956.9497413220219
 30
0.0
 11
13484.84130700515
 21
-890.6497413220209
 31
0.0
  0
LINE
  5
2EE
330
26
100
AcDbEntity
  8
1
  6
Continuous
 62
     7
100
AcDbLine
 10
13504.84130700515
 20
-956.9497413220219
 30
0.0
 11
13484.84130700515
 21
-956.9497413220219
 31
0.0
  0
LINE
  5
2ED
330
26
100
AcDbEntity
  8
1
  6
Continuous
 62
     7
100
AcDbLine
 10
13504.84130700515
 20
-890.6497413220209
 30
0.0
 11
13484.84130700515
 21
-890.6497413220209
 31
0.0
  0
LINE
  5
2EC
330
26
100
AcDbEntity
  8
1
  6
Continuous
 62
     2
100
AcDbLine
 10
13399.49790394495
 20
-849.2703402452638
 30
0.0
 11
13399.49790394495
 21
-836.579741322023
 31
0.0
  0
LINE
  5
2EB
330
26
100
AcDbEntity
  8
1
  6
Continuous
 62
     2
100
AcDbLine
 10
13429.99790394495
 20
-849.2703402452638
 30
0.0
 11
13429.99790394495
 21
-836.579741322023
 31
0.0
  0
LINE
  5
2EA
330
26
100
AcDbEntity
  8
1
  6
Continuous
 62
     2
100
AcDbLine
 10
13384.24790394495
 20
-849.2703402452638
 30
0.0
 11
13388.24790394495
 21
-851.579741322023
 31
0.0
  0
LINE
  5
2E9
330
26
100
AcDbEntity
  8
1
  6
Continuous
 62
     2
100
AcDbLine
 10
13445.24790394495
 20
-849.2703402452638
 30
0.0
 11
13441.24790394495
 21
-851.579741322023
 31
0.0
  0
LINE
  5
2E8
330
26
100
AcDbEntity
  8
1
  6
Continuous
 62
     2
100
AcDbLine
 10
13445.24790394495
 20
-849.2703402452638
 30
0.0
 11
13445.24790394495
 21
-836.579741322023
 31
0.0
  0
LINE
  5
2E7
330
26
100
AcDbEntity
  8
1
  6
Continuous
 62
     2
100
AcDbLine
 10
13388.24790394495
 20
-851.579741322023
 30
0.0
 11
13441.24790394495
 21
-851.579741322023
 31
0.0
  0
LINE
  5
2E6
330
26
100
AcDbEntity
  8
1
  6
Continuous
 62
     2
100
AcDbLine
 10
13449.74790394495
 20
-825.579741322023
 30
0.0
 11
13379.74790394495
 21
-825.579741322023
 31
0.0
  0
LINE
  5
2E5
330
26
100
AcDbEntity
  8
1
  6
Continuous
 62
     2
100
AcDbLine
 10
13446.74790394495
 20
-836.579741322023
 30
0.0
 11
13382.74790394495
 21
-836.579741322023
 31
0.0
  0
LINE
  5
2E4
330
26
100
AcDbEntity
  8
1
  6
Continuous
 62
     2
100
AcDbLine
 10
13384.24790394495
 20
-836.579741322023
 30
0.0
 11
13384.24790394495
 21
-849.2703402452638
 31
0.0
  0
LINE
  5
2E3
330
26
100
AcDbEntity
  8
1
  6
Continuous
 62
     2
100
AcDbLine
 10
13445.24790394495
 20
-836.579741322023
 30
0.0
 11
13384.24790394495
 21
-836.579741322023
 31
0.0
  0
LINE
  5
2E2
330
26
100
AcDbEntity
  8
1
  6
Continuous
 62
     2
100
AcDbLine
 10
13449.74790394495
 20
-825.579741322023
 30
0.0
 11
13379.74790394495
 21
-825.579741322023
 31
0.0
  0
LINE
  5
2E1
330
26
100
AcDbEntity
  8
1
  6
Continuous
 62
     2
100
AcDbLine
 10
13435.74790394495
 20
-851.579741322023
 30
0.0
 11
13393.74790394495
 21
-851.579741322023
 31
0.0
  0
LINE
  5
2E0
330
26
100
AcDbEntity
  8
1
  6
Continuous
 62
     2
100
AcDbLine
 10
13441.24790394495
 20
-762.079741322023
 30
0.0
 11
13449.74790394495
 21
-762.079741322023
 31
0.0
  0
LINE
  5
2DF
330
26
100
AcDbEntity
  8
1
  6
Continuous
 62
     2
100
AcDbLine
 10
13454.74790394495
 20
-767.0797413220229
 30
0.0
 11
13454.74790394495
 21
-820.579741322023
 31
0.0
  0
LINE
  5
2DE
330
26
100
AcDbEntity
  8
1
  6
Continuous
 62
     2
100
AcDbLine
 10
13379.74790394495
 20
-825.579741322023
 30
0.0
 11
13449.74790394495
 21
-825.579741322023
 31
0.0
  0
LINE
  5
2DD
330
26
100
AcDbEntity
  8
1
  6
Continuous
 62
     2
100
AcDbLine
 10
13374.74790394495
 20
-767.0797413220229
 30
0.0
 11
13374.74790394495
 21
-820.579741322023
 31
0.0
  0
LINE
  5
2DC
330
26
100
AcDbEntity
  8
1
  6
Continuous
 62
     2
100
AcDbLine
 10
13388.24790394495
 20
-762.079741322023
 30
0.0
 11
13379.74790394495
 21
-762.079741322023
 31
0.0
  0
LINE
  5
2DB
330
26
100
AcDbEntity
  8
1
  6
Continuous
 62
     2
100
AcDbLine
 10
13392.74790394495
 20
-752.0797413220229
 30
0.0
 11
13388.24790394495
 21
-754.677817533377
 31
0.0
  0
LINE
  5
2DA
330
26
100
AcDbEntity
  8
1
  6
Continuous
 62
     2
100
AcDbLine
 10
13436.74790394495
 20
-752.0797413220229
 30
0.0
 11
13392.74790394495
 21
-752.0797413220229
 31
0.0
  0
LINE
  5
2D9
330
26
100
AcDbEntity
  8
1
  6
Continuous
 62
     2
100
AcDbLine
 10
13436.74790394495
 20
-752.0797413220229
 30
0.0
 11
13441.24790394495
 21
-754.677817533377
 31
0.0
  0
LINE
  5
2D8
330
26
100
AcDbEntity
  8
1
  6
Continuous
 62
     2
100
AcDbLine
 10
13436.74790394495
 20
-708.0790699834389
 30
0.0
 11
13434.74790394495
 21
-708.0790699834389
 31
0.0
  0
LINE
  5
2D7
330
26
100
AcDbEntity
  8
1
  6
Continuous
 62
     2
100
AcDbLine
 10
13434.74790394495
 20
-708.0790699834389
 30
0.0
 11
13394.74790394495
 21
-708.0790699834389
 31
0.0
  0
LINE
  5
2D6
330
26
100
AcDbEntity
  8
1
  6
Continuous
 62
     2
100
AcDbLine
 10
13392.74790394495
 20
-708.0790699834389
 30
0.0
 11
13394.74790394495
 21
-708.0790699834389
 31
0.0
  0
LINE
  5
2D5
330
26
100
AcDbEntity
  8
1
  6
Continuous
 62
     2
100
AcDbLine
 10
13437.74790394495
 20
-708.0790699834389
 30
0.0
 11
13436.74790394495
 21
-708.0790699834389
 31
0.0
  0
LINE
  5
2D4
330
26
100
AcDbEntity
  8
1
  6
Continuous
 62
     2
100
AcDbLine
 10
13391.74790394495
 20
-708.0790699834389
 30
0.0
 11
13392.74790394495
 21
-708.0790699834389
 31
0.0
  0
LINE
  5
2D3
330
26
100
AcDbEntity
  8
1
  6
Continuous
 62
     2
100
AcDbLine
 10
13439.74790394495
 20
-753.811792129593
 30
0.0
 11
13439.74790394495
 21
-710.079069983439
 31
0.0
  0
LINE
  5
2D2
330
26
100
AcDbEntity
  8
1
  6
Continuous
 62
     2
100
AcDbLine
 10
13389.74790394495
 20
-753.811792129593
 30
0.0
 11
13389.74790394495
 21
-710.079069983439
 31
0.0
  0
LINE
  5
2D1
330
26
100
AcDbEntity
  8
1
  6
Continuous
 62
     2
100
AcDbLine
 10
13401.49790394495
 20
-754.677817533377
 30
0.0
 11
13401.49790394495
 21
-762.079741322023
 31
0.0
  0
LINE
  5
2D0
330
26
100
AcDbEntity
  8
1
  6
Continuous
 62
     2
100
AcDbLine
 10
13427.99790394495
 20
-754.677817533377
 30
0.0
 11
13427.99790394495
 21
-762.079741322023
 31
0.0
  0
LINE
  5
2CF
330
26
100
AcDbEntity
  8
1
  6
Continuous
 62
     2
100
AcDbLine
 10
13388.24790394495
 20
-762.079741322023
 30
0.0
 11
13388.24790394495
 21
-754.677817533377
 31
0.0
  0
LINE
  5
2CE
330
26
100
AcDbEntity
  8
1
  6
Continuous
 62
     2
100
AcDbLine
 10
13441.24790394495
 20
-762.079741322023
 30
0.0
 11
13388.24790394495
 21
-762.079741322023
 31
0.0
  0
LINE
  5
2CD
330
26
100
AcDbEntity
  8
1
  6
Continuous
 62
     2
100
AcDbLine
 10
13441.24790394495
 20
-754.677817533377
 30
0.0
 11
13441.24790394495
 21
-762.079741322023
 31
0.0
  0
LINE
  5
2CC
330
26
100
AcDbEntity
  8
1
  6
Continuous
 62
     2
100
AcDbLine
 10
13394.74790394495
 20
-704.0790699834389
 30
0.0
 11
13394.74790394495
 21
-706.079069983439
 31
0.0
  0
LINE
  5
2CB
330
26
100
AcDbEntity
  8
1
  6
Continuous
 62
     2
100
AcDbLine
 10
13395.74790394495
 20
-703.079069983439
 30
0.0
 11
13433.74790394495
 21
-703.079069983439
 31
0.0
  0
LINE
  5
2CA
330
26
100
AcDbEntity
  8
1
  6
Continuous
 62
     2
100
AcDbLine
 10
13434.74790394495
 20
-704.0790699834389
 30
0.0
 11
13434.74790394495
 21
-706.079069983439
 31
0.0
  0
LINE
  5
2C9
330
26
100
AcDbEntity
  8
1
  6
Continuous
 62
     2
100
AcDbLine
 10
13405.49790394495
 20
-696.8111207910069
 30
0.0
 11
13405.49790394495
 21
-703.079069983439
 31
0.0
  0
LINE
  5
2C8
330
26
100
AcDbEntity
  8
1
  6
Continuous
 62
     2
100
AcDbLine
 10
13423.99790394495
 20
-696.8111207910069
 30
0.0
 11
13423.99790394495
 21
-703.079069983439
 31
0.0
  0
LINE
  5
2C7
330
26
100
AcDbEntity
  8
1
  6
Continuous
 62
     2
100
AcDbLine
 10
13399.74790394495
 20
-686.579069983439
 30
0.0
 11
13399.74790394495
 21
-695.079069983439
 31
0.0
  0
LINE
  5
2C6
330
26
100
AcDbEntity
  8
1
  6
Continuous
 62
     2
100
AcDbLine
 10
13429.74790394495
 20
-686.579069983439
 30
0.0
 11
13429.74790394495
 21
-695.0893688580889
 31
0.0
  0
LINE
  5
2C5
330
26
100
AcDbEntity
  8
1
  6
Continuous
 62
     2
100
AcDbLine
 10
13399.24790394495
 20
-695.079069983439
 30
0.0
 11
13430.24790394495
 21
-695.079069983439
 31
0.0
  0
LINE
  5
2C4
330
26
100
AcDbEntity
  8
1
  6
Continuous
 62
     2
100
AcDbLine
 10
13396.24790394495
 20
-696.8111207910069
 30
0.0
 11
13399.24790394495
 21
-695.079069983439
 31
0.0
  0
LINE
  5
2C3
330
26
100
AcDbEntity
  8
1
  6
Continuous
 62
     2
100
AcDbLine
 10
13396.24790394495
 20
-703.079069983439
 30
0.0
 11
13396.24790394495
 21
-696.8111207910069
 31
0.0
  0
LINE
  5
2C2
330
26
100
AcDbEntity
  8
1
  6
Continuous
 62
     2
100
AcDbLine
 10
13433.24790394495
 20
-703.079069983439
 30
0.0
 11
13396.24790394495
 21
-703.079069983439
 31
0.0
  0
LINE
  5
2C1
330
26
100
AcDbEntity
  8
1
  6
Continuous
 62
     2
100
AcDbLine
 10
13433.24790394495
 20
-696.8111207910069
 30
0.0
 11
13433.24790394495
 21
-703.079069983439
 31
0.0
  0
LINE
  5
2C0
330
26
100
AcDbEntity
  8
1
  6
Continuous
 62
     2
100
AcDbLine
 10
13430.24790394495
 20
-695.079069983439
 30
0.0
 11
13433.24790394495
 21
-696.8111207910069
 31
0.0
  0
LINE
  5
2BF
330
26
100
AcDbEntity
  8
1
  6
DOT_CENTER
 62
     2
100
AcDbLine
 10
13414.60598950994
 20
-964.662260994644
 30
0.0
 11
13414.60598950994
 21
-648.8972631230311
 31
0.0
  0
LINE
  5
2BE
330
26
100
AcDbEntity
  8
1
  6
Continuous
 62
     2
100
AcDbLine
 10
13473.72130700514
 20
-893.5497413220231
 30
0.0
 11
13473.72130700514
 21
-954.0497413220229
 31
0.0
  0
LINE
  5
2BD
330
26
100
AcDbEntity
  8
1
  6
Continuous
 62
     2
100
AcDbLine
 10
13469.72130700514
 20
-954.0497413220229
 30
0.0
 11
13469.72130700514
 21
-893.5497413220231
 31
0.0
  0
LINE
  5
2BC
330
26
100
AcDbEntity
  8
1
  6
Continuous
 62
     2
100
AcDbLine
 10
13469.72130700514
 20
-954.0497413220229
 30
0.0
 11
13473.72130700514
 21
-954.0497413220229
 31
0.0
  0
LINE
  5
2BB
330
26
100
AcDbEntity
  8
1
  6
Continuous
 62
     2
100
AcDbLine
 10
13473.72130700514
 20
-893.5497413220231
 30
0.0
 11
13469.72130700514
 21
-893.5497413220231
 31
0.0
  0
LINE
  5
2BA
330
26
100
AcDbEntity
  8
1
  6
Continuous
 62
     7
100
AcDbLine
 10
13473.72130700514
 20
-954.0497413220229
 30
0.0
 11
13484.84130700515
 21
-953.606741322023
 31
0.0
  0
LINE
  5
2B9
330
26
100
AcDbEntity
  8
1
  6
Continuous
 62
     7
100
AcDbLine
 10
13473.72130700514
 20
-893.5497413220231
 30
0.0
 11
13484.84130700515
 21
-893.992741322023
 31
0.0
  0
LINE
  5
2B8
330
26
100
AcDbEntity
  8
1
  6
Continuous
 62
     2
100
AcDbLine
 10
13469.72130700514
 20
-954.0497413220229
 30
0.0
 11
13458.60130700515
 21
-953.606741322023
 31
0.0
  0
LINE
  5
2B7
330
26
100
AcDbEntity
  8
1
  6
Continuous
 62
     2
100
AcDbLine
 10
13458.60130700515
 20
-893.992741322023
 30
0.0
 11
13469.72130700514
 21
-893.5497413220231
 31
0.0
  0
LINE
  5
2B6
330
26
100
AcDbEntity
  8
1
  6
Continuous
 62
     2
100
AcDbLine
 10
13414.60598950994
 20
-872.7997413220229
 30
0.0
 11
13436.61890723202
 21
-872.7997413220229
 31
0.0
  0
LINE
  5
2B5
330
26
100
AcDbEntity
  8
1
  6
Continuous
 62
     2
100
AcDbLine
 10
13394.10598950994
 20
-881.964822504287
 30
0.0
 11
13394.10598950994
 21
-913.3012858545949
 31
0.0
  0
LINE
  5
2B4
330
26
100
AcDbEntity
  8
1
  6
Continuous
 62
     2
100
AcDbLine
 10
13435.10598950994
 20
-881.964822504287
 30
0.0
 11
13435.10598950994
 21
-883.29819678945
 31
0.0
  0
LINE
  5
2B3
330
26
100
AcDbEntity
  8
1
  6
Continuous
 62
     2
100
AcDbLine
 10
13392.59307178787
 20
-872.7997413220229
 30
0.0
 11
13414.60598950994
 21
-872.7997413220229
 31
0.0
  0
LINE
  5
2B2
330
26
100
AcDbEntity
  8
1
  6
Continuous
 62
     2
100
AcDbLine
 10
13392.59307178787
 20
-872.7997413220229
 30
0.0
 11
13392.59307178787
 21
-877.799741322023
 31
0.0
  0
LINE
  5
2B1
330
26
100
AcDbEntity
  8
1
  6
Continuous
 62
     2
100
AcDbLine
 10
13436.61890723202
 20
-872.7997413220229
 30
0.0
 11
13436.61890723202
 21
-877.799741322023
 31
0.0
  0
LINE
  5
2B0
330
26
100
AcDbEntity
  8
1
  6
Continuous
 62
     2
100
AcDbLine
 10
13392.59307178787
 20
-877.799741322023
 30
0.0
 11
13436.61890723202
 21
-877.799741322023
 31
0.0
  0
LINE
  5
2AF
330
26
100
AcDbEntity
  8
1
  6
DOT_CENTER
 62
     2
100
AcDbLine
 10
13414.60598950994
 20
-965.2404164124449
 30
0.0
 11
13414.60598950994
 21
-863.392431293083
 31
0.0
  0
LINE
  5
2AE
330
26
100
AcDbEntity
  8
1
  6
Continuous
 62
     2
100
AcDbLine
 10
13448.21648347041
 20
-958.301285854594
 30
0.0
 11
13439.10598950994
 21
-958.301285854594
 31
0.0
  0
LINE
  5
2AD
330
26
100
AcDbEntity
  8
1
  6
Continuous
 62
     2
100
AcDbLine
 10
13458.60130700515
 20
-959.801285854594
 30
0.0
 11
13458.60130700515
 21
-923.7997413220229
 31
0.0
  0
LINE
  5
2AC
330
26
100
AcDbEntity
  8
1
  6
Continuous
 62
     2
100
AcDbLine
 10
13453.60130700515
 20
-959.801285854594
 30
0.0
 11
13458.60130700515
 21
-959.801285854594
 31
0.0
  0
LINE
  5
2AB
330
26
100
AcDbEntity
  8
1
  6
Continuous
 62
     2
100
AcDbLine
 10
13453.60130700515
 20
-887.79819678945
 30
0.0
 11
13458.60130700515
 21
-887.79819678945
 31
0.0
  0
LINE
  5
2AA
330
26
100
AcDbEntity
  8
1
  6
Continuous
 62
     2
100
AcDbLine
 10
13453.60130700515
 20
-958.301285854594
 30
0.0
 11
13453.60130700515
 21
-889.2981967894501
 31
0.0
  0
LINE
  5
2A9
330
26
100
AcDbEntity
  8
1
  6
Continuous
 62
     2
100
AcDbLine
 10
13453.60130700515
 20
-889.2981967894501
 30
0.0
 11
13453.60130700515
 21
-887.79819678945
 31
0.0
  0
LINE
  5
2A8
330
26
100
AcDbEntity
  8
1
  6
Continuous
 62
     2
100
AcDbLine
 10
13453.60130700515
 20
-958.301285854594
 30
0.0
 11
13453.60130700515
 21
-959.801285854594
 31
0.0
  0
LINE
  5
2A7
330
26
100
AcDbEntity
  8
1
  6
Continuous
 62
     2
100
AcDbLine
 10
13458.60130700515
 20
-923.7997413220229
 30
0.0
 11
13458.60130700515
 21
-887.79819678945
 31
0.0
  0
LINE
  5
2A6
330
26
100
AcDbEntity
  8
1
  6
Continuous
 62
     2
100
AcDbLine
 10
13448.21648347041
 20
-889.2981967894501
 30
0.0
 11
13441.10598950994
 21
-889.2981967894501
 31
0.0
  0
LINE
  5
2A5
330
26
100
AcDbEntity
  8
1
  6
Continuous
 62
     2
100
AcDbLine
 10
13397.60598950994
 20
-860.339741322022
 30
0.0
 11
13431.60598950994
 21
-860.339741322022
 31
0.0
  0
LINE
  5
2A4
330
26
100
AcDbEntity
  8
1
  6
Continuous
 62
     2
100
AcDbLine
 10
13431.60598950994
 20
-864.0397413220229
 30
0.0
 11
13397.60598950994
 21
-864.0397413220229
 31
0.0
  0
LINE
  5
2A3
330
26
100
AcDbEntity
  8
1
  6
Continuous
 62
     2
100
AcDbLine
 10
13397.60598950994
 20
-860.339741322022
 30
0.0
 11
13397.60598950994
 21
-864.0397413220229
 31
0.0
  0
LINE
  5
2A2
330
26
100
AcDbEntity
  8
1
  6
Continuous
 62
     2
100
AcDbLine
 10
13431.60598950994
 20
-864.0397413220229
 30
0.0
 11
13431.60598950994
 21
-860.339741322022
 31
0.0
  0
LINE
  5
2A1
330
26
100
AcDbEntity
  8
1
  6
Continuous
 62
     2
100
AcDbLine
 10
13397.60598950994
 20
-860.339741322022
 30
0.0
 11
13397.98148950994
 21
-851.579741322023
 31
0.0
  0
LINE
  5
2A0
330
26
100
AcDbEntity
  8
1
  6
Continuous
 62
     2
100
AcDbLine
 10
13397.60598950994
 20
-864.0397413220229
 30
0.0
 11
13397.98148950994
 21
-872.7997413220229
 31
0.0
  0
LINE
  5
29F
330
26
100
AcDbEntity
  8
1
  6
Continuous
 62
     2
100
AcDbLine
 10
13431.23048950994
 20
-872.7997413220229
 30
0.0
 11
13431.60598950994
 21
-864.0397413220229
 31
0.0
  0
LINE
  5
29E
330
26
100
AcDbEntity
  8
1
  6
Continuous
 62
     2
100
AcDbLine
 10
13431.23048950994
 20
-851.579741322023
 30
0.0
 11
13431.60598950994
 21
-860.339741322022
 31
0.0
  0
LINE
  5
29D
330
26
100
AcDbEntity
  8
1
  6
DOT_CENTER
 62
     2
100
AcDbLine
 10
13365.32728267392
 20
-796.5797413220229
 30
0.0
 11
13466.02315689217
 21
-796.5797413220229
 31
0.0
  0
LINE
  5
29C
330
26
100
AcDbEntity
  8
1
  6
Continuous
 62
     2
100
AcDbLine
 10
13449.74790394495
 20
-825.579741322023
 30
0.0
 11
13449.74790394495
 21
-833.579741322023
 31
0.0
  0
LINE
  5
29B
330
26
100
AcDbEntity
  8
1
  6
Continuous
 62
     2
100
AcDbLine
 10
13379.74790394495
 20
-825.579741322023
 30
0.0
 11
13379.74790394495
 21
-833.579741322023
 31
0.0
  0
LINE
  5
29A
330
26
100
AcDbEntity
  8
1
  6
Continuous
 62
     2
100
AcDbLine
 10
13437.74790394495
 20
-709.079069983439
 30
0.0
 11
13437.74790394495
 21
-751.502391052833
 31
0.0
  0
LINE
  5
299
330
26
100
AcDbEntity
  8
1
  6
Continuous
 62
     2
100
AcDbLine
 10
13435.74790394495
 20
-709.079069983439
 30
0.0
 11
13435.74790394495
 21
-751.0797413220229
 31
0.0
  0
LINE
  5
298
330
26
100
AcDbEntity
  8
1
  6
Continuous
 62
     2
100
AcDbLine
 10
13423.08123727829
 20
-709.079069983439
 30
0.0
 11
13423.08123727829
 21
-751.0797413220229
 31
0.0
  0
LINE
  5
297
330
26
100
AcDbEntity
  8
1
  6
Continuous
 62
     2
100
AcDbLine
 10
13421.08123727829
 20
-709.079069983439
 30
0.0
 11
13421.08123727829
 21
-751.0797413220229
 31
0.0
  0
LINE
  5
296
330
26
100
AcDbEntity
  8
1
  6
Continuous
 62
     2
100
AcDbLine
 10
13408.41457061162
 20
-709.079069983439
 30
0.0
 11
13408.41457061162
 21
-751.0797413220229
 31
0.0
  0
LINE
  5
295
330
26
100
AcDbEntity
  8
1
  6
Continuous
 62
     2
100
AcDbLine
 10
13406.41457061162
 20
-709.079069983439
 30
0.0
 11
13406.41457061162
 21
-751.0797413220229
 31
0.0
  0
LINE
  5
294
330
26
100
AcDbEntity
  8
1
  6
Continuous
 62
     2
100
AcDbLine
 10
13393.74790394495
 20
-709.079069983439
 30
0.0
 11
13393.74790394495
 21
-751.0797413220229
 31
0.0
  0
LINE
  5
293
330
26
100
AcDbEntity
  8
1
  6
Continuous
 62
     2
100
AcDbLine
 10
13391.74790394495
 20
-709.079069983439
 30
0.0
 11
13391.74790394495
 21
-751.502391052833
 31
0.0
  0
LINE
  5
292
330
26
100
AcDbEntity
  8
1
  6
DOT_CENTER
 62
     2
100
AcDbLine
 10
11192.096009388
 20
-796.579741322022
 30
0.0
 11
11250.84440012518
 21
-796.579741322022
 31
0.0
  0
LINE
  5
291
330
26
100
AcDbEntity
  8
1
  6
Continuous
 62
     2
100
AcDbLine
 10
11189.45427666282
 20
-695.0797413220219
 30
0.0
 11
11192.45427666282
 21
-696.8117921295919
 31
0.0
  0
LINE
  5
290
330
26
100
AcDbEntity
  8
1
  6
Continuous
 62
     2
100
AcDbLine
 10
11192.45427666282
 20
-696.8117921295919
 30
0.0
 11
11192.45427666282
 21
-703.0797413220219
 31
0.0
  0
LINE
  5
28F
330
26
100
AcDbEntity
  8
1
  6
Continuous
 62
     2
100
AcDbLine
 10
11192.45427666282
 20
-703.0797413220219
 30
0.0
 11
11155.45427666282
 21
-703.0797413220219
 31
0.0
  0
LINE
  5
28E
330
26
100
AcDbEntity
  8
1
  6
Continuous
 62
     2
100
AcDbLine
 10
11155.45427666282
 20
-703.0797413220219
 30
0.0
 11
11155.45427666282
 21
-696.8117921295919
 31
0.0
  0
LINE
  5
28D
330
26
100
AcDbEntity
  8
1
  6
Continuous
 62
     2
100
AcDbLine
 10
11155.45427666282
 20
-696.8117921295919
 30
0.0
 11
11158.45427666282
 21
-695.0797413220219
 31
0.0
  0
LINE
  5
28C
330
26
100
AcDbEntity
  8
1
  6
Continuous
 62
     2
100
AcDbLine
 10
11158.45427666282
 20
-695.0797413220219
 30
0.0
 11
11189.45427666282
 21
-695.0797413220219
 31
0.0
  0
LINE
  5
28B
330
26
100
AcDbEntity
  8
1
  6
Continuous
 62
     2
100
AcDbLine
 10
11188.95427666282
 20
-686.5797413220221
 30
0.0
 11
11188.95427666282
 21
-695.0900401966729
 31
0.0
  0
LINE
  5
28A
330
26
100
AcDbEntity
  8
1
  6
Continuous
 62
     2
100
AcDbLine
 10
11158.95427666282
 20
-686.5797413220221
 30
0.0
 11
11158.95427666282
 21
-695.0797413220219
 31
0.0
  0
LINE
  5
289
330
26
100
AcDbEntity
  8
1
  6
Continuous
 62
     2
100
AcDbLine
 10
11183.20427666282
 20
-696.8117921295919
 30
0.0
 11
11183.20427666282
 21
-703.0797413220219
 31
0.0
  0
LINE
  5
288
330
26
100
AcDbEntity
  8
1
  6
Continuous
 62
     2
100
AcDbLine
 10
11164.70427666282
 20
-696.8117921295919
 30
0.0
 11
11164.70427666282
 21
-703.0797413220219
 31
0.0
  0
LINE
  5
287
330
26
100
AcDbEntity
  8
1
  6
Continuous
 62
     2
100
AcDbLine
 10
11193.95427666282
 20
-704.0797413220219
 30
0.0
 11
11193.95427666282
 21
-706.0797413220219
 31
0.0
  0
LINE
  5
286
330
26
100
AcDbEntity
  8
1
  6
Continuous
 62
     2
100
AcDbLine
 10
11154.95427666282
 20
-703.0797413220219
 30
0.0
 11
11192.95427666282
 21
-703.0797413220219
 31
0.0
  0
LINE
  5
285
330
26
100
AcDbEntity
  8
1
  6
Continuous
 62
     2
100
AcDbLine
 10
11153.95427666282
 20
-704.0797413220219
 30
0.0
 11
11153.95427666282
 21
-706.0797413220219
 31
0.0
  0
LINE
  5
284
330
26
100
AcDbEntity
  8
1
  6
Continuous
 62
     2
100
AcDbLine
 10
11200.45427666282
 20
-754.677817533377
 30
0.0
 11
11200.45427666282
 21
-762.0797413220219
 31
0.0
  0
LINE
  5
283
330
26
100
AcDbEntity
  8
1
  6
Continuous
 62
     2
100
AcDbLine
 10
11200.45427666282
 20
-762.0797413220219
 30
0.0
 11
11147.45427666282
 21
-762.0797413220219
 31
0.0
  0
LINE
  5
282
330
26
100
AcDbEntity
  8
1
  6
Continuous
 62
     2
100
AcDbLine
 10
11147.45427666282
 20
-762.0797413220219
 30
0.0
 11
11147.45427666282
 21
-754.677817533377
 31
0.0
  0
LINE
  5
281
330
26
100
AcDbEntity
  8
1
  6
Continuous
 62
     2
100
AcDbLine
 10
11187.20427666282
 20
-754.677817533377
 30
0.0
 11
11187.20427666282
 21
-762.0797413220219
 31
0.0
  0
LINE
  5
280
330
26
100
AcDbEntity
  8
1
  6
Continuous
 62
     2
100
AcDbLine
 10
11160.70427666282
 20
-754.677817533377
 30
0.0
 11
11160.70427666282
 21
-762.0797413220219
 31
0.0
  0
LINE
  5
27F
330
26
100
AcDbEntity
  8
1
  6
Continuous
 62
     2
100
AcDbLine
 10
11148.95427666282
 20
-753.8117921295919
 30
0.0
 11
11148.95427666282
 21
-710.0797413220219
 31
0.0
  0
LINE
  5
27E
330
26
100
AcDbEntity
  8
1
  6
Continuous
 62
     2
100
AcDbLine
 10
11198.95427666282
 20
-753.8117921295919
 30
0.0
 11
11198.95427666282
 21
-710.0797413220219
 31
0.0
  0
LINE
  5
27D
330
26
100
AcDbEntity
  8
1
  6
Continuous
 62
     2
100
AcDbLine
 10
11150.95427666282
 20
-708.0797413220219
 30
0.0
 11
11151.95427666282
 21
-708.0797413220219
 31
0.0
  0
LINE
  5
27C
330
26
100
AcDbEntity
  8
1
  6
Continuous
 62
     2
100
AcDbLine
 10
11196.95427666282
 20
-708.0797413220219
 30
0.0
 11
11195.95427666282
 21
-708.0797413220219
 31
0.0
  0
LINE
  5
27B
330
26
100
AcDbEntity
  8
1
  6
Continuous
 62
     2
100
AcDbLine
 10
11151.95427666282
 20
-708.0797413220219
 30
0.0
 11
11153.95427666282
 21
-708.0797413220219
 31
0.0
  0
LINE
  5
27A
330
26
100
AcDbEntity
  8
1
  6
Continuous
 62
     2
100
AcDbLine
 10
11193.95427666282
 20
-708.0797413220219
 30
0.0
 11
11153.95427666282
 21
-708.0797413220219
 31
0.0
  0
LINE
  5
279
330
26
100
AcDbEntity
  8
1
  6
Continuous
 62
     2
100
AcDbLine
 10
11195.95427666282
 20
-708.0797413220219
 30
0.0
 11
11193.95427666282
 21
-708.0797413220219
 31
0.0
  0
LINE
  5
278
330
26
100
AcDbEntity
  8
1
  6
Continuous
 62
     2
100
AcDbLine
 10
11195.95427666282
 20
-752.0797413220219
 30
0.0
 11
11200.45427666282
 21
-754.677817533377
 31
0.0
  0
LINE
  5
277
330
26
100
AcDbEntity
  8
1
  6
Continuous
 62
     2
100
AcDbLine
 10
11195.95427666282
 20
-752.0797413220219
 30
0.0
 11
11151.95427666282
 21
-752.0797413220219
 31
0.0
  0
LINE
  5
276
330
26
100
AcDbEntity
  8
1
  6
Continuous
 62
     2
100
AcDbLine
 10
11151.95427666282
 20
-752.0797413220219
 30
0.0
 11
11147.45427666282
 21
-754.677817533377
 31
0.0
  0
LINE
  5
275
330
26
100
AcDbEntity
  8
1
  6
Continuous
 62
     2
100
AcDbLine
 10
11147.45427666282
 20
-762.0797413220219
 30
0.0
 11
11138.95427666282
 21
-762.0797413220219
 31
0.0
  0
LINE
  5
274
330
26
100
AcDbEntity
  8
1
  6
Continuous
 62
     2
100
AcDbLine
 10
11133.95427666282
 20
-767.079741322022
 30
0.0
 11
11133.95427666282
 21
-820.5797413220219
 31
0.0
  0
LINE
  5
273
330
26
100
AcDbEntity
  8
1
  6
Continuous
 62
     2
100
AcDbLine
 10
11213.95427666282
 20
-825.579741322022
 30
0.0
 11
11138.95427666282
 21
-825.579741322022
 31
0.0
  0
LINE
  5
272
330
26
100
AcDbEntity
  8
1
  6
Continuous
 62
     2
100
AcDbLine
 10
11213.95427666282
 20
-825.579741322022
 30
0.0
 11
11213.95427666282
 21
-825.0797413220219
 31
0.0
  0
LINE
  5
271
330
26
100
AcDbEntity
  8
1
  6
Continuous
 62
     2
100
AcDbLine
 10
11214.95427666282
 20
-824.0797413220219
 30
0.0
 11
11219.95427666282
 21
-824.0797413220219
 31
0.0
  0
LINE
  5
270
330
26
100
AcDbEntity
  8
1
  6
Continuous
 62
     2
100
AcDbLine
 10
11220.95427666282
 20
-825.579741322022
 30
0.0
 11
11220.95427666282
 21
-825.0797413220219
 31
0.0
  0
LINE
  5
26F
330
26
100
AcDbEntity
  8
1
  6
Continuous
 62
     2
100
AcDbLine
 10
11220.95427666282
 20
-825.579741322022
 30
0.0
 11
11225.95427666282
 21
-825.579741322022
 31
0.0
  0
LINE
  5
26E
330
26
100
AcDbEntity
  8
1
  6
Continuous
 62
     2
100
AcDbLine
 10
11225.95427666282
 20
-825.579741322022
 30
0.0
 11
11225.95427666282
 21
-767.579741322022
 31
0.0
  0
LINE
  5
26D
330
26
100
AcDbEntity
  8
1
  6
Continuous
 62
     2
100
AcDbLine
 10
11225.95427666282
 20
-767.579741322022
 30
0.0
 11
11220.95427666282
 21
-767.579741322022
 31
0.0
  0
LINE
  5
26C
330
26
100
AcDbEntity
  8
1
  6
Continuous
 62
     2
100
AcDbLine
 10
11220.95427666282
 20
-767.579741322022
 30
0.0
 11
11220.95427666282
 21
-768.0797413220219
 31
0.0
  0
LINE
  5
26B
330
26
100
AcDbEntity
  8
1
  6
Continuous
 62
     2
100
AcDbLine
 10
11214.95427666282
 20
-769.0797413220219
 30
0.0
 11
11219.95427666282
 21
-769.0797413220219
 31
0.0
  0
LINE
  5
26A
330
26
100
AcDbEntity
  8
1
  6
Continuous
 62
     2
100
AcDbLine
 10
11213.95427666282
 20
-767.079741322022
 30
0.0
 11
11213.95427666282
 21
-768.0797413220219
 31
0.0
  0
LINE
  5
269
330
26
100
AcDbEntity
  8
1
  6
Continuous
 62
     2
100
AcDbLine
 10
11200.45427666282
 20
-762.0797413220219
 30
0.0
 11
11208.95427666282
 21
-762.0797413220219
 31
0.0
  0
LINE
  5
268
330
26
100
AcDbEntity
  8
1
  6
Continuous
 62
     2
100
AcDbLine
 10
11194.95427666282
 20
-851.5797413220219
 30
0.0
 11
11152.95427666282
 21
-851.5797413220219
 31
0.0
  0
LINE
  5
267
330
26
100
AcDbEntity
  8
1
  6
Continuous
 62
     2
100
AcDbLine
 10
11208.95427666282
 20
-825.579741322022
 30
0.0
 11
11138.95427666282
 21
-825.579741322022
 31
0.0
  0
LINE
  5
266
330
26
100
AcDbEntity
  8
1
  6
Continuous
 62
     2
100
AcDbLine
 10
11204.45427666282
 20
-836.5797413220219
 30
0.0
 11
11143.45427666282
 21
-836.5797413220219
 31
0.0
  0
LINE
  5
265
330
26
100
AcDbEntity
  8
1
  6
Continuous
 62
     2
100
AcDbLine
 10
11143.45427666282
 20
-836.5797413220219
 30
0.0
 11
11143.45427666282
 21
-849.270340245263
 31
0.0
  0
LINE
  5
264
330
26
100
AcDbEntity
  8
1
  6
Continuous
 62
     2
100
AcDbLine
 10
11205.95427666282
 20
-836.5797413220219
 30
0.0
 11
11141.95427666282
 21
-836.5797413220219
 31
0.0
  0
LINE
  5
263
330
26
100
AcDbEntity
  8
1
  6
Continuous
 62
     2
100
AcDbLine
 10
11208.95427666282
 20
-825.579741322022
 30
0.0
 11
11138.95427666282
 21
-825.579741322022
 31
0.0
  0
LINE
  5
262
330
26
100
AcDbEntity
  8
1
  6
Continuous
 62
     2
100
AcDbLine
 10
11147.45427666282
 20
-851.5797413220219
 30
0.0
 11
11200.45427666282
 21
-851.5797413220219
 31
0.0
  0
LINE
  5
261
330
26
100
AcDbEntity
  8
1
  6
Continuous
 62
     2
100
AcDbLine
 10
11204.45427666282
 20
-849.270340245263
 30
0.0
 11
11204.45427666282
 21
-836.5797413220219
 31
0.0
  0
LINE
  5
260
330
26
100
AcDbEntity
  8
1
  6
Continuous
 62
     2
100
AcDbLine
 10
11204.45427666282
 20
-849.270340245263
 30
0.0
 11
11200.45427666282
 21
-851.5797413220219
 31
0.0
  0
LINE
  5
25F
330
26
100
AcDbEntity
  8
1
  6
Continuous
 62
     2
100
AcDbLine
 10
11143.45427666282
 20
-849.270340245263
 30
0.0
 11
11147.45427666282
 21
-851.5797413220219
 31
0.0
  0
LINE
  5
25E
330
26
100
AcDbEntity
  8
1
  6
Continuous
 62
     2
100
AcDbLine
 10
11189.20427666282
 20
-849.270340245263
 30
0.0
 11
11189.20427666282
 21
-836.5797413220219
 31
0.0
  0
LINE
  5
25D
330
26
100
AcDbEntity
  8
1
  6
Continuous
 62
     2
100
AcDbLine
 10
11158.70427666282
 20
-849.270340245263
 30
0.0
 11
11158.70427666282
 21
-836.5797413220219
 31
0.0
  0
LINE
  5
25C
330
26
100
AcDbEntity
  8
1
  6
Continuous
 62
     2
100
AcDbLine
 10
11220.95427666282
 20
-768.220986329993
 30
0.0
 11
11220.95427666282
 21
-825.579741322022
 31
0.0
  0
LINE
  5
25B
330
26
100
AcDbEntity
  8
1
  6
Continuous
 62
     2
100
AcDbLine
 10
11190.5787766628
 20
-851.5797413220219
 30
0.0
 11
11190.95427666282
 21
-860.339741322022
 31
0.0
  0
LINE
  5
25A
330
26
100
AcDbEntity
  8
1
  6
Continuous
 62
     2
100
AcDbLine
 10
11190.5787766628
 20
-872.7997413220229
 30
0.0
 11
11190.95427666282
 21
-864.0397413220229
 31
0.0
  0
LINE
  5
259
330
26
100
AcDbEntity
  8
1
  6
Continuous
 62
     2
100
AcDbLine
 10
11156.95427666282
 20
-864.0397413220229
 30
0.0
 11
11157.3297766628
 21
-872.7997413220229
 31
0.0
  0
LINE
  5
258
330
26
100
AcDbEntity
  8
1
  6
Continuous
 62
     2
100
AcDbLine
 10
11156.95427666282
 20
-860.339741322022
 30
0.0
 11
11157.3297766628
 21
-851.5797413220219
 31
0.0
  0
LINE
  5
257
330
26
100
AcDbEntity
  8
1
  6
Continuous
 62
     2
100
AcDbLine
 10
11190.95427666282
 20
-864.0397413220229
 30
0.0
 11
11190.95427666282
 21
-860.339741322022
 31
0.0
  0
LINE
  5
256
330
26
100
AcDbEntity
  8
1
  6
Continuous
 62
     2
100
AcDbLine
 10
11156.95427666282
 20
-860.339741322022
 30
0.0
 11
11156.95427666282
 21
-864.0397413220229
 31
0.0
  0
LINE
  5
255
330
26
100
AcDbEntity
  8
1
  6
Continuous
 62
     2
100
AcDbLine
 10
11190.95427666282
 20
-864.0397413220229
 30
0.0
 11
11156.95427666282
 21
-864.0397413220229
 31
0.0
  0
LINE
  5
254
330
26
100
AcDbEntity
  8
1
  6
Continuous
 62
     2
100
AcDbLine
 10
11156.95427666282
 20
-860.339741322022
 30
0.0
 11
11190.95427666282
 21
-860.339741322022
 31
0.0
  0
LINE
  5
253
330
26
100
AcDbEntity
  8
1
  6
Continuous
 62
     2
100
AcDbLine
 10
11151.94135894074
 20
-877.799741322023
 30
0.0
 11
11195.96719438489
 21
-877.799741322023
 31
0.0
  0
LINE
  5
252
330
26
100
AcDbEntity
  8
1
  6
Continuous
 62
     2
100
AcDbLine
 10
11195.96719438489
 20
-872.7997413220229
 30
0.0
 11
11195.96719438489
 21
-877.799741322023
 31
0.0
  0
LINE
  5
251
330
26
100
AcDbEntity
  8
1
  6
Continuous
 62
     2
100
AcDbLine
 10
11151.94135894074
 20
-872.7997413220229
 30
0.0
 11
11151.94135894074
 21
-877.799741322023
 31
0.0
  0
LINE
  5
250
330
26
100
AcDbEntity
  8
1
  6
Continuous
 62
     2
100
AcDbLine
 10
11151.94135894074
 20
-872.7997413220229
 30
0.0
 11
11173.95427666282
 21
-872.7997413220229
 31
0.0
  0
LINE
  5
24F
330
26
100
AcDbEntity
  8
1
  6
Continuous
 62
     2
100
AcDbLine
 10
11173.95427666282
 20
-872.7997413220229
 30
0.0
 11
11195.96719438489
 21
-872.7997413220229
 31
0.0
  0
LINE
  5
24E
330
26
100
AcDbEntity
  8
1
  6
Continuous
 62
     2
100
AcDbLine
 10
11195.09619109782
 20
-851.5797413220219
 30
0.0
 11
11153.09619109782
 21
-851.5797413220219
 31
0.0
  0
LINE
  5
24D
330
26
100
AcDbEntity
  8
1
  6
Continuous
 62
     2
100
AcDbLine
 10
11147.59619109782
 20
-851.5797413220219
 30
0.0
 11
11200.59619109782
 21
-851.5797413220219
 31
0.0
  0
LINE
  5
24C
330
26
100
AcDbEntity
  8
1
  6
Continuous
 62
     2
100
AcDbLine
 10
11204.59619109782
 20
-849.270340245263
 30
0.0
 11
11200.59619109782
 21
-851.5797413220219
 31
0.0
  0
LINE
  5
24B
330
26
100
AcDbEntity
  8
1
  6
Continuous
 62
     2
100
AcDbLine
 10
11143.59619109782
 20
-849.270340245263
 30
0.0
 11
11147.59619109782
 21
-851.5797413220219
 31
0.0
  0
LINE
  5
24A
330
26
100
AcDbEntity
  8
1
  6
Continuous
 62
     2
100
AcDbLine
 10
11153.45427666282
 20
-881.9648225042861
 30
0.0
 11
11153.45427666282
 21
-883.6724532615621
 31
0.0
  0
LINE
  5
249
330
26
100
AcDbEntity
  8
1
  6
Continuous
 62
     2
100
AcDbLine
 10
11194.45427666282
 20
-881.9648225042861
 30
0.0
 11
11194.45427666282
 21
-883.2981967894509
 31
0.0
  0
LINE
  5
248
330
26
100
AcDbEntity
  8
1
  6
Continuous
 62
     2
100
AcDbLine
 10
11194.45427666282
 20
-883.6724532615621
 30
0.0
 11
11194.45427666282
 21
-881.9648225042861
 31
0.0
  0
LINE
  5
247
330
26
100
AcDbEntity
  8
1
  6
Continuous
 62
     2
100
AcDbLine
 10
11208.95427666282
 20
-825.579741322022
 30
0.0
 11
11208.95427666282
 21
-833.579741322022
 31
0.0
  0
LINE
  5
246
330
26
100
AcDbEntity
  8
1
  6
Continuous
 62
     2
100
AcDbLine
 10
11138.95427666282
 20
-825.579741322022
 30
0.0
 11
11138.95427666282
 21
-833.579741322022
 31
0.0
  0
LINE
  5
245
330
26
100
AcDbEntity
  8
1
  6
Continuous
 62
     2
100
AcDbLine
 10
11196.95427666282
 20
-709.079741322022
 30
0.0
 11
11196.95427666282
 21
-751.502391052832
 31
0.0
  0
LINE
  5
244
330
26
100
AcDbEntity
  8
1
  6
Continuous
 62
     2
100
AcDbLine
 10
11194.95427666282
 20
-709.079741322022
 30
0.0
 11
11194.95427666282
 21
-751.0797413220219
 31
0.0
  0
LINE
  5
243
330
26
100
AcDbEntity
  8
1
  6
Continuous
 62
     2
100
AcDbLine
 10
11182.28760999615
 20
-709.079741322022
 30
0.0
 11
11182.28760999615
 21
-751.0797413220219
 31
0.0
  0
LINE
  5
242
330
26
100
AcDbEntity
  8
1
  6
Continuous
 62
     2
100
AcDbLine
 10
11180.28760999615
 20
-709.079741322022
 30
0.0
 11
11180.28760999615
 21
-751.0797413220219
 31
0.0
  0
LINE
  5
241
330
26
100
AcDbEntity
  8
1
  6
Continuous
 62
     2
100
AcDbLine
 10
11167.62094332948
 20
-709.079741322022
 30
0.0
 11
11167.62094332948
 21
-751.0797413220219
 31
0.0
  0
LINE
  5
240
330
26
100
AcDbEntity
  8
1
  6
Continuous
 62
     2
100
AcDbLine
 10
11165.62094332948
 20
-709.079741322022
 30
0.0
 11
11165.62094332948
 21
-751.0797413220219
 31
0.0
  0
LINE
  5
23F
330
26
100
AcDbEntity
  8
1
  6
Continuous
 62
     2
100
AcDbLine
 10
11152.95427666282
 20
-709.079741322022
 30
0.0
 11
11152.95427666282
 21
-751.0797413220219
 31
0.0
  0
LINE
  5
23E
330
26
100
AcDbEntity
  8
1
  6
Continuous
 62
     2
100
AcDbLine
 10
11150.95427666282
 20
-709.079741322022
 30
0.0
 11
11150.95427666282
 21
-751.502391052832
 31
0.0
  0
LINE
  5
23D
330
26
100
AcDbEntity
  8
1
  6
Continuous
 62
     7
100
AcDbLine
 10
13504.84130700514
 20
-147.7997413220229
 30
0.0
 11
13504.84130700514
 21
-127.573966492169
 31
0.0
  0
LINE
  5
23C
330
26
100
AcDbEntity
  8
1
  6
Continuous
 62
     7
100
AcDbLine
 10
13716.26615391208
 20
-2119.094903873894
 30
0.0
 11
13715.3968625607
 21
-2118.668415547937
 31
0.0
  0
LINE
  5
23B
330
26
100
AcDbEntity
  8
1
  6
DOTTED
 62
     2
100
AcDbLine
 10
11160.75427666281
 20
-2224.674769695292
 30
0.0
 11
11160.75427666281
 21
-2223.703894684741
 31
0.0
  0
LINE
  5
23A
330
26
100
AcDbEntity
  8
1
  6
DOTTED
 62
     2
100
AcDbLine
 10
11187.15427666281
 20
-2224.674769695292
 30
0.0
 11
11187.15427666281
 21
-2223.703894684741
 31
0.0
  0
LINE
  5
239
330
26
100
AcDbEntity
  8
1
  6
Continuous
 62
     2
100
AcDbLine
 10
11160.75427666281
 20
-2233.799741322022
 30
0.0
 11
11160.75427666281
 21
-2224.674769695292
 31
0.0
  0
LINE
  5
238
330
26
100
AcDbEntity
  8
1
  6
Continuous
 62
     2
100
AcDbLine
 10
11187.15427666281
 20
-2233.799741322022
 30
0.0
 11
11187.15427666281
 21
-2224.674769695292
 31
0.0
  0
LINE
  5
237
330
26
100
AcDbEntity
  8
1
  6
Continuous
 62
     2
100
AcDbLine
 10
11160.75427666281
 20
-2233.799741322022
 30
0.0
 11
11187.15427666281
 21
-2233.799741322022
 31
0.0
  0
LINE
  5
236
330
26
100
AcDbEntity
  8
1
  6
Continuous
 62
     2
100
AcDbLine
 10
11163.47677666281
 20
-2251.479741322022
 30
0.0
 11
11163.10427666281
 21
-2244.139741322022
 31
0.0
  0
LINE
  5
235
330
26
100
AcDbEntity
  8
1
  6
Continuous
 62
     2
100
AcDbLine
 10
11184.43177666281
 20
-2251.479741322022
 30
0.0
 11
11184.80427666281
 21
-2244.139741322022
 31
0.0
  0
LINE
  5
234
330
26
100
AcDbEntity
  8
1
  6
Continuous
 62
     2
100
AcDbLine
 10
11184.80427666281
 20
-2241.139741322022
 30
0.0
 11
11184.43177666281
 21
-2233.799741322022
 31
0.0
  0
LINE
  5
233
330
26
100
AcDbEntity
  8
1
  6
Continuous
 62
     2
100
AcDbLine
 10
11163.10427666281
 20
-2241.139741322022
 30
0.0
 11
11163.47677666281
 21
-2233.799741322022
 31
0.0
  0
LINE
  5
232
330
26
100
AcDbEntity
  8
1
  6
Continuous
 62
     2
100
AcDbLine
 10
11163.10427666281
 20
-2241.139741322022
 30
0.0
 11
11163.10427666281
 21
-2244.139741322022
 31
0.0
  0
LINE
  5
231
330
26
100
AcDbEntity
  8
1
  6
Continuous
 62
     2
100
AcDbLine
 10
11184.80427666281
 20
-2244.139741322022
 30
0.0
 11
11163.10427666281
 21
-2244.139741322022
 31
0.0
  0
LINE
  5
230
330
26
100
AcDbEntity
  8
1
  6
Continuous
 62
     2
100
AcDbLine
 10
11163.10427666281
 20
-2241.139741322022
 30
0.0
 11
11184.80427666281
 21
-2241.139741322022
 31
0.0
  0
LINE
  5
22F
330
26
100
AcDbEntity
  8
1
  6
Continuous
 62
     2
100
AcDbLine
 10
11184.80427666281
 20
-2241.139741322022
 30
0.0
 11
11184.80427666281
 21
-2244.139741322022
 31
0.0
  0
LINE
  5
22E
330
26
100
AcDbEntity
  8
1
  6
Continuous
 62
     2
100
AcDbLine
 10
11162.58803339255
 20
-2283.029741322022
 30
0.0
 11
11183.85427666281
 21
-2283.029741322022
 31
0.0
  0
LINE
  5
22D
330
26
100
AcDbEntity
  8
1
  6
Continuous
 62
     2
100
AcDbLine
 10
11162.58803339255
 20
-2272.029741322022
 30
0.0
 11
11183.85427666281
 21
-2272.029741322022
 31
0.0
  0
LINE
  5
22C
330
26
100
AcDbEntity
  8
1
  6
Continuous
 62
     2
100
AcDbLine
 10
11184.85427666281
 20
-2284.429741322021
 30
0.0
 11
11183.85427666281
 21
-2283.029741322022
 31
0.0
  0
LINE
  5
22B
330
26
100
AcDbEntity
  8
1
  6
Continuous
 62
     2
100
AcDbLine
 10
11184.85427666281
 20
-2270.629741322021
 30
0.0
 11
11183.85427666281
 21
-2272.029741322022
 31
0.0
  0
LINE
  5
22A
330
26
100
AcDbEntity
  8
1
  6
Continuous
 62
     2
100
AcDbLine
 10
11162.58803339255
 20
-2272.029741322022
 30
0.0
 11
11162.58803339255
 21
-2283.029741322022
 31
0.0
  0
LINE
  5
229
330
26
100
AcDbEntity
  8
1
  6
Continuous
 62
     2
100
AcDbLine
 10
11161.45427666282
 20
-2284.429741322021
 30
0.0
 11
11162.58803339255
 21
-2283.029741322022
 31
0.0
  0
LINE
  5
228
330
26
100
AcDbEntity
  8
1
  6
Continuous
 62
     2
100
AcDbLine
 10
11161.45427666282
 20
-2270.629741322021
 30
0.0
 11
11162.58803339255
 21
-2272.029741322022
 31
0.0
  0
LINE
  5
227
330
26
100
AcDbEntity
  8
1
  6
Continuous
 62
     2
100
AcDbLine
 10
11184.85427666281
 20
-2298.17224040381
 30
0.0
 11
11184.85427666281
 21
-2283.979741322021
 31
0.0
  0
LINE
  5
226
330
26
100
AcDbEntity
  8
1
  6
Continuous
 62
     2
100
AcDbLine
 10
11184.85427666281
 20
-2261.287242240235
 30
0.0
 11
11184.85427666281
 21
-2273.479741322021
 31
0.0
  0
LINE
  5
225
330
26
100
AcDbEntity
  8
1
  6
Continuous
 62
     2
100
AcDbLine
 10
11186.45427666282
 20
-2285.479741322022
 30
0.0
 11
11188.05427666281
 21
-2285.479741322022
 31
0.0
  0
LINE
  5
224
330
26
100
AcDbEntity
  8
1
  6
Continuous
 62
     2
100
AcDbLine
 10
11186.45427666282
 20
-2272.479741322023
 30
0.0
 11
11188.05427666281
 21
-2272.479741322023
 31
0.0
  0
LINE
  5
223
330
26
100
AcDbEntity
  8
1
  6
Continuous
 62
     2
100
AcDbLine
 10
11192.48292531146
 20
-2291.379741322021
 30
0.0
 11
11188.05427666281
 21
-2291.379741322021
 31
0.0
  0
LINE
  5
222
330
26
100
AcDbEntity
  8
1
  6
Continuous
 62
     2
100
AcDbLine
 10
11196.95427666282
 20
-2308.979741322022
 30
0.0
 11
11192.25427666281
 21
-2290.479741322022
 31
0.0
  0
LINE
  5
221
330
26
100
AcDbEntity
  8
1
  6
Continuous
 62
     2
100
AcDbLine
 10
11196.95427666282
 20
-2308.979741322022
 30
0.0
 11
11204.95427666282
 21
-2308.979741322022
 31
0.0
  0
LINE
  5
220
330
26
100
AcDbEntity
  8
1
  6
Continuous
 62
     2
100
AcDbLine
 10
11204.95427666282
 20
-2290.56637154828
 30
0.0
 11
11204.95427666282
 21
-2308.979741322022
 31
0.0
  0
LINE
  5
21F
330
26
100
AcDbEntity
  8
1
  6
Continuous
 62
     2
100
AcDbLine
 10
11188.05427666281
 20
-2266.579741322023
 30
0.0
 11
11192.48292531146
 21
-2266.579741322023
 31
0.0
  0
LINE
  5
21E
330
26
100
AcDbEntity
  8
1
  6
Continuous
 62
     2
100
AcDbLine
 10
11188.05427666281
 20
-2266.079741322023
 30
0.0
 11
11192.6099523385
 21
-2266.079741322023
 31
0.0
  0
LINE
  5
21D
330
26
100
AcDbEntity
  8
1
  6
Continuous
 62
     2
100
AcDbLine
 10
11192.25427666281
 20
-2267.479741322022
 30
0.0
 11
11196.95427666282
 21
-2248.979741322022
 31
0.0
  0
LINE
  5
21C
330
26
100
AcDbEntity
  8
1
  6
Continuous
 62
     2
100
AcDbLine
 10
11196.95427666282
 20
-2248.979741322022
 30
0.0
 11
11204.95427666282
 21
-2248.979741322022
 31
0.0
  0
LINE
  5
21B
330
26
100
AcDbEntity
  8
1
  6
Continuous
 62
     2
100
AcDbLine
 10
11186.45427666282
 20
-2307.97974132202
 30
0.0
 11
11161.45427666282
 21
-2307.979741322021
 31
0.0
  0
LINE
  5
21A
330
26
100
AcDbEntity
  8
1
  6
Continuous
 62
     2
100
AcDbLine
 10
11161.45427666282
 20
-2307.979741322021
 30
0.0
 11
11161.45427666282
 21
-2251.479741322021
 31
0.0
  0
LINE
  5
219
330
26
100
AcDbEntity
  8
1
  6
Continuous
 62
     2
100
AcDbLine
 10
11161.45427666282
 20
-2251.479741322021
 30
0.0
 11
11186.45427666282
 21
-2251.479741322022
 31
0.0
  0
LINE
  5
218
330
26
100
AcDbEntity
  8
1
  6
Continuous
 62
     2
100
AcDbLine
 10
11186.45427666282
 20
-2307.97974132202
 30
0.0
 11
11186.45427666282
 21
-2251.479741322022
 31
0.0
  0
LINE
  5
217
330
26
100
AcDbEntity
  8
1
  6
Continuous
 62
     2
100
AcDbLine
 10
11204.95427666282
 20
-2248.979741322022
 30
0.0
 11
11204.95427666282
 21
-2267.393111095765
 31
0.0
  0
LINE
  5
216
330
26
100
AcDbEntity
  8
1
  6
Continuous
 62
     2
100
AcDbLine
 10
11192.25427666281
 20
-2290.479741322022
 30
0.0
 11
11192.25427666281
 21
-2267.479741322022
 31
0.0
  0
LINE
  5
215
330
26
100
AcDbEntity
  8
1
  6
Continuous
 62
     2
100
AcDbLine
 10
11188.05427666281
 20
-2291.379741322021
 30
0.0
 11
11188.05427666281
 21
-2268.979741322022
 31
0.0
  0
LINE
  5
214
330
26
100
AcDbEntity
  8
1
  6
Continuous
 62
     2
100
AcDbLine
 10
11188.05427666281
 20
-2266.079741322023
 30
0.0
 11
11188.05427666281
 21
-2268.979741322022
 31
0.0
  0
LINE
  5
213
330
26
100
AcDbEntity
  8
1
  6
DOT_CENTER
 62
     2
100
AcDbLine
 10
11154.45271148651
 20
-2278.979741322022
 30
0.0
 11
11209.26615582721
 21
-2278.979741322022
 31
0.0
  0
LINE
  5
212
330
26
100
AcDbEntity
  8
1
  6
Continuous
 62
     2
100
AcDbLine
 10
11173.95427666282
 20
-2252.596196290483
 30
0.0
 11
11173.95427666282
 21
-2260.779953020231
 31
0.0
  0
LINE
  5
211
330
26
100
AcDbEntity
  8
1
  6
Continuous
 62
     2
100
AcDbLine
 10
11173.95427666282
 20
-2298.679529623813
 30
0.0
 11
11173.95427666282
 21
-2306.863286353561
 31
0.0
  0
LINE
  5
210
330
26
100
AcDbEntity
  8
1
  6
DOT_CENTER
 62
     2
100
AcDbLine
 10
11173.95427666282
 20
-2247.767217940072
 30
0.0
 11
11173.95427666282
 21
-2311.207321144792
 31
0.0
  0
LINE
  5
20F
330
26
100
AcDbEntity
  8
1
  6
Continuous
 62
     2
100
AcDbLine
 10
11191.55427666281
 20
-2264.979741322021
 30
0.0
 11
11191.55427666281
 21
-2266.079741322023
 31
0.0
  0
LINE
  5
20E
330
26
100
AcDbEntity
  8
1
  6
Continuous
 62
     2
100
AcDbLine
 10
11186.45427666282
 20
-2264.979741322021
 30
0.0
 11
11191.55427666281
 21
-2264.979741322021
 31
0.0
  0
LINE
  5
20D
330
26
100
AcDbEntity
  8
1
  6
Continuous
 62
     2
100
AcDbLine
 10
11186.45427666282
 20
-2269.979741322021
 30
0.0
 11
11188.05427666281
 21
-2269.979741322021
 31
0.0
  0
LINE
  5
20C
330
26
100
AcDbEntity
  8
1
  6
Continuous
 62
     7
100
AcDbLine
 10
11273.95427666282
 20
-2314.799741322023
 30
0.0
 11
11273.9542766628
 21
-2511.799741322022
 31
0.0
  0
LINE
  5
20B
330
26
100
AcDbEntity
  8
1
  6
Continuous
 62
     7
100
AcDbLine
 10
11073.95427666282
 20
-2314.799741322023
 30
0.0
 11
11073.9542766628
 21
-2511.799741322022
 31
0.0
  0
LINE
  5
20A
330
26
100
AcDbEntity
  8
1
  6
DOT_CENTER
 62
     2
100
AcDbLine
 10
10342.58091593432
 20
-1723.799741322022
 30
0.0
 11
10616.52886883684
 21
-1723.799741322022
 31
0.0
  0
LINE
  5
209
330
26
100
AcDbEntity
  8
1
  6
Continuous
 62
     2
100
AcDbLine
 10
10402.41602054075
 20
-900.8010144636051
 30
0.0
 11
10413.91602054075
 21
-900.8010144636051
 31
0.0
  0
LINE
  5
208
330
26
100
AcDbEntity
  8
1
  6
Continuous
 62
     2
100
AcDbLine
 10
10413.91602054075
 20
-900.8010144636051
 30
0.0
 11
10413.91602054075
 21
-909.299741322023
 31
0.0
  0
LINE
  5
207
330
26
100
AcDbEntity
  8
1
  6
Continuous
 62
     2
100
AcDbLine
 10
10425.41474739916
 20
-912.2997413220231
 30
0.0
 11
10416.91602054075
 21
-912.2997413220231
 31
0.0
  0
LINE
  5
206
330
26
100
AcDbEntity
  8
1
  6
Continuous
 62
     2
100
AcDbLine
 10
10425.41474739916
 20
-912.2997413220231
 30
0.0
 11
10425.41474739916
 21
-923.7997413220229
 31
0.0
  0
LINE
  5
205
330
26
100
AcDbEntity
  8
1
  6
Continuous
 62
     2
100
AcDbLine
 10
10425.41474739916
 20
-923.7997413220229
 30
0.0
 11
10425.41474739916
 21
-935.2997413220229
 31
0.0
  0
LINE
  5
204
330
26
100
AcDbEntity
  8
1
  6
Continuous
 62
     2
100
AcDbLine
 10
10416.91602054075
 20
-935.2997413220229
 30
0.0
 11
10425.41474739916
 21
-935.2997413220229
 31
0.0
  0
LINE
  5
203
330
26
100
AcDbEntity
  8
1
  6
Continuous
 62
     2
100
AcDbLine
 10
10413.91602054075
 20
-938.299741322023
 30
0.0
 11
10413.91602054075
 21
-946.798468180439
 31
0.0
  0
LINE
  5
202
330
26
100
AcDbEntity
  8
1
  6
Continuous
 62
     2
100
AcDbLine
 10
10413.91602054075
 20
-946.798468180439
 30
0.0
 11
10402.41602054075
 21
-946.798468180439
 31
0.0
  0
LINE
  5
201
330
26
100
AcDbEntity
  8
1
  6
Continuous
 62
     2
100
AcDbLine
 10
10441.65256957267
 20
-935.9240969750031
 30
0.0
 11
10440.71474739916
 21
-934.299741322023
 31
0.0
  0
LINE
  5
200
330
26
100
AcDbEntity
  8
1
  6
Continuous
 62
     2
100
AcDbLine
 10
10440.71474739916
 20
-913.299741322023
 30
0.0
 11
10441.65256957267
 21
-911.675385669041
 31
0.0
  0
LINE
  5
1FF
330
26
100
AcDbEntity
  8
1
  6
Continuous
 62
     2
100
AcDbLine
 10
10440.71474739916
 20
-934.299741322023
 30
0.0
 11
10440.71474739916
 21
-913.299741322023
 31
0.0
  0
LINE
  5
1FE
330
26
100
AcDbEntity
  8
1
  6
Continuous
 62
     2
100
AcDbLine
 10
10441.65256957267
 20
-929.8619191485119
 30
0.0
 11
10447.81474739916
 21
-929.8619191485119
 31
0.0
  0
LINE
  5
1FD
330
26
100
AcDbEntity
  8
1
  6
Continuous
 62
     2
100
AcDbLine
 10
10441.65256957267
 20
-917.7375634955321
 30
0.0
 11
10447.81474739916
 21
-917.7375634955321
 31
0.0
  0
LINE
  5
1FC
330
26
100
AcDbEntity
  8
1
  6
Continuous
 62
     2
100
AcDbLine
 10
10484.71474739916
 20
-934.299741322023
 30
0.0
 11
10483.77692522564
 21
-935.9240969750031
 31
0.0
  0
LINE
  5
1FB
330
26
100
AcDbEntity
  8
1
  6
Continuous
 62
     2
100
AcDbLine
 10
10483.77692522564
 20
-911.675385669041
 30
0.0
 11
10484.71474739916
 21
-913.299741322023
 31
0.0
  0
LINE
  5
1FA
330
26
100
AcDbEntity
  8
1
  6
Continuous
 62
     2
100
AcDbLine
 10
10483.77692522564
 20
-935.9240969750031
 30
0.0
 11
10477.35256957267
 21
-935.9240969750031
 31
0.0
  0
LINE
  5
1F9
330
26
100
AcDbEntity
  8
1
  6
Continuous
 62
     2
100
AcDbLine
 10
10484.71474739916
 20
-913.299741322023
 30
0.0
 11
10484.71474739916
 21
-934.299741322023
 31
0.0
  0
LINE
  5
1F8
330
26
100
AcDbEntity
  8
1
  6
Continuous
 62
     2
100
AcDbLine
 10
10483.77692522564
 20
-911.675385669041
 30
0.0
 11
10477.35256957267
 21
-911.675385669041
 31
0.0
  0
LINE
  5
1F7
330
26
100
AcDbEntity
  8
1
  6
Continuous
 62
     2
100
AcDbLine
 10
10482.71474739916
 20
-919.449741322021
 30
0.0
 11
10473.4375035747
 21
-919.449741322021
 31
0.0
  0
LINE
  5
1F6
330
26
100
AcDbEntity
  8
1
  6
Continuous
 62
     2
100
AcDbLine
 10
10482.71474739916
 20
-919.449741322021
 30
0.0
 11
10482.71474739916
 21
-928.1497413220199
 31
0.0
  0
LINE
  5
1F5
330
26
100
AcDbEntity
  8
1
  6
Continuous
 62
     2
100
AcDbLine
 10
10482.71474739916
 20
-928.1497413220199
 30
0.0
 11
10473.4375035747
 21
-928.1497413220199
 31
0.0
  0
LINE
  5
1F4
330
26
100
AcDbEntity
  8
1
  6
Continuous
 62
     2
100
AcDbLine
 10
10442.71474739916
 20
-919.449741322021
 30
0.0
 11
10451.99199122363
 21
-919.449741322021
 31
0.0
  0
LINE
  5
1F3
330
26
100
AcDbEntity
  8
1
  6
Continuous
 62
     2
100
AcDbLine
 10
10442.71474739916
 20
-919.449741322021
 30
0.0
 11
10442.71474739916
 21
-928.1497413220199
 31
0.0
  0
LINE
  5
1F2
330
26
100
AcDbEntity
  8
1
  6
Continuous
 62
     2
100
AcDbLine
 10
10442.71474739916
 20
-928.1497413220199
 30
0.0
 11
10451.99199122363
 21
-928.1497413220199
 31
0.0
  0
LINE
  5
1F1
330
26
100
AcDbEntity
  8
1
  6
DOT_CENTER
 62
     2
100
AcDbLine
 10
10462.71474739916
 20
-908.403346971521
 30
0.0
 11
10462.71474739916
 21
-939.152193055721
 31
0.0
  0
LINE
  5
1F0
330
26
100
AcDbEntity
  8
1
  6
Continuous
 62
     2
100
AcDbLine
 10
10462.71474739916
 20
-914.7997413220229
 30
0.0
 11
10462.71474739916
 21
-932.7997413220229
 31
0.0
  0
LINE
  5
1EF
330
26
100
AcDbEntity
  8
1
  6
Continuous
 62
     2
100
AcDbLine
 10
10457.71474739916
 20
-920.91298997607
 30
0.0
 11
10457.71474739916
 21
-926.68649266797
 31
0.0
  0
LINE
  5
1EE
330
26
100
AcDbEntity
  8
1
  6
Continuous
 62
     2
100
AcDbLine
 10
10457.71474739916
 20
-926.68649266797
 30
0.0
 11
10462.71474739916
 21
-929.573244013923
 31
0.0
  0
LINE
  5
1ED
330
26
100
AcDbEntity
  8
1
  6
Continuous
 62
     2
100
AcDbLine
 10
10462.71474739916
 20
-929.573244013923
 30
0.0
 11
10467.71474739916
 21
-926.68649266797
 31
0.0
  0
LINE
  5
1EC
330
26
100
AcDbEntity
  8
1
  6
Continuous
 62
     2
100
AcDbLine
 10
10467.71474739916
 20
-926.68649266797
 30
0.0
 11
10467.71474739916
 21
-920.91298997607
 31
0.0
  0
LINE
  5
1EB
330
26
100
AcDbEntity
  8
1
  6
Continuous
 62
     2
100
AcDbLine
 10
10467.71474739916
 20
-920.91298997607
 30
0.0
 11
10462.71474739916
 21
-918.026238630123
 31
0.0
  0
LINE
  5
1EA
330
26
100
AcDbEntity
  8
1
  6
Continuous
 62
     2
100
AcDbLine
 10
10462.71474739916
 20
-918.026238630123
 30
0.0
 11
10457.71474739916
 21
-920.91298997607
 31
0.0
  0
LINE
  5
1E9
330
26
100
AcDbEntity
  8
1
  6
Continuous
 62
     2
100
AcDbLine
 10
10462.71474739916
 20
-917.5497413220229
 30
0.0
 11
10456.99860392232
 21
-917.5497413220229
 31
0.0
  0
LINE
  5
1E8
330
26
100
AcDbEntity
  8
1
  6
Continuous
 62
     2
100
AcDbLine
 10
10468.96474739916
 20
-923.7997413220229
 30
0.0
 11
10471.21474739916
 21
-923.7997413220229
 31
0.0
  0
LINE
  5
1E7
330
26
100
AcDbEntity
  8
1
  6
Continuous
 62
     2
100
AcDbLine
 10
10460.47867942166
 20
-921.799741322023
 30
0.0
 11
10464.95081537666
 21
-921.799741322023
 31
0.0
  0
LINE
  5
1E6
330
26
100
AcDbEntity
  8
1
  6
Continuous
 62
     2
100
AcDbLine
 10
10460.47867942166
 20
-925.799741322023
 30
0.0
 11
10464.95081537666
 21
-925.799741322023
 31
0.0
  0
LINE
  5
1E5
330
26
100
AcDbEntity
  8
1
  6
Continuous
 62
     2
100
AcDbLine
 10
10476.41474739916
 20
-913.299741322023
 30
0.0
 11
10477.35256957267
 21
-911.675385669041
 31
0.0
  0
LINE
  5
1E4
330
26
100
AcDbEntity
  8
1
  6
Continuous
 62
     2
100
AcDbLine
 10
10477.35256957267
 20
-935.9240969750031
 30
0.0
 11
10476.41474739916
 21
-934.299741322023
 31
0.0
  0
LINE
  5
1E3
330
26
100
AcDbEntity
  8
1
  6
Continuous
 62
     2
100
AcDbLine
 10
10448.75256957267
 20
-934.299741322023
 30
0.0
 11
10447.81474739916
 21
-935.9240969750031
 31
0.0
  0
LINE
  5
1E2
330
26
100
AcDbEntity
  8
1
  6
Continuous
 62
     2
100
AcDbLine
 10
10447.81474739916
 20
-911.675385669041
 30
0.0
 11
10448.75256957267
 21
-913.299741322023
 31
0.0
  0
LINE
  5
1E1
330
26
100
AcDbEntity
  8
1
  6
Continuous
 62
     2
100
AcDbLine
 10
10476.41474739916
 20
-913.299741322023
 30
0.0
 11
10448.75256957267
 21
-913.299741322023
 31
0.0
  0
LINE
  5
1E0
330
26
100
AcDbEntity
  8
1
  6
Continuous
 62
     2
100
AcDbLine
 10
10447.81474739916
 20
-911.675385669041
 30
0.0
 11
10441.65256957267
 21
-911.675385669041
 31
0.0
  0
LINE
  5
1DF
330
26
100
AcDbEntity
  8
1
  6
Continuous
 62
     2
100
AcDbLine
 10
10476.41474739916
 20
-934.299741322023
 30
0.0
 11
10448.75256957267
 21
-934.299741322023
 31
0.0
  0
LINE
  5
1DE
330
26
100
AcDbEntity
  8
1
  6
Continuous
 62
     2
100
AcDbLine
 10
10447.81474739916
 20
-935.9240969750031
 30
0.0
 11
10441.65256957267
 21
-935.9240969750031
 31
0.0
  0
LINE
  5
1DD
330
26
100
AcDbEntity
  8
1
  6
Continuous
 62
     2
100
AcDbLine
 10
10477.35256957267
 20
-929.8619191485119
 30
0.0
 11
10483.77692522564
 21
-929.8619191485119
 31
0.0
  0
LINE
  5
1DC
330
26
100
AcDbEntity
  8
1
  6
Continuous
 62
     2
100
AcDbLine
 10
10477.35256957267
 20
-917.7375634955321
 30
0.0
 11
10483.77692522564
 21
-917.7375634955321
 31
0.0
  0
LINE
  5
1DB
330
26
100
AcDbEntity
  8
1
  6
Continuous
 62
     2
100
AcDbLine
 10
10471.21474739916
 20
-918.464525425621
 30
0.0
 11
10471.21474739916
 21
-915.299741322023
 31
0.0
  0
LINE
  5
1DA
330
26
100
AcDbEntity
  8
1
  6
Continuous
 62
     2
100
AcDbLine
 10
10471.21474739916
 20
-915.299741322023
 30
0.0
 11
10473.71474739916
 21
-915.299741322023
 31
0.0
  0
LINE
  5
1D9
330
26
100
AcDbEntity
  8
1
  6
Continuous
 62
     2
100
AcDbLine
 10
10447.96610592149
 20
-929.361919148512
 30
0.0
 11
10454.40107650147
 21
-929.361919148512
 31
0.0
  0
LINE
  5
1D8
330
26
100
AcDbEntity
  8
1
  6
Continuous
 62
     2
100
AcDbLine
 10
10447.96610592149
 20
-918.237563495532
 30
0.0
 11
10454.40107650147
 21
-918.237563495532
 31
0.0
  0
LINE
  5
1D7
330
26
100
AcDbEntity
  8
1
  6
Continuous
 62
     2
100
AcDbLine
 10
10477.20121105034
 20
-929.361919148512
 30
0.0
 11
10470.96302138034
 21
-929.361919148512
 31
0.0
  0
LINE
  5
1D6
330
26
100
AcDbEntity
  8
1
  6
Continuous
 62
     2
100
AcDbLine
 10
10477.20121105034
 20
-918.237563495532
 30
0.0
 11
10475.26023999483
 21
-918.237563495532
 31
0.0
  0
LINE
  5
1D5
330
26
100
AcDbEntity
  8
1
  6
Continuous
 62
     2
100
AcDbLine
 10
10499.95427666281
 20
-932.1307413220219
 30
0.0
 11
10493.55427666281
 21
-932.4497413220219
 31
0.0
  0
LINE
  5
1D4
330
26
100
AcDbEntity
  8
1
  6
Continuous
 62
     2
100
AcDbLine
 10
10484.65427666281
 20
-915.468741322023
 30
0.0
 11
10491.05427666281
 21
-915.1497413220219
 31
0.0
  0
LINE
  5
1D3
330
26
100
AcDbEntity
  8
1
  6
Continuous
 62
     2
100
AcDbLine
 10
10491.05427666281
 20
-932.4497413220219
 30
0.0
 11
10484.65427666281
 21
-932.1307413220219
 31
0.0
  0
LINE
  5
1D2
330
26
100
AcDbEntity
  8
1
  6
Continuous
 62
     2
100
AcDbLine
 10
10493.55427666281
 20
-915.1497413220219
 30
0.0
 11
10499.95427666281
 21
-915.468741322023
 31
0.0
  0
LINE
  5
1D1
330
26
100
AcDbEntity
  8
1
  6
Continuous
 62
     2
100
AcDbLine
 10
10493.55427666281
 20
-915.1497413220219
 30
0.0
 11
10491.05427666281
 21
-915.1497413220219
 31
0.0
  0
LINE
  5
1D0
330
26
100
AcDbEntity
  8
1
  6
Continuous
 62
     2
100
AcDbLine
 10
10491.05427666281
 20
-932.4497413220219
 30
0.0
 11
10493.55427666281
 21
-932.4497413220219
 31
0.0
  0
LINE
  5
1CF
330
26
100
AcDbEntity
  8
1
  6
Continuous
 62
     2
100
AcDbLine
 10
10493.55427666281
 20
-932.4497413220219
 30
0.0
 11
10493.55427666281
 21
-915.1497413220219
 31
0.0
  0
LINE
  5
1CE
330
26
100
AcDbEntity
  8
1
  6
Continuous
 62
     2
100
AcDbLine
 10
10491.05427666281
 20
-915.1497413220219
 30
0.0
 11
10491.05427666281
 21
-932.4497413220219
 31
0.0
  0
LINE
  5
1CD
330
26
100
AcDbEntity
  8
1
  6
Continuous
 62
     2
100
AcDbLine
 10
10431.81474739916
 20
-915.1497413220219
 30
0.0
 11
10431.81474739916
 21
-932.4497413220219
 31
0.0
  0
LINE
  5
1CC
330
26
100
AcDbEntity
  8
1
  6
Continuous
 62
     2
100
AcDbLine
 10
10434.31474739916
 20
-932.4497413220219
 30
0.0
 11
10434.31474739916
 21
-915.1497413220219
 31
0.0
  0
LINE
  5
1CB
330
26
100
AcDbEntity
  8
1
  6
Continuous
 62
     2
100
AcDbLine
 10
10431.81474739916
 20
-932.4497413220219
 30
0.0
 11
10434.31474739916
 21
-932.4497413220219
 31
0.0
  0
LINE
  5
1CA
330
26
100
AcDbEntity
  8
1
  6
Continuous
 62
     2
100
AcDbLine
 10
10434.31474739916
 20
-915.1497413220219
 30
0.0
 11
10431.81474739916
 21
-915.1497413220219
 31
0.0
  0
LINE
  5
1C9
330
26
100
AcDbEntity
  8
1
  6
Continuous
 62
     2
100
AcDbLine
 10
10434.31474739916
 20
-915.1497413220219
 30
0.0
 11
10440.71474739916
 21
-915.468741322023
 31
0.0
  0
LINE
  5
1C8
330
26
100
AcDbEntity
  8
1
  6
Continuous
 62
     2
100
AcDbLine
 10
10431.81474739916
 20
-932.4497413220219
 30
0.0
 11
10425.41474739916
 21
-932.1307413220219
 31
0.0
  0
LINE
  5
1C7
330
26
100
AcDbEntity
  8
1
  6
Continuous
 62
     2
100
AcDbLine
 10
10425.41474739916
 20
-915.468741322023
 30
0.0
 11
10431.81474739916
 21
-915.1497413220219
 31
0.0
  0
LINE
  5
1C6
330
26
100
AcDbEntity
  8
1
  6
Continuous
 62
     2
100
AcDbLine
 10
10440.71474739916
 20
-932.1307413220219
 30
0.0
 11
10434.31474739916
 21
-932.4497413220219
 31
0.0
  0
LINE
  5
1C5
330
26
100
AcDbEntity
  8
1
  6
Continuous
 62
     2
100
AcDbLine
 10
10499.95427666281
 20
-913.1497413220218
 30
0.0
 11
10499.95427666281
 21
-934.4497413220219
 31
0.0
  0
LINE
  5
1C4
330
26
100
AcDbEntity
  8
1
  6
Continuous
 62
     7
100
AcDbLine
 10
10514.9542766628
 20
-934.4497413220219
 30
0.0
 11
10499.95427666281
 21
-934.4497413220219
 31
0.0
  0
LINE
  5
1C3
330
26
100
AcDbEntity
  8
1
  6
Continuous
 62
     7
100
AcDbLine
 10
10514.9542766628
 20
-913.1497413220218
 30
0.0
 11
10499.95427666281
 21
-913.1497413220218
 31
0.0
  0
LINE
  5
1C2
330
26
100
AcDbEntity
  8
1
  6
Continuous
 62
     2
100
AcDbLine
 10
10402.41602054075
 20
-894.4274144636059
 30
0.0
 11
10410.94619554075
 21
-894.4274144636059
 31
0.0
  0
LINE
  5
1C1
330
26
100
AcDbEntity
  8
1
  6
Continuous
 62
     2
100
AcDbLine
 10
10402.41602054075
 20
-897.101014463605
 30
0.0
 11
10410.00664554074
 21
-897.101014463605
 31
0.0
  0
LINE
  5
1C0
330
26
100
AcDbEntity
  8
1
  6
Continuous
 62
     2
100
AcDbLine
 10
10410.94619554075
 20
-894.4274144636059
 30
0.0
 11
10410.00664554074
 21
-897.101014463605
 31
0.0
  0
LINE
  5
1BF
330
26
100
AcDbEntity
  8
1
  6
Continuous
 62
     2
100
AcDbLine
 10
10410.94619554075
 20
-894.4274144636059
 30
0.0
 11
10411.06602054074
 21
-890.5930144636039
 31
0.0
  0
LINE
  5
1BE
330
26
100
AcDbEntity
  8
1
  6
Continuous
 62
     2
100
AcDbLine
 10
10409.89102054075
 20
-900.8010144636051
 30
0.0
 11
10410.00664554074
 21
-897.101014463605
 31
0.0
  0
LINE
  5
1BD
330
26
100
AcDbEntity
  8
1
  6
Continuous
 62
     2
100
AcDbLine
 10
10410.74702054074
 20
-900.8010144636051
 30
0.0
 11
10410.94619554075
 21
-894.4274144636059
 31
0.0
  0
LINE
  5
1BC
330
26
100
AcDbEntity
  8
1
  6
Continuous
 62
     2
100
AcDbLine
 10
10393.72095804074
 20
-889.1510144636059
 30
0.0
 11
10411.11108304075
 21
-889.1510144636059
 31
0.0
  0
LINE
  5
1BB
330
26
100
AcDbEntity
  8
1
  6
Continuous
 62
     2
100
AcDbLine
 10
10411.11108304075
 20
-889.1510144636059
 30
0.0
 11
10411.06602054074
 21
-890.5930144636039
 31
0.0
  0
LINE
  5
1BA
330
26
100
AcDbEntity
  8
1
  6
Continuous
 62
     2
100
AcDbLine
 10
10409.41602054075
 20
-877.151014463606
 30
0.0
 11
10409.41602054075
 21
-889.1510144636059
 31
0.0
  0
LINE
  5
1B9
330
26
100
AcDbEntity
  8
1
  6
Continuous
 62
     2
100
AcDbLine
 10
10409.41602054075
 20
-877.151014463606
 30
0.0
 11
10411.41602054075
 21
-877.151014463606
 31
0.0
  0
LINE
  5
1B8
330
26
100
AcDbEntity
  8
1
  6
Continuous
 62
     2
100
AcDbLine
 10
10411.41602054075
 20
-875.119494054828
 30
0.0
 11
10411.41602054075
 21
-877.151014463606
 31
0.0
  0
LINE
  5
1B7
330
26
100
AcDbEntity
  8
1
  6
DOT_CENTER
 62
     2
100
AcDbLine
 10
10434.45701243829
 20
-855.6498897607569
 30
0.0
 11
10440.11288123724
 21
-858.9153071343311
 31
0.0
  0
LINE
  5
1B6
330
26
100
AcDbEntity
  8
1
  6
Continuous
 62
     7
100
AcDbLine
 10
10435.90439358215
 20
-859.603227107407
 30
0.0
 11
10434.78152819824
 21
-858.9549404757431
 31
0.0
  0
LINE
  5
1B5
330
26
100
AcDbEntity
  8
1
  6
Continuous
 62
     7
100
AcDbLine
 10
10438.60439358215
 20
-854.926689926971
 30
0.0
 11
10437.47816325181
 21
-854.2764605425771
 31
0.0
  0
LINE
  5
1B4
330
26
100
AcDbEntity
  8
1
  6
Continuous
 62
     7
100
AcDbLine
 10
10438.60439358215
 20
-854.926689926971
 30
0.0
 11
10435.90439358215
 21
-859.603227107407
 31
0.0
  0
LINE
  5
1B3
330
26
100
AcDbEntity
  8
1
  6
Continuous
 62
     7
100
AcDbLine
 10
10405.11602054074
 20
-796.8724678065359
 30
0.0
 11
10405.11602054074
 21
-798.1690410698669
 31
0.0
  0
LINE
  5
1B2
330
26
100
AcDbEntity
  8
1
  6
Continuous
 62
     7
100
AcDbLine
 10
10399.71602054074
 20
-796.8724678065359
 30
0.0
 11
10405.11602054074
 21
-796.8724678065359
 31
0.0
  0
LINE
  5
1B1
330
26
100
AcDbEntity
  8
1
  6
Continuous
 62
     7
100
AcDbLine
 10
10422.63602071989
 20
-857.3718320613091
 30
0.0
 11
10426.77743143692
 21
-861.5132427783409
 31
0.0
  0
LINE
  5
1B0
330
26
100
AcDbEntity
  8
1
  6
DOT_CENTER
 62
     2
100
AcDbLine
 10
10356.77882709888
 20
-837.151014463606
 30
0.0
 11
10450.19558860649
 21
-837.151014463606
 31
0.0
  0
LINE
  5
1AF
330
26
100
AcDbEntity
  8
1
  6
Continuous
 62
     2
100
AcDbLine
 10
10402.41602054075
 20
-849.78879589901
 30
0.0
 11
10404.38140215371
 21
-850.878224716636
 31
0.0
  0
LINE
  5
1AE
330
26
100
AcDbEntity
  8
1
  6
Continuous
 62
     2
100
AcDbLine
 10
10404.3421843789
 20
-850.9461518951569
 30
0.0
 11
10402.41602054075
 21
-849.78879589901
 31
0.0
  0
LINE
  5
1AD
330
26
100
AcDbEntity
  8
1
  6
Continuous
 62
     2
100
AcDbLine
 10
10410.74702054074
 20
-946.798468180439
 30
0.0
 11
10410.95483304075
 21
-953.44846818044
 31
0.0
  0
LINE
  5
1AC
330
26
100
AcDbEntity
  8
1
  6
Continuous
 62
     2
100
AcDbLine
 10
10408.41602054075
 20
-953.44846818044
 30
0.0
 11
10408.41602054075
 21
-962.44846818044
 31
0.0
  0
LINE
  5
1AB
330
26
100
AcDbEntity
  8
1
  6
Continuous
 62
     2
100
AcDbLine
 10
10408.41602054075
 20
-962.44846818044
 30
0.0
 11
10396.41602054075
 21
-962.44846818044
 31
0.0
  0
LINE
  5
1AA
330
26
100
AcDbEntity
  8
1
  6
Continuous
 62
     2
100
AcDbLine
 10
10410.95483304075
 20
-953.44846818044
 30
0.0
 11
10393.87720804074
 21
-953.44846818044
 31
0.0
  0
LINE
  5
1A9
330
26
100
AcDbEntity
  8
1
  6
DOT_CENTER
 62
     2
100
AcDbLine
 10
10376.41106510346
 20
-923.7997413220229
 30
0.0
 11
10551.26379706572
 21
-923.7997413220229
 31
0.0
  0
LINE
  5
1A8
330
26
100
AcDbEntity
  8
1
  6
Continuous
 62
     7
100
AcDbLine
 10
13484.84130700515
 20
-956.9497413220219
 30
0.0
 11
13484.84130700515
 21
-890.6497413220209
 31
0.0
  0
LINE
  5
1A7
330
26
100
AcDbEntity
  8
1
  6
Continuous
 62
     7
100
AcDbLine
 10
13504.84130700515
 20
-956.9497413220219
 30
0.0
 11
13484.84130700515
 21
-956.9497413220219
 31
0.0
  0
LINE
  5
1A6
330
26
100
AcDbEntity
  8
1
  6
Continuous
 62
     7
100
AcDbLine
 10
13504.84130700515
 20
-890.6497413220209
 30
0.0
 11
13484.84130700515
 21
-890.6497413220209
 31
0.0
  0
LINE
  5
1A5
330
26
100
AcDbEntity
  8
1
  6
Continuous
 62
     7
100
AcDbLine
 10
13473.72130700514
 20
-893.5497413220231
 30
0.0
 11
13473.72130700514
 21
-954.0497413220229
 31
0.0
  0
LINE
  5
1A4
330
26
100
AcDbEntity
  8
1
  6
Continuous
 62
     7
100
AcDbLine
 10
13469.72130700514
 20
-954.0497413220229
 30
0.0
 11
13469.72130700514
 21
-893.5497413220231
 31
0.0
  0
LINE
  5
1A3
330
26
100
AcDbEntity
  8
1
  6
Continuous
 62
     7
100
AcDbLine
 10
13469.72130700514
 20
-954.0497413220229
 30
0.0
 11
13473.72130700514
 21
-954.0497413220229
 31
0.0
  0
LINE
  5
1A2
330
26
100
AcDbEntity
  8
1
  6
Continuous
 62
     7
100
AcDbLine
 10
13473.72130700514
 20
-893.5497413220231
 30
0.0
 11
13469.72130700514
 21
-893.5497413220231
 31
0.0
  0
LINE
  5
1A1
330
26
100
AcDbEntity
  8
1
  6
Continuous
 62
     7
100
AcDbLine
 10
13473.72130700514
 20
-954.0497413220229
 30
0.0
 11
13484.84130700515
 21
-953.606741322023
 31
0.0
  0
LINE
  5
1A0
330
26
100
AcDbEntity
  8
1
  6
Continuous
 62
     7
100
AcDbLine
 10
13473.72130700514
 20
-893.5497413220231
 30
0.0
 11
13484.84130700515
 21
-893.992741322023
 31
0.0
  0
LINE
  5
19F
330
26
100
AcDbEntity
  8
1
  6
Continuous
 62
     7
100
AcDbLine
 10
13469.72130700514
 20
-954.0497413220229
 30
0.0
 11
13458.60130700515
 21
-953.606741322023
 31
0.0
  0
LINE
  5
19E
330
26
100
AcDbEntity
  8
1
  6
Continuous
 62
     7
100
AcDbLine
 10
13458.60130700515
 20
-893.992741322023
 30
0.0
 11
13469.72130700514
 21
-893.5497413220231
 31
0.0
  0
LINE
  5
19D
330
26
100
AcDbEntity
  8
1
  6
Continuous
 62
     2
100
AcDbLine
 10
14150.64130700514
 20
-2234.084068063762
 30
0.0
 11
14177.04130700514
 21
-2234.084068063762
 31
0.0
  0
LINE
  5
19C
330
26
100
AcDbEntity
  8
1
  6
Continuous
 62
     2
100
AcDbLine
 10
14177.04130700514
 20
-2234.084068063762
 30
0.0
 11
14177.04130700514
 21
-2224.959096437032
 31
0.0
  0
LINE
  5
19B
330
26
100
AcDbEntity
  8
1
  6
Continuous
 62
     2
100
AcDbLine
 10
14150.64130700514
 20
-2234.084068063762
 30
0.0
 11
14150.64130700514
 21
-2224.959096437032
 31
0.0
  0
LINE
  5
19A
330
26
100
AcDbEntity
  8
1
  6
DOTTED
 62
     2
100
AcDbLine
 10
14177.04130700514
 20
-2224.959096437032
 30
0.0
 11
14177.04130700514
 21
-2223.988221426481
 31
0.0
  0
LINE
  5
199
330
26
100
AcDbEntity
  8
1
  6
DOTTED
 62
     2
100
AcDbLine
 10
14150.64130700514
 20
-2224.959096437032
 30
0.0
 11
14150.64130700514
 21
-2223.988221426481
 31
0.0
  0
LINE
  5
198
330
26
100
AcDbEntity
  8
1
  6
DOT_CENTER
 62
     2
100
AcDbLine
 10
14163.84130700515
 20
-2311.491647886533
 30
0.0
 11
14163.84130700515
 21
-2248.051544681812
 31
0.0
  0
LINE
  5
197
330
26
100
AcDbEntity
  8
1
  6
Continuous
 62
     2
100
AcDbLine
 10
14163.84130700515
 20
-2261.064279761971
 30
0.0
 11
14163.84130700515
 21
-2252.880523032223
 31
0.0
  0
LINE
  5
196
330
26
100
AcDbEntity
  8
1
  6
Continuous
 62
     2
100
AcDbLine
 10
14151.34130700515
 20
-2251.764068063761
 30
0.0
 11
14176.34130700515
 21
-2251.764068063762
 31
0.0
  0
LINE
  5
195
330
26
100
AcDbEntity
  8
1
  6
Continuous
 62
     2
100
AcDbLine
 10
14174.69130700515
 20
-2241.424068063762
 30
0.0
 11
14174.69130700515
 21
-2244.424068063762
 31
0.0
  0
LINE
  5
194
330
26
100
AcDbEntity
  8
1
  6
Continuous
 62
     2
100
AcDbLine
 10
14152.99130700514
 20
-2241.424068063762
 30
0.0
 11
14174.69130700515
 21
-2241.424068063762
 31
0.0
  0
LINE
  5
193
330
26
100
AcDbEntity
  8
1
  6
Continuous
 62
     2
100
AcDbLine
 10
14174.69130700515
 20
-2244.424068063762
 30
0.0
 11
14152.99130700514
 21
-2244.424068063762
 31
0.0
  0
LINE
  5
192
330
26
100
AcDbEntity
  8
1
  6
Continuous
 62
     2
100
AcDbLine
 10
14152.99130700514
 20
-2241.424068063762
 30
0.0
 11
14152.99130700514
 21
-2244.424068063762
 31
0.0
  0
LINE
  5
191
330
26
100
AcDbEntity
  8
1
  6
Continuous
 62
     2
100
AcDbLine
 10
14152.99130700514
 20
-2241.424068063762
 30
0.0
 11
14153.36380700515
 21
-2234.084068063762
 31
0.0
  0
LINE
  5
190
330
26
100
AcDbEntity
  8
1
  6
Continuous
 62
     2
100
AcDbLine
 10
14174.69130700515
 20
-2241.424068063762
 30
0.0
 11
14174.31880700514
 21
-2234.084068063762
 31
0.0
  0
LINE
  5
18F
330
26
100
AcDbEntity
  8
1
  6
Continuous
 62
     2
100
AcDbLine
 10
14174.31880700514
 20
-2251.764068063762
 30
0.0
 11
14174.69130700515
 21
-2244.424068063762
 31
0.0
  0
LINE
  5
18E
330
26
100
AcDbEntity
  8
1
  6
Continuous
 62
     2
100
AcDbLine
 10
14153.36380700515
 20
-2251.764068063762
 30
0.0
 11
14152.99130700514
 21
-2244.424068063762
 31
0.0
  0
LINE
  5
18D
330
26
100
AcDbEntity
  8
1
  6
Continuous
 62
     2
100
AcDbLine
 10
14150.64130700514
 20
-2234.084068063762
 30
0.0
 11
14177.04130700514
 21
-2234.084068063762
 31
0.0
  0
LINE
  5
18C
330
26
100
AcDbEntity
  8
1
  6
Continuous
 62
     2
100
AcDbLine
 10
14178.2750637349
 20
-2307.147613095298
 30
0.0
 11
14176.34130700515
 21
-2308.264068063761
 31
0.0
  0
LINE
  5
18B
330
26
100
AcDbEntity
  8
1
  6
Continuous
 62
     2
100
AcDbLine
 10
14151.34130700515
 20
-2308.264068063761
 30
0.0
 11
14149.4075502754
 21
-2307.147613095298
 31
0.0
  0
LINE
  5
18A
330
26
100
AcDbEntity
  8
1
  6
Continuous
 62
     2
100
AcDbLine
 10
14178.2750637349
 20
-2307.147613095298
 30
0.0
 11
14178.2750637349
 21
-2299.380523032227
 31
0.0
  0
LINE
  5
189
330
26
100
AcDbEntity
  8
1
  6
Continuous
 62
     2
100
AcDbLine
 10
14176.34130700515
 20
-2308.264068063761
 30
0.0
 11
14169.59130700515
 21
-2308.264068063761
 31
0.0
  0
LINE
  5
188
330
26
100
AcDbEntity
  8
1
  6
Continuous
 62
     2
100
AcDbLine
 10
14149.4075502754
 20
-2307.147613095298
 30
0.0
 11
14149.4075502754
 21
-2299.380523032227
 31
0.0
  0
LINE
  5
187
330
26
100
AcDbEntity
  8
1
  6
Continuous
 62
     2
100
AcDbLine
 10
14171.05818537002
 20
-2307.147613095298
 30
0.0
 11
14171.05818537002
 21
-2290.076869119303
 31
0.0
  0
LINE
  5
186
330
26
100
AcDbEntity
  8
1
  6
Continuous
 62
     2
100
AcDbLine
 10
14156.62442864028
 20
-2307.147613095298
 30
0.0
 11
14156.62442864028
 21
-2290.076869119303
 31
0.0
  0
LINE
  5
185
330
26
100
AcDbEntity
  8
1
  6
Continuous
 62
     2
100
AcDbLine
 10
14176.34130700515
 20
-2251.764068063762
 30
0.0
 11
14178.2750637349
 21
-2252.880523032224
 31
0.0
  0
LINE
  5
184
330
26
100
AcDbEntity
  8
1
  6
Continuous
 62
     2
100
AcDbLine
 10
14149.4075502754
 20
-2252.880523032224
 30
0.0
 11
14151.34130700515
 21
-2251.764068063761
 31
0.0
  0
LINE
  5
183
330
26
100
AcDbEntity
  8
1
  6
Continuous
 62
     2
100
AcDbLine
 10
14178.2750637349
 20
-2252.880523032224
 30
0.0
 11
14178.2750637349
 21
-2260.647613095302
 31
0.0
  0
LINE
  5
182
330
26
100
AcDbEntity
  8
1
  6
Continuous
 62
     2
100
AcDbLine
 10
14151.34130700515
 20
-2251.764068063761
 30
0.0
 11
14170.18747232774
 21
-2251.764068063761
 31
0.0
  0
LINE
  5
181
330
26
100
AcDbEntity
  8
1
  6
Continuous
 62
     2
100
AcDbLine
 10
14149.4075502754
 20
-2252.880523032224
 30
0.0
 11
14149.4075502754
 21
-2260.647613095302
 31
0.0
  0
LINE
  5
180
330
26
100
AcDbEntity
  8
1
  6
Continuous
 62
     2
100
AcDbLine
 10
14171.05818537002
 20
-2252.880523032224
 30
0.0
 11
14171.05818537002
 21
-2268.451267008223
 31
0.0
  0
LINE
  5
17F
330
26
100
AcDbEntity
  8
1
  6
Continuous
 62
     2
100
AcDbLine
 10
14156.62442864028
 20
-2252.880523032224
 30
0.0
 11
14156.62442864028
 21
-2265.319325254951
 31
0.0
  0
LINE
  5
17E
330
26
100
AcDbEntity
  8
1
  6
Continuous
 62
     2
100
AcDbLine
 10
14178.2750637349
 20
-2260.647613095302
 30
0.0
 11
14176.4750637349
 21
-2261.686843579842
 31
0.0
  0
LINE
  5
17D
330
26
100
AcDbEntity
  8
1
  6
Continuous
 62
     2
100
AcDbLine
 10
14151.20755027541
 20
-2261.686843579838
 30
0.0
 11
14149.4075502754
 21
-2260.647613095302
 31
0.0
  0
LINE
  5
17C
330
26
100
AcDbEntity
  8
1
  6
Continuous
 62
     2
100
AcDbLine
 10
14149.4075502754
 20
-2299.380523032227
 30
0.0
 11
14151.20755027541
 21
-2298.341292547687
 31
0.0
  0
LINE
  5
17B
330
26
100
AcDbEntity
  8
1
  6
Continuous
 62
     2
100
AcDbLine
 10
14176.4750637349
 20
-2298.341292547687
 30
0.0
 11
14178.2750637349
 21
-2299.380523032227
 31
0.0
  0
LINE
  5
17A
330
26
100
AcDbEntity
  8
1
  6
Continuous
 62
     2
100
AcDbLine
 10
14151.20755027541
 20
-2261.686843579838
 30
0.0
 11
14151.20755027541
 21
-2270.914068063761
 31
0.0
  0
LINE
  5
179
330
26
100
AcDbEntity
  8
1
  6
Continuous
 62
     2
100
AcDbLine
 10
14176.4750637349
 20
-2298.341292547687
 30
0.0
 11
14176.4750637349
 21
-2284.714068063761
 31
0.0
  0
LINE
  5
178
330
26
100
AcDbEntity
  8
1
  6
Continuous
 62
     2
100
AcDbLine
 10
14151.20755027541
 20
-2270.914068063761
 30
0.0
 11
14152.34130700515
 21
-2272.314068063763
 31
0.0
  0
LINE
  5
177
330
26
100
AcDbEntity
  8
1
  6
Continuous
 62
     2
100
AcDbLine
 10
14151.20755027541
 20
-2284.714068063761
 30
0.0
 11
14151.75138073908
 21
-2284.042528368189
 31
0.0
  0
LINE
  5
176
330
26
100
AcDbEntity
  8
1
  6
Continuous
 62
     2
100
AcDbLine
 10
14175.34130700515
 20
-2272.314068063763
 30
0.0
 11
14176.4750637349
 21
-2270.914068063761
 31
0.0
  0
LINE
  5
175
330
26
100
AcDbEntity
  8
1
  6
Continuous
 62
     2
100
AcDbLine
 10
14176.4750637349
 20
-2270.914068063761
 30
0.0
 11
14176.4750637349
 21
-2261.686843579842
 31
0.0
  0
LINE
  5
174
330
26
100
AcDbEntity
  8
1
  6
Continuous
 62
     2
100
AcDbLine
 10
14151.20755027541
 20
-2284.714068063761
 30
0.0
 11
14151.20755027541
 21
-2298.341292547687
 31
0.0
  0
LINE
  5
173
330
26
100
AcDbEntity
  8
1
  6
Continuous
 62
     2
100
AcDbLine
 10
14193.84130700515
 20
-2273.514068063762
 30
0.0
 11
14193.84130700515
 21
-2285.014068063762
 31
0.0
  0
LINE
  5
172
330
26
100
AcDbEntity
  8
1
  6
Continuous
 62
     2
100
AcDbLine
 10
14133.84130700515
 20
-2273.514068063762
 30
0.0
 11
14133.84130700515
 21
-2285.014068063762
 31
0.0
  0
LINE
  5
171
330
26
100
AcDbEntity
  8
1
  6
Continuous
 62
     2
100
AcDbLine
 10
14175.93123327122
 20
-2284.042528368193
 30
0.0
 11
14176.4750637349
 21
-2284.714068063761
 31
0.0
  0
LINE
  5
170
330
26
100
AcDbEntity
  8
1
  6
Continuous
 62
     2
100
AcDbLine
 10
14175.34130700515
 20
-2273.201890237271
 30
0.0
 11
14175.34130700515
 21
-2272.314068063763
 31
0.0
  0
LINE
  5
16F
330
26
100
AcDbEntity
  8
1
  6
Continuous
 62
     2
100
AcDbLine
 10
14174.82754840065
 20
-2272.314068063763
 30
0.0
 11
14175.34130700515
 21
-2272.314068063763
 31
0.0
  0
LINE
  5
16E
330
26
100
AcDbEntity
  8
1
  6
Continuous
 62
     2
100
AcDbLine
 10
14152.34130700515
 20
-2273.201890237271
 30
0.0
 11
14152.34130700515
 21
-2272.314068063763
 31
0.0
  0
LINE
  5
16D
330
26
100
AcDbEntity
  8
1
  6
Continuous
 62
     2
100
AcDbLine
 10
14193.84130700515
 20
-2273.514068063762
 30
0.0
 11
14176.68410654419
 21
-2273.514068063762
 31
0.0
  0
LINE
  5
16C
330
26
100
AcDbEntity
  8
1
  6
Continuous
 62
     2
100
AcDbLine
 10
14193.84130700515
 20
-2285.014068063762
 30
0.0
 11
14176.68410654418
 21
-2285.014068063762
 31
0.0
  0
LINE
  5
16B
330
26
100
AcDbEntity
  8
1
  6
Continuous
 62
     2
100
AcDbLine
 10
14150.99850746611
 20
-2285.014068063762
 30
0.0
 11
14133.84130700515
 21
-2285.014068063762
 31
0.0
  0
LINE
  5
16A
330
26
100
AcDbEntity
  8
1
  6
Continuous
 62
     2
100
AcDbLine
 10
14133.84130700515
 20
-2273.514068063762
 30
0.0
 11
14150.99850746611
 21
-2273.514068063762
 31
0.0
  0
LINE
  5
169
330
26
100
AcDbEntity
  8
1
  6
Continuous
 62
     2
100
AcDbLine
 10
14152.34130700515
 20
-2272.314068063763
 30
0.0
 11
14152.85576961646
 21
-2272.314068063763
 31
0.0
  0
LINE
  5
168
330
26
100
AcDbEntity
  8
1
  6
Continuous
 62
     2
100
AcDbLine
 10
14169.59130700515
 20
-2251.764068063761
 30
0.0
 11
14176.34130700515
 21
-2251.764068063762
 31
0.0
  0
LINE
  5
167
330
26
100
AcDbEntity
  8
1
  6
Continuous
 62
     2
100
AcDbLine
 10
14170.60025132576
 20
-2308.264068063761
 30
0.0
 11
14151.34130700515
 21
-2308.264068063761
 31
0.0
  0
LINE
  5
166
330
26
100
AcDbEntity
  8
1
  6
Continuous
 62
     2
100
AcDbLine
 10
14160.37720539001
 20
-2285.264068063762
 30
0.0
 11
14167.30540862028
 21
-2285.264068063762
 31
0.0
  0
LINE
  5
165
330
26
100
AcDbEntity
  8
1
  6
Continuous
 62
     2
100
AcDbLine
 10
14167.30540862028
 20
-2285.264068063762
 30
0.0
 11
14170.76951023542
 21
-2279.264068063762
 31
0.0
  0
LINE
  5
164
330
26
100
AcDbEntity
  8
1
  6
Continuous
 62
     2
100
AcDbLine
 10
14170.76951023542
 20
-2279.264068063762
 30
0.0
 11
14167.30540862028
 21
-2273.264068063762
 31
0.0
  0
LINE
  5
163
330
26
100
AcDbEntity
  8
1
  6
Continuous
 62
     2
100
AcDbLine
 10
14167.30540862028
 20
-2273.264068063762
 30
0.0
 11
14160.37720539001
 21
-2273.264068063762
 31
0.0
  0
LINE
  5
162
330
26
100
AcDbEntity
  8
1
  6
Continuous
 62
     2
100
AcDbLine
 10
14160.37720539001
 20
-2273.264068063762
 30
0.0
 11
14156.91310377488
 21
-2279.264068063762
 31
0.0
  0
LINE
  5
161
330
26
100
AcDbEntity
  8
1
  6
Continuous
 62
     2
100
AcDbLine
 10
14156.91310377488
 20
-2279.264068063762
 30
0.0
 11
14160.37720539001
 21
-2285.264068063762
 31
0.0
  0
LINE
  5
160
330
26
100
AcDbEntity
  8
1
  6
DOT_CENTER
 62
     2
100
AcDbLine
 10
14163.84130700515
 20
-2313.202270979841
 30
0.0
 11
14163.84130700515
 21
-2245.696011205971
 31
0.0
  0
LINE
  5
15F
330
26
100
AcDbEntity
  8
1
  6
DOT_CENTER
 62
     2
100
AcDbLine
 10
14129.34039704166
 20
-2279.264068063762
 30
0.0
 11
14199.13282925365
 21
-2279.264068063762
 31
0.0
  0
LINE
  5
15E
330
26
100
AcDbEntity
  8
1
  6
Continuous
 62
     2
100
AcDbLine
 10
14157.09130700515
 20
-2265.264068063761
 30
0.0
 11
14158.09130700515
 21
-2265.264068063761
 31
0.0
  0
LINE
  5
15D
330
26
100
AcDbEntity
  8
1
  6
Continuous
 62
     2
100
AcDbLine
 10
14155.09130700515
 20
-2267.264068063761
 30
0.0
 11
14155.09130700515
 21
-2269.649625802247
 31
0.0
  0
LINE
  5
15C
330
26
100
AcDbEntity
  8
1
  6
Continuous
 62
     2
100
AcDbLine
 10
14163.84130700515
 20
-2271.764068063762
 30
0.0
 11
14155.61954714145
 21
-2271.764068063762
 31
0.0
  0
LINE
  5
15B
330
26
100
AcDbEntity
  8
1
  6
Continuous
 62
     2
100
AcDbLine
 10
14171.34130700515
 20
-2279.264068063762
 30
0.0
 11
14174.94130700515
 21
-2279.264068063762
 31
0.0
  0
LINE
  5
15A
330
26
100
AcDbEntity
  8
1
  6
Continuous
 62
     2
100
AcDbLine
 10
14161.34130700515
 20
-2281.854434833161
 30
0.0
 11
14161.34130700515
 21
-2276.673701294367
 31
0.0
  0
LINE
  5
159
330
26
100
AcDbEntity
  8
1
  6
Continuous
 62
     2
100
AcDbLine
 10
14166.34130700515
 20
-2281.854434833161
 30
0.0
 11
14166.34130700515
 21
-2276.673701294367
 31
0.0
  0
LINE
  5
158
330
26
100
AcDbEntity
  8
1
  6
Continuous
 62
     2
100
AcDbLine
 10
14150.64130700514
 20
-2233.799741322022
 30
0.0
 11
14177.04130700514
 21
-2233.799741322022
 31
0.0
  0
LINE
  5
157
330
26
100
AcDbEntity
  8
1
  6
Continuous
 62
     2
100
AcDbLine
 10
14177.04130700514
 20
-2233.799741322022
 30
0.0
 11
14177.04130700514
 21
-2224.674769695292
 31
0.0
  0
LINE
  5
156
330
26
100
AcDbEntity
  8
1
  6
Continuous
 62
     2
100
AcDbLine
 10
14150.64130700514
 20
-2233.799741322022
 30
0.0
 11
14150.64130700514
 21
-2224.674769695292
 31
0.0
  0
LINE
  5
155
330
26
100
AcDbEntity
  8
1
  6
DOTTED
 62
     2
100
AcDbLine
 10
14177.04130700514
 20
-2224.674769695292
 30
0.0
 11
14177.04130700514
 21
-2223.703894684741
 31
0.0
  0
LINE
  5
154
330
26
100
AcDbEntity
  8
1
  6
DOTTED
 62
     2
100
AcDbLine
 10
14150.64130700514
 20
-2224.674769695292
 30
0.0
 11
14150.64130700514
 21
-2223.703894684741
 31
0.0
  0
LINE
  5
153
330
26
100
AcDbEntity
  8
1
  6
DOT_CENTER
 62
     2
100
AcDbLine
 10
10516.21023737729
 20
-3776.270324220035
 30
0.0
 11
12003.19513473546
 21
-3776.270324220035
 31
0.0
  0
LINE
  5
152
330
26
100
AcDbEntity
  8
1
  6
Continuous
 62
     7
100
AcDbLine
 10
11914.95427666281
 20
-3683.770324220034
 30
0.0
 11
11932.95427666281
 21
-3683.770324220034
 31
0.0
  0
LINE
  5
151
330
26
100
AcDbEntity
  8
1
  6
Continuous
 62
     7
100
AcDbLine
 10
11914.95427666281
 20
-3868.770324220034
 30
0.0
 11
11914.95427666281
 21
-3683.770324220034
 31
0.0
  0
LINE
  5
150
330
26
100
AcDbEntity
  8
1
  6
Continuous
 62
     7
100
AcDbLine
 10
11932.95427666281
 20
-3868.770324220034
 30
0.0
 11
11914.95427666281
 21
-3868.770324220034
 31
0.0
  0
LINE
  5
14F
330
26
100
AcDbEntity
  8
1
  6
Continuous
 62
     7
100
AcDbLine
 10
11932.95427666281
 20
-3683.770324220034
 30
0.0
 11
11932.95427666281
 21
-3868.770324220034
 31
0.0
  0
LINE
  5
14E
330
26
100
AcDbEntity
  8
1
  6
Continuous
 62
     7
100
AcDbLine
 10
10432.9542766628
 20
-3820.820324220034
 30
0.0
 11
10510.44821225948
 21
-3820.820324220035
 31
0.0
  0
LINE
  5
14D
330
26
100
AcDbEntity
  8
1
  6
Continuous
 62
     7
100
AcDbLine
 10
10432.9542766628
 20
-3731.720324220034
 30
0.0
 11
10510.44821225948
 21
-3731.720324220034
 31
0.0
  0
LINE
  5
14C
330
26
100
AcDbEntity
  8
1
  6
Continuous
 62
     7
100
AcDbLine
 10
10414.95427666282
 20
-3868.770324220034
 30
0.0
 11
10414.95427666282
 21
-3683.770324220034
 31
0.0
  0
LINE
  5
14B
330
26
100
AcDbEntity
  8
1
  6
Continuous
 62
     7
100
AcDbLine
 10
10432.9542766628
 20
-3868.770324220034
 30
0.0
 11
10414.95427666282
 21
-3868.770324220034
 31
0.0
  0
LINE
  5
14A
330
26
100
AcDbEntity
  8
1
  6
Continuous
 62
     7
100
AcDbLine
 10
10432.9542766628
 20
-3683.770324220034
 30
0.0
 11
10432.9542766628
 21
-3868.770324220034
 31
0.0
  0
LINE
  5
149
330
26
100
AcDbEntity
  8
1
  6
Continuous
 62
     7
100
AcDbLine
 10
10414.95427666282
 20
-3683.770324220034
 30
0.0
 11
10432.9542766628
 21
-3683.770324220034
 31
0.0
  0
LINE
  5
148
330
26
100
AcDbEntity
  8
1
  6
DOT_CENTER
 62
     2
100
AcDbLine
 10
10339.6849330866
 20
-3776.270324220035
 30
0.0
 11
10766.52886883684
 21
-3776.270324220035
 31
0.0
  0
LINE
  5
147
330
26
100
AcDbEntity
  8
1
  6
Continuous
 62
     2
100
AcDbLine
 10
10414.95427666282
 20
-3764.770324220034
 30
0.0
 11
10403.4555498044
 21
-3764.770324220034
 31
0.0
  0
LINE
  5
146
330
26
100
AcDbEntity
  8
1
  6
DOT_CENTER
 62
     2
100
AcDbLine
 10
10403.4555498044
 20
-3798.710767704347
 30
0.0
 11
10403.4555498044
 21
-3750.596130941282
 31
0.0
  0
LINE
  5
145
330
26
100
AcDbEntity
  8
1
  6
Continuous
 62
     2
100
AcDbLine
 10
10397.4555498044
 20
-3782.270324220034
 30
0.0
 11
10397.4555498044
 21
-3770.270324220034
 31
0.0
  0
LINE
  5
144
330
26
100
AcDbEntity
  8
1
  6
Continuous
 62
     2
100
AcDbLine
 10
10409.4555498044
 20
-3782.270324220034
 30
0.0
 11
10397.4555498044
 21
-3782.270324220034
 31
0.0
  0
LINE
  5
143
330
26
100
AcDbEntity
  8
1
  6
Continuous
 62
     2
100
AcDbLine
 10
10409.4555498044
 20
-3770.270324220034
 30
0.0
 11
10409.4555498044
 21
-3782.270324220034
 31
0.0
  0
LINE
  5
142
330
26
100
AcDbEntity
  8
1
  6
Continuous
 62
     2
100
AcDbLine
 10
10397.4555498044
 20
-3770.270324220034
 30
0.0
 11
10409.4555498044
 21
-3770.270324220034
 31
0.0
  0
LINE
  5
141
330
26
100
AcDbEntity
  8
1
  6
Continuous
 62
     2
100
AcDbLine
 10
10409.4555498044
 20
-3770.270324220034
 30
0.0
 11
10397.4555498044
 21
-3782.270324220034
 31
0.0
  0
LINE
  5
140
330
26
100
AcDbEntity
  8
1
  6
Continuous
 62
     2
100
AcDbLine
 10
10397.4555498044
 20
-3770.270324220034
 30
0.0
 11
10409.4555498044
 21
-3782.270324220034
 31
0.0
  0
LINE
  5
13F
330
26
100
AcDbEntity
  8
1
  6
DOT_CENTER
 62
     2
100
AcDbLine
 10
10403.4555498044
 20
-3787.100624220034
 30
0.0
 11
10403.4555498044
 21
-3765.440024220036
 31
0.0
  0
LINE
  5
13E
330
26
100
AcDbEntity
  8
1
  6
DOT_CENTER
 62
     2
100
AcDbLine
 10
10392.62524980439
 20
-3776.270324220035
 30
0.0
 11
10414.28584980439
 21
-3776.270324220035
 31
0.0
  0
LINE
  5
13D
330
26
100
AcDbEntity
  8
1
  6
Continuous
 62
     2
100
AcDbLine
 10
10364.4555498044
 20
-3788.270324220035
 30
0.0
 11
10364.4555498044
 21
-3757.270324220035
 31
0.0
  0
LINE
  5
13C
330
26
100
AcDbEntity
  8
1
  6
Continuous
 62
     2
100
AcDbLine
 10
10414.95427666282
 20
-3790.270324220035
 30
0.0
 11
10366.4555498044
 21
-3790.270324220035
 31
0.0
  0
LINE
  5
13B
330
26
100
AcDbEntity
  8
1
  6
Continuous
 62
     2
100
AcDbLine
 10
10392.14385214131
 20
-3776.270324220035
 30
0.0
 11
10364.4555498044
 21
-3776.270324220035
 31
0.0
  0
LINE
  5
13A
330
26
100
AcDbEntity
  8
1
  6
Continuous
 62
     2
100
AcDbLine
 10
11140.80427666281
 20
-3093.982010333774
 30
0.0
 11
11207.10427666281
 21
-3093.982010333774
 31
0.0
  0
LINE
  5
139
330
26
100
AcDbEntity
  8
1
  6
Continuous
 62
     2
100
AcDbLine
 10
11207.10427666281
 20
-3093.982010333774
 30
0.0
 11
11207.10427666281
 21
-3109.093378050579
 31
0.0
  0
LINE
  5
138
330
26
100
AcDbEntity
  8
1
  6
Continuous
 62
     2
100
AcDbLine
 10
11140.80427666281
 20
-3093.982010333774
 30
0.0
 11
11140.80427666281
 21
-3109.093378050578
 31
0.0
  0
LINE
  5
137
330
26
100
AcDbEntity
  8
1
  6
Continuous
 62
     2
100
AcDbLine
 10
11140.80427666281
 20
-3093.982010333774
 30
0.0
 11
11207.10427666281
 21
-3093.982010333774
 31
0.0
  0
LINE
  5
136
330
26
100
AcDbEntity
  8
1
  6
Continuous
 62
     2
100
AcDbLine
 10
11204.20427666282
 20
-3082.862010333775
 30
0.0
 11
11143.70427666282
 21
-3082.862010333775
 31
0.0
  0
LINE
  5
135
330
26
100
AcDbEntity
  8
1
  6
Continuous
 62
     2
100
AcDbLine
 10
11143.70427666282
 20
-3078.862010333775
 30
0.0
 11
11204.20427666282
 21
-3078.862010333775
 31
0.0
  0
LINE
  5
134
330
26
100
AcDbEntity
  8
1
  6
Continuous
 62
     2
100
AcDbLine
 10
11204.20427666282
 20
-3082.862010333775
 30
0.0
 11
11204.20427666282
 21
-3078.862010333775
 31
0.0
  0
LINE
  5
133
330
26
100
AcDbEntity
  8
1
  6
Continuous
 62
     2
100
AcDbLine
 10
11143.70427666282
 20
-3078.862010333775
 30
0.0
 11
11143.70427666282
 21
-3082.862010333775
 31
0.0
  0
LINE
  5
132
330
26
100
AcDbEntity
  8
1
  6
Continuous
 62
     2
100
AcDbLine
 10
11203.76127666281
 20
-3093.982010333774
 30
0.0
 11
11204.20427666282
 21
-3082.862010333775
 31
0.0
  0
LINE
  5
131
330
26
100
AcDbEntity
  8
1
  6
Continuous
 62
     2
100
AcDbLine
 10
11144.14727666281
 20
-3093.982010333774
 30
0.0
 11
11143.70427666282
 21
-3082.862010333775
 31
0.0
  0
LINE
  5
130
330
26
100
AcDbEntity
  8
1
  6
Continuous
 62
     2
100
AcDbLine
 10
11203.76127666281
 20
-3067.742010333775
 30
0.0
 11
11204.20427666282
 21
-3078.862010333775
 31
0.0
  0
LINE
  5
12F
330
26
100
AcDbEntity
  8
1
  6
Continuous
 62
     2
100
AcDbLine
 10
11143.70427666282
 20
-3078.862010333775
 30
0.0
 11
11144.14727666281
 21
-3067.742010333775
 31
0.0
  0
LINE
  5
12E
330
26
100
AcDbEntity
  8
1
  6
Continuous
 62
     2
100
AcDbLine
 10
11139.45273213024
 20
-3057.357186799035
 30
0.0
 11
11139.45273213024
 21
-3048.246692838572
 31
0.0
  0
LINE
  5
12D
330
26
100
AcDbEntity
  8
1
  6
Continuous
 62
     2
100
AcDbLine
 10
11173.95427666282
 20
-3067.742010333775
 30
0.0
 11
11209.95582119538
 21
-3067.742010333775
 31
0.0
  0
LINE
  5
12C
330
26
100
AcDbEntity
  8
1
  6
Continuous
 62
     2
100
AcDbLine
 10
11209.95582119538
 20
-3067.742010333775
 30
0.0
 11
11209.95582119538
 21
-3062.742010333775
 31
0.0
  0
LINE
  5
12B
330
26
100
AcDbEntity
  8
1
  6
Continuous
 62
     2
100
AcDbLine
 10
11137.95273213024
 20
-3067.742010333775
 30
0.0
 11
11137.95273213024
 21
-3062.742010333775
 31
0.0
  0
LINE
  5
12A
330
26
100
AcDbEntity
  8
1
  6
Continuous
 62
     2
100
AcDbLine
 10
11139.45273213024
 20
-3062.742010333775
 30
0.0
 11
11208.45582119538
 21
-3062.742010333775
 31
0.0
  0
LINE
  5
129
330
26
100
AcDbEntity
  8
1
  6
Continuous
 62
     2
100
AcDbLine
 10
11137.95273213024
 20
-3062.742010333775
 30
0.0
 11
11139.45273213024
 21
-3062.742010333775
 31
0.0
  0
LINE
  5
128
330
26
100
AcDbEntity
  8
1
  6
Continuous
 62
     2
100
AcDbLine
 10
11209.95582119538
 20
-3062.742010333775
 30
0.0
 11
11208.45582119538
 21
-3062.742010333775
 31
0.0
  0
LINE
  5
127
330
26
100
AcDbEntity
  8
1
  6
Continuous
 62
     2
100
AcDbLine
 10
11137.95273213024
 20
-3067.742010333775
 30
0.0
 11
11173.95427666282
 21
-3067.742010333775
 31
0.0
  0
LINE
  5
126
330
26
100
AcDbEntity
  8
1
  6
Continuous
 62
     2
100
AcDbLine
 10
11208.45582119538
 20
-3057.357186799035
 30
0.0
 11
11208.45582119538
 21
-3050.246692838572
 31
0.0
  0
LINE
  5
125
330
26
100
AcDbEntity
  8
1
  6
Continuous
 62
     2
100
AcDbLine
 10
11208.45582119538
 20
-3022.722718380257
 30
0.0
 11
11208.45582119538
 21
-3057.357186799035
 31
0.0
  0
LINE
  5
124
330
26
100
AcDbEntity
  8
1
  6
Continuous
 62
     2
100
AcDbLine
 10
11139.45273213024
 20
-3057.357186799035
 30
0.0
 11
11139.45273213024
 21
-3023.167817693794
 31
0.0
  0
LINE
  5
123
330
26
100
AcDbEntity
  8
1
  6
DOT_CENTER
 62
     2
100
AcDbLine
 10
11126.40950838479
 20
-3019.782010333775
 30
0.0
 11
11250.84440012518
 21
-3019.782010333775
 31
0.0
  0
LINE
  5
122
330
26
100
AcDbEntity
  8
1
  6
Continuous
 62
     2
100
AcDbLine
 10
11173.95427666282
 20
-2987.640095898765
 30
0.0
 11
11186.76183201977
 21
-2995.034541431769
 31
0.0
  0
LINE
  5
121
330
26
100
AcDbEntity
  8
1
  6
Continuous
 62
     2
100
AcDbLine
 10
11161.14672130585
 20
-2995.034541431769
 30
0.0
 11
11173.95427666282
 21
-2987.640095898765
 31
0.0
  0
LINE
  5
120
330
26
100
AcDbEntity
  8
1
  6
Continuous
 62
     2
100
AcDbLine
 10
10403.4555498044
 20
-3787.770324220034
 30
0.0
 11
10414.95427666282
 21
-3787.770324220034
 31
0.0
  0
LINE
  5
11F
330
26
100
AcDbEntity
  8
1
  6
Continuous
 62
     2
100
AcDbLine
 10
10366.4555498044
 20
-3755.270324220035
 30
0.0
 11
10414.95427666282
 21
-3755.270324220035
 31
0.0
  0
LINE
  5
11E
330
26
100
AcDbEntity
  8
1
  6
DOT_CENTER
 62
     2
100
AcDbLine
 10
11671.47376088956
 20
-4274.259879444194
 30
0.0
 11
10672.9165171437
 21
-3275.702635698334
 31
0.0
  0
LINE
  5
11D
330
26
100
AcDbEntity
  8
1
  6
DOT_CENTER
 62
     2
100
AcDbLine
 10
10685.1565303021
 20
-4265.068070580746
 30
0.0
 11
11668.92033339987
 21
-3281.304267482978
 31
0.0
  0
LINE
  5
11C
330
26
100
AcDbEntity
  8
1
  6
DOT_CENTER
 62
     2
100
AcDbLine
 10
11173.9542766628
 20
-2954.020495353599
 30
0.0
 11
11173.95427666282
 21
-4480.474693857751
 31
0.0
  0
LINE
  5
11B
330
26
100
AcDbEntity
  8
1
  6
Continuous
 62
     2
100
AcDbLine
 10
11228.95427666282
 20
-2991.423255341745
 30
0.0
 11
11228.95427666282
 21
-3048.782010333775
 31
0.0
  0
LINE
  5
11A
330
26
100
AcDbEntity
  8
1
  6
Continuous
 62
     2
100
AcDbLine
 10
11228.95427666282
 20
-2990.782010333775
 30
0.0
 11
11228.95427666282
 21
-2991.282010333775
 31
0.0
  0
LINE
  5
119
330
26
100
AcDbEntity
  8
1
  6
Continuous
 62
     2
100
AcDbLine
 10
11233.95427666282
 20
-2990.782010333775
 30
0.0
 11
11228.95427666282
 21
-2990.782010333775
 31
0.0
  0
LINE
  5
118
330
26
100
AcDbEntity
  8
1
  6
Continuous
 62
     2
100
AcDbLine
 10
11233.95427666282
 20
-3048.782010333775
 30
0.0
 11
11233.95427666282
 21
-2990.782010333775
 31
0.0
  0
LINE
  5
117
330
26
100
AcDbEntity
  8
1
  6
Continuous
 62
     2
100
AcDbLine
 10
11228.95427666282
 20
-3048.782010333775
 30
0.0
 11
11233.95427666282
 21
-3048.782010333775
 31
0.0
  0
LINE
  5
116
330
26
100
AcDbEntity
  8
1
  6
Continuous
 62
     2
100
AcDbLine
 10
11228.95427666282
 20
-3048.782010333775
 30
0.0
 11
11228.95427666282
 21
-3048.282010333775
 31
0.0
  0
LINE
  5
115
330
26
100
AcDbEntity
  8
1
  6
Continuous
 62
     2
100
AcDbLine
 10
11218.8541653041
 20
-3047.282010333775
 30
0.0
 11
11227.95427666282
 21
-3047.282010333775
 31
0.0
  0
LINE
  5
114
330
26
100
AcDbEntity
  8
1
  6
Continuous
 62
     2
100
AcDbLine
 10
11227.95427666282
 20
-2992.282010333775
 30
0.0
 11
11218.8541653041
 21
-2992.282010333775
 31
0.0
  0
LINE
  5
113
330
26
100
AcDbEntity
  8
1
  6
Continuous
 62
     7
100
AcDbLine
 10
10514.9542766628
 20
-1942.799741322022
 30
0.0
 11
11832.95427666281
 21
-1942.799741322022
 31
0.0
  0
LINE
  5
112
330
26
100
AcDbEntity
  8
1
  6
Continuous
 62
     7
100
AcDbLine
 10
10514.9542766628
 20
-1942.799741322022
 30
0.0
 11
10514.9542766628
 21
-1965.501333107106
 31
0.0
  0
LINE
  5
111
330
26
100
AcDbEntity
  8
1
  6
Continuous
 62
     7
100
AcDbLine
 10
11832.95427666281
 20
-1942.799741322022
 30
0.0
 11
11832.95427666281
 21
-1028.799741322022
 31
0.0
  0
LINE
  5
110
330
26
100
AcDbEntity
  8
1
  6
Continuous
 62
     7
100
AcDbLine
 10
11832.95427666281
 20
-1965.501333107106
 30
0.0
 11
11832.95427666281
 21
-1942.799741322022
 31
0.0
  0
LINE
  5
10F
330
26
100
AcDbEntity
  8
1
  6
Continuous
 62
     7
100
AcDbLine
 10
10548.9542766628
 20
-2511.799741322022
 30
0.0
 11
11798.9542766628
 21
-2511.799741322022
 31
0.0
  0
LINE
  5
10E
330
26
100
AcDbEntity
  8
1
  6
Continuous
 62
     7
100
AcDbLine
 10
11798.9542766628
 20
-2511.799741322022
 30
0.0
 11
11798.9542766628
 21
-2523.799741322022
 31
0.0
  0
LINE
  5
10D
330
26
100
AcDbEntity
  8
1
  6
Continuous
 62
     7
100
AcDbLine
 10
11798.9542766628
 20
-2523.799741322022
 30
0.0
 11
10548.9542766628
 21
-2523.799741322022
 31
0.0
  0
LINE
  5
10C
330
26
100
AcDbEntity
  8
1
  6
Continuous
 62
     7
100
AcDbLine
 10
10548.9542766628
 20
-2523.799741322022
 30
0.0
 11
10548.9542766628
 21
-2511.799741322022
 31
0.0
  0
LINE
  5
10B
330
26
100
AcDbEntity
  8
1
  6
Continuous
 62
     7
100
AcDbLine
 10
10723.95427666281
 20
-2144.019412495567
 30
0.0
 11
11623.95427666281
 21
-2144.019412495567
 31
0.0
  0
LINE
  5
10A
330
26
100
AcDbEntity
  8
1
  6
Continuous
 62
     7
100
AcDbLine
 10
10414.95427666281
 20
-1618.799741322022
 30
0.0
 11
10432.9542766628
 21
-1618.799741322022
 31
0.0
  0
LINE
  5
109
330
26
100
AcDbEntity
  8
1
  6
Continuous
 62
     7
100
AcDbLine
 10
10432.9542766628
 20
-1618.799741322022
 30
0.0
 11
10432.9542766628
 21
-1828.799741322022
 31
0.0
  0
LINE
  5
108
330
26
100
AcDbEntity
  8
1
  6
Continuous
 62
     7
100
AcDbLine
 10
10432.9542766628
 20
-1828.799741322022
 30
0.0
 11
10414.95427666281
 21
-1828.799741322022
 31
0.0
  0
LINE
  5
107
330
26
100
AcDbEntity
  8
1
  6
Continuous
 62
     7
100
AcDbLine
 10
10414.95427666281
 20
-1828.799741322022
 30
0.0
 11
10414.95427666281
 21
-1618.799741322022
 31
0.0
  0
LINE
  5
106
330
26
100
AcDbEntity
  8
1
  6
Continuous
 62
     7
100
AcDbLine
 10
10514.9542766628
 20
-1618.799741322022
 30
0.0
 11
10508.9542766628
 21
-1618.799741322022
 31
0.0
  0
LINE
  5
105
330
26
100
AcDbEntity
  8
1
  6
Continuous
 62
     7
100
AcDbLine
 10
10508.9542766628
 20
-1666.649741322022
 30
0.0
 11
10432.9542766628
 21
-1666.649741322022
 31
0.0
  0
LINE
  5
104
330
26
100
AcDbEntity
  8
1
  6
Continuous
 62
     7
100
AcDbLine
 10
10508.9542766628
 20
-1780.949741322022
 30
0.0
 11
10432.9542766628
 21
-1780.949741322022
 31
0.0
  0
LINE
  5
103
330
26
100
AcDbEntity
  8
1
  6
Continuous
 62
     7
100
AcDbLine
 10
10514.9542766628
 20
-1828.799741322022
 30
0.0
 11
10508.9542766628
 21
-1828.799741322022
 31
0.0
  0
LINE
  5
102
330
26
100
AcDbEntity
  8
1
  6
Continuous
 62
     7
100
AcDbLine
 10
10508.9542766628
 20
-1618.799741322022
 30
0.0
 11
10508.9542766628
 21
-1666.649741322022
 31
0.0
  0
LINE
  5
101
330
26
100
AcDbEntity
  8
1
  6
Continuous
 62
     7
100
AcDbLine
 10
10508.9542766628
 20
-1828.799741322022
 30
0.0
 11
10508.9542766628
 21
-1780.949741322022
 31
0.0
  0
LINE
  5
100
330
26
100
AcDbEntity
  8
1
  6
Continuous
 62
     7
100
AcDbLine
 10
10514.9542766628
 20
-1942.799741322022
 30
0.0
 11
10514.9542766628
 21
-1828.799741322022
 31
0.0
  0
LINE
  5
FF
330
26
100
AcDbEntity
  8
1
  6
DOT_CENTER
 62
     2
100
AcDbLine
 10
9987.751992924001
 20
-1659.821164714444
 30
0.0
 11
9970.760363007013
 21
-1618.799741322022
 31
0.0
  0
LINE
  5
FE
330
26
100
AcDbEntity
  8
1
  6
DOT_CENTER
 62
     2
100
AcDbLine
 10
9951.793370548156
 20
-1697.928203906485
 30
0.0
 11
9908.837631968339
 21
-1680.135354404973
 31
0.0
  0
LINE
  5
FD
330
26
100
AcDbEntity
  8
1
  6
DOT_CENTER
 62
     2
100
AcDbLine
 10
10057.74521110536
 20
-1618.799741322022
 30
0.0
 11
10040.75358118837
 21
-1659.821164714444
 31
0.0
  0
LINE
  5
FC
330
26
100
AcDbEntity
  8
1
  6
DOT_CENTER
 62
     2
100
AcDbLine
 10
10119.66794214404
 20
-1680.135354404973
 30
0.0
 11
10076.71220356422
 21
-1697.928203906485
 31
0.0
  0
LINE
  5
FB
330
26
100
AcDbEntity
  8
1
  6
DOT_CENTER
 62
     2
100
AcDbLine
 10
10076.71220356422
 20
-1749.671278737559
 30
0.0
 11
10119.66794214404
 21
-1767.464128239071
 31
0.0
  0
LINE
  5
FA
330
26
100
AcDbEntity
  8
1
  6
DOT_CENTER
 62
     2
100
AcDbLine
 10
10040.75358118837
 20
-1787.7783179296
 30
0.0
 11
10057.74521110536
 21
-1828.799741322022
 31
0.0
  0
LINE
  5
F9
330
26
100
AcDbEntity
  8
1
  6
DOT_CENTER
 62
     2
100
AcDbLine
 10
9970.760363007013
 20
-1828.799741322022
 30
0.0
 11
9987.751992924001
 21
-1787.7783179296
 31
0.0
  0
LINE
  5
F8
330
26
100
AcDbEntity
  8
1
  6
DOT_CENTER
 62
     2
100
AcDbLine
 10
9908.837631968339
 20
-1767.464128239071
 30
0.0
 11
9951.793370548156
 21
-1749.671278737559
 31
0.0
  0
LINE
  5
F7
330
26
100
AcDbEntity
  8
1
  6
Continuous
 62
     7
100
AcDbLine
 10
11838.9542766628
 20
-980.9497413220219
 30
0.0
 11
11838.9542766628
 21
-1028.799741322022
 31
0.0
  0
LINE
  5
F6
330
26
100
AcDbEntity
  8
1
  6
Continuous
 62
     7
100
AcDbLine
 10
11838.9542766628
 20
-866.6497413220218
 30
0.0
 11
11838.9542766628
 21
-818.799741322023
 31
0.0
  0
LINE
  5
F5
330
26
100
AcDbEntity
  8
1
  6
Continuous
 62
     7
100
AcDbLine
 10
11838.9542766628
 20
-1028.799741322022
 30
0.0
 11
11832.95427666281
 21
-1028.799741322022
 31
0.0
  0
LINE
  5
F4
330
26
100
AcDbEntity
  8
1
  6
Continuous
 62
     7
100
AcDbLine
 10
11914.95427666281
 20
-980.9497413220219
 30
0.0
 11
11838.9542766628
 21
-980.9497413220219
 31
0.0
  0
LINE
  5
F3
330
26
100
AcDbEntity
  8
1
  6
Continuous
 62
     7
100
AcDbLine
 10
11914.95427666281
 20
-866.6497413220218
 30
0.0
 11
11838.9542766628
 21
-866.6497413220218
 31
0.0
  0
LINE
  5
F2
330
26
100
AcDbEntity
  8
1
  6
Continuous
 62
     7
100
AcDbLine
 10
11838.9542766628
 20
-818.799741322023
 30
0.0
 11
11832.95427666281
 21
-818.799741322023
 31
0.0
  0
LINE
  5
F1
330
26
100
AcDbEntity
  8
1
  6
Continuous
 62
     7
100
AcDbLine
 10
11932.95427666281
 20
-818.799741322023
 30
0.0
 11
11932.95427666281
 21
-1028.799741322022
 31
0.0
  0
LINE
  5
F0
330
26
100
AcDbEntity
  8
1
  6
Continuous
 62
     7
100
AcDbLine
 10
11932.95427666281
 20
-1028.799741322022
 30
0.0
 11
11914.95427666281
 21
-1028.799741322022
 31
0.0
  0
LINE
  5
EF
330
26
100
AcDbEntity
  8
1
  6
Continuous
 62
     7
100
AcDbLine
 10
11914.95427666281
 20
-1028.799741322022
 30
0.0
 11
11914.95427666281
 21
-818.799741322023
 31
0.0
  0
LINE
  5
EE
330
26
100
AcDbEntity
  8
1
  6
Continuous
 62
     7
100
AcDbLine
 10
11914.95427666281
 20
-818.799741322023
 30
0.0
 11
11932.95427666281
 21
-818.799741322023
 31
0.0
  0
LINE
  5
ED
330
26
100
AcDbEntity
  8
1
  6
Continuous
 62
     7
100
AcDbLine
 10
11832.95427666281
 20
-47.799741322023
 30
0.0
 11
10514.9542766628
 21
-47.799741322023
 31
0.0
  0
LINE
  5
EC
330
26
100
AcDbEntity
  8
1
  6
Continuous
 62
     7
100
AcDbLine
 10
11832.95427666281
 20
-27.70623404321
 30
0.0
 11
11832.95427666281
 21
-529.249741322022
 31
0.0
  0
LINE
  5
EB
330
26
100
AcDbEntity
  8
1
  6
Continuous
 62
     7
100
AcDbLine
 10
10514.9542766628
 20
-27.70623404321
 30
0.0
 11
10514.9542766628
 21
-1618.799741322022
 31
0.0
  0
LINE
  5
EA
330
26
100
AcDbEntity
  8
1
  6
Continuous
 62
     7
100
AcDbLine
 10
11832.95427666281
 20
-818.799741322023
 30
0.0
 11
11832.95427666281
 21
-529.249741322022
 31
0.0
  0
LINE
  5
E9
330
26
100
AcDbEntity
  8
1
  6
DOT_CENTER
 62
     2
100
AcDbLine
 10
10551.26379706572
 20
-923.7997413220229
 30
0.0
 11
11981.20916257924
 21
-923.7997413220229
 31
0.0
  0
LINE
  5
E8
330
26
100
AcDbEntity
  8
1
  6
DOT_CENTER
 62
     2
100
AcDbLine
 10
10828.96978859386
 20
-1542.799741322021
 30
0.0
 11
11528.4757855689
 21
-1542.799741322021
 31
0.0
  0
LINE
  5
E7
330
26
100
AcDbEntity
  8
1
  6
DOT_CENTER
 62
     2
100
AcDbLine
 10
11173.9542766628
 20
353.253062161692
 30
0.0
 11
11173.95427666282
 21
-2635.054792082328
 31
0.0
  0
LINE
  5
E6
330
26
100
AcDbEntity
  8
1
  6
Continuous
 62
     7
100
AcDbLine
 10
11610.37508403284
 20
-2307.293198492777
 30
0.0
 11
11610.37508403284
 21
-2511.799741322022
 31
0.0
  0
LINE
  5
E5
330
26
100
AcDbEntity
  8
1
  6
Continuous
 62
     7
100
AcDbLine
 10
11623.95427666281
 20
-2207.293198492777
 30
0.0
 11
11623.95427666281
 21
-2144.019412495567
 31
0.0
  0
LINE
  5
E4
330
26
100
AcDbEntity
  8
1
  6
Continuous
 62
     7
100
AcDbLine
 10
10723.95427666281
 20
-2144.019412495567
 30
0.0
 11
10723.95427666281
 21
-2207.293198492777
 31
0.0
  0
LINE
  5
E3
330
26
100
AcDbEntity
  8
1
  6
Continuous
 62
     7
100
AcDbLine
 10
10737.53346929279
 20
-2511.799741322022
 30
0.0
 11
10737.53346929279
 21
-2307.293198492777
 31
0.0
  0
LINE
  5
E2
330
26
100
AcDbEntity
  8
1
  6
Continuous
 62
     7
100
AcDbLine
 10
13713.84130700514
 20
-2144.019412495567
 30
0.0
 11
14613.84130700515
 21
-2144.019412495567
 31
0.0
  0
LINE
  5
E1
330
26
100
AcDbEntity
  8
1
  6
Continuous
 62
     7
100
AcDbLine
 10
13538.84130700514
 20
-2523.799741322022
 30
0.0
 11
13538.84130700514
 21
-2511.799741322022
 31
0.0
  0
LINE
  5
E0
330
26
100
AcDbEntity
  8
1
  6
Continuous
 62
     7
100
AcDbLine
 10
14788.84130700515
 20
-2523.799741322022
 30
0.0
 11
13538.84130700514
 21
-2523.799741322022
 31
0.0
  0
LINE
  5
DF
330
26
100
AcDbEntity
  8
1
  6
Continuous
 62
     7
100
AcDbLine
 10
14788.84130700515
 20
-2511.799741322022
 30
0.0
 11
14788.84130700515
 21
-2523.799741322022
 31
0.0
  0
LINE
  5
DE
330
26
100
AcDbEntity
  8
1
  6
Continuous
 62
     7
100
AcDbLine
 10
13538.84130700514
 20
-2511.799741322022
 30
0.0
 11
14788.84130700515
 21
-2511.799741322022
 31
0.0
  0
LINE
  5
DD
330
26
100
AcDbEntity
  8
1
  6
Continuous
 62
     7
100
AcDbLine
 10
14600.26211437517
 20
-2307.293198492777
 30
0.0
 11
14600.26211437517
 21
-2511.799741322022
 31
0.0
  0
LINE
  5
DC
330
26
100
AcDbEntity
  8
1
  6
Continuous
 62
     7
100
AcDbLine
 10
14600.26211437517
 20
-2307.293198492777
 30
0.0
 11
14600.26211437517
 21
-2511.799741322022
 31
0.0
  0
LINE
  5
DB
330
26
100
AcDbEntity
  8
1
  6
Continuous
 62
     7
100
AcDbLine
 10
14613.84130700515
 20
-2207.293198492777
 30
0.0
 11
14613.84130700515
 21
-2144.019412495567
 31
0.0
  0
LINE
  5
DA
330
26
100
AcDbEntity
  8
1
  6
Continuous
 62
     7
100
AcDbLine
 10
13727.42049963512
 20
-2511.799741322022
 30
0.0
 11
13727.42049963512
 21
-2307.293198492777
 31
0.0
  0
LINE
  5
D9
330
26
100
AcDbEntity
  8
1
  6
Continuous
 62
     7
100
AcDbLine
 10
13727.42049963512
 20
-2511.799741322022
 30
0.0
 11
13727.42049963512
 21
-2307.293198492777
 31
0.0
  0
LINE
  5
D8
330
26
100
AcDbEntity
  8
1
  6
Continuous
 62
     7
100
AcDbLine
 10
13713.84130700514
 20
-2144.019412495567
 30
0.0
 11
13713.84130700514
 21
-2207.293198492777
 31
0.0
  0
LINE
  5
D7
330
26
100
AcDbEntity
  8
1
  6
Continuous
 62
     7
100
AcDbLine
 10
13504.84130700514
 20
-1942.799741322022
 30
0.0
 11
13504.84130700514
 21
-1965.501333107106
 31
0.0
  0
LINE
  5
D6
330
26
100
AcDbEntity
  8
1
  6
Continuous
 62
     7
100
AcDbLine
 10
13504.84130700514
 20
-1942.799741322022
 30
0.0
 11
14822.84130700515
 21
-1942.799741322022
 31
0.0
  0
LINE
  5
D5
330
26
100
AcDbEntity
  8
1
  6
Continuous
 62
     7
100
AcDbLine
 10
14063.84130700515
 20
-2314.799741322023
 30
0.0
 11
14063.84130700515
 21
-2511.799741322022
 31
0.0
  0
LINE
  5
D4
330
26
100
AcDbEntity
  8
1
  6
Continuous
 62
     7
100
AcDbLine
 10
14263.84130700515
 20
-2314.799741322023
 30
0.0
 11
14263.84130700515
 21
-2511.799741322022
 31
0.0
  0
LINE
  5
D3
330
26
100
AcDbEntity
  8
1
  6
Continuous
 62
     7
100
AcDbLine
 10
14822.84130700515
 20
-1965.501333107106
 30
0.0
 11
14822.84130700515
 21
-1942.799741322022
 31
0.0
  0
LINE
  5
D2
330
26
100
AcDbEntity
  8
1
  6
Continuous
 62
     7
100
AcDbLine
 10
14822.84130700515
 20
-47.799741322023
 30
0.0
 11
13504.84130700514
 21
-47.799741322023
 31
0.0
  0
LINE
  5
D1
330
26
100
AcDbEntity
  8
1
  6
Continuous
 62
     7
100
AcDbLine
 10
13504.84130700514
 20
-27.70623404321
 30
0.0
 11
13504.84130700514
 21
-1242.799741322021
 31
0.0
  0
LINE
  5
D0
330
26
100
AcDbEntity
  8
1
  6
Continuous
 62
     7
100
AcDbLine
 10
14822.84130700515
 20
-1942.799741322022
 30
0.0
 11
14822.84130700515
 21
-27.70623404321
 31
0.0
  0
LINE
  5
CF
330
26
100
AcDbEntity
  8
1
  6
DOT_CENTER
 62
     2
100
AcDbLine
 10
14163.84130700515
 20
359.27010868165
 30
0.0
 11
14163.84130700515
 21
-2722.149193876763
 31
0.0
  0
LINE
  5
CE
330
26
100
AcDbEntity
  8
1
  6
Continuous
 62
     7
100
AcDbLine
 10
13504.84130700514
 20
-1842.799741322021
 30
0.0
 11
13504.84130700514
 21
-1942.799741322022
 31
0.0
  0
LINE
  5
CD
330
26
100
AcDbEntity
  8
1
  6
DOT_CENTER
 62
     2
100
AcDbLine
 10
14058.4261519173
 20
-967.46412823907
 30
0.0
 11
14101.38189049711
 21
-949.671278737559
 31
0.0
  0
LINE
  5
CC
330
26
100
AcDbEntity
  8
1
  6
DOT_CENTER
 62
     2
100
AcDbLine
 10
14120.34888295597
 20
-1028.799741322022
 30
0.0
 11
14137.34051287296
 21
-987.778317929599
 31
0.0
  0
LINE
  5
CB
330
26
100
AcDbEntity
  8
1
  6
DOT_CENTER
 62
     2
100
AcDbLine
 10
14190.34210113733
 20
-987.778317929599
 30
0.0
 11
14207.33373105432
 21
-1028.799741322022
 31
0.0
  0
LINE
  5
CA
330
26
100
AcDbEntity
  8
1
  6
DOT_CENTER
 62
     2
100
AcDbLine
 10
14226.30072351318
 20
-949.671278737559
 30
0.0
 11
14269.25646209299
 21
-967.46412823907
 31
0.0
  0
LINE
  5
C9
330
26
100
AcDbEntity
  8
1
  6
DOT_CENTER
 62
     2
100
AcDbLine
 10
14269.25646209299
 20
-880.135354404973
 30
0.0
 11
14226.30072351318
 21
-897.928203906485
 31
0.0
  0
LINE
  5
C8
330
26
100
AcDbEntity
  8
1
  6
DOT_CENTER
 62
     2
100
AcDbLine
 10
14207.33373105432
 20
-818.799741322023
 30
0.0
 11
14190.34210113733
 21
-859.821164714444
 31
0.0
  0
LINE
  5
C7
330
26
100
AcDbEntity
  8
1
  6
DOT_CENTER
 62
     2
100
AcDbLine
 10
14101.38189049711
 20
-897.928203906485
 30
0.0
 11
14058.4261519173
 21
-880.135354404973
 31
0.0
  0
LINE
  5
C6
330
26
100
AcDbEntity
  8
1
  6
DOT_CENTER
 62
     2
100
AcDbLine
 10
14137.34051287296
 20
-859.821164714444
 30
0.0
 11
14120.34888295597
 21
-818.799741322023
 31
0.0
  0
LINE
  5
C5
330
26
100
AcDbEntity
  8
1
  6
DOT_CENTER
 62
     2
100
AcDbLine
 10
14163.84130700514
 20
-789.2010752403599
 30
0.0
 11
14163.84130700514
 21
-1061.370544455447
 31
0.0
  0
LINE
  5
C4
330
26
100
AcDbEntity
  8
1
  6
DOT_CENTER
 62
     2
100
AcDbLine
 10
13508.03587170673
 20
-923.7997413220229
 30
0.0
 11
14452.95899895643
 21
-923.7997413220229
 31
0.0
  0
LINE
  5
C3
330
26
100
AcDbEntity
  8
976
  6
Continuous
 62
     7
100
AcDbLine
 10
10515.41897009224
 20
-3683.770324220034
 30
0.0
 11
10521.47841504033
 21
-3683.770324220034
 31
0.0
  0
LINE
  5
C2
330
26
100
AcDbEntity
  8
976
  6
Continuous
 62
     7
100
AcDbLine
 10
10515.41897009224
 20
-3868.770324220034
 30
0.0
 11
10521.47841504033
 21
-3868.770324220034
 31
0.0
  0
LINE
  5
C1
330
26
100
AcDbEntity
  8
976
  6
Continuous
 62
     7
100
AcDbLine
 10
11826.43013828529
 20
-3868.770324220034
 30
0.0
 11
11832.48958323339
 21
-3868.770324220034
 31
0.0
  0
LINE
  5
C0
330
26
100
AcDbEntity
  8
976
  6
Continuous
 62
     7
100
AcDbLine
 10
11826.43013828529
 20
-3683.770324220034
 30
0.0
 11
11832.48958323339
 21
-3683.770324220034
 31
0.0
  0
LINE
  5
BF
330
26
100
AcDbEntity
  8
1
  6
Continuous
 62
     7
100
AcDbLine
 10
11837.46034106615
 20
-3731.720324220034
 30
0.0
 11
11914.95427666281
 21
-3731.720324220034
 31
0.0
  0
LINE
  5
BE
330
26
100
AcDbEntity
  8
1
  6
Continuous
 62
     7
100
AcDbLine
 10
11837.46034106614
 20
-3820.820324220034
 30
0.0
 11
11914.95427666281
 21
-3820.820324220034
 31
0.0
  0
LINE
  5
BD
330
26
100
AcDbEntity
  8
976
  6
Continuous
 62
     7
100
AcDbLine
 10
11456.95426568758
 20
-3171.179416825138
 30
0.0
 11
11456.95426568758
 21
-3181.129999412528
 31
0.0
  0
LINE
  5
BC
330
26
100
AcDbEntity
  8
976
  6
Continuous
 62
     7
100
AcDbLine
 10
10890.95428763805
 20
-3171.17941682513
 30
0.0
 11
10890.95428763805
 21
-3181.129999412529
 31
0.0
  0
LINE
  5
BB
330
26
100
AcDbEntity
  8
976
  6
Continuous
 62
     7
100
AcDbLine
 10
11442.58219139808
 20
208.066862768995
 30
0.0
 11
11441.73922575594
 21
205.888738884544
 31
0.0
  0
LINE
  5
BA
330
26
100
AcDbEntity
  8
976
  6
Continuous
 62
     7
100
AcDbLine
 10
11485.75876758179
 20
197.900128627107
 30
0.0
 11
11485.54129238666
 21
195.574721293036
 31
0.0
  0
LINE
  5
B9
330
26
100
AcDbEntity
  8
976
  6
Continuous
 62
     7
100
AcDbLine
 10
11468.22426688975
 20
220.199315257999
 30
0.0
 11
11450.63789286824
 21
222.52691162982
 31
0.0
  0
LINE
  5
B8
330
26
100
AcDbEntity
  8
976
  6
Continuous
 62
     7
100
AcDbLine
 10
11468.22426688975
 20
220.199315257999
 30
0.0
 11
11485.0014857085
 21
214.435359602151
 31
0.0
  0
LINE
  5
B7
330
26
100
AcDbEntity
  8
976
  6
Continuous
 62
     7
100
AcDbLine
 10
11441.73922575594
 20
205.888738884544
 30
0.0
 11
11485.54129238666
 21
195.574721293036
 31
0.0
  0
LINE
  5
B6
330
26
100
AcDbEntity
  8
976
  6
DOT_CENTER
 62
     2
100
AcDbLine
 10
11423.5213543472
 20
256.40917356736
 30
0.0
 11
11527.24481847258
 21
231.985539800019
 31
0.0
  0
LINE
  5
B5
330
26
100
AcDbEntity
  8
976
  6
DOT_CENTER
 62
     2
100
AcDbLine
 10
11485.3583847405
 20
292.965312125709
 30
0.0
 11
11460.79650398958
 21
188.654734052453
 31
0.0
  0
LINE
  5
B4
330
26
100
AcDbEntity
  8
976
  6
Continuous
 62
     7
100
AcDbLine
 10
11447.4464869683
 20
220.635629315195
 30
0.0
 11
11442.58219139808
 21
208.066862768995
 31
0.0
  0
LINE
  5
B3
330
26
100
AcDbEntity
  8
976
  6
Continuous
 62
     7
100
AcDbLine
 10
11487.01369847741
 20
211.318787738007
 30
0.0
 11
11485.69053469048
 21
197.170531553799
 31
0.0
  0
LINE
  5
B2
330
26
100
AcDbEntity
  8
976
  6
Continuous
 62
     7
100
AcDbLine
 10
11452.95118996366
 20
221.740949917877
 30
0.0
 11
11481.54406777571
 21
215.0082209069
 31
0.0
  0
LINE
  5
B1
330
26
100
AcDbEntity
  8
976
  6
Continuous
 62
     7
100
AcDbLine
 10
10866.36448554991
 20
215.0082209069
 30
0.0
 11
10894.95736336196
 21
221.740949917877
 31
0.0
  0
LINE
  5
B0
330
26
100
AcDbEntity
  8
976
  6
Continuous
 62
     7
100
AcDbLine
 10
10862.21801863515
 20
197.170531553799
 30
0.0
 11
10860.89485484822
 21
211.318787738007
 31
0.0
  0
LINE
  5
AF
330
26
100
AcDbEntity
  8
976
  6
Continuous
 62
     7
100
AcDbLine
 10
10905.32636192754
 20
208.066862768995
 30
0.0
 11
10900.46206635732
 21
220.635629315195
 31
0.0
  0
LINE
  5
AE
330
26
100
AcDbEntity
  8
976
  6
DOT_CENTER
 62
     2
100
AcDbLine
 10
10887.11204933605
 20
188.654734052453
 30
0.0
 11
10862.55016858512
 21
292.965312125709
 31
0.0
  0
LINE
  5
AD
330
26
100
AcDbEntity
  8
976
  6
DOT_CENTER
 62
     2
100
AcDbLine
 10
10820.66373485305
 20
231.985539800019
 30
0.0
 11
10924.38719897842
 21
256.40917356736
 31
0.0
  0
LINE
  5
AC
330
26
100
AcDbEntity
  8
976
  6
Continuous
 62
     7
100
AcDbLine
 10
10862.36726093896
 20
195.574721293036
 30
0.0
 11
10906.16932756968
 21
205.888738884544
 31
0.0
  0
LINE
  5
AB
330
26
100
AcDbEntity
  8
976
  6
Continuous
 62
     7
100
AcDbLine
 10
10862.90706761713
 20
214.435359602151
 30
0.0
 11
10879.68428643587
 21
220.199315257999
 31
0.0
  0
LINE
  5
AA
330
26
100
AcDbEntity
  8
976
  6
Continuous
 62
     7
100
AcDbLine
 10
10897.27066045738
 20
222.52691162982
 30
0.0
 11
10879.68428643587
 21
220.199315257999
 31
0.0
  0
LINE
  5
A9
330
26
100
AcDbEntity
  8
976
  6
Continuous
 62
     7
100
AcDbLine
 10
10862.36726093896
 20
195.574721293036
 30
0.0
 11
10862.14978574384
 21
197.900128627107
 31
0.0
  0
LINE
  5
A8
330
26
100
AcDbEntity
  8
976
  6
Continuous
 62
     7
100
AcDbLine
 10
10906.16932756968
 20
205.888738884544
 30
0.0
 11
10905.32636192754
 21
208.066862768995
 31
0.0
  0
LINE
  5
A7
330
26
100
AcDbEntity
  8
976
  6
Continuous
 62
     7
100
AcDbLine
 10
14173.84130700515
 20
279.483351468088
 30
0.0
 11
14173.84130700515
 21
205.35143048036
 31
0.0
  0
LINE
  5
A6
330
26
100
AcDbEntity
  8
976
  6
Continuous
 62
     7
100
AcDbLine
 10
14153.84130700515
 20
279.483351468088
 30
0.0
 11
14153.84130700515
 21
205.35143048036
 31
0.0
  0
LINE
  5
A5
330
26
100
AcDbEntity
  8
976
  6
Continuous
 62
     7
100
AcDbLine
 10
14143.84130700515
 20
217.285287256972
 30
0.0
 11
14141.34130700515
 21
200.731643490503
 31
0.0
  0
LINE
  5
A4
330
26
100
AcDbEntity
  8
976
  6
Continuous
 62
     7
100
AcDbLine
 10
14183.84130700515
 20
217.28528725948
 30
0.0
 11
14186.34130700515
 21
200.731643488231
 31
0.0
  0
LINE
  5
A3
330
26
100
AcDbEntity
  8
1
  6
DOT_CENTER
 62
     2
100
AcDbLine
 10
10827.0216676347
 20
-1542.79974132202
 30
0.0
 11
11522.33163686587
 21
-1542.79974132202
 31
0.0
  0
LINE
  5
A2
330
26
100
AcDbEntity
  8
1
  6
DOT_CENTER
 62
     2
100
AcDbLine
 10
11273.9542766628
 20
-1323.20415831519
 30
0.0
 11
11273.9542766628
 21
-1770.281523732225
 31
0.0
  0
LINE
  5
A1
330
26
100
AcDbEntity
  8
1
  6
Continuous
 62
     7
100
AcDbLine
 10
11291.45427666281
 20
-1365.29974132202
 30
0.0
 11
11293.95229283104
 21
-1542.518051181175
 31
0.0
  0
LINE
  5
A0
330
26
100
AcDbEntity
  8
1
  6
Continuous
 62
     7
100
AcDbLine
 10
11256.45601251562
 20
-1365.053262448781
 30
0.0
 11
11253.9542766628
 21
-1542.79974132202
 31
0.0
  0
LINE
  5
9F
330
26
100
AcDbEntity
  8
1
  6
Continuous
 62
     7
100
AcDbLine
 10
11282.61453070066
 20
-1527.79974132202
 30
0.0
 11
11265.29402262497
 21
-1527.79974132202
 31
0.0
  0
LINE
  5
9E
330
26
100
AcDbEntity
  8
1
  6
Continuous
 62
     7
100
AcDbLine
 10
11265.29402262497
 20
-1527.79974132202
 30
0.0
 11
11256.63376858712
 21
-1542.79974132202
 31
0.0
  0
LINE
  5
9D
330
26
100
AcDbEntity
  8
1
  6
Continuous
 62
     7
100
AcDbLine
 10
11256.63376858712
 20
-1542.79974132202
 30
0.0
 11
11265.29402262497
 21
-1557.79974132202
 31
0.0
  0
LINE
  5
9C
330
26
100
AcDbEntity
  8
1
  6
Continuous
 62
     7
100
AcDbLine
 10
11265.29402262497
 20
-1557.79974132202
 30
0.0
 11
11282.61453070066
 21
-1557.79974132202
 31
0.0
  0
LINE
  5
9B
330
26
100
AcDbEntity
  8
1
  6
Continuous
 62
     7
100
AcDbLine
 10
11282.61453070066
 20
-1557.79974132202
 30
0.0
 11
11291.2747847385
 21
-1542.79974132202
 31
0.0
  0
LINE
  5
9A
330
26
100
AcDbEntity
  8
1
  6
Continuous
 62
     7
100
AcDbLine
 10
11291.2747847385
 20
-1542.79974132202
 30
0.0
 11
11282.61453070066
 21
-1527.79974132202
 31
0.0
  0
LINE
  5
99
330
26
100
AcDbEntity
  8
1
  6
DASH_CENTER
 62
     2
100
AcDbLine
 10
11295.60491175742
 20
-1542.79974132202
 30
0.0
 11
11252.3036415682
 21
-1542.79974132202
 31
0.0
  0
LINE
  5
98
330
26
100
AcDbEntity
  8
1
  6
DASH_CENTER
 62
     2
100
AcDbLine
 10
11273.9542766628
 20
-1521.149106227409
 30
0.0
 11
11273.9542766628
 21
-1564.450376416631
 31
0.0
  0
LINE
  5
97
330
26
100
AcDbEntity
  8
1
  6
Continuous
 62
     7
100
AcDbLine
 10
11293.95229283104
 20
-1543.081431462865
 30
0.0
 11
11291.45427666281
 21
-1720.29974132202
 31
0.0
  0
LINE
  5
96
330
26
100
AcDbEntity
  8
1
  6
Continuous
 62
     7
100
AcDbLine
 10
11253.9542766628
 20
-1542.79974132202
 30
0.0
 11
11256.45601251562
 21
-1720.54622019526
 31
0.0
  0
LINE
  5
95
330
26
100
AcDbEntity
  8
1
  6
Continuous
 62
     7
100
AcDbLine
 10
11091.45254081001
 20
-1720.54622019526
 30
0.0
 11
11093.9542766628
 21
-1542.79974132202
 31
0.0
  0
LINE
  5
94
330
26
100
AcDbEntity
  8
1
  6
Continuous
 62
     7
100
AcDbLine
 10
11056.45427666281
 20
-1720.29974132202
 30
0.0
 11
11053.95626049459
 21
-1543.081431462865
 31
0.0
  0
LINE
  5
93
330
26
100
AcDbEntity
  8
1
  6
DASH_CENTER
 62
     2
100
AcDbLine
 10
11073.9542766628
 20
-1564.450376416631
 30
0.0
 11
11073.9542766628
 21
-1521.149106227409
 31
0.0
  0
LINE
  5
92
330
26
100
AcDbEntity
  8
1
  6
DASH_CENTER
 62
     2
100
AcDbLine
 10
11095.60491175742
 20
-1542.79974132202
 30
0.0
 11
11052.3036415682
 21
-1542.79974132202
 31
0.0
  0
LINE
  5
91
330
26
100
AcDbEntity
  8
1
  6
Continuous
 62
     7
100
AcDbLine
 10
11065.29402262497
 20
-1527.79974132202
 30
0.0
 11
11056.63376858712
 21
-1542.79974132202
 31
0.0
  0
LINE
  5
90
330
26
100
AcDbEntity
  8
1
  6
Continuous
 62
     7
100
AcDbLine
 10
11056.63376858712
 20
-1542.79974132202
 30
0.0
 11
11065.29402262497
 21
-1557.79974132202
 31
0.0
  0
LINE
  5
8F
330
26
100
AcDbEntity
  8
1
  6
Continuous
 62
     7
100
AcDbLine
 10
11065.29402262497
 20
-1557.79974132202
 30
0.0
 11
11082.61453070066
 21
-1557.79974132202
 31
0.0
  0
LINE
  5
8E
330
26
100
AcDbEntity
  8
1
  6
Continuous
 62
     7
100
AcDbLine
 10
11082.61453070066
 20
-1557.79974132202
 30
0.0
 11
11091.2747847385
 21
-1542.79974132202
 31
0.0
  0
LINE
  5
8D
330
26
100
AcDbEntity
  8
1
  6
Continuous
 62
     7
100
AcDbLine
 10
11091.2747847385
 20
-1542.79974132202
 30
0.0
 11
11082.61453070066
 21
-1527.79974132202
 31
0.0
  0
LINE
  5
8C
330
26
100
AcDbEntity
  8
1
  6
Continuous
 62
     7
100
AcDbLine
 10
11082.61453070066
 20
-1527.79974132202
 30
0.0
 11
11065.29402262497
 21
-1527.79974132202
 31
0.0
  0
LINE
  5
8B
330
26
100
AcDbEntity
  8
1
  6
Continuous
 62
     7
100
AcDbLine
 10
11093.9542766628
 20
-1542.79974132202
 30
0.0
 11
11091.45254081001
 21
-1365.053262448781
 31
0.0
  0
LINE
  5
8A
330
26
100
AcDbEntity
  8
1
  6
Continuous
 62
     7
100
AcDbLine
 10
11053.95626049459
 20
-1542.518051181175
 30
0.0
 11
11056.45427666281
 21
-1365.29974132202
 31
0.0
  0
LINE
  5
89
330
26
100
AcDbEntity
  8
1
  6
DOT_CENTER
 62
     2
100
AcDbLine
 10
11073.9542766628
 20
-1770.281523732225
 30
0.0
 11
11073.9542766628
 21
-1323.20415831519
 31
0.0
  0
LINE
  5
88
330
26
100
AcDbEntity
  8
1
  6
Continuous
 62
     7
100
AcDbLine
 10
13504.96084034765
 20
-1242.79974132202
 30
0.0
 11
13498.96084034765
 21
-1242.79974132202
 31
0.0
  0
LINE
  5
87
330
26
100
AcDbEntity
  8
1
  6
Continuous
 62
     7
100
AcDbLine
 10
13504.96084034765
 20
-1842.79974132202
 30
0.0
 11
13498.96084034765
 21
-1842.79974132202
 31
0.0
  0
LINE
  5
86
330
26
100
AcDbEntity
  8
1
  6
Continuous
 62
     7
100
AcDbLine
 10
13498.96084034765
 20
-1242.79974132202
 30
0.0
 11
13498.96084034765
 21
-1392.79974132202
 31
0.0
  0
LINE
  5
85
330
26
100
AcDbEntity
  8
1
  6
Continuous
 62
     7
100
AcDbLine
 10
13498.96084034765
 20
-1842.79974132202
 30
0.0
 11
13498.96084034765
 21
-1692.79974132202
 31
0.0
  0
LINE
  5
84
330
26
100
AcDbEntity
  8
1
  6
Continuous
 62
     7
100
AcDbLine
 10
13498.96084034765
 20
-1382.676935875506
 30
0.0
 11
13481.46084034765
 21
-1382.676935875506
 31
0.0
  0
LINE
  5
83
330
26
100
AcDbEntity
  8
1
  6
Continuous
 62
     7
100
AcDbLine
 10
13498.96084034765
 20
-1702.922546768535
 30
0.0
 11
13481.46084034765
 21
-1702.922546768535
 31
0.0
  0
LINE
  5
82
330
26
100
AcDbEntity
  8
1
  6
Continuous
 62
     7
100
AcDbLine
 10
13473.96084034765
 20
-1390.176935875506
 30
0.0
 11
13473.96084034765
 21
-1695.422546768535
 31
0.0
  0
LINE
  5
81
330
26
100
AcDbEntity
  8
1
  6
Continuous
 62
     7
100
AcDbLine
 10
13413.96084034765
 20
-1560.120249397709
 30
0.0
 11
13413.96084034765
 21
-1525.479233246331
 31
0.0
  0
LINE
  5
80
330
26
100
AcDbEntity
  8
1
  6
Continuous
 62
     7
100
AcDbLine
 10
13399.3005863098
 20
-1560.120249397709
 30
0.0
 11
13397.96084034765
 21
-1557.79974132202
 31
0.0
  0
LINE
  5
7F
330
26
100
AcDbEntity
  8
1
  6
Continuous
 62
     7
100
AcDbLine
 10
13397.96084034765
 20
-1527.79974132202
 30
0.0
 11
13399.3005863098
 21
-1525.479233246331
 31
0.0
  0
LINE
  5
7E
330
26
100
AcDbEntity
  8
1
  6
Continuous
 62
     7
100
AcDbLine
 10
13413.96084034765
 20
-1560.120249397709
 30
0.0
 11
13399.3005863098
 21
-1560.120249397709
 31
0.0
  0
LINE
  5
7D
330
26
100
AcDbEntity
  8
1
  6
Continuous
 62
     7
100
AcDbLine
 10
13397.96084034765
 20
-1557.79974132202
 30
0.0
 11
13397.96084034765
 21
-1527.79974132202
 31
0.0
  0
LINE
  5
7C
330
26
100
AcDbEntity
  8
1
  6
Continuous
 62
     7
100
AcDbLine
 10
13399.3005863098
 20
-1525.479233246331
 30
0.0
 11
13413.96084034765
 21
-1525.479233246331
 31
0.0
  0
LINE
  5
7B
330
26
100
AcDbEntity
  8
1
  6
Continuous
 62
     7
100
AcDbLine
 10
13413.96084034765
 20
-1551.459995359865
 30
0.0
 11
13399.3005863098
 21
-1551.459995359865
 31
0.0
  0
LINE
  5
7A
330
26
100
AcDbEntity
  8
1
  6
Continuous
 62
     7
100
AcDbLine
 10
13413.96084034765
 20
-1534.139487284176
 30
0.0
 11
13399.3005863098
 21
-1534.139487284176
 31
0.0
  0
LINE
  5
79
330
26
100
AcDbEntity
  8
1
  6
DASH_CENTER
 62
     2
100
AcDbLine
 10
13417.96084034765
 20
-1542.79974132202
 30
0.0
 11
13393.96084034765
 21
-1542.79974132202
 31
0.0
  0
LINE
  5
78
330
26
100
AcDbEntity
  8
1
  6
Continuous
 62
     7
100
AcDbLine
 10
13498.96084034765
 20
-1347.676935875506
 30
0.0
 11
13452.39342853408
 21
-1347.676935875506
 31
0.0
  0
LINE
  5
77
330
26
100
AcDbEntity
  8
1
  6
Continuous
 62
     7
100
AcDbLine
 10
13413.96084034765
 20
-1522.79974132202
 30
0.0
 11
13442.53700872843
 21
-1355.988448796877
 31
0.0
  0
LINE
  5
76
330
26
100
AcDbEntity
  8
1
  6
Continuous
 62
     7
100
AcDbLine
 10
13413.96084034765
 20
-1522.79974132202
 30
0.0
 11
13413.96084034765
 21
-1542.79974132202
 31
0.0
  0
LINE
  5
75
330
26
100
AcDbEntity
  8
1
  6
Continuous
 62
     7
100
AcDbLine
 10
13452.39342853408
 20
-1737.922546768535
 30
0.0
 11
13498.96084034765
 21
-1737.922546768535
 31
0.0
  0
LINE
  5
74
330
26
100
AcDbEntity
  8
1
  6
Continuous
 62
     7
100
AcDbLine
 10
13442.53700872843
 20
-1729.611033847164
 30
0.0
 11
13413.96084034765
 21
-1562.79974132202
 31
0.0
  0
LINE
  5
73
330
26
100
AcDbEntity
  8
1
  6
Continuous
 62
     7
100
AcDbLine
 10
13413.96084034765
 20
-1542.79974132202
 30
0.0
 11
13413.96084034765
 21
-1562.79974132202
 31
0.0
  0
LINE
  5
72
330
26
100
AcDbEntity
  8
1
  6
Continuous
 62
     7
100
AcDbLine
 10
13442.53700872843
 20
-1729.611033847164
 30
0.0
 11
13413.96084034765
 21
-1562.79974132202
 31
0.0
  0
LINE
  5
71
330
26
100
AcDbEntity
  8
1
  6
Continuous
 62
     3
100
AcDbLine
 10
13397.96084034765
 20
-1534.152741322021
 30
0.0
 11
13384.10784034765
 21
-1534.152741322021
 31
0.0
  0
LINE
  5
70
330
26
100
AcDbEntity
  8
1
  6
Continuous
 62
     3
100
AcDbLine
 10
13397.96084034765
 20
-1551.44674132202
 30
0.0
 11
13384.10784034765
 21
-1551.44674132202
 31
0.0
  0
LINE
  5
6F
330
26
100
AcDbEntity
  8
1
  6
Continuous
 62
     7
100
AcDbLine
 10
13397.96084034765
 20
-1552.79974132202
 30
0.0
 11
13385.46084034765
 21
-1552.79974132202
 31
0.0
  0
LINE
  5
6E
330
26
100
AcDbEntity
  8
1
  6
Continuous
 62
     7
100
AcDbLine
 10
13385.46084034765
 20
-1552.79974132202
 30
0.0
 11
13385.46084034765
 21
-1532.79974132202
 31
0.0
  0
LINE
  5
6D
330
26
100
AcDbEntity
  8
1
  6
Continuous
 62
     7
100
AcDbLine
 10
13385.46084034765
 20
-1532.79974132202
 30
0.0
 11
13397.96084034765
 21
-1532.79974132202
 31
0.0
  0
LINE
  5
6C
330
26
100
AcDbEntity
  8
1
  6
Continuous
 62
     7
100
AcDbLine
 10
13382.96084034765
 20
-1535.29974132202
 30
0.0
 11
13385.46084034765
 21
-1532.79974132202
 31
0.0
  0
LINE
  5
6B
330
26
100
AcDbEntity
  8
1
  6
Continuous
 62
     7
100
AcDbLine
 10
13382.96084034765
 20
-1550.29974132202
 30
0.0
 11
13382.96084034765
 21
-1535.29974132202
 31
0.0
  0
LINE
  5
6A
330
26
100
AcDbEntity
  8
1
  6
Continuous
 62
     7
100
AcDbLine
 10
13385.46084034765
 20
-1552.79974132202
 30
0.0
 11
13382.96084034765
 21
-1550.29974132202
 31
0.0
  0
LINE
  5
69
330
26
100
AcDbEntity
  8
1
  6
Continuous
 62
     7
100
AcDbLine
 10
13397.96084034765
 20
-1557.79974132202
 30
0.0
 11
13397.96084034765
 21
-1527.79974132202
 31
0.0
  0
LINE
  5
68
330
26
100
AcDbEntity
  8
1
  6
Continuous
 62
     7
100
AcDbLine
 10
13397.96084034765
 20
-1527.79974132202
 30
0.0
 11
13399.3005863098
 21
-1525.479233246331
 31
0.0
  0
LINE
  5
67
330
26
100
AcDbEntity
  8
1
  6
Continuous
 62
     7
100
AcDbLine
 10
13399.3005863098
 20
-1560.120249397709
 30
0.0
 11
13397.96084034765
 21
-1557.79974132202
 31
0.0
  0
LINE
  5
66
330
26
100
AcDbEntity
  8
1
  6
Continuous
 62
     7
100
AcDbLine
 10
13478.96084034765
 20
-1517.79974132202
 30
0.0
 11
13534.01394684188
 21
-1517.79974132202
 31
0.0
  0
LINE
  5
65
330
26
100
AcDbEntity
  8
1
  6
Continuous
 62
     7
100
AcDbLine
 10
13478.96084034765
 20
-1567.79974132202
 30
0.0
 11
13534.01394684188
 21
-1567.79974132202
 31
0.0
  0
LINE
  5
64
330
26
100
AcDbEntity
  8
1
  6
Continuous
 62
     7
100
AcDbLine
 10
13478.96084034765
 20
-1517.79974132202
 30
0.0
 11
13478.96084034765
 21
-1567.79974132202
 31
0.0
  0
LINE
  5
63
330
26
100
AcDbEntity
  8
1
  6
Continuous
 62
     3
100
AcDbLine
 10
13478.84585608248
 20
-1534.152741322021
 30
0.0
 11
13473.96084034765
 21
-1534.152741322021
 31
0.0
  0
LINE
  5
62
330
26
100
AcDbEntity
  8
1
  6
Continuous
 62
     3
100
AcDbLine
 10
13478.84585608248
 20
-1551.44674132202
 30
0.0
 11
13473.96084034765
 21
-1551.44674132202
 31
0.0
  0
LINE
  5
61
330
26
100
AcDbEntity
  8
1
  6
Continuous
 62
     7
100
AcDbLine
 10
13478.84585608248
 20
-1552.79974132202
 30
0.0
 11
13473.96084034765
 21
-1552.79974132202
 31
0.0
  0
LINE
  5
60
330
26
100
AcDbEntity
  8
1
  6
Continuous
 62
     7
100
AcDbLine
 10
13473.96084034765
 20
-1532.79974132202
 30
0.0
 11
13478.84585608248
 21
-1532.79974132202
 31
0.0
  0
LINE
  5
5F
330
26
100
AcDbEntity
  8
1
  6
DOT_CENTER
 62
     2
100
AcDbLine
 10
13325.34261942986
 20
-1542.79974132202
 30
0.0
 11
13645.48502898486
 21
-1542.79974132202
 31
0.0
  0
LINE
  5
5E
330
26
100
AcDbEntity
  8
1
  6
DOT_CENTER
 62
     2
100
AcDbLine
 10
11273.9542766628
 20
-2990.153907693613
 30
0.0
 11
11273.9542766628
 21
-3130.491558348484
 31
0.0
  0
LINE
  5
5D
330
26
100
AcDbEntity
  8
1
  6
Continuous
 62
     3
100
AcDbLine
 10
11282.60127666281
 20
-3012.270324220034
 30
0.0
 11
11282.60127666281
 21
-2998.417324220033
 31
0.0
  0
LINE
  5
5C
330
26
100
AcDbEntity
  8
1
  6
Continuous
 62
     3
100
AcDbLine
 10
11265.30727666281
 20
-3012.270324220034
 30
0.0
 11
11265.30727666281
 21
-2998.417324220033
 31
0.0
  0
LINE
  5
5B
330
26
100
AcDbEntity
  8
1
  6
Continuous
 62
     7
100
AcDbLine
 10
11263.95427666281
 20
-3012.270324220034
 30
0.0
 11
11263.95427666281
 21
-2999.770324220034
 31
0.0
  0
LINE
  5
5A
330
26
100
AcDbEntity
  8
1
  6
Continuous
 62
     7
100
AcDbLine
 10
11263.95427666281
 20
-2999.770324220034
 30
0.0
 11
11283.95427666281
 21
-2999.770324220034
 31
0.0
  0
LINE
  5
59
330
26
100
AcDbEntity
  8
1
  6
Continuous
 62
     7
100
AcDbLine
 10
11283.95427666281
 20
-2999.770324220034
 30
0.0
 11
11283.95427666281
 21
-3012.270324220034
 31
0.0
  0
LINE
  5
58
330
26
100
AcDbEntity
  8
1
  6
Continuous
 62
     7
100
AcDbLine
 10
11281.45427666281
 20
-2997.270324220034
 30
0.0
 11
11283.95427666281
 21
-2999.770324220034
 31
0.0
  0
LINE
  5
57
330
26
100
AcDbEntity
  8
1
  6
Continuous
 62
     7
100
AcDbLine
 10
11266.4542766628
 20
-2997.270324220034
 30
0.0
 11
11281.45427666281
 21
-2997.270324220034
 31
0.0
  0
LINE
  5
56
330
26
100
AcDbEntity
  8
1
  6
Continuous
 62
     7
100
AcDbLine
 10
11263.95427666281
 20
-2999.770324220034
 30
0.0
 11
11266.4542766628
 21
-2997.270324220034
 31
0.0
  0
LINE
  5
55
330
26
100
AcDbEntity
  8
1
  6
Continuous
 62
     7
100
AcDbLine
 10
11282.61453070066
 20
-3028.270324220034
 30
0.0
 11
11282.61453070066
 21
-3013.610070182191
 31
0.0
  0
LINE
  5
54
330
26
100
AcDbEntity
  8
1
  6
Continuous
 62
     7
100
AcDbLine
 10
11265.29402262497
 20
-3028.270324220034
 30
0.0
 11
11265.29402262497
 21
-3013.610070182191
 31
0.0
  0
LINE
  5
53
330
26
100
AcDbEntity
  8
1
  6
Continuous
 62
     7
100
AcDbLine
 10
11291.2747847385
 20
-3013.610070182191
 30
0.0
 11
11291.2747847385
 21
-3028.270324220034
 31
0.0
  0
LINE
  5
52
330
26
100
AcDbEntity
  8
1
  6
Continuous
 62
     7
100
AcDbLine
 10
11258.9542766628
 20
-3012.270324220034
 30
0.0
 11
11288.95427666281
 21
-3012.270324220034
 31
0.0
  0
LINE
  5
51
330
26
100
AcDbEntity
  8
1
  6
Continuous
 62
     7
100
AcDbLine
 10
11256.63376858712
 20
-3028.270324220034
 30
0.0
 11
11256.63376858712
 21
-3013.610070182191
 31
0.0
  0
LINE
  5
50
330
26
100
AcDbEntity
  8
1
  6
Continuous
 62
     7
100
AcDbLine
 10
11288.95427666281
 20
-3012.270324220034
 30
0.0
 11
11291.2747847385
 21
-3013.610070182191
 31
0.0
  0
LINE
  5
4F
330
26
100
AcDbEntity
  8
1
  6
Continuous
 62
     7
100
AcDbLine
 10
11256.63376858712
 20
-3013.610070182191
 30
0.0
 11
11258.9542766628
 21
-3012.270324220034
 31
0.0
  0
LINE
  5
4E
330
26
100
AcDbEntity
  8
1
  6
Continuous
 62
     7
100
AcDbLine
 10
11256.63376858712
 20
-3028.270324220034
 30
0.0
 11
11291.2747847385
 21
-3028.270324220034
 31
0.0
  0
LINE
  5
4D
330
26
100
AcDbEntity
  8
1
  6
Continuous
 62
     7
100
AcDbLine
 10
11292.12685228285
 20
-3031.416336160403
 30
0.0
 11
11290.32571378761
 21
-3053.270324220034
 31
0.0
  0
LINE
  5
4C
330
26
100
AcDbEntity
  8
1
  6
Continuous
 62
     7
100
AcDbLine
 10
11257.58283953802
 20
-3053.270324220034
 30
0.0
 11
11255.78170104278
 21
-3031.416336160403
 31
0.0
  0
LINE
  5
4B
330
26
100
AcDbEntity
  8
1
  6
Continuous
 62
     7
100
AcDbLine
 10
11253.9542766628
 20
-3033.270324220034
 30
0.0
 11
11253.9542766628
 21
-3113.078044409722
 31
0.0
  0
LINE
  5
4A
330
26
100
AcDbEntity
  8
1
  6
Continuous
 62
     7
100
AcDbLine
 10
11293.95229283104
 20
-3033.270324220034
 30
0.0
 11
11293.95229283104
 21
-3119.136794322427
 31
0.0
  0
LINE
  5
49
330
26
100
AcDbEntity
  8
1
  6
Continuous
 62
     7
100
AcDbLine
 10
11258.9542766628
 20
-3028.270324220034
 30
0.0
 11
11288.95229283104
 21
-3028.270324220034
 31
0.0
  0
LINE
  5
48
330
26
100
AcDbEntity
  8
1
  6
Continuous
 62
     7
100
AcDbLine
 10
11256.45601251562
 20
-3058.270324220034
 30
0.0
 11
11256.45601251562
 21
-3113.384614929759
 31
0.0
  0
LINE
  5
47
330
26
100
AcDbEntity
  8
1
  6
Continuous
 62
     7
100
AcDbLine
 10
11291.45427666281
 20
-3058.270324220034
 30
0.0
 11
11291.45427666281
 21
-3118.6855388121
 31
0.0
  0
LINE
  5
46
330
26
100
AcDbEntity
  8
1
  6
Continuous
 62
     7
100
AcDbLine
 10
11261.45601251562
 20
-3053.270324220034
 30
0.0
 11
11286.4542766628
 21
-3053.270324220034
 31
0.0
  0
LINE
  5
45
330
26
100
AcDbEntity
  8
1
  6
Continuous
 62
     7
100
AcDbLine
 10
11061.4542766628
 20
-3053.270324220034
 30
0.0
 11
11086.45254081001
 21
-3053.270324220034
 31
0.0
  0
LINE
  5
44
330
26
100
AcDbEntity
  8
1
  6
Continuous
 62
     7
100
AcDbLine
 10
11058.95626049459
 20
-3028.270324220034
 30
0.0
 11
11088.95427666281
 21
-3028.270324220034
 31
0.0
  0
LINE
  5
43
330
26
100
AcDbEntity
  8
1
  6
Continuous
 62
     7
100
AcDbLine
 10
11092.12685228285
 20
-3031.416336160403
 30
0.0
 11
11090.32571378761
 21
-3053.270324220034
 31
0.0
  0
LINE
  5
42
330
26
100
AcDbEntity
  8
1
  6
Continuous
 62
     7
100
AcDbLine
 10
11057.58283953802
 20
-3053.270324220034
 30
0.0
 11
11055.78170104278
 21
-3031.416336160403
 31
0.0
  0
LINE
  5
41
330
26
100
AcDbEntity
  8
1
  6
Continuous
 62
     7
100
AcDbLine
 10
11056.63376858712
 20
-3028.270324220034
 30
0.0
 11
11091.2747847385
 21
-3028.270324220034
 31
0.0
  0
LINE
  5
40
330
26
100
AcDbEntity
  8
1
  6
Continuous
 62
     7
100
AcDbLine
 10
11088.95427666281
 20
-3012.270324220034
 30
0.0
 11
11091.2747847385
 21
-3013.610070182191
 31
0.0
  0
LINE
  5
3F
330
26
100
AcDbEntity
  8
1
  6
Continuous
 62
     7
100
AcDbLine
 10
11056.63376858712
 20
-3013.610070182191
 30
0.0
 11
11058.9542766628
 21
-3012.270324220034
 31
0.0
  0
LINE
  5
3E
330
26
100
AcDbEntity
  8
1
  6
Continuous
 62
     7
100
AcDbLine
 10
11091.2747847385
 20
-3013.610070182191
 30
0.0
 11
11091.2747847385
 21
-3028.270324220034
 31
0.0
  0
LINE
  5
3D
330
26
100
AcDbEntity
  8
1
  6
Continuous
 62
     7
100
AcDbLine
 10
11058.9542766628
 20
-3012.270324220034
 30
0.0
 11
11088.95427666281
 21
-3012.270324220034
 31
0.0
  0
LINE
  5
3C
330
26
100
AcDbEntity
  8
1
  6
Continuous
 62
     7
100
AcDbLine
 10
11056.63376858712
 20
-3028.270324220034
 30
0.0
 11
11056.63376858712
 21
-3013.610070182191
 31
0.0
  0
LINE
  5
3B
330
26
100
AcDbEntity
  8
1
  6
Continuous
 62
     7
100
AcDbLine
 10
11082.61453070066
 20
-3013.610070182191
 30
0.0
 11
11082.61453070066
 21
-3028.270324220034
 31
0.0
  0
LINE
  5
3A
330
26
100
AcDbEntity
  8
1
  6
Continuous
 62
     7
100
AcDbLine
 10
11065.29402262497
 20
-3013.610070182191
 30
0.0
 11
11065.29402262497
 21
-3028.270324220034
 31
0.0
  0
LINE
  5
39
330
26
100
AcDbEntity
  8
1
  6
Continuous
 62
     7
100
AcDbLine
 10
11081.4542766628
 20
-2997.270324220034
 30
0.0
 11
11083.95427666281
 21
-2999.770324220034
 31
0.0
  0
LINE
  5
38
330
26
100
AcDbEntity
  8
1
  6
Continuous
 62
     7
100
AcDbLine
 10
11066.4542766628
 20
-2997.270324220034
 30
0.0
 11
11081.4542766628
 21
-2997.270324220034
 31
0.0
  0
LINE
  5
37
330
26
100
AcDbEntity
  8
1
  6
Continuous
 62
     7
100
AcDbLine
 10
11063.95427666281
 20
-2999.770324220034
 30
0.0
 11
11066.4542766628
 21
-2997.270324220034
 31
0.0
  0
LINE
  5
36
330
26
100
AcDbEntity
  8
1
  6
Continuous
 62
     7
100
AcDbLine
 10
11063.95427666281
 20
-3012.270324220034
 30
0.0
 11
11063.95427666281
 21
-2999.770324220034
 31
0.0
  0
LINE
  5
35
330
26
100
AcDbEntity
  8
1
  6
Continuous
 62
     7
100
AcDbLine
 10
11063.95427666281
 20
-2999.770324220034
 30
0.0
 11
11083.95427666281
 21
-2999.770324220034
 31
0.0
  0
LINE
  5
34
330
26
100
AcDbEntity
  8
1
  6
Continuous
 62
     7
100
AcDbLine
 10
11083.95427666281
 20
-2999.770324220034
 30
0.0
 11
11083.95427666281
 21
-3012.270324220034
 31
0.0
  0
LINE
  5
33
330
26
100
AcDbEntity
  8
1
  6
Continuous
 62
     3
100
AcDbLine
 10
11082.60127666281
 20
-2998.417324220033
 30
0.0
 11
11082.60127666281
 21
-3012.270324220034
 31
0.0
  0
LINE
  5
32
330
26
100
AcDbEntity
  8
1
  6
Continuous
 62
     3
100
AcDbLine
 10
11065.30727666281
 20
-2998.417324220033
 30
0.0
 11
11065.30727666281
 21
-3012.270324220034
 31
0.0
  0
LINE
  5
31
330
26
100
AcDbEntity
  8
1
  6
DOT_CENTER
 62
     2
100
AcDbLine
 10
11073.9542766628
 20
-3130.491558348484
 30
0.0
 11
11073.9542766628
 21
-2990.153907693613
 31
0.0
  0
LINE
  5
30
330
26
100
AcDbEntity
  8
1
  6
Continuous
 62
     7
100
AcDbLine
 10
11093.9542766628
 20
-3113.07804440972
 30
0.0
 11
11093.9542766628
 21
-3033.270324220034
 31
0.0
  0
LINE
  5
2F
330
26
100
AcDbEntity
  8
1
  6
Continuous
 62
     7
100
AcDbLine
 10
11091.45254081001
 20
-3113.384614929755
 30
0.0
 11
11091.45254081001
 21
-3058.270324220034
 31
0.0
  0
LINE
  5
2E
330
26
100
AcDbEntity
  8
1
  6
Continuous
 62
     7
100
AcDbLine
 10
11056.45427666281
 20
-3118.685538812098
 30
0.0
 11
11056.45427666281
 21
-3058.270324220034
 31
0.0
  0
LINE
  5
2D
330
26
100
AcDbEntity
  8
1
  6
Continuous
 62
     7
100
AcDbLine
 10
11053.95626049459
 20
-3119.136794322424
 30
0.0
 11
11053.95626049459
 21
-3033.270324220034
 31
0.0
  0
POINT
  5
2C
330
26
100
AcDbEntity
  8
1
 62
     6
100
AcDbPoint
 10
10363.29572409587
 20
-837.1409111039069
 30
0.0
  0
POINT
  5
2B
330
26
100
AcDbEntity
  8
976
 62
     6
100
AcDbPoint
 10
11461.18564821495
 20
290.082567825958
 30
0.0
  0
ENDBLK
  5
489
330
26
100
AcDbEntity
  8
0
100
AcDbBlockEnd
  0
BLOCK
  5
541
330
53F
100
AcDbEntity
  8
0
100
AcDbBlockBegin
  2
GENAXEH
 70
     0
 10
0.0
 20
0.0
 30
0.0
  3
GENAXEH
  1

  0
LINE
  5
540
330
53F
100
AcDbEntity
  8
0
100
AcDbLine
 10
-1.0
 20
0.0
 30
0.0
 11
1.0
 21
0.0
 31
0.0
  0
ENDBLK
  5
542
330
53F
100
AcDbEntity
  8
0
100
AcDbBlockEnd
  0
BLOCK
  5
54D
330
54C
100
AcDbEntity
  8
0
100
AcDbBlockBegin
  2
_ACMFILLEDHALF
 70
     0
 10
0.0
 20
0.0
 30
0.0
  3
_ACMFILLEDHALF
  1

  0
TRACE
  5
54F
330
54C
100
AcDbEntity
  8
0
  6
Continuous
 62
     0
100
AcDbTrace
 10
-0.8
 20
0.0
 30
0.0
 11
-1.0
 21
0.166666666
 31
0.0
 12
0.0
 22
0.0
 32
0.0
 13
0.0
 23
0.0
 33
0.0
  0
LINE
  5
550
330
54C
100
AcDbEntity
  8
0
  6
Continuous
 62
     0
100
AcDbLine
 10
-1.0
 20
0.0
 30
0.0
 11
-0.8
 21
0.0
 31
0.0
  0
ENDBLK
  5
54E
330
54C
100
AcDbEntity
  8
0
100
AcDbBlockEnd
  0
ENDSEC
  0
SECTION
  2
ENTITIES
  0
TEXT
  5
48C
330
A
100
AcDbEntity
  8
1
 62
     2
100
AcDbText
 10
16490.27712890613
 20
-4366.656868680891
 30
0.0
 40
52.5
  1
SAT-3000C-85
 41
0.9
  7
CONVERTER_1
100
AcDbText
  0
INSERT
  5
2A
330
A
100
AcDbEntity
  8
0
100
AcDbBlockReference
  2
SAT3001C85__1
 10
0.0
 20
0.0
 30
0.0
  0
ENDSEC
  0
SECTION
  2
OBJECTS
  0
DICTIONARY
  5
19
330
0
100
AcDbDictionary
281
     1
  3
ACAD_CIP_PREVIOUS_PRODUCT_INFO
350
4E5
  3
ACAD_COLOR
350
4C5
  3
ACAD_DETAILVIEWSTYLE
350
4DF
  3
ACAD_FIELDLIST
350
555
  3
ACAD_GROUP
350
1A
  3
ACAD_LAYOUT
350
4C6
  3
ACAD_MATERIAL
350
493
  3
ACAD_MLEADERSTYLE
350
4DB
  3
ACAD_MLINESTYLE
350
1B
  3
ACAD_PLOTSETTINGS
350
4E1
  3
ACAD_PLOTSTYLENAME
350
491
  3
ACAD_SCALELIST
350
4C9
  3
ACAD_SECTIONVIEWSTYLE
350
4DD
  3
ACAD_TABLESTYLE
350
4C7
  3
ACAD_VISUALSTYLE
350
4AC
  3
ACDB_RECOMPOSE_DATA
350
586
  3
AcDbVariableDictionary
350
57A
  3
AcmDictionary
350
512
  3
AMG
350
4E6
  3
AMGSNAPSETTINGS
350
567
  3
ASE_INDEX_DICTIONARY
350
577
  0
DICTIONARY
  5
570
330
14
100
AcDbDictionary
280
     1
281
     1
  3
ADSK_XREC_LAYER_RECONCILED
360
571
  0
DICTIONARY
  5
572
330
24
100
AcDbDictionary
280
     1
281
     1
  3
ADSK_XREC_LAYER_RECONCILED
360
573
  0
DICTIONARY
  5
574
330
25
100
AcDbDictionary
280
     1
281
     1
  3
ADSK_XREC_LAYER_RECONCILED
360
575
  0
XRECORD
  5
4E5
102
{ACAD_REACTORS
330
19
102
}
330
19
100
AcDbXrecord
280
     1
300
AMECH_PP
300
2019
300
87089AMECH_PP_2019_0F
  0
DICTIONARY
  5
4C5
102
{ACAD_REACTORS
330
19
102
}
330
19
100
AcDbDictionary
281
     1
  0
DICTIONARY
  5
4DF
102
{ACAD_REACTORS
330
19
102
}
330
19
100
AcDbDictionary
281
     1
  3
Imperial24
350
4E0
  0
FIELDLIST
  5
555
102
{ACAD_REACTORS
330
19
102
}
330
19
100
AcDbIdSet
 90
        8
330
553
330
554
330
556
330
557
330
55B
330
55C
330
55D
330
55E
100
AcDbFieldList
  0
DICTIONARY
  5
1A
102
{ACAD_REACTORS
330
19
102
}
330
19
100
AcDbDictionary
281
     1
  0
DICTIONARY
  5
4C6
102
{ACAD_REACTORS
330
19
102
}
330
19
100
AcDbDictionary
281
     1
  3
Model
350
4E2
  3
レイアウト1
350
4E3
  0
DICTIONARY
  5
493
102
{ACAD_REACTORS
330
19
102
}
330
19
100
AcDbDictionary
281
     1
  3
ByBlock
350
49C
  3
ByLayer
350
494
  3
Global
350
4A4
  0
DICTIONARY
  5
4DB
102
{ACAD_REACTORS
330
19
102
}
330
19
100
AcDbDictionary
281
     1
  3
Standard
350
4DC
  0
DICTIONARY
  5
1B
102
{ACAD_REACTORS
330
19
102
}
330
19
100
AcDbDictionary
281
     1
  3
STANDARD
350
1C
  0
DICTIONARY
  5
4E1
102
{ACAD_REACTORS
330
19
102
}
330
19
100
AcDbDictionary
281
     1
  0
ACDBDICTIONARYWDFLT
  5
491
102
{ACAD_REACTORS
330
19
102
}
330
19
100
AcDbDictionary
281
     1
  3
Normal
350
492
100
AcDbDictionaryWithDefault
340
492
  0
DICTIONARY
  5
4C9
102
{ACAD_REACTORS
330
19
102
}
330
19
100
AcDbDictionary
281
     1
  3
A0
350
4CA
  3
A1
350
4CB
  3
A2
350
4CC
  3
A3
350
4CD
  3
A4
350
4CE
  3
A5
350
4CF
  3
A6
350
4D0
  3
A7
350
4D1
  3
A8
350
4D2
  3
A9
350
4D3
  3
B0
350
4D4
  3
B1
350
4D5
  3
B2
350
4D6
  3
B3
350
4D7
  3
B4
350
4D8
  3
B5
350
4D9
  3
B6
350
4DA
  0
DICTIONARY
  5
4DD
102
{ACAD_REACTORS
330
19
102
}
330
19
100
AcDbDictionary
281
     1
  3
Imperial24
350
4DE
  0
DICTIONARY
  5
4C7
102
{ACAD_REACTORS
330
19
102
}
330
19
100
AcDbDictionary
281
     1
  3
Standard
350
4C8
  0
DICTIONARY
  5
4AC
102
{ACAD_REACTORS
330
19
102
}
330
19
100
AcDbDictionary
281
     1
  3
2dWireframe
350
4B2
  3
Basic
350
4B1
  3
Brighten
350
4B8
  3
ColorChange
350
4BC
  3
Conceptual
350
4B5
  3
Dim
350
4B7
  3
EdgeColorOff
350
4C4
  3
Facepattern
350
4BB
  3
Flat
350
4AD
  3
FlatWithEdges
350
4AE
  3
Gouraud
350
4AF
  3
GouraudWithEdges
350
4B0
  3
Hidden
350
4B4
  3
JitterOff
350
4C2
  3
Linepattern
350
4BA
  3
OverhangOff
350
4C3
  3
Realistic
350
4B6
  3
Shaded
350
4C1
  3
Shaded with edges
350
4C0
  3
Shades of Gray
350
4BD
  3
Sketchy
350
4BE
  3
Thicken
350
4B9
  3
Wireframe
350
4B3
  3
X-Ray
350
4BF
  0
XRECORD
  5
586
102
{ACAD_REACTORS
330
19
102
}
330
19
100
AcDbXrecord
280
     1
 90
        1
330
4C8
  0
DICTIONARY
  5
57A
102
{ACAD_REACTORS
330
19
102
}
330
19
100
AcDbDictionary
281
     1
  3
CANNOSCALE
350
580
  3
CMLEADERSTYLE
350
57C
  3
CTABLESTYLE
350
57B
  3
CVIEWDETAILSTYLE
350
57D
  3
CVIEWSECTIONSTYLE
350
57E
  3
LAYEREVAL
350
582
  3
LAYERNOTIFY
350
583
  3
LIGHTINGUNITS
350
581
  3
MSLTSCALE
350
57F
  0
DICTIONARY
  5
512
102
{ACAD_REACTORS
330
19
102
}
330
19
100
AcDbDictionary
281
     1
  3
AcmStdDictionary
350
519
  0
DICTIONARY
  5
4E6
102
{ACAD_REACTORS
330
19
102
}
330
19
100
AcDbDictionary
281
     1
  0
DICTIONARY
  5
567
102
{ACAD_REACTORS
330
19
102
}
330
19
100
AcDbDictionary
281
     1
  0
DICTIONARY
  5
577
102
{ACAD_REACTORS
330
19
102
}
330
19
100
AcDbDictionary
281
     1
  3
ASEBlockHierarchyIndexRecord
350
579
1001
DCO15
1040
1998384415.0
  0
XRECORD
  5
571
102
{ACAD_REACTORS
330
570
102
}
330
570
100
AcDbXrecord
280
     1
290
     1
  0
XRECORD
  5
573
102
{ACAD_REACTORS
330
572
102
}
330
572
100
AcDbXrecord
280
     1
290
     1
  0
XRECORD
  5
575
102
{ACAD_REACTORS
330
574
102
}
330
574
100
AcDbXrecord
280
     1
290
     1
  0
ACDBDETAILVIEWSTYLE
  5
4E0
102
{ACAD_REACTORS
330
4DF
330
546
102
}
330
4DF
100
AcDbModelDocViewStyle
 70
     0
  3
Imperial24
290
     0
300
Imperial24
 90
        0
100
AcDbDetailViewStyle
 70
     0
 71
     0
 90
        3
 71
     1
340
17
 62
   256
 40
0.24
340
0
 62
   256
 40
0.24
300

 40
0.36
280
     3
 71
     2
340
13
 90
       25
 62
   256
 71
     3
340
17
 62
   256
 40
0.24
 90
        1
 40
0.75
 90
        1
300
%<\AcVar ViewType \f "%tc1">% %<\AcVar ViewDetailId>%\PSCALE %<\AcVar ViewScale \f "%sn">%
 71
     4
340
13
 90
       25
 62
   256
340
13
 90
       25
 62
   256
280
     0
  0
LAYOUT
  5
4E2
102
{ACAD_REACTORS
330
4C6
102
}
330
4C6
100
AcDbPlotSettings
  1

  2
DocuWorks PDF Creator
  4

  6

 40
0.0
 41
0.0
 42
0.0
 43
0.0
 44
0.0
 45
0.0
 46
0.0
 47
0.0
 48
0.0
 49
0.0
140
0.0
141
0.0
142
1.0
143
1.0
 70
  1712
 72
     0
 73
     0
 74
     0
  7

 75
     0
147
1.0
 76
     0
 77
     2
 78
   300
148
0.0
149
0.0
100
AcDbLayout
  1
Model
 70
     1
 71
     0
 10
0.0
 20
0.0
 11
12.0
 21
9.0
 12
0.0
 22
0.0
 32
0.0
 14
0.0
 24
0.0
 34
0.0
 15
0.0
 25
0.0
 35
0.0
146
0.0
 13
0.0
 23
0.0
 33
0.0
 16
1.0
 26
0.0
 36
0.0
 17
0.0
 27
1.0
 37
0.0
 76
     0
330
A
331
15
  0
LAYOUT
  5
4E3
102
{ACAD_REACTORS
330
4C6
102
}
330
4C6
100
AcDbPlotSettings
  1

  2
DocuWorks PDF Creator
  4

  6

 40
0.0
 41
0.0
 42
0.0
 43
0.0
 44
0.0
 45
0.0
 46
0.0
 47
0.0
 48
0.0
 49
0.0
140
0.0
141
0.0
142
1.0
143
1.0
 70
   688
 72
     0
 73
     0
 74
     5
  7

 75
    16
147
1.0
 76
     0
 77
     2
 78
   300
148
0.0
149
0.0
100
AcDbLayout
  1
レイアウト1
 70
     0
 71
     1
 10
0.0
 20
0.0
 11
12.0
 21
9.0
 12
0.0
 22
0.0
 32
0.0
 14
1.000000000000000E+20
 24
1.000000000000000E+20
 34
1.000000000000000E+20
 15
-1.000000000000000E+20
 25
-1.000000000000000E+20
 35
-1.000000000000000E+20
146
0.0
 13
0.0
 23
0.0
 33
0.0
 16
1.0
 26
0.0
 36
0.0
 17
0.0
 27
1.0
 37
0.0
 76
     0
330
B
  0
MATERIAL
  5
49C
102
{ACAD_XDICTIONARY
360
49D
102
}
102
{ACAD_REACTORS
330
493
102
}
330
493
100
AcDbMaterial
  1
ByBlock
 72
     0
 43
0.0208333333333333
 43
0.0
 43
0.0
 43
0.0
 43
0.0
 43
0.0208333333333333
 43
0.0
 43
0.0
 43
0.0
 43
0.0
 43
1.0
 43
0.0
 43
0.0
 43
0.0
 43
0.0
 43
1.0
 77
     0
 47
0.0208333333333333
 47
0.0
 47
0.0
 47
0.0
 47
0.0
 47
0.0208333333333333
 47
0.0
 47
0.0
 47
0.0
 47
0.0
 47
1.0
 47
0.0
 47
0.0
 47
0.0
 47
0.0
 47
1.0
171
     0
 49
0.0208333333333333
 49
0.0
 49
0.0
 49
0.0
 49
0.0
 49
0.0208333333333333
 49
0.0
 49
0.0
 49
0.0
 49
0.0
 49
1.0
 49
0.0
 49
0.0
 49
0.0
 49
0.0
 49
1.0
175
     0
142
0.0208333333333333
142
0.0
142
0.0
142
0.0
142
0.0
142
0.0208333333333333
142
0.0
142
0.0
142
0.0
142
0.0
142
1.0
142
0.0
142
0.0
142
0.0
142
0.0
142
1.0
179
     0
144
0.0208333333333333
144
0.0
144
0.0
144
0.0
144
0.0
144
0.0208333333333333
144
0.0
144
0.0
144
0.0
144
0.0
144
1.0
144
0.0
144
0.0
144
0.0
144
0.0
144
1.0
147
0.0208333333333333
147
0.0
147
0.0
147
0.0
147
0.0
147
0.0208333333333333
147
0.0
147
0.0
147
0.0
147
0.0
147
1.0
147
0.0
147
0.0
147
0.0
147
0.0
147
1.0
  0
MATERIAL
  5
494
102
{ACAD_XDICTIONARY
360
495
102
}
102
{ACAD_REACTORS
330
493
102
}
330
493
100
AcDbMaterial
  1
ByLayer
 72
     0
 43
0.0208333333333333
 43
0.0
 43
0.0
 43
0.0
 43
0.0
 43
0.0208333333333333
 43
0.0
 43
0.0
 43
0.0
 43
0.0
 43
1.0
 43
0.0
 43
0.0
 43
0.0
 43
0.0
 43
1.0
 77
     0
 47
0.0208333333333333
 47
0.0
 47
0.0
 47
0.0
 47
0.0
 47
0.0208333333333333
 47
0.0
 47
0.0
 47
0.0
 47
0.0
 47
1.0
 47
0.0
 47
0.0
 47
0.0
 47
0.0
 47
1.0
171
     0
 49
0.0208333333333333
 49
0.0
 49
0.0
 49
0.0
 49
0.0
 49
0.0208333333333333
 49
0.0
 49
0.0
 49
0.0
 49
0.0
 49
1.0
 49
0.0
 49
0.0
 49
0.0
 49
0.0
 49
1.0
175
     0
142
0.0208333333333333
142
0.0
142
0.0
142
0.0
142
0.0
142
0.0208333333333333
142
0.0
142
0.0
142
0.0
142
0.0
142
1.0
142
0.0
142
0.0
142
0.0
142
0.0
142
1.0
179
     0
144
0.0208333333333333
144
0.0
144
0.0
144
0.0
144
0.0
144
0.0208333333333333
144
0.0
144
0.0
144
0.0
144
0.0
144
1.0
144
0.0
144
0.0
144
0.0
144
0.0
144
1.0
147
0.0208333333333333
147
0.0
147
0.0
147
0.0
147
0.0
147
0.0208333333333333
147
0.0
147
0.0
147
0.0
147
0.0
147
1.0
147
0.0
147
0.0
147
0.0
147
0.0
147
1.0
  0
MATERIAL
  5
4A4
102
{ACAD_XDICTIONARY
360
4A5
102
}
102
{ACAD_REACTORS
330
493
102
}
330
493
100
AcDbMaterial
  1
Global
 72
     0
 43
0.0208333333333333
 43
0.0
 43
0.0
 43
0.0
 43
0.0
 43
0.0208333333333333
 43
0.0
 43
0.0
 43
0.0
 43
0.0
 43
1.0
 43
0.0
 43
0.0
 43
0.0
 43
0.0
 43
1.0
 77
     0
 47
0.0208333333333333
 47
0.0
 47
0.0
 47
0.0
 47
0.0
 47
0.0208333333333333
 47
0.0
 47
0.0
 47
0.0
 47
0.0
 47
1.0
 47
0.0
 47
0.0
 47
0.0
 47
0.0
 47
1.0
171
     0
 49
0.0208333333333333
 49
0.0
 49
0.0
 49
0.0
 49
0.0
 49
0.0208333333333333
 49
0.0
 49
0.0
 49
0.0
 49
0.0
 49
1.0
 49
0.0
 49
0.0
 49
0.0
 49
0.0
 49
1.0
175
     0
142
0.0208333333333333
142
0.0
142
0.0
142
0.0
142
0.0
142
0.0208333333333333
142
0.0
142
0.0
142
0.0
142
0.0
142
1.0
142
0.0
142
0.0
142
0.0
142
0.0
142
1.0
179
     0
144
0.0208333333333333
144
0.0
144
0.0
144
0.0
144
0.0
144
0.0208333333333333
144
0.0
144
0.0
144
0.0
144
0.0
144
1.0
144
0.0
144
0.0
144
0.0
144
0.0
144
1.0
147
0.0208333333333333
147
0.0
147
0.0
147
0.0
147
0.0
147
0.0208333333333333
147
0.0
147
0.0
147
0.0
147
0.0
147
1.0
147
0.0
147
0.0
147
0.0
147
0.0
147
1.0
  0
MLEADERSTYLE
  5
4DC
102
{ACAD_REACTORS
330
4DB
102
}
330
4DB
100
AcDbMLeaderStyle
179
     2
170
     2
171
     1
172
     0
 90
        2
 40
0.0
 41
0.0
173
     1
 91
-1056964608
340
11
 92
       -2
290
     1
 42
0.09
291
     1
 43
0.36
  3
Standard
 44
0.18
300

342
17
174
     1
178
     6
175
     1
176
     0
 93
-1056964608
 45
0.18
292
     0
297
     0
 46
0.18
 94
-1056964608
 47
1.0
 49
1.0
140
1.0
293
     1
141
0.0
294
     1
177
     0
142
1.0
295
     0
296
     0
143
0.125
271
     0
272
     9
273
     9
298
     0
  0
MLINESTYLE
  5
1C
102
{ACAD_REACTORS
330
1B
102
}
330
1B
100
AcDbMlineStyle
  2
STANDARD
 70
     0
  3

 62
     0
 51
90.0
 52
90.0
 71
     2
 49
0.5
 62
   256
  6
BYLAYER
 49
-0.5
 62
   256
  6
BYLAYER
  0
ACDBPLACEHOLDER
  5
492
102
{ACAD_REACTORS
330
491
102
}
330
491
  0
SCALE
  5
4CA
102
{ACAD_REACTORS
330
4C9
102
}
330
4C9
100
AcDbScale
 70
     0
300
1:1
140
1.0
141
1.0
290
     1
  0
SCALE
  5
4CB
102
{ACAD_REACTORS
330
4C9
102
}
330
4C9
100
AcDbScale
 70
     0
300
1/128" = 1'-0"
140
0.0078125
141
12.0
290
     0
  0
SCALE
  5
4CC
102
{ACAD_REACTORS
330
4C9
102
}
330
4C9
100
AcDbScale
 70
     0
300
1/64" = 1'-0"
140
0.015625
141
12.0
290
     0
  0
SCALE
  5
4CD
102
{ACAD_REACTORS
330
4C9
102
}
330
4C9
100
AcDbScale
 70
     0
300
1/32" = 1'-0"
140
0.03125
141
12.0
290
     0
  0
SCALE
  5
4CE
102
{ACAD_REACTORS
330
4C9
102
}
330
4C9
100
AcDbScale
 70
     0
300
1/16" = 1'-0"
140
0.0625
141
12.0
290
     0
  0
SCALE
  5
4CF
102
{ACAD_REACTORS
330
4C9
102
}
330
4C9
100
AcDbScale
 70
     0
300
3/32" = 1'-0"
140
0.09375
141
12.0
290
     0
  0
SCALE
  5
4D0
102
{ACAD_REACTORS
330
4C9
102
}
330
4C9
100
AcDbScale
 70
     0
300
1/8" = 1'-0"
140
0.125
141
12.0
290
     0
  0
SCALE
  5
4D1
102
{ACAD_REACTORS
330
4C9
102
}
330
4C9
100
AcDbScale
 70
     0
300
3/16" = 1'-0"
140
0.1875
141
12.0
290
     0
  0
SCALE
  5
4D2
102
{ACAD_REACTORS
330
4C9
102
}
330
4C9
100
AcDbScale
 70
     0
300
1/4" = 1'-0"
140
0.25
141
12.0
290
     0
  0
SCALE
  5
4D3
102
{ACAD_REACTORS
330
4C9
102
}
330
4C9
100
AcDbScale
 70
     0
300
3/8" = 1'-0"
140
0.375
141
12.0
290
     0
  0
SCALE
  5
4D4
102
{ACAD_REACTORS
330
4C9
102
}
330
4C9
100
AcDbScale
 70
     0
300
1/2" = 1'-0"
140
0.5
141
12.0
290
     0
  0
SCALE
  5
4D5
102
{ACAD_REACTORS
330
4C9
102
}
330
4C9
100
AcDbScale
 70
     0
300
3/4" = 1'-0"
140
0.75
141
12.0
290
     0
  0
SCALE
  5
4D6
102
{ACAD_REACTORS
330
4C9
102
}
330
4C9
100
AcDbScale
 70
     0
300
1" = 1'-0"
140
1.0
141
12.0
290
     0
  0
SCALE
  5
4D7
102
{ACAD_REACTORS
330
4C9
102
}
330
4C9
100
AcDbScale
 70
     0
300
1-1/2" = 1'-0"
140
1.5
141
12.0
290
     0
  0
SCALE
  5
4D8
102
{ACAD_REACTORS
330
4C9
102
}
330
4C9
100
AcDbScale
 70
     0
300
3" = 1'-0"
140
3.0
141
12.0
290
     0
  0
SCALE
  5
4D9
102
{ACAD_REACTORS
330
4C9
102
}
330
4C9
100
AcDbScale
 70
     0
300
6" = 1'-0"
140
6.0
141
12.0
290
     0
  0
SCALE
  5
4DA
102
{ACAD_REACTORS
330
4C9
102
}
330
4C9
100
AcDbScale
 70
     0
300
1'-0" = 1'-0"
140
12.0
141
12.0
290
     0
  0
ACDBSECTIONVIEWSTYLE
  5
4DE
102
{ACAD_REACTORS
330
4DD
330
545
102
}
330
4DD
100
AcDbModelDocViewStyle
 70
     0
  3
Imperial24
290
     0
300
Imperial24
 90
        0
100
AcDbSectionViewStyle
 70
     0
 71
     0
 90
       78
 71
     1
340
17
 62
   256
 40
0.24
340
0
340
0
 62
   256
 40
0.24
300
I, O, Q, S, X, Z
 40
0.48
 90
        3
 40
0.18
 90
        1
 71
     2
340
13
 90
       25
 62
   256
340
13
 90
       50
 62
   256
 40
0.24
 40
0.0
 40
0.24
 71
     3
340
17
 62
   256
 40
0.24
 90
        1
 40
0.75
 90
        1
300
%<\AcVar ViewType \f "%tc1">% %<\AcVar ViewSectionStartId>%-%<\AcVar ViewSectionEndId>%\PSCALE %<\AcVar ViewScale \f "%sn">%
 71
     4
 62
   256
 62
   257
300
ANSI31
 40
1.0
 90
        0
290
     0
290
     0
 90
        6
 40
0.0
 40
1.570796326794896
 40
0.2617993877991494
 40
1.308996938995747
 40
-0.2617993877991494
 40
1.832595714594046
  0
TABLESTYLE
  5
4C8
102
{ACAD_XDICTIONARY
360
584
102
}
102
{ACAD_REACTORS
330
4C7
102
}
330
4C7
100
AcDbTableStyle
280
     0
  3
Standard
 70
     0
 71
     0
 40
0.06
 41
0.06
280
     0
281
     0
  7
STANDARD
140
0.18
170
     2
 62
     0
 63
     7
283
     0
 90
      512
 91
        0
  1

274
    -2
284
     1
 64
     0
275
    -2
285
     1
 65
     0
276
    -2
286
     1
 66
     0
277
    -2
287
     1
 67
     0
278
    -2
288
     1
 68
     0
279
    -2
289
     1
 69
     0
  7
STANDARD
140
0.25
170
     5
 62
     0
 63
     7
283
     0
 90
      512
 91
        0
  1

274
    -2
284
     1
 64
     0
275
    -2
285
     1
 65
     0
276
    -2
286
     1
 66
     0
277
    -2
287
     1
 67
     0
278
    -2
288
     1
 68
     0
279
    -2
289
     1
 69
     0
  7
STANDARD
140
0.18
170
     5
 62
     0
 63
     7
283
     0
 90
      512
 91
        0
  1

274
    -2
284
     1
 64
     0
275
    -2
285
     1
 65
     0
276
    -2
286
     1
 66
     0
277
    -2
287
     1
 67
     0
278
    -2
288
     1
 68
     0
279
    -2
289
     1
 69
     0
  0
VISUALSTYLE
  5
4B2
102
{ACAD_REACTORS
330
4AC
102
}
330
4AC
100
AcDbVisualStyle
  2
2dWireframe
 70
     4
177
     3
291
     0
 70
    58
 90
        0
176
     1
 90
        2
176
     1
 90
        0
176
     1
 90
        0
176
     1
 40
0.6
176
     1
 40
30.0
176
     1
 62
     7
420
 16777215
176
     1
 90
        1
176
     1
 90
        4
176
     1
 62
     7
176
     1
 62
   257
176
     1
 90
        1
176
     1
 90
        1
176
     1
 40
1.0
176
     1
 90
        0
176
     1
 62
   257
176
     1
 40
1.0
176
     1
 90
        1
176
     1
 90
        6
176
     1
 90
        2
176
     1
 62
     7
176
     1
 90
        5
176
     1
 90
        0
176
     1
 90
        0
176
     1
290
     0
176
     1
 90
        1
176
     1
 40
0.0
176
     1
 90
        0
176
     1
290
     1
176
     1
290
     1
176
     1
290
     0
176
     1
290
     0
176
     1
290
     0
176
     1
290
     0
176
     1
290
     0
176
     1
290
     0
176
     1
290
     0
176
     1
 90
       50
176
     1
 40
0.0
176
     1
 40
1.0
176
     1
 90
        0
176
     1
 62
    18
420
        0
176
     1
 90
       50
176
     1
 90
        3
176
     1
 62
     5
420
      255
176
     1
290
     0
176
     1
 90
       50
176
     1
 90
       50
176
     1
 90
       50
176
     1
290
     0
176
     1
 90
       50
176
     1
 62
   256
176
     0
 40
1.0
176
     0
 90
        2
176
     1
  1
strokes_ogs.tif
176
     1
290
     0
176
     1
 40
1.0
176
     1
 40
1.0
176
     1
  0
VISUALSTYLE
  5
4B1
102
{ACAD_REACTORS
330
4AC
102
}
330
4AC
100
AcDbVisualStyle
  2
Basic
 70
     7
177
     3
291
     1
 70
    58
 90
        1
176
     1
 90
        0
176
     1
 90
        1
176
     1
 90
        0
176
     1
 40
0.6
176
     1
 40
30.0
176
     1
 62
     7
420
 16777215
176
     1
 90
        0
176
     1
 90
        4
176
     1
 62
     7
176
     1
 62
   257
176
     1
 90
        1
176
     1
 90
        1
176
     1
 40
1.0
176
     1
 90
        8
176
     1
 62
     7
176
     1
 40
1.0
176
     1
 90
        1
176
     1
 90
        6
176
     1
 90
        2
176
     1
 62
     7
176
     1
 90
        5
176
     1
 90
        0
176
     1
 90
        0
176
     1
290
     0
176
     1
 90
        1
176
     1
 40
0.0
176
     1
 90
        0
176
     1
290
     0
176
     1
290
     1
176
     1
290
     1
176
     1
290
     0
176
     1
290
     0
176
     1
290
     0
176
     1
290
     0
176
     1
290
     0
176
     1
290
     0
176
     1
 90
       50
176
     1
 40
0.0
176
     1
 40
1.0
176
     1
 90
        0
176
     1
 62
    18
420
        0
176
     1
 90
       50
176
     1
 90
        3
176
     1
 62
     5
420
      255
176
     1
290
     0
176
     1
 90
       50
176
     1
 90
       50
176
     1
 90
       50
176
     1
290
     0
176
     1
 90
       50
176
     1
 62
   256
176
     0
 40
1.0
176
     0
 90
        2
176
     1
  1
strokes_ogs.tif
176
     1
290
     0
176
     1
 40
1.0
176
     1
 40
1.0
176
     1
  0
VISUALSTYLE
  5
4B8
102
{ACAD_REACTORS
330
4AC
102
}
330
4AC
100
AcDbVisualStyle
  2
Brighten
 70
    12
177
     3
291
     1
 70
    58
 90
        2
176
     1
 90
        2
176
     1
 90
        0
176
     1
 90
        0
176
     1
 40
0.6
176
     1
 40
30.0
176
     1
 62
     7
420
 16777215
176
     1
 90
        1
176
     1
 90
        4
176
     1
 62
     7
176
     1
 62
   257
176
     1
 90
        1
176
     1
 90
        1
176
     1
 40
1.0
176
     1
 90
        8
176
     1
 62
     7
176
     1
 40
1.0
176
     1
 90
        1
176
     1
 90
        6
176
     1
 90
        2
176
     1
 62
     7
176
     1
 90
        5
176
     1
 90
        0
176
     1
 90
        0
176
     1
290
     0
176
     1
 90
        1
176
     1
 40
50.0
176
     1
 90
        0
176
     1
290
     0
176
     1
290
     1
176
     1
290
     1
176
     1
290
     0
176
     1
290
     0
176
     1
290
     0
176
     1
290
     0
176
     1
290
     0
176
     1
290
     0
176
     1
 90
       50
176
     1
 40
0.0
176
     1
 40
1.0
176
     1
 90
        0
176
     1
 62
    18
420
        0
176
     1
 90
       50
176
     1
 90
        3
176
     1
 62
     5
420
      255
176
     1
290
     0
176
     1
 90
       50
176
     1
 90
       50
176
     1
 90
       50
176
     1
290
     0
176
     1
 90
       50
176
     1
 62
   256
176
     0
 40
1.0
176
     0
 90
        2
176
     1
  1
strokes_ogs.tif
176
     1
290
     0
176
     1
 40
1.0
176
     1
 40
1.0
176
     1
  0
VISUALSTYLE
  5
4BC
102
{ACAD_REACTORS
330
4AC
102
}
330
4AC
100
AcDbVisualStyle
  2
ColorChange
 70
    16
177
     3
291
     1
 70
    58
 90
        2
176
     1
 90
        2
176
     1
 90
        3
176
     1
 90
        0
176
     1
 40
0.6
176
     1
 40
30.0
176
     1
 62
     8
420
  8421504
176
     1
 90
        1
176
     1
 90
        4
176
     1
 62
     7
176
     1
 62
   257
176
     1
 90
        1
176
     1
 90
        1
176
     1
 40
1.0
176
     1
 90
        8
176
     1
 62
     8
420
  8421504
176
     1
 40
1.0
176
     1
 90
        1
176
     1
 90
        6
176
     1
 90
        2
176
     1
 62
     7
176
     1
 90
        5
176
     1
 90
        0
176
     1
 90
        0
176
     1
290
     0
176
     1
 90
        1
176
     1
 40
0.0
176
     1
 90
        0
176
     1
290
     0
176
     1
290
     1
176
     1
290
     1
176
     1
290
     0
176
     1
290
     0
176
     1
290
     0
176
     1
290
     0
176
     1
290
     0
176
     1
290
     0
176
     1
 90
       50
176
     1
 40
0.0
176
     1
 40
1.0
176
     1
 90
        0
176
     1
 62
    18
420
        0
176
     1
 90
       50
176
     1
 90
        3
176
     1
 62
     5
420
      255
176
     1
290
     0
176
     1
 90
       50
176
     1
 90
       50
176
     1
 90
       50
176
     1
290
     0
176
     1
 90
       50
176
     1
 62
   256
176
     0
 40
1.0
176
     0
 90
        2
176
     1
  1
strokes_ogs.tif
176
     1
290
     0
176
     1
 40
1.0
176
     1
 40
1.0
176
     1
  0
VISUALSTYLE
  5
4B5
102
{ACAD_REACTORS
330
4AC
102
}
330
4AC
100
AcDbVisualStyle
  2
Conceptual
 70
     9
177
     3
291
     0
 70
    58
 90
        3
176
     1
 90
        2
176
     1
 90
        0
176
     1
 90
        0
176
     1
 40
0.6
176
     1
 40
30.0
176
     1
 62
     7
420
 16777215
176
     1
 90
        2
176
     1
 90
        2
176
     1
 62
     7
176
     1
 62
   257
176
     1
 90
        1
176
     1
 90
        1
176
     1
 40
179.0
176
     1
 90
        8
176
     1
 62
     7
176
     1
 40
1.0
176
     1
 90
        1
176
     1
 90
        6
176
     1
 90
        2
176
     1
 62
     7
176
     1
 90
        3
176
     1
 90
        0
176
     1
 90
        0
176
     1
290
     0
176
     1
 90
        1
176
     1
 40
0.0
176
     1
 90
        0
176
     1
290
     0
176
     1
290
     1
176
     1
290
     1
176
     1
290
     0
176
     1
290
     0
176
     1
290
     0
176
     1
290
     0
176
     1
290
     0
176
     1
290
     0
176
     1
 90
       50
176
     1
 40
0.0
176
     1
 40
1.0
176
     1
 90
        0
176
     1
 62
    18
420
        0
176
     1
 90
       50
176
     1
 90
        3
176
     1
 62
     5
420
      255
176
     1
290
     0
176
     1
 90
       50
176
     1
 90
       50
176
     1
 90
       50
176
     1
290
     0
176
     1
 90
       50
176
     1
 62
   256
176
     0
 40
1.0
176
     0
 90
        2
176
     1
  1
strokes_ogs.tif
176
     1
290
     0
176
     1
 40
1.0
176
     1
 40
1.0
176
     1
  0
VISUALSTYLE
  5
4B7
102
{ACAD_REACTORS
330
4AC
102
}
330
4AC
100
AcDbVisualStyle
  2
Dim
 70
    11
177
     3
291
     1
 70
    58
 90
        2
176
     1
 90
        2
176
     1
 90
        0
176
     1
 90
        0
176
     1
 40
0.6
176
     1
 40
30.0
176
     1
 62
     7
420
 16777215
176
     1
 90
        1
176
     1
 90
        4
176
     1
 62
     7
176
     1
 62
   257
176
     1
 90
        1
176
     1
 90
        1
176
     1
 40
1.0
176
     1
 90
        8
176
     1
 62
     7
176
     1
 40
1.0
176
     1
 90
        1
176
     1
 90
        6
176
     1
 90
        2
176
     1
 62
     7
176
     1
 90
        5
176
     1
 90
        0
176
     1
 90
        0
176
     1
290
     0
176
     1
 90
        1
176
     1
 40
-50.0
176
     1
 90
        0
176
     1
290
     0
176
     1
290
     1
176
     1
290
     1
176
     1
290
     0
176
     1
290
     0
176
     1
290
     0
176
     1
290
     0
176
     1
290
     0
176
     1
290
     0
176
     1
 90
       50
176
     1
 40
0.0
176
     1
 40
1.0
176
     1
 90
        0
176
     1
 62
    18
420
        0
176
     1
 90
       50
176
     1
 90
        3
176
     1
 62
     5
420
      255
176
     1
290
     0
176
     1
 90
       50
176
     1
 90
       50
176
     1
 90
       50
176
     1
290
     0
176
     1
 90
       50
176
     1
 62
   256
176
     0
 40
1.0
176
     0
 90
        2
176
     1
  1
strokes_ogs.tif
176
     1
290
     0
176
     1
 40
1.0
176
     1
 40
1.0
176
     1
  0
VISUALSTYLE
  5
4C4
102
{ACAD_REACTORS
330
4AC
102
}
330
4AC
100
AcDbVisualStyle
  2
EdgeColorOff
 70
    22
177
     3
291
     1
 70
    58
 90
        2
176
     0
 90
        2
176
     0
 90
        0
176
     0
 90
        0
176
     0
 40
0.6
176
     0
 40
30.0
176
     0
 62
     7
420
 16777215
176
     0
 90
        1
176
     0
 90
        4
176
     0
 62
     7
176
     0
 62
   257
176
     0
 90
        1
176
     0
 90
        1
176
     0
 40
1.0
176
     0
 90
        8
176
     2
 62
     7
176
     0
 40
1.0
176
     0
 90
        1
176
     0
 90
        6
176
     0
 90
        2
176
     0
 62
     7
176
     0
 90
        5
176
     0
 90
        0
176
     0
 90
        0
176
     0
290
     0
176
     0
 90
        1
176
     0
 40
0.0
176
     0
 90
        0
176
     0
290
     0
176
     1
290
     1
176
     1
290
     1
176
     1
290
     0
176
     1
290
     0
176
     1
290
     0
176
     1
290
     0
176
     1
290
     0
176
     1
290
     0
176
     1
 90
       50
176
     0
 40
0.0
176
     0
 40
1.0
176
     0
 90
        0
176
     0
 62
    18
420
        0
176
     0
 90
       50
176
     0
 90
        3
176
     0
 62
     5
420
      255
176
     0
290
     0
176
     1
 90
       50
176
     0
 90
       50
176
     0
 90
       50
176
     0
290
     0
176
     1
 90
       50
176
     0
 62
   256
176
     0
 40
1.0
176
     0
 90
        2
176
     0
  1
strokes_ogs.tif
176
     0
290
     0
176
     1
 40
1.0
176
     0
 40
1.0
176
     0
  0
VISUALSTYLE
  5
4BB
102
{ACAD_REACTORS
330
4AC
102
}
330
4AC
100
AcDbVisualStyle
  2
Facepattern
 70
    15
177
     3
291
     1
 70
    58
 90
        2
176
     1
 90
        2
176
     1
 90
        0
176
     1
 90
        0
176
     1
 40
0.6
176
     1
 40
30.0
176
     1
 62
     7
420
 16777215
176
     1
 90
        1
176
     1
 90
        4
176
     1
 62
     7
176
     1
 62
   257
176
     1
 90
        1
176
     1
 90
        1
176
     1
 40
1.0
176
     1
 90
        8
176
     1
 62
     7
176
     1
 40
1.0
176
     1
 90
        1
176
     1
 90
        6
176
     1
 90
        2
176
     1
 62
     7
176
     1
 90
        5
176
     1
 90
        0
176
     1
 90
        0
176
     1
290
     0
176
     1
 90
        1
176
     1
 40
0.0
176
     1
 90
        0
176
     1
290
     0
176
     1
290
     1
176
     1
290
     1
176
     1
290
     0
176
     1
290
     0
176
     1
290
     0
176
     1
290
     0
176
     1
290
     0
176
     1
290
     0
176
     1
 90
       50
176
     1
 40
0.0
176
     1
 40
1.0
176
     1
 90
        0
176
     1
 62
    18
420
        0
176
     1
 90
       50
176
     1
 90
        3
176
     1
 62
     5
420
      255
176
     1
290
     0
176
     1
 90
       50
176
     1
 90
       50
176
     1
 90
       50
176
     1
290
     0
176
     1
 90
       50
176
     1
 62
   256
176
     0
 40
1.0
176
     0
 90
        2
176
     1
  1
strokes_ogs.tif
176
     1
290
     0
176
     1
 40
1.0
176
     1
 40
1.0
176
     1
  0
VISUALSTYLE
  5
4AD
102
{ACAD_REACTORS
330
4AC
102
}
330
4AC
100
AcDbVisualStyle
  2
Flat
 70
     0
177
     3
291
     1
 70
    58
 90
        2
176
     1
 90
        1
176
     1
 90
        1
176
     1
 90
        2
176
     1
 40
0.6
176
     1
 40
30.0
176
     1
 62
     7
420
 16777215
176
     1
 90
        0
176
     1
 90
        0
176
     1
 62
     7
176
     1
 62
   257
176
     1
 90
        1
176
     1
 90
        1
176
     1
 40
1.0
176
     1
 90
        8
176
     1
 62
     7
176
     1
 40
1.0
176
     1
 90
        1
176
     1
 90
        6
176
     1
 90
        2
176
     1
 62
     7
176
     1
 90
        5
176
     1
 90
        0
176
     1
 90
        0
176
     1
290
     0
176
     1
 90
       13
176
     1
 40
0.0
176
     1
 90
        0
176
     1
290
     0
176
     1
290
     1
176
     1
290
     1
176
     1
290
     0
176
     1
290
     0
176
     1
290
     0
176
     1
290
     0
176
     1
290
     0
176
     1
290
     0
176
     1
 90
       50
176
     1
 40
0.0
176
     1
 40
1.0
176
     1
 90
        0
176
     1
 62
    18
420
        0
176
     1
 90
       50
176
     1
 90
        3
176
     1
 62
     5
420
      255
176
     1
290
     0
176
     1
 90
       50
176
     1
 90
       50
176
     1
 90
       50
176
     1
290
     0
176
     1
 90
       50
176
     1
 62
   256
176
     0
 40
1.0
176
     0
 90
        2
176
     1
  1
strokes_ogs.tif
176
     1
290
     0
176
     1
 40
1.0
176
     1
 40
1.0
176
     1
  0
VISUALSTYLE
  5
4AE
102
{ACAD_REACTORS
330
4AC
102
}
330
4AC
100
AcDbVisualStyle
  2
FlatWithEdges
 70
     1
177
     3
291
     1
 70
    58
 90
        2
176
     1
 90
        1
176
     1
 90
        1
176
     1
 90
        2
176
     1
 40
0.6
176
     1
 40
30.0
176
     1
 62
     7
420
 16777215
176
     1
 90
        1
176
     1
 90
        0
176
     1
 62
     7
176
     1
 62
   257
176
     1
 90
        1
176
     1
 90
        1
176
     1
 40
1.0
176
     1
 90
        0
176
     1
 62
   257
176
     1
 40
1.0
176
     1
 90
        1
176
     1
 90
        6
176
     1
 90
        2
176
     1
 62
     7
176
     1
 90
        5
176
     1
 90
        0
176
     1
 90
        0
176
     1
290
     0
176
     1
 90
       13
176
     1
 40
0.0
176
     1
 90
        0
176
     1
290
     0
176
     1
290
     1
176
     1
290
     1
176
     1
290
     0
176
     1
290
     0
176
     1
290
     0
176
     1
290
     0
176
     1
290
     0
176
     1
290
     0
176
     1
 90
       50
176
     1
 40
0.0
176
     1
 40
1.0
176
     1
 90
        0
176
     1
 62
    18
420
        0
176
     1
 90
       50
176
     1
 90
        3
176
     1
 62
     5
420
      255
176
     1
290
     0
176
     1
 90
       50
176
     1
 90
       50
176
     1
 90
       50
176
     1
290
     0
176
     1
 90
       50
176
     1
 62
   256
176
     0
 40
1.0
176
     0
 90
        2
176
     1
  1
strokes_ogs.tif
176
     1
290
     0
176
     1
 40
1.0
176
     1
 40
1.0
176
     1
  0
VISUALSTYLE
  5
4AF
102
{ACAD_REACTORS
330
4AC
102
}
330
4AC
100
AcDbVisualStyle
  2
Gouraud
 70
     2
177
     3
291
     1
 70
    58
 90
        2
176
     1
 90
        2
176
     1
 90
        1
176
     1
 90
        2
176
     1
 40
0.6
176
     1
 40
30.0
176
     1
 62
     7
420
 16777215
176
     1
 90
        0
176
     1
 90
        0
176
     1
 62
     7
176
     1
 62
   257
176
     1
 90
        1
176
     1
 90
        1
176
     1
 40
1.0
176
     1
 90
        0
176
     1
 62
     7
176
     1
 40
1.0
176
     1
 90
        1
176
     1
 90
        6
176
     1
 90
        2
176
     1
 62
     7
176
     1
 90
        5
176
     1
 90
        0
176
     1
 90
        0
176
     1
290
     0
176
     1
 90
       13
176
     1
 40
0.0
176
     1
 90
        0
176
     1
290
     0
176
     1
290
     1
176
     1
290
     1
176
     1
290
     0
176
     1
290
     0
176
     1
290
     0
176
     1
290
     0
176
     1
290
     0
176
     1
290
     0
176
     1
 90
       50
176
     1
 40
0.0
176
     1
 40
1.0
176
     1
 90
        0
176
     1
 62
    18
420
        0
176
     1
 90
       50
176
     1
 90
        3
176
     1
 62
     5
420
      255
176
     1
290
     0
176
     1
 90
       50
176
     1
 90
       50
176
     1
 90
       50
176
     1
290
     0
176
     1
 90
       50
176
     1
 62
   256
176
     0
 40
1.0
176
     0
 90
        2
176
     1
  1
strokes_ogs.tif
176
     1
290
     0
176
     1
 40
1.0
176
     1
 40
1.0
176
     1
  0
VISUALSTYLE
  5
4B0
102
{ACAD_REACTORS
330
4AC
102
}
330
4AC
100
AcDbVisualStyle
  2
GouraudWithEdges
 70
     3
177
     3
291
     1
 70
    58
 90
        2
176
     1
 90
        2
176
     1
 90
        1
176
     1
 90
        2
176
     1
 40
0.6
176
     1
 40
30.0
176
     1
 62
     7
420
 16777215
176
     1
 90
        1
176
     1
 90
        0
176
     1
 62
     7
176
     1
 62
   257
176
     1
 90
        1
176
     1
 90
        1
176
     1
 40
1.0
176
     1
 90
        0
176
     1
 62
   257
176
     1
 40
1.0
176
     1
 90
        1
176
     1
 90
        6
176
     1
 90
        2
176
     1
 62
     7
176
     1
 90
        5
176
     1
 90
        0
176
     1
 90
        0
176
     1
290
     0
176
     1
 90
       13
176
     1
 40
0.0
176
     1
 90
        0
176
     1
290
     0
176
     1
290
     1
176
     1
290
     1
176
     1
290
     0
176
     1
290
     0
176
     1
290
     0
176
     1
290
     0
176
     1
290
     0
176
     1
290
     0
176
     1
 90
       50
176
     1
 40
0.0
176
     1
 40
1.0
176
     1
 90
        0
176
     1
 62
    18
420
        0
176
     1
 90
       50
176
     1
 90
        3
176
     1
 62
     5
420
      255
176
     1
290
     0
176
     1
 90
       50
176
     1
 90
       50
176
     1
 90
       50
176
     1
290
     0
176
     1
 90
       50
176
     1
 62
   256
176
     0
 40
1.0
176
     0
 90
        2
176
     1
  1
strokes_ogs.tif
176
     1
290
     0
176
     1
 40
1.0
176
     1
 40
1.0
176
     1
  0
VISUALSTYLE
  5
4B4
102
{ACAD_REACTORS
330
4AC
102
}
330
4AC
100
AcDbVisualStyle
  2
Hidden
 70
     6
177
     3
291
     0
 70
    58
 90
        1
176
     1
 90
        2
176
     1
 90
        2
176
     1
 90
        0
176
     1
 40
0.6
176
     1
 40
30.0
176
     1
 62
     7
420
 16777215
176
     1
 90
        2
176
     1
 90
        2
176
     1
 62
     7
176
     1
 62
   257
176
     1
 90
        2
176
     1
 90
        1
176
     1
 40
40.0
176
     1
 90
        0
176
     1
 62
   257
176
     1
 40
1.0
176
     1
 90
        1
176
     1
 90
        6
176
     1
 90
        2
176
     1
 62
     7
176
     1
 90
        3
176
     1
 90
        0
176
     1
 90
        0
176
     1
290
     0
176
     1
 90
        1
176
     1
 40
0.0
176
     1
 90
        0
176
     1
290
     0
176
     1
290
     1
176
     1
290
     1
176
     1
290
     0
176
     1
290
     0
176
     1
290
     0
176
     1
290
     0
176
     1
290
     0
176
     1
290
     0
176
     1
 90
       50
176
     1
 40
0.0
176
     1
 40
1.0
176
     1
 90
        0
176
     1
 62
    18
420
        0
176
     1
 90
       50
176
     1
 90
        3
176
     1
 62
     5
420
      255
176
     1
290
     0
176
     1
 90
       50
176
     1
 90
       50
176
     1
 90
       50
176
     1
290
     0
176
     1
 90
       50
176
     1
 62
   256
176
     0
 40
1.0
176
     0
 90
        2
176
     1
  1
strokes_ogs.tif
176
     1
290
     0
176
     1
 40
1.0
176
     1
 40
1.0
176
     1
  0
VISUALSTYLE
  5
4C2
102
{ACAD_REACTORS
330
4AC
102
}
330
4AC
100
AcDbVisualStyle
  2
JitterOff
 70
    20
177
     3
291
     1
 70
    58
 90
        2
176
     0
 90
        2
176
     0
 90
        0
176
     0
 90
        0
176
     0
 40
0.6
176
     0
 40
30.0
176
     0
 62
     7
420
 16777215
176
     0
 90
        1
176
     0
 90
        4
176
     0
 62
     7
176
     0
 62
   257
176
     0
 90
        1
176
     0
 90
        1
176
     0
 40
1.0
176
     0
 90
       10
176
     2
 62
     7
176
     0
 40
1.0
176
     0
 90
        1
176
     0
 90
        6
176
     0
 90
        2
176
     0
 62
     7
176
     0
 90
        5
176
     0
 90
        0
176
     0
 90
        0
176
     0
290
     0
176
     0
 90
        1
176
     0
 40
0.0
176
     0
 90
        0
176
     0
290
     0
176
     1
290
     1
176
     1
290
     1
176
     1
290
     0
176
     1
290
     0
176
     1
290
     0
176
     1
290
     0
176
     1
290
     0
176
     1
290
     0
176
     1
 90
       50
176
     0
 40
0.0
176
     0
 40
1.0
176
     0
 90
        0
176
     0
 62
    18
420
        0
176
     0
 90
       50
176
     0
 90
        3
176
     0
 62
     5
420
      255
176
     0
290
     0
176
     1
 90
       50
176
     0
 90
       50
176
     0
 90
       50
176
     0
290
     0
176
     1
 90
       50
176
     0
 62
   256
176
     0
 40
1.0
176
     0
 90
        2
176
     0
  1
strokes_ogs.tif
176
     0
290
     0
176
     1
 40
1.0
176
     0
 40
1.0
176
     0
  0
VISUALSTYLE
  5
4BA
102
{ACAD_REACTORS
330
4AC
102
}
330
4AC
100
AcDbVisualStyle
  2
Linepattern
 70
    14
177
     3
291
     1
 70
    58
 90
        2
176
     1
 90
        2
176
     1
 90
        0
176
     1
 90
        0
176
     1
 40
0.6
176
     1
 40
30.0
176
     1
 62
     7
420
 16777215
176
     1
 90
        1
176
     1
 90
        4
176
     1
 62
     7
176
     1
 62
   257
176
     1
 90
        7
176
     1
 90
        7
176
     1
 40
1.0
176
     1
 90
        8
176
     1
 62
     7
176
     1
 40
1.0
176
     1
 90
        1
176
     1
 90
        6
176
     1
 90
        2
176
     1
 62
     7
176
     1
 90
        5
176
     1
 90
        0
176
     1
 90
        0
176
     1
290
     0
176
     1
 90
        1
176
     1
 40
0.0
176
     1
 90
        0
176
     1
290
     0
176
     1
290
     1
176
     1
290
     1
176
     1
290
     0
176
     1
290
     0
176
     1
290
     0
176
     1
290
     0
176
     1
290
     0
176
     1
290
     0
176
     1
 90
       50
176
     1
 40
0.0
176
     1
 40
1.0
176
     1
 90
        0
176
     1
 62
    18
420
        0
176
     1
 90
       50
176
     1
 90
        3
176
     1
 62
     5
420
      255
176
     1
290
     0
176
     1
 90
       50
176
     1
 90
       50
176
     1
 90
       50
176
     1
290
     0
176
     1
 90
       50
176
     1
 62
   256
176
     0
 40
1.0
176
     0
 90
        2
176
     1
  1
strokes_ogs.tif
176
     1
290
     0
176
     1
 40
1.0
176
     1
 40
1.0
176
     1
  0
VISUALSTYLE
  5
4C3
102
{ACAD_REACTORS
330
4AC
102
}
330
4AC
100
AcDbVisualStyle
  2
OverhangOff
 70
    21
177
     3
291
     1
 70
    58
 90
        2
176
     0
 90
        2
176
     0
 90
        0
176
     0
 90
        0
176
     0
 40
0.6
176
     0
 40
30.0
176
     0
 62
     7
420
 16777215
176
     0
 90
        1
176
     0
 90
        4
176
     0
 62
     7
176
     0
 62
   257
176
     0
 90
        1
176
     0
 90
        1
176
     0
 40
1.0
176
     0
 90
        9
176
     2
 62
     7
176
     0
 40
1.0
176
     0
 90
        1
176
     0
 90
        6
176
     0
 90
        2
176
     0
 62
     7
176
     0
 90
        5
176
     0
 90
        0
176
     0
 90
        0
176
     0
290
     0
176
     0
 90
        1
176
     0
 40
0.0
176
     0
 90
        0
176
     0
290
     0
176
     1
290
     1
176
     1
290
     1
176
     1
290
     0
176
     1
290
     0
176
     1
290
     0
176
     1
290
     0
176
     1
290
     0
176
     1
290
     0
176
     1
 90
       50
176
     0
 40
0.0
176
     0
 40
1.0
176
     0
 90
        0
176
     0
 62
    18
420
        0
176
     0
 90
       50
176
     0
 90
        3
176
     0
 62
     5
420
      255
176
     0
290
     0
176
     1
 90
       50
176
     0
 90
       50
176
     0
 90
       50
176
     0
290
     0
176
     1
 90
       50
176
     0
 62
   256
176
     0
 40
1.0
176
     0
 90
        2
176
     0
  1
strokes_ogs.tif
176
     0
290
     0
176
     1
 40
1.0
176
     0
 40
1.0
176
     0
  0
VISUALSTYLE
  5
4B6
102
{ACAD_REACTORS
330
4AC
102
}
330
4AC
100
AcDbVisualStyle
  2
Realistic
 70
     8
177
     3
291
     0
 70
    58
 90
        2
176
     1
 90
        3
176
     1
 90
        0
176
     1
 90
        2
176
     1
 40
0.6
176
     1
 40
30.0
176
     1
 62
     7
420
 16777215
176
     1
 90
        0
176
     1
 90
        0
176
     1
 62
     7
176
     1
 62
   257
176
     1
 90
        1
176
     1
 90
        1
176
     1
 40
1.0
176
     1
 90
        8
176
     1
 62
   257
176
     1
 40
1.0
176
     1
 90
        1
176
     1
 90
        6
176
     1
 90
        2
176
     1
 62
     7
176
     1
 90
        3
176
     1
 90
        0
176
     1
 90
        0
176
     1
290
     0
176
     1
 90
       13
176
     1
 40
0.0
176
     1
 90
        0
176
     1
290
     0
176
     1
290
     1
176
     1
290
     1
176
     1
290
     0
176
     1
290
     0
176
     1
290
     0
176
     1
290
     0
176
     1
290
     0
176
     1
290
     0
176
     1
 90
       50
176
     1
 40
0.0
176
     1
 40
1.0
176
     1
 90
        0
176
     1
 62
    18
420
        0
176
     1
 90
       50
176
     1
 90
        3
176
     1
 62
     5
420
      255
176
     1
290
     0
176
     1
 90
       50
176
     1
 90
       50
176
     1
 90
       50
176
     1
290
     0
176
     1
 90
       50
176
     1
 62
   256
176
     0
 40
1.0
176
     0
 90
        2
176
     1
  1
strokes_ogs.tif
176
     1
290
     0
176
     1
 40
1.0
176
     1
 40
1.0
176
     1
  0
VISUALSTYLE
  5
4C1
102
{ACAD_REACTORS
330
4AC
102
}
330
4AC
100
AcDbVisualStyle
  2
Shaded
 70
    27
177
     3
291
     0
 70
    58
 90
        2
176
     1
 90
        2
176
     1
 90
        1
176
     1
 90
        2
176
     1
 40
0.6
176
     1
 40
30.0
176
     1
 62
     7
420
 16777215
176
     1
 90
        0
176
     1
 90
        4
176
     1
 62
     7
176
     1
 62
   257
176
     1
 90
        1
176
     1
 90
        1
176
     1
 40
1.0
176
     1
 90
        8
176
     1
 62
   257
176
     1
 40
1.0
176
     1
 90
        1
176
     1
 90
        6
176
     1
 90
        2
176
     1
 62
     8
420
  7895160
176
     1
 90
        3
176
     1
 90
        0
176
     1
 90
        0
176
     1
290
     0
176
     1
 90
        5
176
     1
 40
0.0
176
     1
 90
        0
176
     1
290
     0
176
     1
290
     1
176
     1
290
     1
176
     1
290
     0
176
     1
290
     0
176
     1
290
     0
176
     1
290
     0
176
     1
290
     0
176
     1
290
     0
176
     1
 90
       50
176
     1
 40
0.0
176
     1
 40
1.0
176
     1
 90
        0
176
     1
 62
    18
420
        0
176
     1
 90
       50
176
     1
 90
        3
176
     1
 62
     5
420
      255
176
     1
290
     0
176
     1
 90
       50
176
     1
 90
       50
176
     1
 90
       50
176
     1
290
     0
176
     1
 90
       50
176
     1
 62
   256
176
     0
 40
1.0
176
     0
 90
        2
176
     1
  1
strokes_ogs.tif
176
     1
290
     0
176
     1
 40
1.0
176
     1
 40
1.0
176
     1
  0
VISUALSTYLE
  5
4C0
102
{ACAD_REACTORS
330
4AC
102
}
330
4AC
100
AcDbVisualStyle
  2
Shaded with edges
 70
    26
177
     3
291
     0
 70
    58
 90
        2
176
     1
 90
        2
176
     1
 90
        1
176
     1
 90
        2
176
     1
 40
0.6
176
     1
 40
30.0
176
     1
 62
     7
420
 16777215
176
     1
 90
        1
176
     1
 90
        2
176
     1
 62
     7
176
     1
 62
   257
176
     1
 90
        2
176
     1
 90
        1
176
     1
 40
1.0
176
     1
 90
        8
176
     1
 62
   257
176
     1
 40
1.0
176
     1
 90
        1
176
     1
 90
        6
176
     1
 90
        2
176
     1
 62
     7
176
     1
 90
        3
176
     1
 90
        0
176
     1
 90
        0
176
     1
290
     0
176
     1
 90
        5
176
     1
 40
0.0
176
     1
 90
        0
176
     1
290
     0
176
     1
290
     1
176
     1
290
     1
176
     1
290
     0
176
     1
290
     0
176
     1
290
     0
176
     1
290
     0
176
     1
290
     0
176
     1
290
     0
176
     1
 90
       50
176
     1
 40
0.0
176
     1
 40
1.0
176
     1
 90
        0
176
     1
 62
    18
420
        0
176
     1
 90
       50
176
     1
 90
        3
176
     1
 62
     5
420
      255
176
     1
290
     0
176
     1
 90
       50
176
     1
 90
       50
176
     1
 90
       50
176
     1
290
     0
176
     1
 90
       50
176
     1
 62
   256
176
     0
 40
1.0
176
     0
 90
        2
176
     1
  1
strokes_ogs.tif
176
     1
290
     0
176
     1
 40
1.0
176
     1
 40
1.0
176
     1
  0
VISUALSTYLE
  5
4BD
102
{ACAD_REACTORS
330
4AC
102
}
330
4AC
100
AcDbVisualStyle
  2
Shades of Gray
 70
    23
177
     3
291
     0
 70
    58
 90
        2
176
     1
 90
        2
176
     1
 90
        3
176
     1
 90
        0
176
     1
 40
0.6
176
     1
 40
30.0
176
     1
 62
     7
420
 16777215
176
     1
 90
        2
176
     1
 90
        2
176
     1
 62
     7
176
     1
 62
     7
176
     1
 90
        1
176
     1
 90
        1
176
     1
 40
40.0
176
     1
 90
        8
176
     1
 62
     7
176
     1
 40
1.0
176
     1
 90
        1
176
     1
 90
        6
176
     1
 90
        2
176
     1
 62
     7
176
     1
 90
        3
176
     1
 90
        0
176
     1
 90
        0
176
     1
290
     0
176
     1
 90
        1
176
     1
 40
0.0
176
     1
 90
        0
176
     1
290
     0
176
     1
290
     1
176
     1
290
     1
176
     1
290
     0
176
     1
290
     0
176
     1
290
     0
176
     1
290
     0
176
     1
290
     0
176
     1
290
     0
176
     1
 90
       50
176
     1
 40
0.0
176
     1
 40
1.0
176
     1
 90
        0
176
     1
 62
    18
420
        0
176
     1
 90
       50
176
     1
 90
        3
176
     1
 62
     5
420
      255
176
     1
290
     0
176
     1
 90
       50
176
     1
 90
       50
176
     1
 90
       50
176
     1
290
     0
176
     1
 90
       50
176
     1
 62
   256
176
     0
 40
1.0
176
     0
 90
        2
176
     1
  1
strokes_ogs.tif
176
     1
290
     0
176
     1
 40
1.0
176
     1
 40
1.0
176
     1
  0
VISUALSTYLE
  5
4BE
102
{ACAD_REACTORS
330
4AC
102
}
330
4AC
100
AcDbVisualStyle
  2
Sketchy
 70
    24
177
     3
291
     0
 70
    58
 90
        1
176
     1
 90
        2
176
     1
 90
        2
176
     1
 90
        0
176
     1
 40
0.6
176
     1
 40
30.0
176
     1
 62
     7
420
 16777215
176
     1
 90
        2
176
     1
 90
        2
176
     1
 62
     7
176
     1
 62
     7
176
     1
 90
        1
176
     1
 90
        1
176
     1
 40
40.0
176
     1
 90
       11
176
     1
 62
     7
176
     1
 40
1.0
176
     1
 90
        1
176
     1
 90
        6
176
     1
 90
        2
176
     1
 62
     7
176
     1
 90
        6
176
     1
 90
        0
176
     1
 90
        0
176
     1
290
     0
176
     1
 90
        1
176
     1
 40
0.0
176
     1
 90
        0
176
     1
290
     0
176
     1
290
     1
176
     1
290
     1
176
     1
290
     0
176
     1
290
     0
176
     1
290
     0
176
     1
290
     0
176
     1
290
     0
176
     1
290
     0
176
     1
 90
       50
176
     1
 40
0.0
176
     1
 40
1.0
176
     1
 90
        0
176
     1
 62
    18
420
        0
176
     1
 90
       50
176
     1
 90
        3
176
     1
 62
     5
420
      255
176
     1
290
     0
176
     1
 90
       50
176
     1
 90
       50
176
     1
 90
       50
176
     1
290
     0
176
     1
 90
       50
176
     1
 62
   256
176
     0
 40
1.0
176
     0
 90
        2
176
     1
  1
strokes_ogs.tif
176
     1
290
     0
176
     1
 40
1.0
176
     1
 40
1.0
176
     1
  0
VISUALSTYLE
  5
4B9
102
{ACAD_REACTORS
330
4AC
102
}
330
4AC
100
AcDbVisualStyle
  2
Thicken
 70
    13
177
     3
291
     1
 70
    58
 90
        2
176
     1
 90
        2
176
     1
 90
        0
176
     1
 90
        0
176
     1
 40
0.6
176
     1
 40
30.0
176
     1
 62
     7
420
 16777215
176
     1
 90
        1
176
     1
 90
        4
176
     1
 62
     7
176
     1
 62
   257
176
     1
 90
        1
176
     1
 90
        1
176
     1
 40
1.0
176
     1
 90
       12
176
     1
 62
     7
176
     1
 40
1.0
176
     1
 90
        1
176
     1
 90
        6
176
     1
 90
        2
176
     1
 62
     7
176
     1
 90
        5
176
     1
 90
        0
176
     1
 90
        0
176
     1
290
     0
176
     1
 90
        1
176
     1
 40
0.0
176
     1
 90
        0
176
     1
290
     0
176
     1
290
     1
176
     1
290
     1
176
     1
290
     0
176
     1
290
     0
176
     1
290
     0
176
     1
290
     0
176
     1
290
     0
176
     1
290
     0
176
     1
 90
       50
176
     1
 40
0.0
176
     1
 40
1.0
176
     1
 90
        0
176
     1
 62
    18
420
        0
176
     1
 90
       50
176
     1
 90
        3
176
     1
 62
     5
420
      255
176
     1
290
     0
176
     1
 90
       50
176
     1
 90
       50
176
     1
 90
       50
176
     1
290
     0
176
     1
 90
       50
176
     1
 62
   256
176
     0
 40
1.0
176
     0
 90
        2
176
     1
  1
strokes_ogs.tif
176
     1
290
     0
176
     1
 40
1.0
176
     1
 40
1.0
176
     1
  0
VISUALSTYLE
  5
4B3
102
{ACAD_REACTORS
330
4AC
102
}
330
4AC
100
AcDbVisualStyle
  2
Wireframe
 70
     5
177
     3
291
     0
 70
    58
 90
        0
176
     1
 90
        2
176
     1
 90
        0
176
     1
 90
        0
176
     1
 40
0.6
176
     1
 40
30.0
176
     1
 62
     7
420
 16777215
176
     1
 90
        1
176
     1
 90
        4
176
     1
 62
     7
176
     1
 62
   257
176
     1
 90
        1
176
     1
 90
        1
176
     1
 40
1.0
176
     1
 90
        0
176
     1
 62
   257
176
     1
 40
1.0
176
     1
 90
        1
176
     1
 90
        6
176
     1
 90
        2
176
     1
 62
     7
176
     1
 90
        3
176
     1
 90
        0
176
     1
 90
        0
176
     1
290
     0
176
     1
 90
        1
176
     1
 40
0.0
176
     1
 90
        0
176
     1
290
     0
176
     1
290
     1
176
     1
290
     1
176
     1
290
     0
176
     1
290
     0
176
     1
290
     0
176
     1
290
     0
176
     1
290
     0
176
     1
290
     0
176
     1
 90
       50
176
     1
 40
0.0
176
     1
 40
1.0
176
     1
 90
        0
176
     1
 62
    18
420
        0
176
     1
 90
       50
176
     1
 90
        3
176
     1
 62
     5
420
      255
176
     1
290
     0
176
     1
 90
       50
176
     1
 90
       50
176
     1
 90
       50
176
     1
290
     0
176
     1
 90
       50
176
     1
 62
   256
176
     0
 40
1.0
176
     0
 90
        2
176
     1
  1
strokes_ogs.tif
176
     1
290
     0
176
     1
 40
1.0
176
     1
 40
1.0
176
     1
  0
VISUALSTYLE
  5
4BF
102
{ACAD_REACTORS
330
4AC
102
}
330
4AC
100
AcDbVisualStyle
  2
X-Ray
 70
    25
177
     3
291
     0
 70
    58
 90
        2
176
     1
 90
        2
176
     1
 90
        1
176
     1
 90
        1
176
     1
 40
0.5
176
     1
 40
30.0
176
     1
 62
     7
420
 16777215
176
     1
 90
        1
176
     1
 90
        0
176
     1
 62
     7
176
     1
 62
   257
176
     1
 90
        1
176
     1
 90
        1
176
     1
 40
1.0
176
     1
 90
        8
176
     1
 62
     7
176
     1
 40
1.0
176
     1
 90
        1
176
     1
 90
        6
176
     1
 90
        2
176
     1
 62
     7
176
     1
 90
        3
176
     1
 90
        0
176
     1
 90
        0
176
     1
290
     0
176
     1
 90
       13
176
     1
 40
0.0
176
     1
 90
        0
176
     1
290
     0
176
     1
290
     1
176
     1
290
     1
176
     1
290
     0
176
     1
290
     0
176
     1
290
     0
176
     1
290
     0
176
     1
290
     0
176
     1
290
     0
176
     1
 90
       50
176
     1
 40
0.0
176
     1
 40
1.0
176
     1
 90
        0
176
     1
 62
    18
420
        0
176
     1
 90
       50
176
     1
 90
        3
176
     1
 62
     5
420
      255
176
     1
290
     0
176
     1
 90
       50
176
     1
 90
       50
176
     1
 90
       50
176
     1
290
     0
176
     1
 90
       50
176
     1
 62
   256
176
     0
 40
1.0
176
     0
 90
        2
176
     1
  1
strokes_ogs.tif
176
     1
290
     0
176
     1
 40
1.0
176
     1
 40
1.0
176
     1
  0
DICTIONARYVAR
  5
580
102
{ACAD_REACTORS
330
57A
102
}
330
57A
100
DictionaryVariables
280
     0
  1
1:1
  0
DICTIONARYVAR
  5
57C
102
{ACAD_REACTORS
330
57A
102
}
330
57A
100
DictionaryVariables
280
     0
  1
STANDARD
  0
DICTIONARYVAR
  5
57B
102
{ACAD_REACTORS
330
57A
102
}
330
57A
100
DictionaryVariables
280
     0
  1
STANDARD
  0
DICTIONARYVAR
  5
57D
102
{ACAD_REACTORS
330
57A
102
}
330
57A
100
DictionaryVariables
280
     0
  1
Imperial24
  0
DICTIONARYVAR
  5
57E
102
{ACAD_REACTORS
330
57A
102
}
330
57A
100
DictionaryVariables
280
     0
  1
Imperial24
  0
DICTIONARYVAR
  5
582
102
{ACAD_REACTORS
330
57A
102
}
330
57A
100
DictionaryVariables
280
     0
  1
1
  0
DICTIONARYVAR
  5
583
102
{ACAD_REACTORS
330
57A
102
}
330
57A
100
DictionaryVariables
280
     0
  1
15
  0
DICTIONARYVAR
  5
581
102
{ACAD_REACTORS
330
57A
102
}
330
57A
100
DictionaryVariables
280
     0
  1
0
  0
DICTIONARYVAR
  5
57F
102
{ACAD_REACTORS
330
57A
102
}
330
57A
100
DictionaryVariables
280
     0
  1
0
  0
DICTIONARY
  5
519
102
{ACAD_REACTORS
330
512
102
}
330
512
100
AcDbDictionary
281
     1
  0
XRECORD
  5
579
102
{ACAD_REACTORS
330
577
102
}
330
577
100
AcDbXrecord
280
     1
330
2A
  0
DICTIONARY
  5
49D
330
49C
100
AcDbDictionary
280
     1
281
     1
  3
BUMPTILE
360
49F
  3
DIFFUSETILE
360
49E
  3
OPACITYTILE
360
4A2
  3
REFLECTIONTILE
360
4A1
  3
REFRACTIONTILE
360
4A3
  3
SPECULARTILE
360
4A0
  0
DICTIONARY
  5
495
330
494
100
AcDbDictionary
280
     1
281
     1
  3
BUMPTILE
360
497
  3
DIFFUSETILE
360
496
  3
OPACITYTILE
360
49A
  3
REFLECTIONTILE
360
499
  3
REFRACTIONTILE
360
49B
  3
SPECULARTILE
360
498
  0
DICTIONARY
  5
4A5
330
4A4
100
AcDbDictionary
280
     1
281
     1
  3
BUMPTILE
360
4A7
  3
DIFFUSETILE
360
4A6
  3
OPACITYTILE
360
4AA
  3
REFLECTIONTILE
360
4A9
  3
REFRACTIONTILE
360
4AB
  3
SPECULARTILE
360
4A8
  0
DICTIONARY
  5
584
330
4C8
100
AcDbDictionary
280
     1
281
     1
  3
ACAD_ROUNDTRIP_2008_TABLESTYLE_CELLSTYLEMAP
360
585
  0
XRECORD
  5
49F
102
{ACAD_REACTORS
330
49D
102
}
330
49D
100
AcDbXrecord
280
     1
270
     1
271
     1
  0
XRECORD
  5
49E
102
{ACAD_REACTORS
330
49D
102
}
330
49D
100
AcDbXrecord
280
     1
270
     1
271
     1
  0
XRECORD
  5
4A2
102
{ACAD_REACTORS
330
49D
102
}
330
49D
100
AcDbXrecord
280
     1
270
     1
271
     1
  0
XRECORD
  5
4A1
102
{ACAD_REACTORS
330
49D
102
}
330
49D
100
AcDbXrecord
280
     1
270
     1
271
     1
  0
XRECORD
  5
4A3
102
{ACAD_REACTORS
330
49D
102
}
330
49D
100
AcDbXrecord
280
     1
270
     1
271
     1
  0
XRECORD
  5
4A0
102
{ACAD_REACTORS
330
49D
102
}
330
49D
100
AcDbXrecord
280
     1
270
     1
271
     1
  0
XRECORD
  5
497
102
{ACAD_REACTORS
330
495
102
}
330
495
100
AcDbXrecord
280
     1
270
     1
271
     1
  0
XRECORD
  5
496
102
{ACAD_REACTORS
330
495
102
}
330
495
100
AcDbXrecord
280
     1
270
     1
271
     1
  0
XRECORD
  5
49A
102
{ACAD_REACTORS
330
495
102
}
330
495
100
AcDbXrecord
280
     1
270
     1
271
     1
  0
XRECORD
  5
499
102
{ACAD_REACTORS
330
495
102
}
330
495
100
AcDbXrecord
280
     1
270
     1
271
     1
  0
XRECORD
  5
49B
102
{ACAD_REACTORS
330
495
102
}
330
495
100
AcDbXrecord
280
     1
270
     1
271
     1
  0
XRECORD
  5
498
102
{ACAD_REACTORS
330
495
102
}
330
495
100
AcDbXrecord
280
     1
270
     1
271
     1
  0
XRECORD
  5
4A7
102
{ACAD_REACTORS
330
4A5
102
}
330
4A5
100
AcDbXrecord
280
     1
270
     1
271
     1
  0
XRECORD
  5
4A6
102
{ACAD_REACTORS
330
4A5
102
}
330
4A5
100
AcDbXrecord
280
     1
270
     1
271
     1
  0
XRECORD
  5
4AA
102
{ACAD_REACTORS
330
4A5
102
}
330
4A5
100
AcDbXrecord
280
     1
270
     1
271
     1
  0
XRECORD
  5
4A9
102
{ACAD_REACTORS
330
4A5
102
}
330
4A5
100
AcDbXrecord
280
     1
270
     1
271
     1
  0
XRECORD
  5
4AB
102
{ACAD_REACTORS
330
4A5
102
}
330
4A5
100
AcDbXrecord
280
     1
270
     1
271
     1
  0
XRECORD
  5
4A8
102
{ACAD_REACTORS
330
4A5
102
}
330
4A5
100
AcDbXrecord
280
     1
270
     1
271
     1
  0
CELLSTYLEMAP
  5
585
102
{ACAD_REACTORS
330
584
102
}
330
584
100
AcDbCellStyleMap
 90
        3
300
CELLSTYLE
  1
TABLEFORMAT_BEGIN
 90
        5
170
     1
 91
        0
 92
    32768
 62
   257
 93
        1
300
CONTENTFORMAT
  1
CONTENTFORMAT_BEGIN
 90
        0
 91
        0
 92
      512
 93
        0
300

 40
0.0
140
1.0
 94
        5
 62
     0
340
17
144
0.25
309
CONTENTFORMAT_END
171
     0
 94
        0
309
TABLEFORMAT_END
  1
CELLSTYLE_BEGIN
 90
        1
 91
        1
300
_TITLE
309
CELLSTYLE_END
300
CELLSTYLE
  1
TABLEFORMAT_BEGIN
 90
        5
170
     1
 91
        0
 92
        0
 62
   257
 93
        1
300
CONTENTFORMAT
  1
CONTENTFORMAT_BEGIN
 90
        0
 91
        0
 92
      512
 93
        0
300

 40
0.0
140
1.0
 94
        5
 62
     0
340
17
144
0.18
309
CONTENTFORMAT_END
171
     0
 94
        0
309
TABLEFORMAT_END
  1
CELLSTYLE_BEGIN
 90
        2
 91
        1
300
_HEADER
309
CELLSTYLE_END
300
CELLSTYLE
  1
TABLEFORMAT_BEGIN
 90
        5
170
     1
 91
        0
 92
        0
 62
   257
 93
        1
300
CONTENTFORMAT
  1
CONTENTFORMAT_BEGIN
 90
        0
 91
        0
 92
      512
 93
        0
300

 40
0.0
140
1.0
 94
        2
 62
     0
340
17
144
0.18
309
CONTENTFORMAT_END
171
     0
 94
        0
309
TABLEFORMAT_END
  1
CELLSTYLE_BEGIN
 90
        3
 91
        2
300
_DATA
309
CELLSTYLE_END
  0
ENDSEC
  0
EOF
