  0
SECTION
  2
HEADER
  9
$ACADVER
  1
AC1014
  9
$ACADMAINTVER
 70
           0
  9
$DWGCODEPAGE
  3
DOS932
  9
$INSBASE
 10
0.0
 20
0.0
 30
0.0
  9
$EXTMIN
 10
1.000000000000E+20
 20
1.000000000000E+20
 30
1.000000000000E+20
  9
$EXTMAX
 10
-1.000000000000E+20
 20
-1.000000000000E+20
 30
-1.000000000000E+20
  9
$LIMMIN
 10
0.0
 20
0.0
  9
$LIMMAX
 10
0.0
 20
0.0
  9
$ORTHOMODE
 70
           0
  9
$REGENMODE
 70
           1
  9
$FILLMODE
 70
           1
  9
$QTEXTMODE
 70
           0
  9
$MIRRTEXT
 70
           1
  9
$DRAGMODE
 70
           2
  9
$LTSCALE
 40
1.0
  9
$OSMODE
 70
           0
  9
$ATTMODE
 70
           1
  9
$TEXTSIZE
 40
0.2
  9
$TRACEWID
 40
0.05
  9
$TEXTSTYLE
  7
STANDARD
  9
$CLAYER
  8
0
  9
$CELTYPE
  6
CONTINUOUS
  9
$CECOLOR
 62
         256
  9
$CELTSCALE
 40
1.0
  9
$DELOBJ
 70
           1
  9
$DISPSILH
 70
           0
  9
$DIMSCALE
 40
1.0
  9
$DIMASZ
 40
0.18
  9
$DIMEXO
 40
0.0625
  9
$DIMDLI
 40
0.38
  9
$DIMRND
 40
0.0
  9
$DIMDLE
 40
0.0
  9
$DIMEXE
 40
0.18
  9
$DIMTP
 40
0.0
  9
$DIMTM
 40
0.0
  9
$DIMTXT
 40
0.18
  9
$DIMCEN
 40
0.09
  9
$DIMTSZ
 40
0.0
  9
$DIMTOL
 70
           0
  9
$DIMLIM
 70
           0
  9
$DIMTIH
 70
           1
  9
$DIMTOH
 70
           1
  9
$DIMSE1
 70
           0
  9
$DIMSE2
 70
           0
  9
$DIMTAD
 70
           0
  9
$DIMZIN
 70
           0
  9
$DIMBLK
  1

  9
$DIMASO
 70
           1
  9
$DIMSHO
 70
           1
  9
$DIMPOST
  1

  9
$DIMAPOST
  1

  9
$DIMALT
 70
           0
  9
$DIMALTD
 70
           2
  9
$DIMALTF
 40
25.4
  9
$DIMLFAC
 40
1.0
  9
$DIMTOFL
 70
           0
  9
$DIMTVP
 40
0.0
  9
$DIMTIX
 70
           0
  9
$DIMSOXD
 70
           0
  9
$DIMSAH
 70
           0
  9
$DIMBLK1
  1

  9
$DIMBLK2
  1

  9
$DIMSTYLE
  2
STANDARD
  9
$DIMCLRD
 70
           0
  9
$DIMCLRE
 70
           0
  9
$DIMCLRT
 70
           0
  9
$DIMTFAC
 40
1.0
  9
$DIMGAP
 40
0.09
  9
$DIMJUST
 70
           0
  9
$DIMSD1
 70
           0
  9
$DIMSD2
 70
           0
  9
$DIMTOLJ
 70
           1
  9
$DIMTZIN
 70
           0
  9
$DIMALTZ
 70
           0
  9
$DIMALTTZ
 70
           0
  9
$DIMFIT
 70
           3
  9
$DIMUPT
 70
           0
  9
$DIMUNIT
 70
           2
  9
$DIMDEC
 70
           4
  9
$DIMTDEC
 70
           4
  9
$DIMALTU
 70
           2
  9
$DIMALTTD
 70
           2
  9
$DIMTXSTY
  7
STANDARD
  9
$DIMAUNIT
 70
           0
  9
$LUNITS
 70
           2
  9
$LUPREC
 70
           4
  9
$SKETCHINC
 40
0.1
  9
$FILLETRAD
 40
0.0
  9
$AUNITS
 70
           0
  9
$AUPREC
 70
           0
  9
$MENU
  1
acad
  9
$ELEVATION
 40
0.0
  9
$PELEVATION
 40
0.0
  9
$THICKNESS
 40
0.0
  9
$LIMCHECK
 70
           0
  9
$BLIPMODE
 70
           1
  9
$CHAMFERA
 40
0.0
  9
$CHAMFERB
 40
0.0
  9
$CHAMFERC
 40
0.0
  9
$CHAMFERD
 40
0.0
  9
$SKPOLY
 70
           0
  9
$TDCREATE
 40
0.000000000
  9
$TDUPDATE
 40
0.000000000
  9
$TDINDWG
 40
0.0000000000
  9
$TDUSRTIMER
 40
0.0000000000
  9
$USRTIMER
 70
           1
  9
$ANGBASE
 50
0.0
  9
$ANGDIR
 70
           0
  9
$PDMODE
 70
           0
  9
$PDSIZE
 40
0.0
  9
$PLINEWID
 40
0.0
  9
$COORDS
 70
           0
  9
$SPLFRAME
 70
           0
  9
$SPLINETYPE
 70
           6
  9
$SPLINESEGS
 70
           8
  9
$ATTDIA
 70
           0
  9
$ATTREQ
 70
           1
  9
$HANDLING
 70
           1
  9
$HANDSEED
  5
48E
  9
$SURFTAB1
 70
           6
  9
$SURFTAB2
 70
           6
  9
$SURFTYPE
 70
           6
  9
$SURFU
 70
           6
  9
$SURFV
 70
           6
  9
$UCSNAME
  2

  9
$UCSORG
 10
0.0
 20
0.0
 30
0.0
  9
$UCSXDIR
 10
1.0
 20
0.0
 30
0.0
  9
$UCSYDIR
 10
0.0
 20
1.0
 30
0.0
  9
$PUCSNAME
  2

  9
$PUCSORG
 10
0.0
 20
0.0
 30
0.0
  9
$PUCSXDIR
 10
1.0
 20
0.0
 30
0.0
  9
$PUCSYDIR
 10
0.0
 20
1.0
 30
0.0
  9
$USERI1
 70
           0
  9
$USERI2
 70
           0
  9
$USERI3
 70
           0
  9
$USERI4
 70
           0
  9
$USERI5
 70
           0
  9
$USERR1
 40
0.0
  9
$USERR2
 40
0.0
  9
$USERR3
 40
0.0
  9
$USERR4
 40
0.0
  9
$USERR5
 40
0.0
  9
$WORLDVIEW
 70
           1
  9
$SHADEDGE
 70
           3
  9
$SHADEDIF
 70
          70
  9
$TILEMODE
 70
           1
  9
$MAXACTVP
 70
          16
  9
$PINSBASE
 10
0.0
 20
0.0
 30
0.0
  9
$PLIMCHECK
 70
           0
  9
$PEXTMIN
 10
1.000000000000E+20
 20
1.000000000000E+20
 30
1.000000000000E+20
  9
$PEXTMAX
 10
-1.000000000000E+20
 20
-1.000000000000E+20
 30
-1.000000000000E+20
  9
$PLIMMIN
 10
0.0
 20
0.0
  9
$PLIMMAX
 10
12.0
 20
9.0
  9
$UNITMODE
 70
           0
  9
$VISRETAIN
 70
           0
  9
$PLINEGEN
 70
           1
  9
$PSLTSCALE
 70
           0
  9
$TREEDEPTH
 70
        3020
  9
$PICKSTYLE
 70
           1
  9
$CMLSTYLE
  2
STANDARD
  9
$CMLJUST
 70
           0
  9
$CMLSCALE
 40
1.0
  9
$PROXYGRAPHICS
 70
           0
  9
$MEASUREMENT
 70
           0
  0
ENDSEC
  0
SECTION
  2
CLASSES
  0
CLASS
  1
LWPOLYLINE
  2
AcDbPolyline
  3
"AutoCAD"
 90
        0
280
           0
281
           1
  0
CLASS
  1
IMAGE
  2
AcDbRasterImage
  3
ISM
 90
      127
280
           0
281
           1
  0
CLASS
  1
OLE2FRAME
  2
AcDbOle2Frame
  3
""
 90
        0
280
           0
281
           1
  0
CLASS
  1
HATCH
  2
AcDbHatch
  3
"ACAD_SEDONA"
 90
        0
280
           0
281
           1
  0
CLASS
  1
DICTIONARYVAR
  2
AcDbDictionaryVar
  3
"AutoCAD"
 90
        0
280
           0
281
           0
  0
CLASS
  1
RASTERVARIABLES
  2
AcDbRasterVariables
  3
ISM
 90
        0
280
           0
281
           0
  0
CLASS
  1
IMAGEDEF
  2
AcDbRasterImageDef
  3
ISM
 90
        0
280
           0
281
           0
  0
CLASS
  1
IMAGEDEF_REACTOR
  2
AcDbRasterImageDefReactor
  3
ISM
 90
        1
280
           0
281
           0
  0
CLASS
  1
IDBUFFER
  2
AcDbIdBuffer
  3
"Acad"
 90
        0
280
           0
281
           0
  0
CLASS
  1
SPATIAL_FILTER
  2
AcDbSpatialFilter
  3
"Acad"
 90
        0
280
           0
281
           0
  0
CLASS
  1
XRECORD
  2
AcDbXrecord
  3
"<Built In>"
 90
        0
280
           0
281
           0
  0
CLASS
  1
SORTENTSTABLE
  2
AcDbSortentsTable
  3
"AutoCAD"
 90
        0
280
           0
281
           0
  0
CLASS
  1
LAYER_INDEX
  2
AcDbLayerIndex
  3
"Acad"
 90
        0
280
           0
281
           0
  0
CLASS
  1
SPATIAL_INDEX
  2
AcDbSpatialIndex
  3
"Acad"
 90
        0
280
           0
281
           0
  0
CLASS
  1
OBJECT_PTR
  2
CAseDLPNTableRecord
  3
"ASE-LPNTableRecord"
 90
        1
280
           0
281
           0
  0
CLASS
  1
LAYOUT
  2
AcDbLayout
  3
"AutoCAD 2000"
 90
        1
280
           0
281
           0
  0
CLASS
  1
PLOTSETTINGS
  2
AcDbPlotSettings
  3
"AutoCAD 2000"
 90
        1
280
           0
281
           0
  0
CLASS
  1
ACDBDICTIONARYWDFLT
  2
AcDbDictionaryWithDefault
  3
"AutoCAD 2000"
 90
        1
280
           0
281
           0
  0
CLASS
  1
ACDBPLACEHOLDER
  2
AcDbPlaceHolder
  3
"AutoCAD 2000"
 90
        1
280
           0
281
           0
  0
CLASS
  1
VBA_PROJECT
  2
AcDbVbaProject
  3
"acadvba"
 90
        1
280
           0
281
           0
  0
CLASS
  1
WIPEOUT
  2
AcDbWipeout
  3
WipeOut|AutoCAD Express Tool|expresstools@autodesk.com
 90
      127
280
           0
281
           1
  0
CLASS
  1
WIPEOUTVARIABLES
  2
AcDbWipeoutVariables
  3
WipeOut|AutoCAD Express Tool|expresstools@autodesk.com
 90
        0
280
           0
281
           0
  0
CLASS
  1
RTEXT
  2
RText
  3
RText|AutoCAD Express Tool|expresstools@autodesk.com
 90
        0
280
           0
281
           1
  0
CLASS
  1
ARCALIGNEDTEXT
  2
AcDbArcAlignedText
  3
ATEXT|AutoCAD Express Tool|expresstools@autodesk.com
 90
        0
280
           0
281
           1
  0
ENDSEC
  0
SECTION
  2
TABLES
  0
TABLE
  2
VPORT
  5
7
100
AcDbSymbolTable
 70
           1
  0
VPORT
  5
15
100
AcDbSymbolTableRecord
100
AcDbViewportTableRecord
  2
*ACTIVE
 70
           0
 10
0.0
 20
0.0
 11
1.0
 21
1.0
 12
6.591288
 22
4.579184
 13
0.0
 23
0.0
 14
1.0
 24
1.0
 15
0.0
 25
0.0
 16
0.0
 26
0.0
 36
1.0
 17
0.0
 27
0.0
 37
0.0
 40
9.158369
 41
0.688564
 42
50.0
 43
0.0
 44
0.0
 50
0.0
 51
0.0
 71
           0
 72
         100
 73
           1
 74
           1
 75
           0
 76
           0
 77
           0
 78
           0
  0
ENDTAB
  0
TABLE
  2
LTYPE
  5
4
100
AcDbSymbolTable
 70
          10
  0
LTYPE
  5
11
100
AcDbSymbolTableRecord
100
AcDbLinetypeTableRecord
  2
BYBLOCK
 70
          64
  3

 72
          65
 73
           0
 40
0.0
  0
LTYPE
  5
12
100
AcDbSymbolTableRecord
100
AcDbLinetypeTableRecord
  2
BYLAYER
 70
          64
  3

 72
          65
 73
           0
 40
0.0
  0
LTYPE
  5
13
100
AcDbSymbolTableRecord
100
AcDbLinetypeTableRecord
  2
CONTINUOUS
 70
          64
  3
Solid line
 72
          65
 73
           0
 40
0.0
  0
LTYPE
  5
1D
100
AcDbSymbolTableRecord
100
AcDbLinetypeTableRecord
  2
DASHED
 70
          64
  3
Dashed
 72
          65
 73
           2
 40
15.0
 49
12.0
 74
           0
 49
-3.0
 74
           0
  0
LTYPE
  5
1E
100
AcDbSymbolTableRecord
100
AcDbLinetypeTableRecord
  2
DOTTED
 70
          64
  3
Dotted
 72
          65
 73
           2
 40
3.5
 49
0.5
 74
           0
 49
-3.0
 74
           0
  0
LTYPE
  5
1F
100
AcDbSymbolTableRecord
100
AcDbLinetypeTableRecord
  2
DOT_CENTER
 70
          64
  3
Dot_Center
 72
          65
 73
           4
 40
2.0
 49
1.25
 74
           0
 49
-0.25
 74
           0
 49
0.25
 74
           0
 49
-0.25
 74
           0
  0
LTYPE
  5
20
100
AcDbSymbolTableRecord
100
AcDbLinetypeTableRecord
  2
LONG_DASHED
 70
          64
  3
Long_Dashed
 72
          65
 73
           2
 40
2.0
 49
1.5
 74
           0
 49
-0.5
 74
           0
  0
LTYPE
  5
21
100
AcDbSymbolTableRecord
100
AcDbLinetypeTableRecord
  2
DASH_CENTER
 70
          64
  3
Dash_Center
 72
          65
 73
           4
 40
36.0
 49
24.0
 74
           0
 49
-3.0
 74
           0
 49
6.0
 74
           0
 49
-3.0
 74
           0
  0
LTYPE
  5
22
100
AcDbSymbolTableRecord
100
AcDbLinetypeTableRecord
  2
PHANTOM
 70
          64
  3
Phantom
 72
          65
 73
           6
 40
2.5
 49
1.25
 74
           0
 49
-0.25
 74
           0
 49
0.25
 74
           0
 49
-0.25
 74
           0
 49
0.25
 74
           0
 49
-0.25
 74
           0
  0
LTYPE
  5
23
100
AcDbSymbolTableRecord
100
AcDbLinetypeTableRecord
  2
CENTER_DASH_DASH
 70
          64
  3
Center_Dash_Dash
 72
          65
 73
           6
 40
22.0
 49
12.0
 74
           0
 49
-3.0
 74
           0
 49
0.5
 74
           0
 49
-3.0
 74
           0
 49
0.5
 74
           0
 49
-3.0
 74
           0
  0
ENDTAB
  0
TABLE
  2
LAYER
  5
2
100
AcDbSymbolTable
 70
           3
  0
LAYER
  5
14
100
AcDbSymbolTableRecord
100
AcDbLayerTableRecord
  2
0
 70
           0
 62
           7
  6
CONTINUOUS
  0
LAYER
  5
24
100
AcDbSymbolTableRecord
100
AcDbLayerTableRecord
  2
976
 70
           0
 62
           7
  6
CONTINUOUS
  0
LAYER
  5
25
100
AcDbSymbolTableRecord
100
AcDbLayerTableRecord
  2
1
 70
           0
 62
           7
  6
CONTINUOUS
  0
ENDTAB
  0
TABLE
  2
STYLE
  5
3
100
AcDbSymbolTable
 70
           2
  0
STYLE
  5
17
100
AcDbSymbolTableRecord
100
AcDbTextStyleTableRecord
  2
STANDARD
 70
           0
 40
0.0
 41
1.0
 50
0.0
 71
           0
 42
0.0
  3
txt
  4

  0
STYLE
  5
48B
100
AcDbSymbolTableRecord
100
AcDbTextStyleTableRecord
  2
CONVERTER_1
 70
           0
 40
0.0
 41
0.9
 50
0.0
 71
           0
 42
0.0
  3
txt.shx
  4

  0
ENDTAB
  0
TABLE
  2
VIEW
  5
5
100
AcDbSymbolTable
 70
           0
  0
ENDTAB
  0
TABLE
  2
UCS
  5
6
100
AcDbSymbolTable
 70
           0
  0
ENDTAB
  0
TABLE
  2
APPID
  5
8
100
AcDbSymbolTable
 70
           1
  0
APPID
  5
16
100
AcDbSymbolTableRecord
100
AcDbRegAppTableRecord
  2
ACAD
 70
           0
  0
ENDTAB
  0
TABLE
  2
DIMSTYLE
  5
9
100
AcDbSymbolTable
 70
           1
  0
DIMSTYLE
105
18
100
AcDbSymbolTableRecord
100
AcDbDimStyleTableRecord
  2
STANDARD
 70
           0
  3

  4

  5

  6

  7

 40
1.0
 41
0.18
 42
0.0625
 43
0.38
 44
0.18
 45
0.0
 46
0.0
 47
0.0
 48
0.0
 71
           0
 72
           0
 73
           1
 74
           1
 75
           0
 76
           0
 77
           0
 78
           0
140
0.18
141
0.09
142
0.0
143
25.4
144
1.0
145
0.0
146
1.0
147
0.09
170
           0
171
           2
172
           0
173
           0
174
           0
175
           0
176
           0
177
           0
178
           0
270
           2
271
           4
272
           4
273
           2
274
           2
275
           0
280
           0
281
           0
282
           0
283
           1
284
           0
285
           0
286
           0
287
           0
288
           0
340
17
  0
ENDTAB
  0
TABLE
  2
BLOCK_RECORD
  5
1
100
AcDbSymbolTable
 70
           1
  0
BLOCK_RECORD
  5
A
100
AcDbSymbolTableRecord
100
AcDbBlockTableRecord
  2
*MODEL_SPACE
  0
BLOCK_RECORD
  5
B
100
AcDbSymbolTableRecord
100
AcDbBlockTableRecord
  2
*PAPER_SPACE
  0
BLOCK_RECORD
  5
26
100
AcDbSymbolTableRecord
100
AcDbBlockTableRecord
  2
SAT3001C85__1
  0
ENDTAB
  0
ENDSEC
  0
SECTION
  2
BLOCKS
  0
BLOCK
  5
D
100
AcDbEntity
  8
0
100
AcDbBlockBegin
  2
*MODEL_SPACE
 70
           0
 10
0.0
 20
0.0
 30
0.0
  3
*MODEL_SPACE
  1

  0
ENDBLK
  5
E
100
AcDbEntity
  8
0
100
AcDbBlockEnd
  0
BLOCK
  5
F
100
AcDbEntity
 67
           1
  8
0
100
AcDbBlockBegin
  2
*PAPER_SPACE
 70
           0
 10
0.0
 20
0.0
 30
0.0
  3
*PAPER_SPACE
  1

  0
ENDBLK
  5
10
100
AcDbEntity
 67
           1
  8
0
100
AcDbBlockEnd
  0
BLOCK
  5
27
100
AcDbEntity
  8
0
100
AcDbBlockBegin
  2
SAT3001C85__1
 70
           0
 10
0.0
 20
0.0
 30
0.0
  3
SAT3001C85__1
  1

  0
ARC
  5
488
100
AcDbEntity
  8
1
  6
CONTINUOUS
 62
           7
100
AcDbCircle
 10
10381.135348556279
 20
-858.07755553858
 40
0.144444444445
100
AcDbArc
 50
137.782165417253
 51
-47.78216541752
  0
ARC
  5
487
100
AcDbEntity
  8
1
  6
CONTINUOUS
 62
           2
100
AcDbCircle
 10
13449.74790394495
 20
-820.579741322023
 40
5.0
100
AcDbArc
 50
-90.0
 51
0.0
  0
ARC
  5
486
100
AcDbEntity
  8
1
  6
CONTINUOUS
 62
           2
100
AcDbCircle
 10
13382.74790394495
 20
-833.579741322023
 40
3.0
100
AcDbArc
 50
180.0
 51
-90.0
  0
ARC
  5
485
100
AcDbEntity
  8
1
  6
CONTINUOUS
 62
           2
100
AcDbCircle
 10
13446.74790394495
 20
-833.579741322023
 40
3.0
100
AcDbArc
 50
-90.0
 51
0.0
  0
ARC
  5
484
100
AcDbEntity
  8
1
  6
CONTINUOUS
 62
           2
100
AcDbCircle
 10
13379.74790394495
 20
-820.579741322023
 40
5.0
100
AcDbArc
 50
180.0
 51
-90.0
  0
ARC
  5
483
100
AcDbEntity
  8
1
  6
CONTINUOUS
 62
           2
100
AcDbCircle
 10
13449.74790394495
 20
-767.079741322023
 40
5.0
100
AcDbArc
 50
0.0
 51
90.0
  0
ARC
  5
482
100
AcDbEntity
  8
1
  6
CONTINUOUS
 62
           2
100
AcDbCircle
 10
13379.74790394495
 20
-767.079741322023
 40
5.0
100
AcDbArc
 50
90.0
 51
180.0
  0
ARC
  5
481
100
AcDbEntity
  8
1
  6
CONTINUOUS
 62
           2
100
AcDbCircle
 10
13394.74790394495
 20
-751.079741322023
 40
1.0
100
AcDbArc
 50
180.0
 51
-90.0
  0
ARC
  5
480
100
AcDbEntity
  8
1
  6
CONTINUOUS
 62
           2
100
AcDbCircle
 10
13389.74790394495
 20
-751.502391052833
 40
2.000000000001
100
AcDbArc
 50
-60.000000000016
 51
0.0
  0
ARC
  5
47F
100
AcDbEntity
  8
1
  6
CONTINUOUS
 62
           2
100
AcDbCircle
 10
13405.41457061162
 20
-751.079741322023
 40
1.0
100
AcDbArc
 50
-90.0
 51
0.0
  0
ARC
  5
47E
100
AcDbEntity
  8
1
  6
CONTINUOUS
 62
           2
100
AcDbCircle
 10
13409.41457061162
 20
-751.079741322023
 40
1.0
100
AcDbArc
 50
180.0
 51
-90.0
  0
ARC
  5
47D
100
AcDbEntity
  8
1
  6
CONTINUOUS
 62
           2
100
AcDbCircle
 10
13420.081237278289
 20
-751.079741322023
 40
1.0
100
AcDbArc
 50
-90.0
 51
0.0
  0
ARC
  5
47C
100
AcDbEntity
  8
1
  6
CONTINUOUS
 62
           2
100
AcDbCircle
 10
13424.081237278289
 20
-751.079741322023
 40
1.0
100
AcDbArc
 50
180.0
 51
-90.0
  0
ARC
  5
47B
100
AcDbEntity
  8
1
  6
CONTINUOUS
 62
           2
100
AcDbCircle
 10
13434.74790394495
 20
-751.079741322023
 40
1.0
100
AcDbArc
 50
-90.0
 51
0.0
  0
ARC
  5
47A
100
AcDbEntity
  8
1
  6
CONTINUOUS
 62
           2
100
AcDbCircle
 10
13439.74790394495
 20
-751.502391052833
 40
2.0
100
AcDbArc
 50
180.0
 51
-119.999999999984
  0
ARC
  5
479
100
AcDbEntity
  8
1
  6
CONTINUOUS
 62
           2
100
AcDbCircle
 10
13436.74790394495
 20
-706.079069983439
 40
2.0
100
AcDbArc
 50
180.0
 51
-90.0
  0
ARC
  5
478
100
AcDbEntity
  8
1
  6
CONTINUOUS
 62
           2
100
AcDbCircle
 10
13392.74790394495
 20
-706.079069983439
 40
2.0
100
AcDbArc
 50
-90.0
 51
0.0
  0
ARC
  5
477
100
AcDbEntity
  8
1
  6
CONTINUOUS
 62
           2
100
AcDbCircle
 10
13391.74790394495
 20
-710.079069983439
 40
2.0
100
AcDbArc
 50
90.0
 51
180.0
  0
ARC
  5
476
100
AcDbEntity
  8
1
  6
CONTINUOUS
 62
           2
100
AcDbCircle
 10
13437.74790394495
 20
-710.079069983439
 40
2.0
100
AcDbArc
 50
0.0
 51
90.0
  0
ARC
  5
475
100
AcDbEntity
  8
1
  6
CONTINUOUS
 62
           2
100
AcDbCircle
 10
13433.74790394495
 20
-704.079069983439
 40
1.0
100
AcDbArc
 50
0.0
 51
90.0
  0
ARC
  5
474
100
AcDbEntity
  8
1
  6
CONTINUOUS
 62
           2
100
AcDbCircle
 10
13395.74790394495
 20
-704.079069983439
 40
1.0
100
AcDbArc
 50
90.0
 51
180.0
  0
ARC
  5
473
100
AcDbEntity
  8
1
  6
CONTINUOUS
 62
           2
100
AcDbCircle
 10
13439.105989509941
 20
-913.301285854594
 40
45.0
100
AcDbArc
 50
-179.999999999998
 51
-90.0
  0
ARC
  5
472
100
AcDbEntity
  8
1
  6
CONTINUOUS
 62
           2
100
AcDbCircle
 10
13441.105989509941
 20
-883.29819678945
 40
6.0
100
AcDbArc
 50
180.0
 51
-90.0
  0
ARC
  5
471
100
AcDbEntity
  8
1
  6
CONTINUOUS
 62
           2
100
AcDbCircle
 10
11154.95427666282
 20
-704.079741322022
 40
1.0
100
AcDbArc
 50
90.0
 51
180.0
  0
ARC
  5
470
100
AcDbEntity
  8
1
  6
CONTINUOUS
 62
           2
100
AcDbCircle
 10
11192.95427666282
 20
-704.079741322022
 40
1.0
100
AcDbArc
 50
0.0
 51
90.0
  0
ARC
  5
46F
100
AcDbEntity
  8
1
  6
CONTINUOUS
 62
           2
100
AcDbCircle
 10
11196.95427666282
 20
-710.079741322022
 40
2.0
100
AcDbArc
 50
0.0
 51
90.0
  0
ARC
  5
46E
100
AcDbEntity
  8
1
  6
CONTINUOUS
 62
           2
100
AcDbCircle
 10
11150.95427666282
 20
-710.079741322022
 40
2.0
100
AcDbArc
 50
90.0
 51
180.0
  0
ARC
  5
46D
100
AcDbEntity
  8
1
  6
CONTINUOUS
 62
           2
100
AcDbCircle
 10
11151.95427666282
 20
-706.079741322022
 40
2.0
100
AcDbArc
 50
-90.0
 51
0.0
  0
ARC
  5
46C
100
AcDbEntity
  8
1
  6
CONTINUOUS
 62
           2
100
AcDbCircle
 10
11195.95427666282
 20
-706.079741322022
 40
2.0
100
AcDbArc
 50
180.0
 51
-90.0
  0
ARC
  5
46B
100
AcDbEntity
  8
1
  6
CONTINUOUS
 62
           2
100
AcDbCircle
 10
11198.95427666282
 20
-751.502391052832
 40
2.0
100
AcDbArc
 50
180.0
 51
-119.999999999984
  0
ARC
  5
46A
100
AcDbEntity
  8
1
  6
CONTINUOUS
 62
           2
100
AcDbCircle
 10
11193.95427666282
 20
-751.079741322022
 40
1.0
100
AcDbArc
 50
-90.0
 51
0.0
  0
ARC
  5
469
100
AcDbEntity
  8
1
  6
CONTINUOUS
 62
           2
100
AcDbCircle
 10
11183.28760999615
 20
-751.079741322022
 40
1.0
100
AcDbArc
 50
180.0
 51
-90.0
  0
ARC
  5
468
100
AcDbEntity
  8
1
  6
CONTINUOUS
 62
           2
100
AcDbCircle
 10
11179.28760999615
 20
-751.079741322022
 40
1.0
100
AcDbArc
 50
-90.0
 51
0.0
  0
ARC
  5
467
100
AcDbEntity
  8
1
  6
CONTINUOUS
 62
           2
100
AcDbCircle
 10
11168.620943329481
 20
-751.079741322022
 40
1.0
100
AcDbArc
 50
180.0
 51
-90.0
  0
ARC
  5
466
100
AcDbEntity
  8
1
  6
CONTINUOUS
 62
           2
100
AcDbCircle
 10
11164.620943329481
 20
-751.079741322022
 40
1.0
100
AcDbArc
 50
-90.0
 51
0.0
  0
ARC
  5
465
100
AcDbEntity
  8
1
  6
CONTINUOUS
 62
           2
100
AcDbCircle
 10
11148.95427666282
 20
-751.502391052832
 40
2.000000000001
100
AcDbArc
 50
-60.000000000016
 51
0.0
  0
ARC
  5
464
100
AcDbEntity
  8
1
  6
CONTINUOUS
 62
           2
100
AcDbCircle
 10
11153.95427666282
 20
-751.079741322022
 40
1.0
100
AcDbArc
 50
180.0
 51
-90.0
  0
ARC
  5
463
100
AcDbEntity
  8
1
  6
CONTINUOUS
 62
           2
100
AcDbCircle
 10
11138.95427666282
 20
-767.079741322022
 40
5.0
100
AcDbArc
 50
90.0
 51
180.0
  0
ARC
  5
462
100
AcDbEntity
  8
1
  6
CONTINUOUS
 62
           2
100
AcDbCircle
 10
11208.95427666282
 20
-767.079741322022
 40
5.0
100
AcDbArc
 50
0.0
 51
90.0
  0
ARC
  5
461
100
AcDbEntity
  8
1
  6
CONTINUOUS
 62
           2
100
AcDbCircle
 10
11138.95427666282
 20
-820.579741322022
 40
5.0
100
AcDbArc
 50
180.0
 51
-90.0
  0
ARC
  5
460
100
AcDbEntity
  8
1
  6
CONTINUOUS
 62
           2
100
AcDbCircle
 10
11214.95427666282
 20
-768.079741322022
 40
1.0
100
AcDbArc
 50
180.0
 51
-90.0
  0
ARC
  5
45F
100
AcDbEntity
  8
1
  6
CONTINUOUS
 62
           2
100
AcDbCircle
 10
11219.95427666282
 20
-768.079741322022
 40
1.0
100
AcDbArc
 50
-90.0
 51
0.0
  0
ARC
  5
45E
100
AcDbEntity
  8
1
  6
CONTINUOUS
 62
           2
100
AcDbCircle
 10
11214.95427666282
 20
-825.079741322022
 40
1.0
100
AcDbArc
 50
90.0
 51
180.0
  0
ARC
  5
45D
100
AcDbEntity
  8
1
  6
CONTINUOUS
 62
           2
100
AcDbCircle
 10
11219.95427666282
 20
-825.079741322022
 40
1.0
100
AcDbArc
 50
0.0
 51
90.0
  0
ARC
  5
45C
100
AcDbEntity
  8
1
  6
CONTINUOUS
 62
           2
100
AcDbCircle
 10
11205.95427666282
 20
-833.579741322022
 40
3.0
100
AcDbArc
 50
-90.0
 51
0.0
  0
ARC
  5
45B
100
AcDbEntity
  8
1
  6
CONTINUOUS
 62
           2
100
AcDbCircle
 10
11141.95427666282
 20
-833.579741322022
 40
3.0
100
AcDbArc
 50
180.0
 51
-90.0
  0
ARC
  5
45A
100
AcDbEntity
  8
1
  6
CONTINUOUS
 62
           2
100
AcDbCircle
 10
11123.45427666282
 20
-883.672453261562
 40
29.999999999998
100
AcDbArc
 50
-38.470645540603
 51
0.0
  0
ARC
  5
459
100
AcDbEntity
  8
1
  6
CONTINUOUS
 62
           2
100
AcDbCircle
 10
11224.45427666282
 20
-883.672453261562
 40
30.0
100
AcDbArc
 50
180.0
 51
-141.529354459407
  0
ARC
  5
458
100
AcDbEntity
  8
1
  6
CONTINUOUS
 62
           2
100
AcDbCircle
 10
11201.95427666282
 20
-2290.56637154828
 40
3.0
100
AcDbArc
 50
0.0
 51
38.091957105349
  0
ARC
  5
457
100
AcDbEntity
  8
1
  6
CONTINUOUS
 62
           2
100
AcDbCircle
 10
11201.95427666282
 20
-2267.393111095765
 40
2.999999999995
100
AcDbArc
 50
-38.091957105315
 51
0.0
  0
ARC
  5
456
100
AcDbEntity
  8
1
  6
CONTINUOUS
 62
           2
100
AcDbCircle
 10
10416.91602054075
 20
-909.299741322023
 40
3.0
100
AcDbArc
 50
180.0
 51
-90.0
  0
ARC
  5
455
100
AcDbEntity
  8
1
  6
CONTINUOUS
 62
           2
100
AcDbCircle
 10
10416.91602054075
 20
-938.299741322023
 40
3.0
100
AcDbArc
 50
90.0
 51
180.0
  0
ARC
  5
454
100
AcDbEntity
  8
1
  6
CONTINUOUS
 62
           2
100
AcDbCircle
 10
10473.4375035747
 20
-931.14974132202
 40
3.0
100
AcDbArc
 50
90.0
 51
145.570996049241
  0
ARC
  5
453
100
AcDbEntity
  8
1
  6
CONTINUOUS
 62
           2
100
AcDbCircle
 10
10473.4375035747
 20
-916.449741322021
 40
3.000000000009
100
AcDbArc
 50
-145.570996049198
 51
-90.0
  0
ARC
  5
452
100
AcDbEntity
  8
1
  6
CONTINUOUS
 62
           2
100
AcDbCircle
 10
10451.991991223629
 20
-916.449741322021
 40
3.0
100
AcDbArc
 50
-90.0
 51
-34.4290039509
  0
ARC
  5
451
100
AcDbEntity
  8
1
  6
CONTINUOUS
 62
           2
100
AcDbCircle
 10
10451.991991223629
 20
-931.14974132202
 40
3.0
100
AcDbArc
 50
34.429003950857
 51
90.0
  0
ARC
  5
450
100
AcDbEntity
  8
1
  6
CONTINUOUS
 62
           2
100
AcDbCircle
 10
14150.998507466111
 20
-2271.514068063762
 40
2.0
100
AcDbArc
 50
-90.0
 51
-31.10892251091
  0
ARC
  5
44F
100
AcDbEntity
  8
1
  6
CONTINUOUS
 62
           2
100
AcDbCircle
 10
14150.998507466111
 20
-2287.014068063762
 40
1.999999999987
100
AcDbArc
 50
31.108922510609
 51
90.0
  0
ARC
  5
44E
100
AcDbEntity
  8
1
  6
CONTINUOUS
 62
           2
100
AcDbCircle
 10
14176.684106544189
 20
-2271.514068063762
 40
2.00000000001
100
AcDbArc
 50
-148.891077489386
 51
-90.0
  0
ARC
  5
44D
100
AcDbEntity
  8
1
  6
CONTINUOUS
 62
           2
100
AcDbCircle
 10
14176.68410654418
 20
-2287.014068063762
 40
2.0
100
AcDbArc
 50
90.0
 51
148.891077489553
  0
ARC
  5
44C
100
AcDbEntity
  8
1
  6
CONTINUOUS
 62
           2
100
AcDbCircle
 10
14157.09130700515
 20
-2267.264068063761
 40
2.0
100
AcDbArc
 50
90.0
 51
180.0
  0
ARC
  5
44B
100
AcDbEntity
  8
1
  6
CONTINUOUS
 62
           2
100
AcDbCircle
 10
10366.455549804399
 20
-3757.270324220035
 40
2.0
100
AcDbArc
 50
90.0
 51
180.0
  0
ARC
  5
44A
100
AcDbEntity
  8
1
  6
CONTINUOUS
 62
           2
100
AcDbCircle
 10
10366.455549804399
 20
-3788.270324220035
 40
2.0
100
AcDbArc
 50
180.0
 51
-90.0
  0
ARC
  5
449
100
AcDbEntity
  8
1
  6
CONTINUOUS
 62
           2
100
AcDbCircle
 10
11227.95427666282
 20
-3048.282010333775
 40
1.0
100
AcDbArc
 50
0.0
 51
90.0
  0
ARC
  5
448
100
AcDbEntity
  8
1
  6
CONTINUOUS
 62
           2
100
AcDbCircle
 10
11227.95427666282
 20
-2991.282010333775
 40
1.0
100
AcDbArc
 50
-90.0
 51
0.0
  0
ARC
  5
447
100
AcDbEntity
  8
1
  6
CONTINUOUS
 62
           2
100
AcDbCircle
 10
11218.854165304099
 20
-3057.282010333775
 40
10.0
100
AcDbArc
 50
90.0
 51
140.131658449964
  0
ARC
  5
446
100
AcDbEntity
  8
1
  6
CONTINUOUS
 62
           2
100
AcDbCircle
 10
11218.854165304099
 20
-2982.282010333775
 40
9.999999999993
100
AcDbArc
 50
-140.131658449968
 51
-90.0
  0
ARC
  5
445
100
AcDbEntity
  8
976
  6
CONTINUOUS
 62
           7
100
AcDbCircle
 10
11437.91922184857
 20
209.871499846179
 40
5.000000000001
100
AcDbArc
 50
-21.157162702952
 51
43.887605381786
  0
ARC
  5
444
100
AcDbEntity
  8
976
  6
CONTINUOUS
 62
           7
100
AcDbCircle
 10
11490.73704437605
 20
197.434553542112
 40
5.000000000002
100
AcDbArc
 50
109.612394618244
 51
174.657162702959
  0
ARC
  5
443
100
AcDbEntity
  8
976
  6
CONTINUOUS
 62
           7
100
AcDbCircle
 10
11450.24426869801
 20
219.552847068885
 40
2.999999999999
100
AcDbArc
 50
82.460593137515
 51
158.842837297096
  0
ARC
  5
442
100
AcDbEntity
  8
976
  6
CONTINUOUS
 62
           7
100
AcDbCircle
 10
11484.02673240086
 20
211.598132789005
 40
2.999999999997
100
AcDbArc
 50
-5.342837297066
 51
71.039406862469
  0
ARC
  5
441
100
AcDbEntity
  8
976
  6
CONTINUOUS
 62
           7
100
AcDbCircle
 10
10863.881820924769
 20
211.598132789005
 40
2.999999999998
100
AcDbArc
 50
108.960593137497
 51
-174.657162702931
  0
ARC
  5
440
100
AcDbEntity
  8
976
  6
CONTINUOUS
 62
           7
100
AcDbCircle
 10
10897.664284627621
 20
219.552847068885
 40
2.999999999994
100
AcDbArc
 50
21.157162702979
 51
97.539406862692
  0
ARC
  5
43F
100
AcDbEntity
  8
976
  6
CONTINUOUS
 62
           7
100
AcDbCircle
 10
10857.171508949579
 20
197.434553542112
 40
5.000000000005
100
AcDbArc
 50
5.342837297038
 51
70.387605381854
  0
ARC
  5
43E
100
AcDbEntity
  8
976
  6
CONTINUOUS
 62
           7
100
AcDbCircle
 10
10909.989331477051
 20
209.871499846179
 40
4.999999999998
100
AcDbArc
 50
136.112394618127
 51
-158.842837297048
  0
ARC
  5
43D
100
AcDbEntity
  8
1
  6
CONTINUOUS
 62
           7
100
AcDbCircle
 10
13481.46084034765
 20
-1390.176935875506
 40
7.5
100
AcDbArc
 50
90.0
 51
180.0
  0
ARC
  5
43C
100
AcDbEntity
  8
1
  6
CONTINUOUS
 62
           7
100
AcDbCircle
 10
13481.46084034765
 20
-1695.422546768535
 40
7.5
100
AcDbArc
 50
180.0
 51
-90.0
  0
ARC
  5
43B
100
AcDbEntity
  8
1
  6
CONTINUOUS
 62
           7
100
AcDbCircle
 10
13452.39342853408
 20
-1357.676935875506
 40
10.0
100
AcDbArc
 50
90.0
 51
170.279112747886
  0
ARC
  5
43A
100
AcDbEntity
  8
1
  6
CONTINUOUS
 62
           7
100
AcDbCircle
 10
13452.39342853408
 20
-1727.922546768535
 40
9.999999999995
100
AcDbArc
 50
-170.279112747886
 51
-90.0
  0
ARC
  5
439
100
AcDbEntity
  8
1
  6
CONTINUOUS
 62
           7
100
AcDbCircle
 10
11286.454276662809
 20
-3058.270324220034
 40
5.0
100
AcDbArc
 50
0.0
 51
90.0
  0
ARC
  5
438
100
AcDbEntity
  8
1
  6
CONTINUOUS
 62
           7
100
AcDbCircle
 10
11261.45601251562
 20
-3058.270324220034
 40
5.0
100
AcDbArc
 50
90.0
 51
180.0
  0
ARC
  5
437
100
AcDbEntity
  8
1
  6
CONTINUOUS
 62
           7
100
AcDbCircle
 10
11288.95229283104
 20
-3033.270324220034
 40
5.0
100
AcDbArc
 50
0.0
 51
90.0
  0
ARC
  5
436
100
AcDbEntity
  8
1
  6
CONTINUOUS
 62
           7
100
AcDbCircle
 10
11258.954276662809
 20
-3033.270324220034
 40
5.0
100
AcDbArc
 50
90.0
 51
180.0
  0
ARC
  5
435
100
AcDbEntity
  8
1
  6
CONTINUOUS
 62
           7
100
AcDbCircle
 10
11088.954276662809
 20
-3033.270324220034
 40
5.0
100
AcDbArc
 50
0.0
 51
90.0
  0
ARC
  5
434
100
AcDbEntity
  8
1
  6
CONTINUOUS
 62
           7
100
AcDbCircle
 10
11058.95626049459
 20
-3033.270324220034
 40
5.0
100
AcDbArc
 50
90.0
 51
180.0
  0
ARC
  5
433
100
AcDbEntity
  8
1
  6
CONTINUOUS
 62
           7
100
AcDbCircle
 10
11086.452540810011
 20
-3058.270324220034
 40
5.0
100
AcDbArc
 50
0.0
 51
90.0
  0
ARC
  5
432
100
AcDbEntity
  8
1
  6
CONTINUOUS
 62
           7
100
AcDbCircle
 10
11061.454276662809
 20
-3058.270324220034
 40
5.0
100
AcDbArc
 50
90.0
 51
180.0
  0
CIRCLE
  5
431
100
AcDbEntity
  8
1
  6
CONTINUOUS
 62
           7
100
AcDbCircle
 10
10386.52637586753
 20
-854.575601838319
 40
0.722222222221
  0
CIRCLE
  5
430
100
AcDbEntity
  8
1
  6
CONTINUOUS
 62
           2
100
AcDbCircle
 10
13414.605989509941
 20
-796.579741322023
 40
19.5
  0
CIRCLE
  5
42F
100
AcDbEntity
  8
1
  6
CONTINUOUS
 62
           2
100
AcDbCircle
 10
13414.605989509941
 20
-796.579741322023
 40
21.0
  0
CIRCLE
  5
42E
100
AcDbEntity
  8
1
  6
CONTINUOUS
 62
           2
100
AcDbCircle
 10
13414.605989509941
 20
-796.579741322023
 40
29.0
  0
CIRCLE
  5
42D
100
AcDbEntity
  8
1
  6
CONTINUOUS
 62
           2
100
AcDbCircle
 10
10462.714747399161
 20
-923.799741322023
 40
8.5
  0
CIRCLE
  5
42C
100
AcDbEntity
  8
1
  6
CONTINUOUS
 62
           2
100
AcDbCircle
 10
10462.714747399161
 20
-923.799741322023
 40
5.0
  0
CIRCLE
  5
42B
100
AcDbEntity
  8
1
  6
CONTINUOUS
 62
           2
100
AcDbCircle
 10
10462.714747399161
 20
-923.799741322023
 40
3.0
  0
CIRCLE
  5
42A
100
AcDbEntity
  8
1
  6
CONTINUOUS
 62
           2
100
AcDbCircle
 10
10462.714747399161
 20
-923.799741322023
 40
6.25
  0
CIRCLE
  5
429
100
AcDbEntity
  8
1
  6
CONTINUOUS
 62
           7
100
AcDbCircle
 10
10402.419210056631
 20
-837.155173083535
 40
36.09209352415
  0
CIRCLE
  5
428
100
AcDbEntity
  8
1
  6
CONTINUOUS
 62
           7
100
AcDbCircle
 10
10402.41602054075
 20
-837.151014463606
 40
2.88888888888
  0
CIRCLE
  5
427
100
AcDbEntity
  8
1
  6
CONTINUOUS
 62
           2
100
AcDbCircle
 10
10402.41602054075
 20
-849.78879589901
 40
2.247127062104
  0
CIRCLE
  5
426
100
AcDbEntity
  8
1
  6
CONTINUOUS
 62
           2
100
AcDbCircle
 10
14163.84130700515
 20
-2279.264068063762
 40
11.100000000001
  0
CIRCLE
  5
425
100
AcDbEntity
  8
1
  6
CONTINUOUS
 62
           2
100
AcDbCircle
 10
14163.84130700515
 20
-2279.264068063762
 40
6.0
  0
CIRCLE
  5
424
100
AcDbEntity
  8
1
  6
CONTINUOUS
 62
           2
100
AcDbCircle
 10
14163.84130700515
 20
-2279.264068063762
 40
7.5
  0
CIRCLE
  5
423
100
AcDbEntity
  8
1
  6
CONTINUOUS
 62
           2
100
AcDbCircle
 10
14163.84130700515
 20
-2279.264068063762
 40
3.600000000001
  0
CIRCLE
  5
422
100
AcDbEntity
  8
1
  6
CONTINUOUS
 62
           2
100
AcDbCircle
 10
10403.455549804399
 20
-3776.270324220034
 40
7.475000000001
  0
CIRCLE
  5
421
100
AcDbEntity
  8
1
  6
CONTINUOUS
 62
           2
100
AcDbCircle
 10
10403.455549804399
 20
-3776.270324220034
 40
8.331000000001
  0
CIRCLE
  5
420
100
AcDbEntity
  8
1
  6
CONTINUOUS
 62
           7
100
AcDbCircle
 10
11562.6278997953
 20
-4165.414018349935
 40
13.5
  0
CIRCLE
  5
41F
100
AcDbEntity
  8
1
  6
CONTINUOUS
 62
           7
100
AcDbCircle
 10
11562.863006315411
 20
-3387.361594567433
 40
13.5
  0
CIRCLE
  5
41E
100
AcDbEntity
  8
1
  6
CONTINUOUS
 62
           7
100
AcDbCircle
 10
10784.810582532909
 20
-3387.596701087547
 40
13.5
  0
CIRCLE
  5
41D
100
AcDbEntity
  8
1
  6
CONTINUOUS
 62
           7
100
AcDbCircle
 10
10785.04554701021
 20
-4165.179053872635
 40
13.5
  0
CIRCLE
  5
41C
100
AcDbEntity
  8
1
  6
CONTINUOUS
 62
           7
100
AcDbCircle
 10
10014.25278705619
 20
-1723.799741322022
 40
105.0
  0
CIRCLE
  5
41B
100
AcDbEntity
  8
1
  6
CONTINUOUS
 62
           7
100
AcDbCircle
 10
10014.25278705619
 20
-1723.799741322022
 40
57.15
  0
CIRCLE
  5
41A
100
AcDbEntity
  8
1
  6
CONTINUOUS
 62
           7
100
AcDbCircle
 10
10014.25278705619
 20
-1723.799741322022
 40
52.650000000001
  0
CIRCLE
  5
419
100
AcDbEntity
  8
1
  6
DOT_CENTER
 62
           2
100
AcDbCircle
 10
10014.25278705619
 20
-1723.799741322022
 40
87.500000000004
  0
CIRCLE
  5
418
100
AcDbEntity
  8
1
  6
CONTINUOUS
 62
           7
100
AcDbCircle
 10
9980.767986724241
 20
-1642.960282227285
 40
9.5
  0
CIRCLE
  5
417
100
AcDbEntity
  8
1
  6
CONTINUOUS
 62
           7
100
AcDbCircle
 10
9933.413327961447
 20
-1690.314940990077
 40
9.5
  0
CIRCLE
  5
416
100
AcDbEntity
  8
1
  6
CONTINUOUS
 62
           7
100
AcDbCircle
 10
10047.73758738813
 20
-1642.960282227285
 40
9.5
  0
CIRCLE
  5
415
100
AcDbEntity
  8
1
  6
CONTINUOUS
 62
           7
100
AcDbCircle
 10
10095.092246150931
 20
-1690.314940990077
 40
9.5
  0
CIRCLE
  5
414
100
AcDbEntity
  8
1
  6
CONTINUOUS
 62
           7
100
AcDbCircle
 10
10095.092246150931
 20
-1757.284541653968
 40
9.5
  0
CIRCLE
  5
413
100
AcDbEntity
  8
1
  6
CONTINUOUS
 62
           7
100
AcDbCircle
 10
10047.73758738813
 20
-1804.639200416759
 40
9.5
  0
CIRCLE
  5
412
100
AcDbEntity
  8
1
  6
CONTINUOUS
 62
           7
100
AcDbCircle
 10
9980.767986724241
 20
-1804.639200416759
 40
9.5
  0
CIRCLE
  5
411
100
AcDbEntity
  8
1
  6
CONTINUOUS
 62
           7
100
AcDbCircle
 10
9933.413327961447
 20
-1757.284541653968
 40
9.5
  0
CIRCLE
  5
410
100
AcDbEntity
  8
1
  6
CONTINUOUS
 62
           7
100
AcDbCircle
 10
14083.001847910409
 20
-957.284541653968
 40
9.5
  0
CIRCLE
  5
40F
100
AcDbEntity
  8
1
  6
CONTINUOUS
 62
           7
100
AcDbCircle
 10
14130.356506673201
 20
-1004.639200416759
 40
9.5
  0
CIRCLE
  5
40E
100
AcDbEntity
  8
1
  6
CONTINUOUS
 62
           7
100
AcDbCircle
 10
14197.32610733709
 20
-1004.639200416759
 40
9.5
  0
CIRCLE
  5
40D
100
AcDbEntity
  8
1
  6
CONTINUOUS
 62
           7
100
AcDbCircle
 10
14244.68076609988
 20
-957.284541653968
 40
9.5
  0
CIRCLE
  5
40C
100
AcDbEntity
  8
1
  6
CONTINUOUS
 62
           7
100
AcDbCircle
 10
14244.68076609988
 20
-890.314940990076
 40
9.5
  0
CIRCLE
  5
40B
100
AcDbEntity
  8
1
  6
CONTINUOUS
 62
           7
100
AcDbCircle
 10
14197.32610733709
 20
-842.960282227285
 40
9.5
  0
CIRCLE
  5
40A
100
AcDbEntity
  8
1
  6
CONTINUOUS
 62
           7
100
AcDbCircle
 10
14083.001847910409
 20
-890.314940990076
 40
9.5
  0
CIRCLE
  5
409
100
AcDbEntity
  8
1
  6
CONTINUOUS
 62
           7
100
AcDbCircle
 10
14130.356506673201
 20
-842.960282227285
 40
9.5
  0
CIRCLE
  5
408
100
AcDbEntity
  8
1
  6
DOT_CENTER
 62
           2
100
AcDbCircle
 10
14163.84130700515
 20
-923.799741322023
 40
87.500000000011
  0
CIRCLE
  5
407
100
AcDbEntity
  8
1
  6
CONTINUOUS
 62
           7
100
AcDbCircle
 10
14163.84130700515
 20
-923.799741322023
 40
52.65
  0
CIRCLE
  5
406
100
AcDbEntity
  8
1
  6
CONTINUOUS
 62
           7
100
AcDbCircle
 10
14163.84130700515
 20
-923.799741322023
 40
57.150000000001
  0
CIRCLE
  5
405
100
AcDbEntity
  8
1
  6
CONTINUOUS
 62
           7
100
AcDbCircle
 10
14163.84130700515
 20
-923.799741322023
 40
105.0
  0
CIRCLE
  5
404
100
AcDbEntity
  8
976
  6
CONTINUOUS
 62
           7
100
AcDbCircle
 10
11173.95427666282
 20
-3776.270324220034
 40
658.99999999999
  0
CIRCLE
  5
403
100
AcDbEntity
  8
976
  6
CONTINUOUS
 62
           7
100
AcDbCircle
 10
11173.95427666282
 20
-3776.270324220034
 40
624.999999999991
  0
CIRCLE
  5
402
100
AcDbEntity
  8
976
  6
DOT_CENTER
 62
           2
100
AcDbCircle
 10
11173.95427666282
 20
-3776.270324220034
 40
549.999999999997
  0
CIRCLE
  5
401
100
AcDbEntity
  8
976
  6
CONTINUOUS
 62
           7
100
AcDbCircle
 10
11473.954276662809
 20
244.533796719509
 40
25.000000000005
  0
CIRCLE
  5
400
100
AcDbEntity
  8
976
  6
CONTINUOUS
 62
           7
100
AcDbCircle
 10
10873.954276662809
 20
244.533796719509
 40
24.999999999996
  0
CIRCLE
  5
3FF
100
AcDbEntity
  8
1
  6
CONTINUOUS
 62
           7
100
AcDbCircle
 10
11273.954276662809
 20
-1542.79974132202
 40
15.0
  0
CIRCLE
  5
3FE
100
AcDbEntity
  8
1
  6
CONTINUOUS
 62
           3
100
AcDbCircle
 10
11273.954276662809
 20
-1542.79974132202
 40
10.0
  0
CIRCLE
  5
3FD
100
AcDbEntity
  8
1
  6
CONTINUOUS
 62
           3
100
AcDbCircle
 10
11073.954276662809
 20
-1542.79974132202
 40
10.0
  0
CIRCLE
  5
3FC
100
AcDbEntity
  8
1
  6
CONTINUOUS
 62
           7
100
AcDbCircle
 10
11073.954276662809
 20
-1542.79974132202
 40
15.0
  0
ARC
  5
3FB
100
AcDbEntity
  8
1
  6
CONTINUOUS
 62
           7
100
AcDbCircle
 10
10402.4148919081
 20
-837.150030683592
 40
32.087775151113
100
AcDbArc
 50
179.926907891322
 51
-135.4444653082
  0
ARC
  5
3FA
100
AcDbEntity
  8
1
  6
CONTINUOUS
 62
           7
100
AcDbCircle
 10
10402.3715760963
 20
-837.116927130767
 40
39.044459324232
100
AcDbArc
 50
-145.958605674407
 51
-105.07613521128
  0
ARC
  5
3F9
100
AcDbEntity
  8
1
  6
CONTINUOUS
 62
           7
100
AcDbCircle
 10
10402.41871082927
 20
-837.154522170691
 40
28.591593842009
100
AcDbArc
 50
180.0
 51
-135.510592132963
  0
ARC
  5
3F8
100
AcDbEntity
  8
1
  6
CONTINUOUS
 62
           7
100
AcDbCircle
 10
10369.64471282993
 20
-856.07153779214
 40
3.637499999995
100
AcDbArc
 50
162.07502205082
 51
-102.075022050756
  0
ARC
  5
3F7
100
AcDbEntity
  8
1
  6
CONTINUOUS
 62
           7
100
AcDbCircle
 10
10402.3715760963
 20
-837.116927130767
 40
39.044459324229
100
AcDbArc
 50
-153.889170205383
 51
-145.958605674407
  0
ARC
  5
3F6
100
AcDbEntity
  8
1
  6
CONTINUOUS
 62
           7
100
AcDbCircle
 10
10402.3715760963
 20
-837.116927130767
 40
39.044459324231
100
AcDbArc
 50
93.899904844102
 51
-153.889170205383
  0
ARC
  5
3F5
100
AcDbEntity
  8
1
  6
CONTINUOUS
 62
           2
100
AcDbCircle
 10
13441.24790394495
 20
-823.023455742025
 40
28.556285579997
100
AcDbArc
 50
-113.201052895933
 51
-90.0
  0
ARC
  5
3F4
100
AcDbEntity
  8
1
  6
CONTINUOUS
 62
           2
100
AcDbCircle
 10
13388.24790394495
 20
-823.023455742025
 40
28.556285579997
100
AcDbArc
 50
-90.0
 51
-66.798947104067
  0
ARC
  5
3F3
100
AcDbEntity
  8
1
  6
CONTINUOUS
 62
           2
100
AcDbCircle
 10
13414.74790394495
 20
-800.073782541737
 40
51.505958780286
100
AcDbArc
 50
-107.222444972132
 51
-72.777555027867
  0
ARC
  5
3F2
100
AcDbEntity
  8
1
  6
CONTINUOUS
 62
           2
100
AcDbCircle
 10
13436.74790394495
 20
-768.113239422642
 40
16.03349810062
100
AcDbArc
 50
90.0
 51
123.074730067206
  0
ARC
  5
3F1
100
AcDbEntity
  8
1
  6
CONTINUOUS
 62
           2
100
AcDbCircle
 10
13392.74790394495
 20
-709.079069983439
 40
1.0
100
AcDbArc
 50
0.0
 51
180.0
  0
ARC
  5
3F0
100
AcDbEntity
  8
1
  6
CONTINUOUS
 62
           2
100
AcDbCircle
 10
13407.41457061162
 20
-709.079069983439
 40
1.0
100
AcDbArc
 50
0.0
 51
180.0
  0
ARC
  5
3EF
100
AcDbEntity
  8
1
  6
CONTINUOUS
 62
           2
100
AcDbCircle
 10
13422.081237278289
 20
-709.079069983439
 40
1.0
100
AcDbArc
 50
0.0
 51
180.0
  0
ARC
  5
3EE
100
AcDbEntity
  8
1
  6
CONTINUOUS
 62
           2
100
AcDbCircle
 10
13436.74790394495
 20
-709.079069983439
 40
1.0
100
AcDbArc
 50
0.0
 51
180.0
  0
ARC
  5
3ED
100
AcDbEntity
  8
1
  6
CONTINUOUS
 62
           2
100
AcDbCircle
 10
13392.74790394495
 20
-768.113239422642
 40
16.033498100619
100
AcDbArc
 50
56.925269932794
 51
90.0
  0
ARC
  5
3EC
100
AcDbEntity
  8
1
  6
CONTINUOUS
 62
           2
100
AcDbCircle
 10
13414.74790394495
 20
-787.165798305899
 40
35.086056983876
100
AcDbArc
 50
67.812245868758
 51
112.187754131241
  0
ARC
  5
3EB
100
AcDbEntity
  8
1
  6
CONTINUOUS
 62
           2
100
AcDbCircle
 10
13414.74790394495
 20
-686.579069983439
 40
15.0
100
AcDbArc
 50
0.0
 51
180.0
  0
ARC
  5
3EA
100
AcDbEntity
  8
1
  6
CONTINUOUS
 62
           2
100
AcDbCircle
 10
13399.24790394495
 20
-707.22146783233
 40
12.142397848892
100
AcDbArc
 50
59.020901138367
 51
90.0
  0
ARC
  5
3E9
100
AcDbEntity
  8
1
  6
CONTINUOUS
 62
           2
100
AcDbCircle
 10
13430.24790394495
 20
-707.22146783233
 40
12.142397848891
100
AcDbArc
 50
90.0
 51
120.979098861633
  0
ARC
  5
3E8
100
AcDbEntity
  8
1
  6
CONTINUOUS
 62
           2
100
AcDbCircle
 10
13414.74790394495
 20
-720.64486159099
 40
25.565791607552
100
AcDbArc
 50
68.788505585336
 51
111.211494414663
  0
ARC
  5
3E7
100
AcDbEntity
  8
1
  6
CONTINUOUS
 62
           2
100
AcDbCircle
 10
13387.616270669951
 20
-881.964822504287
 40
6.48971883999
100
AcDbArc
 50
0.0
 51
39.925937785384
  0
ARC
  5
3E6
100
AcDbEntity
  8
1
  6
CONTINUOUS
 62
           2
100
AcDbCircle
 10
13441.595708349931
 20
-881.964822504287
 40
6.489718839988
100
AcDbArc
 50
140.074062214574
 51
180.0
  0
ARC
  5
3E5
100
AcDbEntity
  8
1
  6
CONTINUOUS
 62
           2
100
AcDbCircle
 10
13448.216483470411
 20
-968.716727354694
 40
10.4154415001
100
AcDbArc
 50
58.86850943392
 51
90.0
  0
ARC
  5
3E4
100
AcDbEntity
  8
1
  6
CONTINUOUS
 62
           2
100
AcDbCircle
 10
13448.216483470411
 20
-878.882755289352
 40
10.415441500098
100
AcDbArc
 50
-90.0
 51
-58.868509433915
  0
ARC
  5
3E3
100
AcDbEntity
  8
1
  6
CONTINUOUS
 62
           2
100
AcDbCircle
 10
11173.95427666282
 20
-720.645532929574
 40
25.565791607551
100
AcDbArc
 50
68.788505585336
 51
111.211494414664
  0
ARC
  5
3E2
100
AcDbEntity
  8
1
  6
CONTINUOUS
 62
           2
100
AcDbCircle
 10
11189.45427666282
 20
-707.222139170917
 40
12.142397848896
100
AcDbArc
 50
90.0
 51
120.979098861626
  0
ARC
  5
3E1
100
AcDbEntity
  8
1
  6
CONTINUOUS
 62
           2
100
AcDbCircle
 10
11158.45427666282
 20
-707.222139170917
 40
12.142397848894
100
AcDbArc
 50
59.020901138373
 51
90.0
  0
ARC
  5
3E0
100
AcDbEntity
  8
1
  6
CONTINUOUS
 62
           2
100
AcDbCircle
 10
11173.95427666282
 20
-686.579741322022
 40
15.0
100
AcDbArc
 50
0.0
 51
180.0
  0
ARC
  5
3DF
100
AcDbEntity
  8
1
  6
CONTINUOUS
 62
           2
100
AcDbCircle
 10
11173.95427666282
 20
-787.165798305899
 40
35.086056983875
100
AcDbArc
 50
67.812245868758
 51
112.187754131242
  0
ARC
  5
3DE
100
AcDbEntity
  8
1
  6
CONTINUOUS
 62
           2
100
AcDbCircle
 10
11151.95427666282
 20
-768.113239422642
 40
16.033498100619
100
AcDbArc
 50
56.925269932792
 51
90.0
  0
ARC
  5
3DD
100
AcDbEntity
  8
1
  6
CONTINUOUS
 62
           2
100
AcDbCircle
 10
11195.95427666282
 20
-709.079741322022
 40
1.0
100
AcDbArc
 50
0.0
 51
180.0
  0
ARC
  5
3DC
100
AcDbEntity
  8
1
  6
CONTINUOUS
 62
           2
100
AcDbCircle
 10
11181.28760999615
 20
-709.079741322022
 40
1.0
100
AcDbArc
 50
0.0
 51
180.0
  0
ARC
  5
3DB
100
AcDbEntity
  8
1
  6
CONTINUOUS
 62
           2
100
AcDbCircle
 10
11166.620943329481
 20
-709.079741322022
 40
1.0
100
AcDbArc
 50
0.0
 51
180.0
  0
ARC
  5
3DA
100
AcDbEntity
  8
1
  6
CONTINUOUS
 62
           2
100
AcDbCircle
 10
11151.95427666282
 20
-709.079741322022
 40
1.0
100
AcDbArc
 50
0.0
 51
180.0
  0
ARC
  5
3D9
100
AcDbEntity
  8
1
  6
CONTINUOUS
 62
           2
100
AcDbCircle
 10
11195.95427666282
 20
-768.113239422642
 40
16.03349810062
100
AcDbArc
 50
90.0
 51
123.074730067208
  0
ARC
  5
3D8
100
AcDbEntity
  8
1
  6
CONTINUOUS
 62
           2
100
AcDbCircle
 10
11173.95427666282
 20
-800.073782541738
 40
51.505958780284
100
AcDbArc
 50
-107.222444972133
 51
-72.777555027867
  0
ARC
  5
3D7
100
AcDbEntity
  8
1
  6
CONTINUOUS
 62
           2
100
AcDbCircle
 10
11147.45427666282
 20
-823.023455742026
 40
28.556285579995
100
AcDbArc
 50
-90.0
 51
-66.798947104065
  0
ARC
  5
3D6
100
AcDbEntity
  8
1
  6
CONTINUOUS
 62
           2
100
AcDbCircle
 10
11200.45427666282
 20
-823.023455742026
 40
28.556285579996
100
AcDbArc
 50
-113.201052895934
 51
-90.0
  0
ARC
  5
3D5
100
AcDbEntity
  8
1
  6
CONTINUOUS
 62
           2
100
AcDbCircle
 10
11174.09619109782
 20
-800.073782541738
 40
51.505958780284
100
AcDbArc
 50
-107.222444972133
 51
-72.777555027867
  0
ARC
  5
3D4
100
AcDbEntity
  8
1
  6
CONTINUOUS
 62
           2
100
AcDbCircle
 10
11147.59619109782
 20
-823.023455742026
 40
28.556285579995
100
AcDbArc
 50
-90.0
 51
-66.798947104065
  0
ARC
  5
3D3
100
AcDbEntity
  8
1
  6
CONTINUOUS
 62
           2
100
AcDbCircle
 10
11200.59619109782
 20
-823.023455742026
 40
28.556285579996
100
AcDbArc
 50
-113.201052895934
 51
-90.0
  0
ARC
  5
3D2
100
AcDbEntity
  8
1
  6
CONTINUOUS
 62
           2
100
AcDbCircle
 10
11146.96455782283
 20
-881.964822504286
 40
6.48971883999
100
AcDbArc
 50
0.0
 51
39.925937785429
  0
ARC
  5
3D1
100
AcDbEntity
  8
1
  6
CONTINUOUS
 62
           2
100
AcDbCircle
 10
11200.943995502799
 20
-881.964822504286
 40
6.489718839986
100
AcDbArc
 50
140.07406221457
 51
180.0
  0
ARC
  5
3D0
100
AcDbEntity
  8
1
  6
CONTINUOUS
 62
           2
100
AcDbCircle
 10
11173.95427666282
 20
-923.799741322023
 40
36.001544532575
100
AcDbArc
 50
130.373913242255
 51
-90.0
  0
ARC
  5
3CF
100
AcDbEntity
  8
1
  6
CONTINUOUS
 62
           2
100
AcDbCircle
 10
11173.95427666282
 20
-923.799741322023
 40
34.501544532573
100
AcDbArc
 50
141.5293544594
 51
-90.0
  0
ARC
  5
3CE
100
AcDbEntity
  8
1
  6
CONTINUOUS
 62
           2
100
AcDbCircle
 10
11173.95427666282
 20
-923.799741322023
 40
34.501544532571
100
AcDbArc
 50
-90.0
 51
38.470645540609
  0
ARC
  5
3CD
100
AcDbEntity
  8
1
  6
CONTINUOUS
 62
           2
100
AcDbCircle
 10
11173.95427666282
 20
-923.799741322023
 40
36.001544532573
100
AcDbArc
 50
-90.0
 51
49.626086757756
  0
ARC
  5
3CC
100
AcDbEntity
  8
1
  6
CONTINUOUS
 62
           7
100
AcDbCircle
 10
11173.95427666282
 20
-2314.799741322023
 40
100.0
100
AcDbArc
 50
0.0
 51
180.0
  0
ARC
  5
3CB
100
AcDbEntity
  8
1
  6
CONTINUOUS
 62
           7
100
AcDbCircle
 10
11173.95427666282
 20
-1214.799741322022
 40
1009.0
100
AcDbArc
 50
-92.255000670214
 51
-87.744999329786
  0
ARC
  5
3CA
100
AcDbEntity
  8
1
  6
CONTINUOUS
 62
           2
100
AcDbCircle
 10
11198.104276662811
 20
-2278.729741322021
 40
14.252192813739
100
AcDbArc
 50
158.385221057213
 51
-158.385221057213
  0
ARC
  5
3C9
100
AcDbEntity
  8
1
  6
CONTINUOUS
 62
           2
100
AcDbCircle
 10
11216.735526662809
 20
-2278.979741322022
 40
15.781249999997
100
AcDbArc
 50
141.908042894755
 51
-141.908042894758
  0
ARC
  5
3C8
100
AcDbEntity
  8
1
  6
CONTINUOUS
 62
           2
100
AcDbCircle
 10
11167.70427666282
 20
-2289.927525677315
 40
18.052215644707
100
AcDbArc
 50
-110.256158000421
 51
-69.743841999581
  0
ARC
  5
3C7
100
AcDbEntity
  8
1
  6
CONTINUOUS
 62
           2
100
AcDbCircle
 10
11180.20427666282
 20
-2289.927525677315
 40
18.052215644708
100
AcDbArc
 50
-110.256158000419
 51
-69.743841999579
  0
ARC
  5
3C6
100
AcDbEntity
  8
1
  6
CONTINUOUS
 62
           2
100
AcDbCircle
 10
11167.70427666282
 20
-2269.531956966728
 40
18.052215644708
100
AcDbArc
 50
69.743841999581
 51
110.25615800042
  0
ARC
  5
3C5
100
AcDbEntity
  8
1
  6
CONTINUOUS
 62
           2
100
AcDbCircle
 10
11180.20427666282
 20
-2269.531956966728
 40
18.052215644707
100
AcDbArc
 50
69.74384199958
 51
110.256158000419
  0
ARC
  5
3C4
100
AcDbEntity
  8
1
  6
CONTINUOUS
 62
           2
100
AcDbCircle
 10
11180.20427666282
 20
-2243.844192343986
 40
18.052215644708
100
AcDbArc
 50
-110.256158000419
 51
-98.762318068003
  0
ARC
  5
3C3
100
AcDbEntity
  8
1
  6
CONTINUOUS
 62
           2
100
AcDbCircle
 10
11167.70427666282
 20
-2243.844192343986
 40
18.052215644707
100
AcDbArc
 50
-110.25615800042
 51
-98.762318068003
  0
ARC
  5
3C2
100
AcDbEntity
  8
1
  6
CONTINUOUS
 62
           2
100
AcDbCircle
 10
11180.20427666282
 20
-2315.615290300059
 40
18.052215644708
100
AcDbArc
 50
69.743841999581
 51
81.237681931997
  0
ARC
  5
3C1
100
AcDbEntity
  8
1
  6
CONTINUOUS
 62
           2
100
AcDbCircle
 10
11167.70427666282
 20
-2315.615290300059
 40
18.052215644709
100
AcDbArc
 50
69.743841999582
 51
81.237681931997
  0
ARC
  5
3C0
100
AcDbEntity
  8
1
  6
CONTINUOUS
 62
           2
100
AcDbCircle
 10
11167.70427666282
 20
-2243.844192343986
 40
18.052215644708
100
AcDbArc
 50
-81.237681931997
 51
-69.743841999581
  0
ARC
  5
3BF
100
AcDbEntity
  8
1
  6
CONTINUOUS
 62
           2
100
AcDbCircle
 10
11180.20427666282
 20
-2315.615290300059
 40
18.052215644708
100
AcDbArc
 50
98.762318068003
 51
110.256158000418
  0
ARC
  5
3BE
100
AcDbEntity
  8
1
  6
CONTINUOUS
 62
           2
100
AcDbCircle
 10
11180.20427666282
 20
-2243.844192343986
 40
18.052215644708
100
AcDbArc
 50
-81.237681931996
 51
-69.74384199958
  0
ARC
  5
3BD
100
AcDbEntity
  8
1
  6
CONTINUOUS
 62
           2
100
AcDbCircle
 10
11167.70427666282
 20
-2315.615290300059
 40
18.052215644708
100
AcDbArc
 50
98.762318068003
 51
110.256158000419
  0
ARC
  5
3BC
100
AcDbEntity
  8
1
  6
CONTINUOUS
 62
           2
100
AcDbCircle
 10
10446.129549414931
 20
-932.907727584102
 40
5.414822022404
100
AcDbArc
 50
145.771504196927
 51
-155.979322918921
  0
ARC
  5
3BB
100
AcDbEntity
  8
1
  6
CONTINUOUS
 62
           2
100
AcDbCircle
 10
10460.77692522564
 20
-923.799741322023
 40
20.062177826479
100
AcDbArc
 50
162.412046225995
 51
-162.412046226
  0
ARC
  5
3BA
100
AcDbEntity
  8
1
  6
CONTINUOUS
 62
           2
100
AcDbCircle
 10
10446.129549414931
 20
-914.691755059944
 40
5.414822022403
100
AcDbArc
 50
155.979322918904
 51
-145.771504196943
  0
ARC
  5
3B9
100
AcDbEntity
  8
1
  6
CONTINUOUS
 62
           2
100
AcDbCircle
 10
10479.299945383391
 20
-932.907727584102
 40
5.414822022409
100
AcDbArc
 50
-24.020677081047
 51
34.228495803084
  0
ARC
  5
3B8
100
AcDbEntity
  8
1
  6
CONTINUOUS
 62
           2
100
AcDbCircle
 10
10464.65256957269
 20
-923.799741322023
 40
20.062177826468
100
AcDbArc
 50
-17.587953774009
 51
17.587953774014
  0
ARC
  5
3B7
100
AcDbEntity
  8
1
  6
CONTINUOUS
 62
           2
100
AcDbCircle
 10
10479.299945383391
 20
-914.691755059944
 40
5.414822022402
100
AcDbArc
 50
-34.228495803068
 51
24.020677081065
  0
ARC
  5
3B6
100
AcDbEntity
  8
1
  6
CONTINUOUS
 62
           2
100
AcDbCircle
 10
10462.714747399161
 20
-923.799741322023
 40
9.999999999995
100
AcDbArc
 50
-145.570996049274
 51
-34.429003950732
  0
ARC
  5
3B5
100
AcDbEntity
  8
1
  6
CONTINUOUS
 62
           2
100
AcDbCircle
 10
10462.714747399161
 20
-923.799741322023
 40
9.999999999995
100
AcDbArc
 50
34.42900395074
 51
145.570996049265
  0
ARC
  5
3B4
100
AcDbEntity
  8
1
  6
CONTINUOUS
 62
           2
100
AcDbCircle
 10
10496.476925225639
 20
-923.799741322023
 40
20.06217782648
100
AcDbArc
 50
-163.904036789946
 51
-162.412046226
  0
ARC
  5
3B3
100
AcDbEntity
  8
1
  6
CONTINUOUS
 62
           2
100
AcDbCircle
 10
10481.829549414941
 20
-932.907727584102
 40
5.414822022413
100
AcDbArc
 50
145.771504196992
 51
-155.97932291896
  0
ARC
  5
3B2
100
AcDbEntity
  8
1
  6
CONTINUOUS
 62
           2
100
AcDbCircle
 10
10481.829549414941
 20
-914.691755059944
 40
5.414822022412
100
AcDbArc
 50
155.979322918943
 51
-145.771504197008
  0
ARC
  5
3B1
100
AcDbEntity
  8
1
  6
CONTINUOUS
 62
           2
100
AcDbCircle
 10
10428.69039174619
 20
-923.799741322023
 40
20.062177826483
100
AcDbArc
 50
16.095963210058
 51
17.587953774005
  0
ARC
  5
3B0
100
AcDbEntity
  8
1
  6
CONTINUOUS
 62
           2
100
AcDbCircle
 10
10443.337767556901
 20
-914.691755059944
 40
5.414822022402
100
AcDbArc
 50
-34.228495803068
 51
24.020677081104
  0
ARC
  5
3AF
100
AcDbEntity
  8
1
  6
CONTINUOUS
 62
           2
100
AcDbCircle
 10
10443.337767556901
 20
-932.907727584102
 40
5.414822022401
100
AcDbArc
 50
-24.020677081086
 51
34.228495803084
  0
ARC
  5
3AE
100
AcDbEntity
  8
1
  6
CONTINUOUS
 62
           2
100
AcDbCircle
 10
10468.61762545961
 20
-919.810911755092
 40
6.806710713908
100
AcDbArc
 50
3.041596008608
 51
41.510199687935
  0
ARC
  5
3AD
100
AcDbEntity
  8
1
  6
CONTINUOUS
 62
           2
100
AcDbCircle
 10
10428.69039174619
 20
-923.799741322023
 40
20.062177826479
100
AcDbArc
 50
-17.587953774
 51
-16.095963210053
  0
ARC
  5
3AC
100
AcDbEntity
  8
1
  6
CONTINUOUS
 62
           2
100
AcDbCircle
 10
10496.476925225639
 20
-923.799741322023
 40
20.062177826479
100
AcDbArc
 50
162.412046225995
 51
163.904036789941
  0
ARC
  5
3AB
100
AcDbEntity
  8
1
  6
CONTINUOUS
 62
           7
100
AcDbCircle
 10
10402.46046498519
 20
-837.20896292943
 40
38.955598656249
100
AcDbArc
 50
-33.933112924655
 51
-25.984434102922
  0
ARC
  5
3AA
100
AcDbEntity
  8
1
  6
CONTINUOUS
 62
           7
100
AcDbCircle
 10
10402.46046498519
 20
-837.20896292943
 40
38.955598656245
100
AcDbArc
 50
-74.888655776975
 51
-33.933112924655
  0
ARC
  5
3A9
100
AcDbEntity
  8
1
  6
CONTINUOUS
 62
           7
100
AcDbCircle
 10
10435.143456660429
 20
-856.046208517189
 40
3.637499999999
100
AcDbArc
 50
-77.924977949215
 51
17.924977949171
  0
ARC
  5
3A8
100
AcDbEntity
  8
1
  6
CONTINUOUS
 62
           7
100
AcDbCircle
 10
10402.41602054075
 20
-799.309967806536
 40
3.637499999992
100
AcDbArc
 50
42.075022050951
 51
137.92497794926
  0
ARC
  5
3A7
100
AcDbEntity
  8
1
  6
CONTINUOUS
 62
           7
100
AcDbCircle
 10
10402.3715760963
 20
-837.116927130767
 40
39.04445932423
100
AcDbArc
 50
85.9693421508
 51
93.899904844102
  0
ARC
  5
3A6
100
AcDbEntity
  8
1
  6
CONTINUOUS
 62
           7
100
AcDbCircle
 10
10402.3715760963
 20
-837.116927130767
 40
39.044459324236
100
AcDbArc
 50
-0.050021452171
 51
85.9693421508
  0
ARC
  5
3A5
100
AcDbEntity
  8
1
  6
CONTINUOUS
 62
           7
100
AcDbCircle
 10
10402.41871082927
 20
-837.154522170691
 40
28.591593842013
100
AcDbArc
 50
-44.999999999996
 51
180.0
  0
ARC
  5
3A4
100
AcDbEntity
  8
1
  6
CONTINUOUS
 62
           7
100
AcDbCircle
 10
10402.4148919081
 20
-837.150030683592
 40
32.087775151114
100
AcDbArc
 50
-45.00083118376
 51
179.926907891322
  0
ARC
  5
3A3
100
AcDbEntity
  8
1
  6
CONTINUOUS
 62
           7
100
AcDbCircle
 10
10402.41602054075
 20
-837.151014463606
 40
3.61111111111
100
AcDbArc
 50
74.697968285751
 51
-158.578178478234
  0
ARC
  5
3A2
100
AcDbEntity
  8
1
  6
CONTINUOUS
 62
           7
100
AcDbCircle
 10
10402.41602054075
 20
-837.151014463606
 40
3.611111111113
100
AcDbArc
 50
-111.421821521924
 51
0.0
  0
ARC
  5
3A1
100
AcDbEntity
  8
1
  6
CONTINUOUS
 62
           7
100
AcDbCircle
 10
10402.41602054075
 20
-837.151014463606
 40
3.611111111109
100
AcDbArc
 50
0.0
 51
15.302031714403
  0
ARC
  5
3A0
100
AcDbEntity
  8
1
  6
CONTINUOUS
 62
           7
100
AcDbCircle
 10
10402.46046498519
 20
-837.20896292943
 40
38.95559865625
100
AcDbArc
 50
-25.984434102922
 51
0.085230463912
  0
ARC
  5
39F
100
AcDbEntity
  8
1
  6
CONTINUOUS
 62
           7
100
AcDbCircle
 10
10402.41602054075
 20
-836.819880373182
 40
39.342857142856
100
AcDbArc
 50
-105.026113759118
 51
-74.973886240894
  0
ARC
  5
39E
100
AcDbEntity
  8
1
  6
CONTINUOUS
 62
           7
100
AcDbCircle
 10
10435.30096331465
 20
-867.434626400271
 40
42.897491299713
100
AcDbArc
 50
116.582304419184
 51
133.266911622694
  0
ARC
  5
39D
100
AcDbEntity
  8
1
  6
CONTINUOUS
 62
           7
100
AcDbCircle
 10
10415.814124938101
 20
-828.490271945572
 40
0.650179290193
100
AcDbArc
 50
-63.417695580377
 51
30.139023485033
  0
ARC
  5
39C
100
AcDbEntity
  8
1
  6
CONTINUOUS
 62
           7
100
AcDbCircle
 10
10372.13240860408
 20
-804.266071689698
 40
42.897491299709
100
AcDbArc
 50
-43.266911622702
 51
-26.582304419183
  0
ARC
  5
39B
100
AcDbEntity
  8
1
  6
CONTINUOUS
 62
           7
100
AcDbCircle
 10
10411.07676305878
 20
-823.752910066242
 40
0.65017929019
100
AcDbArc
 50
59.860976514582
 51
153.417695580771
  0
ARC
  5
39A
100
AcDbEntity
  8
1
  6
CONTINUOUS
 62
           7
100
AcDbCircle
 10
10404.51882367383
 20
-835.04821133052
 40
13.711205269322
100
AcDbArc
 50
30.139023485576
 51
59.860976514414
  0
ARC
  5
399
100
AcDbEntity
  8
1
  6
CONTINUOUS
 62
           2
100
AcDbCircle
 10
14163.84130700515
 20
-2324.109174778047
 40
25.760231957406
100
AcDbArc
 50
73.730496507363
 51
106.269503492637
  0
ARC
  5
398
100
AcDbEntity
  8
1
  6
CONTINUOUS
 62
           2
100
AcDbCircle
 10
14163.84130700515
 20
-2284.380523032205
 40
23.883545031555
100
AcDbArc
 50
-107.58795377398
 51
-72.41204622602
  0
ARC
  5
397
100
AcDbEntity
  8
1
  6
CONTINUOUS
 62
           2
100
AcDbCircle
 10
14163.84130700515
 20
-2240.272133603974
 40
21.615815918786
100
AcDbArc
 50
-109.503854479456
 51
-70.496145520544
  0
ARC
  5
396
100
AcDbEntity
  8
1
  6
CONTINUOUS
 62
           2
100
AcDbCircle
 10
14163.84130700515
 20
-2275.647613095341
 40
23.883545031578
100
AcDbArc
 50
72.412046226037
 51
107.587953773962
  0
ARC
  5
395
100
AcDbEntity
  8
1
  6
CONTINUOUS
 62
           2
100
AcDbCircle
 10
14174.68414779335
 20
-2304.710260939684
 40
6.446216693341
100
AcDbArc
 50
65.979322919027
 51
79.658790361553
  0
ARC
  5
394
100
AcDbEntity
  8
1
  6
CONTINUOUS
 62
           2
100
AcDbCircle
 10
14152.998466216961
 20
-2304.710260939685
 40
6.446216693342
100
AcDbArc
 50
55.77150419697
 51
82.487084244368
  0
ARC
  5
393
100
AcDbEntity
  8
1
  6
CONTINUOUS
 62
           2
100
AcDbCircle
 10
14174.68414779335
 20
-2255.317875187842
 40
6.446216693349
100
AcDbArc
 50
-124.228495803103
 51
-97.512915755729
  0
ARC
  5
392
100
AcDbEntity
  8
1
  6
CONTINUOUS
 62
           2
100
AcDbCircle
 10
14152.998466216961
 20
-2255.317875187841
 40
6.446216693347
100
AcDbArc
 50
-114.020677081056
 51
-100.341209638542
  0
ARC
  5
391
100
AcDbEntity
  8
1
  6
CONTINUOUS
 62
           2
100
AcDbCircle
 10
14174.68414779335
 20
-2301.81787518784
 40
6.446216693348
100
AcDbArc
 50
-124.228495803112
 51
-65.979322919029
  0
ARC
  5
390
100
AcDbEntity
  8
1
  6
CONTINUOUS
 62
           2
100
AcDbCircle
 10
14163.84130700515
 20
-2284.380523032222
 40
23.883545031542
100
AcDbArc
 50
-76.06909951585
 51
-72.412046226007
  0
ARC
  5
38F
100
AcDbEntity
  8
1
  6
CONTINUOUS
 62
           2
100
AcDbCircle
 10
14152.998466216961
 20
-2301.81787518784
 40
6.446216693346
100
AcDbArc
 50
-114.020677081059
 51
-55.771504196968
  0
ARC
  5
38E
100
AcDbEntity
  8
1
  6
CONTINUOUS
 62
           2
100
AcDbCircle
 10
14174.68414779335
 20
-2258.210260939683
 40
6.446216693343
100
AcDbArc
 50
65.979322919032
 51
124.228495803108
  0
ARC
  5
38D
100
AcDbEntity
  8
1
  6
CONTINUOUS
 62
           2
100
AcDbCircle
 10
14163.84130700515
 20
-2275.647613095302
 40
23.883545031542
100
AcDbArc
 50
103.93090048415
 51
107.587953773991
  0
ARC
  5
38C
100
AcDbEntity
  8
1
  6
CONTINUOUS
 62
           2
100
AcDbCircle
 10
14152.998466216961
 20
-2258.210260939683
 40
6.446216693342
100
AcDbArc
 50
55.771504196972
 51
114.020677081056
  0
ARC
  5
38B
100
AcDbEntity
  8
1
  6
CONTINUOUS
 62
           2
100
AcDbCircle
 10
14163.84130700515
 20
-2237.880523032224
 40
23.883545031539
100
AcDbArc
 50
-76.069099515848
 51
-72.412046226009
  0
ARC
  5
38A
100
AcDbEntity
  8
1
  6
CONTINUOUS
 62
           2
100
AcDbCircle
 10
14152.998466216961
 20
-2255.317875187841
 40
6.446216693346
100
AcDbArc
 50
-82.487084244369
 51
-55.771504196983
  0
ARC
  5
389
100
AcDbEntity
  8
1
  6
CONTINUOUS
 62
           2
100
AcDbCircle
 10
14174.68414779335
 20
-2255.317875187842
 40
6.446216693345
100
AcDbArc
 50
-79.658790361558
 51
-65.979322919027
  0
ARC
  5
388
100
AcDbEntity
  8
1
  6
CONTINUOUS
 62
           2
100
AcDbCircle
 10
14163.84130700515
 20
-2322.147613095302
 40
23.883545031539
100
AcDbArc
 50
103.930900484151
 51
107.587953773993
  0
ARC
  5
387
100
AcDbEntity
  8
1
  6
CONTINUOUS
 62
           2
100
AcDbCircle
 10
14152.998466216961
 20
-2304.710260939685
 40
6.446216693348
100
AcDbArc
 50
100.341209638535
 51
114.020677081056
  0
ARC
  5
386
100
AcDbEntity
  8
1
  6
CONTINUOUS
 62
           2
100
AcDbCircle
 10
14174.68414779335
 20
-2304.710260939684
 40
6.446216693343
100
AcDbArc
 50
97.512915755732
 51
124.228495803117
  0
ARC
  5
385
100
AcDbEntity
  8
1
  6
CONTINUOUS
 62
           2
100
AcDbCircle
 10
14163.84130700515
 20
-2237.880523032224
 40
23.883545031541
100
AcDbArc
 50
-107.587953773991
 51
-103.930900484151
  0
ARC
  5
384
100
AcDbEntity
  8
1
  6
CONTINUOUS
 62
           2
100
AcDbCircle
 10
14163.84130700515
 20
-2322.147613095302
 40
23.883545031538
100
AcDbArc
 50
72.412046226007
 51
76.069099515848
  0
ARC
  5
383
100
AcDbEntity
  8
1
  6
CONTINUOUS
 62
           2
100
AcDbCircle
 10
14163.84130700515
 20
-2275.647613095302
 40
23.883545031541
100
AcDbArc
 50
72.412046226009
 51
76.06909951585
  0
ARC
  5
382
100
AcDbEntity
  8
1
  6
CONTINUOUS
 62
           2
100
AcDbCircle
 10
14163.84130700515
 20
-2284.380523032222
 40
23.883545031539
100
AcDbArc
 50
-107.587953773992
 51
-103.93090048415
  0
ARC
  5
381
100
AcDbEntity
  8
1
  6
CONTINUOUS
 62
           2
100
AcDbCircle
 10
14163.84130700515
 20
-2279.264068063762
 40
12.999999999988
100
AcDbArc
 50
31.10892251052
 51
148.891077489525
  0
ARC
  5
380
100
AcDbEntity
  8
1
  6
CONTINUOUS
 62
           2
100
AcDbCircle
 10
14163.84130700515
 20
-2279.264068063762
 40
13.000000000012
100
AcDbArc
 50
-148.891077489479
 51
-31.108922510566
  0
ARC
  5
37F
100
AcDbEntity
  8
1
  6
CONTINUOUS
 62
           7
100
AcDbCircle
 10
14163.84130700515
 20
-1214.799741322023
 40
1008.999999999999
100
AcDbArc
 50
-92.255000670214
 51
-87.744999329786
  0
ARC
  5
37E
100
AcDbEntity
  8
1
  6
CONTINUOUS
 62
           2
100
AcDbCircle
 10
10403.455549804399
 20
-3776.270324220034
 40
11.5
100
AcDbArc
 50
90.0
 51
-90.0
  0
ARC
  5
37D
100
AcDbEntity
  8
1
  6
CONTINUOUS
 62
           2
100
AcDbCircle
 10
11218.87126269548
 20
-3057.357186799034
 40
10.415441500099
100
AcDbArc
 50
180.0
 51
-148.868509433911
  0
ARC
  5
37C
100
AcDbEntity
  8
1
  6
CONTINUOUS
 62
           2
100
AcDbCircle
 10
11129.037290630151
 20
-3057.357186799034
 40
10.41544150009
100
AcDbArc
 50
-31.13149056612
 51
0.0
  0
ARC
  5
37B
100
AcDbEntity
  8
1
  6
CONTINUOUS
 62
           2
100
AcDbCircle
 10
11173.98294556667
 20
-3027.389765851123
 40
34.787361012412
100
AcDbArc
 50
7.710008218941
 51
173.029145890946
  0
ARC
  5
37A
100
AcDbEntity
  8
1
  6
CONTINUOUS
 62
           2
100
AcDbCircle
 10
11173.95427666282
 20
-3019.782010333775
 40
48.499999999994
100
AcDbArc
 50
-34.542007549622
 51
-135.346659194774
  0
ARC
  5
379
100
AcDbEntity
  8
1
  6
CONTINUOUS
 62
           2
100
AcDbCircle
 10
11173.95427666282
 20
-3019.782010333775
 40
48.499999999993
100
AcDbArc
 50
-44.653340805241
 51
-39.868341550011
  0
ARC
  5
378
100
AcDbEntity
  8
1
  6
CONTINUOUS
 62
           2
100
AcDbCircle
 10
11167.415554426139
 20
-3015.130719418775
 40
56.523480904114
100
AcDbArc
 50
-38.73647906866
 51
-34.667494258061
  0
ARC
  5
377
100
AcDbEntity
  8
1
  6
CONTINUOUS
 62
           7
100
AcDbCircle
 10
10653.954582609629
 20
-1962.893168447878
 40
139.000305946843
100
AcDbArc
 50
-179.999966961036
 51
-116.459815036203
  0
ARC
  5
376
100
AcDbEntity
  8
1
  6
CONTINUOUS
 62
           7
100
AcDbCircle
 10
11173.954276662809
 20
-914.799741322023
 40
1308.999999999998
100
AcDbArc
 50
-69.893033609314
 51
-63.604563329116
  0
ARC
  5
375
100
AcDbEntity
  8
1
  6
CONTINUOUS
 62
           7
100
AcDbCircle
 10
11693.953970716
 20
-1962.893168447878
 40
139.000305946834
100
AcDbArc
 50
-63.5401849638
 51
-0.000033038964
  0
ARC
  5
374
100
AcDbEntity
  8
1
  6
CONTINUOUS
 62
           7
100
AcDbCircle
 10
11173.954276662809
 20
-914.799741322023
 40
1308.999999999998
100
AcDbArc
 50
-116.395436670884
 51
-110.106966390686
  0
ARC
  5
373
100
AcDbEntity
  8
1
  6
DOTTED
 62
           7
100
AcDbCircle
 10
11173.954276662809
 20
-914.799741322023
 40
1308.999999999998
100
AcDbArc
 50
-110.106966390686
 51
-69.893033609314
  0
ARC
  5
372
100
AcDbEntity
  8
1
  6
CONTINUOUS
 62
           7
100
AcDbCircle
 10
10383.54273321622
 20
-1723.799741322022
 40
137.819366308425
100
AcDbArc
 50
-24.498739093027
 51
24.498739093027
  0
ARC
  5
371
100
AcDbEntity
  8
1
  6
CONTINUOUS
 62
           7
100
AcDbCircle
 10
10268.282292902861
 20
-1723.799741322022
 40
268.089663307014
100
AcDbArc
 50
-23.05782952362
 51
23.05782952362
  0
ARC
  5
370
100
AcDbEntity
  8
1
  6
CONTINUOUS
 62
           7
100
AcDbCircle
 10
12079.62626042277
 20
-923.799741322023
 40
268.089663307026
100
AcDbArc
 50
156.942170476381
 51
-156.942170476381
  0
ARC
  5
36F
100
AcDbEntity
  8
1
  6
CONTINUOUS
 62
           7
100
AcDbCircle
 10
11964.365820109409
 20
-923.799741322023
 40
137.819366308435
100
AcDbArc
 50
155.501260906974
 51
-155.501260906975
  0
ARC
  5
36E
100
AcDbEntity
  8
1
  6
CONTINUOUS
 62
           7
100
AcDbCircle
 10
11693.953970716
 20
-27.706314196166
 40
139.000305946832
100
AcDbArc
 50
0.000033038964
 51
63.5401849638
  0
ARC
  5
36D
100
AcDbEntity
  8
1
  6
CONTINUOUS
 62
           7
100
AcDbCircle
 10
11173.954276662809
 20
-1075.799741322022
 40
1309.000000000001
100
AcDbArc
 50
63.604563329116
 51
69.893033609314
  0
ARC
  5
36C
100
AcDbEntity
  8
1
  6
CONTINUOUS
 62
           7
100
AcDbCircle
 10
11693.953970716
 20
-27.706314196166
 40
139.000305946832
100
AcDbArc
 50
0.000033038964
 51
63.5401849638
  0
ARC
  5
36B
100
AcDbEntity
  8
1
  6
CONTINUOUS
 62
           7
100
AcDbCircle
 10
11173.954276662809
 20
-1075.799741322022
 40
1309.000000000001
100
AcDbArc
 50
63.604563329116
 51
69.893033609314
  0
ARC
  5
36A
100
AcDbEntity
  8
1
  6
CONTINUOUS
 62
           7
100
AcDbCircle
 10
11173.954276662809
 20
-1075.799741322022
 40
1308.999999999999
100
AcDbArc
 50
69.893033609314
 51
110.106966390686
  0
ARC
  5
369
100
AcDbEntity
  8
1
  6
DOTTED
 62
           7
100
AcDbCircle
 10
11173.954276662809
 20
-1075.799741322022
 40
1308.999999999999
100
AcDbArc
 50
69.893033609314
 51
110.106966390686
  0
ARC
  5
368
100
AcDbEntity
  8
1
  6
CONTINUOUS
 62
           7
100
AcDbCircle
 10
11173.954276662809
 20
-1075.799741322022
 40
1308.999999999999
100
AcDbArc
 50
110.106966390686
 51
116.395436670884
  0
ARC
  5
367
100
AcDbEntity
  8
1
  6
CONTINUOUS
 62
           7
100
AcDbCircle
 10
10653.954582609629
 20
-27.706314196166
 40
139.000305946839
100
AcDbArc
 50
116.459815036203
 51
179.999966961036
  0
ARC
  5
366
100
AcDbEntity
  8
1
  6
CONTINUOUS
 62
           7
100
AcDbCircle
 10
11926.244304972121
 20
-2299.263716100516
 40
315.971260282133
100
AcDbArc
 50
163.077829185707
 51
-178.543839139127
  0
ARC
  5
365
100
AcDbEntity
  8
1
  6
CONTINUOUS
 62
           7
100
AcDbCircle
 10
10421.664248353511
 20
-2299.263716100516
 40
315.971260282126
100
AcDbArc
 50
-1.456160860872
 51
16.922170814293
  0
ARC
  5
364
100
AcDbEntity
  8
1
  6
CONTINUOUS
 62
           7
100
AcDbCircle
 10
10421.664248353511
 20
-2299.263716100516
 40
315.971260282126
100
AcDbArc
 50
-1.456160860872
 51
16.922170814293
  0
ARC
  5
363
100
AcDbEntity
  8
1
  6
DOTTED
 62
           7
100
AcDbCircle
 10
14163.84130700515
 20
-914.799741322023
 40
1309.000000000002
100
AcDbArc
 50
-110.106966390686
 51
-69.893033609314
  0
ARC
  5
362
100
AcDbEntity
  8
1
  6
CONTINUOUS
 62
           7
100
AcDbCircle
 10
14916.131335314451
 20
-2299.263716100516
 40
315.971260282123
100
AcDbArc
 50
163.077829185707
 51
-178.543839139127
  0
ARC
  5
361
100
AcDbEntity
  8
1
  6
CONTINUOUS
 62
           7
100
AcDbCircle
 10
14916.131335314451
 20
-2299.263716100516
 40
315.971260282123
100
AcDbArc
 50
163.077829185707
 51
-178.543839139127
  0
ARC
  5
360
100
AcDbEntity
  8
1
  6
CONTINUOUS
 62
           7
100
AcDbCircle
 10
13411.551278695841
 20
-2299.263716100516
 40
315.971260282126
100
AcDbArc
 50
-1.456160860872
 51
16.922170814293
  0
ARC
  5
35F
100
AcDbEntity
  8
1
  6
CONTINUOUS
 62
           7
100
AcDbCircle
 10
13411.551278695841
 20
-2299.263716100516
 40
315.971260282126
100
AcDbArc
 50
-1.456160860872
 51
16.922170814293
  0
ARC
  5
35E
100
AcDbEntity
  8
1
  6
CONTINUOUS
 62
           7
100
AcDbCircle
 10
13411.551278695841
 20
-2299.263716100516
 40
315.971260282126
100
AcDbArc
 50
-1.456160860872
 51
16.922170814293
  0
ARC
  5
35D
100
AcDbEntity
  8
1
  6
CONTINUOUS
 62
           7
100
AcDbCircle
 10
13411.551278695841
 20
-2299.263716100516
 40
315.971260282126
100
AcDbArc
 50
-1.456160860872
 51
16.922170814293
  0
ARC
  5
35C
100
AcDbEntity
  8
1
  6
CONTINUOUS
 62
           7
100
AcDbCircle
 10
14163.84130700515
 20
-914.799741322023
 40
1309.000000000003
100
AcDbArc
 50
-116.395436670884
 51
-110.106966390686
  0
ARC
  5
35B
100
AcDbEntity
  8
1
  6
CONTINUOUS
 62
           7
100
AcDbCircle
 10
13643.841612951959
 20
-1962.893168447878
 40
139.000305946843
100
AcDbArc
 50
-179.999966961036
 51
-116.459815036203
  0
ARC
  5
35A
100
AcDbEntity
  8
1
  6
CONTINUOUS
 62
           7
100
AcDbCircle
 10
13643.841612951959
 20
-1962.893168447878
 40
139.000305946843
100
AcDbArc
 50
-179.999966961036
 51
-116.459815036203
  0
ARC
  5
359
100
AcDbEntity
  8
1
  6
CONTINUOUS
 62
           7
100
AcDbCircle
 10
14683.84100105833
 20
-1962.893168447878
 40
139.000305946838
100
AcDbArc
 50
-63.540184963797
 51
-0.000033038964
  0
ARC
  5
358
100
AcDbEntity
  8
1
  6
CONTINUOUS
 62
           7
100
AcDbCircle
 10
14683.84100105833
 20
-1962.893168447878
 40
139.000305946838
100
AcDbArc
 50
-63.540184963797
 51
-0.000033038964
  0
ARC
  5
357
100
AcDbEntity
  8
1
  6
CONTINUOUS
 62
           7
100
AcDbCircle
 10
14163.84130700515
 20
-914.799741322023
 40
1308.999999999998
100
AcDbArc
 50
-69.893033609314
 51
-63.604563329116
  0
ARC
  5
356
100
AcDbEntity
  8
1
  6
CONTINUOUS
 62
           7
100
AcDbCircle
 10
14163.84130700515
 20
-2314.799741322023
 40
100.0
100
AcDbArc
 50
0.0
 51
180.0
  0
ARC
  5
355
100
AcDbEntity
  8
1
  6
CONTINUOUS
 62
           7
100
AcDbCircle
 10
13643.841612951959
 20
-27.706314196166
 40
139.000305946839
100
AcDbArc
 50
116.459815036203
 51
179.999966961036
  0
ARC
  5
354
100
AcDbEntity
  8
1
  6
CONTINUOUS
 62
           7
100
AcDbCircle
 10
14163.84130700515
 20
-1075.799741322022
 40
1309.000000000003
100
AcDbArc
 50
110.106966390686
 51
116.395436670884
  0
ARC
  5
353
100
AcDbEntity
  8
1
  6
CONTINUOUS
 62
           7
100
AcDbCircle
 10
14163.84130700515
 20
-1075.799741322022
 40
1308.999999999999
100
AcDbArc
 50
90.437710747377
 51
110.106966390686
  0
ARC
  5
352
100
AcDbEntity
  8
1
  6
CONTINUOUS
 62
           7
100
AcDbCircle
 10
14163.84130700515
 20
-1075.799741322022
 40
1309.0
100
AcDbArc
 50
63.604563329116
 51
69.893033609314
  0
ARC
  5
351
100
AcDbEntity
  8
1
  6
CONTINUOUS
 62
           7
100
AcDbCircle
 10
14683.84100105833
 20
-27.706314196166
 40
139.000305946843
100
AcDbArc
 50
0.000033038964
 51
63.540184963797
  0
ARC
  5
350
100
AcDbEntity
  8
1
  6
CONTINUOUS
 62
           7
100
AcDbCircle
 10
14163.84130700515
 20
-1075.799741322022
 40
1309.0
100
AcDbArc
 50
63.604563329116
 51
69.893033609314
  0
ARC
  5
34F
100
AcDbEntity
  8
1
  6
CONTINUOUS
 62
           7
100
AcDbCircle
 10
14683.84100105833
 20
-27.706314196166
 40
139.000305946843
100
AcDbArc
 50
0.000033038964
 51
63.540184963797
  0
ARC
  5
34E
100
AcDbEntity
  8
976
  6
CONTINUOUS
 62
           7
100
AcDbCircle
 10
11173.9542766628
 20
-3776.270324220034
 40
664.999999999986
100
AcDbArc
 50
172.004360023455
 51
-172.004360023455
  0
ARC
  5
34D
100
AcDbEntity
  8
976
  6
CONTINUOUS
 62
           7
100
AcDbCircle
 10
11173.95427666282
 20
-3776.270324220034
 40
664.999999999995
100
AcDbArc
 50
-7.995639976544
 51
7.995639976544
  0
ARC
  5
34C
100
AcDbEntity
  8
976
  6
CONTINUOUS
 62
           7
100
AcDbCircle
 10
11173.9542766628
 20
-3776.270324220034
 40
668.000000000003
100
AcDbArc
 50
64.934587906919
 51
115.065412093078
  0
ARC
  5
34B
100
AcDbEntity
  8
976
  6
CONTINUOUS
 62
           7
100
AcDbCircle
 10
11473.954276662809
 20
244.533796719509
 40
45.000000000001
100
AcDbArc
 50
-70.387605381833
 51
-136.11239461816
  0
ARC
  5
34A
100
AcDbEntity
  8
976
  6
CONTINUOUS
 62
           7
100
AcDbCircle
 10
10873.954276662809
 20
244.533796719509
 40
45.000000000004
100
AcDbArc
 50
-43.887605381829
 51
-109.612394618165
  0
ARC
  5
349
100
AcDbEntity
  8
976
  6
CONTINUOUS
 62
           7
100
AcDbCircle
 10
14163.84130700515
 20
279.483351468088
 40
10.0
100
AcDbArc
 50
0.0
 51
180.0
  0
ARC
  5
348
100
AcDbEntity
  8
976
  6
CONTINUOUS
 62
           7
100
AcDbCircle
 10
14142.611555996031
 20
200.732370277147
 40
1.2702491988
100
AcDbArc
 50
-179.967217606104
 51
-145.162705716867
  0
ARC
  5
347
100
AcDbEntity
  8
976
  6
CONTINUOUS
 62
           7
100
AcDbCircle
 10
14144.62225107108
 20
202.131147548495
 40
3.71963125295
100
AcDbArc
 50
-145.170722254445
 51
-114.495262511426
  0
ARC
  5
346
100
AcDbEntity
  8
976
  6
CONTINUOUS
 62
           7
100
AcDbCircle
 10
14154.027132194649
 20
222.580236946759
 40
26.227766274614
100
AcDbArc
 50
-114.669675802991
 51
-98.618631716249
  0
ARC
  5
345
100
AcDbEntity
  8
976
  6
CONTINUOUS
 62
           7
100
AcDbCircle
 10
14163.333085530699
 20
277.561826465383
 40
81.98868634093
100
AcDbArc
 50
-99.290567183156
 51
-89.64416353407
  0
ARC
  5
344
100
AcDbEntity
  8
976
  6
CONTINUOUS
 62
           7
100
AcDbCircle
 10
14164.34952847959
 20
277.561826465383
 40
81.988686340929
100
AcDbArc
 50
-90.35583646593
 51
-80.709432816842
  0
ARC
  5
343
100
AcDbEntity
  8
976
  6
CONTINUOUS
 62
           7
100
AcDbCircle
 10
14173.65548181564
 20
222.580236946759
 40
26.227766274616
100
AcDbArc
 50
-81.381368283746
 51
-65.330324197005
  0
ARC
  5
342
100
AcDbEntity
  8
976
  6
CONTINUOUS
 62
           7
100
AcDbCircle
 10
14183.06036293921
 20
202.131147548495
 40
3.719631252949
100
AcDbArc
 50
-65.504737488548
 51
-34.829277745538
  0
ARC
  5
341
100
AcDbEntity
  8
976
  6
CONTINUOUS
 62
           7
100
AcDbCircle
 10
14185.07105801426
 20
200.732370277147
 40
1.270249198804
100
AcDbArc
 50
-34.837294283133
 51
-0.032782393895
  0
ARC
  5
340
100
AcDbEntity
  8
976
  6
CONTINUOUS
 62
           7
100
AcDbCircle
 10
14145.159884404889
 20
217.284413614348
 40
1.318577689161
100
AcDbArc
 50
139.984673950527
 51
-139.507022172361
  0
ARC
  5
33F
100
AcDbEntity
  8
976
  6
CONTINUOUS
 62
           7
100
AcDbCircle
 10
14147.1964383795
 20
218.858325541675
 40
3.89139945152
100
AcDbArc
 50
-141.35529763856
 51
-115.506662151602
  0
ARC
  5
33E
100
AcDbEntity
  8
976
  6
CONTINUOUS
 62
           7
100
AcDbCircle
 10
14152.716366765089
 20
229.27172262862
 40
15.674731928617
100
AcDbArc
 50
-117.326405845781
 51
-104.000900844447
  0
ARC
  5
33D
100
AcDbEntity
  8
976
  6
CONTINUOUS
 62
           7
100
AcDbCircle
 10
14159.351368930929
 20
254.082241100011
 40
41.355722139636
100
AcDbArc
 50
-104.603996988102
 51
-97.656615988498
  0
ARC
  5
33C
100
AcDbEntity
  8
976
  6
CONTINUOUS
 62
           7
100
AcDbCircle
 10
14159.351368930929
 20
180.488168118053
 40
41.355722139636
100
AcDbArc
 50
97.656615988498
 51
104.603996988102
  0
ARC
  5
33B
100
AcDbEntity
  8
976
  6
CONTINUOUS
 62
           7
100
AcDbCircle
 10
14152.716366765089
 20
205.298686589444
 40
15.674731928617
100
AcDbArc
 50
104.000900844447
 51
117.326405845781
  0
ARC
  5
33A
100
AcDbEntity
  8
976
  6
CONTINUOUS
 62
           7
100
AcDbCircle
 10
14147.1964383795
 20
215.71208367639
 40
3.891399451516
100
AcDbArc
 50
115.506662151607
 51
141.35529763857
  0
ARC
  5
339
100
AcDbEntity
  8
976
  6
CONTINUOUS
 62
           7
100
AcDbCircle
 10
14180.4861756308
 20
215.71208367639
 40
3.891399451511
100
AcDbArc
 50
38.64470236153
 51
64.493337848537
  0
ARC
  5
338
100
AcDbEntity
  8
976
  6
CONTINUOUS
 62
           7
100
AcDbCircle
 10
14174.9662472452
 20
205.298686589444
 40
15.674731928617
100
AcDbArc
 50
62.673594154219
 51
75.999099155553
  0
ARC
  5
337
100
AcDbEntity
  8
976
  6
CONTINUOUS
 62
           7
100
AcDbCircle
 10
14168.33124507936
 20
180.488168118053
 40
41.355722139637
100
AcDbArc
 50
75.396003011898
 51
82.343384011502
  0
ARC
  5
336
100
AcDbEntity
  8
976
  6
CONTINUOUS
 62
           7
100
AcDbCircle
 10
14168.33124507936
 20
254.082241100011
 40
41.355722139635
100
AcDbArc
 50
-82.343384011502
 51
-75.396003011898
  0
ARC
  5
335
100
AcDbEntity
  8
976
  6
CONTINUOUS
 62
           7
100
AcDbCircle
 10
14174.9662472452
 20
229.27172262862
 40
15.674731928616
100
AcDbArc
 50
-75.999099155553
 51
-62.673594154219
  0
ARC
  5
334
100
AcDbEntity
  8
976
  6
CONTINUOUS
 62
           7
100
AcDbCircle
 10
14180.4861756308
 20
218.858325541675
 40
3.891399451512
100
AcDbArc
 50
-64.493337848543
 51
-38.64470236154
  0
ARC
  5
333
100
AcDbEntity
  8
976
  6
CONTINUOUS
 62
           7
100
AcDbCircle
 10
14182.5227296054
 20
217.284413614348
 40
1.318577689169
100
AcDbArc
 50
-40.492977827639
 51
40.015326049422
  0
ARC
  5
332
100
AcDbEntity
  8
1
  6
CONTINUOUS
 62
           7
100
AcDbCircle
 10
14163.84130700515
 20
-1075.799741322022
 40
1308.999999999999
100
AcDbArc
 50
69.893033609314
 51
89.562289252623
  0
ARC
  5
331
100
AcDbEntity
  8
1
  6
CONTINUOUS
 62
           7
100
AcDbCircle
 10
11273.95514458921
 20
-1365.1765018854
 40
17.499566031419
100
AcDbArc
 50
-0.403504746536
 51
179.596495253466
  0
ARC
  5
330
100
AcDbEntity
  8
1
  6
CONTINUOUS
 62
           7
100
AcDbCircle
 10
11273.95514458921
 20
-1720.42298075864
 40
17.49956603141
100
AcDbArc
 50
-179.596495253463
 51
0.403504746536
  0
ARC
  5
32F
100
AcDbEntity
  8
1
  6
CONTINUOUS
 62
           7
100
AcDbCircle
 10
11073.95340873641
 20
-1720.42298075864
 40
17.499566031421
100
AcDbArc
 50
179.596495253463
 51
-0.403504746536
  0
ARC
  5
32E
100
AcDbEntity
  8
1
  6
CONTINUOUS
 62
           7
100
AcDbCircle
 10
11073.95340873641
 20
-1365.1765018854
 40
17.499566031421
100
AcDbArc
 50
0.403504746533
 51
-179.596495253463
  0
ARC
  5
32D
100
AcDbEntity
  8
1
  6
CONTINUOUS
 62
           7
100
AcDbCircle
 10
11087.609441066459
 20
-1542.798598512678
 40
113.76250122436
100
AcDbArc
 50
154.94760758639
 51
-154.984784540828
  0
ARC
  5
32C
100
AcDbEntity
  8
1
  6
CONTINUOUS
 62
           7
100
AcDbCircle
 10
11123.16813706452
 20
-1524.89886661743
 40
153.559261072974
100
AcDbArc
 50
-154.542879317995
 51
-126.394531208387
  0
ARC
  5
32B
100
AcDbEntity
  8
1
  6
CONTINUOUS
 62
           7
100
AcDbCircle
 10
11150.380572454251
 20
-1491.163412183853
 40
196.869965427201
100
AcDbArc
 50
-126.944010452765
 51
-118.760356672526
  0
ARC
  5
32A
100
AcDbEntity
  8
1
  6
CONTINUOUS
 62
           7
100
AcDbCircle
 10
11173.34696945528
 20
-1435.02555243713
 40
257.774909317818
100
AcDbArc
 50
-108.388815607174
 51
-89.864539028133
  0
ARC
  5
329
100
AcDbEntity
  8
1
  6
CONTINUOUS
 62
           7
100
AcDbCircle
 10
11173.34696945528
 20
-1650.573930206911
 40
257.774909317819
100
AcDbArc
 50
89.864539028133
 51
108.388815607174
  0
ARC
  5
328
100
AcDbEntity
  8
1
  6
CONTINUOUS
 62
           7
100
AcDbCircle
 10
11123.16813706452
 20
-1560.70061602661
 40
153.559261072977
100
AcDbArc
 50
126.394531208387
 51
154.542879317995
  0
ARC
  5
327
100
AcDbEntity
  8
1
  6
CONTINUOUS
 62
           7
100
AcDbCircle
 10
11150.380572454251
 20
-1594.436070460187
 40
196.869965427194
100
AcDbArc
 50
118.760356672526
 51
126.944010452765
  0
ARC
  5
326
100
AcDbEntity
  8
1
  6
CONTINUOUS
 62
           7
100
AcDbCircle
 10
11174.561583870351
 20
-1650.573930206911
 40
257.774909317818
100
AcDbArc
 50
71.611184392826
 51
90.13546097187
  0
ARC
  5
325
100
AcDbEntity
  8
1
  6
CONTINUOUS
 62
           7
100
AcDbCircle
 10
11224.7404162611
 20
-1560.70061602661
 40
153.559261072974
100
AcDbArc
 50
25.457120682005
 51
53.605468791613
  0
ARC
  5
324
100
AcDbEntity
  8
1
  6
CONTINUOUS
 62
           7
100
AcDbCircle
 10
11197.527980871369
 20
-1594.436070460187
 40
196.8699654272
100
AcDbArc
 50
53.055989547235
 51
61.239643327471
  0
ARC
  5
323
100
AcDbEntity
  8
1
  6
CONTINUOUS
 62
           7
100
AcDbCircle
 10
11260.29911225917
 20
-1542.798598512678
 40
113.762501224349
100
AcDbArc
 50
-25.015215459173
 51
25.052392413611
  0
ARC
  5
322
100
AcDbEntity
  8
1
  6
CONTINUOUS
 62
           7
100
AcDbCircle
 10
11224.7404162611
 20
-1524.89886661743
 40
153.559261072978
100
AcDbArc
 50
-53.605468791613
 51
-25.457120682005
  0
ARC
  5
321
100
AcDbEntity
  8
1
  6
CONTINUOUS
 62
           7
100
AcDbCircle
 10
11197.527980871369
 20
-1491.163412183853
 40
196.8699654272
100
AcDbArc
 50
-61.239643327471
 51
-53.055989547235
  0
ARC
  5
320
100
AcDbEntity
  8
1
  6
CONTINUOUS
 62
           7
100
AcDbCircle
 10
11174.561583870351
 20
-1435.02555243713
 40
257.774909317818
100
AcDbArc
 50
-90.13546097187
 51
-71.611184392826
  0
ARC
  5
31F
100
AcDbEntity
  8
1
  6
CONTINUOUS
 62
           7
100
AcDbCircle
 10
13204.46084034765
 20
-1542.79974132202
 40
330.5
100
AcDbArc
 50
-26.991466561592
 51
26.991466561592
  0
ARC
  5
31E
100
AcDbEntity
  8
1
  6
CONTINUOUS
 62
           7
100
AcDbCircle
 10
12989.90528479209
 20
-1542.79974132202
 40
596.05555555556
100
AcDbArc
 50
-30.219150244681
 51
30.219150244681
  0
ARC
  5
31D
100
AcDbEntity
  8
1
  6
CONTINUOUS
 62
           7
100
AcDbCircle
 10
13004.99419437227
 20
-1542.79974132202
 40
577.929967501398
100
AcDbArc
 50
-31.271500898697
 51
31.271500898697
  0
ARC
  5
31C
100
AcDbEntity
  8
1
  6
CONTINUOUS
 62
           7
100
AcDbCircle
 10
13405.69627179875
 20
-1555.811150267852
 40
7.735460032012
100
AcDbArc
 50
145.771504196939
 51
-155.979322918945
  0
ARC
  5
31B
100
AcDbEntity
  8
1
  6
CONTINUOUS
 62
           7
100
AcDbCircle
 10
13426.621094385489
 20
-1542.79974132202
 40
28.660254037844
100
AcDbArc
 50
162.412046226007
 51
-162.412046226005
  0
ARC
  5
31A
100
AcDbEntity
  8
1
  6
CONTINUOUS
 62
           7
100
AcDbCircle
 10
13405.696271798761
 20
-1529.788332376188
 40
7.735460032016
100
AcDbArc
 50
155.979322918984
 51
-145.771504196979
  0
ARC
  5
319
100
AcDbEntity
  8
1
  6
CONTINUOUS
 62
           7
100
AcDbCircle
 10
13405.69627179875
 20
-1529.788332376189
 40
7.735460032006
100
AcDbArc
 50
155.979322918945
 51
-145.771504196939
  0
ARC
  5
318
100
AcDbEntity
  8
1
  6
CONTINUOUS
 62
           7
100
AcDbCircle
 10
13426.621094385489
 20
-1542.79974132202
 40
28.660254037844
100
AcDbArc
 50
162.412046226007
 51
-162.412046226005
  0
ARC
  5
317
100
AcDbEntity
  8
1
  6
CONTINUOUS
 62
           7
100
AcDbCircle
 10
13405.69627179875
 20
-1555.811150267852
 40
7.735460032012
100
AcDbArc
 50
145.771504196939
 51
-155.979322918945
  0
ARC
  5
316
100
AcDbEntity
  8
1
  6
CONTINUOUS
 62
           7
100
AcDbCircle
 10
11286.96568560864
 20
-3020.005755671139
 40
7.735460032016
100
AcDbArc
 50
65.979322918915
 51
124.228495803018
  0
ARC
  5
315
100
AcDbEntity
  8
1
  6
CONTINUOUS
 62
           7
100
AcDbCircle
 10
11273.954276662809
 20
-3040.930578257879
 40
28.660254037846
100
AcDbArc
 50
72.412046225992
 51
107.587953773984
  0
ARC
  5
314
100
AcDbEntity
  8
1
  6
CONTINUOUS
 62
           7
100
AcDbCircle
 10
11260.94286771698
 20
-3020.005755671139
 40
7.735460032013
100
AcDbArc
 50
55.771504196914
 51
114.020677081011
  0
ARC
  5
313
100
AcDbEntity
  8
1
  6
CONTINUOUS
 62
           7
100
AcDbCircle
 10
11086.96568560864
 20
-3020.005755671139
 40
7.735460032016
100
AcDbArc
 50
65.979322918915
 51
124.228495803018
  0
ARC
  5
312
100
AcDbEntity
  8
1
  6
CONTINUOUS
 62
           7
100
AcDbCircle
 10
11073.954276662809
 20
-3040.930578257879
 40
28.660254037846
100
AcDbArc
 50
72.412046225992
 51
107.587953773984
  0
ARC
  5
311
100
AcDbEntity
  8
1
  6
CONTINUOUS
 62
           7
100
AcDbCircle
 10
11060.94286771698
 20
-3020.005755671139
 40
7.735460032013
100
AcDbArc
 50
55.771504196914
 51
114.020677081011
  0
LINE
  5
310
100
AcDbEntity
  8
1
  6
DOT_CENTER
 62
           2
100
AcDbLine
 10
10402.41602054075
 20
-966.342846180925
 11
10402.41602054075
 21
-935.663119214251
  0
LINE
  5
30F
100
AcDbEntity
  8
1
  6
CONTINUOUS
 62
           2
100
AcDbLine
 10
10396.41602054075
 20
-962.44846818044
 11
10396.41602054075
 21
-953.44846818044
  0
LINE
  5
30E
100
AcDbEntity
  8
1
  6
CONTINUOUS
 62
           2
100
AcDbLine
 10
10394.085020540741
 20
-946.798468180439
 11
10393.87720804074
 21
-953.44846818044
  0
LINE
  5
30D
100
AcDbEntity
  8
1
  6
CONTINUOUS
 62
           2
100
AcDbLine
 10
10400.450638927779
 20
-850.878224716636
 11
10402.41602054075
 21
-849.78879589901
  0
LINE
  5
30C
100
AcDbEntity
  8
1
  6
CONTINUOUS
 62
           2
100
AcDbLine
 10
10402.41602054075
 20
-849.78879589901
 11
10400.48985670259
 21
-850.946151895157
  0
LINE
  5
30B
100
AcDbEntity
  8
1
  6
DOT_CENTER
 62
           2
100
AcDbLine
 10
10402.41602054075
 20
-848.118940699305
 11
10402.41602054075
 21
-935.663119214251
  0
LINE
  5
30A
100
AcDbEntity
  8
1
  6
CONTINUOUS
 62
           2
100
AcDbLine
 10
10402.41602054075
 20
-849.78879589901
 11
10402.376802765941
 21
-847.542011085241
  0
LINE
  5
309
100
AcDbEntity
  8
1
  6
CONTINUOUS
 62
           2
100
AcDbLine
 10
10402.45523831555
 20
-847.542011085241
 11
10402.41602054075
 21
-849.78879589901
  0
LINE
  5
308
100
AcDbEntity
  8
1
  6
DOT_CENTER
 62
           2
100
AcDbLine
 10
10402.41602054075
 20
-790.986180790888
 11
10402.41602054075
 21
-845.8718136372
  0
LINE
  5
307
100
AcDbEntity
  8
1
  6
CONTINUOUS
 62
           7
100
AcDbLine
 10
10401.097129528031
 20
-840.512658399743
 11
10381.232408166639
 21
-858.184530440159
  0
LINE
  5
306
100
AcDbEntity
  8
1
  6
CONTINUOUS
 62
           7
100
AcDbLine
 10
10399.05437660461
 20
-838.469905476315
 11
10381.028373654701
 21
-857.980495928219
  0
LINE
  5
305
100
AcDbEntity
  8
1
  6
CONTINUOUS
 62
           7
100
AcDbLine
 10
10382.022039260421
 20
-857.190864834441
 11
10377.88141874284
 21
-861.331485352016
  0
LINE
  5
304
100
AcDbEntity
  8
1
  6
CONTINUOUS
 62
           7
100
AcDbLine
 10
10399.71602054074
 20
-798.162879476989
 11
10399.71602054074
 21
-796.872467806536
  0
LINE
  5
303
100
AcDbEntity
  8
1
  6
CONTINUOUS
 62
           7
100
AcDbLine
 10
10368.883775908211
 20
-859.628556382358
 11
10366.18377590821
 21
-854.952019201922
  0
LINE
  5
302
100
AcDbEntity
  8
1
  6
CONTINUOUS
 62
           7
100
AcDbLine
 10
10368.883775908211
 20
-859.628556382358
 11
10370.01803466859
 21
-858.973691781718
  0
LINE
  5
301
100
AcDbEntity
  8
1
  6
CONTINUOUS
 62
           7
100
AcDbLine
 10
10366.18377590821
 20
-854.952019201922
 11
10367.31182232466
 21
-854.300741299726
  0
LINE
  5
300
100
AcDbEntity
  8
1
  6
DOT_CENTER
 62
           2
100
AcDbLine
 10
10364.67631880217
 20
-858.940041421511
 11
10370.608794627729
 21
-855.514924906656
  0
LINE
  5
2FF
100
AcDbEntity
  8
1
  6
CONTINUOUS
 62
           2
100
AcDbLine
 10
10393.40814921339
 20
-877.151014463606
 11
10395.41602054075
 21
-877.151014463606
  0
LINE
  5
2FE
100
AcDbEntity
  8
1
  6
CONTINUOUS
 62
           2
100
AcDbLine
 10
10393.41602054075
 20
-875.119494054828
 11
10393.41602054075
 21
-877.151014463606
  0
LINE
  5
2FD
100
AcDbEntity
  8
1
  6
CONTINUOUS
 62
           2
100
AcDbLine
 10
10395.41602054075
 20
-877.151014463606
 11
10395.41602054075
 21
-889.151014463606
  0
LINE
  5
2FC
100
AcDbEntity
  8
1
  6
CONTINUOUS
 62
           2
100
AcDbLine
 10
10393.72095804074
 20
-889.151014463606
 11
10393.76602054075
 21
-890.593014463605
  0
LINE
  5
2FB
100
AcDbEntity
  8
1
  6
CONTINUOUS
 62
           2
100
AcDbLine
 10
10393.885845540741
 20
-894.427414463606
 11
10402.41602054075
 21
-894.427414463606
  0
LINE
  5
2FA
100
AcDbEntity
  8
1
  6
CONTINUOUS
 62
           2
100
AcDbLine
 10
10394.825395540751
 20
-897.101014463605
 11
10402.41602054075
 21
-897.101014463605
  0
LINE
  5
2F9
100
AcDbEntity
  8
1
  6
CONTINUOUS
 62
           2
100
AcDbLine
 10
10394.94102054074
 20
-900.801014463605
 11
10394.825395540751
 21
-897.101014463605
  0
LINE
  5
2F8
100
AcDbEntity
  8
1
  6
CONTINUOUS
 62
           2
100
AcDbLine
 10
10394.085020540741
 20
-900.801014463605
 11
10393.885845540741
 21
-894.427414463606
  0
LINE
  5
2F7
100
AcDbEntity
  8
1
  6
CONTINUOUS
 62
           2
100
AcDbLine
 10
10394.825395540751
 20
-897.101014463605
 11
10393.885845540741
 21
-894.427414463606
  0
LINE
  5
2F6
100
AcDbEntity
  8
1
  6
CONTINUOUS
 62
           2
100
AcDbLine
 10
10393.885845540741
 20
-894.427414463606
 11
10393.76602054075
 21
-890.593014463605
  0
LINE
  5
2F5
100
AcDbEntity
  8
1
  6
CONTINUOUS
 62
           2
100
AcDbLine
 10
10402.41602054075
 20
-946.798468180439
 11
10390.91602054075
 21
-946.798468180439
  0
LINE
  5
2F4
100
AcDbEntity
  8
1
  6
CONTINUOUS
 62
           2
100
AcDbLine
 10
10390.91602054075
 20
-923.799741322023
 11
10390.91602054075
 21
-946.798468180439
  0
LINE
  5
2F3
100
AcDbEntity
  8
1
  6
CONTINUOUS
 62
           2
100
AcDbLine
 10
10390.91602054075
 20
-900.801014463605
 11
10390.91602054075
 21
-923.799741322023
  0
LINE
  5
2F2
100
AcDbEntity
  8
1
  6
CONTINUOUS
 62
           2
100
AcDbLine
 10
10390.91602054075
 20
-900.801014463605
 11
10402.41602054075
 21
-900.801014463605
  0
LINE
  5
2F1
100
AcDbEntity
  8
1
  6
DOT_CENTER
 62
           2
100
AcDbLine
 10
10014.25278705619
 20
-1589.20107524036
 11
10014.25278705619
 21
-1861.370544455447
  0
LINE
  5
2F0
100
AcDbEntity
  8
1
  6
DOT_CENTER
 62
           2
100
AcDbLine
 10
9860.835751938488
 20
-1723.799741322022
 11
10144.877020087781
 21
-1723.799741322022
  0
LINE
  5
2EF
100
AcDbEntity
  8
1
  6
CONTINUOUS
 62
           7
100
AcDbLine
 10
13484.84130700515
 20
-956.949741322022
 11
13484.84130700515
 21
-890.649741322021
  0
LINE
  5
2EE
100
AcDbEntity
  8
1
  6
CONTINUOUS
 62
           7
100
AcDbLine
 10
13504.84130700515
 20
-956.949741322022
 11
13484.84130700515
 21
-956.949741322022
  0
LINE
  5
2ED
100
AcDbEntity
  8
1
  6
CONTINUOUS
 62
           7
100
AcDbLine
 10
13504.84130700515
 20
-890.649741322021
 11
13484.84130700515
 21
-890.649741322021
  0
LINE
  5
2EC
100
AcDbEntity
  8
1
  6
CONTINUOUS
 62
           2
100
AcDbLine
 10
13399.49790394495
 20
-849.270340245264
 11
13399.49790394495
 21
-836.579741322023
  0
LINE
  5
2EB
100
AcDbEntity
  8
1
  6
CONTINUOUS
 62
           2
100
AcDbLine
 10
13429.99790394495
 20
-849.270340245264
 11
13429.99790394495
 21
-836.579741322023
  0
LINE
  5
2EA
100
AcDbEntity
  8
1
  6
CONTINUOUS
 62
           2
100
AcDbLine
 10
13384.24790394495
 20
-849.270340245264
 11
13388.24790394495
 21
-851.579741322023
  0
LINE
  5
2E9
100
AcDbEntity
  8
1
  6
CONTINUOUS
 62
           2
100
AcDbLine
 10
13445.24790394495
 20
-849.270340245264
 11
13441.24790394495
 21
-851.579741322023
  0
LINE
  5
2E8
100
AcDbEntity
  8
1
  6
CONTINUOUS
 62
           2
100
AcDbLine
 10
13445.24790394495
 20
-849.270340245264
 11
13445.24790394495
 21
-836.579741322023
  0
LINE
  5
2E7
100
AcDbEntity
  8
1
  6
CONTINUOUS
 62
           2
100
AcDbLine
 10
13388.24790394495
 20
-851.579741322023
 11
13441.24790394495
 21
-851.579741322023
  0
LINE
  5
2E6
100
AcDbEntity
  8
1
  6
CONTINUOUS
 62
           2
100
AcDbLine
 10
13449.74790394495
 20
-825.579741322023
 11
13379.74790394495
 21
-825.579741322023
  0
LINE
  5
2E5
100
AcDbEntity
  8
1
  6
CONTINUOUS
 62
           2
100
AcDbLine
 10
13446.74790394495
 20
-836.579741322023
 11
13382.74790394495
 21
-836.579741322023
  0
LINE
  5
2E4
100
AcDbEntity
  8
1
  6
CONTINUOUS
 62
           2
100
AcDbLine
 10
13384.24790394495
 20
-836.579741322023
 11
13384.24790394495
 21
-849.270340245264
  0
LINE
  5
2E3
100
AcDbEntity
  8
1
  6
CONTINUOUS
 62
           2
100
AcDbLine
 10
13445.24790394495
 20
-836.579741322023
 11
13384.24790394495
 21
-836.579741322023
  0
LINE
  5
2E2
100
AcDbEntity
  8
1
  6
CONTINUOUS
 62
           2
100
AcDbLine
 10
13449.74790394495
 20
-825.579741322023
 11
13379.74790394495
 21
-825.579741322023
  0
LINE
  5
2E1
100
AcDbEntity
  8
1
  6
CONTINUOUS
 62
           2
100
AcDbLine
 10
13435.74790394495
 20
-851.579741322023
 11
13393.74790394495
 21
-851.579741322023
  0
LINE
  5
2E0
100
AcDbEntity
  8
1
  6
CONTINUOUS
 62
           2
100
AcDbLine
 10
13441.24790394495
 20
-762.079741322023
 11
13449.74790394495
 21
-762.079741322023
  0
LINE
  5
2DF
100
AcDbEntity
  8
1
  6
CONTINUOUS
 62
           2
100
AcDbLine
 10
13454.74790394495
 20
-767.079741322023
 11
13454.74790394495
 21
-820.579741322023
  0
LINE
  5
2DE
100
AcDbEntity
  8
1
  6
CONTINUOUS
 62
           2
100
AcDbLine
 10
13379.74790394495
 20
-825.579741322023
 11
13449.74790394495
 21
-825.579741322023
  0
LINE
  5
2DD
100
AcDbEntity
  8
1
  6
CONTINUOUS
 62
           2
100
AcDbLine
 10
13374.74790394495
 20
-767.079741322023
 11
13374.74790394495
 21
-820.579741322023
  0
LINE
  5
2DC
100
AcDbEntity
  8
1
  6
CONTINUOUS
 62
           2
100
AcDbLine
 10
13388.24790394495
 20
-762.079741322023
 11
13379.74790394495
 21
-762.079741322023
  0
LINE
  5
2DB
100
AcDbEntity
  8
1
  6
CONTINUOUS
 62
           2
100
AcDbLine
 10
13392.74790394495
 20
-752.079741322023
 11
13388.24790394495
 21
-754.677817533377
  0
LINE
  5
2DA
100
AcDbEntity
  8
1
  6
CONTINUOUS
 62
           2
100
AcDbLine
 10
13436.74790394495
 20
-752.079741322023
 11
13392.74790394495
 21
-752.079741322023
  0
LINE
  5
2D9
100
AcDbEntity
  8
1
  6
CONTINUOUS
 62
           2
100
AcDbLine
 10
13436.74790394495
 20
-752.079741322023
 11
13441.24790394495
 21
-754.677817533377
  0
LINE
  5
2D8
100
AcDbEntity
  8
1
  6
CONTINUOUS
 62
           2
100
AcDbLine
 10
13436.74790394495
 20
-708.079069983439
 11
13434.74790394495
 21
-708.079069983439
  0
LINE
  5
2D7
100
AcDbEntity
  8
1
  6
CONTINUOUS
 62
           2
100
AcDbLine
 10
13434.74790394495
 20
-708.079069983439
 11
13394.74790394495
 21
-708.079069983439
  0
LINE
  5
2D6
100
AcDbEntity
  8
1
  6
CONTINUOUS
 62
           2
100
AcDbLine
 10
13392.74790394495
 20
-708.079069983439
 11
13394.74790394495
 21
-708.079069983439
  0
LINE
  5
2D5
100
AcDbEntity
  8
1
  6
CONTINUOUS
 62
           2
100
AcDbLine
 10
13437.74790394495
 20
-708.079069983439
 11
13436.74790394495
 21
-708.079069983439
  0
LINE
  5
2D4
100
AcDbEntity
  8
1
  6
CONTINUOUS
 62
           2
100
AcDbLine
 10
13391.74790394495
 20
-708.079069983439
 11
13392.74790394495
 21
-708.079069983439
  0
LINE
  5
2D3
100
AcDbEntity
  8
1
  6
CONTINUOUS
 62
           2
100
AcDbLine
 10
13439.74790394495
 20
-753.811792129593
 11
13439.74790394495
 21
-710.079069983439
  0
LINE
  5
2D2
100
AcDbEntity
  8
1
  6
CONTINUOUS
 62
           2
100
AcDbLine
 10
13389.74790394495
 20
-753.811792129593
 11
13389.74790394495
 21
-710.079069983439
  0
LINE
  5
2D1
100
AcDbEntity
  8
1
  6
CONTINUOUS
 62
           2
100
AcDbLine
 10
13401.49790394495
 20
-754.677817533377
 11
13401.49790394495
 21
-762.079741322023
  0
LINE
  5
2D0
100
AcDbEntity
  8
1
  6
CONTINUOUS
 62
           2
100
AcDbLine
 10
13427.99790394495
 20
-754.677817533377
 11
13427.99790394495
 21
-762.079741322023
  0
LINE
  5
2CF
100
AcDbEntity
  8
1
  6
CONTINUOUS
 62
           2
100
AcDbLine
 10
13388.24790394495
 20
-762.079741322023
 11
13388.24790394495
 21
-754.677817533377
  0
LINE
  5
2CE
100
AcDbEntity
  8
1
  6
CONTINUOUS
 62
           2
100
AcDbLine
 10
13441.24790394495
 20
-762.079741322023
 11
13388.24790394495
 21
-762.079741322023
  0
LINE
  5
2CD
100
AcDbEntity
  8
1
  6
CONTINUOUS
 62
           2
100
AcDbLine
 10
13441.24790394495
 20
-754.677817533377
 11
13441.24790394495
 21
-762.079741322023
  0
LINE
  5
2CC
100
AcDbEntity
  8
1
  6
CONTINUOUS
 62
           2
100
AcDbLine
 10
13394.74790394495
 20
-704.079069983439
 11
13394.74790394495
 21
-706.079069983439
  0
LINE
  5
2CB
100
AcDbEntity
  8
1
  6
CONTINUOUS
 62
           2
100
AcDbLine
 10
13395.74790394495
 20
-703.079069983439
 11
13433.74790394495
 21
-703.079069983439
  0
LINE
  5
2CA
100
AcDbEntity
  8
1
  6
CONTINUOUS
 62
           2
100
AcDbLine
 10
13434.74790394495
 20
-704.079069983439
 11
13434.74790394495
 21
-706.079069983439
  0
LINE
  5
2C9
100
AcDbEntity
  8
1
  6
CONTINUOUS
 62
           2
100
AcDbLine
 10
13405.49790394495
 20
-696.811120791007
 11
13405.49790394495
 21
-703.079069983439
  0
LINE
  5
2C8
100
AcDbEntity
  8
1
  6
CONTINUOUS
 62
           2
100
AcDbLine
 10
13423.99790394495
 20
-696.811120791007
 11
13423.99790394495
 21
-703.079069983439
  0
LINE
  5
2C7
100
AcDbEntity
  8
1
  6
CONTINUOUS
 62
           2
100
AcDbLine
 10
13399.74790394495
 20
-686.579069983439
 11
13399.74790394495
 21
-695.079069983439
  0
LINE
  5
2C6
100
AcDbEntity
  8
1
  6
CONTINUOUS
 62
           2
100
AcDbLine
 10
13429.74790394495
 20
-686.579069983439
 11
13429.74790394495
 21
-695.089368858089
  0
LINE
  5
2C5
100
AcDbEntity
  8
1
  6
CONTINUOUS
 62
           2
100
AcDbLine
 10
13399.24790394495
 20
-695.079069983439
 11
13430.24790394495
 21
-695.079069983439
  0
LINE
  5
2C4
100
AcDbEntity
  8
1
  6
CONTINUOUS
 62
           2
100
AcDbLine
 10
13396.24790394495
 20
-696.811120791007
 11
13399.24790394495
 21
-695.079069983439
  0
LINE
  5
2C3
100
AcDbEntity
  8
1
  6
CONTINUOUS
 62
           2
100
AcDbLine
 10
13396.24790394495
 20
-703.079069983439
 11
13396.24790394495
 21
-696.811120791007
  0
LINE
  5
2C2
100
AcDbEntity
  8
1
  6
CONTINUOUS
 62
           2
100
AcDbLine
 10
13433.24790394495
 20
-703.079069983439
 11
13396.24790394495
 21
-703.079069983439
  0
LINE
  5
2C1
100
AcDbEntity
  8
1
  6
CONTINUOUS
 62
           2
100
AcDbLine
 10
13433.24790394495
 20
-696.811120791007
 11
13433.24790394495
 21
-703.079069983439
  0
LINE
  5
2C0
100
AcDbEntity
  8
1
  6
CONTINUOUS
 62
           2
100
AcDbLine
 10
13430.24790394495
 20
-695.079069983439
 11
13433.24790394495
 21
-696.811120791007
  0
LINE
  5
2BF
100
AcDbEntity
  8
1
  6
DOT_CENTER
 62
           2
100
AcDbLine
 10
13414.605989509941
 20
-964.662260994644
 11
13414.605989509941
 21
-648.897263123031
  0
LINE
  5
2BE
100
AcDbEntity
  8
1
  6
CONTINUOUS
 62
           2
100
AcDbLine
 10
13473.72130700514
 20
-893.549741322023
 11
13473.72130700514
 21
-954.049741322023
  0
LINE
  5
2BD
100
AcDbEntity
  8
1
  6
CONTINUOUS
 62
           2
100
AcDbLine
 10
13469.72130700514
 20
-954.049741322023
 11
13469.72130700514
 21
-893.549741322023
  0
LINE
  5
2BC
100
AcDbEntity
  8
1
  6
CONTINUOUS
 62
           2
100
AcDbLine
 10
13469.72130700514
 20
-954.049741322023
 11
13473.72130700514
 21
-954.049741322023
  0
LINE
  5
2BB
100
AcDbEntity
  8
1
  6
CONTINUOUS
 62
           2
100
AcDbLine
 10
13473.72130700514
 20
-893.549741322023
 11
13469.72130700514
 21
-893.549741322023
  0
LINE
  5
2BA
100
AcDbEntity
  8
1
  6
CONTINUOUS
 62
           7
100
AcDbLine
 10
13473.72130700514
 20
-954.049741322023
 11
13484.84130700515
 21
-953.606741322023
  0
LINE
  5
2B9
100
AcDbEntity
  8
1
  6
CONTINUOUS
 62
           7
100
AcDbLine
 10
13473.72130700514
 20
-893.549741322023
 11
13484.84130700515
 21
-893.992741322023
  0
LINE
  5
2B8
100
AcDbEntity
  8
1
  6
CONTINUOUS
 62
           2
100
AcDbLine
 10
13469.72130700514
 20
-954.049741322023
 11
13458.60130700515
 21
-953.606741322023
  0
LINE
  5
2B7
100
AcDbEntity
  8
1
  6
CONTINUOUS
 62
           2
100
AcDbLine
 10
13458.60130700515
 20
-893.992741322023
 11
13469.72130700514
 21
-893.549741322023
  0
LINE
  5
2B6
100
AcDbEntity
  8
1
  6
CONTINUOUS
 62
           2
100
AcDbLine
 10
13414.605989509941
 20
-872.799741322023
 11
13436.618907232019
 21
-872.799741322023
  0
LINE
  5
2B5
100
AcDbEntity
  8
1
  6
CONTINUOUS
 62
           2
100
AcDbLine
 10
13394.105989509941
 20
-881.964822504287
 11
13394.105989509941
 21
-913.301285854595
  0
LINE
  5
2B4
100
AcDbEntity
  8
1
  6
CONTINUOUS
 62
           2
100
AcDbLine
 10
13435.105989509941
 20
-881.964822504287
 11
13435.105989509941
 21
-883.29819678945
  0
LINE
  5
2B3
100
AcDbEntity
  8
1
  6
CONTINUOUS
 62
           2
100
AcDbLine
 10
13392.593071787869
 20
-872.799741322023
 11
13414.605989509941
 21
-872.799741322023
  0
LINE
  5
2B2
100
AcDbEntity
  8
1
  6
CONTINUOUS
 62
           2
100
AcDbLine
 10
13392.593071787869
 20
-872.799741322023
 11
13392.593071787869
 21
-877.799741322023
  0
LINE
  5
2B1
100
AcDbEntity
  8
1
  6
CONTINUOUS
 62
           2
100
AcDbLine
 10
13436.618907232019
 20
-872.799741322023
 11
13436.618907232019
 21
-877.799741322023
  0
LINE
  5
2B0
100
AcDbEntity
  8
1
  6
CONTINUOUS
 62
           2
100
AcDbLine
 10
13392.593071787869
 20
-877.799741322023
 11
13436.618907232019
 21
-877.799741322023
  0
LINE
  5
2AF
100
AcDbEntity
  8
1
  6
DOT_CENTER
 62
           2
100
AcDbLine
 10
13414.605989509941
 20
-965.240416412445
 11
13414.605989509941
 21
-863.392431293083
  0
LINE
  5
2AE
100
AcDbEntity
  8
1
  6
CONTINUOUS
 62
           2
100
AcDbLine
 10
13448.216483470411
 20
-958.301285854594
 11
13439.105989509941
 21
-958.301285854594
  0
LINE
  5
2AD
100
AcDbEntity
  8
1
  6
CONTINUOUS
 62
           2
100
AcDbLine
 10
13458.60130700515
 20
-959.801285854594
 11
13458.60130700515
 21
-923.799741322023
  0
LINE
  5
2AC
100
AcDbEntity
  8
1
  6
CONTINUOUS
 62
           2
100
AcDbLine
 10
13453.60130700515
 20
-959.801285854594
 11
13458.60130700515
 21
-959.801285854594
  0
LINE
  5
2AB
100
AcDbEntity
  8
1
  6
CONTINUOUS
 62
           2
100
AcDbLine
 10
13453.60130700515
 20
-887.79819678945
 11
13458.60130700515
 21
-887.79819678945
  0
LINE
  5
2AA
100
AcDbEntity
  8
1
  6
CONTINUOUS
 62
           2
100
AcDbLine
 10
13453.60130700515
 20
-958.301285854594
 11
13453.60130700515
 21
-889.29819678945
  0
LINE
  5
2A9
100
AcDbEntity
  8
1
  6
CONTINUOUS
 62
           2
100
AcDbLine
 10
13453.60130700515
 20
-889.29819678945
 11
13453.60130700515
 21
-887.79819678945
  0
LINE
  5
2A8
100
AcDbEntity
  8
1
  6
CONTINUOUS
 62
           2
100
AcDbLine
 10
13453.60130700515
 20
-958.301285854594
 11
13453.60130700515
 21
-959.801285854594
  0
LINE
  5
2A7
100
AcDbEntity
  8
1
  6
CONTINUOUS
 62
           2
100
AcDbLine
 10
13458.60130700515
 20
-923.799741322023
 11
13458.60130700515
 21
-887.79819678945
  0
LINE
  5
2A6
100
AcDbEntity
  8
1
  6
CONTINUOUS
 62
           2
100
AcDbLine
 10
13448.216483470411
 20
-889.29819678945
 11
13441.105989509941
 21
-889.29819678945
  0
LINE
  5
2A5
100
AcDbEntity
  8
1
  6
CONTINUOUS
 62
           2
100
AcDbLine
 10
13397.605989509941
 20
-860.339741322022
 11
13431.605989509941
 21
-860.339741322022
  0
LINE
  5
2A4
100
AcDbEntity
  8
1
  6
CONTINUOUS
 62
           2
100
AcDbLine
 10
13431.605989509941
 20
-864.039741322023
 11
13397.605989509941
 21
-864.039741322023
  0
LINE
  5
2A3
100
AcDbEntity
  8
1
  6
CONTINUOUS
 62
           2
100
AcDbLine
 10
13397.605989509941
 20
-860.339741322022
 11
13397.605989509941
 21
-864.039741322023
  0
LINE
  5
2A2
100
AcDbEntity
  8
1
  6
CONTINUOUS
 62
           2
100
AcDbLine
 10
13431.605989509941
 20
-864.039741322023
 11
13431.605989509941
 21
-860.339741322022
  0
LINE
  5
2A1
100
AcDbEntity
  8
1
  6
CONTINUOUS
 62
           2
100
AcDbLine
 10
13397.605989509941
 20
-860.339741322022
 11
13397.981489509941
 21
-851.579741322023
  0
LINE
  5
2A0
100
AcDbEntity
  8
1
  6
CONTINUOUS
 62
           2
100
AcDbLine
 10
13397.605989509941
 20
-864.039741322023
 11
13397.981489509941
 21
-872.799741322023
  0
LINE
  5
29F
100
AcDbEntity
  8
1
  6
CONTINUOUS
 62
           2
100
AcDbLine
 10
13431.230489509941
 20
-872.799741322023
 11
13431.605989509941
 21
-864.039741322023
  0
LINE
  5
29E
100
AcDbEntity
  8
1
  6
CONTINUOUS
 62
           2
100
AcDbLine
 10
13431.230489509941
 20
-851.579741322023
 11
13431.605989509941
 21
-860.339741322022
  0
LINE
  5
29D
100
AcDbEntity
  8
1
  6
DOT_CENTER
 62
           2
100
AcDbLine
 10
13365.327282673919
 20
-796.579741322023
 11
13466.02315689217
 21
-796.579741322023
  0
LINE
  5
29C
100
AcDbEntity
  8
1
  6
CONTINUOUS
 62
           2
100
AcDbLine
 10
13449.74790394495
 20
-825.579741322023
 11
13449.74790394495
 21
-833.579741322023
  0
LINE
  5
29B
100
AcDbEntity
  8
1
  6
CONTINUOUS
 62
           2
100
AcDbLine
 10
13379.74790394495
 20
-825.579741322023
 11
13379.74790394495
 21
-833.579741322023
  0
LINE
  5
29A
100
AcDbEntity
  8
1
  6
CONTINUOUS
 62
           2
100
AcDbLine
 10
13437.74790394495
 20
-709.079069983439
 11
13437.74790394495
 21
-751.502391052833
  0
LINE
  5
299
100
AcDbEntity
  8
1
  6
CONTINUOUS
 62
           2
100
AcDbLine
 10
13435.74790394495
 20
-709.079069983439
 11
13435.74790394495
 21
-751.079741322023
  0
LINE
  5
298
100
AcDbEntity
  8
1
  6
CONTINUOUS
 62
           2
100
AcDbLine
 10
13423.081237278289
 20
-709.079069983439
 11
13423.081237278289
 21
-751.079741322023
  0
LINE
  5
297
100
AcDbEntity
  8
1
  6
CONTINUOUS
 62
           2
100
AcDbLine
 10
13421.081237278289
 20
-709.079069983439
 11
13421.081237278289
 21
-751.079741322023
  0
LINE
  5
296
100
AcDbEntity
  8
1
  6
CONTINUOUS
 62
           2
100
AcDbLine
 10
13408.41457061162
 20
-709.079069983439
 11
13408.41457061162
 21
-751.079741322023
  0
LINE
  5
295
100
AcDbEntity
  8
1
  6
CONTINUOUS
 62
           2
100
AcDbLine
 10
13406.41457061162
 20
-709.079069983439
 11
13406.41457061162
 21
-751.079741322023
  0
LINE
  5
294
100
AcDbEntity
  8
1
  6
CONTINUOUS
 62
           2
100
AcDbLine
 10
13393.74790394495
 20
-709.079069983439
 11
13393.74790394495
 21
-751.079741322023
  0
LINE
  5
293
100
AcDbEntity
  8
1
  6
CONTINUOUS
 62
           2
100
AcDbLine
 10
13391.74790394495
 20
-709.079069983439
 11
13391.74790394495
 21
-751.502391052833
  0
LINE
  5
292
100
AcDbEntity
  8
1
  6
DOT_CENTER
 62
           2
100
AcDbLine
 10
11192.096009388
 20
-796.579741322022
 11
11250.844400125179
 21
-796.579741322022
  0
LINE
  5
291
100
AcDbEntity
  8
1
  6
CONTINUOUS
 62
           2
100
AcDbLine
 10
11189.45427666282
 20
-695.079741322022
 11
11192.45427666282
 21
-696.811792129592
  0
LINE
  5
290
100
AcDbEntity
  8
1
  6
CONTINUOUS
 62
           2
100
AcDbLine
 10
11192.45427666282
 20
-696.811792129592
 11
11192.45427666282
 21
-703.079741322022
  0
LINE
  5
28F
100
AcDbEntity
  8
1
  6
CONTINUOUS
 62
           2
100
AcDbLine
 10
11192.45427666282
 20
-703.079741322022
 11
11155.45427666282
 21
-703.079741322022
  0
LINE
  5
28E
100
AcDbEntity
  8
1
  6
CONTINUOUS
 62
           2
100
AcDbLine
 10
11155.45427666282
 20
-703.079741322022
 11
11155.45427666282
 21
-696.811792129592
  0
LINE
  5
28D
100
AcDbEntity
  8
1
  6
CONTINUOUS
 62
           2
100
AcDbLine
 10
11155.45427666282
 20
-696.811792129592
 11
11158.45427666282
 21
-695.079741322022
  0
LINE
  5
28C
100
AcDbEntity
  8
1
  6
CONTINUOUS
 62
           2
100
AcDbLine
 10
11158.45427666282
 20
-695.079741322022
 11
11189.45427666282
 21
-695.079741322022
  0
LINE
  5
28B
100
AcDbEntity
  8
1
  6
CONTINUOUS
 62
           2
100
AcDbLine
 10
11188.95427666282
 20
-686.579741322022
 11
11188.95427666282
 21
-695.090040196673
  0
LINE
  5
28A
100
AcDbEntity
  8
1
  6
CONTINUOUS
 62
           2
100
AcDbLine
 10
11158.95427666282
 20
-686.579741322022
 11
11158.95427666282
 21
-695.079741322022
  0
LINE
  5
289
100
AcDbEntity
  8
1
  6
CONTINUOUS
 62
           2
100
AcDbLine
 10
11183.20427666282
 20
-696.811792129592
 11
11183.20427666282
 21
-703.079741322022
  0
LINE
  5
288
100
AcDbEntity
  8
1
  6
CONTINUOUS
 62
           2
100
AcDbLine
 10
11164.70427666282
 20
-696.811792129592
 11
11164.70427666282
 21
-703.079741322022
  0
LINE
  5
287
100
AcDbEntity
  8
1
  6
CONTINUOUS
 62
           2
100
AcDbLine
 10
11193.95427666282
 20
-704.079741322022
 11
11193.95427666282
 21
-706.079741322022
  0
LINE
  5
286
100
AcDbEntity
  8
1
  6
CONTINUOUS
 62
           2
100
AcDbLine
 10
11154.95427666282
 20
-703.079741322022
 11
11192.95427666282
 21
-703.079741322022
  0
LINE
  5
285
100
AcDbEntity
  8
1
  6
CONTINUOUS
 62
           2
100
AcDbLine
 10
11153.95427666282
 20
-704.079741322022
 11
11153.95427666282
 21
-706.079741322022
  0
LINE
  5
284
100
AcDbEntity
  8
1
  6
CONTINUOUS
 62
           2
100
AcDbLine
 10
11200.45427666282
 20
-754.677817533377
 11
11200.45427666282
 21
-762.079741322022
  0
LINE
  5
283
100
AcDbEntity
  8
1
  6
CONTINUOUS
 62
           2
100
AcDbLine
 10
11200.45427666282
 20
-762.079741322022
 11
11147.45427666282
 21
-762.079741322022
  0
LINE
  5
282
100
AcDbEntity
  8
1
  6
CONTINUOUS
 62
           2
100
AcDbLine
 10
11147.45427666282
 20
-762.079741322022
 11
11147.45427666282
 21
-754.677817533377
  0
LINE
  5
281
100
AcDbEntity
  8
1
  6
CONTINUOUS
 62
           2
100
AcDbLine
 10
11187.20427666282
 20
-754.677817533377
 11
11187.20427666282
 21
-762.079741322022
  0
LINE
  5
280
100
AcDbEntity
  8
1
  6
CONTINUOUS
 62
           2
100
AcDbLine
 10
11160.70427666282
 20
-754.677817533377
 11
11160.70427666282
 21
-762.079741322022
  0
LINE
  5
27F
100
AcDbEntity
  8
1
  6
CONTINUOUS
 62
           2
100
AcDbLine
 10
11148.95427666282
 20
-753.811792129592
 11
11148.95427666282
 21
-710.079741322022
  0
LINE
  5
27E
100
AcDbEntity
  8
1
  6
CONTINUOUS
 62
           2
100
AcDbLine
 10
11198.95427666282
 20
-753.811792129592
 11
11198.95427666282
 21
-710.079741322022
  0
LINE
  5
27D
100
AcDbEntity
  8
1
  6
CONTINUOUS
 62
           2
100
AcDbLine
 10
11150.95427666282
 20
-708.079741322022
 11
11151.95427666282
 21
-708.079741322022
  0
LINE
  5
27C
100
AcDbEntity
  8
1
  6
CONTINUOUS
 62
           2
100
AcDbLine
 10
11196.95427666282
 20
-708.079741322022
 11
11195.95427666282
 21
-708.079741322022
  0
LINE
  5
27B
100
AcDbEntity
  8
1
  6
CONTINUOUS
 62
           2
100
AcDbLine
 10
11151.95427666282
 20
-708.079741322022
 11
11153.95427666282
 21
-708.079741322022
  0
LINE
  5
27A
100
AcDbEntity
  8
1
  6
CONTINUOUS
 62
           2
100
AcDbLine
 10
11193.95427666282
 20
-708.079741322022
 11
11153.95427666282
 21
-708.079741322022
  0
LINE
  5
279
100
AcDbEntity
  8
1
  6
CONTINUOUS
 62
           2
100
AcDbLine
 10
11195.95427666282
 20
-708.079741322022
 11
11193.95427666282
 21
-708.079741322022
  0
LINE
  5
278
100
AcDbEntity
  8
1
  6
CONTINUOUS
 62
           2
100
AcDbLine
 10
11195.95427666282
 20
-752.079741322022
 11
11200.45427666282
 21
-754.677817533377
  0
LINE
  5
277
100
AcDbEntity
  8
1
  6
CONTINUOUS
 62
           2
100
AcDbLine
 10
11195.95427666282
 20
-752.079741322022
 11
11151.95427666282
 21
-752.079741322022
  0
LINE
  5
276
100
AcDbEntity
  8
1
  6
CONTINUOUS
 62
           2
100
AcDbLine
 10
11151.95427666282
 20
-752.079741322022
 11
11147.45427666282
 21
-754.677817533377
  0
LINE
  5
275
100
AcDbEntity
  8
1
  6
CONTINUOUS
 62
           2
100
AcDbLine
 10
11147.45427666282
 20
-762.079741322022
 11
11138.95427666282
 21
-762.079741322022
  0
LINE
  5
274
100
AcDbEntity
  8
1
  6
CONTINUOUS
 62
           2
100
AcDbLine
 10
11133.95427666282
 20
-767.079741322022
 11
11133.95427666282
 21
-820.579741322022
  0
LINE
  5
273
100
AcDbEntity
  8
1
  6
CONTINUOUS
 62
           2
100
AcDbLine
 10
11213.95427666282
 20
-825.579741322022
 11
11138.95427666282
 21
-825.579741322022
  0
LINE
  5
272
100
AcDbEntity
  8
1
  6
CONTINUOUS
 62
           2
100
AcDbLine
 10
11213.95427666282
 20
-825.579741322022
 11
11213.95427666282
 21
-825.079741322022
  0
LINE
  5
271
100
AcDbEntity
  8
1
  6
CONTINUOUS
 62
           2
100
AcDbLine
 10
11214.95427666282
 20
-824.079741322022
 11
11219.95427666282
 21
-824.079741322022
  0
LINE
  5
270
100
AcDbEntity
  8
1
  6
CONTINUOUS
 62
           2
100
AcDbLine
 10
11220.95427666282
 20
-825.579741322022
 11
11220.95427666282
 21
-825.079741322022
  0
LINE
  5
26F
100
AcDbEntity
  8
1
  6
CONTINUOUS
 62
           2
100
AcDbLine
 10
11220.95427666282
 20
-825.579741322022
 11
11225.95427666282
 21
-825.579741322022
  0
LINE
  5
26E
100
AcDbEntity
  8
1
  6
CONTINUOUS
 62
           2
100
AcDbLine
 10
11225.95427666282
 20
-825.579741322022
 11
11225.95427666282
 21
-767.579741322022
  0
LINE
  5
26D
100
AcDbEntity
  8
1
  6
CONTINUOUS
 62
           2
100
AcDbLine
 10
11225.95427666282
 20
-767.579741322022
 11
11220.95427666282
 21
-767.579741322022
  0
LINE
  5
26C
100
AcDbEntity
  8
1
  6
CONTINUOUS
 62
           2
100
AcDbLine
 10
11220.95427666282
 20
-767.579741322022
 11
11220.95427666282
 21
-768.079741322022
  0
LINE
  5
26B
100
AcDbEntity
  8
1
  6
CONTINUOUS
 62
           2
100
AcDbLine
 10
11214.95427666282
 20
-769.079741322022
 11
11219.95427666282
 21
-769.079741322022
  0
LINE
  5
26A
100
AcDbEntity
  8
1
  6
CONTINUOUS
 62
           2
100
AcDbLine
 10
11213.95427666282
 20
-767.079741322022
 11
11213.95427666282
 21
-768.079741322022
  0
LINE
  5
269
100
AcDbEntity
  8
1
  6
CONTINUOUS
 62
           2
100
AcDbLine
 10
11200.45427666282
 20
-762.079741322022
 11
11208.95427666282
 21
-762.079741322022
  0
LINE
  5
268
100
AcDbEntity
  8
1
  6
CONTINUOUS
 62
           2
100
AcDbLine
 10
11194.95427666282
 20
-851.579741322022
 11
11152.95427666282
 21
-851.579741322022
  0
LINE
  5
267
100
AcDbEntity
  8
1
  6
CONTINUOUS
 62
           2
100
AcDbLine
 10
11208.95427666282
 20
-825.579741322022
 11
11138.95427666282
 21
-825.579741322022
  0
LINE
  5
266
100
AcDbEntity
  8
1
  6
CONTINUOUS
 62
           2
100
AcDbLine
 10
11204.45427666282
 20
-836.579741322022
 11
11143.45427666282
 21
-836.579741322022
  0
LINE
  5
265
100
AcDbEntity
  8
1
  6
CONTINUOUS
 62
           2
100
AcDbLine
 10
11143.45427666282
 20
-836.579741322022
 11
11143.45427666282
 21
-849.270340245263
  0
LINE
  5
264
100
AcDbEntity
  8
1
  6
CONTINUOUS
 62
           2
100
AcDbLine
 10
11205.95427666282
 20
-836.579741322022
 11
11141.95427666282
 21
-836.579741322022
  0
LINE
  5
263
100
AcDbEntity
  8
1
  6
CONTINUOUS
 62
           2
100
AcDbLine
 10
11208.95427666282
 20
-825.579741322022
 11
11138.95427666282
 21
-825.579741322022
  0
LINE
  5
262
100
AcDbEntity
  8
1
  6
CONTINUOUS
 62
           2
100
AcDbLine
 10
11147.45427666282
 20
-851.579741322022
 11
11200.45427666282
 21
-851.579741322022
  0
LINE
  5
261
100
AcDbEntity
  8
1
  6
CONTINUOUS
 62
           2
100
AcDbLine
 10
11204.45427666282
 20
-849.270340245263
 11
11204.45427666282
 21
-836.579741322022
  0
LINE
  5
260
100
AcDbEntity
  8
1
  6
CONTINUOUS
 62
           2
100
AcDbLine
 10
11204.45427666282
 20
-849.270340245263
 11
11200.45427666282
 21
-851.579741322022
  0
LINE
  5
25F
100
AcDbEntity
  8
1
  6
CONTINUOUS
 62
           2
100
AcDbLine
 10
11143.45427666282
 20
-849.270340245263
 11
11147.45427666282
 21
-851.579741322022
  0
LINE
  5
25E
100
AcDbEntity
  8
1
  6
CONTINUOUS
 62
           2
100
AcDbLine
 10
11189.20427666282
 20
-849.270340245263
 11
11189.20427666282
 21
-836.579741322022
  0
LINE
  5
25D
100
AcDbEntity
  8
1
  6
CONTINUOUS
 62
           2
100
AcDbLine
 10
11158.70427666282
 20
-849.270340245263
 11
11158.70427666282
 21
-836.579741322022
  0
LINE
  5
25C
100
AcDbEntity
  8
1
  6
CONTINUOUS
 62
           2
100
AcDbLine
 10
11220.95427666282
 20
-768.220986329993
 11
11220.95427666282
 21
-825.579741322022
  0
LINE
  5
25B
100
AcDbEntity
  8
1
  6
CONTINUOUS
 62
           2
100
AcDbLine
 10
11190.578776662809
 20
-851.579741322022
 11
11190.95427666282
 21
-860.339741322022
  0
LINE
  5
25A
100
AcDbEntity
  8
1
  6
CONTINUOUS
 62
           2
100
AcDbLine
 10
11190.578776662809
 20
-872.799741322023
 11
11190.95427666282
 21
-864.039741322023
  0
LINE
  5
259
100
AcDbEntity
  8
1
  6
CONTINUOUS
 62
           2
100
AcDbLine
 10
11156.95427666282
 20
-864.039741322023
 11
11157.329776662809
 21
-872.799741322023
  0
LINE
  5
258
100
AcDbEntity
  8
1
  6
CONTINUOUS
 62
           2
100
AcDbLine
 10
11156.95427666282
 20
-860.339741322022
 11
11157.329776662809
 21
-851.579741322022
  0
LINE
  5
257
100
AcDbEntity
  8
1
  6
CONTINUOUS
 62
           2
100
AcDbLine
 10
11190.95427666282
 20
-864.039741322023
 11
11190.95427666282
 21
-860.339741322022
  0
LINE
  5
256
100
AcDbEntity
  8
1
  6
CONTINUOUS
 62
           2
100
AcDbLine
 10
11156.95427666282
 20
-860.339741322022
 11
11156.95427666282
 21
-864.039741322023
  0
LINE
  5
255
100
AcDbEntity
  8
1
  6
CONTINUOUS
 62
           2
100
AcDbLine
 10
11190.95427666282
 20
-864.039741322023
 11
11156.95427666282
 21
-864.039741322023
  0
LINE
  5
254
100
AcDbEntity
  8
1
  6
CONTINUOUS
 62
           2
100
AcDbLine
 10
11156.95427666282
 20
-860.339741322022
 11
11190.95427666282
 21
-860.339741322022
  0
LINE
  5
253
100
AcDbEntity
  8
1
  6
CONTINUOUS
 62
           2
100
AcDbLine
 10
11151.94135894074
 20
-877.799741322023
 11
11195.96719438489
 21
-877.799741322023
  0
LINE
  5
252
100
AcDbEntity
  8
1
  6
CONTINUOUS
 62
           2
100
AcDbLine
 10
11195.96719438489
 20
-872.799741322023
 11
11195.96719438489
 21
-877.799741322023
  0
LINE
  5
251
100
AcDbEntity
  8
1
  6
CONTINUOUS
 62
           2
100
AcDbLine
 10
11151.94135894074
 20
-872.799741322023
 11
11151.94135894074
 21
-877.799741322023
  0
LINE
  5
250
100
AcDbEntity
  8
1
  6
CONTINUOUS
 62
           2
100
AcDbLine
 10
11151.94135894074
 20
-872.799741322023
 11
11173.95427666282
 21
-872.799741322023
  0
LINE
  5
24F
100
AcDbEntity
  8
1
  6
CONTINUOUS
 62
           2
100
AcDbLine
 10
11173.95427666282
 20
-872.799741322023
 11
11195.96719438489
 21
-872.799741322023
  0
LINE
  5
24E
100
AcDbEntity
  8
1
  6
CONTINUOUS
 62
           2
100
AcDbLine
 10
11195.09619109782
 20
-851.579741322022
 11
11153.09619109782
 21
-851.579741322022
  0
LINE
  5
24D
100
AcDbEntity
  8
1
  6
CONTINUOUS
 62
           2
100
AcDbLine
 10
11147.59619109782
 20
-851.579741322022
 11
11200.59619109782
 21
-851.579741322022
  0
LINE
  5
24C
100
AcDbEntity
  8
1
  6
CONTINUOUS
 62
           2
100
AcDbLine
 10
11204.59619109782
 20
-849.270340245263
 11
11200.59619109782
 21
-851.579741322022
  0
LINE
  5
24B
100
AcDbEntity
  8
1
  6
CONTINUOUS
 62
           2
100
AcDbLine
 10
11143.59619109782
 20
-849.270340245263
 11
11147.59619109782
 21
-851.579741322022
  0
LINE
  5
24A
100
AcDbEntity
  8
1
  6
CONTINUOUS
 62
           2
100
AcDbLine
 10
11153.45427666282
 20
-881.964822504286
 11
11153.45427666282
 21
-883.672453261562
  0
LINE
  5
249
100
AcDbEntity
  8
1
  6
CONTINUOUS
 62
           2
100
AcDbLine
 10
11194.45427666282
 20
-881.964822504286
 11
11194.45427666282
 21
-883.298196789451
  0
LINE
  5
248
100
AcDbEntity
  8
1
  6
CONTINUOUS
 62
           2
100
AcDbLine
 10
11194.45427666282
 20
-883.672453261562
 11
11194.45427666282
 21
-881.964822504286
  0
LINE
  5
247
100
AcDbEntity
  8
1
  6
CONTINUOUS
 62
           2
100
AcDbLine
 10
11208.95427666282
 20
-825.579741322022
 11
11208.95427666282
 21
-833.579741322022
  0
LINE
  5
246
100
AcDbEntity
  8
1
  6
CONTINUOUS
 62
           2
100
AcDbLine
 10
11138.95427666282
 20
-825.579741322022
 11
11138.95427666282
 21
-833.579741322022
  0
LINE
  5
245
100
AcDbEntity
  8
1
  6
CONTINUOUS
 62
           2
100
AcDbLine
 10
11196.95427666282
 20
-709.079741322022
 11
11196.95427666282
 21
-751.502391052832
  0
LINE
  5
244
100
AcDbEntity
  8
1
  6
CONTINUOUS
 62
           2
100
AcDbLine
 10
11194.95427666282
 20
-709.079741322022
 11
11194.95427666282
 21
-751.079741322022
  0
LINE
  5
243
100
AcDbEntity
  8
1
  6
CONTINUOUS
 62
           2
100
AcDbLine
 10
11182.28760999615
 20
-709.079741322022
 11
11182.28760999615
 21
-751.079741322022
  0
LINE
  5
242
100
AcDbEntity
  8
1
  6
CONTINUOUS
 62
           2
100
AcDbLine
 10
11180.28760999615
 20
-709.079741322022
 11
11180.28760999615
 21
-751.079741322022
  0
LINE
  5
241
100
AcDbEntity
  8
1
  6
CONTINUOUS
 62
           2
100
AcDbLine
 10
11167.620943329481
 20
-709.079741322022
 11
11167.620943329481
 21
-751.079741322022
  0
LINE
  5
240
100
AcDbEntity
  8
1
  6
CONTINUOUS
 62
           2
100
AcDbLine
 10
11165.620943329481
 20
-709.079741322022
 11
11165.620943329481
 21
-751.079741322022
  0
LINE
  5
23F
100
AcDbEntity
  8
1
  6
CONTINUOUS
 62
           2
100
AcDbLine
 10
11152.95427666282
 20
-709.079741322022
 11
11152.95427666282
 21
-751.079741322022
  0
LINE
  5
23E
100
AcDbEntity
  8
1
  6
CONTINUOUS
 62
           2
100
AcDbLine
 10
11150.95427666282
 20
-709.079741322022
 11
11150.95427666282
 21
-751.502391052832
  0
LINE
  5
23D
100
AcDbEntity
  8
1
  6
CONTINUOUS
 62
           7
100
AcDbLine
 10
13504.841307005139
 20
-147.799741322023
 11
13504.841307005139
 21
-127.573966492169
  0
LINE
  5
23C
100
AcDbEntity
  8
1
  6
CONTINUOUS
 62
           7
100
AcDbLine
 10
13716.26615391208
 20
-2119.094903873894
 11
13715.396862560699
 21
-2118.668415547937
  0
LINE
  5
23B
100
AcDbEntity
  8
1
  6
DOTTED
 62
           2
100
AcDbLine
 10
11160.75427666281
 20
-2224.674769695292
 11
11160.75427666281
 21
-2223.703894684741
  0
LINE
  5
23A
100
AcDbEntity
  8
1
  6
DOTTED
 62
           2
100
AcDbLine
 10
11187.15427666281
 20
-2224.674769695292
 11
11187.15427666281
 21
-2223.703894684741
  0
LINE
  5
239
100
AcDbEntity
  8
1
  6
CONTINUOUS
 62
           2
100
AcDbLine
 10
11160.75427666281
 20
-2233.799741322022
 11
11160.75427666281
 21
-2224.674769695292
  0
LINE
  5
238
100
AcDbEntity
  8
1
  6
CONTINUOUS
 62
           2
100
AcDbLine
 10
11187.15427666281
 20
-2233.799741322022
 11
11187.15427666281
 21
-2224.674769695292
  0
LINE
  5
237
100
AcDbEntity
  8
1
  6
CONTINUOUS
 62
           2
100
AcDbLine
 10
11160.75427666281
 20
-2233.799741322022
 11
11187.15427666281
 21
-2233.799741322022
  0
LINE
  5
236
100
AcDbEntity
  8
1
  6
CONTINUOUS
 62
           2
100
AcDbLine
 10
11163.47677666281
 20
-2251.479741322022
 11
11163.104276662811
 21
-2244.139741322022
  0
LINE
  5
235
100
AcDbEntity
  8
1
  6
CONTINUOUS
 62
           2
100
AcDbLine
 10
11184.43177666281
 20
-2251.479741322022
 11
11184.80427666281
 21
-2244.139741322022
  0
LINE
  5
234
100
AcDbEntity
  8
1
  6
CONTINUOUS
 62
           2
100
AcDbLine
 10
11184.80427666281
 20
-2241.139741322022
 11
11184.43177666281
 21
-2233.799741322022
  0
LINE
  5
233
100
AcDbEntity
  8
1
  6
CONTINUOUS
 62
           2
100
AcDbLine
 10
11163.104276662811
 20
-2241.139741322022
 11
11163.47677666281
 21
-2233.799741322022
  0
LINE
  5
232
100
AcDbEntity
  8
1
  6
CONTINUOUS
 62
           2
100
AcDbLine
 10
11163.104276662811
 20
-2241.139741322022
 11
11163.104276662811
 21
-2244.139741322022
  0
LINE
  5
231
100
AcDbEntity
  8
1
  6
CONTINUOUS
 62
           2
100
AcDbLine
 10
11184.80427666281
 20
-2244.139741322022
 11
11163.104276662811
 21
-2244.139741322022
  0
LINE
  5
230
100
AcDbEntity
  8
1
  6
CONTINUOUS
 62
           2
100
AcDbLine
 10
11163.104276662811
 20
-2241.139741322022
 11
11184.80427666281
 21
-2241.139741322022
  0
LINE
  5
22F
100
AcDbEntity
  8
1
  6
CONTINUOUS
 62
           2
100
AcDbLine
 10
11184.80427666281
 20
-2241.139741322022
 11
11184.80427666281
 21
-2244.139741322022
  0
LINE
  5
22E
100
AcDbEntity
  8
1
  6
CONTINUOUS
 62
           2
100
AcDbLine
 10
11162.588033392551
 20
-2283.029741322022
 11
11183.854276662811
 21
-2283.029741322022
  0
LINE
  5
22D
100
AcDbEntity
  8
1
  6
CONTINUOUS
 62
           2
100
AcDbLine
 10
11162.588033392551
 20
-2272.029741322022
 11
11183.854276662811
 21
-2272.029741322022
  0
LINE
  5
22C
100
AcDbEntity
  8
1
  6
CONTINUOUS
 62
           2
100
AcDbLine
 10
11184.854276662811
 20
-2284.429741322021
 11
11183.854276662811
 21
-2283.029741322022
  0
LINE
  5
22B
100
AcDbEntity
  8
1
  6
CONTINUOUS
 62
           2
100
AcDbLine
 10
11184.854276662811
 20
-2270.629741322021
 11
11183.854276662811
 21
-2272.029741322022
  0
LINE
  5
22A
100
AcDbEntity
  8
1
  6
CONTINUOUS
 62
           2
100
AcDbLine
 10
11162.588033392551
 20
-2272.029741322022
 11
11162.588033392551
 21
-2283.029741322022
  0
LINE
  5
229
100
AcDbEntity
  8
1
  6
CONTINUOUS
 62
           2
100
AcDbLine
 10
11161.45427666282
 20
-2284.429741322021
 11
11162.588033392551
 21
-2283.029741322022
  0
LINE
  5
228
100
AcDbEntity
  8
1
  6
CONTINUOUS
 62
           2
100
AcDbLine
 10
11161.45427666282
 20
-2270.629741322021
 11
11162.588033392551
 21
-2272.029741322022
  0
LINE
  5
227
100
AcDbEntity
  8
1
  6
CONTINUOUS
 62
           2
100
AcDbLine
 10
11184.854276662811
 20
-2298.17224040381
 11
11184.854276662811
 21
-2283.979741322021
  0
LINE
  5
226
100
AcDbEntity
  8
1
  6
CONTINUOUS
 62
           2
100
AcDbLine
 10
11184.854276662811
 20
-2261.287242240235
 11
11184.854276662811
 21
-2273.479741322021
  0
LINE
  5
225
100
AcDbEntity
  8
1
  6
CONTINUOUS
 62
           2
100
AcDbLine
 10
11186.45427666282
 20
-2285.479741322022
 11
11188.05427666281
 21
-2285.479741322022
  0
LINE
  5
224
100
AcDbEntity
  8
1
  6
CONTINUOUS
 62
           2
100
AcDbLine
 10
11186.45427666282
 20
-2272.479741322022
 11
11188.05427666281
 21
-2272.479741322022
  0
LINE
  5
223
100
AcDbEntity
  8
1
  6
CONTINUOUS
 62
           2
100
AcDbLine
 10
11192.48292531146
 20
-2291.379741322021
 11
11188.05427666281
 21
-2291.379741322021
  0
LINE
  5
222
100
AcDbEntity
  8
1
  6
CONTINUOUS
 62
           2
100
AcDbLine
 10
11196.95427666282
 20
-2308.979741322022
 11
11192.25427666281
 21
-2290.479741322022
  0
LINE
  5
221
100
AcDbEntity
  8
1
  6
CONTINUOUS
 62
           2
100
AcDbLine
 10
11196.95427666282
 20
-2308.979741322022
 11
11204.95427666282
 21
-2308.979741322022
  0
LINE
  5
220
100
AcDbEntity
  8
1
  6
CONTINUOUS
 62
           2
100
AcDbLine
 10
11204.95427666282
 20
-2290.56637154828
 11
11204.95427666282
 21
-2308.979741322022
  0
LINE
  5
21F
100
AcDbEntity
  8
1
  6
CONTINUOUS
 62
           2
100
AcDbLine
 10
11188.05427666281
 20
-2266.579741322023
 11
11192.48292531146
 21
-2266.579741322023
  0
LINE
  5
21E
100
AcDbEntity
  8
1
  6
CONTINUOUS
 62
           2
100
AcDbLine
 10
11188.05427666281
 20
-2266.079741322023
 11
11192.6099523385
 21
-2266.079741322023
  0
LINE
  5
21D
100
AcDbEntity
  8
1
  6
CONTINUOUS
 62
           2
100
AcDbLine
 10
11192.25427666281
 20
-2267.479741322022
 11
11196.95427666282
 21
-2248.979741322022
  0
LINE
  5
21C
100
AcDbEntity
  8
1
  6
CONTINUOUS
 62
           2
100
AcDbLine
 10
11196.95427666282
 20
-2248.979741322022
 11
11204.95427666282
 21
-2248.979741322022
  0
LINE
  5
21B
100
AcDbEntity
  8
1
  6
CONTINUOUS
 62
           2
100
AcDbLine
 10
11186.45427666282
 20
-2307.97974132202
 11
11161.45427666282
 21
-2307.979741322021
  0
LINE
  5
21A
100
AcDbEntity
  8
1
  6
CONTINUOUS
 62
           2
100
AcDbLine
 10
11161.45427666282
 20
-2307.979741322021
 11
11161.45427666282
 21
-2251.479741322021
  0
LINE
  5
219
100
AcDbEntity
  8
1
  6
CONTINUOUS
 62
           2
100
AcDbLine
 10
11161.45427666282
 20
-2251.479741322021
 11
11186.45427666282
 21
-2251.479741322022
  0
LINE
  5
218
100
AcDbEntity
  8
1
  6
CONTINUOUS
 62
           2
100
AcDbLine
 10
11186.45427666282
 20
-2307.97974132202
 11
11186.45427666282
 21
-2251.479741322022
  0
LINE
  5
217
100
AcDbEntity
  8
1
  6
CONTINUOUS
 62
           2
100
AcDbLine
 10
11204.95427666282
 20
-2248.979741322022
 11
11204.95427666282
 21
-2267.393111095765
  0
LINE
  5
216
100
AcDbEntity
  8
1
  6
CONTINUOUS
 62
           2
100
AcDbLine
 10
11192.25427666281
 20
-2290.479741322022
 11
11192.25427666281
 21
-2267.479741322022
  0
LINE
  5
215
100
AcDbEntity
  8
1
  6
CONTINUOUS
 62
           2
100
AcDbLine
 10
11188.05427666281
 20
-2291.379741322021
 11
11188.05427666281
 21
-2268.979741322022
  0
LINE
  5
214
100
AcDbEntity
  8
1
  6
CONTINUOUS
 62
           2
100
AcDbLine
 10
11188.05427666281
 20
-2266.079741322023
 11
11188.05427666281
 21
-2268.979741322022
  0
LINE
  5
213
100
AcDbEntity
  8
1
  6
DOT_CENTER
 62
           2
100
AcDbLine
 10
11154.45271148651
 20
-2278.979741322022
 11
11209.26615582721
 21
-2278.979741322022
  0
LINE
  5
212
100
AcDbEntity
  8
1
  6
CONTINUOUS
 62
           2
100
AcDbLine
 10
11173.95427666282
 20
-2252.596196290483
 11
11173.95427666282
 21
-2260.779953020231
  0
LINE
  5
211
100
AcDbEntity
  8
1
  6
CONTINUOUS
 62
           2
100
AcDbLine
 10
11173.95427666282
 20
-2298.679529623813
 11
11173.95427666282
 21
-2306.86328635356
  0
LINE
  5
210
100
AcDbEntity
  8
1
  6
DOT_CENTER
 62
           2
100
AcDbLine
 10
11173.95427666282
 20
-2247.767217940072
 11
11173.95427666282
 21
-2311.207321144792
  0
LINE
  5
20F
100
AcDbEntity
  8
1
  6
CONTINUOUS
 62
           2
100
AcDbLine
 10
11191.55427666281
 20
-2264.979741322021
 11
11191.55427666281
 21
-2266.079741322023
  0
LINE
  5
20E
100
AcDbEntity
  8
1
  6
CONTINUOUS
 62
           2
100
AcDbLine
 10
11186.45427666282
 20
-2264.979741322021
 11
11191.55427666281
 21
-2264.979741322021
  0
LINE
  5
20D
100
AcDbEntity
  8
1
  6
CONTINUOUS
 62
           2
100
AcDbLine
 10
11186.45427666282
 20
-2269.979741322021
 11
11188.05427666281
 21
-2269.979741322021
  0
LINE
  5
20C
100
AcDbEntity
  8
1
  6
CONTINUOUS
 62
           7
100
AcDbLine
 10
11273.95427666282
 20
-2314.799741322023
 11
11273.954276662809
 21
-2511.799741322022
  0
LINE
  5
20B
100
AcDbEntity
  8
1
  6
CONTINUOUS
 62
           7
100
AcDbLine
 10
11073.95427666282
 20
-2314.799741322023
 11
11073.954276662809
 21
-2511.799741322022
  0
LINE
  5
20A
100
AcDbEntity
  8
1
  6
DOT_CENTER
 62
           2
100
AcDbLine
 10
10342.580915934321
 20
-1723.799741322022
 11
10616.52886883684
 21
-1723.799741322022
  0
LINE
  5
209
100
AcDbEntity
  8
1
  6
CONTINUOUS
 62
           2
100
AcDbLine
 10
10402.41602054075
 20
-900.801014463605
 11
10413.91602054075
 21
-900.801014463605
  0
LINE
  5
208
100
AcDbEntity
  8
1
  6
CONTINUOUS
 62
           2
100
AcDbLine
 10
10413.91602054075
 20
-900.801014463605
 11
10413.91602054075
 21
-909.299741322023
  0
LINE
  5
207
100
AcDbEntity
  8
1
  6
CONTINUOUS
 62
           2
100
AcDbLine
 10
10425.41474739916
 20
-912.299741322023
 11
10416.91602054075
 21
-912.299741322023
  0
LINE
  5
206
100
AcDbEntity
  8
1
  6
CONTINUOUS
 62
           2
100
AcDbLine
 10
10425.41474739916
 20
-912.299741322023
 11
10425.41474739916
 21
-923.799741322023
  0
LINE
  5
205
100
AcDbEntity
  8
1
  6
CONTINUOUS
 62
           2
100
AcDbLine
 10
10425.41474739916
 20
-923.799741322023
 11
10425.41474739916
 21
-935.299741322023
  0
LINE
  5
204
100
AcDbEntity
  8
1
  6
CONTINUOUS
 62
           2
100
AcDbLine
 10
10416.91602054075
 20
-935.299741322023
 11
10425.41474739916
 21
-935.299741322023
  0
LINE
  5
203
100
AcDbEntity
  8
1
  6
CONTINUOUS
 62
           2
100
AcDbLine
 10
10413.91602054075
 20
-938.299741322023
 11
10413.91602054075
 21
-946.798468180439
  0
LINE
  5
202
100
AcDbEntity
  8
1
  6
CONTINUOUS
 62
           2
100
AcDbLine
 10
10413.91602054075
 20
-946.798468180439
 11
10402.41602054075
 21
-946.798468180439
  0
LINE
  5
201
100
AcDbEntity
  8
1
  6
CONTINUOUS
 62
           2
100
AcDbLine
 10
10441.65256957267
 20
-935.924096975003
 11
10440.714747399161
 21
-934.299741322023
  0
LINE
  5
200
100
AcDbEntity
  8
1
  6
CONTINUOUS
 62
           2
100
AcDbLine
 10
10440.714747399161
 20
-913.299741322023
 11
10441.65256957267
 21
-911.675385669041
  0
LINE
  5
1FF
100
AcDbEntity
  8
1
  6
CONTINUOUS
 62
           2
100
AcDbLine
 10
10440.714747399161
 20
-934.299741322023
 11
10440.714747399161
 21
-913.299741322023
  0
LINE
  5
1FE
100
AcDbEntity
  8
1
  6
CONTINUOUS
 62
           2
100
AcDbLine
 10
10441.65256957267
 20
-929.861919148512
 11
10447.814747399159
 21
-929.861919148512
  0
LINE
  5
1FD
100
AcDbEntity
  8
1
  6
CONTINUOUS
 62
           2
100
AcDbLine
 10
10441.65256957267
 20
-917.737563495532
 11
10447.814747399159
 21
-917.737563495532
  0
LINE
  5
1FC
100
AcDbEntity
  8
1
  6
CONTINUOUS
 62
           2
100
AcDbLine
 10
10484.714747399161
 20
-934.299741322023
 11
10483.776925225649
 21
-935.924096975003
  0
LINE
  5
1FB
100
AcDbEntity
  8
1
  6
CONTINUOUS
 62
           2
100
AcDbLine
 10
10483.776925225649
 20
-911.675385669041
 11
10484.714747399161
 21
-913.299741322023
  0
LINE
  5
1FA
100
AcDbEntity
  8
1
  6
CONTINUOUS
 62
           2
100
AcDbLine
 10
10483.776925225649
 20
-935.924096975003
 11
10477.352569572669
 21
-935.924096975003
  0
LINE
  5
1F9
100
AcDbEntity
  8
1
  6
CONTINUOUS
 62
           2
100
AcDbLine
 10
10484.714747399161
 20
-913.299741322023
 11
10484.714747399161
 21
-934.299741322023
  0
LINE
  5
1F8
100
AcDbEntity
  8
1
  6
CONTINUOUS
 62
           2
100
AcDbLine
 10
10483.776925225649
 20
-911.675385669041
 11
10477.352569572669
 21
-911.675385669041
  0
LINE
  5
1F7
100
AcDbEntity
  8
1
  6
CONTINUOUS
 62
           2
100
AcDbLine
 10
10482.714747399161
 20
-919.449741322021
 11
10473.4375035747
 21
-919.449741322021
  0
LINE
  5
1F6
100
AcDbEntity
  8
1
  6
CONTINUOUS
 62
           2
100
AcDbLine
 10
10482.714747399161
 20
-919.449741322021
 11
10482.714747399161
 21
-928.14974132202
  0
LINE
  5
1F5
100
AcDbEntity
  8
1
  6
CONTINUOUS
 62
           2
100
AcDbLine
 10
10482.714747399161
 20
-928.14974132202
 11
10473.4375035747
 21
-928.14974132202
  0
LINE
  5
1F4
100
AcDbEntity
  8
1
  6
CONTINUOUS
 62
           2
100
AcDbLine
 10
10442.714747399161
 20
-919.449741322021
 11
10451.991991223629
 21
-919.449741322021
  0
LINE
  5
1F3
100
AcDbEntity
  8
1
  6
CONTINUOUS
 62
           2
100
AcDbLine
 10
10442.714747399161
 20
-919.449741322021
 11
10442.714747399161
 21
-928.14974132202
  0
LINE
  5
1F2
100
AcDbEntity
  8
1
  6
CONTINUOUS
 62
           2
100
AcDbLine
 10
10442.714747399161
 20
-928.14974132202
 11
10451.991991223629
 21
-928.14974132202
  0
LINE
  5
1F1
100
AcDbEntity
  8
1
  6
DOT_CENTER
 62
           2
100
AcDbLine
 10
10462.714747399161
 20
-908.403346971521
 11
10462.714747399161
 21
-939.152193055721
  0
LINE
  5
1F0
100
AcDbEntity
  8
1
  6
CONTINUOUS
 62
           2
100
AcDbLine
 10
10462.714747399161
 20
-914.799741322023
 11
10462.714747399161
 21
-932.799741322023
  0
LINE
  5
1EF
100
AcDbEntity
  8
1
  6
CONTINUOUS
 62
           2
100
AcDbLine
 10
10457.714747399161
 20
-920.91298997607
 11
10457.714747399161
 21
-926.68649266797
  0
LINE
  5
1EE
100
AcDbEntity
  8
1
  6
CONTINUOUS
 62
           2
100
AcDbLine
 10
10457.714747399161
 20
-926.68649266797
 11
10462.714747399161
 21
-929.573244013923
  0
LINE
  5
1ED
100
AcDbEntity
  8
1
  6
CONTINUOUS
 62
           2
100
AcDbLine
 10
10462.714747399161
 20
-929.573244013923
 11
10467.714747399161
 21
-926.68649266797
  0
LINE
  5
1EC
100
AcDbEntity
  8
1
  6
CONTINUOUS
 62
           2
100
AcDbLine
 10
10467.714747399161
 20
-926.68649266797
 11
10467.714747399161
 21
-920.91298997607
  0
LINE
  5
1EB
100
AcDbEntity
  8
1
  6
CONTINUOUS
 62
           2
100
AcDbLine
 10
10467.714747399161
 20
-920.91298997607
 11
10462.714747399161
 21
-918.026238630123
  0
LINE
  5
1EA
100
AcDbEntity
  8
1
  6
CONTINUOUS
 62
           2
100
AcDbLine
 10
10462.714747399161
 20
-918.026238630123
 11
10457.714747399161
 21
-920.91298997607
  0
LINE
  5
1E9
100
AcDbEntity
  8
1
  6
CONTINUOUS
 62
           2
100
AcDbLine
 10
10462.714747399161
 20
-917.549741322023
 11
10456.998603922329
 21
-917.549741322023
  0
LINE
  5
1E8
100
AcDbEntity
  8
1
  6
CONTINUOUS
 62
           2
100
AcDbLine
 10
10468.964747399161
 20
-923.799741322023
 11
10471.214747399161
 21
-923.799741322023
  0
LINE
  5
1E7
100
AcDbEntity
  8
1
  6
CONTINUOUS
 62
           2
100
AcDbLine
 10
10460.47867942166
 20
-921.799741322023
 11
10464.95081537666
 21
-921.799741322023
  0
LINE
  5
1E6
100
AcDbEntity
  8
1
  6
CONTINUOUS
 62
           2
100
AcDbLine
 10
10460.47867942166
 20
-925.799741322023
 11
10464.95081537666
 21
-925.799741322023
  0
LINE
  5
1E5
100
AcDbEntity
  8
1
  6
CONTINUOUS
 62
           2
100
AcDbLine
 10
10476.41474739916
 20
-913.299741322023
 11
10477.352569572669
 21
-911.675385669041
  0
LINE
  5
1E4
100
AcDbEntity
  8
1
  6
CONTINUOUS
 62
           2
100
AcDbLine
 10
10477.352569572669
 20
-935.924096975003
 11
10476.41474739916
 21
-934.299741322023
  0
LINE
  5
1E3
100
AcDbEntity
  8
1
  6
CONTINUOUS
 62
           2
100
AcDbLine
 10
10448.752569572671
 20
-934.299741322023
 11
10447.814747399159
 21
-935.924096975003
  0
LINE
  5
1E2
100
AcDbEntity
  8
1
  6
CONTINUOUS
 62
           2
100
AcDbLine
 10
10447.814747399159
 20
-911.675385669041
 11
10448.752569572671
 21
-913.299741322023
  0
LINE
  5
1E1
100
AcDbEntity
  8
1
  6
CONTINUOUS
 62
           2
100
AcDbLine
 10
10476.41474739916
 20
-913.299741322023
 11
10448.752569572671
 21
-913.299741322023
  0
LINE
  5
1E0
100
AcDbEntity
  8
1
  6
CONTINUOUS
 62
           2
100
AcDbLine
 10
10447.814747399159
 20
-911.675385669041
 11
10441.65256957267
 21
-911.675385669041
  0
LINE
  5
1DF
100
AcDbEntity
  8
1
  6
CONTINUOUS
 62
           2
100
AcDbLine
 10
10476.41474739916
 20
-934.299741322023
 11
10448.752569572671
 21
-934.299741322023
  0
LINE
  5
1DE
100
AcDbEntity
  8
1
  6
CONTINUOUS
 62
           2
100
AcDbLine
 10
10447.814747399159
 20
-935.924096975003
 11
10441.65256957267
 21
-935.924096975003
  0
LINE
  5
1DD
100
AcDbEntity
  8
1
  6
CONTINUOUS
 62
           2
100
AcDbLine
 10
10477.352569572669
 20
-929.861919148512
 11
10483.776925225649
 21
-929.861919148512
  0
LINE
  5
1DC
100
AcDbEntity
  8
1
  6
CONTINUOUS
 62
           2
100
AcDbLine
 10
10477.352569572669
 20
-917.737563495532
 11
10483.776925225649
 21
-917.737563495532
  0
LINE
  5
1DB
100
AcDbEntity
  8
1
  6
CONTINUOUS
 62
           2
100
AcDbLine
 10
10471.214747399161
 20
-918.464525425621
 11
10471.214747399161
 21
-915.299741322023
  0
LINE
  5
1DA
100
AcDbEntity
  8
1
  6
CONTINUOUS
 62
           2
100
AcDbLine
 10
10471.214747399161
 20
-915.299741322023
 11
10473.714747399161
 21
-915.299741322023
  0
LINE
  5
1D9
100
AcDbEntity
  8
1
  6
CONTINUOUS
 62
           2
100
AcDbLine
 10
10447.96610592149
 20
-929.361919148512
 11
10454.40107650147
 21
-929.361919148512
  0
LINE
  5
1D8
100
AcDbEntity
  8
1
  6
CONTINUOUS
 62
           2
100
AcDbLine
 10
10447.96610592149
 20
-918.237563495532
 11
10454.40107650147
 21
-918.237563495532
  0
LINE
  5
1D7
100
AcDbEntity
  8
1
  6
CONTINUOUS
 62
           2
100
AcDbLine
 10
10477.20121105034
 20
-929.361919148512
 11
10470.963021380339
 21
-929.361919148512
  0
LINE
  5
1D6
100
AcDbEntity
  8
1
  6
CONTINUOUS
 62
           2
100
AcDbLine
 10
10477.20121105034
 20
-918.237563495532
 11
10475.26023999483
 21
-918.237563495532
  0
LINE
  5
1D5
100
AcDbEntity
  8
1
  6
CONTINUOUS
 62
           2
100
AcDbLine
 10
10499.954276662809
 20
-932.130741322022
 11
10493.55427666281
 21
-932.449741322022
  0
LINE
  5
1D4
100
AcDbEntity
  8
1
  6
CONTINUOUS
 62
           2
100
AcDbLine
 10
10484.65427666281
 20
-915.468741322023
 11
10491.05427666281
 21
-915.149741322022
  0
LINE
  5
1D3
100
AcDbEntity
  8
1
  6
CONTINUOUS
 62
           2
100
AcDbLine
 10
10491.05427666281
 20
-932.449741322022
 11
10484.65427666281
 21
-932.130741322022
  0
LINE
  5
1D2
100
AcDbEntity
  8
1
  6
CONTINUOUS
 62
           2
100
AcDbLine
 10
10493.55427666281
 20
-915.149741322022
 11
10499.954276662809
 21
-915.468741322023
  0
LINE
  5
1D1
100
AcDbEntity
  8
1
  6
CONTINUOUS
 62
           2
100
AcDbLine
 10
10493.55427666281
 20
-915.149741322022
 11
10491.05427666281
 21
-915.149741322022
  0
LINE
  5
1D0
100
AcDbEntity
  8
1
  6
CONTINUOUS
 62
           2
100
AcDbLine
 10
10491.05427666281
 20
-932.449741322022
 11
10493.55427666281
 21
-932.449741322022
  0
LINE
  5
1CF
100
AcDbEntity
  8
1
  6
CONTINUOUS
 62
           2
100
AcDbLine
 10
10493.55427666281
 20
-932.449741322022
 11
10493.55427666281
 21
-915.149741322022
  0
LINE
  5
1CE
100
AcDbEntity
  8
1
  6
CONTINUOUS
 62
           2
100
AcDbLine
 10
10491.05427666281
 20
-915.149741322022
 11
10491.05427666281
 21
-932.449741322022
  0
LINE
  5
1CD
100
AcDbEntity
  8
1
  6
CONTINUOUS
 62
           2
100
AcDbLine
 10
10431.814747399159
 20
-915.149741322022
 11
10431.814747399159
 21
-932.449741322022
  0
LINE
  5
1CC
100
AcDbEntity
  8
1
  6
CONTINUOUS
 62
           2
100
AcDbLine
 10
10434.314747399159
 20
-932.449741322022
 11
10434.314747399159
 21
-915.149741322022
  0
LINE
  5
1CB
100
AcDbEntity
  8
1
  6
CONTINUOUS
 62
           2
100
AcDbLine
 10
10431.814747399159
 20
-932.449741322022
 11
10434.314747399159
 21
-932.449741322022
  0
LINE
  5
1CA
100
AcDbEntity
  8
1
  6
CONTINUOUS
 62
           2
100
AcDbLine
 10
10434.314747399159
 20
-915.149741322022
 11
10431.814747399159
 21
-915.149741322022
  0
LINE
  5
1C9
100
AcDbEntity
  8
1
  6
CONTINUOUS
 62
           2
100
AcDbLine
 10
10434.314747399159
 20
-915.149741322022
 11
10440.714747399161
 21
-915.468741322023
  0
LINE
  5
1C8
100
AcDbEntity
  8
1
  6
CONTINUOUS
 62
           2
100
AcDbLine
 10
10431.814747399159
 20
-932.449741322022
 11
10425.41474739916
 21
-932.130741322022
  0
LINE
  5
1C7
100
AcDbEntity
  8
1
  6
CONTINUOUS
 62
           2
100
AcDbLine
 10
10425.41474739916
 20
-915.468741322023
 11
10431.814747399159
 21
-915.149741322022
  0
LINE
  5
1C6
100
AcDbEntity
  8
1
  6
CONTINUOUS
 62
           2
100
AcDbLine
 10
10440.714747399161
 20
-932.130741322022
 11
10434.314747399159
 21
-932.449741322022
  0
LINE
  5
1C5
100
AcDbEntity
  8
1
  6
CONTINUOUS
 62
           2
100
AcDbLine
 10
10499.954276662809
 20
-913.149741322022
 11
10499.954276662809
 21
-934.449741322022
  0
LINE
  5
1C4
100
AcDbEntity
  8
1
  6
CONTINUOUS
 62
           7
100
AcDbLine
 10
10514.954276662809
 20
-934.449741322022
 11
10499.954276662809
 21
-934.449741322022
  0
LINE
  5
1C3
100
AcDbEntity
  8
1
  6
CONTINUOUS
 62
           7
100
AcDbLine
 10
10514.954276662809
 20
-913.149741322022
 11
10499.954276662809
 21
-913.149741322022
  0
LINE
  5
1C2
100
AcDbEntity
  8
1
  6
CONTINUOUS
 62
           2
100
AcDbLine
 10
10402.41602054075
 20
-894.427414463606
 11
10410.94619554075
 21
-894.427414463606
  0
LINE
  5
1C1
100
AcDbEntity
  8
1
  6
CONTINUOUS
 62
           2
100
AcDbLine
 10
10402.41602054075
 20
-897.101014463605
 11
10410.00664554074
 21
-897.101014463605
  0
LINE
  5
1C0
100
AcDbEntity
  8
1
  6
CONTINUOUS
 62
           2
100
AcDbLine
 10
10410.94619554075
 20
-894.427414463606
 11
10410.00664554074
 21
-897.101014463605
  0
LINE
  5
1BF
100
AcDbEntity
  8
1
  6
CONTINUOUS
 62
           2
100
AcDbLine
 10
10410.94619554075
 20
-894.427414463606
 11
10411.06602054074
 21
-890.593014463604
  0
LINE
  5
1BE
100
AcDbEntity
  8
1
  6
CONTINUOUS
 62
           2
100
AcDbLine
 10
10409.89102054075
 20
-900.801014463605
 11
10410.00664554074
 21
-897.101014463605
  0
LINE
  5
1BD
100
AcDbEntity
  8
1
  6
CONTINUOUS
 62
           2
100
AcDbLine
 10
10410.747020540741
 20
-900.801014463605
 11
10410.94619554075
 21
-894.427414463606
  0
LINE
  5
1BC
100
AcDbEntity
  8
1
  6
CONTINUOUS
 62
           2
100
AcDbLine
 10
10393.72095804074
 20
-889.151014463606
 11
10411.111083040751
 21
-889.151014463606
  0
LINE
  5
1BB
100
AcDbEntity
  8
1
  6
CONTINUOUS
 62
           2
100
AcDbLine
 10
10411.111083040751
 20
-889.151014463606
 11
10411.06602054074
 21
-890.593014463604
  0
LINE
  5
1BA
100
AcDbEntity
  8
1
  6
CONTINUOUS
 62
           2
100
AcDbLine
 10
10409.41602054075
 20
-877.151014463606
 11
10409.41602054075
 21
-889.151014463606
  0
LINE
  5
1B9
100
AcDbEntity
  8
1
  6
CONTINUOUS
 62
           2
100
AcDbLine
 10
10409.41602054075
 20
-877.151014463606
 11
10411.41602054075
 21
-877.151014463606
  0
LINE
  5
1B8
100
AcDbEntity
  8
1
  6
CONTINUOUS
 62
           2
100
AcDbLine
 10
10411.41602054075
 20
-875.119494054828
 11
10411.41602054075
 21
-877.151014463606
  0
LINE
  5
1B7
100
AcDbEntity
  8
1
  6
DOT_CENTER
 62
           2
100
AcDbLine
 10
10434.45701243829
 20
-855.649889760757
 11
10440.112881237241
 21
-858.915307134331
  0
LINE
  5
1B6
100
AcDbEntity
  8
1
  6
CONTINUOUS
 62
           7
100
AcDbLine
 10
10435.90439358215
 20
-859.603227107407
 11
10434.78152819824
 21
-858.954940475743
  0
LINE
  5
1B5
100
AcDbEntity
  8
1
  6
CONTINUOUS
 62
           7
100
AcDbLine
 10
10438.604393582151
 20
-854.926689926971
 11
10437.47816325181
 21
-854.276460542577
  0
LINE
  5
1B4
100
AcDbEntity
  8
1
  6
CONTINUOUS
 62
           7
100
AcDbLine
 10
10438.604393582151
 20
-854.926689926971
 11
10435.90439358215
 21
-859.603227107407
  0
LINE
  5
1B3
100
AcDbEntity
  8
1
  6
CONTINUOUS
 62
           7
100
AcDbLine
 10
10405.11602054074
 20
-796.872467806536
 11
10405.11602054074
 21
-798.169041069867
  0
LINE
  5
1B2
100
AcDbEntity
  8
1
  6
CONTINUOUS
 62
           7
100
AcDbLine
 10
10399.71602054074
 20
-796.872467806536
 11
10405.11602054074
 21
-796.872467806536
  0
LINE
  5
1B1
100
AcDbEntity
  8
1
  6
CONTINUOUS
 62
           7
100
AcDbLine
 10
10422.63602071989
 20
-857.371832061309
 11
10426.77743143692
 21
-861.513242778341
  0
LINE
  5
1B0
100
AcDbEntity
  8
1
  6
DOT_CENTER
 62
           2
100
AcDbLine
 10
10356.77882709888
 20
-837.151014463606
 11
10450.19558860649
 21
-837.151014463606
  0
LINE
  5
1AF
100
AcDbEntity
  8
1
  6
CONTINUOUS
 62
           2
100
AcDbLine
 10
10402.41602054075
 20
-849.78879589901
 11
10404.381402153709
 21
-850.878224716636
  0
LINE
  5
1AE
100
AcDbEntity
  8
1
  6
CONTINUOUS
 62
           2
100
AcDbLine
 10
10404.3421843789
 20
-850.946151895157
 11
10402.41602054075
 21
-849.78879589901
  0
LINE
  5
1AD
100
AcDbEntity
  8
1
  6
CONTINUOUS
 62
           2
100
AcDbLine
 10
10410.747020540741
 20
-946.798468180439
 11
10410.954833040751
 21
-953.44846818044
  0
LINE
  5
1AC
100
AcDbEntity
  8
1
  6
CONTINUOUS
 62
           2
100
AcDbLine
 10
10408.41602054075
 20
-953.44846818044
 11
10408.41602054075
 21
-962.44846818044
  0
LINE
  5
1AB
100
AcDbEntity
  8
1
  6
CONTINUOUS
 62
           2
100
AcDbLine
 10
10408.41602054075
 20
-962.44846818044
 11
10396.41602054075
 21
-962.44846818044
  0
LINE
  5
1AA
100
AcDbEntity
  8
1
  6
CONTINUOUS
 62
           2
100
AcDbLine
 10
10410.954833040751
 20
-953.44846818044
 11
10393.87720804074
 21
-953.44846818044
  0
LINE
  5
1A9
100
AcDbEntity
  8
1
  6
DOT_CENTER
 62
           2
100
AcDbLine
 10
10376.411065103461
 20
-923.799741322023
 11
10551.26379706572
 21
-923.799741322023
  0
LINE
  5
1A8
100
AcDbEntity
  8
1
  6
CONTINUOUS
 62
           7
100
AcDbLine
 10
13484.84130700515
 20
-956.949741322022
 11
13484.84130700515
 21
-890.649741322021
  0
LINE
  5
1A7
100
AcDbEntity
  8
1
  6
CONTINUOUS
 62
           7
100
AcDbLine
 10
13504.84130700515
 20
-956.949741322022
 11
13484.84130700515
 21
-956.949741322022
  0
LINE
  5
1A6
100
AcDbEntity
  8
1
  6
CONTINUOUS
 62
           7
100
AcDbLine
 10
13504.84130700515
 20
-890.649741322021
 11
13484.84130700515
 21
-890.649741322021
  0
LINE
  5
1A5
100
AcDbEntity
  8
1
  6
CONTINUOUS
 62
           7
100
AcDbLine
 10
13473.72130700514
 20
-893.549741322023
 11
13473.72130700514
 21
-954.049741322023
  0
LINE
  5
1A4
100
AcDbEntity
  8
1
  6
CONTINUOUS
 62
           7
100
AcDbLine
 10
13469.72130700514
 20
-954.049741322023
 11
13469.72130700514
 21
-893.549741322023
  0
LINE
  5
1A3
100
AcDbEntity
  8
1
  6
CONTINUOUS
 62
           7
100
AcDbLine
 10
13469.72130700514
 20
-954.049741322023
 11
13473.72130700514
 21
-954.049741322023
  0
LINE
  5
1A2
100
AcDbEntity
  8
1
  6
CONTINUOUS
 62
           7
100
AcDbLine
 10
13473.72130700514
 20
-893.549741322023
 11
13469.72130700514
 21
-893.549741322023
  0
LINE
  5
1A1
100
AcDbEntity
  8
1
  6
CONTINUOUS
 62
           7
100
AcDbLine
 10
13473.72130700514
 20
-954.049741322023
 11
13484.84130700515
 21
-953.606741322023
  0
LINE
  5
1A0
100
AcDbEntity
  8
1
  6
CONTINUOUS
 62
           7
100
AcDbLine
 10
13473.72130700514
 20
-893.549741322023
 11
13484.84130700515
 21
-893.992741322023
  0
LINE
  5
19F
100
AcDbEntity
  8
1
  6
CONTINUOUS
 62
           7
100
AcDbLine
 10
13469.72130700514
 20
-954.049741322023
 11
13458.60130700515
 21
-953.606741322023
  0
LINE
  5
19E
100
AcDbEntity
  8
1
  6
CONTINUOUS
 62
           7
100
AcDbLine
 10
13458.60130700515
 20
-893.992741322023
 11
13469.72130700514
 21
-893.549741322023
  0
LINE
  5
19D
100
AcDbEntity
  8
1
  6
CONTINUOUS
 62
           2
100
AcDbLine
 10
14150.64130700514
 20
-2234.084068063762
 11
14177.04130700514
 21
-2234.084068063762
  0
LINE
  5
19C
100
AcDbEntity
  8
1
  6
CONTINUOUS
 62
           2
100
AcDbLine
 10
14177.04130700514
 20
-2234.084068063762
 11
14177.04130700514
 21
-2224.959096437032
  0
LINE
  5
19B
100
AcDbEntity
  8
1
  6
CONTINUOUS
 62
           2
100
AcDbLine
 10
14150.64130700514
 20
-2234.084068063762
 11
14150.64130700514
 21
-2224.959096437032
  0
LINE
  5
19A
100
AcDbEntity
  8
1
  6
DOTTED
 62
           2
100
AcDbLine
 10
14177.04130700514
 20
-2224.959096437032
 11
14177.04130700514
 21
-2223.988221426481
  0
LINE
  5
199
100
AcDbEntity
  8
1
  6
DOTTED
 62
           2
100
AcDbLine
 10
14150.64130700514
 20
-2224.959096437032
 11
14150.64130700514
 21
-2223.988221426481
  0
LINE
  5
198
100
AcDbEntity
  8
1
  6
DOT_CENTER
 62
           2
100
AcDbLine
 10
14163.84130700515
 20
-2311.491647886533
 11
14163.84130700515
 21
-2248.051544681812
  0
LINE
  5
197
100
AcDbEntity
  8
1
  6
CONTINUOUS
 62
           2
100
AcDbLine
 10
14163.84130700515
 20
-2261.064279761971
 11
14163.84130700515
 21
-2252.880523032223
  0
LINE
  5
196
100
AcDbEntity
  8
1
  6
CONTINUOUS
 62
           2
100
AcDbLine
 10
14151.34130700515
 20
-2251.764068063761
 11
14176.34130700515
 21
-2251.764068063762
  0
LINE
  5
195
100
AcDbEntity
  8
1
  6
CONTINUOUS
 62
           2
100
AcDbLine
 10
14174.691307005151
 20
-2241.424068063762
 11
14174.691307005151
 21
-2244.424068063762
  0
LINE
  5
194
100
AcDbEntity
  8
1
  6
CONTINUOUS
 62
           2
100
AcDbLine
 10
14152.991307005141
 20
-2241.424068063762
 11
14174.691307005151
 21
-2241.424068063762
  0
LINE
  5
193
100
AcDbEntity
  8
1
  6
CONTINUOUS
 62
           2
100
AcDbLine
 10
14174.691307005151
 20
-2244.424068063762
 11
14152.991307005141
 21
-2244.424068063762
  0
LINE
  5
192
100
AcDbEntity
  8
1
  6
CONTINUOUS
 62
           2
100
AcDbLine
 10
14152.991307005141
 20
-2241.424068063762
 11
14152.991307005141
 21
-2244.424068063762
  0
LINE
  5
191
100
AcDbEntity
  8
1
  6
CONTINUOUS
 62
           2
100
AcDbLine
 10
14152.991307005141
 20
-2241.424068063762
 11
14153.363807005149
 21
-2234.084068063762
  0
LINE
  5
190
100
AcDbEntity
  8
1
  6
CONTINUOUS
 62
           2
100
AcDbLine
 10
14174.691307005151
 20
-2241.424068063762
 11
14174.31880700514
 21
-2234.084068063762
  0
LINE
  5
18F
100
AcDbEntity
  8
1
  6
CONTINUOUS
 62
           2
100
AcDbLine
 10
14174.31880700514
 20
-2251.764068063762
 11
14174.691307005151
 21
-2244.424068063762
  0
LINE
  5
18E
100
AcDbEntity
  8
1
  6
CONTINUOUS
 62
           2
100
AcDbLine
 10
14153.363807005149
 20
-2251.764068063762
 11
14152.991307005141
 21
-2244.424068063762
  0
LINE
  5
18D
100
AcDbEntity
  8
1
  6
CONTINUOUS
 62
           2
100
AcDbLine
 10
14150.64130700514
 20
-2234.084068063762
 11
14177.04130700514
 21
-2234.084068063762
  0
LINE
  5
18C
100
AcDbEntity
  8
1
  6
CONTINUOUS
 62
           2
100
AcDbLine
 10
14178.2750637349
 20
-2307.147613095298
 11
14176.34130700515
 21
-2308.264068063761
  0
LINE
  5
18B
100
AcDbEntity
  8
1
  6
CONTINUOUS
 62
           2
100
AcDbLine
 10
14151.34130700515
 20
-2308.264068063761
 11
14149.4075502754
 21
-2307.147613095298
  0
LINE
  5
18A
100
AcDbEntity
  8
1
  6
CONTINUOUS
 62
           2
100
AcDbLine
 10
14178.2750637349
 20
-2307.147613095298
 11
14178.2750637349
 21
-2299.380523032227
  0
LINE
  5
189
100
AcDbEntity
  8
1
  6
CONTINUOUS
 62
           2
100
AcDbLine
 10
14176.34130700515
 20
-2308.264068063761
 11
14169.59130700515
 21
-2308.264068063761
  0
LINE
  5
188
100
AcDbEntity
  8
1
  6
CONTINUOUS
 62
           2
100
AcDbLine
 10
14149.4075502754
 20
-2307.147613095298
 11
14149.4075502754
 21
-2299.380523032227
  0
LINE
  5
187
100
AcDbEntity
  8
1
  6
CONTINUOUS
 62
           2
100
AcDbLine
 10
14171.058185370021
 20
-2307.147613095298
 11
14171.058185370021
 21
-2290.076869119303
  0
LINE
  5
186
100
AcDbEntity
  8
1
  6
CONTINUOUS
 62
           2
100
AcDbLine
 10
14156.62442864028
 20
-2307.147613095298
 11
14156.62442864028
 21
-2290.076869119303
  0
LINE
  5
185
100
AcDbEntity
  8
1
  6
CONTINUOUS
 62
           2
100
AcDbLine
 10
14176.34130700515
 20
-2251.764068063762
 11
14178.2750637349
 21
-2252.880523032224
  0
LINE
  5
184
100
AcDbEntity
  8
1
  6
CONTINUOUS
 62
           2
100
AcDbLine
 10
14149.4075502754
 20
-2252.880523032224
 11
14151.34130700515
 21
-2251.764068063761
  0
LINE
  5
183
100
AcDbEntity
  8
1
  6
CONTINUOUS
 62
           2
100
AcDbLine
 10
14178.2750637349
 20
-2252.880523032224
 11
14178.2750637349
 21
-2260.647613095302
  0
LINE
  5
182
100
AcDbEntity
  8
1
  6
CONTINUOUS
 62
           2
100
AcDbLine
 10
14151.34130700515
 20
-2251.764068063761
 11
14170.18747232774
 21
-2251.764068063761
  0
LINE
  5
181
100
AcDbEntity
  8
1
  6
CONTINUOUS
 62
           2
100
AcDbLine
 10
14149.4075502754
 20
-2252.880523032224
 11
14149.4075502754
 21
-2260.647613095302
  0
LINE
  5
180
100
AcDbEntity
  8
1
  6
CONTINUOUS
 62
           2
100
AcDbLine
 10
14171.058185370021
 20
-2252.880523032224
 11
14171.058185370021
 21
-2268.451267008223
  0
LINE
  5
17F
100
AcDbEntity
  8
1
  6
CONTINUOUS
 62
           2
100
AcDbLine
 10
14156.62442864028
 20
-2252.880523032224
 11
14156.62442864028
 21
-2265.319325254951
  0
LINE
  5
17E
100
AcDbEntity
  8
1
  6
CONTINUOUS
 62
           2
100
AcDbLine
 10
14178.2750637349
 20
-2260.647613095302
 11
14176.475063734901
 21
-2261.686843579842
  0
LINE
  5
17D
100
AcDbEntity
  8
1
  6
CONTINUOUS
 62
           2
100
AcDbLine
 10
14151.207550275411
 20
-2261.686843579838
 11
14149.4075502754
 21
-2260.647613095302
  0
LINE
  5
17C
100
AcDbEntity
  8
1
  6
CONTINUOUS
 62
           2
100
AcDbLine
 10
14149.4075502754
 20
-2299.380523032227
 11
14151.207550275411
 21
-2298.341292547687
  0
LINE
  5
17B
100
AcDbEntity
  8
1
  6
CONTINUOUS
 62
           2
100
AcDbLine
 10
14176.475063734901
 20
-2298.341292547687
 11
14178.2750637349
 21
-2299.380523032227
  0
LINE
  5
17A
100
AcDbEntity
  8
1
  6
CONTINUOUS
 62
           2
100
AcDbLine
 10
14151.207550275411
 20
-2261.686843579838
 11
14151.207550275411
 21
-2270.914068063761
  0
LINE
  5
179
100
AcDbEntity
  8
1
  6
CONTINUOUS
 62
           2
100
AcDbLine
 10
14176.475063734901
 20
-2298.341292547687
 11
14176.475063734901
 21
-2284.714068063761
  0
LINE
  5
178
100
AcDbEntity
  8
1
  6
CONTINUOUS
 62
           2
100
AcDbLine
 10
14151.207550275411
 20
-2270.914068063761
 11
14152.34130700515
 21
-2272.314068063763
  0
LINE
  5
177
100
AcDbEntity
  8
1
  6
CONTINUOUS
 62
           2
100
AcDbLine
 10
14151.207550275411
 20
-2284.714068063761
 11
14151.751380739081
 21
-2284.042528368189
  0
LINE
  5
176
100
AcDbEntity
  8
1
  6
CONTINUOUS
 62
           2
100
AcDbLine
 10
14175.34130700515
 20
-2272.314068063763
 11
14176.475063734901
 21
-2270.914068063761
  0
LINE
  5
175
100
AcDbEntity
  8
1
  6
CONTINUOUS
 62
           2
100
AcDbLine
 10
14176.475063734901
 20
-2270.914068063761
 11
14176.475063734901
 21
-2261.686843579842
  0
LINE
  5
174
100
AcDbEntity
  8
1
  6
CONTINUOUS
 62
           2
100
AcDbLine
 10
14151.207550275411
 20
-2284.714068063761
 11
14151.207550275411
 21
-2298.341292547687
  0
LINE
  5
173
100
AcDbEntity
  8
1
  6
CONTINUOUS
 62
           2
100
AcDbLine
 10
14193.84130700515
 20
-2273.514068063762
 11
14193.84130700515
 21
-2285.014068063762
  0
LINE
  5
172
100
AcDbEntity
  8
1
  6
CONTINUOUS
 62
           2
100
AcDbLine
 10
14133.84130700515
 20
-2273.514068063762
 11
14133.84130700515
 21
-2285.014068063762
  0
LINE
  5
171
100
AcDbEntity
  8
1
  6
CONTINUOUS
 62
           2
100
AcDbLine
 10
14175.93123327122
 20
-2284.042528368193
 11
14176.475063734901
 21
-2284.714068063761
  0
LINE
  5
170
100
AcDbEntity
  8
1
  6
CONTINUOUS
 62
           2
100
AcDbLine
 10
14175.34130700515
 20
-2273.201890237271
 11
14175.34130700515
 21
-2272.314068063763
  0
LINE
  5
16F
100
AcDbEntity
  8
1
  6
CONTINUOUS
 62
           2
100
AcDbLine
 10
14174.82754840065
 20
-2272.314068063763
 11
14175.34130700515
 21
-2272.314068063763
  0
LINE
  5
16E
100
AcDbEntity
  8
1
  6
CONTINUOUS
 62
           2
100
AcDbLine
 10
14152.34130700515
 20
-2273.201890237271
 11
14152.34130700515
 21
-2272.314068063763
  0
LINE
  5
16D
100
AcDbEntity
  8
1
  6
CONTINUOUS
 62
           2
100
AcDbLine
 10
14193.84130700515
 20
-2273.514068063762
 11
14176.684106544189
 21
-2273.514068063762
  0
LINE
  5
16C
100
AcDbEntity
  8
1
  6
CONTINUOUS
 62
           2
100
AcDbLine
 10
14193.84130700515
 20
-2285.014068063762
 11
14176.68410654418
 21
-2285.014068063762
  0
LINE
  5
16B
100
AcDbEntity
  8
1
  6
CONTINUOUS
 62
           2
100
AcDbLine
 10
14150.998507466111
 20
-2285.014068063762
 11
14133.84130700515
 21
-2285.014068063762
  0
LINE
  5
16A
100
AcDbEntity
  8
1
  6
CONTINUOUS
 62
           2
100
AcDbLine
 10
14133.84130700515
 20
-2273.514068063762
 11
14150.998507466111
 21
-2273.514068063762
  0
LINE
  5
169
100
AcDbEntity
  8
1
  6
CONTINUOUS
 62
           2
100
AcDbLine
 10
14152.34130700515
 20
-2272.314068063763
 11
14152.855769616461
 21
-2272.314068063763
  0
LINE
  5
168
100
AcDbEntity
  8
1
  6
CONTINUOUS
 62
           2
100
AcDbLine
 10
14169.59130700515
 20
-2251.764068063761
 11
14176.34130700515
 21
-2251.764068063762
  0
LINE
  5
167
100
AcDbEntity
  8
1
  6
CONTINUOUS
 62
           2
100
AcDbLine
 10
14170.600251325761
 20
-2308.264068063761
 11
14151.34130700515
 21
-2308.264068063761
  0
LINE
  5
166
100
AcDbEntity
  8
1
  6
CONTINUOUS
 62
           2
100
AcDbLine
 10
14160.37720539001
 20
-2285.264068063762
 11
14167.305408620279
 21
-2285.264068063762
  0
LINE
  5
165
100
AcDbEntity
  8
1
  6
CONTINUOUS
 62
           2
100
AcDbLine
 10
14167.305408620279
 20
-2285.264068063762
 11
14170.769510235419
 21
-2279.264068063762
  0
LINE
  5
164
100
AcDbEntity
  8
1
  6
CONTINUOUS
 62
           2
100
AcDbLine
 10
14170.769510235419
 20
-2279.264068063762
 11
14167.305408620279
 21
-2273.264068063762
  0
LINE
  5
163
100
AcDbEntity
  8
1
  6
CONTINUOUS
 62
           2
100
AcDbLine
 10
14167.305408620279
 20
-2273.264068063762
 11
14160.37720539001
 21
-2273.264068063762
  0
LINE
  5
162
100
AcDbEntity
  8
1
  6
CONTINUOUS
 62
           2
100
AcDbLine
 10
14160.37720539001
 20
-2273.264068063762
 11
14156.913103774879
 21
-2279.264068063762
  0
LINE
  5
161
100
AcDbEntity
  8
1
  6
CONTINUOUS
 62
           2
100
AcDbLine
 10
14156.913103774879
 20
-2279.264068063762
 11
14160.37720539001
 21
-2285.264068063762
  0
LINE
  5
160
100
AcDbEntity
  8
1
  6
DOT_CENTER
 62
           2
100
AcDbLine
 10
14163.84130700515
 20
-2313.202270979841
 11
14163.84130700515
 21
-2245.696011205971
  0
LINE
  5
15F
100
AcDbEntity
  8
1
  6
DOT_CENTER
 62
           2
100
AcDbLine
 10
14129.340397041669
 20
-2279.264068063762
 11
14199.132829253649
 21
-2279.264068063762
  0
LINE
  5
15E
100
AcDbEntity
  8
1
  6
CONTINUOUS
 62
           2
100
AcDbLine
 10
14157.09130700515
 20
-2265.264068063761
 11
14158.09130700515
 21
-2265.264068063761
  0
LINE
  5
15D
100
AcDbEntity
  8
1
  6
CONTINUOUS
 62
           2
100
AcDbLine
 10
14155.09130700515
 20
-2267.264068063761
 11
14155.09130700515
 21
-2269.649625802247
  0
LINE
  5
15C
100
AcDbEntity
  8
1
  6
CONTINUOUS
 62
           2
100
AcDbLine
 10
14163.84130700515
 20
-2271.764068063762
 11
14155.61954714145
 21
-2271.764068063762
  0
LINE
  5
15B
100
AcDbEntity
  8
1
  6
CONTINUOUS
 62
           2
100
AcDbLine
 10
14171.34130700515
 20
-2279.264068063762
 11
14174.941307005151
 21
-2279.264068063762
  0
LINE
  5
15A
100
AcDbEntity
  8
1
  6
CONTINUOUS
 62
           2
100
AcDbLine
 10
14161.34130700515
 20
-2281.854434833161
 11
14161.34130700515
 21
-2276.673701294366
  0
LINE
  5
159
100
AcDbEntity
  8
1
  6
CONTINUOUS
 62
           2
100
AcDbLine
 10
14166.34130700515
 20
-2281.854434833161
 11
14166.34130700515
 21
-2276.673701294366
  0
LINE
  5
158
100
AcDbEntity
  8
1
  6
CONTINUOUS
 62
           2
100
AcDbLine
 10
14150.64130700514
 20
-2233.799741322022
 11
14177.04130700514
 21
-2233.799741322022
  0
LINE
  5
157
100
AcDbEntity
  8
1
  6
CONTINUOUS
 62
           2
100
AcDbLine
 10
14177.04130700514
 20
-2233.799741322022
 11
14177.04130700514
 21
-2224.674769695292
  0
LINE
  5
156
100
AcDbEntity
  8
1
  6
CONTINUOUS
 62
           2
100
AcDbLine
 10
14150.64130700514
 20
-2233.799741322022
 11
14150.64130700514
 21
-2224.674769695292
  0
LINE
  5
155
100
AcDbEntity
  8
1
  6
DOTTED
 62
           2
100
AcDbLine
 10
14177.04130700514
 20
-2224.674769695292
 11
14177.04130700514
 21
-2223.703894684741
  0
LINE
  5
154
100
AcDbEntity
  8
1
  6
DOTTED
 62
           2
100
AcDbLine
 10
14150.64130700514
 20
-2224.674769695292
 11
14150.64130700514
 21
-2223.703894684741
  0
LINE
  5
153
100
AcDbEntity
  8
1
  6
DOT_CENTER
 62
           2
100
AcDbLine
 10
10516.21023737729
 20
-3776.270324220034
 11
12003.195134735461
 21
-3776.270324220034
  0
LINE
  5
152
100
AcDbEntity
  8
1
  6
CONTINUOUS
 62
           7
100
AcDbLine
 10
11914.954276662809
 20
-3683.770324220034
 11
11932.954276662809
 21
-3683.770324220034
  0
LINE
  5
151
100
AcDbEntity
  8
1
  6
CONTINUOUS
 62
           7
100
AcDbLine
 10
11914.954276662809
 20
-3868.770324220034
 11
11914.954276662809
 21
-3683.770324220034
  0
LINE
  5
150
100
AcDbEntity
  8
1
  6
CONTINUOUS
 62
           7
100
AcDbLine
 10
11932.954276662809
 20
-3868.770324220034
 11
11914.954276662809
 21
-3868.770324220034
  0
LINE
  5
14F
100
AcDbEntity
  8
1
  6
CONTINUOUS
 62
           7
100
AcDbLine
 10
11932.954276662809
 20
-3683.770324220034
 11
11932.954276662809
 21
-3868.770324220034
  0
LINE
  5
14E
100
AcDbEntity
  8
1
  6
CONTINUOUS
 62
           7
100
AcDbLine
 10
10432.954276662809
 20
-3820.820324220034
 11
10510.44821225948
 21
-3820.820324220035
  0
LINE
  5
14D
100
AcDbEntity
  8
1
  6
CONTINUOUS
 62
           7
100
AcDbLine
 10
10432.954276662809
 20
-3731.720324220034
 11
10510.44821225948
 21
-3731.720324220034
  0
LINE
  5
14C
100
AcDbEntity
  8
1
  6
CONTINUOUS
 62
           7
100
AcDbLine
 10
10414.95427666282
 20
-3868.770324220034
 11
10414.95427666282
 21
-3683.770324220034
  0
LINE
  5
14B
100
AcDbEntity
  8
1
  6
CONTINUOUS
 62
           7
100
AcDbLine
 10
10432.954276662809
 20
-3868.770324220034
 11
10414.95427666282
 21
-3868.770324220034
  0
LINE
  5
14A
100
AcDbEntity
  8
1
  6
CONTINUOUS
 62
           7
100
AcDbLine
 10
10432.954276662809
 20
-3683.770324220034
 11
10432.954276662809
 21
-3868.770324220034
  0
LINE
  5
149
100
AcDbEntity
  8
1
  6
CONTINUOUS
 62
           7
100
AcDbLine
 10
10414.95427666282
 20
-3683.770324220034
 11
10432.954276662809
 21
-3683.770324220034
  0
LINE
  5
148
100
AcDbEntity
  8
1
  6
DOT_CENTER
 62
           2
100
AcDbLine
 10
10339.684933086601
 20
-3776.270324220034
 11
10766.52886883684
 21
-3776.270324220034
  0
LINE
  5
147
100
AcDbEntity
  8
1
  6
CONTINUOUS
 62
           2
100
AcDbLine
 10
10414.95427666282
 20
-3764.770324220034
 11
10403.455549804399
 21
-3764.770324220034
  0
LINE
  5
146
100
AcDbEntity
  8
1
  6
DOT_CENTER
 62
           2
100
AcDbLine
 10
10403.455549804399
 20
-3798.710767704347
 11
10403.455549804399
 21
-3750.596130941282
  0
LINE
  5
145
100
AcDbEntity
  8
1
  6
CONTINUOUS
 62
           2
100
AcDbLine
 10
10397.455549804399
 20
-3782.270324220034
 11
10397.455549804399
 21
-3770.270324220034
  0
LINE
  5
144
100
AcDbEntity
  8
1
  6
CONTINUOUS
 62
           2
100
AcDbLine
 10
10409.455549804399
 20
-3782.270324220034
 11
10397.455549804399
 21
-3782.270324220034
  0
LINE
  5
143
100
AcDbEntity
  8
1
  6
CONTINUOUS
 62
           2
100
AcDbLine
 10
10409.455549804399
 20
-3770.270324220034
 11
10409.455549804399
 21
-3782.270324220034
  0
LINE
  5
142
100
AcDbEntity
  8
1
  6
CONTINUOUS
 62
           2
100
AcDbLine
 10
10397.455549804399
 20
-3770.270324220034
 11
10409.455549804399
 21
-3770.270324220034
  0
LINE
  5
141
100
AcDbEntity
  8
1
  6
CONTINUOUS
 62
           2
100
AcDbLine
 10
10409.455549804399
 20
-3770.270324220034
 11
10397.455549804399
 21
-3782.270324220034
  0
LINE
  5
140
100
AcDbEntity
  8
1
  6
CONTINUOUS
 62
           2
100
AcDbLine
 10
10397.455549804399
 20
-3770.270324220034
 11
10409.455549804399
 21
-3782.270324220034
  0
LINE
  5
13F
100
AcDbEntity
  8
1
  6
DOT_CENTER
 62
           2
100
AcDbLine
 10
10403.455549804399
 20
-3787.100624220034
 11
10403.455549804399
 21
-3765.440024220035
  0
LINE
  5
13E
100
AcDbEntity
  8
1
  6
DOT_CENTER
 62
           2
100
AcDbLine
 10
10392.62524980439
 20
-3776.270324220034
 11
10414.28584980439
 21
-3776.270324220034
  0
LINE
  5
13D
100
AcDbEntity
  8
1
  6
CONTINUOUS
 62
           2
100
AcDbLine
 10
10364.455549804399
 20
-3788.270324220035
 11
10364.455549804399
 21
-3757.270324220035
  0
LINE
  5
13C
100
AcDbEntity
  8
1
  6
CONTINUOUS
 62
           2
100
AcDbLine
 10
10414.95427666282
 20
-3790.270324220035
 11
10366.455549804399
 21
-3790.270324220035
  0
LINE
  5
13B
100
AcDbEntity
  8
1
  6
CONTINUOUS
 62
           2
100
AcDbLine
 10
10392.143852141309
 20
-3776.270324220034
 11
10364.455549804399
 21
-3776.270324220034
  0
LINE
  5
13A
100
AcDbEntity
  8
1
  6
CONTINUOUS
 62
           2
100
AcDbLine
 10
11140.80427666281
 20
-3093.982010333774
 11
11207.104276662811
 21
-3093.982010333774
  0
LINE
  5
139
100
AcDbEntity
  8
1
  6
CONTINUOUS
 62
           2
100
AcDbLine
 10
11207.104276662811
 20
-3093.982010333774
 11
11207.104276662811
 21
-3109.093378050579
  0
LINE
  5
138
100
AcDbEntity
  8
1
  6
CONTINUOUS
 62
           2
100
AcDbLine
 10
11140.80427666281
 20
-3093.982010333774
 11
11140.80427666281
 21
-3109.093378050578
  0
LINE
  5
137
100
AcDbEntity
  8
1
  6
CONTINUOUS
 62
           2
100
AcDbLine
 10
11140.80427666281
 20
-3093.982010333774
 11
11207.104276662811
 21
-3093.982010333774
  0
LINE
  5
136
100
AcDbEntity
  8
1
  6
CONTINUOUS
 62
           2
100
AcDbLine
 10
11204.20427666282
 20
-3082.862010333775
 11
11143.70427666282
 21
-3082.862010333775
  0
LINE
  5
135
100
AcDbEntity
  8
1
  6
CONTINUOUS
 62
           2
100
AcDbLine
 10
11143.70427666282
 20
-3078.862010333775
 11
11204.20427666282
 21
-3078.862010333775
  0
LINE
  5
134
100
AcDbEntity
  8
1
  6
CONTINUOUS
 62
           2
100
AcDbLine
 10
11204.20427666282
 20
-3082.862010333775
 11
11204.20427666282
 21
-3078.862010333775
  0
LINE
  5
133
100
AcDbEntity
  8
1
  6
CONTINUOUS
 62
           2
100
AcDbLine
 10
11143.70427666282
 20
-3078.862010333775
 11
11143.70427666282
 21
-3082.862010333775
  0
LINE
  5
132
100
AcDbEntity
  8
1
  6
CONTINUOUS
 62
           2
100
AcDbLine
 10
11203.76127666281
 20
-3093.982010333774
 11
11204.20427666282
 21
-3082.862010333775
  0
LINE
  5
131
100
AcDbEntity
  8
1
  6
CONTINUOUS
 62
           2
100
AcDbLine
 10
11144.14727666281
 20
-3093.982010333774
 11
11143.70427666282
 21
-3082.862010333775
  0
LINE
  5
130
100
AcDbEntity
  8
1
  6
CONTINUOUS
 62
           2
100
AcDbLine
 10
11203.76127666281
 20
-3067.742010333775
 11
11204.20427666282
 21
-3078.862010333775
  0
LINE
  5
12F
100
AcDbEntity
  8
1
  6
CONTINUOUS
 62
           2
100
AcDbLine
 10
11143.70427666282
 20
-3078.862010333775
 11
11144.14727666281
 21
-3067.742010333775
  0
LINE
  5
12E
100
AcDbEntity
  8
1
  6
CONTINUOUS
 62
           2
100
AcDbLine
 10
11139.452732130239
 20
-3057.357186799034
 11
11139.452732130239
 21
-3048.246692838572
  0
LINE
  5
12D
100
AcDbEntity
  8
1
  6
CONTINUOUS
 62
           2
100
AcDbLine
 10
11173.95427666282
 20
-3067.742010333775
 11
11209.955821195381
 21
-3067.742010333775
  0
LINE
  5
12C
100
AcDbEntity
  8
1
  6
CONTINUOUS
 62
           2
100
AcDbLine
 10
11209.955821195381
 20
-3067.742010333775
 11
11209.955821195381
 21
-3062.742010333775
  0
LINE
  5
12B
100
AcDbEntity
  8
1
  6
CONTINUOUS
 62
           2
100
AcDbLine
 10
11137.952732130239
 20
-3067.742010333775
 11
11137.952732130239
 21
-3062.742010333775
  0
LINE
  5
12A
100
AcDbEntity
  8
1
  6
CONTINUOUS
 62
           2
100
AcDbLine
 10
11139.452732130239
 20
-3062.742010333775
 11
11208.455821195381
 21
-3062.742010333775
  0
LINE
  5
129
100
AcDbEntity
  8
1
  6
CONTINUOUS
 62
           2
100
AcDbLine
 10
11137.952732130239
 20
-3062.742010333775
 11
11139.452732130239
 21
-3062.742010333775
  0
LINE
  5
128
100
AcDbEntity
  8
1
  6
CONTINUOUS
 62
           2
100
AcDbLine
 10
11209.955821195381
 20
-3062.742010333775
 11
11208.455821195381
 21
-3062.742010333775
  0
LINE
  5
127
100
AcDbEntity
  8
1
  6
CONTINUOUS
 62
           2
100
AcDbLine
 10
11137.952732130239
 20
-3067.742010333775
 11
11173.95427666282
 21
-3067.742010333775
  0
LINE
  5
126
100
AcDbEntity
  8
1
  6
CONTINUOUS
 62
           2
100
AcDbLine
 10
11208.455821195381
 20
-3057.357186799034
 11
11208.455821195381
 21
-3050.246692838572
  0
LINE
  5
125
100
AcDbEntity
  8
1
  6
CONTINUOUS
 62
           2
100
AcDbLine
 10
11208.455821195381
 20
-3022.722718380257
 11
11208.455821195381
 21
-3057.357186799034
  0
LINE
  5
124
100
AcDbEntity
  8
1
  6
CONTINUOUS
 62
           2
100
AcDbLine
 10
11139.452732130239
 20
-3057.357186799034
 11
11139.452732130239
 21
-3023.167817693794
  0
LINE
  5
123
100
AcDbEntity
  8
1
  6
DOT_CENTER
 62
           2
100
AcDbLine
 10
11126.40950838479
 20
-3019.782010333775
 11
11250.844400125179
 21
-3019.782010333775
  0
LINE
  5
122
100
AcDbEntity
  8
1
  6
CONTINUOUS
 62
           2
100
AcDbLine
 10
11173.95427666282
 20
-2987.640095898765
 11
11186.761832019771
 21
-2995.034541431769
  0
LINE
  5
121
100
AcDbEntity
  8
1
  6
CONTINUOUS
 62
           2
100
AcDbLine
 10
11161.146721305849
 20
-2995.034541431769
 11
11173.95427666282
 21
-2987.640095898765
  0
LINE
  5
120
100
AcDbEntity
  8
1
  6
CONTINUOUS
 62
           2
100
AcDbLine
 10
10403.455549804399
 20
-3787.770324220034
 11
10414.95427666282
 21
-3787.770324220034
  0
LINE
  5
11F
100
AcDbEntity
  8
1
  6
CONTINUOUS
 62
           2
100
AcDbLine
 10
10366.455549804399
 20
-3755.270324220035
 11
10414.95427666282
 21
-3755.270324220035
  0
LINE
  5
11E
100
AcDbEntity
  8
1
  6
DOT_CENTER
 62
           2
100
AcDbLine
 10
11671.473760889559
 20
-4274.259879444195
 11
10672.9165171437
 21
-3275.702635698334
  0
LINE
  5
11D
100
AcDbEntity
  8
1
  6
DOT_CENTER
 62
           2
100
AcDbLine
 10
10685.1565303021
 20
-4265.068070580746
 11
11668.92033339987
 21
-3281.304267482978
  0
LINE
  5
11C
100
AcDbEntity
  8
1
  6
DOT_CENTER
 62
           2
100
AcDbLine
 10
11173.954276662809
 20
-2954.020495353599
 11
11173.95427666282
 21
-4480.474693857752
  0
LINE
  5
11B
100
AcDbEntity
  8
1
  6
CONTINUOUS
 62
           2
100
AcDbLine
 10
11228.95427666282
 20
-2991.423255341745
 11
11228.95427666282
 21
-3048.782010333775
  0
LINE
  5
11A
100
AcDbEntity
  8
1
  6
CONTINUOUS
 62
           2
100
AcDbLine
 10
11228.95427666282
 20
-2990.782010333775
 11
11228.95427666282
 21
-2991.282010333775
  0
LINE
  5
119
100
AcDbEntity
  8
1
  6
CONTINUOUS
 62
           2
100
AcDbLine
 10
11233.95427666282
 20
-2990.782010333775
 11
11228.95427666282
 21
-2990.782010333775
  0
LINE
  5
118
100
AcDbEntity
  8
1
  6
CONTINUOUS
 62
           2
100
AcDbLine
 10
11233.95427666282
 20
-3048.782010333775
 11
11233.95427666282
 21
-2990.782010333775
  0
LINE
  5
117
100
AcDbEntity
  8
1
  6
CONTINUOUS
 62
           2
100
AcDbLine
 10
11228.95427666282
 20
-3048.782010333775
 11
11233.95427666282
 21
-3048.782010333775
  0
LINE
  5
116
100
AcDbEntity
  8
1
  6
CONTINUOUS
 62
           2
100
AcDbLine
 10
11228.95427666282
 20
-3048.782010333775
 11
11228.95427666282
 21
-3048.282010333775
  0
LINE
  5
115
100
AcDbEntity
  8
1
  6
CONTINUOUS
 62
           2
100
AcDbLine
 10
11218.854165304099
 20
-3047.282010333775
 11
11227.95427666282
 21
-3047.282010333775
  0
LINE
  5
114
100
AcDbEntity
  8
1
  6
CONTINUOUS
 62
           2
100
AcDbLine
 10
11227.95427666282
 20
-2992.282010333775
 11
11218.854165304099
 21
-2992.282010333775
  0
LINE
  5
113
100
AcDbEntity
  8
1
  6
CONTINUOUS
 62
           7
100
AcDbLine
 10
10514.954276662809
 20
-1942.799741322022
 11
11832.954276662809
 21
-1942.799741322022
  0
LINE
  5
112
100
AcDbEntity
  8
1
  6
CONTINUOUS
 62
           7
100
AcDbLine
 10
10514.954276662809
 20
-1942.799741322022
 11
10514.954276662809
 21
-1965.501333107106
  0
LINE
  5
111
100
AcDbEntity
  8
1
  6
CONTINUOUS
 62
           7
100
AcDbLine
 10
11832.954276662809
 20
-1942.799741322022
 11
11832.954276662809
 21
-1028.799741322022
  0
LINE
  5
110
100
AcDbEntity
  8
1
  6
CONTINUOUS
 62
           7
100
AcDbLine
 10
11832.954276662809
 20
-1965.501333107106
 11
11832.954276662809
 21
-1942.799741322022
  0
LINE
  5
10F
100
AcDbEntity
  8
1
  6
CONTINUOUS
 62
           7
100
AcDbLine
 10
10548.954276662809
 20
-2511.799741322022
 11
11798.954276662809
 21
-2511.799741322022
  0
LINE
  5
10E
100
AcDbEntity
  8
1
  6
CONTINUOUS
 62
           7
100
AcDbLine
 10
11798.954276662809
 20
-2511.799741322022
 11
11798.954276662809
 21
-2523.799741322022
  0
LINE
  5
10D
100
AcDbEntity
  8
1
  6
CONTINUOUS
 62
           7
100
AcDbLine
 10
11798.954276662809
 20
-2523.799741322022
 11
10548.954276662809
 21
-2523.799741322022
  0
LINE
  5
10C
100
AcDbEntity
  8
1
  6
CONTINUOUS
 62
           7
100
AcDbLine
 10
10548.954276662809
 20
-2523.799741322022
 11
10548.954276662809
 21
-2511.799741322022
  0
LINE
  5
10B
100
AcDbEntity
  8
1
  6
CONTINUOUS
 62
           7
100
AcDbLine
 10
10723.954276662809
 20
-2144.019412495567
 11
11623.954276662809
 21
-2144.019412495567
  0
LINE
  5
10A
100
AcDbEntity
  8
1
  6
CONTINUOUS
 62
           7
100
AcDbLine
 10
10414.954276662809
 20
-1618.799741322022
 11
10432.954276662809
 21
-1618.799741322022
  0
LINE
  5
109
100
AcDbEntity
  8
1
  6
CONTINUOUS
 62
           7
100
AcDbLine
 10
10432.954276662809
 20
-1618.799741322022
 11
10432.954276662809
 21
-1828.799741322022
  0
LINE
  5
108
100
AcDbEntity
  8
1
  6
CONTINUOUS
 62
           7
100
AcDbLine
 10
10432.954276662809
 20
-1828.799741322022
 11
10414.954276662809
 21
-1828.799741322022
  0
LINE
  5
107
100
AcDbEntity
  8
1
  6
CONTINUOUS
 62
           7
100
AcDbLine
 10
10414.954276662809
 20
-1828.799741322022
 11
10414.954276662809
 21
-1618.799741322022
  0
LINE
  5
106
100
AcDbEntity
  8
1
  6
CONTINUOUS
 62
           7
100
AcDbLine
 10
10514.954276662809
 20
-1618.799741322022
 11
10508.954276662809
 21
-1618.799741322022
  0
LINE
  5
105
100
AcDbEntity
  8
1
  6
CONTINUOUS
 62
           7
100
AcDbLine
 10
10508.954276662809
 20
-1666.649741322022
 11
10432.954276662809
 21
-1666.649741322022
  0
LINE
  5
104
100
AcDbEntity
  8
1
  6
CONTINUOUS
 62
           7
100
AcDbLine
 10
10508.954276662809
 20
-1780.949741322022
 11
10432.954276662809
 21
-1780.949741322022
  0
LINE
  5
103
100
AcDbEntity
  8
1
  6
CONTINUOUS
 62
           7
100
AcDbLine
 10
10514.954276662809
 20
-1828.799741322022
 11
10508.954276662809
 21
-1828.799741322022
  0
LINE
  5
102
100
AcDbEntity
  8
1
  6
CONTINUOUS
 62
           7
100
AcDbLine
 10
10508.954276662809
 20
-1618.799741322022
 11
10508.954276662809
 21
-1666.649741322022
  0
LINE
  5
101
100
AcDbEntity
  8
1
  6
CONTINUOUS
 62
           7
100
AcDbLine
 10
10508.954276662809
 20
-1828.799741322022
 11
10508.954276662809
 21
-1780.949741322022
  0
LINE
  5
100
100
AcDbEntity
  8
1
  6
CONTINUOUS
 62
           7
100
AcDbLine
 10
10514.954276662809
 20
-1942.799741322022
 11
10514.954276662809
 21
-1828.799741322022
  0
LINE
  5
FF
100
AcDbEntity
  8
1
  6
DOT_CENTER
 62
           2
100
AcDbLine
 10
9987.751992924001
 20
-1659.821164714444
 11
9970.760363007012
 21
-1618.799741322022
  0
LINE
  5
FE
100
AcDbEntity
  8
1
  6
DOT_CENTER
 62
           2
100
AcDbLine
 10
9951.793370548156
 20
-1697.928203906485
 11
9908.837631968341
 21
-1680.135354404973
  0
LINE
  5
FD
100
AcDbEntity
  8
1
  6
DOT_CENTER
 62
           2
100
AcDbLine
 10
10057.745211105361
 20
-1618.799741322022
 11
10040.75358118837
 21
-1659.821164714444
  0
LINE
  5
FC
100
AcDbEntity
  8
1
  6
DOT_CENTER
 62
           2
100
AcDbLine
 10
10119.66794214404
 20
-1680.135354404973
 11
10076.712203564221
 21
-1697.928203906485
  0
LINE
  5
FB
100
AcDbEntity
  8
1
  6
DOT_CENTER
 62
           2
100
AcDbLine
 10
10076.712203564221
 20
-1749.671278737559
 11
10119.66794214404
 21
-1767.464128239071
  0
LINE
  5
FA
100
AcDbEntity
  8
1
  6
DOT_CENTER
 62
           2
100
AcDbLine
 10
10040.75358118837
 20
-1787.7783179296
 11
10057.745211105361
 21
-1828.799741322022
  0
LINE
  5
F9
100
AcDbEntity
  8
1
  6
DOT_CENTER
 62
           2
100
AcDbLine
 10
9970.760363007012
 20
-1828.799741322022
 11
9987.751992924001
 21
-1787.7783179296
  0
LINE
  5
F8
100
AcDbEntity
  8
1
  6
DOT_CENTER
 62
           2
100
AcDbLine
 10
9908.837631968341
 20
-1767.464128239071
 11
9951.793370548156
 21
-1749.671278737559
  0
LINE
  5
F7
100
AcDbEntity
  8
1
  6
CONTINUOUS
 62
           7
100
AcDbLine
 10
11838.954276662809
 20
-980.949741322022
 11
11838.954276662809
 21
-1028.799741322022
  0
LINE
  5
F6
100
AcDbEntity
  8
1
  6
CONTINUOUS
 62
           7
100
AcDbLine
 10
11838.954276662809
 20
-866.649741322022
 11
11838.954276662809
 21
-818.799741322023
  0
LINE
  5
F5
100
AcDbEntity
  8
1
  6
CONTINUOUS
 62
           7
100
AcDbLine
 10
11838.954276662809
 20
-1028.799741322022
 11
11832.954276662809
 21
-1028.799741322022
  0
LINE
  5
F4
100
AcDbEntity
  8
1
  6
CONTINUOUS
 62
           7
100
AcDbLine
 10
11914.954276662809
 20
-980.949741322022
 11
11838.954276662809
 21
-980.949741322022
  0
LINE
  5
F3
100
AcDbEntity
  8
1
  6
CONTINUOUS
 62
           7
100
AcDbLine
 10
11914.954276662809
 20
-866.649741322022
 11
11838.954276662809
 21
-866.649741322022
  0
LINE
  5
F2
100
AcDbEntity
  8
1
  6
CONTINUOUS
 62
           7
100
AcDbLine
 10
11838.954276662809
 20
-818.799741322023
 11
11832.954276662809
 21
-818.799741322023
  0
LINE
  5
F1
100
AcDbEntity
  8
1
  6
CONTINUOUS
 62
           7
100
AcDbLine
 10
11932.954276662809
 20
-818.799741322023
 11
11932.954276662809
 21
-1028.799741322022
  0
LINE
  5
F0
100
AcDbEntity
  8
1
  6
CONTINUOUS
 62
           7
100
AcDbLine
 10
11932.954276662809
 20
-1028.799741322022
 11
11914.954276662809
 21
-1028.799741322022
  0
LINE
  5
EF
100
AcDbEntity
  8
1
  6
CONTINUOUS
 62
           7
100
AcDbLine
 10
11914.954276662809
 20
-1028.799741322022
 11
11914.954276662809
 21
-818.799741322023
  0
LINE
  5
EE
100
AcDbEntity
  8
1
  6
CONTINUOUS
 62
           7
100
AcDbLine
 10
11914.954276662809
 20
-818.799741322023
 11
11932.954276662809
 21
-818.799741322023
  0
LINE
  5
ED
100
AcDbEntity
  8
1
  6
CONTINUOUS
 62
           7
100
AcDbLine
 10
11832.954276662809
 20
-47.799741322023
 11
10514.954276662809
 21
-47.799741322023
  0
LINE
  5
EC
100
AcDbEntity
  8
1
  6
CONTINUOUS
 62
           7
100
AcDbLine
 10
11832.954276662809
 20
-27.70623404321
 11
11832.954276662809
 21
-529.249741322022
  0
LINE
  5
EB
100
AcDbEntity
  8
1
  6
CONTINUOUS
 62
           7
100
AcDbLine
 10
10514.954276662809
 20
-27.70623404321
 11
10514.954276662809
 21
-1618.799741322022
  0
LINE
  5
EA
100
AcDbEntity
  8
1
  6
CONTINUOUS
 62
           7
100
AcDbLine
 10
11832.954276662809
 20
-818.799741322023
 11
11832.954276662809
 21
-529.249741322022
  0
LINE
  5
E9
100
AcDbEntity
  8
1
  6
DOT_CENTER
 62
           2
100
AcDbLine
 10
10551.26379706572
 20
-923.799741322023
 11
11981.20916257924
 21
-923.799741322023
  0
LINE
  5
E8
100
AcDbEntity
  8
1
  6
DOT_CENTER
 62
           2
100
AcDbLine
 10
10828.969788593869
 20
-1542.799741322021
 11
11528.4757855689
 21
-1542.799741322021
  0
LINE
  5
E7
100
AcDbEntity
  8
1
  6
DOT_CENTER
 62
           2
100
AcDbLine
 10
11173.954276662809
 20
353.253062161692
 11
11173.95427666282
 21
-2635.054792082328
  0
LINE
  5
E6
100
AcDbEntity
  8
1
  6
CONTINUOUS
 62
           7
100
AcDbLine
 10
11610.375084032839
 20
-2307.293198492777
 11
11610.375084032839
 21
-2511.799741322022
  0
LINE
  5
E5
100
AcDbEntity
  8
1
  6
CONTINUOUS
 62
           7
100
AcDbLine
 10
11623.954276662809
 20
-2207.293198492777
 11
11623.954276662809
 21
-2144.019412495567
  0
LINE
  5
E4
100
AcDbEntity
  8
1
  6
CONTINUOUS
 62
           7
100
AcDbLine
 10
10723.954276662809
 20
-2144.019412495567
 11
10723.954276662809
 21
-2207.293198492777
  0
LINE
  5
E3
100
AcDbEntity
  8
1
  6
CONTINUOUS
 62
           7
100
AcDbLine
 10
10737.53346929279
 20
-2511.799741322022
 11
10737.53346929279
 21
-2307.293198492777
  0
LINE
  5
E2
100
AcDbEntity
  8
1
  6
CONTINUOUS
 62
           7
100
AcDbLine
 10
13713.841307005139
 20
-2144.019412495567
 11
14613.84130700515
 21
-2144.019412495567
  0
LINE
  5
E1
100
AcDbEntity
  8
1
  6
CONTINUOUS
 62
           7
100
AcDbLine
 10
13538.841307005139
 20
-2523.799741322022
 11
13538.841307005139
 21
-2511.799741322022
  0
LINE
  5
E0
100
AcDbEntity
  8
1
  6
CONTINUOUS
 62
           7
100
AcDbLine
 10
14788.84130700515
 20
-2523.799741322022
 11
13538.841307005139
 21
-2523.799741322022
  0
LINE
  5
DF
100
AcDbEntity
  8
1
  6
CONTINUOUS
 62
           7
100
AcDbLine
 10
14788.84130700515
 20
-2511.799741322022
 11
14788.84130700515
 21
-2523.799741322022
  0
LINE
  5
DE
100
AcDbEntity
  8
1
  6
CONTINUOUS
 62
           7
100
AcDbLine
 10
13538.841307005139
 20
-2511.799741322022
 11
14788.84130700515
 21
-2511.799741322022
  0
LINE
  5
DD
100
AcDbEntity
  8
1
  6
CONTINUOUS
 62
           7
100
AcDbLine
 10
14600.262114375169
 20
-2307.293198492777
 11
14600.262114375169
 21
-2511.799741322022
  0
LINE
  5
DC
100
AcDbEntity
  8
1
  6
CONTINUOUS
 62
           7
100
AcDbLine
 10
14600.262114375169
 20
-2307.293198492777
 11
14600.262114375169
 21
-2511.799741322022
  0
LINE
  5
DB
100
AcDbEntity
  8
1
  6
CONTINUOUS
 62
           7
100
AcDbLine
 10
14613.84130700515
 20
-2207.293198492777
 11
14613.84130700515
 21
-2144.019412495567
  0
LINE
  5
DA
100
AcDbEntity
  8
1
  6
CONTINUOUS
 62
           7
100
AcDbLine
 10
13727.42049963512
 20
-2511.799741322022
 11
13727.42049963512
 21
-2307.293198492777
  0
LINE
  5
D9
100
AcDbEntity
  8
1
  6
CONTINUOUS
 62
           7
100
AcDbLine
 10
13727.42049963512
 20
-2511.799741322022
 11
13727.42049963512
 21
-2307.293198492777
  0
LINE
  5
D8
100
AcDbEntity
  8
1
  6
CONTINUOUS
 62
           7
100
AcDbLine
 10
13713.841307005139
 20
-2144.019412495567
 11
13713.841307005139
 21
-2207.293198492777
  0
LINE
  5
D7
100
AcDbEntity
  8
1
  6
CONTINUOUS
 62
           7
100
AcDbLine
 10
13504.841307005139
 20
-1942.799741322022
 11
13504.841307005139
 21
-1965.501333107106
  0
LINE
  5
D6
100
AcDbEntity
  8
1
  6
CONTINUOUS
 62
           7
100
AcDbLine
 10
13504.841307005139
 20
-1942.799741322022
 11
14822.84130700515
 21
-1942.799741322022
  0
LINE
  5
D5
100
AcDbEntity
  8
1
  6
CONTINUOUS
 62
           7
100
AcDbLine
 10
14063.84130700515
 20
-2314.799741322023
 11
14063.84130700515
 21
-2511.799741322022
  0
LINE
  5
D4
100
AcDbEntity
  8
1
  6
CONTINUOUS
 62
           7
100
AcDbLine
 10
14263.84130700515
 20
-2314.799741322023
 11
14263.84130700515
 21
-2511.799741322022
  0
LINE
  5
D3
100
AcDbEntity
  8
1
  6
CONTINUOUS
 62
           7
100
AcDbLine
 10
14822.84130700515
 20
-1965.501333107106
 11
14822.84130700515
 21
-1942.799741322022
  0
LINE
  5
D2
100
AcDbEntity
  8
1
  6
CONTINUOUS
 62
           7
100
AcDbLine
 10
14822.84130700515
 20
-47.799741322023
 11
13504.841307005139
 21
-47.799741322023
  0
LINE
  5
D1
100
AcDbEntity
  8
1
  6
CONTINUOUS
 62
           7
100
AcDbLine
 10
13504.841307005139
 20
-27.70623404321
 11
13504.841307005139
 21
-1242.799741322021
  0
LINE
  5
D0
100
AcDbEntity
  8
1
  6
CONTINUOUS
 62
           7
100
AcDbLine
 10
14822.84130700515
 20
-1942.799741322022
 11
14822.84130700515
 21
-27.70623404321
  0
LINE
  5
CF
100
AcDbEntity
  8
1
  6
DOT_CENTER
 62
           2
100
AcDbLine
 10
14163.84130700515
 20
359.27010868165
 11
14163.84130700515
 21
-2722.149193876762
  0
LINE
  5
CE
100
AcDbEntity
  8
1
  6
CONTINUOUS
 62
           7
100
AcDbLine
 10
13504.841307005139
 20
-1842.799741322021
 11
13504.841307005139
 21
-1942.799741322022
  0
LINE
  5
CD
100
AcDbEntity
  8
1
  6
DOT_CENTER
 62
           2
100
AcDbLine
 10
14058.4261519173
 20
-967.46412823907
 11
14101.38189049711
 21
-949.671278737559
  0
LINE
  5
CC
100
AcDbEntity
  8
1
  6
DOT_CENTER
 62
           2
100
AcDbLine
 10
14120.34888295597
 20
-1028.799741322022
 11
14137.340512872959
 21
-987.778317929599
  0
LINE
  5
CB
100
AcDbEntity
  8
1
  6
DOT_CENTER
 62
           2
100
AcDbLine
 10
14190.34210113733
 20
-987.778317929599
 11
14207.333731054319
 21
-1028.799741322022
  0
LINE
  5
CA
100
AcDbEntity
  8
1
  6
DOT_CENTER
 62
           2
100
AcDbLine
 10
14226.300723513181
 20
-949.671278737559
 11
14269.25646209299
 21
-967.46412823907
  0
LINE
  5
C9
100
AcDbEntity
  8
1
  6
DOT_CENTER
 62
           2
100
AcDbLine
 10
14269.25646209299
 20
-880.135354404973
 11
14226.300723513181
 21
-897.928203906485
  0
LINE
  5
C8
100
AcDbEntity
  8
1
  6
DOT_CENTER
 62
           2
100
AcDbLine
 10
14207.333731054319
 20
-818.799741322023
 11
14190.34210113733
 21
-859.821164714444
  0
LINE
  5
C7
100
AcDbEntity
  8
1
  6
DOT_CENTER
 62
           2
100
AcDbLine
 10
14101.38189049711
 20
-897.928203906485
 11
14058.4261519173
 21
-880.135354404973
  0
LINE
  5
C6
100
AcDbEntity
  8
1
  6
DOT_CENTER
 62
           2
100
AcDbLine
 10
14137.340512872959
 20
-859.821164714444
 11
14120.34888295597
 21
-818.799741322023
  0
LINE
  5
C5
100
AcDbEntity
  8
1
  6
DOT_CENTER
 62
           2
100
AcDbLine
 10
14163.841307005139
 20
-789.20107524036
 11
14163.841307005139
 21
-1061.370544455447
  0
LINE
  5
C4
100
AcDbEntity
  8
1
  6
DOT_CENTER
 62
           2
100
AcDbLine
 10
13508.03587170673
 20
-923.799741322023
 11
14452.95899895643
 21
-923.799741322023
  0
LINE
  5
C3
100
AcDbEntity
  8
976
  6
CONTINUOUS
 62
           7
100
AcDbLine
 10
10515.41897009224
 20
-3683.770324220034
 11
10521.47841504033
 21
-3683.770324220034
  0
LINE
  5
C2
100
AcDbEntity
  8
976
  6
CONTINUOUS
 62
           7
100
AcDbLine
 10
10515.41897009224
 20
-3868.770324220034
 11
10521.47841504033
 21
-3868.770324220034
  0
LINE
  5
C1
100
AcDbEntity
  8
976
  6
CONTINUOUS
 62
           7
100
AcDbLine
 10
11826.43013828529
 20
-3868.770324220034
 11
11832.48958323339
 21
-3868.770324220034
  0
LINE
  5
C0
100
AcDbEntity
  8
976
  6
CONTINUOUS
 62
           7
100
AcDbLine
 10
11826.43013828529
 20
-3683.770324220034
 11
11832.48958323339
 21
-3683.770324220034
  0
LINE
  5
BF
100
AcDbEntity
  8
1
  6
CONTINUOUS
 62
           7
100
AcDbLine
 10
11837.460341066149
 20
-3731.720324220034
 11
11914.954276662809
 21
-3731.720324220034
  0
LINE
  5
BE
100
AcDbEntity
  8
1
  6
CONTINUOUS
 62
           7
100
AcDbLine
 10
11837.46034106614
 20
-3820.820324220034
 11
11914.954276662809
 21
-3820.820324220034
  0
LINE
  5
BD
100
AcDbEntity
  8
976
  6
CONTINUOUS
 62
           7
100
AcDbLine
 10
11456.95426568758
 20
-3171.179416825138
 11
11456.95426568758
 21
-3181.129999412528
  0
LINE
  5
BC
100
AcDbEntity
  8
976
  6
CONTINUOUS
 62
           7
100
AcDbLine
 10
10890.954287638049
 20
-3171.17941682513
 11
10890.954287638049
 21
-3181.129999412529
  0
LINE
  5
BB
100
AcDbEntity
  8
976
  6
CONTINUOUS
 62
           7
100
AcDbLine
 10
11442.58219139808
 20
208.066862768995
 11
11441.73922575594
 21
205.888738884544
  0
LINE
  5
BA
100
AcDbEntity
  8
976
  6
CONTINUOUS
 62
           7
100
AcDbLine
 10
11485.75876758179
 20
197.900128627107
 11
11485.541292386661
 21
195.574721293036
  0
LINE
  5
B9
100
AcDbEntity
  8
976
  6
CONTINUOUS
 62
           7
100
AcDbLine
 10
11468.224266889751
 20
220.199315257999
 11
11450.637892868241
 21
222.52691162982
  0
LINE
  5
B8
100
AcDbEntity
  8
976
  6
CONTINUOUS
 62
           7
100
AcDbLine
 10
11468.224266889751
 20
220.199315257999
 11
11485.001485708501
 21
214.435359602151
  0
LINE
  5
B7
100
AcDbEntity
  8
976
  6
CONTINUOUS
 62
           7
100
AcDbLine
 10
11441.73922575594
 20
205.888738884544
 11
11485.541292386661
 21
195.574721293036
  0
LINE
  5
B6
100
AcDbEntity
  8
976
  6
DOT_CENTER
 62
           2
100
AcDbLine
 10
11423.5213543472
 20
256.40917356736
 11
11527.24481847258
 21
231.985539800019
  0
LINE
  5
B5
100
AcDbEntity
  8
976
  6
DOT_CENTER
 62
           2
100
AcDbLine
 10
11485.358384740501
 20
292.965312125709
 11
11460.796503989581
 21
188.654734052453
  0
LINE
  5
B4
100
AcDbEntity
  8
976
  6
CONTINUOUS
 62
           7
100
AcDbLine
 10
11447.4464869683
 20
220.635629315195
 11
11442.58219139808
 21
208.066862768995
  0
LINE
  5
B3
100
AcDbEntity
  8
976
  6
CONTINUOUS
 62
           7
100
AcDbLine
 10
11487.013698477411
 20
211.318787738007
 11
11485.69053469048
 21
197.170531553799
  0
LINE
  5
B2
100
AcDbEntity
  8
976
  6
CONTINUOUS
 62
           7
100
AcDbLine
 10
11452.95118996366
 20
221.740949917877
 11
11481.544067775711
 21
215.0082209069
  0
LINE
  5
B1
100
AcDbEntity
  8
976
  6
CONTINUOUS
 62
           7
100
AcDbLine
 10
10866.36448554991
 20
215.0082209069
 11
10894.957363361969
 21
221.740949917877
  0
LINE
  5
B0
100
AcDbEntity
  8
976
  6
CONTINUOUS
 62
           7
100
AcDbLine
 10
10862.218018635151
 20
197.170531553799
 11
10860.89485484822
 21
211.318787738007
  0
LINE
  5
AF
100
AcDbEntity
  8
976
  6
CONTINUOUS
 62
           7
100
AcDbLine
 10
10905.32636192754
 20
208.066862768995
 11
10900.462066357321
 21
220.635629315195
  0
LINE
  5
AE
100
AcDbEntity
  8
976
  6
DOT_CENTER
 62
           2
100
AcDbLine
 10
10887.11204933605
 20
188.654734052453
 11
10862.55016858512
 21
292.965312125709
  0
LINE
  5
AD
100
AcDbEntity
  8
976
  6
DOT_CENTER
 62
           2
100
AcDbLine
 10
10820.663734853049
 20
231.985539800019
 11
10924.387198978429
 21
256.40917356736
  0
LINE
  5
AC
100
AcDbEntity
  8
976
  6
CONTINUOUS
 62
           7
100
AcDbLine
 10
10862.36726093896
 20
195.574721293036
 11
10906.16932756968
 21
205.888738884544
  0
LINE
  5
AB
100
AcDbEntity
  8
976
  6
CONTINUOUS
 62
           7
100
AcDbLine
 10
10862.90706761713
 20
214.435359602151
 11
10879.68428643587
 21
220.199315257999
  0
LINE
  5
AA
100
AcDbEntity
  8
976
  6
CONTINUOUS
 62
           7
100
AcDbLine
 10
10897.27066045738
 20
222.52691162982
 11
10879.68428643587
 21
220.199315257999
  0
LINE
  5
A9
100
AcDbEntity
  8
976
  6
CONTINUOUS
 62
           7
100
AcDbLine
 10
10862.36726093896
 20
195.574721293036
 11
10862.149785743841
 21
197.900128627107
  0
LINE
  5
A8
100
AcDbEntity
  8
976
  6
CONTINUOUS
 62
           7
100
AcDbLine
 10
10906.16932756968
 20
205.888738884544
 11
10905.32636192754
 21
208.066862768995
  0
LINE
  5
A7
100
AcDbEntity
  8
976
  6
CONTINUOUS
 62
           7
100
AcDbLine
 10
14173.84130700515
 20
279.483351468088
 11
14173.84130700515
 21
205.35143048036
  0
LINE
  5
A6
100
AcDbEntity
  8
976
  6
CONTINUOUS
 62
           7
100
AcDbLine
 10
14153.84130700515
 20
279.483351468088
 11
14153.84130700515
 21
205.35143048036
  0
LINE
  5
A5
100
AcDbEntity
  8
976
  6
CONTINUOUS
 62
           7
100
AcDbLine
 10
14143.84130700515
 20
217.285287256972
 11
14141.34130700515
 21
200.731643490503
  0
LINE
  5
A4
100
AcDbEntity
  8
976
  6
CONTINUOUS
 62
           7
100
AcDbLine
 10
14183.84130700515
 20
217.28528725948
 11
14186.34130700515
 21
200.731643488231
  0
LINE
  5
A3
100
AcDbEntity
  8
1
  6
DOT_CENTER
 62
           2
100
AcDbLine
 10
10827.021667634701
 20
-1542.79974132202
 11
11522.331636865871
 21
-1542.79974132202
  0
LINE
  5
A2
100
AcDbEntity
  8
1
  6
DOT_CENTER
 62
           2
100
AcDbLine
 10
11273.954276662809
 20
-1323.20415831519
 11
11273.954276662809
 21
-1770.281523732225
  0
LINE
  5
A1
100
AcDbEntity
  8
1
  6
CONTINUOUS
 62
           7
100
AcDbLine
 10
11291.454276662809
 20
-1365.29974132202
 11
11293.95229283104
 21
-1542.518051181175
  0
LINE
  5
A0
100
AcDbEntity
  8
1
  6
CONTINUOUS
 62
           7
100
AcDbLine
 10
11256.45601251562
 20
-1365.053262448781
 11
11253.954276662809
 21
-1542.79974132202
  0
LINE
  5
9F
100
AcDbEntity
  8
1
  6
CONTINUOUS
 62
           7
100
AcDbLine
 10
11282.614530700661
 20
-1527.79974132202
 11
11265.29402262497
 21
-1527.79974132202
  0
LINE
  5
9E
100
AcDbEntity
  8
1
  6
CONTINUOUS
 62
           7
100
AcDbLine
 10
11265.29402262497
 20
-1527.79974132202
 11
11256.63376858712
 21
-1542.79974132202
  0
LINE
  5
9D
100
AcDbEntity
  8
1
  6
CONTINUOUS
 62
           7
100
AcDbLine
 10
11256.63376858712
 20
-1542.79974132202
 11
11265.29402262497
 21
-1557.79974132202
  0
LINE
  5
9C
100
AcDbEntity
  8
1
  6
CONTINUOUS
 62
           7
100
AcDbLine
 10
11265.29402262497
 20
-1557.79974132202
 11
11282.614530700661
 21
-1557.79974132202
  0
LINE
  5
9B
100
AcDbEntity
  8
1
  6
CONTINUOUS
 62
           7
100
AcDbLine
 10
11282.614530700661
 20
-1557.79974132202
 11
11291.2747847385
 21
-1542.79974132202
  0
LINE
  5
9A
100
AcDbEntity
  8
1
  6
CONTINUOUS
 62
           7
100
AcDbLine
 10
11291.2747847385
 20
-1542.79974132202
 11
11282.614530700661
 21
-1527.79974132202
  0
LINE
  5
99
100
AcDbEntity
  8
1
  6
DASH_CENTER
 62
           2
100
AcDbLine
 10
11295.60491175742
 20
-1542.79974132202
 11
11252.3036415682
 21
-1542.79974132202
  0
LINE
  5
98
100
AcDbEntity
  8
1
  6
DASH_CENTER
 62
           2
100
AcDbLine
 10
11273.954276662809
 20
-1521.149106227409
 11
11273.954276662809
 21
-1564.450376416631
  0
LINE
  5
97
100
AcDbEntity
  8
1
  6
CONTINUOUS
 62
           7
100
AcDbLine
 10
11293.95229283104
 20
-1543.081431462865
 11
11291.454276662809
 21
-1720.29974132202
  0
LINE
  5
96
100
AcDbEntity
  8
1
  6
CONTINUOUS
 62
           7
100
AcDbLine
 10
11253.954276662809
 20
-1542.79974132202
 11
11256.45601251562
 21
-1720.54622019526
  0
LINE
  5
95
100
AcDbEntity
  8
1
  6
CONTINUOUS
 62
           7
100
AcDbLine
 10
11091.452540810011
 20
-1720.54622019526
 11
11093.954276662809
 21
-1542.79974132202
  0
LINE
  5
94
100
AcDbEntity
  8
1
  6
CONTINUOUS
 62
           7
100
AcDbLine
 10
11056.454276662809
 20
-1720.29974132202
 11
11053.95626049459
 21
-1543.081431462865
  0
LINE
  5
93
100
AcDbEntity
  8
1
  6
DASH_CENTER
 62
           2
100
AcDbLine
 10
11073.954276662809
 20
-1564.450376416631
 11
11073.954276662809
 21
-1521.149106227409
  0
LINE
  5
92
100
AcDbEntity
  8
1
  6
DASH_CENTER
 62
           2
100
AcDbLine
 10
11095.60491175742
 20
-1542.79974132202
 11
11052.3036415682
 21
-1542.79974132202
  0
LINE
  5
91
100
AcDbEntity
  8
1
  6
CONTINUOUS
 62
           7
100
AcDbLine
 10
11065.29402262497
 20
-1527.79974132202
 11
11056.63376858712
 21
-1542.79974132202
  0
LINE
  5
90
100
AcDbEntity
  8
1
  6
CONTINUOUS
 62
           7
100
AcDbLine
 10
11056.63376858712
 20
-1542.79974132202
 11
11065.29402262497
 21
-1557.79974132202
  0
LINE
  5
8F
100
AcDbEntity
  8
1
  6
CONTINUOUS
 62
           7
100
AcDbLine
 10
11065.29402262497
 20
-1557.79974132202
 11
11082.614530700661
 21
-1557.79974132202
  0
LINE
  5
8E
100
AcDbEntity
  8
1
  6
CONTINUOUS
 62
           7
100
AcDbLine
 10
11082.614530700661
 20
-1557.79974132202
 11
11091.2747847385
 21
-1542.79974132202
  0
LINE
  5
8D
100
AcDbEntity
  8
1
  6
CONTINUOUS
 62
           7
100
AcDbLine
 10
11091.2747847385
 20
-1542.79974132202
 11
11082.614530700661
 21
-1527.79974132202
  0
LINE
  5
8C
100
AcDbEntity
  8
1
  6
CONTINUOUS
 62
           7
100
AcDbLine
 10
11082.614530700661
 20
-1527.79974132202
 11
11065.29402262497
 21
-1527.79974132202
  0
LINE
  5
8B
100
AcDbEntity
  8
1
  6
CONTINUOUS
 62
           7
100
AcDbLine
 10
11093.954276662809
 20
-1542.79974132202
 11
11091.452540810011
 21
-1365.053262448781
  0
LINE
  5
8A
100
AcDbEntity
  8
1
  6
CONTINUOUS
 62
           7
100
AcDbLine
 10
11053.95626049459
 20
-1542.518051181175
 11
11056.454276662809
 21
-1365.29974132202
  0
LINE
  5
89
100
AcDbEntity
  8
1
  6
DOT_CENTER
 62
           2
100
AcDbLine
 10
11073.954276662809
 20
-1770.281523732225
 11
11073.954276662809
 21
-1323.20415831519
  0
LINE
  5
88
100
AcDbEntity
  8
1
  6
CONTINUOUS
 62
           7
100
AcDbLine
 10
13504.96084034765
 20
-1242.79974132202
 11
13498.96084034765
 21
-1242.79974132202
  0
LINE
  5
87
100
AcDbEntity
  8
1
  6
CONTINUOUS
 62
           7
100
AcDbLine
 10
13504.96084034765
 20
-1842.79974132202
 11
13498.96084034765
 21
-1842.79974132202
  0
LINE
  5
86
100
AcDbEntity
  8
1
  6
CONTINUOUS
 62
           7
100
AcDbLine
 10
13498.96084034765
 20
-1242.79974132202
 11
13498.96084034765
 21
-1392.79974132202
  0
LINE
  5
85
100
AcDbEntity
  8
1
  6
CONTINUOUS
 62
           7
100
AcDbLine
 10
13498.96084034765
 20
-1842.79974132202
 11
13498.96084034765
 21
-1692.79974132202
  0
LINE
  5
84
100
AcDbEntity
  8
1
  6
CONTINUOUS
 62
           7
100
AcDbLine
 10
13498.96084034765
 20
-1382.676935875506
 11
13481.46084034765
 21
-1382.676935875506
  0
LINE
  5
83
100
AcDbEntity
  8
1
  6
CONTINUOUS
 62
           7
100
AcDbLine
 10
13498.96084034765
 20
-1702.922546768535
 11
13481.46084034765
 21
-1702.922546768535
  0
LINE
  5
82
100
AcDbEntity
  8
1
  6
CONTINUOUS
 62
           7
100
AcDbLine
 10
13473.96084034765
 20
-1390.176935875506
 11
13473.96084034765
 21
-1695.422546768535
  0
LINE
  5
81
100
AcDbEntity
  8
1
  6
CONTINUOUS
 62
           7
100
AcDbLine
 10
13413.96084034765
 20
-1560.120249397709
 11
13413.96084034765
 21
-1525.479233246331
  0
LINE
  5
80
100
AcDbEntity
  8
1
  6
CONTINUOUS
 62
           7
100
AcDbLine
 10
13399.300586309801
 20
-1560.120249397709
 11
13397.96084034765
 21
-1557.79974132202
  0
LINE
  5
7F
100
AcDbEntity
  8
1
  6
CONTINUOUS
 62
           7
100
AcDbLine
 10
13397.96084034765
 20
-1527.79974132202
 11
13399.300586309801
 21
-1525.479233246331
  0
LINE
  5
7E
100
AcDbEntity
  8
1
  6
CONTINUOUS
 62
           7
100
AcDbLine
 10
13413.96084034765
 20
-1560.120249397709
 11
13399.300586309801
 21
-1560.120249397709
  0
LINE
  5
7D
100
AcDbEntity
  8
1
  6
CONTINUOUS
 62
           7
100
AcDbLine
 10
13397.96084034765
 20
-1557.79974132202
 11
13397.96084034765
 21
-1527.79974132202
  0
LINE
  5
7C
100
AcDbEntity
  8
1
  6
CONTINUOUS
 62
           7
100
AcDbLine
 10
13399.300586309801
 20
-1525.479233246331
 11
13413.96084034765
 21
-1525.479233246331
  0
LINE
  5
7B
100
AcDbEntity
  8
1
  6
CONTINUOUS
 62
           7
100
AcDbLine
 10
13413.96084034765
 20
-1551.459995359865
 11
13399.300586309801
 21
-1551.459995359865
  0
LINE
  5
7A
100
AcDbEntity
  8
1
  6
CONTINUOUS
 62
           7
100
AcDbLine
 10
13413.96084034765
 20
-1534.139487284176
 11
13399.300586309801
 21
-1534.139487284176
  0
LINE
  5
79
100
AcDbEntity
  8
1
  6
DASH_CENTER
 62
           2
100
AcDbLine
 10
13417.96084034765
 20
-1542.79974132202
 11
13393.96084034765
 21
-1542.79974132202
  0
LINE
  5
78
100
AcDbEntity
  8
1
  6
CONTINUOUS
 62
           7
100
AcDbLine
 10
13498.96084034765
 20
-1347.676935875506
 11
13452.39342853408
 21
-1347.676935875506
  0
LINE
  5
77
100
AcDbEntity
  8
1
  6
CONTINUOUS
 62
           7
100
AcDbLine
 10
13413.96084034765
 20
-1522.79974132202
 11
13442.53700872843
 21
-1355.988448796877
  0
LINE
  5
76
100
AcDbEntity
  8
1
  6
CONTINUOUS
 62
           7
100
AcDbLine
 10
13413.96084034765
 20
-1522.79974132202
 11
13413.96084034765
 21
-1542.79974132202
  0
LINE
  5
75
100
AcDbEntity
  8
1
  6
CONTINUOUS
 62
           7
100
AcDbLine
 10
13452.39342853408
 20
-1737.922546768535
 11
13498.96084034765
 21
-1737.922546768535
  0
LINE
  5
74
100
AcDbEntity
  8
1
  6
CONTINUOUS
 62
           7
100
AcDbLine
 10
13442.53700872843
 20
-1729.611033847164
 11
13413.96084034765
 21
-1562.79974132202
  0
LINE
  5
73
100
AcDbEntity
  8
1
  6
CONTINUOUS
 62
           7
100
AcDbLine
 10
13413.96084034765
 20
-1542.79974132202
 11
13413.96084034765
 21
-1562.79974132202
  0
LINE
  5
72
100
AcDbEntity
  8
1
  6
CONTINUOUS
 62
           7
100
AcDbLine
 10
13442.53700872843
 20
-1729.611033847164
 11
13413.96084034765
 21
-1562.79974132202
  0
LINE
  5
71
100
AcDbEntity
  8
1
  6
CONTINUOUS
 62
           3
100
AcDbLine
 10
13397.96084034765
 20
-1534.152741322021
 11
13384.107840347649
 21
-1534.152741322021
  0
LINE
  5
70
100
AcDbEntity
  8
1
  6
CONTINUOUS
 62
           3
100
AcDbLine
 10
13397.96084034765
 20
-1551.44674132202
 11
13384.107840347649
 21
-1551.44674132202
  0
LINE
  5
6F
100
AcDbEntity
  8
1
  6
CONTINUOUS
 62
           7
100
AcDbLine
 10
13397.96084034765
 20
-1552.79974132202
 11
13385.46084034765
 21
-1552.79974132202
  0
LINE
  5
6E
100
AcDbEntity
  8
1
  6
CONTINUOUS
 62
           7
100
AcDbLine
 10
13385.46084034765
 20
-1552.79974132202
 11
13385.46084034765
 21
-1532.79974132202
  0
LINE
  5
6D
100
AcDbEntity
  8
1
  6
CONTINUOUS
 62
           7
100
AcDbLine
 10
13385.46084034765
 20
-1532.79974132202
 11
13397.96084034765
 21
-1532.79974132202
  0
LINE
  5
6C
100
AcDbEntity
  8
1
  6
CONTINUOUS
 62
           7
100
AcDbLine
 10
13382.96084034765
 20
-1535.29974132202
 11
13385.46084034765
 21
-1532.79974132202
  0
LINE
  5
6B
100
AcDbEntity
  8
1
  6
CONTINUOUS
 62
           7
100
AcDbLine
 10
13382.96084034765
 20
-1550.29974132202
 11
13382.96084034765
 21
-1535.29974132202
  0
LINE
  5
6A
100
AcDbEntity
  8
1
  6
CONTINUOUS
 62
           7
100
AcDbLine
 10
13385.46084034765
 20
-1552.79974132202
 11
13382.96084034765
 21
-1550.29974132202
  0
LINE
  5
69
100
AcDbEntity
  8
1
  6
CONTINUOUS
 62
           7
100
AcDbLine
 10
13397.96084034765
 20
-1557.79974132202
 11
13397.96084034765
 21
-1527.79974132202
  0
LINE
  5
68
100
AcDbEntity
  8
1
  6
CONTINUOUS
 62
           7
100
AcDbLine
 10
13397.96084034765
 20
-1527.79974132202
 11
13399.300586309801
 21
-1525.479233246331
  0
LINE
  5
67
100
AcDbEntity
  8
1
  6
CONTINUOUS
 62
           7
100
AcDbLine
 10
13399.300586309801
 20
-1560.120249397709
 11
13397.96084034765
 21
-1557.79974132202
  0
LINE
  5
66
100
AcDbEntity
  8
1
  6
CONTINUOUS
 62
           7
100
AcDbLine
 10
13478.96084034765
 20
-1517.79974132202
 11
13534.01394684188
 21
-1517.79974132202
  0
LINE
  5
65
100
AcDbEntity
  8
1
  6
CONTINUOUS
 62
           7
100
AcDbLine
 10
13478.96084034765
 20
-1567.79974132202
 11
13534.01394684188
 21
-1567.79974132202
  0
LINE
  5
64
100
AcDbEntity
  8
1
  6
CONTINUOUS
 62
           7
100
AcDbLine
 10
13478.96084034765
 20
-1517.79974132202
 11
13478.96084034765
 21
-1567.79974132202
  0
LINE
  5
63
100
AcDbEntity
  8
1
  6
CONTINUOUS
 62
           3
100
AcDbLine
 10
13478.84585608248
 20
-1534.152741322021
 11
13473.96084034765
 21
-1534.152741322021
  0
LINE
  5
62
100
AcDbEntity
  8
1
  6
CONTINUOUS
 62
           3
100
AcDbLine
 10
13478.84585608248
 20
-1551.44674132202
 11
13473.96084034765
 21
-1551.44674132202
  0
LINE
  5
61
100
AcDbEntity
  8
1
  6
CONTINUOUS
 62
           7
100
AcDbLine
 10
13478.84585608248
 20
-1552.79974132202
 11
13473.96084034765
 21
-1552.79974132202
  0
LINE
  5
60
100
AcDbEntity
  8
1
  6
CONTINUOUS
 62
           7
100
AcDbLine
 10
13473.96084034765
 20
-1532.79974132202
 11
13478.84585608248
 21
-1532.79974132202
  0
LINE
  5
5F
100
AcDbEntity
  8
1
  6
DOT_CENTER
 62
           2
100
AcDbLine
 10
13325.342619429861
 20
-1542.79974132202
 11
13645.485028984869
 21
-1542.79974132202
  0
LINE
  5
5E
100
AcDbEntity
  8
1
  6
DOT_CENTER
 62
           2
100
AcDbLine
 10
11273.954276662809
 20
-2990.153907693613
 11
11273.954276662809
 21
-3130.491558348484
  0
LINE
  5
5D
100
AcDbEntity
  8
1
  6
CONTINUOUS
 62
           3
100
AcDbLine
 10
11282.60127666281
 20
-3012.270324220034
 11
11282.60127666281
 21
-2998.417324220033
  0
LINE
  5
5C
100
AcDbEntity
  8
1
  6
CONTINUOUS
 62
           3
100
AcDbLine
 10
11265.30727666281
 20
-3012.270324220034
 11
11265.30727666281
 21
-2998.417324220033
  0
LINE
  5
5B
100
AcDbEntity
  8
1
  6
CONTINUOUS
 62
           7
100
AcDbLine
 10
11263.954276662809
 20
-3012.270324220034
 11
11263.954276662809
 21
-2999.770324220034
  0
LINE
  5
5A
100
AcDbEntity
  8
1
  6
CONTINUOUS
 62
           7
100
AcDbLine
 10
11263.954276662809
 20
-2999.770324220034
 11
11283.954276662809
 21
-2999.770324220034
  0
LINE
  5
59
100
AcDbEntity
  8
1
  6
CONTINUOUS
 62
           7
100
AcDbLine
 10
11283.954276662809
 20
-2999.770324220034
 11
11283.954276662809
 21
-3012.270324220034
  0
LINE
  5
58
100
AcDbEntity
  8
1
  6
CONTINUOUS
 62
           7
100
AcDbLine
 10
11281.454276662809
 20
-2997.270324220034
 11
11283.954276662809
 21
-2999.770324220034
  0
LINE
  5
57
100
AcDbEntity
  8
1
  6
CONTINUOUS
 62
           7
100
AcDbLine
 10
11266.454276662809
 20
-2997.270324220034
 11
11281.454276662809
 21
-2997.270324220034
  0
LINE
  5
56
100
AcDbEntity
  8
1
  6
CONTINUOUS
 62
           7
100
AcDbLine
 10
11263.954276662809
 20
-2999.770324220034
 11
11266.454276662809
 21
-2997.270324220034
  0
LINE
  5
55
100
AcDbEntity
  8
1
  6
CONTINUOUS
 62
           7
100
AcDbLine
 10
11282.614530700661
 20
-3028.270324220034
 11
11282.614530700661
 21
-3013.610070182191
  0
LINE
  5
54
100
AcDbEntity
  8
1
  6
CONTINUOUS
 62
           7
100
AcDbLine
 10
11265.29402262497
 20
-3028.270324220034
 11
11265.29402262497
 21
-3013.610070182191
  0
LINE
  5
53
100
AcDbEntity
  8
1
  6
CONTINUOUS
 62
           7
100
AcDbLine
 10
11291.2747847385
 20
-3013.610070182191
 11
11291.2747847385
 21
-3028.270324220034
  0
LINE
  5
52
100
AcDbEntity
  8
1
  6
CONTINUOUS
 62
           7
100
AcDbLine
 10
11258.954276662809
 20
-3012.270324220034
 11
11288.954276662809
 21
-3012.270324220034
  0
LINE
  5
51
100
AcDbEntity
  8
1
  6
CONTINUOUS
 62
           7
100
AcDbLine
 10
11256.63376858712
 20
-3028.270324220034
 11
11256.63376858712
 21
-3013.610070182191
  0
LINE
  5
50
100
AcDbEntity
  8
1
  6
CONTINUOUS
 62
           7
100
AcDbLine
 10
11288.954276662809
 20
-3012.270324220034
 11
11291.2747847385
 21
-3013.610070182191
  0
LINE
  5
4F
100
AcDbEntity
  8
1
  6
CONTINUOUS
 62
           7
100
AcDbLine
 10
11256.63376858712
 20
-3013.610070182191
 11
11258.954276662809
 21
-3012.270324220034
  0
LINE
  5
4E
100
AcDbEntity
  8
1
  6
CONTINUOUS
 62
           7
100
AcDbLine
 10
11256.63376858712
 20
-3028.270324220034
 11
11291.2747847385
 21
-3028.270324220034
  0
LINE
  5
4D
100
AcDbEntity
  8
1
  6
CONTINUOUS
 62
           7
100
AcDbLine
 10
11292.12685228285
 20
-3031.416336160403
 11
11290.32571378761
 21
-3053.270324220034
  0
LINE
  5
4C
100
AcDbEntity
  8
1
  6
CONTINUOUS
 62
           7
100
AcDbLine
 10
11257.582839538019
 20
-3053.270324220034
 11
11255.781701042781
 21
-3031.416336160403
  0
LINE
  5
4B
100
AcDbEntity
  8
1
  6
CONTINUOUS
 62
           7
100
AcDbLine
 10
11253.954276662809
 20
-3033.270324220034
 11
11253.954276662809
 21
-3113.078044409722
  0
LINE
  5
4A
100
AcDbEntity
  8
1
  6
CONTINUOUS
 62
           7
100
AcDbLine
 10
11293.95229283104
 20
-3033.270324220034
 11
11293.95229283104
 21
-3119.136794322427
  0
LINE
  5
49
100
AcDbEntity
  8
1
  6
CONTINUOUS
 62
           7
100
AcDbLine
 10
11258.954276662809
 20
-3028.270324220034
 11
11288.95229283104
 21
-3028.270324220034
  0
LINE
  5
48
100
AcDbEntity
  8
1
  6
CONTINUOUS
 62
           7
100
AcDbLine
 10
11256.45601251562
 20
-3058.270324220034
 11
11256.45601251562
 21
-3113.384614929758
  0
LINE
  5
47
100
AcDbEntity
  8
1
  6
CONTINUOUS
 62
           7
100
AcDbLine
 10
11291.454276662809
 20
-3058.270324220034
 11
11291.454276662809
 21
-3118.6855388121
  0
LINE
  5
46
100
AcDbEntity
  8
1
  6
CONTINUOUS
 62
           7
100
AcDbLine
 10
11261.45601251562
 20
-3053.270324220034
 11
11286.454276662809
 21
-3053.270324220034
  0
LINE
  5
45
100
AcDbEntity
  8
1
  6
CONTINUOUS
 62
           7
100
AcDbLine
 10
11061.454276662809
 20
-3053.270324220034
 11
11086.452540810011
 21
-3053.270324220034
  0
LINE
  5
44
100
AcDbEntity
  8
1
  6
CONTINUOUS
 62
           7
100
AcDbLine
 10
11058.95626049459
 20
-3028.270324220034
 11
11088.954276662809
 21
-3028.270324220034
  0
LINE
  5
43
100
AcDbEntity
  8
1
  6
CONTINUOUS
 62
           7
100
AcDbLine
 10
11092.12685228285
 20
-3031.416336160403
 11
11090.32571378761
 21
-3053.270324220034
  0
LINE
  5
42
100
AcDbEntity
  8
1
  6
CONTINUOUS
 62
           7
100
AcDbLine
 10
11057.582839538019
 20
-3053.270324220034
 11
11055.781701042781
 21
-3031.416336160403
  0
LINE
  5
41
100
AcDbEntity
  8
1
  6
CONTINUOUS
 62
           7
100
AcDbLine
 10
11056.63376858712
 20
-3028.270324220034
 11
11091.2747847385
 21
-3028.270324220034
  0
LINE
  5
40
100
AcDbEntity
  8
1
  6
CONTINUOUS
 62
           7
100
AcDbLine
 10
11088.954276662809
 20
-3012.270324220034
 11
11091.2747847385
 21
-3013.610070182191
  0
LINE
  5
3F
100
AcDbEntity
  8
1
  6
CONTINUOUS
 62
           7
100
AcDbLine
 10
11056.63376858712
 20
-3013.610070182191
 11
11058.954276662809
 21
-3012.270324220034
  0
LINE
  5
3E
100
AcDbEntity
  8
1
  6
CONTINUOUS
 62
           7
100
AcDbLine
 10
11091.2747847385
 20
-3013.610070182191
 11
11091.2747847385
 21
-3028.270324220034
  0
LINE
  5
3D
100
AcDbEntity
  8
1
  6
CONTINUOUS
 62
           7
100
AcDbLine
 10
11058.954276662809
 20
-3012.270324220034
 11
11088.954276662809
 21
-3012.270324220034
  0
LINE
  5
3C
100
AcDbEntity
  8
1
  6
CONTINUOUS
 62
           7
100
AcDbLine
 10
11056.63376858712
 20
-3028.270324220034
 11
11056.63376858712
 21
-3013.610070182191
  0
LINE
  5
3B
100
AcDbEntity
  8
1
  6
CONTINUOUS
 62
           7
100
AcDbLine
 10
11082.614530700661
 20
-3013.610070182191
 11
11082.614530700661
 21
-3028.270324220034
  0
LINE
  5
3A
100
AcDbEntity
  8
1
  6
CONTINUOUS
 62
           7
100
AcDbLine
 10
11065.29402262497
 20
-3013.610070182191
 11
11065.29402262497
 21
-3028.270324220034
  0
LINE
  5
39
100
AcDbEntity
  8
1
  6
CONTINUOUS
 62
           7
100
AcDbLine
 10
11081.454276662809
 20
-2997.270324220034
 11
11083.954276662809
 21
-2999.770324220034
  0
LINE
  5
38
100
AcDbEntity
  8
1
  6
CONTINUOUS
 62
           7
100
AcDbLine
 10
11066.454276662809
 20
-2997.270324220034
 11
11081.454276662809
 21
-2997.270324220034
  0
LINE
  5
37
100
AcDbEntity
  8
1
  6
CONTINUOUS
 62
           7
100
AcDbLine
 10
11063.954276662809
 20
-2999.770324220034
 11
11066.454276662809
 21
-2997.270324220034
  0
LINE
  5
36
100
AcDbEntity
  8
1
  6
CONTINUOUS
 62
           7
100
AcDbLine
 10
11063.954276662809
 20
-3012.270324220034
 11
11063.954276662809
 21
-2999.770324220034
  0
LINE
  5
35
100
AcDbEntity
  8
1
  6
CONTINUOUS
 62
           7
100
AcDbLine
 10
11063.954276662809
 20
-2999.770324220034
 11
11083.954276662809
 21
-2999.770324220034
  0
LINE
  5
34
100
AcDbEntity
  8
1
  6
CONTINUOUS
 62
           7
100
AcDbLine
 10
11083.954276662809
 20
-2999.770324220034
 11
11083.954276662809
 21
-3012.270324220034
  0
LINE
  5
33
100
AcDbEntity
  8
1
  6
CONTINUOUS
 62
           3
100
AcDbLine
 10
11082.60127666281
 20
-2998.417324220033
 11
11082.60127666281
 21
-3012.270324220034
  0
LINE
  5
32
100
AcDbEntity
  8
1
  6
CONTINUOUS
 62
           3
100
AcDbLine
 10
11065.30727666281
 20
-2998.417324220033
 11
11065.30727666281
 21
-3012.270324220034
  0
LINE
  5
31
100
AcDbEntity
  8
1
  6
DOT_CENTER
 62
           2
100
AcDbLine
 10
11073.954276662809
 20
-3130.491558348484
 11
11073.954276662809
 21
-2990.153907693613
  0
LINE
  5
30
100
AcDbEntity
  8
1
  6
CONTINUOUS
 62
           7
100
AcDbLine
 10
11093.954276662809
 20
-3113.07804440972
 11
11093.954276662809
 21
-3033.270324220034
  0
LINE
  5
2F
100
AcDbEntity
  8
1
  6
CONTINUOUS
 62
           7
100
AcDbLine
 10
11091.452540810011
 20
-3113.384614929755
 11
11091.452540810011
 21
-3058.270324220034
  0
LINE
  5
2E
100
AcDbEntity
  8
1
  6
CONTINUOUS
 62
           7
100
AcDbLine
 10
11056.454276662809
 20
-3118.685538812098
 11
11056.454276662809
 21
-3058.270324220034
  0
LINE
  5
2D
100
AcDbEntity
  8
1
  6
CONTINUOUS
 62
           7
100
AcDbLine
 10
11053.95626049459
 20
-3119.136794322424
 11
11053.95626049459
 21
-3033.270324220034
  0
POINT
  5
2C
100
AcDbEntity
  8
1
 62
           6
100
AcDbPoint
 10
10363.295724095869
 20
-837.140911103907
  0
POINT
  5
2B
100
AcDbEntity
  8
976
 62
           6
100
AcDbPoint
 10
11461.18564821496
 20
290.082567825958
  0
ENDBLK
  5
489
100
AcDbEntity
  8
0
100
AcDbBlockEnd
  0
ENDSEC
  0
SECTION
  2
ENTITIES
  0
TEXT
  5
48C
100
AcDbEntity
  8
1
 62
           2
100
AcDbText
 10
16490.277128906131
 20
-4366.656868680892
 40
52.5
  1
SAT-3001C-85
 41
0.9
  7
CONVERTER_1
100
AcDbText
  0
INSERT
  5
2A
100
AcDbEntity
  8
0
100
AcDbBlockReference
  2
SAT3001C85__1
 10
0.0
 20
0.0
  0
ENDSEC
  0
SECTION
  2
OBJECTS
  0
DICTIONARY
  5
19
100
AcDbDictionary
  3
ACAD_GROUP
350
1A
  3
ACAD_MLINESTYLE
350
1B
  0
DICTIONARY
  5
1A
102
{ACAD_REACTORS
330
19
102
}
100
AcDbDictionary
  0
DICTIONARY
  5
1B
102
{ACAD_REACTORS
330
19
102
}
100
AcDbDictionary
  3
STANDARD
350
1C
  0
MLINESTYLE
  5
1C
102
{ACAD_REACTORS
330
1B
102
}
100
AcDbMlineStyle
  2
STANDARD
 70
           0
  3

 62
           0
 51
90.0
 52
90.0
 71
           2
 49
0.5
 62
         256
  6
BYLAYER
 49
-0.5
 62
         256
  6
BYLAYER
  0
ENDSEC
  0
EOF
